  0
SECTION
  2
HEADER
  9
$ACADVER
  1
AC1015
  9
$ACADMAINTVER
 70
     6
  9
$DWGCODEPAGE
  3
ANSI_932
  9
$INSBASE
 10
0.0
 20
0.0
 30
0.0
  9
$EXTMIN
 10
46.29317487827916
 20
1261.790537777682
 30
0.0
  9
$EXTMAX
 10
193.9883514727135
 20
1431.67145581454
 30
0.0
  9
$LIMMIN
 10
0.0
 20
0.0
  9
$LIMMAX
 10
420.0
 20
297.0
  9
$ORTHOMODE
 70
     1
  9
$REGENMODE
 70
     1
  9
$FILLMODE
 70
     1
  9
$QTEXTMODE
 70
     0
  9
$MIRRTEXT
 70
     1
  9
$LTSCALE
 40
5.0
  9
$ATTMODE
 70
     0
  9
$TEXTSIZE
 40
12.0
  9
$TRACEWID
 40
1.0
  9
$TEXTSTYLE
  7
STANDARD
  9
$CLAYER
  8
寸法線
  9
$CELTYPE
  6
BYLAYER
  9
$CECOLOR
 62
   256
  9
$CELTSCALE
 40
1.0
  9
$DISPSILH
 70
     0
  9
$DIMSCALE
 40
1.0
  9
$DIMASZ
 40
2.5
  9
$DIMEXO
 40
1.5
  9
$DIMDLI
 40
7.0
  9
$DIMRND
 40
0.0
  9
$DIMDLE
 40
0.0
  9
$DIMEXE
 40
1.0
  9
$DIMTP
 40
0.0
  9
$DIMTM
 40
0.0
  9
$DIMTXT
 40
3.0
  9
$DIMCEN
 40
0.0
  9
$DIMTSZ
 40
0.0
  9
$DIMTOL
 70
     0
  9
$DIMLIM
 70
     0
  9
$DIMTIH
 70
     0
  9
$DIMTOH
 70
     0
  9
$DIMSE1
 70
     0
  9
$DIMSE2
 70
     0
  9
$DIMTAD
 70
     3
  9
$DIMZIN
 70
     8
  9
$DIMBLK
  1
Open30
  9
$DIMASO
 70
     1
  9
$DIMSHO
 70
     0
  9
$DIMPOST
  1

  9
$DIMAPOST
  1

  9
$DIMALT
 70
     0
  9
$DIMALTD
 70
     0
  9
$DIMALTF
 40
25.4
  9
$DIMLFAC
 40
1.0
  9
$DIMTOFL
 70
     1
  9
$DIMTVP
 40
0.0
  9
$DIMTIX
 70
     0
  9
$DIMSOXD
 70
     0
  9
$DIMSAH
 70
     0
  9
$DIMBLK1
  1

  9
$DIMBLK2
  1

  9
$DIMSTYLE
  2
STANDARD
  9
$DIMCLRD
 70
     8
  9
$DIMCLRE
 70
     8
  9
$DIMCLRT
 70
   256
  9
$DIMTFAC
 40
1.0
  9
$DIMGAP
 40
1.0
  9
$DIMJUST
 70
     0
  9
$DIMSD1
 70
     0
  9
$DIMSD2
 70
     0
  9
$DIMTOLJ
 70
     1
  9
$DIMTZIN
 70
     0
  9
$DIMALTZ
 70
     0
  9
$DIMALTTZ
 70
     0
  9
$DIMUPT
 70
     0
  9
$DIMDEC
 70
     2
  9
$DIMTDEC
 70
     2
  9
$DIMALTU
 70
     2
  9
$DIMALTTD
 70
     0
  9
$DIMTXSTY
  7
STANDARD
  9
$DIMAUNIT
 70
     0
  9
$DIMADEC
 70
     2
  9
$DIMALTRND
 40
0.0
  9
$DIMAZIN
 70
     2
  9
$DIMDSEP
 70
    46
  9
$DIMATFIT
 70
     3
  9
$DIMFRAC
 70
     0
  9
$DIMLDRBLK
  1
Open30
  9
$DIMLUNIT
 70
     2
  9
$DIMLWD
 70
    -2
  9
$DIMLWE
 70
    -2
  9
$DIMTMOVE
 70
     0
  9
$LUNITS
 70
     2
  9
$LUPREC
 70
     2
  9
$SKETCHINC
 40
0.1
  9
$FILLETRAD
 40
1.0
  9
$AUNITS
 70
     0
  9
$AUPREC
 70
     1
  9
$MENU
  1
FM
  9
$ELEVATION
 40
0.0
  9
$PELEVATION
 40
0.0
  9
$THICKNESS
 40
0.0
  9
$LIMCHECK
 70
     0
  9
$CHAMFERA
 40
0.0
  9
$CHAMFERB
 40
0.0
  9
$CHAMFERC
 40
0.0
  9
$CHAMFERD
 40
0.0
  9
$SKPOLY
 70
     0
  9
$TDCREATE
 40
2448636.619629618
  9
$TDUCREATE
 40
2448636.244629618
  9
$TDUPDATE
 40
2457437.741864908
  9
$TDUUPDATE
 40
2457437.366864908
  9
$TDINDWG
 40
19.6351375926
  9
$TDUSRTIMER
 40
2457437.366516655
  9
$USRTIMER
 70
     1
  9
$ANGBASE
 50
0.0
  9
$ANGDIR
 70
     0
  9
$PDMODE
 70
     3
  9
$PDSIZE
 40
0.0
  9
$PLINEWID
 40
0.0
  9
$SPLFRAME
 70
     0
  9
$SPLINETYPE
 70
     6
  9
$SPLINESEGS
 70
     8
  9
$HANDSEED
  5
70F15
  9
$SURFTAB1
 70
     6
  9
$SURFTAB2
 70
     6
  9
$SURFTYPE
 70
     6
  9
$SURFU
 70
     6
  9
$SURFV
 70
     6
  9
$UCSBASE
  2

  9
$UCSNAME
  2

  9
$UCSORG
 10
0.0
 20
0.0
 30
0.0
  9
$UCSXDIR
 10
1.0
 20
0.0
 30
0.0
  9
$UCSYDIR
 10
0.0
 20
1.0
 30
0.0
  9
$UCSORTHOREF
  2

  9
$UCSORTHOVIEW
 70
     0
  9
$UCSORGTOP
 10
0.0
 20
0.0
 30
0.0
  9
$UCSORGBOTTOM
 10
0.0
 20
0.0
 30
0.0
  9
$UCSORGLEFT
 10
0.0
 20
0.0
 30
0.0
  9
$UCSORGRIGHT
 10
0.0
 20
0.0
 30
0.0
  9
$UCSORGFRONT
 10
0.0
 20
0.0
 30
0.0
  9
$UCSORGBACK
 10
0.0
 20
0.0
 30
0.0
  9
$PUCSBASE
  2

  9
$PUCSNAME
  2

  9
$PUCSORG
 10
0.0
 20
0.0
 30
0.0
  9
$PUCSXDIR
 10
1.0
 20
0.0
 30
0.0
  9
$PUCSYDIR
 10
0.0
 20
1.0
 30
0.0
  9
$PUCSORTHOREF
  2

  9
$PUCSORTHOVIEW
 70
     0
  9
$PUCSORGTOP
 10
0.0
 20
0.0
 30
0.0
  9
$PUCSORGBOTTOM
 10
0.0
 20
0.0
 30
0.0
  9
$PUCSORGLEFT
 10
0.0
 20
0.0
 30
0.0
  9
$PUCSORGRIGHT
 10
0.0
 20
0.0
 30
0.0
  9
$PUCSORGFRONT
 10
0.0
 20
0.0
 30
0.0
  9
$PUCSORGBACK
 10
0.0
 20
0.0
 30
0.0
  9
$USERI1
 70
     0
  9
$USERI2
 70
     0
  9
$USERI3
 70
     0
  9
$USERI4
 70
     0
  9
$USERI5
 70
     0
  9
$USERR1
 40
0.0
  9
$USERR2
 40
0.0
  9
$USERR3
 40
0.0
  9
$USERR4
 40
0.0
  9
$USERR5
 40
0.0
  9
$WORLDVIEW
 70
     0
  9
$SHADEDGE
 70
     3
  9
$SHADEDIF
 70
    70
  9
$TILEMODE
 70
     1
  9
$MAXACTVP
 70
    16
  9
$PINSBASE
 10
0.0
 20
0.0
 30
0.0
  9
$PLIMCHECK
 70
     0
  9
$PEXTMIN
 10
0.0
 20
0.0
 30
0.0
  9
$PEXTMAX
 10
0.0
 20
0.0
 30
0.0
  9
$PLIMMIN
 10
0.0
 20
0.0
  9
$PLIMMAX
 10
0.0
 20
0.0
  9
$UNITMODE
 70
     0
  9
$VISRETAIN
 70
     0
  9
$PLINEGEN
 70
     0
  9
$PSLTSCALE
 70
     0
  9
$TREEDEPTH
 70
  3020
  9
$CMLSTYLE
  2
STANDARD
  9
$CMLJUST
 70
     0
  9
$CMLSCALE
 40
1.0
  9
$PROXYGRAPHICS
 70
     1
  9
$MEASUREMENT
 70
     0
  9
$CELWEIGHT
370
    -1
  9
$ENDCAPS
280
     0
  9
$JOINSTYLE
280
     0
  9
$LWDISPLAY
290
     0
  9
$INSUNITS
 70
     0
  9
$HYPERLINKBASE
  1

  9
$STYLESHEET
  1
spax form.ctb
  9
$XEDIT
290
     1
  9
$CEPSNTYPE
380
     0
  9
$PSTYLEMODE
290
     1
  9
$FINGERPRINTGUID
  2
{E5B35D22-A717-11D3-9160-00E0294F7E09}
  9
$VERSIONGUID
  2
{9B12813A-47D3-40B2-BDC0-B7ACEF125A17}
  9
$EXTNAMES
290
     1
  9
$PSVPSCALE
 40
0.0
  9
$OLESTARTUP
290
     0
  0
ENDSEC
  0
SECTION
  2
CLASSES
  0
CLASS
  1
LWPOLYLINE
  2
AcDbPolyline
  3
ObjectDBX Classes
 90
        0
280
     0
281
     1
  0
CLASS
  1
ACDBDICTIONARYWDFLT
  2
AcDbDictionaryWithDefault
  3
ObjectDBX Classes
 90
        0
280
     0
281
     0
  0
CLASS
  1
ACDBPLACEHOLDER
  2
AcDbPlaceHolder
  3
ObjectDBX Classes
 90
        0
280
     0
281
     0
  0
CLASS
  1
LAYOUT
  2
AcDbLayout
  3
ObjectDBX Classes
 90
        0
280
     0
281
     0
  0
CLASS
  1
DICTIONARYVAR
  2
AcDbDictionaryVar
  3
ObjectDBX Classes
 90
        0
280
     0
281
     0
  0
CLASS
  1
MATERIAL
  2
AcDbMaterial
  3
ObjectDBX Classes
 90
     1153
280
     0
281
     0
  0
CLASS
  1
SORTENTSTABLE
  2
AcDbSortentsTable
  3
ObjectDBX Classes
 90
        0
280
     0
281
     0
  0
CLASS
  1
VISUALSTYLE
  2
AcDbVisualStyle
  3
ObjectDBX Classes
 90
     4095
280
     0
281
     0
  0
CLASS
  1
TABLESTYLE
  2
AcDbTableStyle
  3
ObjectDBX Classes
 90
     4095
280
     0
281
     0
  0
CLASS
  1
SCALE
  2
AcDbScale
  3
ObjectDBX Classes
 90
     1153
280
     0
281
     0
  0
CLASS
  1
MLEADERSTYLE
  2
AcDbMLeaderStyle
  3
ACDB_MLEADERSTYLE_CLASS
 90
     4095
280
     0
281
     0
  0
CLASS
  1
CELLSTYLEMAP
  2
AcDbCellStyleMap
  3
ObjectDBX Classes
 90
     1152
280
     0
281
     0
  0
CLASS
  1
RASTERVARIABLES
  2
AcDbRasterVariables
  3
ISM
 90
        0
280
     0
281
     0
  0
CLASS
  1
AEC_VARS_DWG_SETUP
  2
AecDbVarsDwgSetup
  3
AecBase60
 90
      129
280
     0
281
     0
  0
CLASS
  1
AEC_DISP_REP_2D_SECTION
  2
AecDbDispRep2dSection
  3
AecBase60
 90
      129
280
     0
281
     0
  0
CLASS
  1
AEC_DISP_PROPS_2D_SECTION
  2
AecDbDispProps2dSection
  3
AecBase60
 90
      129
280
     0
281
     0
  0
CLASS
  1
AEC_DISP_REP_CLIP_VOLUME_MODEL
  2
AecDbDispRepClipVolModel
  3
AecBase60
 90
      129
280
     0
281
     0
  0
CLASS
  1
AEC_DISP_PROPS_CLIP_VOLUME
  2
AecDbDispPropsClipVol
  3
AecBase60
 90
      129
280
     0
281
     0
  0
CLASS
  1
AEC_DISP_REP_CLIP_VOLUME_PLAN
  2
AecDbDispRepClipVolPlan
  3
AecBase60
 90
      129
280
     0
281
     0
  0
CLASS
  1
AEC_DISP_REP_CLIP_VOLUME_RESULT
  2
AecDbDispRepClipVolResult
  3
AecBase60
 90
      129
280
     0
281
     0
  0
CLASS
  1
AEC_DISP_REP_CLIP_VOLUME_RESULT_SUBDIV
  2
AecDbDispRepClipVolResSubDiv
  3
AecBase60
 90
      129
280
     0
281
     0
  0
CLASS
  1
AEC_DISP_PROPS_CLIP_VOLUME_RESULT
  2
AecDbDispPropsClipVolResSubDiv
  3
AecBase60
 90
      129
280
     0
281
     0
  0
CLASS
  1
AEC_DISP_REP_DISPLAYTHEME
  2
AecDbDispRepDisplayTheme
  3
AecBase60
 90
      129
280
     0
281
     0
  0
CLASS
  1
AEC_DISP_PROPS_DISPLAYTHEME
  2
AecDbDispPropsDisplayTheme
  3
AecBase60
 90
      129
280
     0
281
     0
  0
CLASS
  1
AEC_DISP_REP_ENT_REF
  2
AecDbDispRepEntRef
  3
AecBase60
 90
      129
280
     0
281
     0
  0
CLASS
  1
AEC_DISP_PROPS_ENT_REF
  2
AecDbDispPropsEntRef
  3
AecBase60
 90
      129
280
     0
281
     0
  0
CLASS
  1
AEC_DISP_REP_LAYOUT_CURVE
  2
AecDbDispRepLayoutCurve
  3
AecBase60
 90
      129
280
     0
281
     0
  0
CLASS
  1
AEC_DISP_PROPS_LAYOUT_CURVE
  2
AecDbDispPropsLayoutCurve
  3
AecBase60
 90
      129
280
     0
281
     0
  0
CLASS
  1
AEC_DISP_REP_LAYOUT_GRID2D
  2
AecDbDispRepLayoutGrid2d
  3
AecBase60
 90
      129
280
     0
281
     0
  0
CLASS
  1
AEC_DISP_PROPS_LAYOUT_GRID2D
  2
AecDbDispPropsLayoutGrid2d
  3
AecBase60
 90
      129
280
     0
281
     0
  0
CLASS
  1
AEC_DISP_REP_LAYOUT_GRID3D
  2
AecDbDispRepLayoutGrid3d
  3
AecBase60
 90
      129
280
     0
281
     0
  0
CLASS
  1
AEC_DISP_PROPS_LAYOUT_GRID3D
  2
AecDbDispPropsLayoutGrid3d
  3
AecBase60
 90
      129
280
     0
281
     0
  0
CLASS
  1
AEC_DISP_REP_MASKBLOCK_REF
  2
AecDbDispRepMaskBlockRef
  3
AecBase60
 90
      129
280
     0
281
     0
  0
CLASS
  1
AEC_DISP_PROPS_MASKBLOCK
  2
AecDbDispPropsMaskBlock
  3
AecBase60
 90
      129
280
     0
281
     0
  0
CLASS
  1
AEC_DISP_REP_MASKBLOCK_REF_RCP
  2
AecDbDispRepMaskBlockRefRcp
  3
AecArchBase60
 90
      129
280
     0
281
     0
  0
CLASS
  1
AEC_DISP_REP_MASS_ELEM_MODEL
  2
AecDbDispRepMassElemModel
  3
AecBase60
 90
      129
280
     0
281
     0
  0
CLASS
  1
AEC_DISP_PROPS_MASS_ELEM_MODEL
  2
AecDbDispPropsMassElem
  3
AecBase60
 90
      129
280
     0
281
     0
  0
CLASS
  1
AEC_DISP_REP_MASS_ELEM_SCHEM
  2
AecDbDispRepMassElemSchem
  3
AecBase60
 90
      129
280
     0
281
     0
  0
CLASS
  1
AEC_DISPREPAECDBDISPREPMASSELEMPLAN50
  2
AecDbDispRepMassElemPlan50
  3
AecArchDACHBase60
 90
      129
280
     0
281
     0
  0
CLASS
  1
AEC_DISPROPSMASSELEMPLANCOMMON
  2
AecDbDispPropsMassElemPlanCommon
  3
AecArchDACHBase60
 90
      129
280
     0
281
     0
  0
CLASS
  1
AEC_DISPREPAECDBDISPREPMASSELEMPLAN100
  2
AecDbDispRepMassElemPlan100
  3
AecArchDACHBase60
 90
      129
280
     0
281
     0
  0
CLASS
  1
AEC_DISP_REP_MASS_ELEM_RCP
  2
AecDbDispRepMassElemRcp
  3
AecArchBase60
 90
      129
280
     0
281
     0
  0
CLASS
  1
AEC_DISP_REP_MASS_GROUP_MODEL
  2
AecDbDispRepMassGroupModel
  3
AecBase60
 90
      129
280
     0
281
     0
  0
CLASS
  1
AEC_DISP_PROPS_MASS_GROUP
  2
AecDbDispPropsMassGroup
  3
AecBase60
 90
      129
280
     0
281
     0
  0
CLASS
  1
AEC_DISP_REP_MASS_GROUP_PLAN
  2
AecDbDispRepMassGroupPlan
  3
AecBase60
 90
      129
280
     0
281
     0
  0
CLASS
  1
AEC_DISPREPAECDBDISPREPMASSGROUPPLAN50
  2
AecDbDispRepMassGroupPlan50
  3
AecArchDACHBase60
 90
      129
280
     0
281
     0
  0
CLASS
  1
AEC_DISPROPSMASSGROUPPLANCOMMON
  2
AecDbDispPropsMassGroupPlanCommon
  3
AecArchDACHBase60
 90
      129
280
     0
281
     0
  0
CLASS
  1
AEC_DISPREPAECDBDISPREPMASSGROUPPLAN100
  2
AecDbDispRepMassGroupPlan100
  3
AecArchDACHBase60
 90
      129
280
     0
281
     0
  0
CLASS
  1
AEC_DISP_REP_MASS_GROUP_RCP
  2
AecDbDispRepMassGroupRcp
  3
AecArchBase60
 90
      129
280
     0
281
     0
  0
CLASS
  1
AEC_DISP_REP_MVBLOCK_REF
  2
AecDbDispRepMvBlockRef
  3
AecBase60
 90
      129
280
     0
281
     0
  0
CLASS
  1
AEC_DISP_REP_MVBLOCK_REF_MODEL
  2
AecDbDispRepMvBlockRefModel
  3
AecBase60
 90
      129
280
     0
281
     0
  0
CLASS
  1
AEC_AECDBDISPREPMVBLOCKREFPLAN100
  2
AecDbDispRepMvBlockRefPlan100
  3
AecBase60
 90
      129
280
     0
281
     0
  0
CLASS
  1
AEC_AECDBDISPREPMVBLOCKREFPLAN50
  2
AecDbDispRepMvBlockRefPlan50
  3
AecBase60
 90
      129
280
     0
281
     0
  0
CLASS
  1
AEC_DISP_REP_POLYGON_MODEL
  2
AecDbDispRepPolygonModel
  3
AecBase60
 90
      129
280
     0
281
     0
  0
CLASS
  1
AEC_DISP_PROPS_POLYGON_MODEL
  2
AecDbDispPropsPolygonModel
  3
AecBase60
 90
      129
280
     0
281
     0
  0
CLASS
  1
AEC_DISP_REP_POLYGON_TRUECOLOUR
  2
AecDbDispRepPolygonTrueColour
  3
AecBase60
 90
      129
280
     0
281
     0
  0
CLASS
  1
AEC_DISP_PROPS_POLYGON_TRUECOLOUR
  2
AecDbDispPropsPolygonTrueColour
  3
AecBase60
 90
      129
280
     0
281
     0
  0
CLASS
  1
AEC_DISP_REP_SLICE
  2
AecDbDispRepSlice
  3
AecBase60
 90
      129
280
     0
281
     0
  0
CLASS
  1
AEC_DISP_PROPS_SLICE
  2
AecDbDispPropsSlice
  3
AecBase60
 90
      129
280
     0
281
     0
  0
CLASS
  1
AEC_DISP_REP_ANCHOR
  2
AecDbDispRepAnchor
  3
AecBase60
 90
      129
280
     0
281
     0
  0
CLASS
  1
AEC_DISP_REP_ANCHOR_ENT_TO_NODE
  2
AecDbDispRepAnchorEntToNode
  3
AecBase60
 90
      129
280
     0
281
     0
  0
CLASS
  1
AEC_DISP_PROPS_ENT
  2
AecDbDispPropsEnt
  3
AecBase60
 90
      129
280
     0
281
     0
  0
CLASS
  1
AEC_DISP_REP_MATERIAL
  2
AecDbDispRepMaterial
  3
AecBase60
 90
      129
280
     0
281
     0
  0
CLASS
  1
AEC_DISP_PROPS_MATERIAL
  2
AecDbDispPropsMaterial
  3
AecBase60
 90
      129
280
     0
281
     0
  0
CLASS
  1
AEC_DISP_REP_EDITINPLACEPROFILE
  2
AecDbDispRepEditInPlaceProfile
  3
AecBase60
 90
      129
280
     0
281
     0
  0
CLASS
  1
AEC_DISP_PROPS_EDITINPLACEPROFILE_MODEL
  2
AecDbDispPropsEditInPlaceProfile
  3
AecBase60
 90
      129
280
     0
281
     0
  0
CLASS
  1
SUN
  2
AcDbSun
  3
SCENEOE
 90
     1153
280
     0
281
     0
  0
ENDSEC
  0
SECTION
  2
TABLES
  0
TABLE
  2
VPORT
  5
8
330
0
100
AcDbSymbolTable
 70
     1
  0
VPORT
  5
6E6DB
330
8
100
AcDbSymbolTableRecord
100
AcDbViewportTableRecord
  2
*Active
 70
     0
 10
0.0
 20
0.0
 11
1.0
 21
1.0
 12
120.1407631754963
 22
1346.730996796111
 13
0.0
 23
0.0
 14
1.0
 24
1.0
 15
20.0
 25
20.0
 16
0.0
 26
0.0
 36
1.0
 17
0.0
 27
0.0
 37
0.0
 40
173.2785363975943
 41
1.731829573934837
 42
50.0
 43
0.0
 44
0.0
 50
0.0
 51
0.0
 71
    16
 72
   100
 73
     1
 74
     0
 75
     0
 76
     0
 77
     0
 78
     0
281
     0
 65
     1
110
0.0
120
0.0
130
0.0
111
1.0
121
0.0
131
0.0
112
0.0
122
1.0
132
0.0
 79
     0
146
0.0
  0
ENDTAB
  0
TABLE
  2
LTYPE
  5
5
330
0
100
AcDbSymbolTable
 70
     4
  0
LTYPE
  5
12
330
5
100
AcDbSymbolTableRecord
100
AcDbLinetypeTableRecord
  2
BYBLOCK
 70
     0
  3

 72
    65
 73
     0
 40
0.0
  0
LTYPE
  5
13
330
5
100
AcDbSymbolTableRecord
100
AcDbLinetypeTableRecord
  2
BYLAYER
 70
     0
  3

 72
    65
 73
     0
 40
0.0
  0
LTYPE
  5
14
330
5
100
AcDbSymbolTableRecord
100
AcDbLinetypeTableRecord
  2
CONTINUOUS
 70
     0
  3
Solid line
 72
    65
 73
     0
 40
0.0
  0
LTYPE
  5
25
330
5
100
AcDbSymbolTableRecord
100
AcDbLinetypeTableRecord
  2
CENTER
 70
     0
  3
____ _ ____ _ ____ _ ____ _ ____ _ ____ _ ____
 72
    65
 73
     4
 40
2.0
 49
1.25
 74
     0
 49
-0.25
 74
     0
 49
0.25
 74
     0
 49
-0.25
 74
     0
  0
LTYPE
  5
26
330
5
100
AcDbSymbolTableRecord
100
AcDbLinetypeTableRecord
  2
PHANTOM
 70
     0
  3
_____ _ _ _____ _ _ _____ _ _ _____ _ _ ____
 72
    65
 73
     6
 40
2.5
 49
1.25
 74
     0
 49
-0.25
 74
     0
 49
0.25
 74
     0
 49
-0.25
 74
     0
 49
0.25
 74
     0
 49
-0.25
 74
     0
  0
LTYPE
  5
27
330
5
100
AcDbSymbolTableRecord
100
AcDbLinetypeTableRecord
  2
HIDDEN
 70
     0
  3
_ _ _ _ _ _ _ _ _ _ _ _ _ _ _ _ _ _ _ _ _ _ _
 72
    65
 73
     2
 40
0.375
 49
0.25
 74
     0
 49
-0.125
 74
     0
  0
ENDTAB
  0
TABLE
  2
LAYER
  5
2
102
{ACAD_XDICTIONARY
360
28C1
102
}
330
0
100
AcDbSymbolTable
 70
     4
  0
LAYER
  5
F
102
{ACAD_XDICTIONARY
360
229C2
102
}
330
2
100
AcDbSymbolTableRecord
100
AcDbLayerTableRecord
  2
0
 70
     0
 62
     7
  6
CONTINUOUS
370
    -3
390
352
  0
LAYER
  5
34
102
{ACAD_XDICTIONARY
360
229C8
102
}
330
2
100
AcDbSymbolTableRecord
100
AcDbLayerTableRecord
  2
寸法線
 70
     0
 62
     7
  6
CONTINUOUS
370
    -3
390
352
  0
LAYER
  5
2F4
102
{ACAD_XDICTIONARY
360
229D0
102
}
330
2
100
AcDbSymbolTableRecord
100
AcDbLayerTableRecord
  2
文字
 70
     0
 62
     7
  6
CONTINUOUS
370
    -3
390
352
  0
LAYER
  5
305
102
{ACAD_XDICTIONARY
360
229D4
102
}
330
2
100
AcDbSymbolTableRecord
100
AcDbLayerTableRecord
  2
姿図
 70
     0
 62
     8
  6
CONTINUOUS
370
    -3
390
352
  0
ENDTAB
  0
TABLE
  2
STYLE
  5
3
330
0
100
AcDbSymbolTable
 70
     1
  0
STYLE
  5
10
330
3
100
AcDbSymbolTableRecord
100
AcDbTextStyleTableRecord
  2
STANDARD
 70
     0
 40
0.0
 41
1.0
 50
0.0
 71
     0
 42
12.0
  3
MONOTXT
  4
BIGFONT
  0
ENDTAB
  0
TABLE
  2
VIEW
  5
6
330
0
100
AcDbSymbolTable
 70
     0
  0
ENDTAB
  0
TABLE
  2
UCS
  5
7
330
0
100
AcDbSymbolTable
 70
     0
  0
ENDTAB
  0
TABLE
  2
APPID
  5
9
330
0
100
AcDbSymbolTable
 70
    16
  0
APPID
  5
11
330
9
100
AcDbSymbolTableRecord
100
AcDbRegAppTableRecord
  2
ACAD
 70
     0
  0
APPID
  5
28BD
330
9
100
AcDbSymbolTableRecord
100
AcDbRegAppTableRecord
  2
ACAD_PSEXT
 70
     0
  0
APPID
  5
DD21
330
9
100
AcDbSymbolTableRecord
100
AcDbRegAppTableRecord
  2
GENIUS_GENODEF_13
 70
     0
  0
APPID
  5
DD22
330
9
100
AcDbSymbolTableRecord
100
AcDbRegAppTableRecord
  2
GENIUS_GENREC_14
 70
     0
  0
APPID
  5
DD23
330
9
100
AcDbSymbolTableRecord
100
AcDbRegAppTableRecord
  2
GENIUS_GENOBJ-N-REC_13
 70
     0
  0
APPID
  5
1DE9D
330
9
100
AcDbSymbolTableRecord
100
AcDbRegAppTableRecord
  2
ASK_MEN_XD
 70
     0
  0
APPID
  5
229B7
330
9
100
AcDbSymbolTableRecord
100
AcDbRegAppTableRecord
  2
ACAD_MLEADERVER
 70
     0
  0
APPID
  5
251CE
330
9
100
AcDbSymbolTableRecord
100
AcDbRegAppTableRecord
  2
ACAD_DSTYLE_DIMJAG
 70
     0
  0
APPID
  5
251CF
330
9
100
AcDbSymbolTableRecord
100
AcDbRegAppTableRecord
  2
ACAD_DSTYLE_DIMTALN
 70
     0
  0
APPID
  5
2F706
330
9
100
AcDbSymbolTableRecord
100
AcDbRegAppTableRecord
  2
ACAD_EXEMPT_FROM_CAD_STANDARDS
 70
     0
  0
APPID
  5
37C57
330
9
100
AcDbSymbolTableRecord
100
AcDbRegAppTableRecord
  2
ACAD_DSTYLE_DIMBREAK
 70
     0
  0
APPID
  5
3A205
330
9
100
AcDbSymbolTableRecord
100
AcDbRegAppTableRecord
  2
ACAD_DSTYLE_DIMRADIAL_EXTENSION
 70
     0
  0
APPID
  5
3E3B4
330
9
100
AcDbSymbolTableRecord
100
AcDbRegAppTableRecord
  2
AcAecLayerStandard
 70
     0
  0
APPID
  5
70E8F
330
9
100
AcDbSymbolTableRecord
100
AcDbRegAppTableRecord
  2
AECBASE
 70
     0
  0
APPID
  5
70E90
330
9
100
AcDbSymbolTableRecord
100
AcDbRegAppTableRecord
  2
AEC_2DSECTION_XDATA
 70
     0
  0
APPID
  5
70E91
330
9
100
AcDbSymbolTableRecord
100
AcDbRegAppTableRecord
  2
AEC_MASSGROUP_XDADA
 70
     0
  0
ENDTAB
  0
TABLE
  2
DIMSTYLE
  5
A
330
0
100
AcDbSymbolTable
 70
     1
100
AcDbDimStyleTable
  0
DIMSTYLE
105
1CC
330
A
100
AcDbSymbolTableRecord
100
AcDbDimStyleTableRecord
  2
STANDARD
 70
     0
 41
2.5
 42
1.5
 43
7.0
 44
1.0
 73
     0
 74
     0
 77
     3
 78
     8
 79
     2
140
3.0
141
0.0
147
1.0
171
     0
172
     1
176
     8
177
     8
271
     2
178
   256
179
     2
271
     2
272
     2
274
     0
340
10
341
3F3
342
3F3
1001
ACAD_DSTYLE_DIMJAG
1070
   388
1040
1.5
1001
ACAD_DSTYLE_DIMTALN
1070
   392
1070
     0
  0
ENDTAB
  0
TABLE
  2
BLOCK_RECORD
  5
1
330
0
100
AcDbSymbolTable
 70
     2
  0
BLOCK_RECORD
  5
18
102
{ACAD_XDICTIONARY
360
2F65E
102
}
330
1
100
AcDbSymbolTableRecord
100
AcDbBlockTableRecord
  2
*MODEL_SPACE
340
355
  0
BLOCK_RECORD
  5
15
330
1
100
AcDbSymbolTableRecord
100
AcDbBlockTableRecord
  2
*PAPER_SPACE
340
356
  0
BLOCK_RECORD
  5
3ED
330
1
100
AcDbSymbolTableRecord
100
AcDbBlockTableRecord
  2
SUN
340
0
  0
BLOCK_RECORD
  5
3F3
330
1
100
AcDbSymbolTableRecord
100
AcDbBlockTableRecord
  2
_Open30
340
0
  0
ENDTAB
  0
ENDSEC
  0
SECTION
  2
BLOCKS
  0
BLOCK
  5
39
330
18
100
AcDbEntity
  8
0
100
AcDbBlockBegin
  2
*MODEL_SPACE
 70
     0
 10
0.0
 20
0.0
 30
0.0
  3
*MODEL_SPACE
  1
*MODEL_SPACE
  0
ENDBLK
  5
3A
330
18
100
AcDbEntity
  8
0
100
AcDbBlockEnd
  0
BLOCK
  5
37
330
15
100
AcDbEntity
 67
     1
  8
0
100
AcDbBlockBegin
  2
*PAPER_SPACE
 70
     0
 10
0.0
 20
0.0
 30
0.0
  3
*PAPER_SPACE
  1
*PAPER_SPACE
  0
ENDBLK
  5
38
330
15
100
AcDbEntity
 67
     1
  8
0
100
AcDbBlockEnd
  0
BLOCK
  5
3F1
330
3ED
100
AcDbEntity
  8
0
100
AcDbBlockBegin
  2
SUN
 70
     0
 10
0.0
 20
0.0
 30
0.0
  3
SUN
  1
SUN
  0
LINE
  5
3EE
330
3ED
100
AcDbEntity
  8
0
100
AcDbLine
 10
-0.0000000000000568
 20
0.0
 30
0.0
 11
-1.500000000000057
 21
0.0
 31
0.0
  0
LINE
  5
3EF
330
3ED
100
AcDbEntity
  8
0
100
AcDbLine
 10
-0.0000000000000568
 20
0.0000000000000284
 30
0.0
 11
-1.500000000000057
 21
0.401923788646684
 31
0.0
  0
LINE
  5
3F0
330
3ED
100
AcDbEntity
  8
0
100
AcDbLine
 10
-0.0000000000000568
 20
0.0000000000000284
 30
0.0
 11
-1.500000000000057
 21
-0.4019237886466556
 31
0.0
  0
ENDBLK
  5
3F2
330
3ED
100
AcDbEntity
  8
0
100
AcDbBlockEnd
  0
BLOCK
  5
3F7
330
3F3
100
AcDbEntity
  8
0
100
AcDbBlockBegin
  2
_Open30
 70
     0
 10
0.0
 20
0.0
 30
0.0
  3
_Open30
  1
_Open30
  0
LINE
  5
3F4
330
3F3
100
AcDbEntity
  8
寸法線
 62
     0
370
    -2
100
AcDbLine
 10
-1.0
 20
0.26794919
 30
0.0
 11
0.0
 21
0.0
 31
0.0
  0
LINE
  5
3F5
330
3F3
100
AcDbEntity
  8
寸法線
 62
     0
370
    -2
100
AcDbLine
 10
0.0
 20
0.0
 30
0.0
 11
-1.0
 21
-0.26794919
 31
0.0
  0
LINE
  5
3F6
330
3F3
100
AcDbEntity
  8
寸法線
 62
     0
370
    -2
100
AcDbLine
 10
0.0
 20
0.0
 30
0.0
 11
-1.0
 21
0.0
 31
0.0
  0
ENDBLK
  5
3F8
330
3F3
100
AcDbEntity
  8
0
100
AcDbBlockEnd
  0
ENDSEC
  0
SECTION
  2
ENTITIES
  0
TEXT
  5
6DC6F
330
18
100
AcDbEntity
  8
文字
100
AcDbText
 10
46.29317487827916
 20
1261.790537777682
 30
0.0
 40
18.0
  1
MMT-081/TLF/01
100
AcDbText
  0
LINE
  5
70DA0
330
18
100
AcDbEntity
  8
姿図
100
AcDbLine
 10
126.2537894912953
 20
1412.714888221113
 30
0.0
 11
177.7823010164743
 21
1382.964888221111
 31
0.0
  0
LINE
  5
70DA1
330
18
100
AcDbEntity
  8
姿図
100
AcDbLine
 10
126.2537894912898
 20
1412.714888221117
 30
0.0
 11
74.29226526422372
 21
1382.714888221117
 31
0.0
  0
LINE
  5
70DA3
330
18
100
AcDbEntity
  8
姿図
100
AcDbLine
 10
177.3492883145764
 20
1382.214888221118
 30
0.0
 11
126.2537894912934
 21
1352.714888221115
 31
0.0
  0
LINE
  5
70DA4
330
18
100
AcDbEntity
  8
姿図
100
AcDbLine
 10
126.2537894912925
 20
1411.71488822112
 30
0.0
 11
177.3492883145764
 21
1382.214888221118
 31
0.0
  0
LINE
  5
70DA5
330
18
100
AcDbEntity
  8
姿図
100
AcDbLine
 10
126.2537894912925
 20
1411.71488822112
 30
0.0
 11
75.15829066800643
 21
1382.214888221119
 31
0.0
  0
LINE
  5
70DA6
330
18
100
AcDbEntity
  8
姿図
100
AcDbLine
 10
126.2537894912925
 20
1411.71488822112
 30
0.0
 11
126.2537894912953
 21
1412.714888221113
 31
0.0
  0
LINE
  5
70DA7
330
18
100
AcDbEntity
  8
姿図
100
AcDbLine
 10
126.2537894912903
 20
1425.964888221115
 30
0.0
 11
152.6675643067092
 21
1410.71488822112
 31
0.0
  0
LINE
  5
70DA8
330
18
100
AcDbEntity
  8
姿図
100
AcDbLine
 10
126.2537894912898
 20
1425.964888221117
 30
0.0
 11
123.8402937661854
 21
1424.571455814539
 31
0.0
  0
LINE
  5
70DA9
330
18
100
AcDbEntity
  8
姿図
100
AcDbLine
 10
74.29226526422372
 20
1382.714888221117
 30
0.0
 11
73.78602087735635
 21
1390.16803671352
 31
0.0
  0
LINE
  5
70DAA
330
18
100
AcDbEntity
  8
姿図
100
AcDbLine
 10
126.2537894912953
 20
1412.714888221113
 30
0.0
 11
126.2537894912898
 21
1425.964888221117
 31
0.0
  0
LINE
  5
70DAB
330
18
100
AcDbEntity
  8
姿図
100
AcDbLine
 10
100.0245951621132
 20
1420.12145581454
 30
0.0
 11
100.0245951621132
 21
1420.821455814541
 31
0.0
  0
LINE
  5
70DAC
330
18
100
AcDbEntity
  8
姿図
100
AcDbLine
 10
100.0245951621132
 20
1421.42145581454
 30
0.0
 11
100.0245951621132
 21
1422.321455814541
 31
0.0
  0
LINE
  5
70DAD
330
18
100
AcDbEntity
  8
姿図
100
AcDbLine
 10
100.0245951621132
 20
1420.821455814541
 30
0.0
 11
100.6308129447625
 21
1420.471455814541
 31
0.0
  0
LINE
  5
70DAE
330
18
100
AcDbEntity
  8
姿図
100
AcDbLine
 10
100.0245951621132
 20
1421.42145581454
 30
0.0
 11
100.6741142149517
 21
1421.04645581454
 31
0.0
  0
LINE
  5
70DAF
330
18
100
AcDbEntity
  8
姿図
100
AcDbLine
 10
100.6741142149517
 20
1421.04645581454
 30
0.0
 11
100.6741142149517
 21
1420.49645581454
 31
0.0
  0
LINE
  5
70DB0
330
18
100
AcDbEntity
  8
姿図
100
AcDbLine
 10
100.0245951621132
 20
1422.321455814541
 30
0.0
 11
101.3236332677902
 21
1421.571455814541
 31
0.0
  0
LINE
  5
70DB1
330
18
100
AcDbEntity
  8
姿図
100
AcDbLine
 10
100.0245951621132
 20
1420.821455814541
 30
0.0
 11
87.03421410534702
 21
1413.321455814541
 31
0.0
  0
LINE
  5
70DB2
330
18
100
AcDbEntity
  8
姿図
100
AcDbLine
 10
100.0245951621132
 20
1421.42145581454
 30
0.0
 11
87.03421410534702
 21
1413.92145581454
 31
0.0
  0
LINE
  5
70DB3
330
18
100
AcDbEntity
  8
姿図
100
AcDbLine
 10
100.0245951621132
 20
1422.321455814541
 30
0.0
 11
87.03421410534702
 21
1414.821455814541
 31
0.0
  0
LINE
  5
70DB4
330
18
100
AcDbEntity
  8
姿図
100
AcDbLine
 10
100.6741142149517
 20
1421.04645581454
 30
0.0
 11
100.1544989726813
 21
1420.74645581454
 31
0.0
  0
LINE
  5
70DB5
330
18
100
AcDbEntity
  8
姿図
100
AcDbLine
 10
87.03421410534702
 20
1412.62145581454
 30
0.0
 11
87.03421410534702
 21
1413.321455814541
 31
0.0
  0
LINE
  5
70DB6
330
18
100
AcDbEntity
  8
姿図
100
AcDbLine
 10
87.03421410534656
 20
1413.92145581454
 30
0.0
 11
87.03421410534702
 21
1414.821455814541
 31
0.0
  0
LINE
  5
70DB7
330
18
100
AcDbEntity
  8
姿図
100
AcDbLine
 10
87.03421410534702
 20
1413.92145581454
 30
0.0
 11
87.55382934761792
 21
1413.62145581454
 31
0.0
  0
LINE
  5
70DB8
330
18
100
AcDbEntity
  8
姿図
100
AcDbLine
 10
101.3236332677902
 20
1421.571455814541
 30
0.0
 11
101.3819306385831
 21
1420.905113817262
 31
0.0
  0
ELLIPSE
  5
70DB9
330
18
100
AcDbEntity
  8
姿図
100
AcDbEllipse
 10
126.2537894912925
 20
1382.214888221119
 30
0.0
 11
-19.7026683359089
 21
0.0
 31
0.0
210
0.0
220
0.0
230
-1.0
 40
0.7791399954308438
 41
0.0
 42
6.283185307179586
  0
ELLIPSE
  5
70DBA
330
18
100
AcDbEntity
  8
姿図
100
AcDbEllipse
 10
126.2537894912925
 20
1383.414888221119
 30
0.0
 11
-19.7026683359089
 21
0.0
 31
0.0
210
0.0
220
0.0
230
-1.0
 40
0.7791399954308438
 41
3.180687664759739
 42
6.24409029600964
  0
SPLINE
  5
70DBB
330
18
100
AcDbEntity
  8
姿図
100
AcDbSpline
210
0.0
220
0.0
230
1.0
 70
     8
 71
     3
 72
    41
 73
    37
 74
     0
 42
0.000000001
 43
0.0000000001
 40
2.84942054947945
 40
2.84942054947945
 40
2.84942054947945
 40
2.84942054947945
 40
3.019319017109049
 40
3.019319017109049
 40
3.258285629489227
 40
3.258285629489227
 40
3.497252241869405
 40
3.497252241869405
 40
3.736218854249582
 40
3.736218854249582
 40
3.97518546662976
 40
3.97518546662976
 40
4.214152079009938
 40
4.214152079009938
 40
4.453118691390116
 40
4.453118691390116
 40
4.692085303770294
 40
4.692085303770294
 40
4.931051916150472
 40
4.931051916150472
 40
5.17001852853065
 40
5.17001852853065
 40
5.408985140910828
 40
5.408985140910828
 40
5.647951753291006
 40
5.647951753291006
 40
5.886918365671185
 40
5.886918365671185
 40
6.125884978051363
 40
6.125884978051363
 40
6.283185307179586
 40
6.283185307179586
 40
6.283185307179586
 40
6.434904975726503
 40
6.434904975726503
 40
6.575385626015327
 40
6.575385626015327
 40
6.575385626015327
 40
6.575385626015327
 10
144.6735808049248
 20
1387.663658124613
 30
0.0
 10
144.9829558531469
 20
1386.862016288676
 30
0.0
 10
145.2045049683934
 20
1386.041224829056
 30
0.0
 10
145.5190658693168
 20
1384.046810105971
 30
0.0
 10
145.5232922976479
 20
1382.865378101953
 30
0.0
 10
145.1723160695087
 20
1380.532613594503
 30
0.0
 10
144.817033903671
 20
1379.381257560413
 30
0.0
 10
143.7632207274928
 20
1377.170850413453
 30
0.0
 10
143.0646116615212
 20
1376.111948333803
 30
0.0
 10
141.3597009131286
 20
1374.14771648834
 30
0.0
 10
140.3534621223394
 20
1373.242584557231
 30
0.0
 10
138.0887486250144
 20
1371.640437215441
 30
0.0
 10
136.8304237474435
 20
1370.943560799322
 30
0.0
 10
134.1334356902248
 20
1369.800404229281
 30
0.0
 10
132.6949482327486
 20
1369.35420226494
 30
0.0
 10
129.7208981504273
 20
1368.739586980726
 30
0.0
 10
128.1855171133689
 20
1368.571209647467
 30
0.0
 10
125.1068932959984
 20
1368.522500952429
 30
0.0
 10
123.5638334386454
 20
1368.642172295646
 30
0.0
 10
120.5595342439078
 20
1369.162328568404
 30
0.0
 10
119.0984769059783
 20
1369.562783517855
 30
0.0
 10
116.3428510956924
 20
1370.620189809693
 30
0.0
 10
115.0484600231025
 20
1371.277071244591
 30
0.0
 10
112.7004109850627
 20
1372.807388565396
 30
0.0
 10
111.6469101871439
 20
1373.680697093207
 30
0.0
 10
109.8393560775107
 20
1375.591185033834
 30
0.0
 10
109.085386403794
 20
1376.628172923913
 30
0.0
 10
107.9162096471173
 20
1378.805402521795
 30
0.0
 10
107.5009458095205
 20
1379.945474255506
 30
0.0
 10
107.1092359164136
 20
1381.869662730151
 30
0.0
 10
107.031121155384
 20
1382.642277607709
 30
0.0
 10
107.031121155384
 20
1383.414888221119
 30
0.0
 10
107.031121155384
 20
1384.160088354087
 30
0.0
 10
107.1037834257627
 20
1384.905292073028
 30
0.0
 10
107.3824378128415
 20
1386.325294747485
 30
0.0
 10
107.5783223808285
 20
1387.001222615903
 30
0.0
 10
107.834192351374
 20
1387.66405658899
 30
0.0
  0
SPLINE
  5
70DBC
330
18
100
AcDbEntity
  8
姿図
100
AcDbSpline
210
0.0
220
0.0
230
1.0
 70
     8
 71
     3
 72
    34
 73
    30
 74
     0
 42
0.000000001
 43
0.0000000001
 40
3.158904051857733
 40
3.158904051857733
 40
3.158904051857733
 40
3.158904051857733
 40
3.258285629489227
 40
3.258285629489227
 40
3.497252241869405
 40
3.497252241869405
 40
3.736218854249582
 40
3.736218854249582
 40
3.97518546662976
 40
3.97518546662976
 40
4.214152079009938
 40
4.214152079009938
 40
4.453118691390116
 40
4.453118691390116
 40
4.692085303770294
 40
4.692085303770294
 40
4.931051916150472
 40
4.931051916150472
 40
5.17001852853065
 40
5.17001852853065
 40
5.408985140910828
 40
5.408985140910828
 40
5.647951753291006
 40
5.647951753291006
 40
5.886918365671185
 40
5.886918365671185
 40
6.125884978051363
 40
6.125884978051363
 40
6.265879303472882
 40
6.265879303472882
 40
6.265879303472882
 40
6.265879303472882
 10
145.4735085965008
 20
1383.669815123016
 30
0.0
 10
145.4626855580714
 20
1383.181750301033
 30
0.0
 10
145.4207862853796
 20
1382.694071597271
 30
0.0
 10
145.1723160695087
 20
1381.042613594504
 30
0.0
 10
144.817033903671
 20
1379.891257560412
 30
0.0
 10
143.7632207274928
 20
1377.680850413453
 30
0.0
 10
143.0646116615212
 20
1376.621948333803
 30
0.0
 10
141.3597009131286
 20
1374.65771648834
 30
0.0
 10
140.3534621223394
 20
1373.752584557231
 30
0.0
 10
138.0887486250144
 20
1372.150437215441
 30
0.0
 10
136.8304237474435
 20
1371.45356079932
 30
0.0
 10
134.1334356902248
 20
1370.310404229282
 30
0.0
 10
132.6949482327486
 20
1369.86420226494
 30
0.0
 10
129.7208981504273
 20
1369.249586980724
 30
0.0
 10
128.1855171133689
 20
1369.081209647467
 30
0.0
 10
125.1068932959984
 20
1369.032500952429
 30
0.0
 10
123.5638334386454
 20
1369.152172295646
 30
0.0
 10
120.5595342439078
 20
1369.672328568404
 30
0.0
 10
119.0984769059783
 20
1370.072783517855
 30
0.0
 10
116.3428510956924
 20
1371.130189809694
 30
0.0
 10
115.0484600231025
 20
1371.787071244591
 30
0.0
 10
112.7004109850627
 20
1373.317388565396
 30
0.0
 10
111.6469101871439
 20
1374.190697093207
 30
0.0
 10
109.8393560775107
 20
1376.101185033835
 30
0.0
 10
109.085386403794
 20
1377.138172923911
 30
0.0
 10
107.9162096471173
 20
1379.315402521795
 30
0.0
 10
107.5009458095205
 20
1380.455474255506
 30
0.0
 10
107.1263429020132
 20
1382.295628435622
 30
0.0
 10
107.0492459284151
 20
1382.982379672763
 30
0.0
 10
107.0339567109345
 20
1383.669894558983
 30
0.0
  0
LINE
  5
70DBD
330
18
100
AcDbEntity
  8
姿図
100
AcDbLine
 10
152.6675643067088
 20
1410.71488822112
 30
0.0
 11
154.8326278161699
 21
1411.96488822112
 31
0.0
  0
LINE
  5
70DBE
330
18
100
AcDbEntity
  8
姿図
100
AcDbLine
 10
129.284878404535
 20
1426.714888221117
 30
0.0
 11
154.8326278161694
 21
1411.96488822112
 31
0.0
  0
LINE
  5
70DBF
330
18
100
AcDbEntity
  8
姿図
100
AcDbLine
 10
154.8326278161699
 20
1411.96488822112
 30
0.0
 11
154.8326278161699
 21
1412.96488822112
 31
0.0
  0
LINE
  5
70DC0
330
18
100
AcDbEntity
  8
姿図
100
AcDbLine
 10
129.284878404535
 20
1427.714888221117
 30
0.0
 11
154.8326278161699
 21
1412.96488822112
 31
0.0
  0
LINE
  5
70DC1
330
18
100
AcDbEntity
  8
姿図
100
AcDbLine
 10
127.1198148950739
 20
1425.464888221117
 30
0.0
 11
129.284878404535
 21
1426.714888221117
 31
0.0
  0
LINE
  5
70DC2
330
18
100
AcDbEntity
  8
姿図
100
AcDbLine
 10
129.284878404535
 20
1426.714888221117
 30
0.0
 11
129.284878404535
 21
1427.714888221117
 31
0.0
  0
LINE
  5
70DC3
330
18
100
AcDbEntity
  8
姿図
100
AcDbLine
 10
126.2537894912898
 20
1425.964888221117
 30
0.0
 11
129.284878404535
 21
1427.714888221117
 31
0.0
  0
LINE
  5
70DC4
330
18
100
AcDbEntity
  8
姿図
100
AcDbLine
 10
152.2345516048231
 20
1397.714888221117
 30
0.0
 11
152.6675643067092
 21
1410.71488822112
 31
0.0
  0
LINE
  5
70DC5
330
18
100
AcDbEntity
  8
姿図
100
AcDbLine
 10
177.7823010164743
 20
1382.964888221111
 30
0.0
 11
178.2316538203281
 21
1394.974322183389
 31
0.0
  0
LINE
  5
70DC6
330
18
100
AcDbEntity
  8
姿図
100
AcDbLine
 10
177.7823010164743
 20
1382.964888221111
 30
0.0
 11
177.3492883145768
 21
1382.214888221118
 31
0.0
  0
LINE
  5
70DC7
330
18
100
AcDbEntity
  8
姿図
100
AcDbLine
 10
126.2537894912934
 20
1352.714888221115
 30
0.0
 11
74.29226526422372
 21
1382.714888221117
 31
0.0
  0
ELLIPSE
  5
70DC8
330
18
100
AcDbEntity
  8
姿図
100
AcDbEllipse
 10
168.4623305202035
 20
1393.93911465322
 30
0.0
 11
0.0
 21
1.151587509308229
 31
0.0
210
0.0
220
0.0
230
-1.0
 40
0.6554497622300844
 41
-1.570796326794897
 42
4.71238898038469
  0
ELLIPSE
  5
70DC9
330
18
100
AcDbEntity
  8
姿図
100
AcDbEllipse
 10
168.0374878692969
 20
1393.693831634355
 30
0.0
 11
0.0
 21
1.151587509308229
 31
0.0
210
0.0
220
0.0
230
-1.0
 40
0.6554497622300844
 41
-0.0561318279820431
 42
2.47418601455496
  0
ELLIPSE
  5
70DCA
330
18
100
AcDbEntity
  8
姿図
100
AcDbEllipse
 10
141.9362023456729
 20
1409.410642938097
 30
0.0
 11
0.0
 21
1.151587509308229
 31
0.0
210
0.0
220
0.0
230
-1.0
 40
0.6554497622300844
 41
-1.570796326794897
 42
4.71238898038469
  0
ELLIPSE
  5
70DCB
330
18
100
AcDbEntity
  8
姿図
100
AcDbEllipse
 10
141.5113596947667
 20
1409.165359919234
 30
0.0
 11
0.0
 21
1.151587509308229
 31
0.0
210
0.0
220
0.0
230
-1.0
 40
0.6554497622300844
 41
-0.0561318279820431
 42
2.47418601455496
  0
LINE
  5
70DCD
330
18
100
AcDbEntity
  8
姿図
100
AcDbLine
 10
123.8402937661854
 20
1430.92145581454
 30
0.0
 11
123.8402937661854
 21
1418.37145581454
 31
0.0
  0
LINE
  5
70DCE
330
18
100
AcDbEntity
  8
姿図
100
AcDbLine
 10
123.8402937661854
 20
1418.37145581454
 30
0.0
 11
74.3882799067137
 21
1389.820322300806
 31
0.0
  0
LINE
  5
70DCF
330
18
100
AcDbEntity
  8
姿図
100
AcDbLine
 10
123.8402937661854
 20
1418.37145581454
 30
0.0
 11
110.8499127094187
 21
1425.87145581454
 31
0.0
  0
LINE
  5
70DD0
330
18
100
AcDbEntity
  8
姿図
100
AcDbLine
 10
110.8499127094187
 20
1425.87145581454
 30
0.0
 11
61.39789884994707
 21
1397.320322300806
 31
0.0
  0
LINE
  5
70DD1
330
18
100
AcDbEntity
  8
姿図
100
AcDbLine
 10
125.7888509247005
 20
1429.79645581454
 30
0.0
 11
123.8402937661854
 21
1430.92145581454
 31
0.0
  0
LINE
  5
70DD2
330
18
100
AcDbEntity
  8
姿図
100
AcDbLine
 10
110.8499127094187
 20
1425.87145581454
 30
0.0
 11
110.8499127094187
 21
1426.37145581454
 31
0.0
  0
LINE
  5
70DD3
330
18
100
AcDbEntity
  8
姿図
100
AcDbLine
 10
123.4072810642933
 20
1419.12145581454
 30
0.0
 11
110.8499127094187
 21
1426.37145581454
 31
0.0
  0
LINE
  5
70DD4
330
18
100
AcDbEntity
  8
姿図
100
AcDbLine
 10
110.8499127094187
 20
1426.37145581454
 30
0.0
 11
61.39789884994707
 21
1397.820322300806
 31
0.0
  0
LINE
  5
70DD5
330
18
100
AcDbEntity
  8
姿図
100
AcDbLine
 10
123.4072810642933
 20
1431.67145581454
 30
0.0
 11
123.4072810642933
 21
1419.12145581454
 31
0.0
  0
LINE
  5
70DD6
330
18
100
AcDbEntity
  8
姿図
100
AcDbLine
 10
125.7888509247005
 20
1430.29645581454
 30
0.0
 11
123.4072810642933
 21
1431.67145581454
 31
0.0
  0
LINE
  5
70DD7
330
18
100
AcDbEntity
  8
姿図
100
AcDbLine
 10
125.7888509247005
 20
1429.79645581454
 30
0.0
 11
125.7888509247005
 21
1430.29645581454
 31
0.0
  0
LINE
  5
70DD8
330
18
100
AcDbEntity
  8
姿図
100
AcDbLine
 10
61.39789884994707
 20
1397.820322300806
 30
0.0
 11
61.39789884994707
 21
1397.320322300806
 31
0.0
  0
LINE
  5
70DD9
330
18
100
AcDbEntity
  8
姿図
100
AcDbLine
 10
61.39789884994707
 20
1397.320322300806
 30
0.0
 11
74.3882799067137
 21
1389.820322300806
 31
0.0
  0
LINE
  5
70DDA
330
18
100
AcDbEntity
  8
姿図
100
AcDbLine
 10
123.4072810642933
 20
1431.67145581454
 30
0.0
 11
112.5386622467981
 21
1425.39645581454
 31
0.0
  0
LINE
  5
70DDB
330
18
100
AcDbEntity
  8
姿図
100
AcDbLine
 10
125.7888509247005
 20
1429.79645581454
 30
0.0
 11
123.8402937661854
 21
1428.67145581454
 31
0.0
  0
LINE
  5
70DDC
330
18
100
AcDbEntity
  8
姿図
100
AcDbLine
 10
180.9979704159468
 20
1385.371455814548
 30
0.0
 11
193.9883514727135
 21
1377.871455814548
 31
0.0
  0
LINE
  5
70DDD
330
18
100
AcDbEntity
  8
姿図
100
AcDbLine
 10
180.9979704159468
 20
1385.371455814548
 30
0.0
 11
180.9979704159473
 21
1397.921455814547
 31
0.0
  0
LINE
  5
70DDE
330
18
100
AcDbEntity
  8
姿図
100
AcDbLine
 10
179.0494132574318
 20
1399.046455814547
 30
0.0
 11
180.9979704159473
 21
1397.921455814547
 31
0.0
  0
LINE
  5
70DDF
330
18
100
AcDbEntity
  8
姿図
100
AcDbLine
 10
179.0494132574318
 20
1399.546455814547
 30
0.0
 11
181.4309831178393
 21
1398.171455814547
 31
0.0
  0
LINE
  5
70DE0
330
18
100
AcDbEntity
  8
姿図
100
AcDbLine
 10
179.0494132574318
 20
1399.046455814547
 30
0.0
 11
179.0494132574318
 21
1399.546455814547
 31
0.0
  0
LINE
  5
70DE1
330
18
100
AcDbEntity
  8
姿図
100
AcDbLine
 10
181.4309831178393
 20
1398.171455814547
 30
0.0
 11
181.4309831178393
 21
1385.621455814548
 31
0.0
  0
LINE
  5
70DE2
330
18
100
AcDbEntity
  8
姿図
100
AcDbLine
 10
181.4309831178393
 20
1385.621455814548
 30
0.0
 11
193.988351472713
 21
1378.371455814548
 31
0.0
  0
LINE
  5
70DE3
330
18
100
AcDbEntity
  8
姿図
100
AcDbLine
 10
193.9883514727135
 20
1377.871455814548
 30
0.0
 11
193.988351472713
 21
1378.371455814548
 31
0.0
  0
LINE
  5
70DE4
330
18
100
AcDbEntity
  8
姿図
100
AcDbLine
 10
179.0494132574318
 20
1399.546455814547
 30
0.0
 11
174.6809496647998
 21
1397.024322183396
 31
0.0
  0
LINE
  5
70DE5
330
18
100
AcDbEntity
  8
姿図
100
AcDbLine
 10
179.0494132574318
 20
1399.046455814547
 30
0.0
 11
175.1139623666895
 21
1396.774322183398
 31
0.0
  0
LINE
  5
70DE6
330
18
100
AcDbEntity
  8
姿図
100
AcDbLine
 10
180.9979704159473
 20
1397.921455814547
 30
0.0
 11
177.0625195252051
 21
1395.649322183397
 31
0.0
  0
LINE
  5
70DE7
330
18
100
AcDbEntity
  8
姿図
100
AcDbLine
 10
180.9979704159468
 20
1385.371455814548
 30
0.0
 11
177.8033345519748
 21
1383.527031938522
 31
0.0
  0
LINE
  5
70DE8
330
18
100
AcDbEntity
  8
姿図
100
AcDbLine
 10
193.9883514727135
 20
1377.871455814548
 30
0.0
 11
144.5363376132423
 21
1349.320322300813
 31
0.0
  0
LINE
  5
70DE9
330
18
100
AcDbEntity
  8
姿図
100
AcDbLine
 10
132.4552832304644
 20
1356.295322300803
 30
0.0
 11
144.5363376132423
 21
1349.320322300813
 31
0.0
  0
LINE
  5
70DEA
330
18
100
AcDbEntity
  8
姿図
100
AcDbLine
 10
152.6355007104148
 20
1409.752268071616
 30
0.0
 11
178.2316538203281
 21
1394.974322183389
 31
0.0
  0
VIEWPORT
  5
2552
102
{ACAD_XDICTIONARY
360
70E7A
102
}
330
15
100
AcDbEntity
 67
     1
  8
0
100
AcDbViewport
 10
0.0
 20
0.0
 30
0.0
 40
0.0
 41
0.0
 68
     1
 69
     1
 12
0.0
 22
0.0
 13
0.0
 23
0.0
 14
10.0
 24
10.0
 15
10.0
 25
10.0
 16
0.0
 26
0.0
 36
1.0
 17
0.0
 27
0.0
 37
0.0
 42
50.0
 43
0.0
 44
0.0
 45
0.0
 50
0.0
 51
0.0
 72
   100
 90
    32800
  1

281
     0
 71
     1
 74
     0
110
0.0
120
0.0
130
0.0
111
1.0
121
0.0
131
0.0
112
0.0
122
1.0
132
0.0
 79
     0
146
0.0
  0
VIEWPORT
  5
2554
102
{ACAD_XDICTIONARY
360
70E7C
102
}
330
15
100
AcDbEntity
 67
     1
  8
寸法線
100
AcDbViewport
 10
0.0
 20
0.0
 30
0.0
 40
1.0
 41
1.0
 68
     2
 69
     2
 12
1256.815818880517
 22
261.4143746979846
 13
0.0
 23
0.0
 14
1.0
 24
1.0
 15
20.0
 25
20.0
 16
0.0
 26
0.0
 36
1.0
 17
0.0
 27
0.0
 37
0.0
 42
50.0
 43
0.0
 44
0.0
 45
2358.864912513419
 50
0.0
 51
0.0
 72
   100
 90
    32768
  1

281
     0
 71
     1
 74
     0
110
0.0
120
0.0
130
0.0
111
1.0
121
0.0
131
0.0
112
0.0
122
1.0
132
0.0
 79
     0
146
0.0
  0
ENDSEC
  0
SECTION
  2
OBJECTS
  0
DICTIONARY
  5
C
330
0
100
AcDbDictionary
281
     1
  3
ACAD_GROUP
350
D
  3
ACAD_IMAGE_VARS
350
70E88
  3
ACAD_LAYOUT
350
353
  3
ACAD_MLINESTYLE
350
E
  3
ACAD_PLOTSETTINGS
350
354
  3
ACAD_PLOTSTYLENAME
350
351
  3
ACAD_SCALELIST
350
22993
  3
AcadDim
350
3A8A5
  3
AcDbVariableDictionary
350
256B
  3
AEC_DISP_REPS
350
70E94
  3
AEC_DISPLAY_PROPS_DEFAULTS
350
70E96
  3
AEC_VARS
350
70E92
  3
APPDATA
350
70E87
  3
DWGPROPS
350
70F14
  0
DICTIONARY
  5
28C1
330
2
100
AcDbDictionary
280
     1
281
     1
  3
ACAD_LAYERFILTERS
360
3E3B8
  3
ACAD_LAYERSTATES
360
28C2
  3
ACLYDICTIONARY
360
3E3B7
  0
DICTIONARY
  5
229C2
330
F
100
AcDbDictionary
280
     1
281
     1
  3
ADSK_XREC_LAYER_RECONCILED
360
229C3
  0
DICTIONARY
  5
229C8
330
34
100
AcDbDictionary
280
     1
281
     1
  3
ADSK_XREC_LAYER_RECONCILED
360
229C9
  0
DICTIONARY
  5
229D0
330
2F4
100
AcDbDictionary
280
     1
281
     1
  3
ADSK_XREC_LAYER_RECONCILED
360
229D1
  0
DICTIONARY
  5
229D4
330
305
100
AcDbDictionary
280
     1
281
     1
  3
ADSK_XREC_LAYER_RECONCILED
360
229D5
  0
DICTIONARY
  5
2F65E
330
18
100
AcDbDictionary
280
     1
281
     1
  3
ACAD_SORTENTS
360
2F65F
  0
DICTIONARY
  5
70E7A
330
2552
100
AcDbDictionary
280
     1
281
     1
  3
ACAD_XREC_ROUNDTRIP
360
70E7B
  0
DICTIONARY
  5
70E7C
330
2554
100
AcDbDictionary
280
     1
281
     1
  3
ACAD_XREC_ROUNDTRIP
360
70E7D
  0
DICTIONARY
  5
D
102
{ACAD_REACTORS
330
C
102
}
330
C
100
AcDbDictionary
281
     1
  0
RASTERVARIABLES
  5
70E88
102
{ACAD_REACTORS
330
C
102
}
330
C
100
AcDbRasterVariables
 90
        0
 70
     1
 71
     1
 72
     0
  0
DICTIONARY
  5
353
102
{ACAD_REACTORS
330
C
102
}
330
C
100
AcDbDictionary
281
     1
  3
Model
350
355
  3
ﾚｲｱｳﾄ1
350
356
  0
DICTIONARY
  5
E
102
{ACAD_REACTORS
330
C
102
}
330
C
100
AcDbDictionary
281
     1
  3
STANDARD
350
1B
  0
DICTIONARY
  5
354
102
{ACAD_REACTORS
330
C
102
}
330
C
100
AcDbDictionary
281
     1
  0
ACDBDICTIONARYWDFLT
  5
351
102
{ACAD_REACTORS
330
C
102
}
330
C
100
AcDbDictionary
281
     1
  3
Normal
350
352
100
AcDbDictionaryWithDefault
340
352
  0
DICTIONARY
  5
22993
102
{ACAD_REACTORS
330
C
102
}
330
C
100
AcDbDictionary
281
     1
  3
A0
350
22994
  3
A1
350
2F83E
  3
A2
350
2F83F
  3
A3
350
2F840
  3
A4
350
2F841
  3
A5
350
2F842
  3
A6
350
2F843
  3
A7
350
2F844
  3
A8
350
2F845
  3
A9
350
2F846
  3
B0
350
2F847
  3
B1
350
2F848
  3
B2
350
2F849
  3
B3
350
2F84A
  3
B4
350
2F84B
  3
B5
350
2F84C
  3
B6
350
2F84D
  3
B7
350
2F84E
  3
B8
350
2F84F
  3
B9
350
2F850
  3
C0
350
2F851
  3
C1
350
2F852
  3
C2
350
2F853
  3
C3
350
2F854
  3
C4
350
2F855
  3
C5
350
2F856
  3
C6
350
2F857
  3
C7
350
2F858
  3
C8
350
2F859
  3
C9
350
2F85A
  3
D0
350
2F85B
  3
D1
350
2F85C
  3
D2
350
2F85D
  0
XRECORD
  5
3A8A5
102
{ACAD_REACTORS
330
C
102
}
330
C
100
AcDbXrecord
280
     1
 90
   990106
  3

 60
     0
 61
     0
 62
     1
 63
     3
 64
     1
 65
     0
 66
     0
 67
     3
 68
     1
 69
     0
 70
     0
 71
     0
 72
     0
 40
0.0
170
     2
340
0
  0
DICTIONARY
  5
256B
102
{ACAD_REACTORS
330
C
102
}
330
C
100
AcDbDictionary
281
     1
  3
DIMASSOC
350
256C
  3
INDEXCTL
350
2C4AB
  3
PROJECTNAME
350
256D
  3
SORTENTS
350
2C4AA
  0
DICTIONARY
  5
70E94
102
{ACAD_REACTORS
330
C
102
}
330
C
100
AcDbDictionary
281
     1
  0
DICTIONARY
  5
70E96
102
{ACAD_REACTORS
330
C
102
}
330
C
100
AcDbDictionary
281
     1
  0
DICTIONARY
  5
70E92
102
{ACAD_REACTORS
330
C
102
}
330
C
100
AcDbDictionary
281
     1
  0
DICTIONARY
  5
70E87
102
{ACAD_REACTORS
330
C
102
}
330
C
100
AcDbDictionary
281
     1
  0
XRECORD
  5
70F14
102
{ACAD_REACTORS
330
C
102
}
330
C
100
AcDbXrecord
280
     1
  1
DWGPROPS COOKIE
  2

  3

  4

  6

  7

  8
SPAX
  9

300
=
301
=
302
=
303
=
304
=
305
=
306
=
307
=
308
=
309
=
 40
0.0
 41
2448636.244629618
 42
2457437.366864908
  1

 90
        0
  0
DICTIONARY
  5
3E3B8
102
{ACAD_REACTORS
330
28C1
102
}
330
28C1
100
AcDbDictionary
281
     1
  0
DICTIONARY
  5
28C2
102
{ACAD_REACTORS
330
28C1
102
}
330
28C1
100
AcDbDictionary
281
     1
  0
DICTIONARY
  5
3E3B7
102
{ACAD_REACTORS
330
28C1
102
}
330
28C1
100
AcDbDictionary
281
     1
1001
ACAD
1000
<All
  0
XRECORD
  5
229C3
102
{ACAD_REACTORS
330
229C2
102
}
330
229C2
100
AcDbXrecord
280
     1
290
     1
  0
XRECORD
  5
229C9
102
{ACAD_REACTORS
330
229C8
102
}
330
229C8
100
AcDbXrecord
280
     1
290
     1
  0
XRECORD
  5
229D1
102
{ACAD_REACTORS
330
229D0
102
}
330
229D0
100
AcDbXrecord
280
     1
290
     1
  0
XRECORD
  5
229D5
102
{ACAD_REACTORS
330
229D4
102
}
330
229D4
100
AcDbXrecord
280
     1
290
     1
  0
SORTENTSTABLE
  5
2F65F
102
{ACAD_REACTORS
330
2F65E
102
}
330
2F65E
100
AcDbSortentsTable
330
18
331
0
  5
6DB5E
331
6DC6F
  5
6DC6F
  0
XRECORD
  5
70E7B
102
{ACAD_REACTORS
330
70E7A
102
}
330
70E7A
100
AcDbXrecord
280
     1
102
VISUALSTYLE
340
0
102
GRIDDISPLAY
 70
     0
102
GRIDMAJOR
 70
     5
102
DEFAULTLIGHTING
280
     1
102
DEFAULTLIGHTINGTYPE
 70
     1
102
BRIGHTNESS
141
0.0
102
CONTRAST
142
0.0
  0
XRECORD
  5
70E7D
102
{ACAD_REACTORS
330
70E7C
102
}
330
70E7C
100
AcDbXrecord
280
     1
102
VISUALSTYLE
340
0
102
GRIDDISPLAY
 70
     0
102
GRIDMAJOR
 70
     5
102
DEFAULTLIGHTING
280
     1
102
DEFAULTLIGHTINGTYPE
 70
     1
102
BRIGHTNESS
141
0.0
102
CONTRAST
142
0.0
  0
LAYOUT
  5
355
102
{ACAD_REACTORS
330
353
102
}
330
353
100
AcDbPlotSettings
  1

  2
JUST PDF 2
  4
A4
  6

 40
3.174999952316284
 41
3.174999952316284
 42
3.175003051757812
 43
3.17498779296875
 44
209.8886566162109
 45
297.0530090332031
 46
14.27171755861582
 47
9.85517307462564
 48
0.0
 49
0.0
140
1049.971310969431
141
1625.956050832001
142
1.0
143
6.0
 70
 11940
 72
     1
 73
     0
 74
     4
  7
spax form.ctb
 75
     0
147
0.0753081251755734
148
0.0
149
0.0
100
AcDbLayout
  1
Model
 70
     1
 71
     0
 10
0.0
 20
0.0
 11
12.0
 21
9.0
 12
0.0
 22
0.0
 32
0.0
 14
46.29317487827916
 24
1261.790537777682
 34
0.0
 15
193.9883514727135
 25
1431.67145581454
 35
0.0
146
0.0
 13
0.0
 23
0.0
 33
0.0
 16
1.0
 26
0.0
 36
0.0
 17
0.0
 27
1.0
 37
0.0
 76
     0
330
18
331
6E6DB
1001
ACAD_PSEXT
1000
JUST PDF 2
1000
JUST PDF 2
1000
JUST PDF 2 Port:
1000

1070
     0
  0
LAYOUT
  5
356
102
{ACAD_REACTORS
330
353
102
}
330
353
100
AcDbPlotSettings
  1

  2
Canon LASER SHOT LBP-750
  4

  6

 40
0.0
 41
0.0
 42
0.0
 43
0.0
 44
0.0
 45
0.0
 46
0.0
 47
0.0
 48
0.0
 49
0.0
140
0.0
141
0.0
142
1.0
143
1.0
 70
   688
 72
     0
 73
     1
 74
     5
  7
spax form.ctb
 75
    16
147
1.0
148
0.0
149
0.0
100
AcDbLayout
  1
ﾚｲｱｳﾄ1
 70
     0
 71
     1
 10
0.0
 20
0.0
 11
0.0
 21
0.0
 12
0.0
 22
0.0
 32
0.0
 14
0.0
 24
0.0
 34
0.0
 15
0.0
 25
0.0
 35
0.0
146
0.0
 13
0.0
 23
0.0
 33
0.0
 16
1.0
 26
0.0
 36
0.0
 17
0.0
 27
1.0
 37
0.0
 76
     0
330
15
331
2552
  0
MLINESTYLE
  5
1B
102
{ACAD_REACTORS
330
E
102
}
330
E
100
AcDbMlineStyle
  2
STANDARD
 70
     0
  3

 62
     0
 51
90.0
 52
90.0
 71
     2
 49
0.5
 62
   256
  6
BYLAYER
 49
-0.5
 62
   256
  6
BYLAYER
  0
ACDBPLACEHOLDER
  5
352
102
{ACAD_REACTORS
330
351
102
}
330
351
  0
SCALE
  5
22994
102
{ACAD_REACTORS
330
22993
102
}
330
22993
100
AcDbScale
 70
     0
300
1:1
140
1.0
141
1.0
290
     1
1001
ACAD
1000
AcRTDxfName
1000
SCALE
  0
SCALE
  5
2F83E
102
{ACAD_REACTORS
330
22993
102
}
330
22993
100
AcDbScale
 70
     0
300
1:2
140
1.0
141
2.0
290
     0
1001
ACAD
1000
AcRTDxfName
1000
SCALE
  0
SCALE
  5
2F83F
102
{ACAD_REACTORS
330
22993
102
}
330
22993
100
AcDbScale
 70
     0
300
1:4
140
1.0
141
4.0
290
     0
1001
ACAD
1000
AcRTDxfName
1000
SCALE
  0
SCALE
  5
2F840
102
{ACAD_REACTORS
330
22993
102
}
330
22993
100
AcDbScale
 70
     0
300
1:5
140
1.0
141
5.0
290
     0
1001
ACAD
1000
AcRTDxfName
1000
SCALE
  0
SCALE
  5
2F841
102
{ACAD_REACTORS
330
22993
102
}
330
22993
100
AcDbScale
 70
     0
300
1:8
140
1.0
141
8.0
290
     0
1001
ACAD
1000
AcRTDxfName
1000
SCALE
  0
SCALE
  5
2F842
102
{ACAD_REACTORS
330
22993
102
}
330
22993
100
AcDbScale
 70
     0
300
1:10
140
1.0
141
10.0
290
     0
1001
ACAD
1000
AcRTDxfName
1000
SCALE
  0
SCALE
  5
2F843
102
{ACAD_REACTORS
330
22993
102
}
330
22993
100
AcDbScale
 70
     0
300
1:16
140
1.0
141
16.0
290
     0
1001
ACAD
1000
AcRTDxfName
1000
SCALE
  0
SCALE
  5
2F844
102
{ACAD_REACTORS
330
22993
102
}
330
22993
100
AcDbScale
 70
     0
300
1:20
140
1.0
141
20.0
290
     0
1001
ACAD
1000
AcRTDxfName
1000
SCALE
  0
SCALE
  5
2F845
102
{ACAD_REACTORS
330
22993
102
}
330
22993
100
AcDbScale
 70
     0
300
1:30
140
1.0
141
30.0
290
     0
1001
ACAD
1000
AcRTDxfName
1000
SCALE
  0
SCALE
  5
2F846
102
{ACAD_REACTORS
330
22993
102
}
330
22993
100
AcDbScale
 70
     0
300
1:40
140
1.0
141
40.0
290
     0
1001
ACAD
1000
AcRTDxfName
1000
SCALE
  0
SCALE
  5
2F847
102
{ACAD_REACTORS
330
22993
102
}
330
22993
100
AcDbScale
 70
     0
300
1:50
140
1.0
141
50.0
290
     0
1001
ACAD
1000
AcRTDxfName
1000
SCALE
  0
SCALE
  5
2F848
102
{ACAD_REACTORS
330
22993
102
}
330
22993
100
AcDbScale
 70
     0
300
1:100
140
1.0
141
100.0
290
     0
1001
ACAD
1000
AcRTDxfName
1000
SCALE
  0
SCALE
  5
2F849
102
{ACAD_REACTORS
330
22993
102
}
330
22993
100
AcDbScale
 70
     0
300
2:1
140
2.0
141
1.0
290
     0
1001
ACAD
1000
AcRTDxfName
1000
SCALE
  0
SCALE
  5
2F84A
102
{ACAD_REACTORS
330
22993
102
}
330
22993
100
AcDbScale
 70
     0
300
4:1
140
4.0
141
1.0
290
     0
1001
ACAD
1000
AcRTDxfName
1000
SCALE
  0
SCALE
  5
2F84B
102
{ACAD_REACTORS
330
22993
102
}
330
22993
100
AcDbScale
 70
     0
300
8:1
140
8.0
141
1.0
290
     0
1001
ACAD
1000
AcRTDxfName
1000
SCALE
  0
SCALE
  5
2F84C
102
{ACAD_REACTORS
330
22993
102
}
330
22993
100
AcDbScale
 70
     0
300
10:1
140
10.0
141
1.0
290
     0
1001
ACAD
1000
AcRTDxfName
1000
SCALE
  0
SCALE
  5
2F84D
102
{ACAD_REACTORS
330
22993
102
}
330
22993
100
AcDbScale
 70
     0
300
100:1
140
100.0
141
1.0
290
     0
1001
ACAD
1000
AcRTDxfName
1000
SCALE
  0
SCALE
  5
2F84E
102
{ACAD_REACTORS
330
22993
102
}
330
22993
100
AcDbScale
 70
     0
300
1/128" = 1'-0"
140
0.0078125
141
12.0
290
     0
1001
ACAD
1000
AcRTDxfName
1000
SCALE
  0
SCALE
  5
2F84F
102
{ACAD_REACTORS
330
22993
102
}
330
22993
100
AcDbScale
 70
     0
300
1/64" = 1'-0"
140
0.015625
141
12.0
290
     0
1001
ACAD
1000
AcRTDxfName
1000
SCALE
  0
SCALE
  5
2F850
102
{ACAD_REACTORS
330
22993
102
}
330
22993
100
AcDbScale
 70
     0
300
1/32" = 1'-0"
140
0.03125
141
12.0
290
     0
1001
ACAD
1000
AcRTDxfName
1000
SCALE
  0
SCALE
  5
2F851
102
{ACAD_REACTORS
330
22993
102
}
330
22993
100
AcDbScale
 70
     0
300
1/16" = 1'-0"
140
0.0625
141
12.0
290
     0
1001
ACAD
1000
AcRTDxfName
1000
SCALE
  0
SCALE
  5
2F852
102
{ACAD_REACTORS
330
22993
102
}
330
22993
100
AcDbScale
 70
     0
300
3/32" = 1'-0"
140
0.09375
141
12.0
290
     0
1001
ACAD
1000
AcRTDxfName
1000
SCALE
  0
SCALE
  5
2F853
102
{ACAD_REACTORS
330
22993
102
}
330
22993
100
AcDbScale
 70
     0
300
1/8" = 1'-0"
140
0.125
141
12.0
290
     0
1001
ACAD
1000
AcRTDxfName
1000
SCALE
  0
SCALE
  5
2F854
102
{ACAD_REACTORS
330
22993
102
}
330
22993
100
AcDbScale
 70
     0
300
3/16" = 1'-0"
140
0.1875
141
12.0
290
     0
1001
ACAD
1000
AcRTDxfName
1000
SCALE
  0
SCALE
  5
2F855
102
{ACAD_REACTORS
330
22993
102
}
330
22993
100
AcDbScale
 70
     0
300
1/4" = 1'-0"
140
0.25
141
12.0
290
     0
1001
ACAD
1000
AcRTDxfName
1000
SCALE
  0
SCALE
  5
2F856
102
{ACAD_REACTORS
330
22993
102
}
330
22993
100
AcDbScale
 70
     0
300
3/8" = 1'-0"
140
0.375
141
12.0
290
     0
1001
ACAD
1000
AcRTDxfName
1000
SCALE
  0
SCALE
  5
2F857
102
{ACAD_REACTORS
330
22993
102
}
330
22993
100
AcDbScale
 70
     0
300
1/2" = 1'-0"
140
0.5
141
12.0
290
     0
1001
ACAD
1000
AcRTDxfName
1000
SCALE
  0
SCALE
  5
2F858
102
{ACAD_REACTORS
330
22993
102
}
330
22993
100
AcDbScale
 70
     0
300
3/4" = 1'-0"
140
0.75
141
12.0
290
     0
1001
ACAD
1000
AcRTDxfName
1000
SCALE
  0
SCALE
  5
2F859
102
{ACAD_REACTORS
330
22993
102
}
330
22993
100
AcDbScale
 70
     0
300
1" = 1'-0"
140
1.0
141
12.0
290
     0
1001
ACAD
1000
AcRTDxfName
1000
SCALE
  0
SCALE
  5
2F85A
102
{ACAD_REACTORS
330
22993
102
}
330
22993
100
AcDbScale
 70
     0
300
1-1/2" = 1'-0"
140
1.5
141
12.0
290
     0
1001
ACAD
1000
AcRTDxfName
1000
SCALE
  0
SCALE
  5
2F85B
102
{ACAD_REACTORS
330
22993
102
}
330
22993
100
AcDbScale
 70
     0
300
3" = 1'-0"
140
3.0
141
12.0
290
     0
1001
ACAD
1000
AcRTDxfName
1000
SCALE
  0
SCALE
  5
2F85C
102
{ACAD_REACTORS
330
22993
102
}
330
22993
100
AcDbScale
 70
     0
300
6" = 1'-0"
140
6.0
141
12.0
290
     0
1001
ACAD
1000
AcRTDxfName
1000
SCALE
  0
SCALE
  5
2F85D
102
{ACAD_REACTORS
330
22993
102
}
330
22993
100
AcDbScale
 70
     0
300
1'-0" = 1'-0"
140
12.0
141
12.0
290
     0
1001
ACAD
1000
AcRTDxfName
1000
SCALE
  0
DICTIONARYVAR
  5
256C
102
{ACAD_REACTORS
330
256B
102
}
330
256B
100
DictionaryVariables
280
     0
  1
1
  0
DICTIONARYVAR
  5
2C4AB
102
{ACAD_REACTORS
330
256B
102
}
330
256B
100
DictionaryVariables
280
     0
  1
0
  0
DICTIONARYVAR
  5
256D
102
{ACAD_REACTORS
330
256B
102
}
330
256B
100
DictionaryVariables
280
     0
  1

  0
DICTIONARYVAR
  5
2C4AA
102
{ACAD_REACTORS
330
256B
102
}
330
256B
100
DictionaryVariables
280
     0
  1
127
  0
ENDSEC
  0
EOF
