  0
SECTION
  2
HEADER
  9
$ACADVER
  1
AC1015
  9
$ACADMAINTVER
 70
     6
  9
$DWGCODEPAGE
  3
ANSI_932
  9
$INSBASE
 10
0.0
 20
0.0
 30
0.0
  9
$EXTMIN
 10
147.8698649662529
 20
-287.5533436791841
 30
0.0
  9
$EXTMAX
 10
1710.471609883355
 20
755.4643477349728
 30
0.0
  9
$LIMMIN
 10
0.0
 20
0.0
  9
$LIMMAX
 10
420.0
 20
297.0
  9
$ORTHOMODE
 70
     0
  9
$REGENMODE
 70
     1
  9
$FILLMODE
 70
     1
  9
$QTEXTMODE
 70
     0
  9
$MIRRTEXT
 70
     1
  9
$LTSCALE
 40
5.0
  9
$ATTMODE
 70
     0
  9
$TEXTSIZE
 40
53.44730959687513
  9
$TRACEWID
 40
1.0
  9
$TEXTSTYLE
  7
STANDARD
  9
$CLAYER
  8
寸法線
  9
$CELTYPE
  6
BYLAYER
  9
$CECOLOR
 62
   256
  9
$CELTSCALE
 40
1.0
  9
$DISPSILH
 70
     0
  9
$DIMSCALE
 40
1.0
  9
$DIMASZ
 40
2.5
  9
$DIMEXO
 40
1.5
  9
$DIMDLI
 40
0.38
  9
$DIMRND
 40
0.0
  9
$DIMDLE
 40
0.0
  9
$DIMEXE
 40
1.0
  9
$DIMTP
 40
0.0
  9
$DIMTM
 40
0.0
  9
$DIMTXT
 40
2.500000000000003
  9
$DIMCEN
 40
0.0
  9
$DIMTSZ
 40
0.0
  9
$DIMTOL
 70
     0
  9
$DIMLIM
 70
     0
  9
$DIMTIH
 70
     0
  9
$DIMTOH
 70
     0
  9
$DIMSE1
 70
     0
  9
$DIMSE2
 70
     0
  9
$DIMTAD
 70
     3
  9
$DIMZIN
 70
     8
  9
$DIMBLK
  1

  9
$DIMASO
 70
     1
  9
$DIMSHO
 70
     0
  9
$DIMPOST
  1

  9
$DIMAPOST
  1

  9
$DIMALT
 70
     0
  9
$DIMALTD
 70
     0
  9
$DIMALTF
 40
25.4
  9
$DIMLFAC
 40
1.0
  9
$DIMTOFL
 70
     1
  9
$DIMTVP
 40
0.0
  9
$DIMTIX
 70
     0
  9
$DIMSOXD
 70
     0
  9
$DIMSAH
 70
     1
  9
$DIMBLK1
  1
OPEN
  9
$DIMBLK2
  1
OPEN
  9
$DIMSTYLE
  2
STANDARD
  9
$DIMCLRD
 70
     8
  9
$DIMCLRE
 70
     8
  9
$DIMCLRT
 70
   256
  9
$DIMTFAC
 40
1.0
  9
$DIMGAP
 40
1.0
  9
$DIMJUST
 70
     0
  9
$DIMSD1
 70
     0
  9
$DIMSD2
 70
     0
  9
$DIMTOLJ
 70
     1
  9
$DIMTZIN
 70
     0
  9
$DIMALTZ
 70
     0
  9
$DIMALTTZ
 70
     0
  9
$DIMUPT
 70
     0
  9
$DIMDEC
 70
     2
  9
$DIMTDEC
 70
     2
  9
$DIMALTU
 70
     2
  9
$DIMALTTD
 70
     0
  9
$DIMTXSTY
  7
STANDARD
  9
$DIMAUNIT
 70
     0
  9
$DIMADEC
 70
     2
  9
$DIMALTRND
 40
0.0
  9
$DIMAZIN
 70
     2
  9
$DIMDSEP
 70
    46
  9
$DIMATFIT
 70
     1
  9
$DIMFRAC
 70
     0
  9
$DIMLDRBLK
  1
OPEN
  9
$DIMLUNIT
 70
     2
  9
$DIMLWD
 70
    -2
  9
$DIMLWE
 70
    -2
  9
$DIMTMOVE
 70
     0
  9
$LUNITS
 70
     2
  9
$LUPREC
 70
     2
  9
$SKETCHINC
 40
0.1
  9
$FILLETRAD
 40
7.0
  9
$AUNITS
 70
     0
  9
$AUPREC
 70
     1
  9
$MENU
  1
FM
  9
$ELEVATION
 40
0.0
  9
$PELEVATION
 40
0.0
  9
$THICKNESS
 40
0.0
  9
$LIMCHECK
 70
     0
  9
$CHAMFERA
 40
0.0
  9
$CHAMFERB
 40
0.0
  9
$CHAMFERC
 40
0.0
  9
$CHAMFERD
 40
0.0
  9
$SKPOLY
 70
     0
  9
$TDCREATE
 40
2448636.619629629
  9
$TDUCREATE
 40
2448636.244629629
  9
$TDUPDATE
 40
2456822.603316701
  9
$TDUUPDATE
 40
2456822.228316701
  9
$TDINDWG
 40
53.1397847685
  9
$TDUSRTIMER
 40
2456822.227649803
  9
$USRTIMER
 70
     1
  9
$ANGBASE
 50
0.0
  9
$ANGDIR
 70
     0
  9
$PDMODE
 70
     3
  9
$PDSIZE
 40
0.0
  9
$PLINEWID
 40
0.0
  9
$SPLFRAME
 70
     0
  9
$SPLINETYPE
 70
     6
  9
$SPLINESEGS
 70
     8
  9
$HANDSEED
  5
16A54C
  9
$SURFTAB1
 70
     6
  9
$SURFTAB2
 70
     6
  9
$SURFTYPE
 70
     6
  9
$SURFU
 70
     6
  9
$SURFV
 70
     6
  9
$UCSBASE
  2

  9
$UCSNAME
  2

  9
$UCSORG
 10
0.0
 20
0.0
 30
0.0
  9
$UCSXDIR
 10
1.0
 20
0.0
 30
0.0
  9
$UCSYDIR
 10
0.0
 20
1.0
 30
0.0
  9
$UCSORTHOREF
  2

  9
$UCSORTHOVIEW
 70
     0
  9
$UCSORGTOP
 10
0.0
 20
0.0
 30
0.0
  9
$UCSORGBOTTOM
 10
0.0
 20
0.0
 30
0.0
  9
$UCSORGLEFT
 10
0.0
 20
0.0
 30
0.0
  9
$UCSORGRIGHT
 10
0.0
 20
0.0
 30
0.0
  9
$UCSORGFRONT
 10
0.0
 20
0.0
 30
0.0
  9
$UCSORGBACK
 10
0.0
 20
0.0
 30
0.0
  9
$PUCSBASE
  2

  9
$PUCSNAME
  2

  9
$PUCSORG
 10
0.0
 20
0.0
 30
0.0
  9
$PUCSXDIR
 10
1.0
 20
0.0
 30
0.0
  9
$PUCSYDIR
 10
0.0
 20
1.0
 30
0.0
  9
$PUCSORTHOREF
  2

  9
$PUCSORTHOVIEW
 70
     0
  9
$PUCSORGTOP
 10
0.0
 20
0.0
 30
0.0
  9
$PUCSORGBOTTOM
 10
0.0
 20
0.0
 30
0.0
  9
$PUCSORGLEFT
 10
0.0
 20
0.0
 30
0.0
  9
$PUCSORGRIGHT
 10
0.0
 20
0.0
 30
0.0
  9
$PUCSORGFRONT
 10
0.0
 20
0.0
 30
0.0
  9
$PUCSORGBACK
 10
0.0
 20
0.0
 30
0.0
  9
$USERI1
 70
     0
  9
$USERI2
 70
     0
  9
$USERI3
 70
     0
  9
$USERI4
 70
     0
  9
$USERI5
 70
     0
  9
$USERR1
 40
0.0
  9
$USERR2
 40
0.0
  9
$USERR3
 40
0.0
  9
$USERR4
 40
0.0
  9
$USERR5
 40
0.0
  9
$WORLDVIEW
 70
     0
  9
$SHADEDGE
 70
     3
  9
$SHADEDIF
 70
    70
  9
$TILEMODE
 70
     1
  9
$MAXACTVP
 70
    16
  9
$PINSBASE
 10
0.0
 20
0.0
 30
0.0
  9
$PLIMCHECK
 70
     0
  9
$PEXTMIN
 10
1.000000000000000E+20
 20
1.000000000000000E+20
 30
1.000000000000000E+20
  9
$PEXTMAX
 10
-1.000000000000000E+20
 20
-1.000000000000000E+20
 30
-1.000000000000000E+20
  9
$PLIMMIN
 10
0.0
 20
0.0
  9
$PLIMMAX
 10
0.0
 20
0.0
  9
$UNITMODE
 70
     0
  9
$VISRETAIN
 70
     0
  9
$PLINEGEN
 70
     0
  9
$PSLTSCALE
 70
     0
  9
$TREEDEPTH
 70
  3020
  9
$CMLSTYLE
  2
STANDARD
  9
$CMLJUST
 70
     0
  9
$CMLSCALE
 40
1.0
  9
$PROXYGRAPHICS
 70
     1
  9
$MEASUREMENT
 70
     0
  9
$CELWEIGHT
370
    -1
  9
$ENDCAPS
280
     0
  9
$JOINSTYLE
280
     0
  9
$LWDISPLAY
290
     0
  9
$INSUNITS
 70
     0
  9
$HYPERLINKBASE
  1

  9
$STYLESHEET
  1
spax form.ctb
  9
$XEDIT
290
     1
  9
$CEPSNTYPE
380
     0
  9
$PSTYLEMODE
290
     1
  9
$FINGERPRINTGUID
  2
{BBAEEBA6-8B94-11D3-9160-00E0294F7E09}
  9
$VERSIONGUID
  2
{00226F0D-DA96-4849-B5D2-9D6E2D8A70C3}
  9
$EXTNAMES
290
     1
  9
$PSVPSCALE
 40
0.0
  9
$OLESTARTUP
290
     0
  0
ENDSEC
  0
SECTION
  2
CLASSES
  0
CLASS
  1
LWPOLYLINE
  2
AcDbPolyline
  3
ObjectDBX Classes
 90
        0
280
     0
281
     1
  0
CLASS
  1
ACDBDICTIONARYWDFLT
  2
AcDbDictionaryWithDefault
  3
ObjectDBX Classes
 90
        0
280
     0
281
     0
  0
CLASS
  1
ACDBPLACEHOLDER
  2
AcDbPlaceHolder
  3
ObjectDBX Classes
 90
        0
280
     0
281
     0
  0
CLASS
  1
LAYOUT
  2
AcDbLayout
  3
ObjectDBX Classes
 90
        0
280
     0
281
     0
  0
CLASS
  1
DICTIONARYVAR
  2
AcDbDictionaryVar
  3
ObjectDBX Classes
 90
        0
280
     0
281
     0
  0
CLASS
  1
MATERIAL
  2
AcDbMaterial
  3
ObjectDBX Classes
 90
     1153
280
     0
281
     0
  0
CLASS
  1
VISUALSTYLE
  2
AcDbVisualStyle
  3
ObjectDBX Classes
 90
     4095
280
     0
281
     0
  0
CLASS
  1
TABLESTYLE
  2
AcDbTableStyle
  3
ObjectDBX Classes
 90
     4095
280
     0
281
     0
  0
CLASS
  1
SCALE
  2
AcDbScale
  3
ObjectDBX Classes
 90
     1153
280
     0
281
     0
  0
CLASS
  1
MLEADERSTYLE
  2
AcDbMLeaderStyle
  3
ACDB_MLEADERSTYLE_CLASS
 90
     4095
280
     0
281
     0
  0
CLASS
  1
CELLSTYLEMAP
  2
AcDbCellStyleMap
  3
ObjectDBX Classes
 90
     1152
280
     0
281
     0
  0
CLASS
  1
SORTENTSTABLE
  2
AcDbSortentsTable
  3
ObjectDBX Classes
 90
        0
280
     0
281
     0
  0
CLASS
  1
MULTILEADER
  2
AcDbMLeader
  3
ACDB_MLEADER_CLASS
 90
     1025
280
     0
281
     1
  0
CLASS
  1
DIMASSOC
  2
AcDbDimAssoc
  3
"AcDbDimAssoc|Product Desc:     AcDim ARX App For Dimension|Company:          Autodesk, Inc.|WEB Address:      www.autodesk.com"
 90
        0
280
     0
281
     0
  0
CLASS
  1
SUN
  2
AcDbSun
  3
SCENEOE
 90
     1153
280
     0
281
     0
  0
CLASS
  1
RASTERVARIABLES
  2
AcDbRasterVariables
  3
ISM
 90
        0
280
     0
281
     0
  0
ENDSEC
  0
SECTION
  2
TABLES
  0
TABLE
  2
VPORT
  5
8
330
0
100
AcDbSymbolTable
 70
     1
  0
VPORT
  5
A0C
330
8
100
AcDbSymbolTableRecord
100
AcDbViewportTableRecord
  2
*Active
 70
     0
 10
0.0
 20
0.0
 11
1.0
 21
1.0
 12
1125106301.083804
 22
288082401.4046368
 13
0.0
 23
0.0
 14
1.0
 24
1.0
 15
20.0
 25
20.0
 16
0.0
 26
0.0
 36
1.0
 17
-1125104992.265472
 27
-288082613.3480474
 37
0.0
 40
223.1113970336275
 41
2.027568922305764
 42
50.0
 43
0.0
 44
0.0
 50
0.0
 51
0.0
 71
    16
 72
   100
 73
     1
 74
     0
 75
     0
 76
     0
 77
     0
 78
     0
281
     0
 65
     1
110
0.0
120
0.0
130
0.0
111
1.0
121
0.0
131
0.0
112
0.0
122
1.0
132
0.0
 79
     0
146
0.0
  0
ENDTAB
  0
TABLE
  2
LTYPE
  5
5
330
0
100
AcDbSymbolTable
 70
     5
  0
LTYPE
  5
12
330
5
100
AcDbSymbolTableRecord
100
AcDbLinetypeTableRecord
  2
BYBLOCK
 70
     0
  3

 72
    65
 73
     0
 40
0.0
  0
LTYPE
  5
13
330
5
100
AcDbSymbolTableRecord
100
AcDbLinetypeTableRecord
  2
BYLAYER
 70
     0
  3

 72
    65
 73
     0
 40
0.0
  0
LTYPE
  5
14
330
5
100
AcDbSymbolTableRecord
100
AcDbLinetypeTableRecord
  2
CONTINUOUS
 70
     0
  3
Solid line
 72
    65
 73
     0
 40
0.0
  0
LTYPE
  5
26
330
5
100
AcDbSymbolTableRecord
100
AcDbLinetypeTableRecord
  2
PHANTOM
 70
     0
  3
_____ _ _ _____ _ _ _____ _ _ _____ _ _ ____
 72
    65
 73
     6
 40
2.5
 49
1.25
 74
     0
 49
-0.25
 74
     0
 49
0.25
 74
     0
 49
-0.25
 74
     0
 49
0.25
 74
     0
 49
-0.25
 74
     0
  0
LTYPE
  5
27
330
5
100
AcDbSymbolTableRecord
100
AcDbLinetypeTableRecord
  2
HIDDEN
 70
     0
  3
_ _ _ _ _ _ _ _ _ _ _ _ _ _ _ _ _ _ _ _ _ _ _
 72
    65
 73
     2
 40
0.375
 49
0.25
 74
     0
 49
-0.125
 74
     0
  0
LTYPE
  5
514
330
5
100
AcDbSymbolTableRecord
100
AcDbLinetypeTableRecord
  2
CENTER
 70
     0
  3
Center ____ _ ____ _ ____ _ ____ _ ____ _ ____
 72
    65
 73
     4
 40
2.0
 49
1.25
 74
     0
 49
-0.25
 74
     0
 49
0.25
 74
     0
 49
-0.25
 74
     0
  0
ENDTAB
  0
TABLE
  2
LAYER
  5
2
102
{ACAD_XDICTIONARY
360
8BF
102
}
330
0
100
AcDbSymbolTable
 70
    14
  0
LAYER
  5
F
102
{ACAD_XDICTIONARY
360
A60
102
}
330
2
100
AcDbSymbolTableRecord
100
AcDbLayerTableRecord
  2
0
 70
     0
 62
     7
  6
CONTINUOUS
370
    -3
390
616
  0
LAYER
  5
34
102
{ACAD_XDICTIONARY
360
A66
102
}
330
2
100
AcDbSymbolTableRecord
100
AcDbLayerTableRecord
  2
寸法線
 70
     0
 62
     7
  6
CONTINUOUS
370
    -3
390
616
  0
LAYER
  5
36
330
2
100
AcDbSymbolTableRecord
100
AcDbLayerTableRecord
  2
DEFPOINTS
 70
     0
 62
    -7
  6
CONTINUOUS
290
     0
370
    -3
390
616
  0
LAYER
  5
2F4
102
{ACAD_XDICTIONARY
360
A6E
102
}
330
2
100
AcDbSymbolTableRecord
100
AcDbLayerTableRecord
  2
文字
 70
     0
 62
     7
  6
CONTINUOUS
370
    -3
390
616
  0
LAYER
  5
305
102
{ACAD_XDICTIONARY
360
A72
102
}
330
2
100
AcDbSymbolTableRecord
100
AcDbLayerTableRecord
  2
姿図
 70
     0
 62
     8
  6
CONTINUOUS
370
    -3
390
616
  0
LAYER
  5
9A507
330
2
100
AcDbSymbolTableRecord
100
AcDbLayerTableRecord
  2
下書き線
 70
     0
 62
    -3
  6
HIDDEN
290
     0
370
    -3
390
616
  0
ENDTAB
  0
TABLE
  2
STYLE
  5
3
330
0
100
AcDbSymbolTable
 70
     1
  0
STYLE
  5
10
330
3
100
AcDbSymbolTableRecord
100
AcDbTextStyleTableRecord
  2
STANDARD
 70
     0
 40
0.0
 41
1.0
 50
0.0
 71
     0
 42
53.44730959687513
  3
MONOTXT
  4
BIGFONT
  0
ENDTAB
  0
TABLE
  2
VIEW
  5
6
330
0
100
AcDbSymbolTable
 70
     0
  0
ENDTAB
  0
TABLE
  2
UCS
  5
7
330
0
100
AcDbSymbolTable
 70
     0
  0
ENDTAB
  0
TABLE
  2
APPID
  5
9
330
0
100
AcDbSymbolTable
 70
    15
  0
APPID
  5
11
330
9
100
AcDbSymbolTableRecord
100
AcDbRegAppTableRecord
  2
ACAD
 70
     0
  0
APPID
  5
8BB
330
9
100
AcDbSymbolTableRecord
100
AcDbRegAppTableRecord
  2
ACAD_PSEXT
 70
     0
  0
APPID
  5
A5A
330
9
100
AcDbSymbolTableRecord
100
AcDbRegAppTableRecord
  2
ACAD_MLEADERVER
 70
     0
  0
APPID
  5
A5E
330
9
100
AcDbSymbolTableRecord
100
AcDbRegAppTableRecord
  2
ACAD_DSTYLE_DIMJAG
 70
     0
  0
APPID
  5
A5F
330
9
100
AcDbSymbolTableRecord
100
AcDbRegAppTableRecord
  2
ACAD_DSTYLE_DIMTALN
 70
     0
  0
APPID
  5
12C0
330
9
100
AcDbSymbolTableRecord
100
AcDbRegAppTableRecord
  2
ACAD_EXEMPT_FROM_CAD_STANDARDS
 70
     0
  0
APPID
  5
1C50
330
9
100
AcDbSymbolTableRecord
100
AcDbRegAppTableRecord
  2
AcAecLayerStandard
 70
     0
  0
APPID
  5
5088
330
9
100
AcDbSymbolTableRecord
100
AcDbRegAppTableRecord
  2
ACAD_DSTYLE_DIMRADIAL_EXTENSION
 70
     0
  0
APPID
  5
14AF3
330
9
100
AcDbSymbolTableRecord
100
AcDbRegAppTableRecord
  2
WACOM_STRING
 70
     0
  0
APPID
  5
14AF4
330
9
100
AcDbSymbolTableRecord
100
AcDbRegAppTableRecord
  2
WACOM_DRSYM_ARROW
 70
     0
  0
APPID
  5
1E1A8
330
9
100
AcDbSymbolTableRecord
100
AcDbRegAppTableRecord
  2
GENIUS_GENODEF_13
 70
     0
  0
APPID
  5
1E1A9
330
9
100
AcDbSymbolTableRecord
100
AcDbRegAppTableRecord
  2
GENIUS_GENREC_14
 70
     0
  0
APPID
  5
1E1AA
330
9
100
AcDbSymbolTableRecord
100
AcDbRegAppTableRecord
  2
GENIUS_GENOBJ-N-REC_13
 70
     0
  0
APPID
  5
27C72
330
9
100
AcDbSymbolTableRecord
100
AcDbRegAppTableRecord
  2
ASK_MEN_XD
 70
     0
  0
APPID
  5
29316
330
9
100
AcDbSymbolTableRecord
100
AcDbRegAppTableRecord
  2
ACAD_DSTYLE_DIMBREAK
 70
     0
  0
ENDTAB
  0
TABLE
  2
DIMSTYLE
  5
A
330
0
100
AcDbSymbolTable
 70
     3
100
AcDbDimStyleTable
  0
DIMSTYLE
105
1CC
330
A
100
AcDbSymbolTableRecord
100
AcDbDimStyleTableRecord
  2
STANDARD
 70
     0
 41
2.5
 42
1.5
 44
1.0
 73
     0
 74
     0
 77
     3
 78
     8
 79
     2
140
2.500000000000003
141
0.0
147
1.0
171
     0
172
     1
173
     1
176
     8
177
     8
271
     2
178
   256
179
     2
271
     2
272
     2
274
     0
289
     1
340
10
341
608
343
608
344
608
1001
ACAD_DSTYLE_DIMJAG
1070
   388
1040
1.5
1001
ACAD_DSTYLE_DIMTALN
1070
   392
1070
     0
  0
ENDTAB
  0
TABLE
  2
BLOCK_RECORD
  5
1
330
0
100
AcDbSymbolTable
 70
    20
  0
BLOCK_RECORD
  5
18
102
{ACAD_XDICTIONARY
360
143F
102
}
330
1
100
AcDbSymbolTableRecord
100
AcDbBlockTableRecord
  2
*MODEL_SPACE
340
619
  0
BLOCK_RECORD
  5
15
330
1
100
AcDbSymbolTableRecord
100
AcDbBlockTableRecord
  2
*PAPER_SPACE
340
61A
  0
BLOCK_RECORD
  5
608
330
1
100
AcDbSymbolTableRecord
100
AcDbBlockTableRecord
  2
_OPEN
340
0
102
{BLKREFS
331
164F0C
331
164F0D
331
164F17
331
164F18
331
164F20
331
164F21
331
164F2B
331
164F2C
331
164F34
331
164F35
331
164F3F
331
164F40
331
164F48
331
164F49
331
164F53
331
164F54
331
167A25
331
167A26
331
167A30
331
167A31
331
167A39
331
167A3A
331
167A44
331
167A45
331
16A4F3
331
16A4F4
331
16A4FE
331
16A4FF
331
16A507
331
16A508
331
16A512
331
16A513
102
}
  0
BLOCK_RECORD
  5
89D
330
1
100
AcDbSymbolTableRecord
100
AcDbBlockTableRecord
  2
SUN
340
0
  0
BLOCK_RECORD
  5
1F1F
330
1
100
AcDbSymbolTableRecord
100
AcDbBlockTableRecord
  2
_OPEN30
340
0
  0
ENDTAB
  0
ENDSEC
  0
SECTION
  2
BLOCKS
  0
BLOCK
  5
39
330
18
100
AcDbEntity
  8
0
100
AcDbBlockBegin
  2
*MODEL_SPACE
 70
     0
 10
0.0
 20
0.0
 30
0.0
  3
*MODEL_SPACE
  1
*MODEL_SPACE
  0
ENDBLK
  5
3A
330
18
100
AcDbEntity
  8
0
100
AcDbBlockEnd
  0
BLOCK
  5
37
330
15
100
AcDbEntity
 67
     1
  8
0
100
AcDbBlockBegin
  2
*PAPER_SPACE
 70
     0
 10
0.0
 20
0.0
 30
0.0
  3
*PAPER_SPACE
  1
*PAPER_SPACE
  0
ENDBLK
  5
38
330
15
100
AcDbEntity
 67
     1
  8
0
100
AcDbBlockEnd
  0
BLOCK
  5
609
330
608
100
AcDbEntity
  8
0
100
AcDbBlockBegin
  2
_OPEN
 70
     0
 10
0.0
 20
0.0
 30
0.0
  3
_OPEN
  1
_OPEN
  0
LINE
  5
60A
330
608
100
AcDbEntity
  8
0
  6
ByBlock
 62
     0
100
AcDbLine
 10
-1.0
 20
0.1666666666666667
 30
0.0
 11
0.0
 21
0.0
 31
0.0
  0
LINE
  5
60B
330
608
100
AcDbEntity
  8
0
  6
ByBlock
 62
     0
100
AcDbLine
 10
0.0
 20
0.0
 30
0.0
 11
-1.0
 21
-0.1666666666666667
 31
0.0
  0
LINE
  5
60C
330
608
100
AcDbEntity
  8
0
  6
ByBlock
 62
     0
100
AcDbLine
 10
0.0
 20
0.0
 30
0.0
 11
-1.0
 21
0.0
 31
0.0
  0
ENDBLK
  5
60D
330
608
100
AcDbEntity
  8
0
100
AcDbBlockEnd
  0
BLOCK
  5
89E
330
89D
100
AcDbEntity
  8
0
100
AcDbBlockBegin
  2
SUN
 70
     0
 10
0.0
 20
0.0
 30
0.0
  3
SUN
  1
SUN
  0
LINE
  5
89F
330
89D
100
AcDbEntity
  8
0
100
AcDbLine
 10
-0.0000000000000568
 20
0.0
 30
0.0
 11
-1.500000000000057
 21
0.0
 31
0.0
  0
LINE
  5
8A0
330
89D
100
AcDbEntity
  8
0
100
AcDbLine
 10
-0.0000000000000568
 20
0.0000000000000284
 30
0.0
 11
-1.500000000000057
 21
0.401923788646684
 31
0.0
  0
LINE
  5
8A1
330
89D
100
AcDbEntity
  8
0
100
AcDbLine
 10
-0.0000000000000568
 20
0.0000000000000284
 30
0.0
 11
-1.500000000000057
 21
-0.4019237886466556
 31
0.0
  0
ENDBLK
  5
8A2
330
89D
100
AcDbEntity
  8
0
100
AcDbBlockEnd
  0
BLOCK
  5
1F20
330
1F1F
100
AcDbEntity
  8
0
100
AcDbBlockBegin
  2
_OPEN30
 70
     0
 10
0.0
 20
0.0
 30
0.0
  3
_OPEN30
  1
_OPEN30
  0
LINE
  5
1F21
330
1F1F
100
AcDbEntity
  8
0
  6
ByBlock
 62
     0
100
AcDbLine
 10
-1.0
 20
0.26794919
 30
0.0
 11
0.0
 21
0.0
 31
0.0
  0
LINE
  5
1F22
330
1F1F
100
AcDbEntity
  8
0
  6
ByBlock
 62
     0
100
AcDbLine
 10
0.0
 20
0.0
 30
0.0
 11
-1.0
 21
-0.26794919
 31
0.0
  0
LINE
  5
1F23
330
1F1F
100
AcDbEntity
  8
0
  6
ByBlock
 62
     0
100
AcDbLine
 10
0.0
 20
0.0
 30
0.0
 11
-1.0
 21
0.0
 31
0.0
  0
ENDBLK
  5
1F24
330
1F1F
100
AcDbEntity
  8
0
100
AcDbBlockEnd
  0
ENDSEC
  0
SECTION
  2
ENTITIES
  0
MTEXT
  5
D0CC6
330
18
100
AcDbEntity
  8
寸法線
100
AcDbMText
 10
2610.774875364868
 20
-2740.315466585338
 30
0.0
 40
2.500000000000003
 41
0.0
 71
     9
 72
     1
  1
\A1;
 73
     1
 44
1.0
  0
MTEXT
  5
F6D77
330
18
100
AcDbEntity
  8
文字
100
AcDbMText
 10
5821.057140836062
 20
-2842.341718131323
 30
0.0
 40
2.5
 41
64.39156592258223
 71
     1
 72
     5
  1
   
 73
     1
 44
1.0
  0
MTEXT
  5
F6D78
330
18
100
AcDbEntity
  8
寸法線
100
AcDbMText
 10
6222.662262480188
 20
-2968.738290481128
 30
0.0
 40
3.000000000000001
 41
0.0
 71
     7
 72
     1
  1
\A1;
 73
     1
 44
1.0
  0
LINE
  5
16210A
330
18
100
AcDbEntity
  8
下書き線
100
AcDbLine
 10
147.8698649662529
 20
755.4643477349728
 30
0.0
 11
147.8698649662529
 21
630.265756508099
 31
0.0
  0
LINE
  5
16210B
330
18
100
AcDbEntity
  8
下書き線
100
AcDbLine
 10
154.8559427423806
 20
749.965752233089
 30
0.0
 11
154.8559427423788
 21
627.273261250366
 31
0.0
  0
LINE
  5
16210C
330
18
100
AcDbEntity
  8
下書き線
100
AcDbLine
 10
147.8698649662529
 20
690.1157543705922
 30
0.0
 11
154.8559427423806
 21
690.1157543705904
 31
0.0
  0
LINE
  5
16210D
330
18
100
AcDbEntity
  8
下書き線
100
AcDbLine
 10
147.8698649662529
 20
700.0907540143417
 30
0.0
 11
154.8559427423806
 21
700.0907540143417
 31
0.0
  0
LINE
  5
16210E
330
18
100
AcDbEntity
  8
下書き線
100
AcDbLine
 10
154.8559427423788
 20
707.0732584003545
 30
0.0
 11
220.0822683572651
 21
707.0732584003545
 31
0.0
  0
LINE
  5
16210F
330
18
100
AcDbEntity
  8
下書き線
100
AcDbLine
 10
147.8698649662529
 20
710.0657536580966
 30
0.0
 11
154.8559427423806
 21
710.0657536580966
 31
0.0
  0
LINE
  5
162110
330
18
100
AcDbEntity
  8
下書き線
100
AcDbLine
 10
147.8698649662529
 20
720.040753301846
 30
0.0
 11
154.8559427423806
 21
720.0407533018406
 31
0.0
  0
LINE
  5
162111
330
18
100
AcDbEntity
  8
下書き線
100
AcDbLine
 10
154.8559427423788
 20
717.0482580441058
 30
0.0
 11
220.0822683572651
 21
717.0482580441058
 31
0.0
  0
LINE
  5
162112
330
18
100
AcDbEntity
  8
下書き線
100
AcDbLine
 10
154.8559427423788
 20
717.0482580441058
 30
0.0
 11
220.0822683572651
 21
717.0482580441058
 31
0.0
  0
LINE
  5
162113
330
18
100
AcDbEntity
  8
下書き線
100
AcDbLine
 10
147.8698649662529
 20
720.040753301846
 30
0.0
 11
154.8559427423806
 21
720.0407533018406
 31
0.0
  0
LINE
  5
162114
330
18
100
AcDbEntity
  8
下書き線
100
AcDbLine
 10
147.8698649662529
 20
730.0157529455955
 30
0.0
 11
154.8559427423806
 21
730.0157529455846
 31
0.0
  0
LINE
  5
162115
330
18
100
AcDbEntity
  8
下書き線
100
AcDbLine
 10
154.8559427423788
 20
727.0232576878552
 30
0.0
 11
220.0822683572651
 21
727.0232576878552
 31
0.0
  0
LINE
  5
162116
330
18
100
AcDbEntity
  8
下書き線
100
AcDbLine
 10
154.8559427423788
 20
736.9982573316083
 30
0.0
 11
220.0822683572651
 21
736.9982573316083
 31
0.0
  0
LINE
  5
162117
330
18
100
AcDbEntity
  8
下書き線
100
AcDbLine
 10
147.8698649662529
 20
739.990752589345
 30
0.0
 11
154.8559427423806
 21
739.990752589345
 31
0.0
  0
LINE
  5
162118
330
18
100
AcDbEntity
  8
下書き線
100
AcDbLine
 10
147.8698649662529
 20
749.9657522330945
 30
0.0
 11
154.8559427423806
 21
749.965752233089
 31
0.0
  0
LINE
  5
162119
330
18
100
AcDbEntity
  8
下書き線
100
AcDbLine
 10
154.8559427423788
 20
746.9732569753578
 30
0.0
 11
220.0822683572651
 21
746.9732569753578
 31
0.0
  0
LINE
  5
16212A
330
18
100
AcDbEntity
  8
下書き線
100
AcDbLine
 10
147.8698649662529
 20
680.1407547268464
 30
0.0
 11
154.8559427423806
 21
680.1407547268409
 31
0.0
  0
LINE
  5
16212B
330
18
100
AcDbEntity
  8
下書き線
100
AcDbLine
 10
147.8698649662529
 20
670.1657550830969
 30
0.0
 11
154.8559427423806
 21
670.1657550830914
 31
0.0
  0
LINE
  5
16212C
330
18
100
AcDbEntity
  8
下書き線
100
AcDbLine
 10
147.8698649662529
 20
660.1907554393474
 30
0.0
 11
154.8559427423806
 21
660.190755439342
 31
0.0
  0
LINE
  5
16212D
330
18
100
AcDbEntity
  8
下書き線
100
AcDbLine
 10
202.1267971434445
 20
749.965752233089
 30
0.0
 11
202.1267971434481
 21
627.2732612503642
 31
0.0
  0
LINE
  5
16212E
330
18
100
AcDbEntity
  8
下書き線
100
AcDbLine
 10
154.8559427423788
 20
667.1732598253566
 30
0.0
 11
220.0822683572615
 21
667.1732598253566
 31
0.0
  0
LINE
  5
16212F
330
18
100
AcDbEntity
  8
下書き線
100
AcDbLine
 10
147.8698649662529
 20
670.1657550830932
 30
0.0
 11
154.8559427423806
 21
670.1657550830878
 31
0.0
  0
LINE
  5
162130
330
18
100
AcDbEntity
  8
下書き線
100
AcDbLine
 10
147.8698649662529
 20
680.1407547268427
 30
0.0
 11
154.8559427423806
 21
680.1407547268409
 31
0.0
  0
LINE
  5
162131
330
18
100
AcDbEntity
  8
下書き線
100
AcDbLine
 10
154.8559427423788
 20
677.148259469106
 30
0.0
 11
220.0822683572615
 21
677.148259469106
 31
0.0
  0
LINE
  5
162132
330
18
100
AcDbEntity
  8
下書き線
100
AcDbLine
 10
154.8559427423788
 20
697.098258756605
 30
0.0
 11
220.0822683572615
 21
697.098258756605
 31
0.0
  0
LINE
  5
162133
330
18
100
AcDbEntity
  8
下書き線
100
AcDbLine
 10
147.8698649662529
 20
700.0907540143417
 30
0.0
 11
154.8559427423806
 21
700.0907540143417
 31
0.0
  0
LINE
  5
16213D
330
18
100
AcDbEntity
  8
下書き線
100
AcDbLine
 10
154.8559427423788
 20
647.2232605378576
 30
0.0
 11
220.0822683572615
 21
647.2232605378576
 31
0.0
  0
LINE
  5
16213E
330
18
100
AcDbEntity
  8
下書き線
100
AcDbLine
 10
147.8698649662529
 20
650.2157557955979
 30
0.0
 11
154.8559427423806
 21
650.2157557955925
 31
0.0
  0
LINE
  5
162142
330
18
100
AcDbEntity
  8
下書き線
100
AcDbLine
 10
154.8559427423788
 20
637.24826089411
 30
0.0
 11
220.0822683572615
 21
637.24826089411
 31
0.0
  0
LINE
  5
162146
330
18
100
AcDbEntity
  8
下書き線
100
AcDbLine
 10
154.8559427423788
 20
687.1232591128555
 30
0.0
 11
220.0822683572615
 21
687.1232591128555
 31
0.0
  0
LINE
  5
162147
330
18
100
AcDbEntity
  8
下書き線
100
AcDbLine
 10
147.8698649662529
 20
690.1157543705922
 30
0.0
 11
154.8559427423806
 21
690.1157543705922
 31
0.0
  0
LINE
  5
16214B
330
18
100
AcDbEntity
  8
下書き線
100
AcDbLine
 10
147.8698649662529
 20
660.1907554393438
 30
0.0
 11
154.8559427423806
 21
660.1907554393383
 31
0.0
  0
LINE
  5
16214F
330
18
100
AcDbEntity
  8
下書き線
100
AcDbLine
 10
154.8559427423788
 20
657.1982601816035
 30
0.0
 11
220.0822683572615
 21
657.1982601816035
 31
0.0
  0
LINE
  5
162150
330
18
100
AcDbEntity
  8
下書き線
100
AcDbLine
 10
147.8698649662529
 20
640.2407561518485
 30
0.0
 11
154.8559427423806
 21
640.2407561518448
 31
0.0
  0
LINE
  5
162153
330
18
100
AcDbEntity
  8
下書き線
100
AcDbLine
 10
154.8559427423788
 20
627.2732612503642
 30
0.0
 11
220.0822683572615
 21
627.2732612503642
 31
0.0
  0
LINE
  5
162154
330
18
100
AcDbEntity
  8
下書き線
100
AcDbLine
 10
147.8698649662529
 20
630.2657565081008
 30
0.0
 11
154.8559427423806
 21
630.265756508099
 31
0.0
  0
LINE
  5
163204
330
18
100
AcDbEntity
  8
DEFPOINTS
  6
HIDDEN
 62
     3
100
AcDbLine
 10
347.793955735604
 20
743.3137163629708
 30
0.0
 11
347.793955735604
 21
576.8478516349369
 31
0.0
  0
LINE
  5
163205
330
18
100
AcDbEntity
  8
DEFPOINTS
  6
HIDDEN
 62
     3
100
AcDbLine
 10
347.793955735604
 20
743.3137163629708
 30
0.0
 11
510.4716098833496
 21
743.3137163629708
 31
0.0
  0
LINE
  5
163206
330
18
100
AcDbEntity
  8
DEFPOINTS
  6
HIDDEN
 62
     3
100
AcDbLine
 10
347.793955735603
 20
733.1013072226378
 30
0.0
 11
510.471609883346
 21
733.101307222636
 31
0.0
  0
LINE
  5
163207
330
18
100
AcDbEntity
  8
DEFPOINTS
  6
HIDDEN
 62
     3
100
AcDbLine
 10
347.793955735604
 20
722.4496899483202
 30
0.0
 11
510.4716098833496
 21
722.4496899483202
 31
0.0
  0
LINE
  5
163208
330
18
100
AcDbEntity
  8
DEFPOINTS
  6
HIDDEN
 62
     3
100
AcDbLine
 10
347.793955735603
 20
698.330309349938
 30
0.0
 11
510.4716098833442
 21
698.330309349938
 31
0.0
  0
LINE
  5
163209
330
18
100
AcDbEntity
  8
DEFPOINTS
  6
HIDDEN
 62
     3
100
AcDbLine
 10
347.793955735604
 20
688.1179002095996
 30
0.0
 11
510.471609883346
 21
688.1179002095996
 31
0.0
  0
LINE
  5
16320A
330
18
100
AcDbEntity
  8
DEFPOINTS
  6
HIDDEN
 62
     3
100
AcDbLine
 10
347.793955735603
 20
677.4662829353001
 30
0.0
 11
510.4716098833442
 21
677.4662829353001
 31
0.0
  0
LINE
  5
16320D
330
18
100
AcDbEntity
  8
DEFPOINTS
  6
HIDDEN
 62
     3
100
AcDbLine
 10
347.793955735604
 20
711.7980726740043
 30
0.0
 11
510.4716098833551
 21
711.7980726740043
 31
0.0
  0
LINE
  5
16320E
330
18
100
AcDbEntity
  8
DEFPOINTS
  6
HIDDEN
 62
     3
100
AcDbLine
 10
347.793955735603
 20
666.8146656609824
 30
0.0
 11
510.4716098833478
 21
666.8146656609824
 31
0.0
  0
LINE
  5
163212
330
18
100
AcDbEntity
  8
DEFPOINTS
  6
HIDDEN
 62
     3
100
AcDbLine
 10
347.793955735603
 20
653.3469023369162
 30
0.0
 11
510.4716098833369
 21
653.3469023369162
 31
0.0
  0
LINE
  5
163213
330
18
100
AcDbEntity
  8
DEFPOINTS
  6
HIDDEN
 62
     3
100
AcDbLine
 10
347.793955735604
 20
643.1344931965796
 30
0.0
 11
510.4716098833387
 21
643.1344931965778
 31
0.0
  0
LINE
  5
163214
330
18
100
AcDbEntity
  8
DEFPOINTS
  6
HIDDEN
 62
     3
100
AcDbLine
 10
347.793955735603
 20
632.4828759222764
 30
0.0
 11
510.4716098833369
 21
632.4828759222764
 31
0.0
  0
LINE
  5
163216
330
18
100
AcDbEntity
  8
DEFPOINTS
  6
HIDDEN
 62
     3
100
AcDbLine
 10
347.793955735604
 20
621.8312586479587
 30
0.0
 11
510.4716098833405
 21
621.8312586479587
 31
0.0
  0
LINE
  5
163227
330
18
100
AcDbEntity
  8
DEFPOINTS
  6
HIDDEN
 62
     3
100
AcDbLine
 10
347.7939557355958
 20
608.3634953238943
 30
0.0
 11
510.4716098833296
 21
608.3634953238943
 31
0.0
  0
LINE
  5
163228
330
18
100
AcDbEntity
  8
DEFPOINTS
  6
HIDDEN
 62
     3
100
AcDbLine
 10
347.7939557355976
 20
598.1510861835559
 30
0.0
 11
510.4716098833333
 21
598.1510861835559
 31
0.0
  0
LINE
  5
163229
330
18
100
AcDbEntity
  8
DEFPOINTS
  6
HIDDEN
 62
     3
100
AcDbLine
 10
347.7939557355958
 20
587.4994689092546
 30
0.0
 11
510.4716098833296
 21
587.4994689092546
 31
0.0
  0
LINE
  5
16322B
330
18
100
AcDbEntity
  8
DEFPOINTS
  6
HIDDEN
 62
     3
100
AcDbLine
 10
347.7939557355976
 20
576.8478516349369
 30
0.0
 11
510.4716098833351
 21
576.8478516349369
 31
0.0
  0
LINE
  5
163CD6
330
18
100
AcDbEntity
  8
下書き線
100
AcDbLine
 10
747.8698649662529
 20
755.4643477349728
 30
0.0
 11
747.8698649662529
 21
630.265756508099
 31
0.0
  0
LINE
  5
163CD7
330
18
100
AcDbEntity
  8
下書き線
100
AcDbLine
 10
754.8559427423806
 20
749.965752233089
 30
0.0
 11
754.8559427423788
 21
627.273261250366
 31
0.0
  0
LINE
  5
163CD8
330
18
100
AcDbEntity
  8
下書き線
100
AcDbLine
 10
747.8698649662529
 20
690.1157543705922
 30
0.0
 11
754.8559427423806
 21
690.1157543705904
 31
0.0
  0
LINE
  5
163CD9
330
18
100
AcDbEntity
  8
下書き線
100
AcDbLine
 10
747.8698649662529
 20
700.0907540143417
 30
0.0
 11
754.8559427423806
 21
700.0907540143417
 31
0.0
  0
LINE
  5
163CDA
330
18
100
AcDbEntity
  8
下書き線
100
AcDbLine
 10
754.8559427423788
 20
707.0732584003545
 30
0.0
 11
820.0822683572651
 21
707.0732584003545
 31
0.0
  0
LINE
  5
163CDB
330
18
100
AcDbEntity
  8
下書き線
100
AcDbLine
 10
747.8698649662529
 20
710.0657536580966
 30
0.0
 11
754.8559427423806
 21
710.0657536580966
 31
0.0
  0
LINE
  5
163CDC
330
18
100
AcDbEntity
  8
下書き線
100
AcDbLine
 10
747.8698649662529
 20
720.040753301846
 30
0.0
 11
754.8559427423806
 21
720.0407533018406
 31
0.0
  0
LINE
  5
163CDD
330
18
100
AcDbEntity
  8
下書き線
100
AcDbLine
 10
754.8559427423788
 20
717.0482580441058
 30
0.0
 11
820.0822683572651
 21
717.0482580441058
 31
0.0
  0
LINE
  5
163CDE
330
18
100
AcDbEntity
  8
下書き線
100
AcDbLine
 10
754.8559427423788
 20
717.0482580441058
 30
0.0
 11
820.0822683572651
 21
717.0482580441058
 31
0.0
  0
LINE
  5
163CDF
330
18
100
AcDbEntity
  8
下書き線
100
AcDbLine
 10
747.8698649662529
 20
720.040753301846
 30
0.0
 11
754.8559427423806
 21
720.0407533018406
 31
0.0
  0
LINE
  5
163CE0
330
18
100
AcDbEntity
  8
下書き線
100
AcDbLine
 10
747.8698649662529
 20
730.0157529455955
 30
0.0
 11
754.8559427423806
 21
730.0157529455846
 31
0.0
  0
LINE
  5
163CE1
330
18
100
AcDbEntity
  8
下書き線
100
AcDbLine
 10
754.8559427423788
 20
727.0232576878552
 30
0.0
 11
820.0822683572651
 21
727.0232576878552
 31
0.0
  0
LINE
  5
163CE2
330
18
100
AcDbEntity
  8
下書き線
100
AcDbLine
 10
754.8559427423788
 20
736.9982573316083
 30
0.0
 11
820.0822683572651
 21
736.9982573316083
 31
0.0
  0
LINE
  5
163CE3
330
18
100
AcDbEntity
  8
下書き線
100
AcDbLine
 10
747.8698649662529
 20
739.990752589345
 30
0.0
 11
754.8559427423806
 21
739.990752589345
 31
0.0
  0
LINE
  5
163CE4
330
18
100
AcDbEntity
  8
下書き線
100
AcDbLine
 10
747.8698649662529
 20
749.9657522330945
 30
0.0
 11
754.8559427423806
 21
749.965752233089
 31
0.0
  0
LINE
  5
163CE5
330
18
100
AcDbEntity
  8
下書き線
100
AcDbLine
 10
754.8559427423788
 20
746.9732569753578
 30
0.0
 11
820.0822683572651
 21
746.9732569753578
 31
0.0
  0
LINE
  5
163CF6
330
18
100
AcDbEntity
  8
下書き線
100
AcDbLine
 10
747.8698649662529
 20
680.1407547268464
 30
0.0
 11
754.8559427423806
 21
680.1407547268409
 31
0.0
  0
LINE
  5
163CF7
330
18
100
AcDbEntity
  8
下書き線
100
AcDbLine
 10
747.8698649662529
 20
670.1657550830969
 30
0.0
 11
754.8559427423806
 21
670.1657550830914
 31
0.0
  0
LINE
  5
163CF8
330
18
100
AcDbEntity
  8
下書き線
100
AcDbLine
 10
747.8698649662529
 20
660.1907554393474
 30
0.0
 11
754.8559427423806
 21
660.190755439342
 31
0.0
  0
LINE
  5
163CF9
330
18
100
AcDbEntity
  8
下書き線
100
AcDbLine
 10
802.1267971434445
 20
749.965752233089
 30
0.0
 11
802.1267971434481
 21
627.2732612503642
 31
0.0
  0
LINE
  5
163CFA
330
18
100
AcDbEntity
  8
下書き線
100
AcDbLine
 10
754.8559427423788
 20
667.1732598253566
 30
0.0
 11
820.0822683572615
 21
667.1732598253566
 31
0.0
  0
LINE
  5
163CFB
330
18
100
AcDbEntity
  8
下書き線
100
AcDbLine
 10
747.8698649662529
 20
670.1657550830932
 30
0.0
 11
754.8559427423806
 21
670.1657550830878
 31
0.0
  0
LINE
  5
163CFC
330
18
100
AcDbEntity
  8
下書き線
100
AcDbLine
 10
747.8698649662529
 20
680.1407547268427
 30
0.0
 11
754.8559427423806
 21
680.1407547268409
 31
0.0
  0
LINE
  5
163CFD
330
18
100
AcDbEntity
  8
下書き線
100
AcDbLine
 10
754.8559427423788
 20
677.148259469106
 30
0.0
 11
820.0822683572615
 21
677.148259469106
 31
0.0
  0
LINE
  5
163CFE
330
18
100
AcDbEntity
  8
下書き線
100
AcDbLine
 10
754.8559427423788
 20
697.098258756605
 30
0.0
 11
820.0822683572615
 21
697.098258756605
 31
0.0
  0
LINE
  5
163CFF
330
18
100
AcDbEntity
  8
下書き線
100
AcDbLine
 10
747.8698649662529
 20
700.0907540143417
 30
0.0
 11
754.8559427423806
 21
700.0907540143417
 31
0.0
  0
LINE
  5
163D09
330
18
100
AcDbEntity
  8
下書き線
100
AcDbLine
 10
754.8559427423788
 20
647.2232605378576
 30
0.0
 11
820.0822683572615
 21
647.2232605378576
 31
0.0
  0
LINE
  5
163D0A
330
18
100
AcDbEntity
  8
下書き線
100
AcDbLine
 10
747.8698649662529
 20
650.2157557955979
 30
0.0
 11
754.8559427423806
 21
650.2157557955925
 31
0.0
  0
LINE
  5
163D0E
330
18
100
AcDbEntity
  8
下書き線
100
AcDbLine
 10
754.8559427423788
 20
637.24826089411
 30
0.0
 11
820.0822683572615
 21
637.24826089411
 31
0.0
  0
LINE
  5
163D12
330
18
100
AcDbEntity
  8
下書き線
100
AcDbLine
 10
754.8559427423788
 20
687.1232591128555
 30
0.0
 11
820.0822683572615
 21
687.1232591128555
 31
0.0
  0
LINE
  5
163D13
330
18
100
AcDbEntity
  8
下書き線
100
AcDbLine
 10
747.8698649662529
 20
690.1157543705922
 30
0.0
 11
754.8559427423806
 21
690.1157543705922
 31
0.0
  0
LINE
  5
163D17
330
18
100
AcDbEntity
  8
下書き線
100
AcDbLine
 10
747.8698649662529
 20
660.1907554393438
 30
0.0
 11
754.8559427423806
 21
660.1907554393383
 31
0.0
  0
LINE
  5
163D1B
330
18
100
AcDbEntity
  8
下書き線
100
AcDbLine
 10
754.8559427423788
 20
657.1982601816035
 30
0.0
 11
820.0822683572615
 21
657.1982601816035
 31
0.0
  0
LINE
  5
163D1C
330
18
100
AcDbEntity
  8
下書き線
100
AcDbLine
 10
747.8698649662529
 20
640.2407561518485
 30
0.0
 11
754.8559427423806
 21
640.2407561518448
 31
0.0
  0
LINE
  5
163D1F
330
18
100
AcDbEntity
  8
下書き線
100
AcDbLine
 10
754.8559427423788
 20
627.2732612503642
 30
0.0
 11
820.0822683572615
 21
627.2732612503642
 31
0.0
  0
LINE
  5
163D20
330
18
100
AcDbEntity
  8
下書き線
100
AcDbLine
 10
747.8698649662529
 20
630.2657565081008
 30
0.0
 11
754.8559427423806
 21
630.265756508099
 31
0.0
  0
LINE
  5
164DC8
330
18
100
AcDbEntity
  8
DEFPOINTS
  6
HIDDEN
 62
     3
100
AcDbLine
 10
947.793955735604
 20
743.3137163629708
 30
0.0
 11
947.793955735604
 21
576.8478516349369
 31
0.0
  0
LINE
  5
164DC9
330
18
100
AcDbEntity
  8
DEFPOINTS
  6
HIDDEN
 62
     3
100
AcDbLine
 10
947.793955735604
 20
743.3137163629708
 30
0.0
 11
1110.47160988335
 21
743.3137163629708
 31
0.0
  0
LINE
  5
164DCA
330
18
100
AcDbEntity
  8
DEFPOINTS
  6
HIDDEN
 62
     3
100
AcDbLine
 10
947.793955735603
 20
733.1013072226378
 30
0.0
 11
1110.471609883346
 21
733.101307222636
 31
0.0
  0
LINE
  5
164DCB
330
18
100
AcDbEntity
  8
DEFPOINTS
  6
HIDDEN
 62
     3
100
AcDbLine
 10
947.793955735604
 20
722.4496899483202
 30
0.0
 11
1110.47160988335
 21
722.4496899483202
 31
0.0
  0
LINE
  5
164DCC
330
18
100
AcDbEntity
  8
DEFPOINTS
  6
HIDDEN
 62
     3
100
AcDbLine
 10
947.793955735603
 20
698.330309349938
 30
0.0
 11
1110.471609883344
 21
698.330309349938
 31
0.0
  0
LINE
  5
164DCD
330
18
100
AcDbEntity
  8
DEFPOINTS
  6
HIDDEN
 62
     3
100
AcDbLine
 10
947.793955735604
 20
688.1179002095996
 30
0.0
 11
1110.471609883346
 21
688.1179002095996
 31
0.0
  0
LINE
  5
164DCE
330
18
100
AcDbEntity
  8
DEFPOINTS
  6
HIDDEN
 62
     3
100
AcDbLine
 10
947.793955735603
 20
677.4662829353001
 30
0.0
 11
1110.471609883344
 21
677.4662829353001
 31
0.0
  0
LINE
  5
164DD1
330
18
100
AcDbEntity
  8
DEFPOINTS
  6
HIDDEN
 62
     3
100
AcDbLine
 10
947.793955735604
 20
711.7980726740043
 30
0.0
 11
1110.471609883355
 21
711.7980726740043
 31
0.0
  0
LINE
  5
164DD2
330
18
100
AcDbEntity
  8
DEFPOINTS
  6
HIDDEN
 62
     3
100
AcDbLine
 10
947.793955735603
 20
666.8146656609824
 30
0.0
 11
1110.471609883348
 21
666.8146656609824
 31
0.0
  0
LINE
  5
164DD6
330
18
100
AcDbEntity
  8
DEFPOINTS
  6
HIDDEN
 62
     3
100
AcDbLine
 10
947.793955735603
 20
653.3469023369162
 30
0.0
 11
1110.471609883337
 21
653.3469023369162
 31
0.0
  0
LINE
  5
164DD7
330
18
100
AcDbEntity
  8
DEFPOINTS
  6
HIDDEN
 62
     3
100
AcDbLine
 10
947.793955735604
 20
643.1344931965796
 30
0.0
 11
1110.471609883339
 21
643.1344931965778
 31
0.0
  0
LINE
  5
164DD8
330
18
100
AcDbEntity
  8
DEFPOINTS
  6
HIDDEN
 62
     3
100
AcDbLine
 10
947.793955735603
 20
632.4828759222764
 30
0.0
 11
1110.471609883337
 21
632.4828759222764
 31
0.0
  0
LINE
  5
164DDA
330
18
100
AcDbEntity
  8
DEFPOINTS
  6
HIDDEN
 62
     3
100
AcDbLine
 10
947.793955735604
 20
621.8312586479587
 30
0.0
 11
1110.471609883341
 21
621.8312586479587
 31
0.0
  0
LINE
  5
164DDE
330
18
100
AcDbEntity
  8
DEFPOINTS
  6
HIDDEN
 62
     3
100
AcDbLine
 10
947.7939557355958
 20
608.3634953238943
 30
0.0
 11
1110.47160988333
 21
608.3634953238943
 31
0.0
  0
LINE
  5
164DDF
330
18
100
AcDbEntity
  8
DEFPOINTS
  6
HIDDEN
 62
     3
100
AcDbLine
 10
947.7939557355976
 20
598.1510861835559
 30
0.0
 11
1110.471609883333
 21
598.1510861835559
 31
0.0
  0
LINE
  5
164DE0
330
18
100
AcDbEntity
  8
DEFPOINTS
  6
HIDDEN
 62
     3
100
AcDbLine
 10
947.7939557355958
 20
587.4994689092546
 30
0.0
 11
1110.47160988333
 21
587.4994689092546
 31
0.0
  0
LINE
  5
164DE2
330
18
100
AcDbEntity
  8
DEFPOINTS
  6
HIDDEN
 62
     3
100
AcDbLine
 10
947.7939557355976
 20
576.8478516349369
 30
0.0
 11
1110.471609883335
 21
576.8478516349369
 31
0.0
  0
LINE
  5
166822
330
18
100
AcDbEntity
  8
下書き線
100
AcDbLine
 10
1347.869864966253
 20
755.4643477349728
 30
0.0
 11
1347.869864966253
 21
630.265756508099
 31
0.0
  0
LINE
  5
166823
330
18
100
AcDbEntity
  8
下書き線
100
AcDbLine
 10
1354.855942742381
 20
749.965752233089
 30
0.0
 11
1354.855942742379
 21
627.273261250366
 31
0.0
  0
LINE
  5
166824
330
18
100
AcDbEntity
  8
下書き線
100
AcDbLine
 10
1347.869864966253
 20
690.1157543705922
 30
0.0
 11
1354.855942742381
 21
690.1157543705904
 31
0.0
  0
LINE
  5
166825
330
18
100
AcDbEntity
  8
下書き線
100
AcDbLine
 10
1347.869864966253
 20
700.0907540143417
 30
0.0
 11
1354.855942742381
 21
700.0907540143417
 31
0.0
  0
LINE
  5
166826
330
18
100
AcDbEntity
  8
下書き線
100
AcDbLine
 10
1354.855942742379
 20
707.0732584003545
 30
0.0
 11
1420.082268357265
 21
707.0732584003545
 31
0.0
  0
LINE
  5
166827
330
18
100
AcDbEntity
  8
下書き線
100
AcDbLine
 10
1347.869864966253
 20
710.0657536580966
 30
0.0
 11
1354.855942742381
 21
710.0657536580966
 31
0.0
  0
LINE
  5
166828
330
18
100
AcDbEntity
  8
下書き線
100
AcDbLine
 10
1347.869864966253
 20
720.040753301846
 30
0.0
 11
1354.855942742381
 21
720.0407533018406
 31
0.0
  0
LINE
  5
166829
330
18
100
AcDbEntity
  8
下書き線
100
AcDbLine
 10
1354.855942742379
 20
717.0482580441058
 30
0.0
 11
1420.082268357265
 21
717.0482580441058
 31
0.0
  0
LINE
  5
16682A
330
18
100
AcDbEntity
  8
下書き線
100
AcDbLine
 10
1354.855942742379
 20
717.0482580441058
 30
0.0
 11
1420.082268357265
 21
717.0482580441058
 31
0.0
  0
LINE
  5
16682B
330
18
100
AcDbEntity
  8
下書き線
100
AcDbLine
 10
1347.869864966253
 20
720.040753301846
 30
0.0
 11
1354.855942742381
 21
720.0407533018406
 31
0.0
  0
LINE
  5
16682C
330
18
100
AcDbEntity
  8
下書き線
100
AcDbLine
 10
1347.869864966253
 20
730.0157529455955
 30
0.0
 11
1354.855942742381
 21
730.0157529455846
 31
0.0
  0
LINE
  5
16682D
330
18
100
AcDbEntity
  8
下書き線
100
AcDbLine
 10
1354.855942742379
 20
727.0232576878552
 30
0.0
 11
1420.082268357265
 21
727.0232576878552
 31
0.0
  0
LINE
  5
16682E
330
18
100
AcDbEntity
  8
下書き線
100
AcDbLine
 10
1354.855942742379
 20
736.9982573316083
 30
0.0
 11
1420.082268357265
 21
736.9982573316083
 31
0.0
  0
LINE
  5
16682F
330
18
100
AcDbEntity
  8
下書き線
100
AcDbLine
 10
1347.869864966253
 20
739.990752589345
 30
0.0
 11
1354.855942742381
 21
739.990752589345
 31
0.0
  0
LINE
  5
166830
330
18
100
AcDbEntity
  8
下書き線
100
AcDbLine
 10
1347.869864966253
 20
749.9657522330945
 30
0.0
 11
1354.855942742381
 21
749.965752233089
 31
0.0
  0
LINE
  5
166831
330
18
100
AcDbEntity
  8
下書き線
100
AcDbLine
 10
1354.855942742379
 20
746.9732569753578
 30
0.0
 11
1420.082268357265
 21
746.9732569753578
 31
0.0
  0
LINE
  5
166842
330
18
100
AcDbEntity
  8
下書き線
100
AcDbLine
 10
1347.869864966253
 20
680.1407547268464
 30
0.0
 11
1354.855942742381
 21
680.1407547268409
 31
0.0
  0
LINE
  5
166843
330
18
100
AcDbEntity
  8
下書き線
100
AcDbLine
 10
1347.869864966253
 20
670.1657550830969
 30
0.0
 11
1354.855942742381
 21
670.1657550830914
 31
0.0
  0
LINE
  5
166844
330
18
100
AcDbEntity
  8
下書き線
100
AcDbLine
 10
1347.869864966253
 20
660.1907554393474
 30
0.0
 11
1354.855942742381
 21
660.190755439342
 31
0.0
  0
LINE
  5
166845
330
18
100
AcDbEntity
  8
下書き線
100
AcDbLine
 10
1402.126797143444
 20
749.965752233089
 30
0.0
 11
1402.126797143448
 21
627.2732612503642
 31
0.0
  0
LINE
  5
166846
330
18
100
AcDbEntity
  8
下書き線
100
AcDbLine
 10
1354.855942742379
 20
667.1732598253566
 30
0.0
 11
1420.082268357261
 21
667.1732598253566
 31
0.0
  0
LINE
  5
166847
330
18
100
AcDbEntity
  8
下書き線
100
AcDbLine
 10
1347.869864966253
 20
670.1657550830932
 30
0.0
 11
1354.855942742381
 21
670.1657550830878
 31
0.0
  0
LINE
  5
166848
330
18
100
AcDbEntity
  8
下書き線
100
AcDbLine
 10
1347.869864966253
 20
680.1407547268427
 30
0.0
 11
1354.855942742381
 21
680.1407547268409
 31
0.0
  0
LINE
  5
166849
330
18
100
AcDbEntity
  8
下書き線
100
AcDbLine
 10
1354.855942742379
 20
677.148259469106
 30
0.0
 11
1420.082268357261
 21
677.148259469106
 31
0.0
  0
LINE
  5
16684A
330
18
100
AcDbEntity
  8
下書き線
100
AcDbLine
 10
1354.855942742379
 20
697.098258756605
 30
0.0
 11
1420.082268357261
 21
697.098258756605
 31
0.0
  0
LINE
  5
16684B
330
18
100
AcDbEntity
  8
下書き線
100
AcDbLine
 10
1347.869864966253
 20
700.0907540143417
 30
0.0
 11
1354.855942742381
 21
700.0907540143417
 31
0.0
  0
LINE
  5
166855
330
18
100
AcDbEntity
  8
下書き線
100
AcDbLine
 10
1354.855942742379
 20
647.2232605378576
 30
0.0
 11
1420.082268357261
 21
647.2232605378576
 31
0.0
  0
LINE
  5
166856
330
18
100
AcDbEntity
  8
下書き線
100
AcDbLine
 10
1347.869864966253
 20
650.2157557955979
 30
0.0
 11
1354.855942742381
 21
650.2157557955925
 31
0.0
  0
LINE
  5
16685A
330
18
100
AcDbEntity
  8
下書き線
100
AcDbLine
 10
1354.855942742379
 20
637.24826089411
 30
0.0
 11
1420.082268357261
 21
637.24826089411
 31
0.0
  0
LINE
  5
16685E
330
18
100
AcDbEntity
  8
下書き線
100
AcDbLine
 10
1354.855942742379
 20
687.1232591128555
 30
0.0
 11
1420.082268357261
 21
687.1232591128555
 31
0.0
  0
LINE
  5
16685F
330
18
100
AcDbEntity
  8
下書き線
100
AcDbLine
 10
1347.869864966253
 20
690.1157543705922
 30
0.0
 11
1354.855942742381
 21
690.1157543705922
 31
0.0
  0
LINE
  5
166863
330
18
100
AcDbEntity
  8
下書き線
100
AcDbLine
 10
1347.869864966253
 20
660.1907554393438
 30
0.0
 11
1354.855942742381
 21
660.1907554393383
 31
0.0
  0
LINE
  5
166867
330
18
100
AcDbEntity
  8
下書き線
100
AcDbLine
 10
1354.855942742379
 20
657.1982601816035
 30
0.0
 11
1420.082268357261
 21
657.1982601816035
 31
0.0
  0
LINE
  5
166868
330
18
100
AcDbEntity
  8
下書き線
100
AcDbLine
 10
1347.869864966253
 20
640.2407561518485
 30
0.0
 11
1354.855942742381
 21
640.2407561518448
 31
0.0
  0
LINE
  5
16686B
330
18
100
AcDbEntity
  8
下書き線
100
AcDbLine
 10
1354.855942742379
 20
627.2732612503642
 30
0.0
 11
1420.082268357261
 21
627.2732612503642
 31
0.0
  0
LINE
  5
16686C
330
18
100
AcDbEntity
  8
下書き線
100
AcDbLine
 10
1347.869864966253
 20
630.2657565081008
 30
0.0
 11
1354.855942742381
 21
630.265756508099
 31
0.0
  0
LINE
  5
167913
330
18
100
AcDbEntity
  8
DEFPOINTS
  6
HIDDEN
 62
     3
100
AcDbLine
 10
1547.793955735604
 20
743.3137163629708
 30
0.0
 11
1547.793955735604
 21
576.8478516349369
 31
0.0
  0
LINE
  5
167914
330
18
100
AcDbEntity
  8
DEFPOINTS
  6
HIDDEN
 62
     3
100
AcDbLine
 10
1547.793955735604
 20
743.3137163629708
 30
0.0
 11
1710.47160988335
 21
743.3137163629708
 31
0.0
  0
LINE
  5
167915
330
18
100
AcDbEntity
  8
DEFPOINTS
  6
HIDDEN
 62
     3
100
AcDbLine
 10
1547.793955735603
 20
733.1013072226378
 30
0.0
 11
1710.471609883346
 21
733.101307222636
 31
0.0
  0
LINE
  5
167916
330
18
100
AcDbEntity
  8
DEFPOINTS
  6
HIDDEN
 62
     3
100
AcDbLine
 10
1547.793955735604
 20
722.4496899483202
 30
0.0
 11
1710.47160988335
 21
722.4496899483202
 31
0.0
  0
LINE
  5
167917
330
18
100
AcDbEntity
  8
DEFPOINTS
  6
HIDDEN
 62
     3
100
AcDbLine
 10
1547.793955735603
 20
698.330309349938
 30
0.0
 11
1710.471609883344
 21
698.330309349938
 31
0.0
  0
LINE
  5
167918
330
18
100
AcDbEntity
  8
DEFPOINTS
  6
HIDDEN
 62
     3
100
AcDbLine
 10
1547.793955735604
 20
688.1179002095996
 30
0.0
 11
1710.471609883346
 21
688.1179002095996
 31
0.0
  0
LINE
  5
167919
330
18
100
AcDbEntity
  8
DEFPOINTS
  6
HIDDEN
 62
     3
100
AcDbLine
 10
1547.793955735603
 20
677.4662829353001
 30
0.0
 11
1710.471609883344
 21
677.4662829353001
 31
0.0
  0
LINE
  5
16791C
330
18
100
AcDbEntity
  8
DEFPOINTS
  6
HIDDEN
 62
     3
100
AcDbLine
 10
1547.793955735604
 20
711.7980726740043
 30
0.0
 11
1710.471609883355
 21
711.7980726740043
 31
0.0
  0
LINE
  5
16791D
330
18
100
AcDbEntity
  8
DEFPOINTS
  6
HIDDEN
 62
     3
100
AcDbLine
 10
1547.793955735603
 20
666.8146656609824
 30
0.0
 11
1710.471609883348
 21
666.8146656609824
 31
0.0
  0
LINE
  5
167921
330
18
100
AcDbEntity
  8
DEFPOINTS
  6
HIDDEN
 62
     3
100
AcDbLine
 10
1547.793955735603
 20
653.3469023369162
 30
0.0
 11
1710.471609883337
 21
653.3469023369162
 31
0.0
  0
LINE
  5
167922
330
18
100
AcDbEntity
  8
DEFPOINTS
  6
HIDDEN
 62
     3
100
AcDbLine
 10
1547.793955735604
 20
643.1344931965796
 30
0.0
 11
1710.471609883339
 21
643.1344931965778
 31
0.0
  0
LINE
  5
167923
330
18
100
AcDbEntity
  8
DEFPOINTS
  6
HIDDEN
 62
     3
100
AcDbLine
 10
1547.793955735603
 20
632.4828759222764
 30
0.0
 11
1710.471609883337
 21
632.4828759222764
 31
0.0
  0
LINE
  5
167925
330
18
100
AcDbEntity
  8
DEFPOINTS
  6
HIDDEN
 62
     3
100
AcDbLine
 10
1547.793955735604
 20
621.8312586479587
 30
0.0
 11
1710.471609883341
 21
621.8312586479587
 31
0.0
  0
LINE
  5
167929
330
18
100
AcDbEntity
  8
DEFPOINTS
  6
HIDDEN
 62
     3
100
AcDbLine
 10
1547.793955735596
 20
608.3634953238943
 30
0.0
 11
1710.47160988333
 21
608.3634953238943
 31
0.0
  0
LINE
  5
16792A
330
18
100
AcDbEntity
  8
DEFPOINTS
  6
HIDDEN
 62
     3
100
AcDbLine
 10
1547.793955735598
 20
598.1510861835559
 30
0.0
 11
1710.471609883333
 21
598.1510861835559
 31
0.0
  0
LINE
  5
16792B
330
18
100
AcDbEntity
  8
DEFPOINTS
  6
HIDDEN
 62
     3
100
AcDbLine
 10
1547.793955735596
 20
587.4994689092546
 30
0.0
 11
1710.47160988333
 21
587.4994689092546
 31
0.0
  0
LINE
  5
16792D
330
18
100
AcDbEntity
  8
DEFPOINTS
  6
HIDDEN
 62
     3
100
AcDbLine
 10
1547.793955735598
 20
576.8478516349369
 30
0.0
 11
1710.471609883335
 21
576.8478516349369
 31
0.0
  0
TEXT
  5
1690AB
330
18
100
AcDbEntity
  8
文字
100
AcDbText
 10
1205.091105553754
 20
-287.5533436791841
 30
0.0
 40
9.75
  1
MOD-P1352DR/BF
100
AcDbText
  0
ELLIPSE
  5
16973D
330
18
100
AcDbEntity
  8
姿図
100
AcDbEllipse
 10
1263.263015088056
 20
-144.630080722583
 30
0.0
 11
25.03426728515625
 21
0.0
 31
0.0
210
0.0
220
0.0
230
1.0
 40
0.49702835407011
 41
7.074854205792756
 42
8.482454624318267
  0
ELLIPSE
  5
16973E
330
18
100
AcDbEntity
  8
姿図
100
AcDbEllipse
 10
1263.989345947433
 20
-131.3865752929028
 30
0.0
 11
11.23190728515623
 21
0.0
 31
0.0
210
0.0
220
0.0
230
1.0
 40
0.5787746356777222
 41
1.112128156115095
 42
1.201556856358739
  0
ELLIPSE
  5
16973F
330
18
100
AcDbEntity
  8
姿図
100
AcDbEllipse
 10
1263.989345947433
 20
-131.3865752929028
 30
0.0
 11
11.23190728515623
 21
0.0
 31
0.0
210
0.0
220
0.0
230
1.0
 40
0.5787746356777222
 41
1.412415807147717
 42
1.598884992121848
  0
ELLIPSE
  5
169740
330
18
100
AcDbEntity
  8
姿図
100
AcDbEllipse
 10
1263.989345947433
 20
-131.3865752929028
 30
0.0
 11
11.23190728515623
 21
0.0
 31
0.0
210
0.0
220
0.0
230
1.0
 40
0.5787746356777222
 41
1.728626964199836
 42
1.903766585222755
  0
LINE
  5
169741
330
18
100
AcDbEntity
  8
姿図
100
AcDbLine
 10
1288.300186441318
 20
-193.3899149678032
 30
0.0
 11
1288.910329211914
 21
-195.5821928241598
 31
0.0
  0
LINE
  5
169742
330
18
100
AcDbEntity
  8
姿図
100
AcDbLine
 10
1239.47579326236
 20
-193.4642797259999
 30
0.0
 11
1238.830897685639
 21
-195.6866055343157
 31
0.0
  0
LINE
  5
169743
330
18
100
AcDbEntity
  8
姿図
100
AcDbLine
 10
1288.70710542009
 20
-178.2140152929001
 30
0.0
 11
1288.56936682515
 21
-184.2544475987975
 31
0.0
  0
LINE
  5
169744
330
18
100
AcDbEntity
  8
姿図
100
AcDbLine
 10
1239.420836279463
 20
-178.2140152929001
 30
0.0
 11
1239.243429328239
 21
-184.5836161728034
 31
0.0
  0
LINE
  5
169745
330
18
100
AcDbEntity
  8
姿図
100
AcDbLine
 10
1238.340507802903
 20
-154.7258613866538
 30
0.0
 11
1238.228732811314
 21
-158.9494868041143
 31
0.0
  0
LINE
  5
169746
330
18
100
AcDbEntity
  8
姿図
100
AcDbLine
 10
1239.480857430057
 20
-159.0127970618337
 30
0.0
 11
1238.228732811314
 21
-158.9494868041143
 31
0.0
  0
LINE
  5
169747
330
18
100
AcDbEntity
  8
姿図
100
AcDbLine
 10
1239.830604756025
 20
-154.7258613866538
 30
0.0
 11
1238.340507802903
 21
-154.7258613866538
 31
0.0
  0
LINE
  5
169748
330
18
100
AcDbEntity
  8
姿図
100
AcDbLine
 10
1290.013455025746
 20
-156.4442600336802
 30
0.0
 11
1289.973573232592
 21
-160.6864129100882
 31
0.0
  0
LINE
  5
169749
330
18
100
AcDbEntity
  8
姿図
100
AcDbLine
 10
1289.973573232592
 20
-160.6864129100882
 30
0.0
 11
1288.864375596344
 21
-160.6881469638533
 31
0.0
  0
LINE
  5
16974A
330
18
100
AcDbEntity
  8
姿図
100
AcDbLine
 10
1290.013455025746
 20
-156.4442600336802
 30
0.0
 11
1288.751596989308
 21
-156.4529336425635
 31
0.0
  0
LINE
  5
16974B
330
18
100
AcDbEntity
  8
姿図
100
AcDbLine
 10
1287.739123173173
 20
-155.2522326911453
 30
0.0
 11
1287.610742605375
 21
-159.3646335864828
 31
0.0
  0
LINE
  5
16974C
330
18
100
AcDbEntity
  8
姿図
100
AcDbLine
 10
1240.851520984557
 20
-152.7887244335284
 30
0.0
 11
1240.843116222037
 21
-158.5985625075859
 31
0.0
  0
LINE
  5
16974D
330
18
100
AcDbEntity
  8
姿図
100
AcDbLine
 10
1260.318179247766
 20
-125.2428811359364
 30
0.0
 11
1260.244913660637
 21
-132.27809508171
 31
0.0
  0
LINE
  5
16974E
330
18
100
AcDbEntity
  8
姿図
100
AcDbLine
 10
1268.96232147143
 20
-125.5577297676514
 30
0.0
 11
1269.03415827897
 21
-132.522481802745
 31
0.0
  0
LINE
  5
16974F
330
18
100
AcDbEntity
  8
姿図
100
AcDbLine
 10
1265.760833414872
 20
-124.9671955371045
 30
0.0
 11
1265.830820339268
 21
-132.2529677728357
 31
0.0
  0
LINE
  5
169750
330
18
100
AcDbEntity
  8
姿図
100
AcDbLine
 10
1263.67389814651
 20
-124.8883965331293
 30
0.0
 11
1263.747244756027
 21
-132.2248844335259
 31
0.0
  0
LINE
  5
169751
330
18
100
AcDbEntity
  8
姿図
100
AcDbLine
 10
1275.891813232591
 20
-123.3585729100901
 30
0.0
 11
1272.837076279466
 21
-124.7741813866519
 31
0.0
  0
LINE
  5
169752
330
18
100
AcDbEntity
  8
姿図
100
AcDbLine
 10
1272.315493232589
 20
-120.8998529100895
 30
0.0
 11
1268.06861323259
 21
-124.9977013866533
 31
0.0
  0
LINE
  5
169753
330
18
100
AcDbEntity
  8
姿図
100
AcDbLine
 10
1267.54713932634
 20
-119.6332213866531
 30
0.0
 11
1265.529639271001
 21
-124.9472493386561
 31
0.0
  0
LINE
  5
169754
330
18
100
AcDbEntity
  8
姿図
100
AcDbLine
 10
1262.853164756027
 20
-119.2607244335263
 30
0.0
 11
1263.890088475526
 21
-124.8860860864529
 31
0.0
  0
LINE
  5
169755
330
18
100
AcDbEntity
  8
姿図
100
AcDbLine
 10
1257.786747802902
 20
-120.3783244335259
 30
0.0
 11
1261.570835244809
 21
-125.0383238258978
 31
0.0
  0
LINE
  5
169756
330
18
100
AcDbEntity
  8
姿図
100
AcDbLine
 10
1253.688844756027
 20
-122.1664844335278
 30
0.0
 11
1257.236734235594
 21
-124.6227333626225
 31
0.0
  0
ELLIPSE
  5
169757
330
18
100
AcDbEntity
  8
姿図
100
AcDbEllipse
 10
1263.710082373213
 20
-189.7811752929024
 30
0.0
 11
-25.94009662679298
 21
2.594408062649916
 31
0.0
210
0.0
220
0.0
230
1.0
 40
0.4268081429402281
 41
3.41487396931836
 42
3.77556961069008
  0
ELLIPSE
  5
169758
330
18
100
AcDbEntity
  8
姿図
100
AcDbEllipse
 10
1263.710082373213
 20
-189.7811752929024
 30
0.0
 11
24.885263046875
 21
0.0
 31
0.0
210
0.0
220
0.0
230
1.0
 40
0.3592852976391491
 41
7.112852223479593
 42
7.656454855824705
  0
ELLIPSE
  5
169759
330
18
100
AcDbEntity
  8
姿図
100
AcDbEllipse
 10
1263.710082373213
 20
-189.7811752929024
 30
0.0
 11
24.885263046875
 21
0.0
 31
0.0
210
0.0
220
0.0
230
1.0
 40
0.3592852976391491
 41
7.825574573037986
 42
8.547289682742333
  0
ELLIPSE
  5
16975A
330
18
100
AcDbEntity
  8
姿図
100
AcDbEllipse
 10
1263.710082373213
 20
-189.7811752929024
 30
0.0
 11
24.885263046875
 21
0.0
 31
0.0
210
0.0
220
0.0
230
1.0
 40
0.3592852976391491
 41
8.914808065990233
 42
9.337446565053689
  0
ELLIPSE
  5
16975B
330
18
100
AcDbEntity
  8
姿図
100
AcDbEllipse
 10
1263.896358134933
 20
-188.3282952929035
 30
0.0
 11
-25.1356569089126
 21
0.3475352929564298
 31
0.0
210
0.0
220
0.0
230
1.0
 40
0.4186036671425239
 41
3.202482138794768
 42
3.703239094700399
  0
ELLIPSE
  5
16975C
330
18
100
AcDbEntity
  8
姿図
100
AcDbEllipse
 10
1263.896358134933
 20
-188.3282952929035
 30
0.0
 11
25.03426728515625
 21
0.0
 31
0.0
210
0.0
220
0.0
230
1.0
 40
0.4062539168738495
 41
7.129382602215342
 42
7.660879420274057
  0
ELLIPSE
  5
16975D
330
18
100
AcDbEntity
  8
姿図
100
AcDbEllipse
 10
1263.896358134933
 20
-188.3282952929035
 30
0.0
 11
25.03426728515625
 21
0.0
 31
0.0
210
0.0
220
0.0
230
1.0
 40
0.4062539168738495
 41
7.833746855100951
 42
8.54882710759696
  0
ELLIPSE
  5
16975E
330
18
100
AcDbEntity
  8
姿図
100
AcDbEllipse
 10
1263.896358134933
 20
-188.3282952929035
 30
0.0
 11
25.03426728515625
 21
0.0
 31
0.0
210
0.0
220
0.0
230
1.0
 40
0.4062539168738495
 41
8.919585895043166
 42
9.351902541126062
  0
LINE
  5
16975F
330
18
100
AcDbEntity
  8
姿図
100
AcDbLine
 10
1241.989333079995
 20
-183.4061339723953
 30
0.0
 11
1241.991240006733
 21
-185.4166618009144
 31
0.0
  0
LINE
  5
169760
330
18
100
AcDbEntity
  8
姿図
100
AcDbLine
 10
1285.248139814785
 20
-183.0186955791737
 30
0.0
 11
1285.265372386972
 21
-185.3132233259416
 31
0.0
  0
LINE
  5
169761
330
18
100
AcDbEntity
  8
姿図
100
AcDbLine
 10
1280.489953321638
 20
-180.7131510954528
 30
0.0
 11
1280.511299326339
 21
-183.2618783397788
 31
0.0
  0
LINE
  5
169762
330
18
100
AcDbEntity
  8
姿図
100
AcDbLine
 10
1268.700543384635
 20
-178.3470545360901
 30
0.0
 11
1268.593685931841
 21
-181.0141227275631
 31
0.0
  0
LINE
  5
169763
330
18
100
AcDbEntity
  8
姿図
100
AcDbLine
 10
1264.402886430036
 20
-178.1601081706135
 30
0.0
 11
1264.416904485064
 21
-180.843873392681
 31
0.0
  0
LINE
  5
169764
330
18
100
AcDbEntity
  8
姿図
100
AcDbLine
 10
1247.867749248482
 20
-180.5159761108093
 30
0.0
 11
1247.806283687301
 21
-182.9043992804959
 31
0.0
  0
LINE
  5
169765
330
18
100
AcDbEntity
  8
姿図
100
AcDbLine
 10
1276.48793932634
 20
-151.0005644335265
 30
0.0
 11
1276.934979326339
 21
-152.7887244335284
 31
0.0
  0
LINE
  5
169766
330
18
100
AcDbEntity
  8
姿図
100
AcDbLine
 10
1275.357402266964
 20
-150.5781058614534
 30
0.0
 11
1275.845734128128
 21
-152.4619344225589
 31
0.0
  0
LINE
  5
169767
330
18
100
AcDbEntity
  8
姿図
100
AcDbLine
 10
1253.784014384779
 20
-150.5300498635002
 30
0.0
 11
1253.452169510283
 21
-152.1061003741738
 31
0.0
  0
LINE
  5
169768
330
18
100
AcDbEntity
  8
姿図
100
AcDbLine
 10
1255.105410155502
 20
-150.1018419725092
 30
0.0
 11
1254.760056588604
 21
-151.8285086341543
 31
0.0
  0
LINE
  5
169769
330
18
100
AcDbEntity
  8
姿図
100
AcDbLine
 10
1260.841484756027
 20
-148.9256128031461
 30
0.0
 11
1260.526241631891
 21
-151.0788100467212
 31
0.0
  0
LINE
  5
16976A
330
18
100
AcDbEntity
  8
姿図
100
AcDbLine
 10
1262.406124756026
 20
-148.7870241911
 30
0.0
 11
1262.406124756026
 21
-150.9862022899265
 31
0.0
  0
LINE
  5
16976B
330
18
100
AcDbEntity
  8
姿図
100
AcDbLine
 10
1268.441219326338
 20
-148.9582647119782
 30
0.0
 11
1268.441219326338
 21
-151.1663864694979
 31
0.0
  0
LINE
  5
16976C
330
18
100
AcDbEntity
  8
姿図
100
AcDbLine
 10
1269.825548110975
 20
-149.1567895072508
 30
0.0
 11
1270.359090009984
 21
-151.3798590432502
 31
0.0
  0
LINE
  5
16976D
330
18
100
AcDbEntity
  8
姿図
100
AcDbLine
 10
1280.853564009216
 20
-135.7767356683084
 30
0.0
 11
1282.671956279464
 21
-155.1729013866529
 31
0.0
  0
LINE
  5
16976E
330
18
100
AcDbEntity
  8
姿図
100
AcDbLine
 10
1248.545113857828
 20
-134.5648218539204
 30
0.0
 11
1246.731271187873
 21
-154.3659192162281
 31
0.0
  0
LINE
  5
16976F
330
18
100
AcDbEntity
  8
姿図
100
AcDbLine
 10
1252.347724756028
 20
-128.4250444335262
 30
0.0
 11
1252.029915868612
 21
-133.5102776126309
 31
0.0
  0
LINE
  5
169770
330
18
100
AcDbEntity
  8
姿図
100
AcDbLine
 10
1253.167316279465
 20
-122.3900044335273
 30
0.0
 11
1252.782074646941
 21
-133.3303137918078
 31
0.0
  0
LINE
  5
169771
330
18
100
AcDbEntity
  8
姿図
100
AcDbLine
 10
1253.688844756027
 20
-122.1664844335278
 30
0.0
 11
1253.538223021826
 21
-133.1645193245308
 31
0.0
  0
LINE
  5
169772
330
18
100
AcDbEntity
  8
姿図
100
AcDbLine
 10
1257.339707802903
 20
-120.4528129100886
 30
0.0
 11
1257.040287288835
 21
-132.5778636211085
 31
0.0
  0
LINE
  5
169773
330
18
100
AcDbEntity
  8
姿図
100
AcDbLine
 10
1257.786747802902
 20
-120.3783244335259
 30
0.0
 11
1257.636078016332
 21
-132.5057250722944
 31
0.0
  0
LINE
  5
169774
330
18
100
AcDbEntity
  8
姿図
100
AcDbLine
 10
1262.2571478029
 20
-119.2607244335263
 30
0.0
 11
1262.181888733852
 21
-132.1989484441051
 31
0.0
  0
LINE
  5
169775
330
18
100
AcDbEntity
  8
姿図
100
AcDbLine
 10
1262.853164756027
 20
-119.2607244335263
 30
0.0
 11
1263.072266058138
 21
-132.1877012581003
 31
0.0
  0
LINE
  5
169776
330
18
100
AcDbEntity
  8
姿図
100
AcDbLine
 10
1276.423961923207
 20
-123.5044374668009
 30
0.0
 11
1276.937159872334
 21
-134.2074980216653
 31
0.0
  0
LINE
  5
169777
330
18
100
AcDbEntity
  8
姿図
100
AcDbLine
 10
1275.891813232591
 20
-123.3585729100901
 30
0.0
 11
1276.184660090834
 21
-133.9729579462014
 31
0.0
  0
LINE
  5
169778
330
18
100
AcDbEntity
  8
姿図
100
AcDbLine
 10
1272.68809932634
 20
-120.9743413866522
 30
0.0
 11
1273.140785598547
 21
-133.1968707362789
 31
0.0
  0
LINE
  5
169779
330
18
100
AcDbEntity
  8
姿図
100
AcDbLine
 10
1272.315493232589
 20
-120.8998529100895
 30
0.0
 11
1272.315493232589
 21
-133.0444213866535
 31
0.0
  0
LINE
  5
16977A
330
18
100
AcDbEntity
  8
姿図
100
AcDbLine
 10
1267.845093232589
 20
-119.6324254134338
 30
0.0
 11
1268.297209781544
 21
-132.4415162807813
 31
0.0
  0
LINE
  5
16977B
330
18
100
AcDbEntity
  8
姿図
100
AcDbLine
 10
1267.54713932634
 20
-119.6332213866531
 30
0.0
 11
1267.621160458593
 21
-132.3773377034354
 31
0.0
  0
ELLIPSE
  5
16977C
330
18
100
AcDbEntity
  8
姿図
100
AcDbEllipse
 10
1263.93357508806
 20
-163.4057607225891
 30
0.0
 11
25.03426728515625
 21
0.0
 31
0.0
210
0.0
220
0.0
230
1.0
 40
0.49702835407011
 41
6.361584542067506
 42
9.229399068880687
  0
ELLIPSE
  5
16977D
330
18
100
AcDbEntity
  8
姿図
100
AcDbEllipse
 10
1264.063970849778
 20
-178.2140152928982
 30
0.0
 11
24.64313457031249
 21
0.0
 31
0.0
210
0.0
220
0.0
230
1.0
 40
0.4603164409801035
 41
6.262193097272712
 42
9.42477796076938
  0
ELLIPSE
  5
16977E
330
18
100
AcDbEntity
  8
姿図
100
AcDbEllipse
 10
1263.896276279464
 20
-194.3633352928987
 30
0.0
 11
24.51646439493213
 21
0.0
 31
0.0
210
0.0
220
0.0
230
1.0
 40
0.4148342508443968
 41
0.095859086798415
 42
3.053076739676217
  0
ELLIPSE
  5
16977F
330
18
100
AcDbEntity
  8
姿図
100
AcDbEllipse
 10
1263.76593508806
 20
-204.9806444335277
 30
0.0
 11
28.18221033203125
 21
0.0
 31
0.0
210
0.0
220
0.0
230
1.0
 40
0.3542648350204008
 41
7.019114785623311
 42
8.449443430321717
  0
ELLIPSE
  5
169780
330
18
100
AcDbEntity
  8
姿図
100
AcDbEllipse
 10
1263.93357508806
 20
-192.2398952929011
 30
0.0
 11
25.03426728515625
 21
0.0
 31
0.0
210
0.0
220
0.0
230
1.0
 40
0.4062539168738495
 41
6.102070736612631
 42
9.604636669081895
  0
ELLIPSE
  5
169781
330
18
100
AcDbEntity
  8
姿図
100
AcDbEllipse
 10
1263.970792041182
 20
-186.3166152929039
 30
0.0
 11
25.03426728515625
 21
0.0
 31
0.0
210
0.0
220
0.0
230
1.0
 40
0.4434548040623525
 41
6.277624879366126
 42
9.42477796076938
  0
ELLIPSE
  5
169782
330
18
100
AcDbEntity
  8
姿図
100
AcDbEllipse
 10
1264.082552041185
 20
-202.5965766210261
 30
0.0
 11
29.95170728515625
 21
0.0
 31
0.0
210
0.0
220
0.0
230
1.0
 40
0.3420334162633324
 41
6.347012174631296
 42
9.238106276600035
  0
ELLIPSE
  5
169783
330
18
100
AcDbEntity
  8
姿図
100
AcDbEllipse
 10
1263.970792041182
 20
-201.2554566210197
 30
0.0
 11
29.95170728515625
 21
0.0
 31
0.0
210
0.0
220
0.0
230
1.0
 40
0.3420334162633324
 41
6.246151198549605
 42
9.398095263889298
  0
ARC
  5
169784
330
18
100
AcDbEntity
  8
姿図
100
AcDbCircle
 10
1392.724198160511
 20
-168.161245410321
 30
0.0
 40
153.5161736932471
100
AcDbArc
 50
174.2529884563427
 51
183.4469198873206
  0
ARC
  5
169785
330
18
100
AcDbEntity
  8
姿図
100
AcDbCircle
 10
1026.178691924053
 20
-165.5640406863217
 30
0.0
 40
262.7309322214857
100
AcDbArc
 50
357.4187120088287
 51
2.250399010515152
  0
LINE
  5
169786
330
18
100
AcDbEntity
  8
姿図
100
AcDbLine
 10
1288.706996279467
 20
-155.2474444335271
 30
0.0
 11
1287.739123173173
 21
-155.2522326911453
 31
0.0
  0
LINE
  5
169787
330
18
100
AcDbEntity
  8
姿図
100
AcDbLine
 10
1239.979636279464
 20
-152.7887244335284
 30
0.0
 11
1240.851520984557
 21
-152.7887244335284
 31
0.0
  0
ARC
  5
169788
330
18
100
AcDbEntity
  8
姿図
100
AcDbCircle
 10
1264.502104587722
 20
-181.3517954494068
 30
0.0
 40
32.63215375301989
100
AcDbArc
 50
68.4507183271528
 51
70.56990692627483
  0
ARC
  5
169789
330
18
100
AcDbEntity
  8
姿図
100
AcDbCircle
 10
1264.502104587722
 20
-181.3517954494068
 30
0.0
 40
32.63215375301989
100
AcDbArc
 50
80.61109519497357
 51
83.06676485221617
  0
ARC
  5
16978A
330
18
100
AcDbEntity
  8
姿図
100
AcDbCircle
 10
1264.502104587722
 20
-181.3517954494068
 30
0.0
 40
32.63215375301989
100
AcDbArc
 50
93.68267220368399
 51
96.440900832596
  0
ARC
  5
16978B
330
18
100
AcDbEntity
  8
姿図
100
AcDbCircle
 10
1264.502104587722
 20
-181.3517954494068
 30
0.0
 40
32.63215375301989
100
AcDbArc
 50
106.7357525055575
 51
109.1748340181608
  0
LINE
  5
16978C
330
18
100
AcDbEntity
  8
姿図
100
AcDbLine
 10
1275.357402266964
 20
-150.5781058614534
 30
0.0
 11
1275.3383781251
 21
-152.3292186561607
 31
0.0
  0
LINE
  5
16978D
330
18
100
AcDbEntity
  8
姿図
100
AcDbLine
 10
1268.441219326338
 20
-148.9582647119782
 30
0.0
 11
1268.16902655125
 21
-151.1423931978111
 31
0.0
  0
LINE
  5
16978E
330
18
100
AcDbEntity
  8
姿図
100
AcDbLine
 10
1255.105410155502
 20
-150.1018419725092
 30
0.0
 11
1255.121621414162
 21
-151.7593351974151
 31
0.0
  0
LINE
  5
16978F
330
18
100
AcDbEntity
  8
姿図
100
AcDbLine
 10
1238.936524756027
 20
-186.3166152929039
 30
0.0
 11
1238.899307802902
 21
-192.2398952929011
 31
0.0
  0
LINE
  5
169790
330
18
100
AcDbEntity
  8
姿図
100
AcDbLine
 10
1289.00505932634
 20
-186.3166152929039
 30
0.0
 11
1288.967761172878
 21
-192.265798799835
 31
0.0
  0
LINE
  5
169791
330
18
100
AcDbEntity
  8
姿図
100
AcDbLine
 10
1252.347724756028
 20
-128.4250444335262
 30
0.0
 11
1252.949081609164
 21
-128.587555799289
 31
0.0
  0
LINE
  5
169792
330
18
100
AcDbEntity
  8
姿図
100
AcDbLine
 10
1253.167316279465
 20
-122.3900044335273
 30
0.0
 11
1253.688844756027
 21
-122.1664844335278
 31
0.0
  0
LINE
  5
169793
330
18
100
AcDbEntity
  8
姿図
100
AcDbLine
 10
1257.339707802903
 20
-120.4528129100886
 30
0.0
 11
1257.786747802902
 21
-120.3783244335259
 31
0.0
  0
LINE
  5
169794
330
18
100
AcDbEntity
  8
姿図
100
AcDbLine
 10
1262.2571478029
 20
-119.2607244335263
 30
0.0
 11
1262.853164756027
 21
-119.2607244335263
 31
0.0
  0
LINE
  5
169795
330
18
100
AcDbEntity
  8
姿図
100
AcDbLine
 10
1267.54713932634
 20
-119.6332213866531
 30
0.0
 11
1267.845093232589
 21
-119.6324254134338
 31
0.0
  0
LINE
  5
169796
330
18
100
AcDbEntity
  8
姿図
100
AcDbLine
 10
1272.68809932634
 20
-120.9743413866522
 30
0.0
 11
1272.315493232589
 21
-120.8998529100895
 31
0.0
  0
LINE
  5
169797
330
18
100
AcDbEntity
  8
姿図
100
AcDbLine
 10
1276.423961923207
 20
-123.5044374668009
 30
0.0
 11
1275.891813232591
 21
-123.3585729100901
 31
0.0
  0
LINE
  5
169798
330
18
100
AcDbEntity
  8
姿図
100
AcDbLine
 10
1262.406124756026
 20
-148.7870241911
 30
0.0
 11
1262.103482130729
 21
-150.9963123724096
 31
0.0
  0
ELLIPSE
  5
169799
330
18
100
AcDbEntity
  8
姿図
100
AcDbEllipse
 10
1263.20679054358
 20
-228.6228793325549
 30
0.0
 11
49.37354443359371
 21
0.2797968750000001
 31
0.0
210
0.0
220
0.0
230
1.0
 40
0.4502805162895566
 41
0.0
 42
6.283185307179586
  0
SPLINE
  5
16979A
330
18
100
AcDbEntity
  8
姿図
100
AcDbSpline
210
0.0
220
0.0
230
1.0
 70
     8
 71
     3
 72
    11
 73
     7
 74
     0
 42
0.000000001
 43
0.0000000001
 40
0.0
 40
0.0
 40
0.0
 40
0.0
 40
1.0
 40
1.0
 40
1.0
 40
2.0
 40
2.0
 40
2.0
 40
2.0
 10
1213.833246109985
 20
-227.9799418325561
 30
0.0
 10
1213.763296891237
 20
-215.6979008169305
 30
0.0
 10
1235.7440947428
 20
-205.621492613805
 30
0.0
 10
1262.926807633425
 20
-205.468199645054
 30
0.0
 10
1288.215682633425
 20
-205.3253246450545
 30
0.0
 10
1309.097756852174
 20
-213.8189457388048
 30
0.0
 10
1311.942606461549
 20
-224.8925023794304
 30
0.0
  0
ELLIPSE
  5
16979B
330
18
100
AcDbEntity
  8
姿図
100
AcDbEllipse
 10
1263.114703141237
 20
-230.0181430044317
 30
0.0
 11
40.5352001953125
 21
0.0
 31
0.0
210
0.0
220
0.0
230
1.0
 40
0.4469778328514387
 41
0.0
 42
6.283185307179586
  0
SPLINE
  5
16979C
330
18
100
AcDbEntity
  8
姿図
100
AcDbSpline
210
0.0
220
0.0
230
1.0
 70
     8
 71
     3
 72
    17
 73
    13
 74
     0
 42
0.000000001
 43
0.0000000001
 40
0.0
 40
0.0
 40
0.0
 40
0.0
 40
1.0
 40
1.0
 40
1.0
 40
2.0
 40
2.0
 40
2.0
 40
3.0
 40
3.0
 40
3.0
 40
4.0
 40
4.0
 40
4.0
 40
4.0
 10
1222.1858525553
 20
-215.3250863638054
 30
0.0
 10
1222.157947281863
 20
-215.0393363638063
 30
0.0
 10
1222.143808609988
 20
-214.7520980825552
 30
0.0
 10
1222.143808609988
 20
-214.4633715200539
 30
0.0
 10
1222.143808609988
 20
-204.0081957388043
 30
0.0
 10
1240.413577164676
 20
-195.170781676306
 30
0.0
 10
1263.108750016236
 20
-195.5339223013066
 30
0.0
 10
1293.854036149049
 20
-196.0257992544298
 30
0.0
 10
1302.2732431803
 20
-207.3397133169306
 30
0.0
 10
1303.983278336549
 20
-211.9518969106789
 30
0.0
 10
1303.983278336549
 20
-211.9518969106789
 30
0.0
 10
1304.298049820924
 20
-214.4767660513039
 30
0.0
 10
1304.247448258424
 20
-215.2261156606796
 30
0.0
  0
POLYLINE
  5
16979D
330
18
100
AcDbEntity
  8
姿図
100
AcDb2dPolyline
 66
     1
 10
0.0
 20
0.0
 30
0.0
  0
VERTEX
  5
16979E
330
16979D
100
AcDbEntity
  8
姿図
100
AcDbVertex
100
AcDb2dVertex
 10
1222.148645524052
 20
-213.8174574575564
 30
0.0
  0
VERTEX
  5
16979F
330
16979D
100
AcDbEntity
  8
姿図
100
AcDbVertex
100
AcDb2dVertex
 10
1221.930612320923
 20
-210.479242613806
 30
0.0
  0
VERTEX
  5
1697A0
330
16979D
100
AcDbEntity
  8
姿図
100
AcDbVertex
100
AcDb2dVertex
 10
1222.184736344363
 20
-191.4657055044295
 30
0.0
  0
VERTEX
  5
1697A1
330
16979D
100
AcDbEntity
  8
姿図
100
AcDbVertex
100
AcDb2dVertex
 10
1223.345967789672
 20
-188.3455238638066
 30
0.0
  0
VERTEX
  5
1697A2
330
16979D
100
AcDbEntity
  8
姿図
100
AcDbVertex
100
AcDb2dVertex
 10
1224.869967789675
 20
-188.2004164419318
 30
0.0
  0
VERTEX
  5
1697A3
330
16979D
100
AcDbEntity
  8
姿図
100
AcDbVertex
100
AcDb2dVertex
 10
1225.341380875612
 20
-188.6718295278692
 30
0.0
  0
VERTEX
  5
1697A4
330
16979D
100
AcDbEntity
  8
姿図
100
AcDbVertex
100
AcDb2dVertex
 10
1225.377457535638
 20
-207.0168111514754
 30
0.0
  0
SEQEND
  5
1697A5
330
16979D
100
AcDbEntity
  8
姿図
  0
POLYLINE
  5
1697A6
330
18
100
AcDbEntity
  8
姿図
100
AcDb2dPolyline
 66
     1
 10
0.0
 20
0.0
 30
0.0
  0
VERTEX
  5
1697A7
330
1697A6
100
AcDbEntity
  8
姿図
100
AcDbVertex
100
AcDb2dVertex
 10
1226.4661494303
 20
-205.9130645677883
 30
0.0
  0
VERTEX
  5
1697A8
330
1697A6
100
AcDbEntity
  8
姿図
100
AcDbVertex
100
AcDb2dVertex
 10
1226.4661494303
 20
-198.8319535513069
 30
0.0
  0
VERTEX
  5
1697A9
330
1697A6
100
AcDbEntity
  8
姿図
100
AcDbVertex
100
AcDb2dVertex
 10
1225.341380875612
 20
-196.6910609731799
 30
0.0
  0
SEQEND
  5
1697AA
330
1697A6
100
AcDbEntity
  8
姿図
  0
POLYLINE
  5
1697AB
330
18
100
AcDbEntity
  8
姿図
100
AcDb2dPolyline
 66
     1
 10
0.0
 20
0.0
 30
0.0
  0
VERTEX
  5
1697AC
330
1697AB
100
AcDbEntity
  8
姿図
100
AcDbVertex
100
AcDb2dVertex
 10
1304.075551774051
 20
-211.9563617544295
 30
0.0
  0
VERTEX
  5
1697AD
330
1697AB
100
AcDbEntity
  8
姿図
100
AcDbVertex
100
AcDb2dVertex
 10
1304.190149430302
 20
-211.4622523794292
 30
0.0
  0
VERTEX
  5
1697AE
330
1697AB
100
AcDbEntity
  8
姿図
100
AcDbVertex
100
AcDb2dVertex
 10
1303.885795914674
 20
-191.9144223013041
 30
0.0
  0
VERTEX
  5
1697AF
330
1697AB
100
AcDbEntity
  8
姿図
100
AcDbVertex
100
AcDb2dVertex
 10
1303.809893570924
 20
-191.3064594106795
 30
0.0
  0
VERTEX
  5
1697B0
330
1697AB
100
AcDbEntity
  8
姿図
100
AcDbVertex
100
AcDb2dVertex
 10
1303.239137711549
 20
-190.2036430044295
 30
0.0
  0
VERTEX
  5
1697B1
330
1697AB
100
AcDbEntity
  8
姿図
100
AcDbVertex
100
AcDb2dVertex
 10
1303.315040055299
 20
-189.8230150747436
 30
0.0
  0
VERTEX
  5
1697B2
330
1697AB
100
AcDbEntity
  8
姿図
100
AcDbVertex
100
AcDb2dVertex
 10
1302.516577164672
 20
-188.3019916372409
 30
0.0
  0
VERTEX
  5
1697B3
330
1697AB
100
AcDbEntity
  8
姿図
100
AcDbVertex
100
AcDb2dVertex
 10
1300.843004899049
 20
-188.1498148794321
 30
0.0
  0
VERTEX
  5
1697B4
330
1697AB
100
AcDbEntity
  8
姿図
100
AcDbVertex
100
AcDb2dVertex
 10
1300.994976297327
 20
-207.2819019366539
 30
0.0
  0
SEQEND
  5
1697B5
330
1697AB
100
AcDbEntity
  8
姿図
  0
POLYLINE
  5
1697B6
330
18
100
AcDbEntity
  8
姿図
100
AcDb2dPolyline
 66
     1
 10
0.0
 20
0.0
 30
0.0
  0
VERTEX
  5
1697B7
330
1697B6
100
AcDbEntity
  8
姿図
100
AcDbVertex
100
AcDb2dVertex
 10
1300.85193458655
 20
-196.092771910678
 30
0.0
  0
VERTEX
  5
1697B8
330
1697B6
100
AcDbEntity
  8
姿図
100
AcDbVertex
100
AcDb2dVertex
 10
1299.464856461549
 20
-198.319984801306
 30
0.0
  0
VERTEX
  5
1697B9
330
1697B6
100
AcDbEntity
  8
姿図
100
AcDbVertex
100
AcDb2dVertex
 10
1299.565338990786
 20
-205.8517283646029
 30
0.0
  0
SEQEND
  5
1697BA
330
1697B6
100
AcDbEntity
  8
姿図
  0
LINE
  5
1697BB
330
18
100
AcDbEntity
  8
姿図
100
AcDbLine
 10
1301.7047197428
 20
-188.2554828481821
 30
0.0
 11
1302.159389664675
 21
-208.6866078481794
 31
0.0
  0
POLYLINE
  5
1697BC
330
18
100
AcDbEntity
  8
姿図
100
AcDb2dPolyline
 66
     1
 10
0.0
 20
0.0
 30
0.0
  0
VERTEX
  5
1697BD
330
1697BC
100
AcDbEntity
  8
姿図
100
AcDbVertex
100
AcDb2dVertex
 10
1303.3686181803
 20
-190.4149789419293
 30
0.0
  0
VERTEX
  5
1697BE
330
1697BC
100
AcDbEntity
  8
姿図
100
AcDbVertex
100
AcDb2dVertex
 10
1303.733991227175
 20
-210.7969906606809
 30
0.0
  0
VERTEX
  5
1697BF
330
1697BC
100
AcDbEntity
  8
姿図
100
AcDbVertex
100
AcDb2dVertex
 10
1304.190149430302
 20
-211.4622523794292
 30
0.0
  0
SEQEND
  5
1697C0
330
1697BC
100
AcDbEntity
  8
姿図
  0
LINE
  5
1697C1
330
18
100
AcDbEntity
  8
姿図
100
AcDbLine
 10
1302.865579117799
 20
-188.9527426138061
 30
0.0
 11
1303.367083468989
 21
-210.5938423601815
 31
0.0
  0
LINE
  5
1697C2
330
18
100
AcDbEntity
  8
姿図
100
AcDbLine
 10
1224.481154313113
 20
-188.2074857778675
 30
0.0
 11
1224.282322202165
 21
-208.3655748468314
 31
0.0
  0
LINE
  5
1697C3
330
18
100
AcDbEntity
  8
姿図
100
AcDbLine
 10
1223.345967789672
 20
-188.3455238638066
 30
0.0
 11
1223.219912226788
 21
-210.1079045411511
 31
0.0
  0
ELLIPSE
  5
1697C4
330
18
100
AcDbEntity
  8
姿図
100
AcDbEllipse
 10
1263.114703141237
 20
-230.0181430044317
 30
0.0
 11
37.7509442509474
 21
0.0
 31
0.0
210
0.0
220
0.0
230
1.0
 40
0.4353578139121607
 41
0.0
 42
6.283185307179586
  0
ELLIPSE
  5
1697C5
330
18
100
AcDbEntity
  8
姿図
100
AcDbEllipse
 10
1263.114703141237
 20
-224.1622806827595
 30
0.0
 11
37.7509442509474
 21
0.0
 31
0.0
210
0.0
220
0.0
230
1.0
 40
0.4353578139121607
 41
3.430182674761786
 42
3.654760014940499
  0
ELLIPSE
  5
1697C6
330
18
100
AcDbEntity
  8
姿図
100
AcDbEllipse
 10
1263.114703141237
 20
-224.1622806827595
 30
0.0
 11
37.7509442509474
 21
0.0
 31
0.0
210
0.0
220
0.0
230
1.0
 40
0.4353578139121607
 41
3.89140980700206
 42
4.1768344607692
  0
ELLIPSE
  5
1697C7
330
18
100
AcDbEntity
  8
姿図
100
AcDbEllipse
 10
1263.114703141237
 20
-224.1622806827595
 30
0.0
 11
37.7509442509474
 21
0.0
 31
0.0
210
0.0
220
0.0
230
1.0
 40
0.4353578139121607
 41
4.329600751246138
 42
4.635042359883845
  0
ELLIPSE
  5
1697C8
330
18
100
AcDbEntity
  8
姿図
100
AcDbEllipse
 10
1263.114703141237
 20
-224.1622806827595
 30
0.0
 11
37.7509442509474
 21
0.0
 31
0.0
210
0.0
220
0.0
230
1.0
 40
0.4353578139121607
 41
4.789735600885534
 42
5.095177209523239
  0
ELLIPSE
  5
1697C9
330
18
100
AcDbEntity
  8
姿図
100
AcDbEllipse
 10
1263.114703141237
 20
-224.1622806827595
 30
0.0
 11
37.7509442509474
 21
0.0
 31
0.0
210
0.0
220
0.0
230
1.0
 40
0.4353578139121607
 41
5.247943500000344
 42
5.533368153767317
  0
ELLIPSE
  5
1697CA
330
18
100
AcDbEntity
  8
姿図
100
AcDbEllipse
 10
1263.114703141237
 20
-224.1622806827595
 30
0.0
 11
37.7509442509474
 21
0.0
 31
0.0
210
0.0
220
0.0
230
1.0
 40
0.4353578139121607
 41
5.77001794582888
 42
5.994595286008098
  0
ELLIPSE
  5
1697CB
330
18
100
AcDbEntity
  8
姿図
100
AcDbEllipse
 10
1263.114703141237
 20
-224.1622806827595
 30
0.0
 11
29.99307472776054
 21
0.0
 31
0.0
210
0.0
220
0.0
230
-1.0
 40
0.3684551029263018
 41
5.542264346187127
 42
10.16569892176183
  0
LINE
  5
1697CC
330
18
100
AcDbEntity
  8
姿図
100
AcDbLine
 10
1263.114703141237
 20
-246.4533115666432
 30
0.0
 11
1260.19770570338
 21
-240.5483120537169
 31
0.0
  0
LINE
  5
1697CD
330
18
100
AcDbEntity
  8
姿図
100
AcDbLine
 10
1260.19770570338
 20
-240.5483120537169
 30
0.0
 11
1263.114703141237
 21
-235.213382118654
 31
0.0
  0
LINE
  5
1697CE
330
18
100
AcDbEntity
  8
姿図
100
AcDbLine
 10
1246.364030907809
 20
-244.7468117731692
 30
0.0
 11
1243.849716891982
 21
-238.2962919409488
 31
0.0
  0
LINE
  5
1697CF
330
18
100
AcDbEntity
  8
姿図
100
AcDbLine
 10
1243.849716891982
 20
-238.2962919409488
 30
0.0
 11
1251.523037211209
 21
-234.3546959829978
 31
0.0
  0
LINE
  5
1697D0
330
18
100
AcDbEntity
  8
姿図
100
AcDbLine
 10
1251.523037211209
 20
-234.3546959829978
 30
0.0
 11
1246.364030907809
 21
-244.7468117731692
 31
0.0
  0
LINE
  5
1697D1
330
18
100
AcDbEntity
  8
姿図
100
AcDbLine
 10
1231.800311889834
 20
-239.1973059935167
 30
0.0
 11
1230.226310838643
 21
-232.230947392934
 31
0.0
  0
LINE
  5
1697D2
330
18
100
AcDbEntity
  8
姿図
100
AcDbLine
 10
1230.226310838643
 20
-232.230947392934
 30
0.0
 11
1239.643330534736
 21
-231.0424257573663
 31
0.0
  0
LINE
  5
1697D3
330
18
100
AcDbEntity
  8
姿図
100
AcDbLine
 10
1239.643330534736
 20
-231.0424257573663
 30
0.0
 11
1231.800311889834
 21
-239.1973059935167
 31
0.0
  0
LINE
  5
1697D4
330
18
100
AcDbEntity
  8
姿図
100
AcDbLine
 10
1225.363758890289
 20
-230.0181430044317
 30
0.0
 11
1233.121628413475
 21
-224.1622806827595
 31
0.0
  0
LINE
  5
1697D5
330
18
100
AcDbEntity
  8
姿図
100
AcDbLine
 10
1233.121628413475
 20
-224.1622806827595
 30
0.0
 11
1227.841302796121
 21
-224.1622806827595
 31
0.0
  0
LINE
  5
1697D6
330
18
100
AcDbEntity
  8
姿図
100
AcDbLine
 10
1263.114703141237
 20
-246.4533115666432
 30
0.0
 11
1266.031700579093
 21
-240.5483120537169
 31
0.0
  0
LINE
  5
1697D7
330
18
100
AcDbEntity
  8
姿図
100
AcDbLine
 10
1266.031700579093
 20
-240.5483120537169
 30
0.0
 11
1263.114703141237
 21
-235.213382118654
 31
0.0
  0
LINE
  5
1697D8
330
18
100
AcDbEntity
  8
姿図
100
AcDbLine
 10
1279.865375374664
 20
-244.7468117731692
 30
0.0
 11
1282.379689390491
 21
-238.2962919409488
 31
0.0
  0
LINE
  5
1697D9
330
18
100
AcDbEntity
  8
姿図
100
AcDbLine
 10
1282.379689390491
 20
-238.2962919409488
 30
0.0
 11
1274.706369071264
 21
-234.3546959829978
 31
0.0
  0
LINE
  5
1697DA
330
18
100
AcDbEntity
  8
姿図
100
AcDbLine
 10
1274.706369071264
 20
-234.3546959829978
 30
0.0
 11
1279.865375374664
 21
-244.7468117731692
 31
0.0
  0
LINE
  5
1697DB
330
18
100
AcDbEntity
  8
姿図
100
AcDbLine
 10
1294.429094392639
 20
-239.1973059935167
 30
0.0
 11
1296.00309544383
 21
-232.230947392934
 31
0.0
  0
LINE
  5
1697DC
330
18
100
AcDbEntity
  8
姿図
100
AcDbLine
 10
1296.00309544383
 20
-232.230947392934
 30
0.0
 11
1286.586075747735
 21
-231.0424257573663
 31
0.0
  0
LINE
  5
1697DD
330
18
100
AcDbEntity
  8
姿図
100
AcDbLine
 10
1286.586075747735
 20
-231.0424257573663
 30
0.0
 11
1294.429094392639
 21
-239.1973059935167
 31
0.0
  0
LINE
  5
1697DE
330
18
100
AcDbEntity
  8
姿図
100
AcDbLine
 10
1300.865647392184
 20
-230.0181430044317
 30
0.0
 11
1293.107777868996
 21
-224.1622806827595
 31
0.0
  0
LINE
  5
1697DF
330
18
100
AcDbEntity
  8
姿図
100
AcDbLine
 10
1293.107777868996
 20
-224.1622806827595
 30
0.0
 11
1298.388103486352
 21
-224.1622806827595
 31
0.0
  0
LINE
  5
1697E0
330
18
100
AcDbEntity
  8
姿図
100
AcDbLine
 10
1263.114703139245
 20
-235.213382118654
 30
0.0
 11
1263.11470313889
 21
-246.4533115666432
 31
0.0
  0
ELLIPSE
  5
1697E1
330
18
100
AcDbEntity
  8
姿図
100
AcDbEllipse
 10
1263.114703141237
 20
-223.6959616363724
 30
0.0
 11
29.99307472776054
 21
0.0
 31
0.0
210
0.0
220
0.0
230
-1.0
 40
0.3684551029263018
 41
6.304285179084703
 42
9.403678088864263
  0
LINE
  5
1697E2
330
18
100
AcDbEntity
  8
姿図
100
AcDbLine
 10
1236.688119218896
 20
-225.9085986937785
 30
0.0
 11
1255.30516318618
 21
-215.160043347752
 31
0.0
  0
LINE
  5
1697E3
330
18
100
AcDbEntity
  8
姿図
100
AcDbLine
 10
1237.991715414217
 20
-227.0863662431725
 30
0.0
 11
1258.874466188483
 21
-215.0297044622307
 31
0.0
  0
LINE
  5
1697E4
330
18
100
AcDbEntity
  8
姿図
100
AcDbLine
 10
1248.169055815302
 20
-231.3560494447461
 30
0.0
 11
1274.837404970862
 21
-215.9590708809405
 31
0.0
  0
LINE
  5
1697E5
330
18
100
AcDbEntity
  8
姿図
100
AcDbLine
 10
1250.505420530364
 20
-231.9375478112611
 30
0.0
 11
1277.601099211752
 21
-216.2938504306853
 31
0.0
  0
LINE
  5
1697E6
330
18
100
AcDbEntity
  8
姿図
100
AcDbLine
 10
1266.538529592344
 20
-232.9254482482897
 30
0.0
 11
1288.053304404035
 21
-220.5038872192067
 31
0.0
  0
LINE
  5
1697E7
330
18
100
AcDbEntity
  8
姿図
100
AcDbLine
 10
1269.851983242363
 20
-232.9428240551838
 30
0.0
 11
1289.590356057548
 21
-221.5468691969704
 31
0.0
  0
ENDSEC
  0
SECTION
  2
OBJECTS
  0
DICTIONARY
  5
C
330
0
100
AcDbDictionary
281
     1
  3
ACAD_GROUP
350
D
  3
ACAD_IMAGE_VARS
350
16A54A
  3
ACAD_LAYOUT
350
617
  3
ACAD_MLINESTYLE
350
E
  3
ACAD_PLOTSETTINGS
350
618
  3
ACAD_PLOTSTYLENAME
350
615
  3
ACAD_SCALELIST
350
A36
  3
AcadDim
350
AB4
  3
AcDbVariableDictionary
350
6DE
  3
APPDATA
350
16A548
  3
DWGPROPS
350
16A54B
  0
DICTIONARY
  5
8BF
330
2
100
AcDbDictionary
280
     1
281
     1
  3
ACAD_LAYERSTATES
360
8C0
  0
DICTIONARY
  5
A60
330
F
100
AcDbDictionary
280
     1
281
     1
  3
ADSK_XREC_LAYER_RECONCILED
360
A61
  0
DICTIONARY
  5
A66
330
34
100
AcDbDictionary
280
     1
281
     1
  3
ADSK_XREC_LAYER_RECONCILED
360
A67
  0
DICTIONARY
  5
A6E
330
2F4
100
AcDbDictionary
280
     1
281
     1
  3
ADSK_XREC_LAYER_RECONCILED
360
A6F
  0
DICTIONARY
  5
A72
330
305
100
AcDbDictionary
280
     1
281
     1
  3
ADSK_XREC_LAYER_RECONCILED
360
A73
  0
DICTIONARY
  5
143F
330
18
100
AcDbDictionary
280
     1
281
     1
  3
ACAD_SORTENTS
360
1440
  0
DICTIONARY
  5
D
102
{ACAD_REACTORS
330
C
102
}
330
C
100
AcDbDictionary
281
     1
  0
RASTERVARIABLES
  5
16A54A
102
{ACAD_REACTORS
330
C
102
}
330
C
100
AcDbRasterVariables
 90
        0
 70
     1
 71
     1
 72
     0
  0
DICTIONARY
  5
617
102
{ACAD_REACTORS
330
C
102
}
330
C
100
AcDbDictionary
281
     1
  3
Model
350
619
  3
ﾚｲｱｳﾄ1
350
61A
  0
DICTIONARY
  5
E
102
{ACAD_REACTORS
330
C
102
}
330
C
100
AcDbDictionary
281
     1
  3
STANDARD
350
1B
  0
DICTIONARY
  5
618
102
{ACAD_REACTORS
330
C
102
}
330
C
100
AcDbDictionary
281
     1
  0
ACDBDICTIONARYWDFLT
  5
615
102
{ACAD_REACTORS
330
C
102
}
330
C
100
AcDbDictionary
281
     1
  3
Normal
350
616
100
AcDbDictionaryWithDefault
340
616
  0
DICTIONARY
  5
A36
102
{ACAD_REACTORS
330
C
102
}
330
C
100
AcDbDictionary
281
     1
  3
A0
350
A37
  3
A1
350
A38
  3
A2
350
A39
  3
A3
350
A3A
  3
A4
350
A3B
  3
A5
350
A3C
  3
A6
350
A3D
  3
A7
350
A3E
  3
A8
350
A3F
  3
A9
350
A40
  3
B0
350
A41
  3
B1
350
A42
  3
B2
350
A43
  3
B3
350
A44
  3
B4
350
A45
  3
B5
350
A46
  3
B6
350
A47
  3
B7
350
A48
  3
B8
350
A49
  3
B9
350
A4A
  3
C0
350
A4B
  3
C1
350
A4C
  3
C2
350
A4D
  3
C3
350
A4E
  3
C4
350
A4F
  3
C5
350
A50
  3
C6
350
A51
  3
C7
350
A52
  3
C8
350
A53
  3
C9
350
A54
  3
D0
350
A55
  3
D1
350
A56
  3
D2
350
A57
  0
XRECORD
  5
AB4
102
{ACAD_REACTORS
330
C
102
}
330
C
100
AcDbXrecord
280
     1
 90
   990106
  3
OPEN
 60
     0
 61
     0
 62
     1
 63
     3
 64
     1
 65
     0
 66
     0
 67
     3
 68
     1
 69
     0
 70
     0
 71
     0
 72
     0
 40
0.0
170
     2
  0
DICTIONARY
  5
6DE
102
{ACAD_REACTORS
330
C
102
}
330
C
100
AcDbDictionary
281
     1
  3
DIMASSOC
350
6DF
  3
INDEXCTL
350
A93
  3
PROJECTNAME
350
6E0
  3
SORTENTS
350
A92
  0
DICTIONARY
  5
16A548
102
{ACAD_REACTORS
330
C
102
}
330
C
100
AcDbDictionary
281
     1
  0
XRECORD
  5
16A54B
102
{ACAD_REACTORS
330
C
102
}
330
C
100
AcDbXrecord
280
     1
  1
DWGPROPS COOKIE
  2

  3

  4

  6

  7

  8
SPAX
  9

300
=
301
=
302
=
303
=
304
=
305
=
306
=
307
=
308
=
309
=
 40
0.0
 41
2448636.244629629
 42
2456822.228316701
  1

 90
        0
  0
DICTIONARY
  5
8C0
102
{ACAD_REACTORS
330
8BF
102
}
330
8BF
100
AcDbDictionary
281
     1
  0
XRECORD
  5
A61
102
{ACAD_REACTORS
330
A60
102
}
330
A60
100
AcDbXrecord
280
     1
290
     1
  0
XRECORD
  5
A67
102
{ACAD_REACTORS
330
A66
102
}
330
A66
100
AcDbXrecord
280
     1
290
     1
  0
XRECORD
  5
A6F
102
{ACAD_REACTORS
330
A6E
102
}
330
A6E
100
AcDbXrecord
280
     1
290
     1
  0
XRECORD
  5
A73
102
{ACAD_REACTORS
330
A72
102
}
330
A72
100
AcDbXrecord
280
     1
290
     1
  0
SORTENTSTABLE
  5
1440
102
{ACAD_REACTORS
330
143F
102
}
330
143F
100
AcDbSortentsTable
330
18
331
D0CC6
  5
D0CC6
331
F6D77
  5
F6D77
331
F6D78
  5
F6D78
331
0
  5
161DB1
331
0
  5
161DB2
331
0
  5
161DB3
331
0
  5
161DB4
331
0
  5
161DB5
331
0
  5
161DB6
331
0
  5
161DB7
331
0
  5
161DB8
331
0
  5
161DB9
331
0
  5
161DBA
331
0
  5
161DBB
331
0
  5
161DBC
331
0
  5
161DBD
331
0
  5
161DBE
331
0
  5
161DBF
331
0
  5
161DC0
331
0
  5
161DC1
331
0
  5
161DC2
331
0
  5
161DC3
331
0
  5
161DC4
331
0
  5
161DC5
331
0
  5
161DC6
331
0
  5
161DC7
331
0
  5
161DC8
331
0
  5
161DC9
331
0
  5
161DCA
331
0
  5
161DCB
331
0
  5
161DCC
331
0
  5
161DCD
331
0
  5
161DCE
331
0
  5
161DCF
331
0
  5
161DD0
331
0
  5
161DD1
331
0
  5
161DD2
331
0
  5
161DD3
331
0
  5
161DD4
331
0
  5
161DD5
331
0
  5
161DD6
331
0
  5
161DD7
331
0
  5
161DD8
331
0
  5
161DD9
331
0
  5
161DDA
331
0
  5
161DDB
331
0
  5
161DDC
331
0
  5
161DDD
331
0
  5
161DDE
331
0
  5
161DDF
331
0
  5
161DE0
331
0
  5
161DE1
331
0
  5
161DE2
331
0
  5
161DE3
331
0
  5
161DE4
331
0
  5
161DE5
331
0
  5
161DE6
331
0
  5
161DE7
331
0
  5
161DE8
331
0
  5
161DE9
331
0
  5
161DEA
331
0
  5
161DEB
331
0
  5
161DEC
331
0
  5
161DED
331
0
  5
161DEE
331
0
  5
161DEF
331
0
  5
161DF0
331
0
  5
161DF1
331
0
  5
161DF2
331
0
  5
161DF3
331
0
  5
161DF4
331
0
  5
161DF5
331
0
  5
161DF6
331
0
  5
161DF7
331
0
  5
161DF8
331
0
  5
161DF9
331
0
  5
161DFA
331
0
  5
161DFB
331
0
  5
161DFC
331
0
  5
161DFD
331
0
  5
161DFE
331
0
  5
161DFF
331
0
  5
161E00
331
0
  5
161E01
331
0
  5
161E02
331
0
  5
161E03
331
0
  5
161E04
331
0
  5
161E05
331
0
  5
161E06
331
0
  5
161E07
331
0
  5
161E08
331
0
  5
161E09
331
0
  5
161E0A
331
0
  5
161E0B
331
0
  5
161E0C
331
0
  5
161E0D
331
0
  5
161E0E
331
0
  5
161E0F
331
0
  5
161E10
331
0
  5
161E11
331
0
  5
161E12
331
0
  5
161E13
331
0
  5
161E14
331
0
  5
161E15
331
0
  5
161E16
331
0
  5
161E17
331
0
  5
161E18
331
0
  5
161E19
331
0
  5
161E1A
331
0
  5
161E1B
331
0
  5
161E1C
331
0
  5
161E1D
331
0
  5
161E1E
331
0
  5
161E1F
331
0
  5
161E20
331
0
  5
161E21
331
0
  5
161E22
331
0
  5
161E23
331
0
  5
161E24
331
0
  5
161E25
331
0
  5
161E26
331
0
  5
161E27
331
0
  5
161E28
331
0
  5
161E29
331
0
  5
161E2A
331
0
  5
161E2B
331
0
  5
161E2C
331
0
  5
161E2D
331
0
  5
161E2E
331
0
  5
161E2F
331
0
  5
161E30
331
0
  5
161E31
331
0
  5
161E32
331
0
  5
161E33
331
0
  5
161E34
331
0
  5
161E35
331
0
  5
161E36
331
0
  5
161E37
331
0
  5
161E38
331
0
  5
161E39
331
0
  5
161E3A
331
0
  5
161E3B
331
0
  5
161E3C
331
0
  5
161E3D
331
0
  5
161E3E
331
0
  5
161E3F
331
0
  5
161E40
331
0
  5
161E41
331
0
  5
161E42
331
0
  5
161E43
331
0
  5
161E44
331
0
  5
161E45
331
0
  5
161E46
331
0
  5
161E47
331
0
  5
161E48
331
0
  5
161E49
331
0
  5
161E4A
331
0
  5
161E4B
331
0
  5
161E4C
331
0
  5
161E4D
331
0
  5
161E4E
331
0
  5
161E4F
331
0
  5
161E50
331
0
  5
161E51
331
0
  5
161E52
331
0
  5
161E53
331
0
  5
161E54
331
0
  5
161E55
331
0
  5
161E56
331
0
  5
161E57
331
0
  5
161E58
331
0
  5
161E59
331
0
  5
161E5A
331
0
  5
161E5B
331
0
  5
161E5C
331
0
  5
161E5D
331
0
  5
161E5E
331
0
  5
161E5F
331
0
  5
161E60
331
0
  5
161E61
331
0
  5
161E62
331
0
  5
161E63
331
0
  5
161E64
331
0
  5
161E65
331
0
  5
161E66
331
0
  5
161E67
331
0
  5
161E68
331
0
  5
161E69
331
0
  5
161E6A
331
0
  5
161E6B
331
0
  5
161E6C
331
0
  5
161E6D
331
0
  5
161E6E
331
0
  5
161E6F
331
0
  5
161E70
331
0
  5
161E71
331
0
  5
161E72
331
0
  5
161E73
331
0
  5
161E74
331
0
  5
161E75
331
0
  5
161E76
331
0
  5
161E77
331
0
  5
161E78
331
0
  5
161E79
331
0
  5
161E7A
331
0
  5
161E7B
331
0
  5
161E7C
331
0
  5
161E7D
331
0
  5
161E7E
331
0
  5
161E7F
331
0
  5
161E80
331
0
  5
161E81
331
0
  5
161E82
331
0
  5
161E83
331
0
  5
161E84
331
0
  5
161E85
331
0
  5
161E86
331
0
  5
161E87
331
0
  5
161E88
331
0
  5
161E89
331
0
  5
161E8A
331
0
  5
161E8B
331
0
  5
161E8C
331
0
  5
161E8D
331
0
  5
161E8E
331
0
  5
161E8F
331
0
  5
161E90
331
0
  5
161E91
331
0
  5
161E92
331
0
  5
161E93
331
0
  5
161E94
331
0
  5
161E95
331
0
  5
161E96
331
0
  5
161E97
331
0
  5
161E98
331
0
  5
161E99
331
0
  5
161E9A
331
0
  5
161E9B
331
0
  5
161E9C
331
0
  5
161E9D
331
0
  5
161E9E
331
0
  5
161E9F
331
0
  5
161EA0
331
0
  5
161EA1
331
0
  5
161EA2
331
0
  5
161EA3
331
0
  5
161EA4
331
0
  5
161EA5
331
0
  5
161EA6
331
0
  5
161EA7
331
0
  5
161EA8
331
0
  5
161EA9
331
0
  5
161EAA
331
0
  5
161EAB
331
0
  5
161EAC
331
0
  5
161EAD
331
0
  5
161EAE
331
0
  5
161EAF
331
0
  5
161EB0
331
0
  5
161EB1
331
0
  5
161EB2
331
0
  5
161EB3
331
0
  5
161EB4
331
0
  5
161EB5
331
0
  5
161EB6
331
0
  5
161EB7
331
0
  5
161EB8
331
0
  5
161EB9
331
0
  5
161EBA
331
0
  5
161EBB
331
0
  5
161EBC
331
0
  5
161EBD
331
0
  5
161EBE
331
0
  5
161EBF
331
0
  5
161EC0
331
0
  5
161EC1
331
0
  5
161EC2
331
0
  5
161EC3
331
0
  5
161EC4
331
0
  5
161EC5
331
0
  5
161EC6
331
0
  5
161EC7
331
0
  5
161EC8
331
0
  5
161EC9
331
0
  5
161ECA
331
0
  5
161ECB
331
0
  5
161ECC
331
0
  5
161ECD
331
0
  5
161ECE
331
0
  5
161ECF
331
0
  5
161ED0
331
0
  5
161ED1
331
0
  5
161ED2
331
0
  5
161ED3
331
0
  5
161ED4
331
0
  5
161ED5
331
0
  5
161ED6
331
0
  5
161ED7
331
0
  5
161ED8
331
0
  5
161ED9
331
0
  5
161EDA
331
0
  5
161EDB
331
0
  5
161EDC
331
0
  5
161EDD
331
0
  5
161EDE
331
0
  5
161EDF
331
0
  5
161EE0
331
0
  5
161EE1
331
0
  5
161EE2
331
0
  5
161EE3
331
0
  5
161EE4
331
0
  5
161EE5
331
0
  5
161EE6
331
0
  5
161EE7
331
0
  5
161EE8
331
0
  5
161EE9
331
0
  5
161EEA
331
0
  5
161EEB
331
0
  5
161EEC
331
0
  5
161EED
331
0
  5
161EEE
331
0
  5
161EEF
331
0
  5
161EF0
331
0
  5
161EF1
331
0
  5
161EF2
331
0
  5
161EF3
331
0
  5
161EF4
331
0
  5
161EF5
331
0
  5
161EF6
331
0
  5
161EF7
331
0
  5
161EF8
331
0
  5
161EF9
331
0
  5
161EFA
331
0
  5
161EFB
331
0
  5
161EFC
331
0
  5
161EFD
331
0
  5
161EFE
331
0
  5
161EFF
331
0
  5
161F00
331
0
  5
161F01
331
0
  5
161F02
331
0
  5
161F03
331
0
  5
161F04
331
0
  5
161F05
331
0
  5
161F06
331
0
  5
161F07
331
0
  5
161F08
331
0
  5
161F09
331
0
  5
161F0A
331
0
  5
161F0B
331
0
  5
161F0C
331
0
  5
161F0D
331
0
  5
161F0E
331
0
  5
161F0F
331
0
  5
161F10
331
0
  5
161F11
331
0
  5
161F12
331
0
  5
161F13
331
0
  5
161F14
331
0
  5
161F15
331
0
  5
161F16
331
0
  5
161F17
331
0
  5
161F18
331
0
  5
161F19
331
0
  5
161F1A
331
0
  5
161F1B
331
0
  5
161F1C
331
0
  5
161F1D
331
0
  5
161F1E
331
0
  5
161F1F
331
0
  5
161F20
331
0
  5
161F21
331
0
  5
161F22
331
0
  5
161F23
331
0
  5
161F24
331
0
  5
161F25
331
0
  5
161F26
331
0
  5
161F27
331
0
  5
161F28
331
0
  5
161F29
331
0
  5
161F2A
331
0
  5
161F2B
331
0
  5
161F2C
331
0
  5
161F2D
331
0
  5
161F2E
331
0
  5
161F2F
331
0
  5
161F30
331
0
  5
161F31
331
0
  5
161F32
331
0
  5
161F33
331
0
  5
161F34
331
0
  5
161F35
331
0
  5
161F36
331
0
  5
161F37
331
0
  5
161F38
331
0
  5
161F39
331
0
  5
161F3A
331
0
  5
161F3B
331
0
  5
161F3C
331
0
  5
161F3D
331
0
  5
161F3E
331
0
  5
161F3F
331
0
  5
161F40
331
0
  5
161F41
331
0
  5
161F42
331
0
  5
161F43
331
0
  5
161F44
331
0
  5
161F45
331
0
  5
161F46
331
0
  5
161F47
331
0
  5
161F48
331
0
  5
161F49
331
0
  5
161F4A
331
0
  5
161F4B
331
0
  5
161F4C
331
0
  5
161F4D
331
0
  5
161F4E
331
0
  5
161F4F
331
0
  5
161F50
331
0
  5
161F51
331
0
  5
161F52
331
0
  5
161F53
331
0
  5
161F54
331
0
  5
161F55
331
0
  5
161F56
331
0
  5
161F57
331
0
  5
161F58
331
0
  5
161F59
331
0
  5
161F5A
331
0
  5
161F5B
331
0
  5
161F5C
331
0
  5
161F5D
331
0
  5
161F5E
331
0
  5
161F5F
331
0
  5
161F60
331
0
  5
161F61
331
0
  5
161F62
331
0
  5
161F63
331
0
  5
161F64
331
0
  5
161F65
331
0
  5
161F66
331
0
  5
161F67
331
0
  5
161F68
331
0
  5
161F69
331
0
  5
161F6A
331
0
  5
161F6B
331
0
  5
161F6C
331
0
  5
161F6D
331
0
  5
161F6E
331
0
  5
161F6F
331
0
  5
161F70
331
0
  5
161F71
331
0
  5
161F72
331
0
  5
161F73
331
0
  5
161F74
331
0
  5
161F75
331
0
  5
161F76
331
0
  5
161F77
331
0
  5
161F78
331
0
  5
161F79
331
0
  5
161F7A
331
0
  5
161F7B
331
0
  5
161F7C
331
0
  5
161F7D
331
0
  5
161F7E
331
0
  5
161F7F
331
0
  5
161F80
331
0
  5
161F81
331
0
  5
161F82
331
0
  5
161F83
331
0
  5
161F84
331
0
  5
161F85
331
0
  5
161F86
331
0
  5
161F87
331
0
  5
161F88
331
0
  5
161F89
331
0
  5
161F8A
331
0
  5
161F8B
331
0
  5
161F8C
331
0
  5
161F8D
331
0
  5
161F8E
331
0
  5
161F8F
331
0
  5
161F90
331
0
  5
161F91
331
0
  5
161F92
331
0
  5
161F93
331
0
  5
161F94
331
0
  5
161F95
331
0
  5
161F96
331
0
  5
161F97
331
0
  5
161F98
331
0
  5
161F99
331
0
  5
161F9A
331
0
  5
161F9B
331
0
  5
161F9C
331
0
  5
161F9D
331
0
  5
161F9E
331
0
  5
161F9F
331
0
  5
161FA0
331
0
  5
161FA1
331
0
  5
161FA2
331
0
  5
161FA3
331
0
  5
161FA4
331
0
  5
161FA5
331
0
  5
161FA6
331
0
  5
161FA7
331
0
  5
161FA8
331
0
  5
161FA9
331
0
  5
161FAA
331
0
  5
161FAB
331
0
  5
161FAC
331
0
  5
161FAD
331
0
  5
161FAE
331
0
  5
161FAF
331
0
  5
161FB0
331
0
  5
161FB1
331
0
  5
161FB2
331
0
  5
161FB3
331
0
  5
161FB4
331
0
  5
161FB5
331
0
  5
161FB6
331
0
  5
161FB7
331
0
  5
161FB8
331
0
  5
161FB9
331
0
  5
161FBA
331
0
  5
161FBB
331
0
  5
161FBC
331
0
  5
161FBD
331
0
  5
161FBE
331
0
  5
161FBF
331
0
  5
161FC0
331
0
  5
161FC1
331
0
  5
161FC2
331
0
  5
161FC3
331
0
  5
161FC4
331
0
  5
161FC5
331
0
  5
161FC6
331
0
  5
161FC7
331
0
  5
161FC8
331
0
  5
161FC9
331
0
  5
161FCA
331
0
  5
161FCB
331
0
  5
161FCC
331
0
  5
161FCD
331
0
  5
161FCE
331
0
  5
161FCF
331
0
  5
161FD0
331
0
  5
161FD1
331
0
  5
161FD2
331
0
  5
161FD3
331
0
  5
161FD4
331
0
  5
161FD5
331
0
  5
161FD6
331
0
  5
161FD7
331
0
  5
161FD8
331
0
  5
161FD9
331
0
  5
161FDA
331
0
  5
161FDB
331
0
  5
161FDC
331
0
  5
161FDD
331
0
  5
161FDE
331
0
  5
161FDF
331
0
  5
161FE0
331
0
  5
161FE1
331
0
  5
161FE2
331
0
  5
161FE3
331
0
  5
161FE4
331
0
  5
161FE5
331
0
  5
161FE6
331
0
  5
161FE7
331
0
  5
161FE8
331
0
  5
161FE9
331
0
  5
161FEA
331
0
  5
161FEB
331
0
  5
161FEC
331
0
  5
161FED
331
0
  5
161FEE
331
0
  5
161FEF
331
0
  5
161FF0
331
0
  5
161FF1
331
0
  5
161FF2
331
0
  5
161FF3
331
0
  5
161FF4
331
0
  5
161FF5
331
0
  5
161FF6
331
0
  5
161FF7
331
0
  5
161FF8
331
0
  5
161FF9
331
0
  5
161FFA
331
0
  5
161FFB
331
0
  5
161FFC
331
0
  5
161FFD
331
0
  5
161FFE
331
0
  5
161FFF
331
0
  5
162000
331
0
  5
162001
331
0
  5
162002
331
0
  5
162003
331
0
  5
162004
331
0
  5
162005
331
0
  5
162006
331
0
  5
162007
331
0
  5
162008
331
0
  5
162009
331
0
  5
16200A
331
0
  5
16200B
331
0
  5
16200C
331
0
  5
16200D
331
0
  5
16200E
331
0
  5
16200F
331
0
  5
162010
331
0
  5
162011
331
0
  5
162012
331
0
  5
162013
331
0
  5
162014
331
0
  5
162015
331
0
  5
162016
331
0
  5
162017
331
0
  5
162018
331
0
  5
162019
331
0
  5
16201A
331
0
  5
16201B
331
0
  5
16201C
331
0
  5
16201D
331
0
  5
16201E
331
0
  5
16201F
331
0
  5
162020
331
0
  5
162021
331
0
  5
162022
331
0
  5
162023
331
0
  5
162024
331
0
  5
162025
331
0
  5
162026
331
0
  5
162027
331
0
  5
162028
331
0
  5
162029
331
0
  5
16202A
331
0
  5
16202B
331
0
  5
16202C
331
0
  5
16202D
331
0
  5
16202E
331
0
  5
16202F
331
0
  5
162030
331
0
  5
162031
331
0
  5
162032
331
0
  5
162033
331
0
  5
162034
331
0
  5
162035
331
0
  5
162036
331
0
  5
162037
331
0
  5
162038
331
0
  5
162039
331
0
  5
16203A
331
0
  5
16203B
331
0
  5
16203C
331
0
  5
16203D
331
0
  5
16203E
331
0
  5
16203F
331
0
  5
162040
331
0
  5
162041
331
0
  5
162042
331
0
  5
162043
331
0
  5
162044
331
0
  5
162045
331
0
  5
162046
331
0
  5
162047
331
0
  5
162048
331
0
  5
162049
331
0
  5
16204A
331
0
  5
16204B
331
0
  5
16204C
331
0
  5
16204D
331
0
  5
16204E
331
0
  5
16204F
331
0
  5
162050
331
0
  5
162051
331
0
  5
162052
331
0
  5
162053
331
0
  5
162054
331
0
  5
162055
331
0
  5
162056
331
0
  5
162057
331
0
  5
162058
331
0
  5
162059
331
0
  5
16205A
331
0
  5
16205B
331
0
  5
16205C
331
0
  5
16205D
331
0
  5
16205E
331
0
  5
16205F
331
0
  5
162060
331
0
  5
162061
331
0
  5
162062
331
0
  5
162063
331
0
  5
162064
331
0
  5
162065
331
0
  5
162066
331
0
  5
162067
331
0
  5
162068
331
0
  5
162069
331
0
  5
16206A
331
0
  5
16206B
331
0
  5
16206C
331
0
  5
16206D
331
0
  5
16206E
331
0
  5
16206F
331
0
  5
162070
331
0
  5
162071
331
0
  5
162072
331
0
  5
162073
331
0
  5
162074
331
0
  5
162075
331
0
  5
162076
331
0
  5
162077
331
0
  5
162078
331
0
  5
162079
331
0
  5
16207A
331
0
  5
16207B
331
0
  5
16207C
331
0
  5
16207D
331
0
  5
16207E
331
0
  5
16207F
331
0
  5
162080
331
0
  5
162081
331
0
  5
162082
331
0
  5
162083
331
0
  5
162084
331
0
  5
162085
331
0
  5
162086
331
0
  5
162087
331
0
  5
162088
331
0
  5
162089
331
0
  5
16208A
331
0
  5
16208B
331
0
  5
16208C
331
0
  5
16208D
331
0
  5
16208E
331
0
  5
16208F
331
0
  5
162090
331
0
  5
162091
331
0
  5
162092
331
0
  5
162093
331
0
  5
162094
331
0
  5
162095
331
0
  5
162096
331
0
  5
162097
331
0
  5
162098
331
0
  5
162099
331
0
  5
16209A
331
0
  5
16209B
331
0
  5
16209C
331
0
  5
16209D
331
0
  5
16209E
331
0
  5
16209F
331
0
  5
1620A0
331
0
  5
1620A1
331
0
  5
1620A2
331
0
  5
1620A3
331
0
  5
1620A4
331
0
  5
1620A5
331
0
  5
1620A6
331
0
  5
1620A7
331
0
  5
1620A8
331
0
  5
1620A9
331
0
  5
1620AA
331
0
  5
1620AB
331
0
  5
1620AC
331
0
  5
1620AD
331
0
  5
1620AE
331
0
  5
1620AF
331
0
  5
1620B0
331
0
  5
1620B1
331
0
  5
1620B2
331
0
  5
1620B3
331
0
  5
1620B4
331
0
  5
1620B5
331
0
  5
1620B6
331
0
  5
1620B7
331
0
  5
1620B8
331
0
  5
1620B9
331
0
  5
1620BA
331
0
  5
1620BB
331
0
  5
1620BC
331
0
  5
1620BD
331
0
  5
1620BE
331
0
  5
1620BF
331
0
  5
1620C0
331
0
  5
1620C1
331
0
  5
1620C2
331
0
  5
1620C3
331
0
  5
1620C4
331
0
  5
1620C5
331
0
  5
1620C6
331
0
  5
1620C7
331
0
  5
1620C8
331
0
  5
1620C9
331
0
  5
1620CA
331
0
  5
1620CB
331
0
  5
1620CC
331
0
  5
1620CD
331
0
  5
1620CE
331
0
  5
1620CF
331
0
  5
1620D0
331
0
  5
1620D1
331
0
  5
1620D2
331
0
  5
1620D3
331
0
  5
1620D4
331
0
  5
1620D5
331
0
  5
1620D6
331
0
  5
1620D7
331
0
  5
1620D8
331
0
  5
1620D9
331
0
  5
1620DA
331
0
  5
1620DB
331
0
  5
1620DC
331
0
  5
1620DD
331
0
  5
1620DE
331
0
  5
1620DF
331
0
  5
1620E0
331
0
  5
1620E1
331
0
  5
1620E2
331
0
  5
1620E3
331
0
  5
1620E4
331
0
  5
1620E5
331
0
  5
1620E6
331
0
  5
1620E7
331
0
  5
1620E8
331
0
  5
1620E9
331
0
  5
1620EA
331
0
  5
1620EB
331
0
  5
1620EC
331
0
  5
1620ED
331
0
  5
1620EE
331
0
  5
1620EF
331
0
  5
1620F0
331
0
  5
1620F1
331
0
  5
1620F2
331
0
  5
1620F3
331
0
  5
1620F4
331
0
  5
1620F5
331
0
  5
1620F6
331
0
  5
1620F7
331
0
  5
1620F8
331
0
  5
1620F9
331
0
  5
1620FA
331
0
  5
1620FB
331
0
  5
1620FC
331
0
  5
1620FD
331
0
  5
1620FE
331
0
  5
1620FF
331
0
  5
162100
331
0
  5
162101
331
0
  5
162102
331
0
  5
162103
331
0
  5
162104
331
0
  5
162105
331
0
  5
162106
331
0
  5
162107
331
0
  5
162108
331
0
  5
162109
331
16210A
  5
16210A
331
16210B
  5
16210B
331
16210C
  5
16210C
331
16210D
  5
16210D
331
16210E
  5
16210E
331
16210F
  5
16210F
331
162110
  5
162110
331
162111
  5
162111
331
162112
  5
162112
331
162113
  5
162113
331
162114
  5
162114
331
162115
  5
162115
331
162116
  5
162116
331
162117
  5
162117
331
162118
  5
162118
331
162119
  5
162119
331
0
  5
16211A
331
0
  5
16211B
331
0
  5
16211C
331
0
  5
16211D
331
0
  5
16211E
331
0
  5
16211F
331
0
  5
162120
331
0
  5
162121
331
0
  5
162122
331
0
  5
162123
331
0
  5
162124
331
0
  5
162125
331
0
  5
162126
331
0
  5
162127
331
0
  5
162128
331
0
  5
162129
331
16212A
  5
16212A
331
16212B
  5
16212B
331
16212C
  5
16212C
331
16212D
  5
16212D
331
16212E
  5
16212E
331
16212F
  5
16212F
331
162130
  5
162130
331
162131
  5
162131
331
162132
  5
162132
331
162133
  5
162133
331
0
  5
162134
331
0
  5
162135
331
0
  5
162136
331
0
  5
162137
331
0
  5
162138
331
0
  5
162139
331
0
  5
16213A
331
0
  5
16213B
331
0
  5
16213C
331
16213D
  5
16213D
331
16213E
  5
16213E
331
0
  5
16213F
331
0
  5
162140
331
0
  5
162141
331
162142
  5
162142
331
0
  5
162143
331
0
  5
162144
331
0
  5
162145
331
162146
  5
162146
331
162147
  5
162147
331
0
  5
162148
331
0
  5
162149
331
0
  5
16214A
331
16214B
  5
16214B
331
0
  5
16214C
331
0
  5
16214D
331
0
  5
16214E
331
16214F
  5
16214F
331
162150
  5
162150
331
0
  5
162151
331
0
  5
162152
331
162153
  5
162153
331
162154
  5
162154
331
0
  5
162156
331
0
  5
162157
331
0
  5
162158
331
0
  5
162159
331
0
  5
16215A
331
0
  5
16215B
331
0
  5
16215C
331
0
  5
16215D
331
0
  5
16215E
331
0
  5
16215F
331
0
  5
162160
331
0
  5
162161
331
0
  5
162164
331
0
  5
162165
331
0
  5
162166
331
0
  5
162167
331
0
  5
162168
331
0
  5
162169
331
0
  5
16216A
331
0
  5
16216B
331
0
  5
16216C
331
0
  5
16216D
331
0
  5
16216E
331
0
  5
16216F
331
0
  5
162170
331
0
  5
162171
331
0
  5
162172
331
0
  5
162173
331
0
  5
162174
331
0
  5
162175
331
0
  5
162176
331
0
  5
162177
331
0
  5
162179
331
0
  5
16217A
331
0
  5
16217B
331
0
  5
16217C
331
0
  5
16217D
331
0
  5
16217E
331
0
  5
16217F
331
0
  5
162180
331
0
  5
162181
331
0
  5
162182
331
0
  5
162183
331
0
  5
162184
331
0
  5
162185
331
0
  5
162186
331
0
  5
162187
331
0
  5
162188
331
0
  5
162189
331
0
  5
16218A
331
0
  5
16218B
331
0
  5
16218C
331
0
  5
16218D
331
0
  5
16218E
331
0
  5
16218F
331
0
  5
162190
331
0
  5
162192
331
0
  5
162193
331
0
  5
162194
331
0
  5
162195
331
0
  5
162196
331
0
  5
162197
331
0
  5
162198
331
0
  5
162199
331
0
  5
16219A
331
0
  5
16219B
331
0
  5
16219C
331
0
  5
16219D
331
0
  5
16219E
331
0
  5
16219F
331
0
  5
1621A0
331
0
  5
1621A1
331
0
  5
1621A2
331
0
  5
1621A3
331
0
  5
1621A4
331
0
  5
1621A5
331
0
  5
1621A6
331
0
  5
1621A7
331
0
  5
1621A8
331
0
  5
1621A9
331
0
  5
1621AA
331
0
  5
1621AB
331
0
  5
1621AC
331
0
  5
1621AD
331
0
  5
1621AE
331
0
  5
1621AF
331
0
  5
1621B0
331
0
  5
1621B1
331
0
  5
1621B2
331
0
  5
1621B3
331
0
  5
1621B4
331
0
  5
1621B5
331
0
  5
1621B6
331
0
  5
1621B7
331
0
  5
1621B8
331
0
  5
1621B9
331
0
  5
1621BA
331
0
  5
1621BB
331
0
  5
1621BC
331
0
  5
1621BD
331
0
  5
1621BE
331
0
  5
1621BF
331
0
  5
1621C0
331
0
  5
1621C1
331
0
  5
1621C2
331
0
  5
1621C3
331
0
  5
1621C4
331
0
  5
1621C5
331
0
  5
1621C6
331
0
  5
1621C7
331
0
  5
1621C8
331
0
  5
1621C9
331
0
  5
1621CA
331
0
  5
1621CB
331
0
  5
1621CC
331
0
  5
1621CD
331
0
  5
1621CE
331
0
  5
1621CF
331
0
  5
1621D0
331
0
  5
1621D1
331
0
  5
1621D2
331
0
  5
1621D3
331
0
  5
1621D4
331
0
  5
1621D5
331
0
  5
1621D6
331
0
  5
1621D7
331
0
  5
1621D8
331
0
  5
1621D9
331
0
  5
1621DA
331
0
  5
1621DB
331
0
  5
1621DC
331
0
  5
1621DD
331
0
  5
1621DE
331
0
  5
1621DF
331
0
  5
1621E0
331
0
  5
1621E1
331
0
  5
1621E2
331
0
  5
1621E3
331
0
  5
1621E4
331
0
  5
1621E5
331
0
  5
1621E6
331
0
  5
1621E7
331
0
  5
1621E8
331
0
  5
1621E9
331
0
  5
1621EA
331
0
  5
1621EB
331
0
  5
1621EC
331
0
  5
1621ED
331
0
  5
1621EE
331
0
  5
1621EF
331
0
  5
1621F0
331
0
  5
1621F1
331
0
  5
1621F2
331
0
  5
1621F3
331
0
  5
1621F4
331
0
  5
1621F5
331
0
  5
1621F6
331
0
  5
1621F7
331
0
  5
1621F8
331
0
  5
1621F9
331
0
  5
1621FA
331
0
  5
1621FB
331
0
  5
1621FC
331
0
  5
1621FD
331
0
  5
1621FE
331
0
  5
1621FF
331
0
  5
162200
331
0
  5
162201
331
0
  5
162202
331
0
  5
162203
331
0
  5
162204
331
0
  5
162205
331
0
  5
162206
331
0
  5
162207
331
0
  5
162208
331
0
  5
162209
331
0
  5
16220A
331
0
  5
16220B
331
0
  5
16220C
331
0
  5
16220D
331
0
  5
16220E
331
0
  5
16220F
331
0
  5
162210
331
0
  5
162211
331
0
  5
162212
331
0
  5
162213
331
0
  5
162214
331
0
  5
162215
331
0
  5
162216
331
0
  5
162217
331
0
  5
162218
331
0
  5
162219
331
0
  5
16221A
331
0
  5
16221B
331
0
  5
16221C
331
0
  5
16221D
331
0
  5
16221E
331
0
  5
16221F
331
0
  5
162220
331
0
  5
162221
331
0
  5
162222
331
0
  5
162223
331
0
  5
162224
331
0
  5
162225
331
0
  5
162226
331
0
  5
162227
331
0
  5
162228
331
0
  5
162229
331
0
  5
16222A
331
0
  5
16222B
331
0
  5
16222C
331
0
  5
16222D
331
0
  5
16222E
331
0
  5
16222F
331
0
  5
162230
331
0
  5
162231
331
0
  5
162232
331
0
  5
162233
331
0
  5
162234
331
0
  5
162235
331
0
  5
162236
331
0
  5
162237
331
0
  5
162238
331
0
  5
162239
331
0
  5
16223A
331
0
  5
16223B
331
0
  5
16223C
331
0
  5
16223D
331
0
  5
16223E
331
0
  5
16223F
331
0
  5
162240
331
0
  5
162241
331
0
  5
162242
331
0
  5
162243
331
0
  5
162244
331
0
  5
162245
331
0
  5
162246
331
0
  5
162247
331
0
  5
162248
331
0
  5
162249
331
0
  5
16224A
331
0
  5
16224B
331
0
  5
16224C
331
0
  5
16224D
331
0
  5
16224E
331
0
  5
16224F
331
0
  5
162250
331
0
  5
162251
331
0
  5
162252
331
0
  5
162253
331
0
  5
162254
331
0
  5
162255
331
0
  5
162256
331
0
  5
162257
331
0
  5
162258
331
0
  5
162259
331
0
  5
16225A
331
0
  5
16225B
331
0
  5
16225C
331
0
  5
16225D
331
0
  5
16225E
331
0
  5
16225F
331
0
  5
162260
331
0
  5
162261
331
0
  5
162262
331
0
  5
162263
331
0
  5
162264
331
0
  5
162265
331
0
  5
162266
331
0
  5
162267
331
0
  5
162268
331
0
  5
162269
331
0
  5
16226A
331
0
  5
16226B
331
0
  5
16226C
331
0
  5
16226D
331
0
  5
16226E
331
0
  5
16226F
331
0
  5
162270
331
0
  5
162271
331
0
  5
162272
331
0
  5
162273
331
0
  5
162274
331
0
  5
162275
331
0
  5
162276
331
0
  5
162277
331
0
  5
162278
331
0
  5
162279
331
0
  5
16227A
331
0
  5
16227B
331
0
  5
16227C
331
0
  5
16227D
331
0
  5
16227E
331
0
  5
16227F
331
0
  5
162280
331
0
  5
162281
331
0
  5
162282
331
0
  5
162283
331
0
  5
162284
331
0
  5
162285
331
0
  5
162286
331
0
  5
162287
331
0
  5
162288
331
0
  5
162289
331
0
  5
16228A
331
0
  5
16228B
331
0
  5
16228C
331
0
  5
16228D
331
0
  5
16228E
331
0
  5
16228F
331
0
  5
162290
331
0
  5
162291
331
0
  5
162292
331
0
  5
162293
331
0
  5
162294
331
0
  5
162295
331
0
  5
162296
331
0
  5
162297
331
0
  5
162298
331
0
  5
162299
331
0
  5
16229A
331
0
  5
16229B
331
0
  5
16229C
331
0
  5
16229D
331
0
  5
16229E
331
0
  5
16229F
331
0
  5
1622A0
331
0
  5
1622A1
331
0
  5
1622A2
331
0
  5
1622A3
331
0
  5
1622A4
331
0
  5
1622A5
331
0
  5
1622A6
331
0
  5
1622A7
331
0
  5
1622A8
331
0
  5
1622A9
331
0
  5
1622AA
331
0
  5
1622AB
331
0
  5
1622AC
331
0
  5
1622AD
331
0
  5
1622AE
331
0
  5
1622AF
331
0
  5
1622B1
331
0
  5
1622B2
331
0
  5
1622B3
331
0
  5
1622B4
331
0
  5
1622B5
331
0
  5
1622B6
331
0
  5
1622B7
331
0
  5
1622B8
331
0
  5
1622B9
331
0
  5
1622BA
331
0
  5
1622BB
331
0
  5
1622BC
331
0
  5
1622BD
331
0
  5
1622BE
331
0
  5
1622BF
331
0
  5
1622C0
331
0
  5
1622C1
331
0
  5
1622C2
331
0
  5
1622C3
331
0
  5
1622C4
331
0
  5
1622C5
331
0
  5
1622C6
331
0
  5
1622C7
331
0
  5
1622C8
331
0
  5
1622C9
331
0
  5
1622CA
331
0
  5
1622CB
331
0
  5
1622CC
331
0
  5
1622CD
331
0
  5
1622CE
331
0
  5
1622CF
331
0
  5
1622D0
331
0
  5
1622D1
331
0
  5
1622D2
331
0
  5
1622D3
331
0
  5
1622D4
331
0
  5
1622D5
331
0
  5
1622D6
331
0
  5
1622D7
331
0
  5
1622D8
331
0
  5
1622D9
331
0
  5
1622DA
331
0
  5
1622DB
331
0
  5
1622DC
331
0
  5
1622DD
331
0
  5
1622DE
331
0
  5
1622DF
331
0
  5
1622E0
331
0
  5
1622E1
331
0
  5
1622E2
331
0
  5
1622E3
331
0
  5
1622E4
331
0
  5
1622E5
331
0
  5
1622E6
331
0
  5
1622E7
331
0
  5
1622E8
331
0
  5
1622E9
331
0
  5
1622EA
331
0
  5
1622EB
331
0
  5
1622EC
331
0
  5
1622ED
331
0
  5
1622EE
331
0
  5
1622EF
331
0
  5
1622F0
331
0
  5
1622F1
331
0
  5
1622F2
331
0
  5
1622F3
331
0
  5
1622F4
331
0
  5
1622F5
331
0
  5
1622F6
331
0
  5
1622F7
331
0
  5
1622F8
331
0
  5
1622F9
331
0
  5
1622FA
331
0
  5
1622FB
331
0
  5
1622FC
331
0
  5
1622FD
331
0
  5
1622FE
331
0
  5
1622FF
331
0
  5
162300
331
0
  5
162301
331
0
  5
162302
331
0
  5
162303
331
0
  5
162304
331
0
  5
162305
331
0
  5
162306
331
0
  5
162307
331
0
  5
162308
331
0
  5
162309
331
0
  5
16230A
331
0
  5
16230B
331
0
  5
16230C
331
0
  5
16230D
331
0
  5
16230E
331
0
  5
16230F
331
0
  5
162310
331
0
  5
162311
331
0
  5
162312
331
0
  5
162313
331
0
  5
162314
331
0
  5
162315
331
0
  5
162316
331
0
  5
162317
331
0
  5
162318
331
0
  5
162319
331
0
  5
16231A
331
0
  5
16231B
331
0
  5
16231C
331
0
  5
16231D
331
0
  5
16231E
331
0
  5
16231F
331
0
  5
162320
331
0
  5
162321
331
0
  5
162322
331
0
  5
162323
331
0
  5
162324
331
0
  5
162325
331
0
  5
162326
331
0
  5
162327
331
0
  5
162328
331
0
  5
162329
331
0
  5
16232A
331
0
  5
16232B
331
0
  5
16232C
331
0
  5
16232D
331
0
  5
16232E
331
0
  5
16232F
331
0
  5
162330
331
0
  5
162331
331
0
  5
162332
331
0
  5
162333
331
0
  5
162334
331
0
  5
162335
331
0
  5
162336
331
0
  5
162337
331
0
  5
162338
331
0
  5
162339
331
0
  5
16233A
331
0
  5
16233B
331
0
  5
16233C
331
0
  5
16233D
331
0
  5
16233E
331
0
  5
16233F
331
0
  5
162340
331
0
  5
162341
331
0
  5
162342
331
0
  5
162343
331
0
  5
162344
331
0
  5
162345
331
0
  5
162346
331
0
  5
162347
331
0
  5
162348
331
0
  5
162349
331
0
  5
16234A
331
0
  5
16234B
331
0
  5
16234C
331
0
  5
16234D
331
0
  5
16234E
331
0
  5
16234F
331
0
  5
162350
331
0
  5
162351
331
0
  5
162352
331
0
  5
162353
331
0
  5
162354
331
0
  5
162355
331
0
  5
162356
331
0
  5
162357
331
0
  5
162358
331
0
  5
162359
331
0
  5
16235A
331
0
  5
16235B
331
0
  5
16235C
331
0
  5
16235D
331
0
  5
16235E
331
0
  5
16235F
331
0
  5
162360
331
0
  5
162361
331
0
  5
162362
331
0
  5
162363
331
0
  5
162364
331
0
  5
162365
331
0
  5
162366
331
0
  5
162367
331
0
  5
162368
331
0
  5
162369
331
0
  5
16236A
331
0
  5
16236B
331
0
  5
16236C
331
0
  5
16236D
331
0
  5
16236E
331
0
  5
16236F
331
0
  5
162370
331
0
  5
162371
331
0
  5
162372
331
0
  5
162373
331
0
  5
162374
331
0
  5
162375
331
0
  5
162376
331
0
  5
162377
331
0
  5
162378
331
0
  5
162379
331
0
  5
16237A
331
0
  5
16237B
331
0
  5
16237C
331
0
  5
16237D
331
0
  5
16237E
331
0
  5
16237F
331
0
  5
162380
331
0
  5
162381
331
0
  5
162382
331
0
  5
162383
331
0
  5
162384
331
0
  5
162385
331
0
  5
162386
331
0
  5
162387
331
0
  5
162388
331
0
  5
162389
331
0
  5
16238A
331
0
  5
16238B
331
0
  5
16238C
331
0
  5
16238D
331
0
  5
16238E
331
0
  5
16238F
331
0
  5
162390
331
0
  5
162391
331
0
  5
162392
331
0
  5
162393
331
0
  5
162394
331
0
  5
162395
331
0
  5
162396
331
0
  5
162397
331
0
  5
162398
331
0
  5
162399
331
0
  5
16239A
331
0
  5
16239B
331
0
  5
16239C
331
0
  5
16239D
331
0
  5
16239E
331
0
  5
16239F
331
0
  5
1623A0
331
0
  5
1623A1
331
0
  5
1623A2
331
0
  5
1623A3
331
0
  5
1623A4
331
0
  5
1623A5
331
0
  5
1623A6
331
0
  5
1623A7
331
0
  5
1623A8
331
0
  5
1623A9
331
0
  5
1623AA
331
0
  5
1623AB
331
0
  5
1623AC
331
0
  5
1623AD
331
0
  5
1623AE
331
0
  5
1623AF
331
0
  5
1623B0
331
0
  5
1623B1
331
0
  5
1623B2
331
0
  5
1623B3
331
0
  5
1623B4
331
0
  5
1623B5
331
0
  5
1623B6
331
0
  5
1623B7
331
0
  5
1623B8
331
0
  5
1623B9
331
0
  5
1623BA
331
0
  5
1623BB
331
0
  5
1623BC
331
0
  5
1623BD
331
0
  5
1623BE
331
0
  5
1623BF
331
0
  5
1623C0
331
0
  5
1623C1
331
0
  5
1623C2
331
0
  5
1623C3
331
0
  5
1623C4
331
0
  5
1623C5
331
0
  5
1623C6
331
0
  5
1623C7
331
0
  5
1623C8
331
0
  5
1623C9
331
0
  5
1623CA
331
0
  5
1623CB
331
0
  5
1623CC
331
0
  5
1623CD
331
0
  5
1623CE
331
0
  5
1623CF
331
0
  5
1623D1
331
0
  5
1623D2
331
0
  5
1623D3
331
0
  5
1623D4
331
0
  5
1623D5
331
0
  5
1623D6
331
0
  5
1623D7
331
0
  5
1623D8
331
0
  5
1623D9
331
0
  5
1623DA
331
0
  5
1623DB
331
0
  5
1623DC
331
0
  5
1623DD
331
0
  5
1623DE
331
0
  5
1623DF
331
0
  5
1623E0
331
0
  5
1623E1
331
0
  5
1623E2
331
0
  5
1623E3
331
0
  5
1623E4
331
0
  5
1623E5
331
0
  5
1623E6
331
0
  5
1623E7
331
0
  5
1623E8
331
0
  5
1623E9
331
0
  5
1623EA
331
0
  5
1623EB
331
0
  5
1623EC
331
0
  5
1623ED
331
0
  5
1623EE
331
0
  5
1623EF
331
0
  5
1623F0
331
0
  5
1623F1
331
0
  5
1623F2
331
0
  5
1623F3
331
0
  5
1623F4
331
0
  5
1623F5
331
0
  5
1623F6
331
0
  5
1623F7
331
0
  5
1623F8
331
0
  5
1623F9
331
0
  5
1623FA
331
0
  5
1623FB
331
0
  5
1623FC
331
0
  5
1623FD
331
0
  5
1623FE
331
0
  5
1623FF
331
0
  5
162400
331
0
  5
162401
331
0
  5
162402
331
0
  5
162403
331
0
  5
162404
331
0
  5
162405
331
0
  5
162406
331
0
  5
162407
331
0
  5
162408
331
0
  5
162409
331
0
  5
16240A
331
0
  5
16240B
331
0
  5
16240C
331
0
  5
16240D
331
0
  5
16240E
331
0
  5
16240F
331
0
  5
162410
331
0
  5
162411
331
0
  5
162412
331
0
  5
162413
331
0
  5
162414
331
0
  5
162415
331
0
  5
162416
331
0
  5
162417
331
0
  5
162418
331
0
  5
162419
331
0
  5
16241A
331
0
  5
16241B
331
0
  5
16241C
331
0
  5
16241D
331
0
  5
16241E
331
0
  5
16241F
331
0
  5
162420
331
0
  5
162421
331
0
  5
162422
331
0
  5
162423
331
0
  5
162424
331
0
  5
162425
331
0
  5
162426
331
0
  5
162427
331
0
  5
162428
331
0
  5
162429
331
0
  5
16242A
331
0
  5
16242B
331
0
  5
16242C
331
0
  5
16242D
331
0
  5
16242E
331
0
  5
16242F
331
0
  5
162430
331
0
  5
162431
331
0
  5
162432
331
0
  5
162433
331
0
  5
162434
331
0
  5
162435
331
0
  5
162436
331
0
  5
162437
331
0
  5
162438
331
0
  5
162439
331
0
  5
16243A
331
0
  5
16243B
331
0
  5
16243C
331
0
  5
16243D
331
0
  5
16243E
331
0
  5
16243F
331
0
  5
162440
331
0
  5
162441
331
0
  5
162442
331
0
  5
162443
331
0
  5
162444
331
0
  5
162445
331
0
  5
162446
331
0
  5
162447
331
0
  5
162448
331
0
  5
162449
331
0
  5
16244A
331
0
  5
16244B
331
0
  5
16244C
331
0
  5
16244D
331
0
  5
16244E
331
0
  5
16244F
331
0
  5
162450
331
0
  5
162451
331
0
  5
162452
331
0
  5
162453
331
0
  5
162454
331
0
  5
162455
331
0
  5
162456
331
0
  5
162457
331
0
  5
162458
331
0
  5
162459
331
0
  5
16245A
331
0
  5
16245B
331
0
  5
16245C
331
0
  5
16245D
331
0
  5
16245E
331
0
  5
16245F
331
0
  5
162460
331
0
  5
162461
331
0
  5
162462
331
0
  5
162463
331
0
  5
162464
331
0
  5
162465
331
0
  5
162466
331
0
  5
162467
331
0
  5
162468
331
0
  5
162469
331
0
  5
16246A
331
0
  5
16246B
331
0
  5
16246C
331
0
  5
16246D
331
0
  5
16246E
331
0
  5
16246F
331
0
  5
162470
331
0
  5
162471
331
0
  5
162472
331
0
  5
162473
331
0
  5
162474
331
0
  5
162475
331
0
  5
162476
331
0
  5
162477
331
0
  5
162478
331
0
  5
162479
331
0
  5
16247A
331
0
  5
16247B
331
0
  5
16247C
331
0
  5
16247D
331
0
  5
16247E
331
0
  5
16247F
331
0
  5
162480
331
0
  5
162481
331
0
  5
162482
331
0
  5
162483
331
0
  5
162484
331
0
  5
162485
331
0
  5
162486
331
0
  5
162487
331
0
  5
162488
331
0
  5
162489
331
0
  5
16248A
331
0
  5
16248B
331
0
  5
16248C
331
0
  5
16248D
331
0
  5
16248E
331
0
  5
16248F
331
0
  5
162490
331
0
  5
162491
331
0
  5
162492
331
0
  5
162493
331
0
  5
162494
331
0
  5
162495
331
0
  5
162496
331
0
  5
162497
331
0
  5
162498
331
0
  5
162499
331
0
  5
16249A
331
0
  5
16249B
331
0
  5
16249C
331
0
  5
16249D
331
0
  5
16249E
331
0
  5
16249F
331
0
  5
1624A0
331
0
  5
1624A1
331
0
  5
1624A2
331
0
  5
1624A3
331
0
  5
1624A4
331
0
  5
1624A5
331
0
  5
1624A6
331
0
  5
1624A7
331
0
  5
1624A8
331
0
  5
1624A9
331
0
  5
1624AA
331
0
  5
1624AB
331
0
  5
1624AC
331
0
  5
1624AD
331
0
  5
1624AE
331
0
  5
1624AF
331
0
  5
1624B0
331
0
  5
1624B1
331
0
  5
1624B2
331
0
  5
1624B3
331
0
  5
1624B4
331
0
  5
1624B5
331
0
  5
1624B6
331
0
  5
1624B7
331
0
  5
1624B8
331
0
  5
1624B9
331
0
  5
1624BA
331
0
  5
1624BB
331
0
  5
1624BC
331
0
  5
1624BD
331
0
  5
1624BE
331
0
  5
1624BF
331
0
  5
1624C0
331
0
  5
1624C1
331
0
  5
1624C2
331
0
  5
1624C3
331
0
  5
1624C4
331
0
  5
1624C5
331
0
  5
1624C6
331
0
  5
1624C7
331
0
  5
1624C8
331
0
  5
1624C9
331
0
  5
1624CA
331
0
  5
1624CB
331
0
  5
1624CC
331
0
  5
1624CD
331
0
  5
1624CE
331
0
  5
1624CF
331
0
  5
1624D0
331
0
  5
1624D1
331
0
  5
1624D2
331
0
  5
1624D3
331
0
  5
1624D4
331
0
  5
1624D5
331
0
  5
1624D6
331
0
  5
1624D7
331
0
  5
1624D8
331
0
  5
1624D9
331
0
  5
1624DA
331
0
  5
1624DB
331
0
  5
1624DC
331
0
  5
1624DD
331
0
  5
1624DE
331
0
  5
1624DF
331
0
  5
1624E0
331
0
  5
1624E1
331
0
  5
1624E2
331
0
  5
1624E3
331
0
  5
1624E4
331
0
  5
1624E5
331
0
  5
1624E6
331
0
  5
1624E7
331
0
  5
1624E8
331
0
  5
1624E9
331
0
  5
1624EA
331
0
  5
1624EB
331
0
  5
1624EC
331
0
  5
1624ED
331
0
  5
1624EE
331
0
  5
1624EF
331
0
  5
1624F0
331
0
  5
1624F1
331
0
  5
1624F2
331
0
  5
1624F3
331
0
  5
1624F4
331
0
  5
1624F5
331
0
  5
1624F6
331
0
  5
1624F7
331
0
  5
1624F8
331
0
  5
1624F9
331
0
  5
1624FA
331
0
  5
1624FB
331
0
  5
1624FC
331
0
  5
1624FD
331
0
  5
1624FE
331
0
  5
1624FF
331
0
  5
162500
331
0
  5
162501
331
0
  5
162502
331
0
  5
162503
331
0
  5
162504
331
0
  5
162505
331
0
  5
162506
331
0
  5
162507
331
0
  5
162508
331
0
  5
162509
331
0
  5
16250A
331
0
  5
16250B
331
0
  5
16250C
331
0
  5
16250D
331
0
  5
16250E
331
0
  5
16250F
331
0
  5
162510
331
0
  5
162511
331
0
  5
162512
331
0
  5
162513
331
0
  5
162514
331
0
  5
162515
331
0
  5
162516
331
0
  5
162517
331
0
  5
162518
331
0
  5
162519
331
0
  5
16251A
331
0
  5
16251B
331
0
  5
16251C
331
0
  5
16251D
331
0
  5
16251E
331
0
  5
16251F
331
0
  5
162520
331
0
  5
162521
331
0
  5
162522
331
0
  5
162523
331
0
  5
162524
331
0
  5
162525
331
0
  5
162526
331
0
  5
162527
331
0
  5
162528
331
0
  5
162529
331
0
  5
16252A
331
0
  5
16252B
331
0
  5
16252C
331
0
  5
16252D
331
0
  5
16252E
331
0
  5
16252F
331
0
  5
162530
331
0
  5
162531
331
0
  5
162532
331
0
  5
162533
331
0
  5
162534
331
0
  5
162535
331
0
  5
162536
331
0
  5
162537
331
0
  5
162538
331
0
  5
162539
331
0
  5
16253A
331
0
  5
16253B
331
0
  5
16253C
331
0
  5
16253D
331
0
  5
16253E
331
0
  5
16253F
331
0
  5
162540
331
0
  5
162541
331
0
  5
162542
331
0
  5
162543
331
0
  5
162544
331
0
  5
162545
331
0
  5
162546
331
0
  5
162547
331
0
  5
162548
331
0
  5
162549
331
0
  5
16254A
331
0
  5
16254B
331
0
  5
16254C
331
0
  5
16254D
331
0
  5
16254E
331
0
  5
16254F
331
0
  5
162550
331
0
  5
162551
331
0
  5
162552
331
0
  5
162553
331
0
  5
162554
331
0
  5
162555
331
0
  5
162556
331
0
  5
162557
331
0
  5
162558
331
0
  5
162559
331
0
  5
16255A
331
0
  5
16255B
331
0
  5
16255C
331
0
  5
16255D
331
0
  5
16255E
331
0
  5
16255F
331
0
  5
162560
331
0
  5
162561
331
0
  5
162562
331
0
  5
162563
331
0
  5
162564
331
0
  5
162565
331
0
  5
162566
331
0
  5
162567
331
0
  5
162568
331
0
  5
162569
331
0
  5
16256A
331
0
  5
16256B
331
0
  5
16256C
331
0
  5
16256D
331
0
  5
16256E
331
0
  5
16256F
331
0
  5
162570
331
0
  5
162571
331
0
  5
162572
331
0
  5
162573
331
0
  5
162574
331
0
  5
162575
331
0
  5
162576
331
0
  5
162577
331
0
  5
162578
331
0
  5
162579
331
0
  5
16257A
331
0
  5
16257B
331
0
  5
16257C
331
0
  5
16257D
331
0
  5
16257E
331
0
  5
16257F
331
0
  5
162580
331
0
  5
162581
331
0
  5
162582
331
0
  5
162583
331
0
  5
162584
331
0
  5
162585
331
0
  5
162586
331
0
  5
162587
331
0
  5
162588
331
0
  5
162589
331
0
  5
16258A
331
0
  5
16258B
331
0
  5
16258C
331
0
  5
16258D
331
0
  5
16258E
331
0
  5
16258F
331
0
  5
162590
331
0
  5
162591
331
0
  5
162592
331
0
  5
162593
331
0
  5
162594
331
0
  5
162595
331
0
  5
162596
331
0
  5
162597
331
0
  5
162598
331
0
  5
162599
331
0
  5
16259A
331
0
  5
16259B
331
0
  5
16259C
331
0
  5
16259D
331
0
  5
16259E
331
0
  5
16259F
331
0
  5
1625A0
331
0
  5
1625A1
331
0
  5
1625A2
331
0
  5
1625A3
331
0
  5
1625A4
331
0
  5
1625A5
331
0
  5
1625A6
331
0
  5
1625A7
331
0
  5
1625A8
331
0
  5
1625A9
331
0
  5
1625AA
331
0
  5
1625AB
331
0
  5
1625AC
331
0
  5
1625AD
331
0
  5
1625AE
331
0
  5
1625AF
331
0
  5
1625B0
331
0
  5
1625B1
331
0
  5
1625B2
331
0
  5
1625B3
331
0
  5
1625B4
331
0
  5
1625B5
331
0
  5
1625B6
331
0
  5
1625B7
331
0
  5
1625B8
331
0
  5
1625B9
331
0
  5
1625BA
331
0
  5
1625BB
331
0
  5
1625BC
331
0
  5
1625BD
331
0
  5
1625BE
331
0
  5
1625BF
331
0
  5
1625C0
331
0
  5
1625C1
331
0
  5
1625C2
331
0
  5
1625C3
331
0
  5
1625C4
331
0
  5
1625C5
331
0
  5
1625C6
331
0
  5
1625C7
331
0
  5
1625C8
331
0
  5
1625C9
331
0
  5
1625CA
331
0
  5
1625CB
331
0
  5
1625CC
331
0
  5
1625CD
331
0
  5
1625CE
331
0
  5
1625CF
331
0
  5
1625D0
331
0
  5
1625D1
331
0
  5
1625D2
331
0
  5
1625D3
331
0
  5
1625D4
331
0
  5
1625D5
331
0
  5
1625D6
331
0
  5
1625D7
331
0
  5
1625D8
331
0
  5
1625D9
331
0
  5
1625DA
331
0
  5
1625DB
331
0
  5
1625DC
331
0
  5
1625DD
331
0
  5
1625DE
331
0
  5
1625DF
331
0
  5
1625E0
331
0
  5
1625E1
331
0
  5
1625E2
331
0
  5
1625E3
331
0
  5
1625E4
331
0
  5
1625E5
331
0
  5
1625E6
331
0
  5
1625E7
331
0
  5
1625E8
331
0
  5
1625E9
331
0
  5
1625EA
331
0
  5
1625EB
331
0
  5
1625EC
331
0
  5
1625ED
331
0
  5
1625EE
331
0
  5
1625EF
331
0
  5
1625F0
331
0
  5
1625F1
331
0
  5
1625F2
331
0
  5
1625F3
331
0
  5
1625F4
331
0
  5
1625F5
331
0
  5
1625F6
331
0
  5
1625F7
331
0
  5
1625F8
331
0
  5
1625F9
331
0
  5
1625FA
331
0
  5
1625FB
331
0
  5
1625FC
331
0
  5
1625FD
331
0
  5
1625FE
331
0
  5
1625FF
331
0
  5
162600
331
0
  5
162601
331
0
  5
162602
331
0
  5
162603
331
0
  5
162604
331
0
  5
162605
331
0
  5
162606
331
0
  5
162607
331
0
  5
162608
331
0
  5
162609
331
0
  5
16260A
331
0
  5
16260B
331
0
  5
16260C
331
0
  5
16260D
331
0
  5
16260E
331
0
  5
16260F
331
0
  5
162610
331
0
  5
162611
331
0
  5
162612
331
0
  5
162613
331
0
  5
162614
331
0
  5
162615
331
0
  5
162616
331
0
  5
162617
331
0
  5
162618
331
0
  5
162619
331
0
  5
16261A
331
0
  5
16261B
331
0
  5
16261C
331
0
  5
16261D
331
0
  5
16261E
331
0
  5
16261F
331
0
  5
162620
331
0
  5
162621
331
0
  5
162622
331
0
  5
162623
331
0
  5
162624
331
0
  5
162625
331
0
  5
162626
331
0
  5
162627
331
0
  5
162628
331
0
  5
162629
331
0
  5
16262A
331
0
  5
16262B
331
0
  5
16262C
331
0
  5
16262D
331
0
  5
16262E
331
0
  5
16262F
331
0
  5
162630
331
0
  5
162631
331
0
  5
162632
331
0
  5
162633
331
0
  5
162634
331
0
  5
162635
331
0
  5
16263A
331
0
  5
16263B
331
0
  5
16263C
331
0
  5
16263D
331
0
  5
16263E
331
0
  5
16263F
331
0
  5
162640
331
0
  5
162641
331
0
  5
162642
331
0
  5
162643
331
0
  5
162644
331
0
  5
162645
331
0
  5
162646
331
0
  5
162647
331
0
  5
162648
331
0
  5
162649
331
0
  5
16264A
331
0
  5
16264B
331
0
  5
16264C
331
0
  5
16264D
331
0
  5
16264E
331
0
  5
16264F
331
0
  5
162650
331
0
  5
162651
331
0
  5
162652
331
0
  5
162653
331
0
  5
162654
331
0
  5
162655
331
0
  5
162656
331
0
  5
162657
331
0
  5
162658
331
0
  5
162659
331
0
  5
16265A
331
0
  5
16265B
331
0
  5
16265C
331
0
  5
16265D
331
0
  5
162661
331
0
  5
162662
331
0
  5
162663
331
0
  5
162664
331
0
  5
162665
331
0
  5
162666
331
0
  5
162667
331
0
  5
162668
331
0
  5
162669
331
0
  5
16266A
331
0
  5
16266B
331
0
  5
16266C
331
0
  5
16266D
331
0
  5
16266E
331
0
  5
16266F
331
0
  5
162670
331
0
  5
162671
331
0
  5
162672
331
0
  5
162673
331
0
  5
162674
331
0
  5
162675
331
0
  5
162676
331
0
  5
162677
331
0
  5
162678
331
0
  5
162679
331
0
  5
16267A
331
0
  5
16267B
331
0
  5
16267C
331
0
  5
16267D
331
0
  5
16267E
331
0
  5
16267F
331
0
  5
162680
331
0
  5
162681
331
0
  5
162682
331
0
  5
162683
331
0
  5
162684
331
0
  5
162685
331
0
  5
162686
331
0
  5
162687
331
0
  5
162688
331
0
  5
162689
331
0
  5
16268A
331
0
  5
16268B
331
0
  5
16268C
331
0
  5
16268D
331
0
  5
16268E
331
0
  5
16268F
331
0
  5
162690
331
0
  5
162691
331
0
  5
162692
331
0
  5
162693
331
0
  5
162694
331
0
  5
162695
331
0
  5
162696
331
0
  5
162697
331
0
  5
162698
331
0
  5
162699
331
0
  5
16269A
331
0
  5
16269B
331
0
  5
16269C
331
0
  5
16269D
331
0
  5
16269E
331
0
  5
16269F
331
0
  5
1626A0
331
0
  5
1626A1
331
0
  5
1626A2
331
0
  5
1626A3
331
0
  5
1626A4
331
0
  5
1626A5
331
0
  5
1626A6
331
0
  5
1626A7
331
0
  5
1626A8
331
0
  5
1626A9
331
0
  5
1626AA
331
0
  5
1626AB
331
0
  5
1626AC
331
0
  5
1626AD
331
0
  5
1626AE
331
0
  5
1626AF
331
0
  5
1626B0
331
0
  5
1626B1
331
0
  5
1626B2
331
0
  5
1626B3
331
0
  5
1626B4
331
0
  5
1626B5
331
0
  5
1626B6
331
0
  5
1626B7
331
0
  5
1626B8
331
0
  5
1626B9
331
0
  5
1626BA
331
0
  5
1626BB
331
0
  5
1626BC
331
0
  5
1626BD
331
0
  5
1626BE
331
0
  5
1626BF
331
0
  5
1626C0
331
0
  5
1626C1
331
0
  5
1626C2
331
0
  5
1626C3
331
0
  5
1626C4
331
0
  5
1626C5
331
0
  5
1626C6
331
0
  5
1626C7
331
0
  5
1626C8
331
0
  5
1626C9
331
0
  5
1626D2
331
0
  5
1626D7
331
0
  5
1626E2
331
0
  5
1626E7
331
0
  5
1626E8
331
0
  5
1626ED
331
0
  5
1626EE
331
0
  5
1626EF
331
0
  5
1626F0
331
0
  5
1626F1
331
0
  5
1626F2
331
0
  5
1626F3
331
0
  5
1626F4
331
0
  5
1626F5
331
0
  5
1626F6
331
0
  5
1626F7
331
0
  5
1626F8
331
0
  5
1626F9
331
0
  5
1626FA
331
0
  5
1626FB
331
0
  5
1626FC
331
0
  5
1626FD
331
0
  5
1626FE
331
0
  5
1626FF
331
0
  5
162700
331
0
  5
162701
331
0
  5
162702
331
0
  5
162703
331
0
  5
162704
331
0
  5
162705
331
0
  5
162706
331
0
  5
162707
331
0
  5
162708
331
0
  5
162709
331
0
  5
16270A
331
0
  5
16270B
331
0
  5
16270C
331
0
  5
16270D
331
0
  5
16270E
331
0
  5
16270F
331
0
  5
162710
331
0
  5
162711
331
0
  5
162712
331
0
  5
162713
331
0
  5
162715
331
0
  5
162716
331
0
  5
162717
331
0
  5
162718
331
0
  5
162719
331
0
  5
16271A
331
0
  5
16271B
331
0
  5
16271C
331
0
  5
16271D
331
0
  5
16271E
331
0
  5
16271F
331
0
  5
162720
331
0
  5
162721
331
0
  5
162722
331
0
  5
162723
331
0
  5
162724
331
0
  5
162725
331
0
  5
162726
331
0
  5
162727
331
0
  5
162728
331
0
  5
162729
331
0
  5
16272A
331
0
  5
16272B
331
0
  5
16272C
331
0
  5
16272D
331
0
  5
16272E
331
0
  5
16272F
331
0
  5
162730
331
0
  5
162731
331
0
  5
162732
331
0
  5
162733
331
0
  5
162734
331
0
  5
162735
331
0
  5
162736
331
0
  5
162737
331
0
  5
162738
331
0
  5
162739
331
0
  5
16273A
331
0
  5
16273B
331
0
  5
16273C
331
0
  5
16273D
331
0
  5
16273E
331
0
  5
16273F
331
0
  5
162740
331
0
  5
162741
331
0
  5
162742
331
0
  5
162743
331
0
  5
162744
331
0
  5
162745
331
0
  5
162746
331
0
  5
162747
331
0
  5
162748
331
0
  5
162749
331
0
  5
16274A
331
0
  5
16274B
331
0
  5
16274C
331
0
  5
16274D
331
0
  5
16274E
331
0
  5
16274F
331
0
  5
162750
331
0
  5
162751
331
0
  5
162752
331
0
  5
162753
331
0
  5
162754
331
0
  5
162755
331
0
  5
162756
331
0
  5
162757
331
0
  5
162758
331
0
  5
162759
331
0
  5
16275A
331
0
  5
16275B
331
0
  5
16275C
331
0
  5
16275D
331
0
  5
16275E
331
0
  5
16275F
331
0
  5
162760
331
0
  5
162761
331
0
  5
162762
331
0
  5
162763
331
0
  5
162764
331
0
  5
162765
331
0
  5
162766
331
0
  5
162767
331
0
  5
162768
331
0
  5
162769
331
0
  5
16276A
331
0
  5
16276B
331
0
  5
16276C
331
0
  5
16276D
331
0
  5
16276E
331
0
  5
16276F
331
0
  5
162770
331
0
  5
162771
331
0
  5
162772
331
0
  5
162773
331
0
  5
162774
331
0
  5
162775
331
0
  5
162776
331
0
  5
162777
331
0
  5
162778
331
0
  5
162779
331
0
  5
16277A
331
0
  5
16277B
331
0
  5
16277D
331
0
  5
16277F
331
0
  5
162780
331
0
  5
162781
331
0
  5
162782
331
0
  5
162783
331
0
  5
162784
331
0
  5
162785
331
0
  5
162786
331
0
  5
162787
331
0
  5
162788
331
0
  5
162789
331
0
  5
16278A
331
0
  5
16278B
331
0
  5
16278C
331
0
  5
16278D
331
0
  5
16278E
331
0
  5
16278F
331
0
  5
162790
331
0
  5
162791
331
0
  5
162792
331
0
  5
162793
331
0
  5
162794
331
0
  5
162795
331
0
  5
162796
331
0
  5
162797
331
0
  5
162798
331
0
  5
162799
331
0
  5
16279A
331
0
  5
16279B
331
0
  5
16279C
331
0
  5
16279D
331
0
  5
16279E
331
0
  5
16279F
331
0
  5
1627A0
331
0
  5
1627A1
331
0
  5
1627A2
331
0
  5
1627A3
331
0
  5
1627A4
331
0
  5
1627A5
331
0
  5
1627A6
331
0
  5
1627A7
331
0
  5
1627A8
331
0
  5
1627A9
331
0
  5
1627AA
331
0
  5
1627AB
331
0
  5
1627AC
331
0
  5
1627AD
331
0
  5
1627AE
331
0
  5
1627AF
331
0
  5
1627B0
331
0
  5
1627B1
331
0
  5
1627B2
331
0
  5
1627B3
331
0
  5
1627B4
331
0
  5
1627B5
331
0
  5
1627B6
331
0
  5
1627B7
331
0
  5
1627B8
331
0
  5
1627B9
331
0
  5
1627BA
331
0
  5
1627BB
331
0
  5
1627BC
331
0
  5
1627BD
331
0
  5
1627BE
331
0
  5
1627BF
331
0
  5
1627C0
331
0
  5
1627C1
331
0
  5
1627C2
331
0
  5
1627C3
331
0
  5
1627C4
331
0
  5
1627C5
331
0
  5
1627C6
331
0
  5
1627C7
331
0
  5
1627C8
331
0
  5
1627C9
331
0
  5
1627CA
331
0
  5
1627CB
331
0
  5
1627CC
331
0
  5
1627CD
331
0
  5
1627CE
331
0
  5
1627CF
331
0
  5
1627D0
331
0
  5
1627D1
331
0
  5
1627D2
331
0
  5
1627D3
331
0
  5
1627D4
331
0
  5
1627D5
331
0
  5
1627D6
331
0
  5
1627D7
331
0
  5
1627D8
331
0
  5
1627D9
331
0
  5
1627DA
331
0
  5
1627DB
331
0
  5
1627DC
331
0
  5
1627DD
331
0
  5
1627DE
331
0
  5
1627DF
331
0
  5
1627E0
331
0
  5
1627E1
331
0
  5
1627E2
331
0
  5
1627E3
331
0
  5
1627E4
331
0
  5
1627E5
331
0
  5
1627E6
331
0
  5
1627E7
331
0
  5
1627E8
331
0
  5
1627E9
331
0
  5
1627EA
331
0
  5
1627EB
331
0
  5
1627EC
331
0
  5
1627ED
331
0
  5
1627EE
331
0
  5
1627EF
331
0
  5
1627F0
331
0
  5
1627F1
331
0
  5
1627F2
331
0
  5
1627F3
331
0
  5
1627F4
331
0
  5
1627F5
331
0
  5
1627F6
331
0
  5
1627F7
331
0
  5
1627F8
331
0
  5
1627F9
331
0
  5
1627FA
331
0
  5
1627FB
331
0
  5
1627FC
331
0
  5
1627FD
331
0
  5
1627FE
331
0
  5
1627FF
331
0
  5
162800
331
0
  5
162801
331
0
  5
162802
331
0
  5
162803
331
0
  5
162804
331
0
  5
162805
331
0
  5
162806
331
0
  5
162807
331
0
  5
162808
331
0
  5
162809
331
0
  5
16280A
331
0
  5
16280B
331
0
  5
16280C
331
0
  5
16280D
331
0
  5
16280E
331
0
  5
16280F
331
0
  5
162810
331
0
  5
162811
331
0
  5
162812
331
0
  5
162813
331
0
  5
162814
331
0
  5
162815
331
0
  5
162816
331
0
  5
162817
331
0
  5
162818
331
0
  5
162819
331
0
  5
16281A
331
0
  5
16281B
331
0
  5
16281C
331
0
  5
16281D
331
0
  5
16281E
331
0
  5
16281F
331
0
  5
162820
331
0
  5
162821
331
0
  5
162822
331
0
  5
162823
331
0
  5
162824
331
0
  5
162825
331
0
  5
162826
331
0
  5
162827
331
0
  5
162828
331
0
  5
162829
331
0
  5
16282A
331
0
  5
16282B
331
0
  5
16282C
331
0
  5
16282D
331
0
  5
16282E
331
0
  5
16282F
331
0
  5
162830
331
0
  5
162831
331
0
  5
162832
331
0
  5
162833
331
0
  5
162834
331
0
  5
162835
331
0
  5
162836
331
0
  5
162837
331
0
  5
162838
331
0
  5
162839
331
0
  5
16283A
331
0
  5
16283B
331
0
  5
16283C
331
0
  5
16283D
331
0
  5
16283E
331
0
  5
16283F
331
0
  5
162840
331
0
  5
162841
331
0
  5
162842
331
0
  5
162843
331
0
  5
162844
331
0
  5
162845
331
0
  5
162846
331
0
  5
162847
331
0
  5
162848
331
0
  5
162849
331
0
  5
16284A
331
0
  5
16284B
331
0
  5
16284C
331
0
  5
16284D
331
0
  5
16284E
331
0
  5
16284F
331
0
  5
162850
331
0
  5
162851
331
0
  5
162852
331
0
  5
162853
331
0
  5
162854
331
0
  5
162855
331
0
  5
162856
331
0
  5
162857
331
0
  5
162858
331
0
  5
162859
331
0
  5
16285A
331
0
  5
16285B
331
0
  5
16285C
331
0
  5
16285D
331
0
  5
16285E
331
0
  5
16285F
331
0
  5
162860
331
0
  5
162861
331
0
  5
162862
331
0
  5
162863
331
0
  5
162864
331
0
  5
162865
331
0
  5
162866
331
0
  5
162867
331
0
  5
162868
331
0
  5
162869
331
0
  5
16286A
331
0
  5
16286B
331
0
  5
16286C
331
0
  5
16286D
331
0
  5
16286E
331
0
  5
16286F
331
0
  5
162870
331
0
  5
162871
331
0
  5
162872
331
0
  5
162873
331
0
  5
162874
331
0
  5
162875
331
0
  5
162876
331
0
  5
162877
331
0
  5
162878
331
0
  5
162879
331
0
  5
16287A
331
0
  5
16287B
331
0
  5
16287C
331
0
  5
16287D
331
0
  5
16287E
331
0
  5
16287F
331
0
  5
162880
331
0
  5
162881
331
0
  5
162882
331
0
  5
162883
331
0
  5
162884
331
0
  5
162885
331
0
  5
162886
331
0
  5
162887
331
0
  5
162888
331
0
  5
162889
331
0
  5
16288A
331
0
  5
16288B
331
0
  5
16288C
331
0
  5
16288D
331
0
  5
16288E
331
0
  5
16288F
331
0
  5
162890
331
0
  5
162891
331
0
  5
162892
331
0
  5
162893
331
0
  5
162894
331
0
  5
162895
331
0
  5
162896
331
0
  5
162897
331
0
  5
162898
331
0
  5
162899
331
0
  5
16289A
331
0
  5
16289B
331
0
  5
16289C
331
0
  5
16289D
331
0
  5
16289E
331
0
  5
16289F
331
0
  5
1628A0
331
0
  5
1628A1
331
0
  5
1628A2
331
0
  5
1628A3
331
0
  5
1628A4
331
0
  5
1628A5
331
0
  5
1628A6
331
0
  5
1628A7
331
0
  5
1628A8
331
0
  5
1628A9
331
0
  5
1628AA
331
0
  5
1628AB
331
0
  5
1628AC
331
0
  5
1628AD
331
0
  5
1628AE
331
0
  5
1628AF
331
0
  5
1628B0
331
0
  5
1628B1
331
0
  5
1628B2
331
0
  5
1628B3
331
0
  5
1628B4
331
0
  5
1628B5
331
0
  5
1628B6
331
0
  5
1628B7
331
0
  5
1628B8
331
0
  5
1628B9
331
0
  5
1628BA
331
0
  5
1628BB
331
0
  5
1628BC
331
0
  5
1628BD
331
0
  5
1628BE
331
0
  5
1628BF
331
0
  5
1628C0
331
0
  5
1628C1
331
0
  5
1628C2
331
0
  5
1628C3
331
0
  5
1628C4
331
0
  5
1628C5
331
0
  5
1628C6
331
0
  5
1628C7
331
0
  5
1628C8
331
0
  5
1628C9
331
0
  5
1628CA
331
0
  5
1628CB
331
0
  5
1628CC
331
0
  5
1628CD
331
0
  5
1628CE
331
0
  5
1628CF
331
0
  5
1628D0
331
0
  5
1628D1
331
0
  5
1628D2
331
0
  5
1628D3
331
0
  5
1628D4
331
0
  5
1628D5
331
0
  5
1628D6
331
0
  5
1628D7
331
0
  5
1628D8
331
0
  5
1628D9
331
0
  5
1628DA
331
0
  5
1628DB
331
0
  5
1628DC
331
0
  5
1628DD
331
0
  5
1628DE
331
0
  5
1628DF
331
0
  5
1628E0
331
0
  5
1628E1
331
0
  5
1628E2
331
0
  5
1628E3
331
0
  5
1628E4
331
0
  5
1628E5
331
0
  5
1628E6
331
0
  5
1628E7
331
0
  5
1628E8
331
0
  5
1628E9
331
0
  5
1628EA
331
0
  5
1628EB
331
0
  5
1628EC
331
0
  5
1628ED
331
0
  5
1628EE
331
0
  5
1628EF
331
0
  5
1628F0
331
0
  5
1628F1
331
0
  5
1628F2
331
0
  5
1628F3
331
0
  5
1628F4
331
0
  5
1628F5
331
0
  5
1628F6
331
0
  5
1628F7
331
0
  5
1628F8
331
0
  5
1628F9
331
0
  5
1628FA
331
0
  5
1628FB
331
0
  5
1628FC
331
0
  5
1628FD
331
0
  5
1628FE
331
0
  5
1628FF
331
0
  5
162900
331
0
  5
162901
331
0
  5
162902
331
0
  5
162903
331
0
  5
162904
331
0
  5
162905
331
0
  5
162906
331
0
  5
162907
331
0
  5
162908
331
0
  5
162909
331
0
  5
16290A
331
0
  5
16290B
331
0
  5
16290C
331
0
  5
16290D
331
0
  5
16290E
331
0
  5
16290F
331
0
  5
162910
331
0
  5
162911
331
0
  5
162912
331
0
  5
162913
331
0
  5
162914
331
0
  5
162915
331
0
  5
162916
331
0
  5
162917
331
0
  5
162918
331
0
  5
162919
331
0
  5
16291A
331
0
  5
16291B
331
0
  5
16291C
331
0
  5
16291D
331
0
  5
16291E
331
0
  5
16291F
331
0
  5
162920
331
0
  5
162921
331
0
  5
162922
331
0
  5
162923
331
0
  5
162924
331
0
  5
162925
331
0
  5
162926
331
0
  5
162927
331
0
  5
162928
331
0
  5
162929
331
0
  5
16292A
331
0
  5
16292B
331
0
  5
16292C
331
0
  5
16292D
331
0
  5
16292E
331
0
  5
16292F
331
0
  5
162930
331
0
  5
162931
331
0
  5
162932
331
0
  5
162933
331
0
  5
162934
331
0
  5
162935
331
0
  5
162936
331
0
  5
162937
331
0
  5
162938
331
0
  5
162939
331
0
  5
16293A
331
0
  5
16293B
331
0
  5
16293C
331
0
  5
16293D
331
0
  5
16293E
331
0
  5
16293F
331
0
  5
162940
331
0
  5
162941
331
0
  5
162942
331
0
  5
162943
331
0
  5
162944
331
0
  5
162945
331
0
  5
162946
331
0
  5
162947
331
0
  5
162948
331
0
  5
162949
331
0
  5
16294A
331
0
  5
16294B
331
0
  5
16294C
331
0
  5
16294D
331
0
  5
16294E
331
0
  5
16294F
331
0
  5
162950
331
0
  5
162951
331
0
  5
162952
331
0
  5
162953
331
0
  5
162954
331
0
  5
162955
331
0
  5
162956
331
0
  5
162957
331
0
  5
162958
331
0
  5
162959
331
0
  5
16295A
331
0
  5
16295B
331
0
  5
16295C
331
0
  5
16295D
331
0
  5
16295E
331
0
  5
16295F
331
0
  5
162960
331
0
  5
162961
331
0
  5
162962
331
0
  5
162963
331
0
  5
162964
331
0
  5
162965
331
0
  5
162966
331
0
  5
162967
331
0
  5
162968
331
0
  5
162969
331
0
  5
16296A
331
0
  5
16296B
331
0
  5
16296C
331
0
  5
16296D
331
0
  5
16296E
331
0
  5
16296F
331
0
  5
162970
331
0
  5
162971
331
0
  5
162972
331
0
  5
162973
331
0
  5
162974
331
0
  5
162975
331
0
  5
162976
331
0
  5
162977
331
0
  5
162978
331
0
  5
162979
331
0
  5
16297A
331
0
  5
16297B
331
0
  5
16297C
331
0
  5
16297D
331
0
  5
16297E
331
0
  5
16297F
331
0
  5
162980
331
0
  5
162981
331
0
  5
162982
331
0
  5
162983
331
0
  5
162984
331
0
  5
162985
331
0
  5
162986
331
0
  5
162987
331
0
  5
162988
331
0
  5
162989
331
0
  5
16298A
331
0
  5
16298B
331
0
  5
16298C
331
0
  5
16298D
331
0
  5
16298E
331
0
  5
16298F
331
0
  5
162990
331
0
  5
162991
331
0
  5
162992
331
0
  5
162993
331
0
  5
162994
331
0
  5
162995
331
0
  5
162996
331
0
  5
162997
331
0
  5
162998
331
0
  5
162999
331
0
  5
16299A
331
0
  5
16299B
331
0
  5
16299C
331
0
  5
16299D
331
0
  5
16299E
331
0
  5
16299F
331
0
  5
1629A0
331
0
  5
1629A1
331
0
  5
1629A2
331
0
  5
1629A3
331
0
  5
1629A4
331
0
  5
1629A5
331
0
  5
1629A6
331
0
  5
1629A7
331
0
  5
1629A8
331
0
  5
1629A9
331
0
  5
1629AA
331
0
  5
1629AB
331
0
  5
1629AC
331
0
  5
1629AD
331
0
  5
1629AE
331
0
  5
1629AF
331
0
  5
1629B0
331
0
  5
1629B1
331
0
  5
1629B2
331
0
  5
1629B3
331
0
  5
1629B4
331
0
  5
1629B5
331
0
  5
1629B6
331
0
  5
1629B7
331
0
  5
1629B8
331
0
  5
1629B9
331
0
  5
1629BA
331
0
  5
1629BB
331
0
  5
1629BC
331
0
  5
1629BD
331
0
  5
1629BE
331
0
  5
1629BF
331
0
  5
1629C0
331
0
  5
1629C1
331
0
  5
1629C2
331
0
  5
1629C3
331
0
  5
1629C4
331
0
  5
1629C5
331
0
  5
1629C6
331
0
  5
1629C7
331
0
  5
1629C8
331
0
  5
1629C9
331
0
  5
1629CA
331
0
  5
1629CB
331
0
  5
1629CC
331
0
  5
1629CD
331
0
  5
1629CE
331
0
  5
1629CF
331
0
  5
1629D0
331
0
  5
1629D1
331
0
  5
1629D2
331
0
  5
1629D3
331
0
  5
1629D4
331
0
  5
1629D5
331
0
  5
1629D6
331
0
  5
1629D7
331
0
  5
1629D8
331
0
  5
1629D9
331
0
  5
1629DA
331
0
  5
1629DB
331
0
  5
1629DC
331
0
  5
1629DD
331
0
  5
1629DE
331
0
  5
1629DF
331
0
  5
1629E0
331
0
  5
1629E1
331
0
  5
1629E2
331
0
  5
1629E3
331
0
  5
1629E4
331
0
  5
1629E5
331
0
  5
1629E6
331
0
  5
1629E7
331
0
  5
1629E8
331
0
  5
1629E9
331
0
  5
1629EA
331
0
  5
1629EB
331
0
  5
1629EC
331
0
  5
1629ED
331
0
  5
1629EE
331
0
  5
1629EF
331
0
  5
1629F0
331
0
  5
1629F1
331
0
  5
1629F2
331
0
  5
1629F3
331
0
  5
1629F4
331
0
  5
1629F5
331
0
  5
1629F6
331
0
  5
1629F7
331
0
  5
1629F8
331
0
  5
1629F9
331
0
  5
1629FA
331
0
  5
1629FB
331
0
  5
1629FC
331
0
  5
1629FD
331
0
  5
1629FE
331
0
  5
1629FF
331
0
  5
162A00
331
0
  5
162A01
331
0
  5
162A02
331
0
  5
162A03
331
0
  5
162A04
331
0
  5
162A05
331
0
  5
162A06
331
0
  5
162A07
331
0
  5
162A08
331
0
  5
162A09
331
0
  5
162A0A
331
0
  5
162A0B
331
0
  5
162A0C
331
0
  5
162A0D
331
0
  5
162A0E
331
0
  5
162A0F
331
0
  5
162A10
331
0
  5
162A11
331
0
  5
162A12
331
0
  5
162A13
331
0
  5
162A14
331
0
  5
162A15
331
0
  5
162A16
331
0
  5
162A17
331
0
  5
162A18
331
0
  5
162A19
331
0
  5
162A1A
331
0
  5
162A1B
331
0
  5
162A1C
331
0
  5
162A1D
331
0
  5
162A1E
331
0
  5
162A1F
331
0
  5
162A20
331
0
  5
162A21
331
0
  5
162A22
331
0
  5
162A23
331
0
  5
162A24
331
0
  5
162A25
331
0
  5
162A26
331
0
  5
162A27
331
0
  5
162A28
331
0
  5
162A29
331
0
  5
162A2A
331
0
  5
162A2B
331
0
  5
162A2C
331
0
  5
162A2D
331
0
  5
162A2E
331
0
  5
162A2F
331
0
  5
162A30
331
0
  5
162A31
331
0
  5
162A32
331
0
  5
162A33
331
0
  5
162A34
331
0
  5
162A35
331
0
  5
162A36
331
0
  5
162A37
331
0
  5
162A38
331
0
  5
162A39
331
0
  5
162A3A
331
0
  5
162A3B
331
0
  5
162A3C
331
0
  5
162A3D
331
0
  5
162A3E
331
0
  5
162A3F
331
0
  5
162A40
331
0
  5
162A41
331
0
  5
162A42
331
0
  5
162A43
331
0
  5
162A44
331
0
  5
162A45
331
0
  5
162A46
331
0
  5
162A47
331
0
  5
162A48
331
0
  5
162A49
331
0
  5
162A4A
331
0
  5
162A4B
331
0
  5
162A4C
331
0
  5
162A4D
331
0
  5
162A4E
331
0
  5
162A4F
331
0
  5
162A50
331
0
  5
162A51
331
0
  5
162A52
331
0
  5
162A53
331
0
  5
162A54
331
0
  5
162A55
331
0
  5
162A56
331
0
  5
162A57
331
0
  5
162A58
331
0
  5
162A59
331
0
  5
162A5A
331
0
  5
162A5B
331
0
  5
162A5C
331
0
  5
162A5D
331
0
  5
162A5E
331
0
  5
162A5F
331
0
  5
162A60
331
0
  5
162A61
331
0
  5
162A62
331
0
  5
162A63
331
0
  5
162A64
331
0
  5
162A65
331
0
  5
162A66
331
0
  5
162A67
331
0
  5
162A68
331
0
  5
162A69
331
0
  5
162A6A
331
0
  5
162A6B
331
0
  5
162A6C
331
0
  5
162A6D
331
0
  5
162A6E
331
0
  5
162A6F
331
0
  5
162A70
331
0
  5
162A71
331
0
  5
162A72
331
0
  5
162A73
331
0
  5
162A74
331
0
  5
162A75
331
0
  5
162A76
331
0
  5
162A77
331
0
  5
162A78
331
0
  5
162A79
331
0
  5
162A7A
331
0
  5
162A7B
331
0
  5
162A7C
331
0
  5
162A7D
331
0
  5
162A7E
331
0
  5
162A7F
331
0
  5
162A80
331
0
  5
162A81
331
0
  5
162A82
331
0
  5
162A83
331
0
  5
162A84
331
0
  5
162A85
331
0
  5
162A86
331
0
  5
162A87
331
0
  5
162A88
331
0
  5
162A89
331
0
  5
162A8A
331
0
  5
162A8B
331
0
  5
162A8C
331
0
  5
162A8D
331
0
  5
162A8E
331
0
  5
162A8F
331
0
  5
162A90
331
0
  5
162A91
331
0
  5
162A92
331
0
  5
162A93
331
0
  5
162A94
331
0
  5
162A95
331
0
  5
162A96
331
0
  5
162A97
331
0
  5
162A98
331
0
  5
162A99
331
0
  5
162A9A
331
0
  5
162A9B
331
0
  5
162A9C
331
0
  5
162A9D
331
0
  5
162A9E
331
0
  5
162A9F
331
0
  5
162AA0
331
0
  5
162AA1
331
0
  5
162AA2
331
0
  5
162AA3
331
0
  5
162AA4
331
0
  5
162AA5
331
0
  5
162AA6
331
0
  5
162AA7
331
0
  5
162AA8
331
0
  5
162AA9
331
0
  5
162AAA
331
0
  5
162AAB
331
0
  5
162AAC
331
0
  5
162AAD
331
0
  5
162AAE
331
0
  5
162AAF
331
0
  5
162AB0
331
0
  5
162AB1
331
0
  5
162AB2
331
0
  5
162AB3
331
0
  5
162AB4
331
0
  5
162AB5
331
0
  5
162AB6
331
0
  5
162AB7
331
0
  5
162AB8
331
0
  5
162AB9
331
0
  5
162ABA
331
0
  5
162ABB
331
0
  5
162ABC
331
0
  5
162ABD
331
0
  5
162ABE
331
0
  5
162ABF
331
0
  5
162AC0
331
0
  5
162AC1
331
0
  5
162AC2
331
0
  5
162AC3
331
0
  5
162AC4
331
0
  5
162AC5
331
0
  5
162AC6
331
0
  5
162AC7
331
0
  5
162AC8
331
0
  5
162AC9
331
0
  5
162ACA
331
0
  5
162ACB
331
0
  5
162ACC
331
0
  5
162ACD
331
0
  5
162ACE
331
0
  5
162ACF
331
0
  5
162AD0
331
0
  5
162AD1
331
0
  5
162AD2
331
0
  5
162AD3
331
0
  5
162AD4
331
0
  5
162AD5
331
0
  5
162AD6
331
0
  5
162AD7
331
0
  5
162AD8
331
0
  5
162AD9
331
0
  5
162ADA
331
0
  5
162ADB
331
0
  5
162ADC
331
0
  5
162ADD
331
0
  5
162ADE
331
0
  5
162ADF
331
0
  5
162AE0
331
0
  5
162AE1
331
0
  5
162AE2
331
0
  5
162AE3
331
0
  5
162AE4
331
0
  5
162AE5
331
0
  5
162AE6
331
0
  5
162AE7
331
0
  5
162AE8
331
0
  5
162AE9
331
0
  5
162AEA
331
0
  5
162AEB
331
0
  5
162AEC
331
0
  5
162AED
331
0
  5
162AEE
331
0
  5
162AEF
331
0
  5
162AF0
331
0
  5
162AF1
331
0
  5
162AF2
331
0
  5
162AF3
331
0
  5
162AF4
331
0
  5
162AF5
331
0
  5
162AF6
331
0
  5
162AF7
331
0
  5
162AF8
331
0
  5
162AF9
331
0
  5
162AFA
331
0
  5
162AFB
331
0
  5
162AFC
331
0
  5
162AFD
331
0
  5
162AFE
331
0
  5
162AFF
331
0
  5
162B00
331
0
  5
162B01
331
0
  5
162B02
331
0
  5
162B03
331
0
  5
162B04
331
0
  5
162B05
331
0
  5
162B06
331
0
  5
162B07
331
0
  5
162B08
331
0
  5
162B09
331
0
  5
162B0A
331
0
  5
162B0B
331
0
  5
162B0C
331
0
  5
162B0D
331
0
  5
162B0E
331
0
  5
162B0F
331
0
  5
162B10
331
0
  5
162B11
331
0
  5
162B12
331
0
  5
162B13
331
0
  5
162B14
331
0
  5
162B15
331
0
  5
162B16
331
0
  5
162B17
331
0
  5
162B18
331
0
  5
162B19
331
0
  5
162B1A
331
0
  5
162B1B
331
0
  5
162B1C
331
0
  5
162B1D
331
0
  5
162B1E
331
0
  5
162B1F
331
0
  5
162B20
331
0
  5
162B21
331
0
  5
162B22
331
0
  5
162B23
331
0
  5
162B24
331
0
  5
162B25
331
0
  5
162B26
331
0
  5
162B27
331
0
  5
162B28
331
0
  5
162B29
331
0
  5
162B2A
331
0
  5
162B2B
331
0
  5
162B2C
331
0
  5
162B2D
331
0
  5
162B2E
331
0
  5
162B2F
331
0
  5
162B30
331
0
  5
162B31
331
0
  5
162B32
331
0
  5
162B33
331
0
  5
162B34
331
0
  5
162B35
331
0
  5
162B36
331
0
  5
162B37
331
0
  5
162B38
331
0
  5
162B39
331
0
  5
162B3A
331
0
  5
162B3B
331
0
  5
162B3C
331
0
  5
162B3D
331
0
  5
162B3E
331
0
  5
162B3F
331
0
  5
162B40
331
0
  5
162B41
331
0
  5
162B42
331
0
  5
162B43
331
0
  5
162B44
331
0
  5
162B45
331
0
  5
162B46
331
0
  5
162B47
331
0
  5
162B48
331
0
  5
162B49
331
0
  5
162B4A
331
0
  5
162B4B
331
0
  5
162B4C
331
0
  5
162B4D
331
0
  5
162B4E
331
0
  5
162B4F
331
0
  5
162B50
331
0
  5
162B51
331
0
  5
162B52
331
0
  5
162B53
331
0
  5
162B54
331
0
  5
162B55
331
0
  5
162B56
331
0
  5
162B57
331
0
  5
162B58
331
0
  5
162B59
331
0
  5
162B5A
331
0
  5
162B5B
331
0
  5
162B5C
331
0
  5
162B5D
331
0
  5
162B5E
331
0
  5
162B5F
331
0
  5
162B60
331
0
  5
162B61
331
0
  5
162B62
331
0
  5
162B63
331
0
  5
162B64
331
0
  5
162B65
331
0
  5
162B66
331
0
  5
162B67
331
0
  5
162B68
331
0
  5
162B69
331
0
  5
162B6A
331
0
  5
162B6B
331
0
  5
162B6C
331
0
  5
162B6D
331
0
  5
162B6E
331
0
  5
162B6F
331
0
  5
162B70
331
0
  5
162B71
331
0
  5
162B72
331
0
  5
162B73
331
0
  5
162B74
331
0
  5
162B75
331
0
  5
162B76
331
0
  5
162B77
331
0
  5
162B78
331
0
  5
162B79
331
0
  5
162B7A
331
0
  5
162B7B
331
0
  5
162B7C
331
0
  5
162B7D
331
0
  5
162B7E
331
0
  5
162B7F
331
0
  5
162B80
331
0
  5
162B81
331
0
  5
162B82
331
0
  5
162B83
331
0
  5
162B84
331
0
  5
162B85
331
0
  5
162B86
331
0
  5
162B87
331
0
  5
162B88
331
0
  5
162B89
331
0
  5
162B8A
331
0
  5
162B8B
331
0
  5
162B8C
331
0
  5
162B8D
331
0
  5
162B8E
331
0
  5
162B8F
331
0
  5
162B90
331
0
  5
162B91
331
0
  5
162B92
331
0
  5
162B93
331
0
  5
162B94
331
0
  5
162B95
331
0
  5
162B96
331
0
  5
162B97
331
0
  5
162B98
331
0
  5
162B99
331
0
  5
162B9A
331
0
  5
162B9B
331
0
  5
162B9C
331
0
  5
162B9D
331
0
  5
162B9E
331
0
  5
162B9F
331
0
  5
162BA0
331
0
  5
162BA1
331
0
  5
162BA2
331
0
  5
162BA3
331
0
  5
162BA4
331
0
  5
162BA5
331
0
  5
162BA6
331
0
  5
162BA7
331
0
  5
162BA8
331
0
  5
162BA9
331
0
  5
162BAA
331
0
  5
162BAB
331
0
  5
162BAC
331
0
  5
162BAD
331
0
  5
162BAE
331
0
  5
162BAF
331
0
  5
162BB0
331
0
  5
162BB1
331
0
  5
162BB2
331
0
  5
162BB3
331
0
  5
162BB4
331
0
  5
162BB5
331
0
  5
162BB6
331
0
  5
162BB7
331
0
  5
162BB8
331
0
  5
162BB9
331
0
  5
162BBA
331
0
  5
162BBB
331
0
  5
162BBC
331
0
  5
162BBD
331
0
  5
162BBE
331
0
  5
162BBF
331
0
  5
162BC0
331
0
  5
162BC1
331
0
  5
162BC2
331
0
  5
162BC3
331
0
  5
162BC4
331
0
  5
162BC5
331
0
  5
162BC6
331
0
  5
162BC7
331
0
  5
162BC8
331
0
  5
162BC9
331
0
  5
162BCA
331
0
  5
162BCB
331
0
  5
162BCC
331
0
  5
162BCD
331
0
  5
162BCE
331
0
  5
162BCF
331
0
  5
162BD0
331
0
  5
162BD1
331
0
  5
162BD2
331
0
  5
162BD3
331
0
  5
162BD4
331
0
  5
162BD5
331
0
  5
162BD6
331
0
  5
162BD7
331
0
  5
162BD8
331
0
  5
162BD9
331
0
  5
162BDA
331
0
  5
162BDB
331
0
  5
162BDC
331
0
  5
162BDD
331
0
  5
162BDE
331
0
  5
162BDF
331
0
  5
162BE0
331
0
  5
162BE1
331
0
  5
162BE2
331
0
  5
162BE3
331
0
  5
162BE4
331
0
  5
162BE5
331
0
  5
162BE6
331
0
  5
162BE7
331
0
  5
162BE8
331
0
  5
162BE9
331
0
  5
162BEA
331
0
  5
162BEB
331
0
  5
162BEC
331
0
  5
162BED
331
0
  5
162BEE
331
0
  5
162BEF
331
0
  5
162BF0
331
0
  5
162BF1
331
0
  5
162BF2
331
0
  5
162BF3
331
0
  5
162BF4
331
0
  5
162BF5
331
0
  5
162BF6
331
0
  5
162BF7
331
0
  5
162BF8
331
0
  5
162BF9
331
0
  5
162BFA
331
0
  5
162BFB
331
0
  5
162BFC
331
0
  5
162BFD
331
0
  5
162BFE
331
0
  5
162BFF
331
0
  5
162C00
331
0
  5
162C01
331
0
  5
162C02
331
0
  5
162C03
331
0
  5
162C04
331
0
  5
162C05
331
0
  5
162C06
331
0
  5
162C07
331
0
  5
162C08
331
0
  5
162C09
331
0
  5
162C0A
331
0
  5
162C0B
331
0
  5
162C0C
331
0
  5
162C0D
331
0
  5
162C0E
331
0
  5
162C0F
331
0
  5
162C10
331
0
  5
162C11
331
0
  5
162C12
331
0
  5
162C13
331
0
  5
162C14
331
0
  5
162C15
331
0
  5
162C16
331
0
  5
162C17
331
0
  5
162C18
331
0
  5
162C19
331
0
  5
162C1A
331
0
  5
162C1B
331
0
  5
162C1C
331
0
  5
162C1D
331
0
  5
162C1E
331
0
  5
162C1F
331
0
  5
162C20
331
0
  5
162C21
331
0
  5
162C22
331
0
  5
162C23
331
0
  5
162C24
331
0
  5
162C25
331
0
  5
162C26
331
0
  5
162C27
331
0
  5
162C28
331
0
  5
162C29
331
0
  5
162C2A
331
0
  5
162C2B
331
0
  5
162C2C
331
0
  5
162C2D
331
0
  5
162C2E
331
0
  5
162C2F
331
0
  5
162C30
331
0
  5
162C31
331
0
  5
162C32
331
0
  5
162C33
331
0
  5
162C34
331
0
  5
162C35
331
0
  5
162C36
331
0
  5
162C37
331
0
  5
162C38
331
0
  5
162C39
331
0
  5
162C3A
331
0
  5
162C3B
331
0
  5
162C3C
331
0
  5
162C3D
331
0
  5
162C3E
331
0
  5
162C3F
331
0
  5
162C40
331
0
  5
162C41
331
0
  5
162C42
331
0
  5
162C43
331
0
  5
162C44
331
0
  5
162C45
331
0
  5
162C46
331
0
  5
162C47
331
0
  5
162C48
331
0
  5
162C49
331
0
  5
162C4A
331
0
  5
162C4B
331
0
  5
162C4C
331
0
  5
162C4D
331
0
  5
162C4E
331
0
  5
162C4F
331
0
  5
162C50
331
0
  5
162C51
331
0
  5
162C52
331
0
  5
162C53
331
0
  5
162C54
331
0
  5
162C55
331
0
  5
162C56
331
0
  5
162C57
331
0
  5
162C58
331
0
  5
162C59
331
0
  5
162C5A
331
0
  5
162C5B
331
0
  5
162C5C
331
0
  5
162C5D
331
0
  5
162C5E
331
0
  5
162C5F
331
0
  5
162C60
331
0
  5
162C61
331
0
  5
162C62
331
0
  5
162C63
331
0
  5
162C64
331
0
  5
162C65
331
0
  5
162C66
331
0
  5
162C67
331
0
  5
162C68
331
0
  5
162C69
331
0
  5
162C6A
331
0
  5
162C6B
331
0
  5
162C6C
331
0
  5
162C6D
331
0
  5
162C6E
331
0
  5
162C6F
331
0
  5
162C70
331
0
  5
162C71
331
0
  5
162C72
331
0
  5
162C76
331
0
  5
162C79
331
0
  5
162C7A
331
0
  5
162C7D
331
0
  5
162C7E
331
0
  5
162C7F
331
0
  5
162C82
331
0
  5
162C83
331
0
  5
162C84
331
0
  5
162C85
331
0
  5
162C86
331
0
  5
162C87
331
0
  5
162C88
331
0
  5
162C89
331
0
  5
162C8A
331
0
  5
162C8B
331
0
  5
162C8C
331
0
  5
162C8D
331
0
  5
162C8E
331
0
  5
162C8F
331
0
  5
162C90
331
0
  5
162C91
331
0
  5
162C92
331
0
  5
162C93
331
0
  5
162C94
331
0
  5
162C95
331
0
  5
162C96
331
0
  5
162C97
331
0
  5
162C98
331
0
  5
162C99
331
0
  5
162C9A
331
0
  5
162C9B
331
0
  5
162C9C
331
0
  5
162C9D
331
0
  5
162C9E
331
0
  5
162C9F
331
0
  5
162CA0
331
0
  5
162CA1
331
0
  5
162CA2
331
0
  5
162CA3
331
0
  5
162CA4
331
0
  5
162CA5
331
0
  5
162CA6
331
0
  5
162CA7
331
0
  5
162CA8
331
0
  5
162CA9
331
0
  5
162CAA
331
0
  5
162CAB
331
0
  5
162CAC
331
0
  5
162CAD
331
0
  5
162CAE
331
0
  5
162CAF
331
0
  5
162CB0
331
0
  5
162CB1
331
0
  5
162CB2
331
0
  5
162CB3
331
0
  5
162CB4
331
0
  5
162CB5
331
0
  5
162CB6
331
0
  5
162CB7
331
0
  5
162CB8
331
0
  5
162CB9
331
0
  5
162CBA
331
0
  5
162CBB
331
0
  5
162CBC
331
0
  5
162CBD
331
0
  5
162CBE
331
0
  5
162CBF
331
0
  5
162CC0
331
0
  5
162CC1
331
0
  5
162CC2
331
0
  5
162CC3
331
0
  5
162CC4
331
0
  5
162CC5
331
0
  5
162CC6
331
0
  5
162CC7
331
0
  5
162CC8
331
0
  5
162CC9
331
0
  5
162CCA
331
0
  5
162CCB
331
0
  5
162CCC
331
0
  5
162CCD
331
0
  5
162CCE
331
0
  5
162CCF
331
0
  5
162CD0
331
0
  5
162CD1
331
0
  5
162CD2
331
0
  5
162CD3
331
0
  5
162CD4
331
0
  5
162CD5
331
0
  5
162CD6
331
0
  5
162CD7
331
0
  5
162CD8
331
0
  5
162CD9
331
0
  5
162CDA
331
0
  5
162CDB
331
0
  5
162CDC
331
0
  5
162CDD
331
0
  5
162CDE
331
0
  5
162CDF
331
0
  5
162CE0
331
0
  5
162CE1
331
0
  5
162CE2
331
0
  5
162CE3
331
0
  5
162CE4
331
0
  5
162CE5
331
0
  5
162CE6
331
0
  5
162CE7
331
0
  5
162CE8
331
0
  5
162CE9
331
0
  5
162CEA
331
0
  5
162CEB
331
0
  5
162CEC
331
0
  5
162CED
331
0
  5
162CEE
331
0
  5
162CEF
331
0
  5
162CF0
331
0
  5
162CF1
331
0
  5
162CF2
331
0
  5
162CF3
331
0
  5
162CF4
331
0
  5
162CF5
331
0
  5
162CF6
331
0
  5
162CF7
331
0
  5
162CF8
331
0
  5
162CF9
331
0
  5
162CFA
331
0
  5
162CFB
331
0
  5
162CFC
331
0
  5
162CFD
331
0
  5
162CFE
331
0
  5
162CFF
331
0
  5
162D00
331
0
  5
162D01
331
0
  5
162D02
331
0
  5
162D03
331
0
  5
162D04
331
0
  5
162D05
331
0
  5
162D06
331
0
  5
162D07
331
0
  5
162D08
331
0
  5
162D09
331
0
  5
162D0A
331
0
  5
162D0B
331
0
  5
162D0C
331
0
  5
162D0D
331
0
  5
162D0E
331
0
  5
162D0F
331
0
  5
162D10
331
0
  5
162D11
331
0
  5
162D12
331
0
  5
162D13
331
0
  5
162D14
331
0
  5
162D15
331
0
  5
162D16
331
0
  5
162D17
331
0
  5
162D18
331
0
  5
162D19
331
0
  5
162D1A
331
0
  5
162D1B
331
0
  5
162D1C
331
0
  5
162D1D
331
0
  5
162D1E
331
0
  5
162D1F
331
0
  5
162D20
331
0
  5
162D21
331
0
  5
162D22
331
0
  5
162D23
331
0
  5
162D24
331
0
  5
162D25
331
0
  5
162D26
331
0
  5
162D27
331
0
  5
162D28
331
0
  5
162D29
331
0
  5
162D2A
331
0
  5
162D2B
331
0
  5
162D2C
331
0
  5
162D2D
331
0
  5
162D2E
331
0
  5
162D2F
331
0
  5
162D30
331
0
  5
162D31
331
0
  5
162D32
331
0
  5
162D33
331
0
  5
162D34
331
0
  5
162D35
331
0
  5
162D36
331
0
  5
162D37
331
0
  5
162D38
331
0
  5
162D39
331
0
  5
162D3A
331
0
  5
162D3B
331
0
  5
162D3C
331
0
  5
162D3D
331
0
  5
162D3E
331
0
  5
162D3F
331
0
  5
162D40
331
0
  5
162D41
331
0
  5
162D42
331
0
  5
162D43
331
0
  5
162D44
331
0
  5
162D45
331
0
  5
162D46
331
0
  5
162D47
331
0
  5
162D48
331
0
  5
162D49
331
0
  5
162D4A
331
0
  5
162D4B
331
0
  5
162D4C
331
0
  5
162D4D
331
0
  5
162D4E
331
0
  5
162D4F
331
0
  5
162D50
331
0
  5
162D51
331
0
  5
162D52
331
0
  5
162D53
331
0
  5
162D54
331
0
  5
162D55
331
0
  5
162D56
331
0
  5
162D57
331
0
  5
162D58
331
0
  5
162D59
331
0
  5
162D5A
331
0
  5
162D5B
331
0
  5
162D5C
331
0
  5
162D5D
331
0
  5
162D5E
331
0
  5
162D5F
331
0
  5
162D60
331
0
  5
162D61
331
0
  5
162D62
331
0
  5
162D63
331
0
  5
162D64
331
0
  5
162D65
331
0
  5
162D66
331
0
  5
162D67
331
0
  5
162D68
331
0
  5
162D69
331
0
  5
162D6A
331
0
  5
162D6B
331
0
  5
162D6C
331
0
  5
162D6D
331
0
  5
162D6E
331
0
  5
162D6F
331
0
  5
162D70
331
0
  5
162D71
331
0
  5
162D72
331
0
  5
162D73
331
0
  5
162D74
331
0
  5
162D75
331
0
  5
162D76
331
0
  5
162D77
331
0
  5
162D78
331
0
  5
162D79
331
0
  5
162D7A
331
0
  5
162D7B
331
0
  5
162D7C
331
0
  5
162D7D
331
0
  5
162D7E
331
0
  5
162D7F
331
0
  5
162D80
331
0
  5
162D81
331
0
  5
162D82
331
0
  5
162D83
331
0
  5
162D84
331
0
  5
162D85
331
0
  5
162D86
331
0
  5
162D87
331
0
  5
162D88
331
0
  5
162D89
331
0
  5
162D8A
331
0
  5
162D8B
331
0
  5
162D8C
331
0
  5
162D8D
331
0
  5
162D8E
331
0
  5
162D8F
331
0
  5
162D90
331
0
  5
162D91
331
0
  5
162D92
331
0
  5
162D93
331
0
  5
162D94
331
0
  5
162D95
331
0
  5
162D96
331
0
  5
162D97
331
0
  5
162D98
331
0
  5
162D99
331
0
  5
162D9A
331
0
  5
162D9B
331
0
  5
162D9C
331
0
  5
162D9D
331
0
  5
162D9E
331
0
  5
162D9F
331
0
  5
162DA0
331
0
  5
162DA1
331
0
  5
162DA2
331
0
  5
162DA3
331
0
  5
162DA4
331
0
  5
162DA5
331
0
  5
162DA6
331
0
  5
162DA7
331
0
  5
162DA8
331
0
  5
162DA9
331
0
  5
162DAA
331
0
  5
162DAB
331
0
  5
162DAC
331
0
  5
162DAD
331
0
  5
162DAE
331
0
  5
162DAF
331
0
  5
162DB0
331
0
  5
162DB1
331
0
  5
162DB2
331
0
  5
162DB3
331
0
  5
162DB4
331
0
  5
162DB5
331
0
  5
162DB6
331
0
  5
162DB7
331
0
  5
162DB8
331
0
  5
162DB9
331
0
  5
162DBA
331
0
  5
162DBB
331
0
  5
162DBC
331
0
  5
162DBD
331
0
  5
162DBE
331
0
  5
162DBF
331
0
  5
162DC0
331
0
  5
162DC1
331
0
  5
162DC2
331
0
  5
162DC3
331
0
  5
162DC4
331
0
  5
162DC5
331
0
  5
162DC6
331
0
  5
162DC7
331
0
  5
162DC8
331
0
  5
162DC9
331
0
  5
162DCA
331
0
  5
162DCB
331
0
  5
162DCC
331
0
  5
162DCD
331
0
  5
162DCE
331
0
  5
162DCF
331
0
  5
162DD0
331
0
  5
162DD1
331
0
  5
162DD2
331
0
  5
162DD3
331
0
  5
162DD4
331
0
  5
162DD5
331
0
  5
162DD6
331
0
  5
162DD7
331
0
  5
162DD8
331
0
  5
162DD9
331
0
  5
162DDA
331
0
  5
162DDB
331
0
  5
162DDC
331
0
  5
162DDD
331
0
  5
162DDE
331
0
  5
162DDF
331
0
  5
162DE0
331
0
  5
162DE1
331
0
  5
162DE2
331
0
  5
162DE3
331
0
  5
162DE4
331
0
  5
162DE5
331
0
  5
162DE6
331
0
  5
162DE7
331
0
  5
162DE8
331
0
  5
162DE9
331
0
  5
162DEA
331
0
  5
162DEB
331
0
  5
162DEC
331
0
  5
162DED
331
0
  5
162DEE
331
0
  5
162DEF
331
0
  5
162DF0
331
0
  5
162DF1
331
0
  5
162DF2
331
0
  5
162DF3
331
0
  5
162DF4
331
0
  5
162DF5
331
0
  5
162DF6
331
0
  5
162DF7
331
0
  5
162DF8
331
0
  5
162DF9
331
0
  5
162DFA
331
0
  5
162DFB
331
0
  5
162DFC
331
0
  5
162DFD
331
0
  5
162DFE
331
0
  5
162DFF
331
0
  5
162E00
331
0
  5
162E01
331
0
  5
162E02
331
0
  5
162E03
331
0
  5
162E04
331
0
  5
162E05
331
0
  5
162E06
331
0
  5
162E07
331
0
  5
162E08
331
0
  5
162E09
331
0
  5
162E0A
331
0
  5
162E0B
331
0
  5
162E0C
331
0
  5
162E0D
331
0
  5
162E0E
331
0
  5
162E0F
331
0
  5
162E10
331
0
  5
162E11
331
0
  5
162E12
331
0
  5
162E13
331
0
  5
162E14
331
0
  5
162E15
331
0
  5
162E16
331
0
  5
162E17
331
0
  5
162E18
331
0
  5
162E19
331
0
  5
162E1A
331
0
  5
162E1B
331
0
  5
162E1C
331
0
  5
162E1D
331
0
  5
162E1E
331
0
  5
162E1F
331
0
  5
162E20
331
0
  5
162E21
331
0
  5
162E22
331
0
  5
162E23
331
0
  5
162E24
331
0
  5
162E25
331
0
  5
162E26
331
0
  5
162E27
331
0
  5
162E28
331
0
  5
162E29
331
0
  5
162E2A
331
0
  5
162E2B
331
0
  5
162E2C
331
0
  5
162E2D
331
0
  5
162E2E
331
0
  5
162E2F
331
0
  5
162E30
331
0
  5
162E31
331
0
  5
162E32
331
0
  5
162E33
331
0
  5
162E34
331
0
  5
162E35
331
0
  5
162E36
331
0
  5
162E37
331
0
  5
162E38
331
0
  5
162E39
331
0
  5
162E3A
331
0
  5
162E3B
331
0
  5
162E3C
331
0
  5
162E3D
331
0
  5
162E3E
331
0
  5
162E3F
331
0
  5
162E40
331
0
  5
162E41
331
0
  5
162E42
331
0
  5
162E43
331
0
  5
162E44
331
0
  5
162E45
331
0
  5
162E46
331
0
  5
162E47
331
0
  5
162E48
331
0
  5
162E49
331
0
  5
162E4A
331
0
  5
162E4B
331
0
  5
162E4C
331
0
  5
162E4D
331
0
  5
162E4E
331
0
  5
162E4F
331
0
  5
162E50
331
0
  5
162E51
331
0
  5
162E52
331
0
  5
162E53
331
0
  5
162E54
331
0
  5
162E55
331
0
  5
162E56
331
0
  5
162E57
331
0
  5
162E58
331
0
  5
162E59
331
0
  5
162E5A
331
0
  5
162E5B
331
0
  5
162E5C
331
0
  5
162E5D
331
0
  5
162E5E
331
0
  5
162E5F
331
0
  5
162E60
331
0
  5
162E61
331
0
  5
162E62
331
0
  5
162E63
331
0
  5
162E64
331
0
  5
162E65
331
0
  5
162E66
331
0
  5
162E67
331
0
  5
162E68
331
0
  5
162E69
331
0
  5
162E6A
331
0
  5
162E6B
331
0
  5
162E6C
331
0
  5
162E6D
331
0
  5
162E6E
331
0
  5
162E6F
331
0
  5
162E70
331
0
  5
162E71
331
0
  5
162E72
331
0
  5
162E73
331
0
  5
162E74
331
0
  5
162E75
331
0
  5
162E76
331
0
  5
162E77
331
0
  5
162E78
331
0
  5
162E79
331
0
  5
162E7A
331
0
  5
162E7B
331
0
  5
162E7C
331
0
  5
162E7D
331
0
  5
162E7E
331
0
  5
162E7F
331
0
  5
162E80
331
0
  5
162E81
331
0
  5
162E82
331
0
  5
162E83
331
0
  5
162E84
331
0
  5
162E85
331
0
  5
162E86
331
0
  5
162E87
331
0
  5
162E88
331
0
  5
162E89
331
0
  5
162E8A
331
0
  5
162E8B
331
0
  5
162E8C
331
0
  5
162E8D
331
0
  5
162E8E
331
0
  5
162E8F
331
0
  5
162E90
331
0
  5
162E91
331
0
  5
162E92
331
0
  5
162E93
331
0
  5
162E94
331
0
  5
162E95
331
0
  5
162E96
331
0
  5
162E97
331
0
  5
162E98
331
0
  5
162E99
331
0
  5
162E9A
331
0
  5
162E9B
331
0
  5
162E9C
331
0
  5
162E9D
331
0
  5
162E9E
331
0
  5
162E9F
331
0
  5
162EA0
331
0
  5
162EA1
331
0
  5
162EA2
331
0
  5
162EA3
331
0
  5
162EA4
331
0
  5
162EA5
331
0
  5
162EA6
331
0
  5
162EA7
331
0
  5
162EA8
331
0
  5
162EA9
331
0
  5
162EAA
331
0
  5
162EAB
331
0
  5
162EAC
331
0
  5
162EAD
331
0
  5
162EAE
331
0
  5
162EAF
331
0
  5
162EB0
331
0
  5
162EB1
331
0
  5
162EB2
331
0
  5
162EB3
331
0
  5
162EB4
331
0
  5
162EB5
331
0
  5
162EB6
331
0
  5
162EB7
331
0
  5
162EB8
331
0
  5
162EB9
331
0
  5
162EBA
331
0
  5
162EBB
331
0
  5
162EBC
331
0
  5
162EBD
331
0
  5
162EBE
331
0
  5
162EBF
331
0
  5
162EC0
331
0
  5
162EC1
331
0
  5
162EC2
331
0
  5
162EC3
331
0
  5
162EC4
331
0
  5
162EC5
331
0
  5
162EC6
331
0
  5
162EC7
331
0
  5
162EC8
331
0
  5
162EC9
331
0
  5
162ECA
331
0
  5
162ECB
331
0
  5
162ECC
331
0
  5
162ECD
331
0
  5
162ECE
331
0
  5
162ECF
331
0
  5
162ED0
331
0
  5
162ED1
331
0
  5
162ED2
331
0
  5
162ED3
331
0
  5
162ED4
331
0
  5
162ED5
331
0
  5
162ED6
331
0
  5
162ED7
331
0
  5
162ED8
331
0
  5
162ED9
331
0
  5
162EDA
331
0
  5
162EDB
331
0
  5
162EDC
331
0
  5
162EDD
331
0
  5
162EDE
331
0
  5
162EDF
331
0
  5
162EE0
331
0
  5
162EE1
331
0
  5
162EE2
331
0
  5
162EE3
331
0
  5
162EE4
331
0
  5
162EE5
331
0
  5
162EE6
331
0
  5
162EE7
331
0
  5
162EE8
331
0
  5
162EE9
331
0
  5
162EEA
331
0
  5
162EEB
331
0
  5
162EEC
331
0
  5
162EED
331
0
  5
162EEE
331
0
  5
162EEF
331
0
  5
162EF0
331
0
  5
162EF1
331
0
  5
162EF2
331
0
  5
162EF3
331
0
  5
162EF4
331
0
  5
162EF5
331
0
  5
162EF6
331
0
  5
162EF7
331
0
  5
162EF8
331
0
  5
162EF9
331
0
  5
162EFA
331
0
  5
162EFB
331
0
  5
162EFC
331
0
  5
162EFD
331
0
  5
162EFE
331
0
  5
162EFF
331
0
  5
162F00
331
0
  5
162F01
331
0
  5
162F02
331
0
  5
162F03
331
0
  5
162F04
331
0
  5
162F05
331
0
  5
162F06
331
0
  5
162F07
331
0
  5
162F08
331
0
  5
162F09
331
0
  5
162F0A
331
0
  5
162F0B
331
0
  5
162F0C
331
0
  5
162F0D
331
0
  5
162F0E
331
0
  5
162F0F
331
0
  5
162F10
331
0
  5
162F11
331
0
  5
162F12
331
0
  5
162F13
331
0
  5
162F14
331
0
  5
162F15
331
0
  5
162F16
331
0
  5
162F17
331
0
  5
162F18
331
0
  5
162F19
331
0
  5
162F1A
331
0
  5
162F1B
331
0
  5
162F1C
331
0
  5
162F1D
331
0
  5
162F1E
331
0
  5
162F1F
331
0
  5
162F20
331
0
  5
162F21
331
0
  5
162F22
331
0
  5
162F23
331
0
  5
162F24
331
0
  5
162F25
331
0
  5
162F26
331
0
  5
162F27
331
0
  5
162F28
331
0
  5
162F29
331
0
  5
162F2A
331
0
  5
162F2B
331
0
  5
162F2C
331
0
  5
162F2D
331
0
  5
162F2E
331
0
  5
162F2F
331
0
  5
162F30
331
0
  5
162F31
331
0
  5
162F32
331
0
  5
162F33
331
0
  5
162F34
331
0
  5
162F35
331
0
  5
162F36
331
0
  5
162F37
331
0
  5
162F38
331
0
  5
162F39
331
0
  5
162F3A
331
0
  5
162F3B
331
0
  5
162F3C
331
0
  5
162F3D
331
0
  5
162F3E
331
0
  5
162F3F
331
0
  5
162F40
331
0
  5
162F41
331
0
  5
162F42
331
0
  5
162F43
331
0
  5
162F44
331
0
  5
162F45
331
0
  5
162F46
331
0
  5
162F47
331
0
  5
162F48
331
0
  5
162F49
331
0
  5
162F4A
331
0
  5
162F4B
331
0
  5
162F4C
331
0
  5
162F4D
331
0
  5
162F4E
331
0
  5
162F4F
331
0
  5
162F50
331
0
  5
162F51
331
0
  5
162F52
331
0
  5
162F53
331
0
  5
162F54
331
0
  5
162F55
331
0
  5
162F56
331
0
  5
162F57
331
0
  5
162F58
331
0
  5
162F59
331
0
  5
162F5A
331
0
  5
162F5B
331
0
  5
162F5C
331
0
  5
162F5D
331
0
  5
162F5E
331
0
  5
162F5F
331
0
  5
162F60
331
0
  5
162F61
331
0
  5
162F62
331
0
  5
162F63
331
0
  5
162F64
331
0
  5
162F65
331
0
  5
162F66
331
0
  5
162F67
331
0
  5
162F68
331
0
  5
162F69
331
0
  5
162F6A
331
0
  5
162F6B
331
0
  5
162F6C
331
0
  5
162F6D
331
0
  5
162F6E
331
0
  5
162F6F
331
0
  5
162F70
331
0
  5
162F71
331
0
  5
162F72
331
0
  5
162F73
331
0
  5
162F74
331
0
  5
162F75
331
0
  5
162F76
331
0
  5
162F77
331
0
  5
162F78
331
0
  5
162F79
331
0
  5
162F7A
331
0
  5
162F7B
331
0
  5
162F7C
331
0
  5
162F7D
331
0
  5
162F7E
331
0
  5
162F7F
331
0
  5
162F80
331
0
  5
162F81
331
0
  5
162F82
331
0
  5
162F83
331
0
  5
162F84
331
0
  5
162F85
331
0
  5
162F86
331
0
  5
162F87
331
0
  5
162F88
331
0
  5
162F89
331
0
  5
162F8A
331
0
  5
162F8B
331
0
  5
162F8C
331
0
  5
162F8D
331
0
  5
162F8E
331
0
  5
162F8F
331
0
  5
162F90
331
0
  5
162F91
331
0
  5
162F92
331
0
  5
162F93
331
0
  5
162F94
331
0
  5
162F95
331
0
  5
162F96
331
0
  5
162F97
331
0
  5
162F98
331
0
  5
162F99
331
0
  5
162F9A
331
0
  5
162F9B
331
0
  5
162F9C
331
0
  5
162F9D
331
0
  5
162F9E
331
0
  5
162F9F
331
0
  5
162FA0
331
0
  5
162FA1
331
0
  5
162FA2
331
0
  5
162FA3
331
0
  5
162FA4
331
0
  5
162FA5
331
0
  5
162FA6
331
0
  5
162FA7
331
0
  5
162FA8
331
0
  5
162FA9
331
0
  5
162FAA
331
0
  5
162FAB
331
0
  5
162FAC
331
0
  5
162FAD
331
0
  5
162FAE
331
0
  5
162FAF
331
0
  5
162FB0
331
0
  5
162FB1
331
0
  5
162FB2
331
0
  5
162FB3
331
0
  5
162FB4
331
0
  5
162FB5
331
0
  5
162FB6
331
0
  5
162FB7
331
0
  5
162FB8
331
0
  5
162FB9
331
0
  5
162FBA
331
0
  5
162FBB
331
0
  5
162FBC
331
0
  5
162FBD
331
0
  5
162FBE
331
0
  5
162FBF
331
0
  5
162FC0
331
0
  5
162FC1
331
0
  5
162FC2
331
0
  5
162FC3
331
0
  5
162FC4
331
0
  5
162FC5
331
0
  5
162FC6
331
0
  5
162FC7
331
0
  5
162FC8
331
0
  5
162FC9
331
0
  5
162FCA
331
0
  5
162FCB
331
0
  5
162FCC
331
0
  5
162FCD
331
0
  5
162FCE
331
0
  5
162FCF
331
0
  5
162FD0
331
0
  5
162FD1
331
0
  5
162FD2
331
0
  5
162FD3
331
0
  5
162FD4
331
0
  5
162FD5
331
0
  5
162FD6
331
0
  5
162FD7
331
0
  5
162FD8
331
0
  5
162FD9
331
0
  5
162FDA
331
0
  5
162FDB
331
0
  5
162FDC
331
0
  5
162FDD
331
0
  5
162FDE
331
0
  5
162FDF
331
0
  5
162FE0
331
0
  5
162FE1
331
0
  5
162FE2
331
0
  5
162FE3
331
0
  5
162FE4
331
0
  5
162FE5
331
0
  5
162FE6
331
0
  5
162FE7
331
0
  5
162FE8
331
0
  5
162FE9
331
0
  5
162FEA
331
0
  5
162FEB
331
0
  5
162FEC
331
0
  5
162FED
331
0
  5
162FEE
331
0
  5
162FEF
331
0
  5
162FF0
331
0
  5
162FF1
331
0
  5
162FF2
331
0
  5
162FF3
331
0
  5
162FF4
331
0
  5
162FF5
331
0
  5
162FF6
331
0
  5
162FF7
331
0
  5
162FF8
331
0
  5
162FF9
331
0
  5
162FFA
331
0
  5
162FFB
331
0
  5
162FFC
331
0
  5
162FFD
331
0
  5
162FFE
331
0
  5
162FFF
331
0
  5
163000
331
0
  5
163001
331
0
  5
163002
331
0
  5
163003
331
0
  5
163004
331
0
  5
163005
331
0
  5
163006
331
0
  5
163007
331
0
  5
163008
331
0
  5
163009
331
0
  5
16300A
331
0
  5
16300B
331
0
  5
16300C
331
0
  5
16300D
331
0
  5
16300E
331
0
  5
16300F
331
0
  5
163010
331
0
  5
163011
331
0
  5
163012
331
0
  5
163013
331
0
  5
163014
331
0
  5
163015
331
0
  5
163016
331
0
  5
163017
331
0
  5
163018
331
0
  5
163019
331
0
  5
16301A
331
0
  5
16301B
331
0
  5
16301C
331
0
  5
16301D
331
0
  5
16301E
331
0
  5
16301F
331
0
  5
163020
331
0
  5
163021
331
0
  5
163022
331
0
  5
163023
331
0
  5
163024
331
0
  5
163025
331
0
  5
163026
331
0
  5
163027
331
0
  5
163028
331
0
  5
163029
331
0
  5
16302A
331
0
  5
16302B
331
0
  5
16302C
331
0
  5
16302D
331
0
  5
16302E
331
0
  5
16302F
331
0
  5
163030
331
0
  5
163031
331
0
  5
163032
331
0
  5
163033
331
0
  5
163034
331
0
  5
163035
331
0
  5
163036
331
0
  5
163037
331
0
  5
163038
331
0
  5
163039
331
0
  5
16303A
331
0
  5
16303B
331
0
  5
16303C
331
0
  5
16303D
331
0
  5
16303E
331
0
  5
16303F
331
0
  5
163040
331
0
  5
163041
331
0
  5
163042
331
0
  5
163043
331
0
  5
163044
331
0
  5
163045
331
0
  5
163046
331
0
  5
163047
331
0
  5
163048
331
0
  5
163049
331
0
  5
16304A
331
0
  5
16304B
331
0
  5
16304C
331
0
  5
16304D
331
0
  5
16304E
331
0
  5
16304F
331
0
  5
163050
331
0
  5
163051
331
0
  5
163052
331
0
  5
163053
331
0
  5
163054
331
0
  5
163055
331
0
  5
163056
331
0
  5
163057
331
0
  5
163058
331
0
  5
163059
331
0
  5
16305A
331
0
  5
16305B
331
0
  5
16305C
331
0
  5
16305D
331
0
  5
16305E
331
0
  5
16305F
331
0
  5
163060
331
0
  5
163061
331
0
  5
163062
331
0
  5
163063
331
0
  5
163064
331
0
  5
163065
331
0
  5
163066
331
0
  5
163067
331
0
  5
163068
331
0
  5
163069
331
0
  5
16306A
331
0
  5
16306B
331
0
  5
16306C
331
0
  5
16306D
331
0
  5
16306E
331
0
  5
16306F
331
0
  5
163070
331
0
  5
163071
331
0
  5
163072
331
0
  5
163073
331
0
  5
163074
331
0
  5
163075
331
0
  5
163076
331
0
  5
163077
331
0
  5
163078
331
0
  5
163079
331
0
  5
16307A
331
0
  5
16307B
331
0
  5
16307C
331
0
  5
16307D
331
0
  5
16307E
331
0
  5
16307F
331
0
  5
163080
331
0
  5
163081
331
0
  5
163082
331
0
  5
163083
331
0
  5
163084
331
0
  5
163085
331
0
  5
163086
331
0
  5
163087
331
0
  5
163088
331
0
  5
163089
331
0
  5
16308A
331
0
  5
16308B
331
0
  5
16308C
331
0
  5
16308D
331
0
  5
16308E
331
0
  5
16308F
331
0
  5
163090
331
0
  5
163091
331
0
  5
163092
331
0
  5
163093
331
0
  5
163094
331
0
  5
163095
331
0
  5
163096
331
0
  5
163097
331
0
  5
163098
331
0
  5
163099
331
0
  5
16309A
331
0
  5
16309B
331
0
  5
16309C
331
0
  5
16309D
331
0
  5
16309E
331
0
  5
16309F
331
0
  5
1630A0
331
0
  5
1630A1
331
0
  5
1630A2
331
0
  5
1630A3
331
0
  5
1630A4
331
0
  5
1630A5
331
0
  5
1630A6
331
0
  5
1630A7
331
0
  5
1630A8
331
0
  5
1630A9
331
0
  5
1630AA
331
0
  5
1630AB
331
0
  5
1630AC
331
0
  5
1630AD
331
0
  5
1630AE
331
0
  5
1630AF
331
0
  5
1630B0
331
0
  5
1630B1
331
0
  5
1630B2
331
0
  5
1630B3
331
0
  5
1630B4
331
0
  5
1630B5
331
0
  5
1630B6
331
0
  5
1630B7
331
0
  5
1630B8
331
0
  5
1630B9
331
0
  5
1630BA
331
0
  5
1630BB
331
0
  5
1630BC
331
0
  5
1630BD
331
0
  5
1630BE
331
0
  5
1630BF
331
0
  5
1630C0
331
0
  5
1630C1
331
0
  5
1630C2
331
0
  5
1630C3
331
0
  5
1630C4
331
0
  5
1630C5
331
0
  5
1630C6
331
0
  5
1630C7
331
0
  5
1630C8
331
0
  5
1630C9
331
0
  5
1630CA
331
0
  5
1630CB
331
0
  5
1630CC
331
0
  5
1630CD
331
0
  5
1630CE
331
0
  5
1630CF
331
0
  5
1630D0
331
0
  5
1630D1
331
0
  5
1630D2
331
0
  5
1630D3
331
0
  5
1630D4
331
0
  5
1630D5
331
0
  5
1630D6
331
0
  5
1630D7
331
0
  5
1630D8
331
0
  5
1630D9
331
0
  5
1630DA
331
0
  5
1630DB
331
0
  5
1630DC
331
0
  5
1630DD
331
0
  5
1630DE
331
0
  5
1630DF
331
0
  5
1630E0
331
0
  5
1630E1
331
0
  5
1630E2
331
0
  5
1630E3
331
0
  5
1630E4
331
0
  5
1630E5
331
0
  5
1630E6
331
0
  5
1630E7
331
0
  5
1630E8
331
0
  5
1630E9
331
0
  5
1630EA
331
0
  5
1630EB
331
0
  5
1630EC
331
0
  5
1630ED
331
0
  5
1630EE
331
0
  5
1630EF
331
0
  5
1630F0
331
0
  5
1630F1
331
0
  5
1630F2
331
0
  5
1630F3
331
0
  5
1630F4
331
0
  5
1630F5
331
0
  5
1630F6
331
0
  5
1630F7
331
0
  5
1630F8
331
0
  5
1630F9
331
0
  5
1630FA
331
0
  5
1630FB
331
0
  5
1630FC
331
0
  5
1630FD
331
0
  5
1630FE
331
0
  5
1630FF
331
0
  5
163100
331
0
  5
163101
331
0
  5
163102
331
0
  5
163103
331
0
  5
163104
331
0
  5
163105
331
0
  5
163106
331
0
  5
163107
331
0
  5
163108
331
0
  5
163109
331
0
  5
16310A
331
0
  5
16310B
331
0
  5
16310C
331
0
  5
16310D
331
0
  5
16310E
331
0
  5
16310F
331
0
  5
163110
331
0
  5
163111
331
0
  5
163112
331
0
  5
163113
331
0
  5
163114
331
0
  5
163115
331
0
  5
163116
331
0
  5
163117
331
0
  5
163118
331
0
  5
163119
331
0
  5
16311A
331
0
  5
16311B
331
0
  5
16311C
331
0
  5
16311D
331
0
  5
16311E
331
0
  5
16311F
331
0
  5
163120
331
0
  5
163121
331
0
  5
163122
331
0
  5
163123
331
0
  5
163124
331
0
  5
163125
331
0
  5
163126
331
0
  5
163127
331
0
  5
163128
331
0
  5
163129
331
0
  5
16312A
331
0
  5
16312B
331
0
  5
16312C
331
0
  5
16312D
331
0
  5
16312E
331
0
  5
16312F
331
0
  5
163130
331
0
  5
163131
331
0
  5
163132
331
0
  5
163133
331
0
  5
163134
331
0
  5
163135
331
0
  5
163136
331
0
  5
163137
331
0
  5
163138
331
0
  5
163139
331
0
  5
16313A
331
0
  5
16313B
331
0
  5
16313C
331
0
  5
16313D
331
0
  5
16313E
331
0
  5
16313F
331
0
  5
163140
331
0
  5
163141
331
0
  5
163142
331
0
  5
163143
331
0
  5
163144
331
0
  5
163145
331
0
  5
163146
331
0
  5
163147
331
0
  5
163148
331
0
  5
163149
331
0
  5
16314A
331
0
  5
16314B
331
0
  5
16314C
331
0
  5
16314D
331
0
  5
16314E
331
0
  5
16314F
331
0
  5
163150
331
0
  5
163151
331
0
  5
163152
331
0
  5
163153
331
0
  5
163154
331
0
  5
163155
331
0
  5
163156
331
0
  5
163157
331
0
  5
163158
331
0
  5
163159
331
0
  5
16315A
331
0
  5
16315B
331
0
  5
16315C
331
0
  5
16315D
331
0
  5
16315E
331
0
  5
16315F
331
0
  5
163160
331
0
  5
163161
331
0
  5
163162
331
0
  5
163163
331
0
  5
163164
331
0
  5
163165
331
0
  5
163166
331
0
  5
163167
331
0
  5
163168
331
0
  5
163169
331
0
  5
16316A
331
0
  5
16316B
331
0
  5
16316C
331
0
  5
16316D
331
0
  5
16316E
331
0
  5
16316F
331
0
  5
163170
331
0
  5
163171
331
0
  5
163172
331
0
  5
163173
331
0
  5
163174
331
0
  5
163175
331
0
  5
163176
331
0
  5
163177
331
0
  5
163178
331
0
  5
163179
331
0
  5
16317A
331
0
  5
16317B
331
0
  5
16317C
331
0
  5
16317D
331
0
  5
16317E
331
0
  5
16317F
331
0
  5
163180
331
0
  5
163181
331
0
  5
163182
331
0
  5
163183
331
0
  5
163184
331
0
  5
163185
331
0
  5
163186
331
0
  5
163187
331
0
  5
163188
331
0
  5
163189
331
0
  5
16318A
331
0
  5
16318B
331
0
  5
16318C
331
0
  5
16318D
331
0
  5
16318E
331
0
  5
16318F
331
0
  5
163190
331
0
  5
163191
331
0
  5
163192
331
0
  5
163193
331
0
  5
163194
331
0
  5
163195
331
0
  5
163196
331
0
  5
163197
331
0
  5
163198
331
0
  5
163199
331
0
  5
16319A
331
0
  5
16319B
331
0
  5
16319C
331
0
  5
16319D
331
0
  5
16319E
331
0
  5
16319F
331
0
  5
1631A0
331
0
  5
1631A1
331
0
  5
1631A2
331
0
  5
1631A3
331
0
  5
1631A4
331
0
  5
1631A5
331
0
  5
1631A6
331
0
  5
1631A7
331
0
  5
1631A8
331
0
  5
1631A9
331
0
  5
1631AA
331
0
  5
1631AB
331
0
  5
1631AC
331
0
  5
1631AD
331
0
  5
1631AE
331
0
  5
1631AF
331
0
  5
1631B0
331
0
  5
1631B1
331
0
  5
1631B2
331
0
  5
1631B3
331
0
  5
1631B4
331
0
  5
1631B5
331
0
  5
1631B6
331
0
  5
1631B7
331
0
  5
1631B8
331
0
  5
1631B9
331
0
  5
1631BA
331
0
  5
1631BB
331
0
  5
1631BC
331
0
  5
1631BD
331
0
  5
1631BE
331
0
  5
1631BF
331
0
  5
1631C0
331
0
  5
1631C1
331
0
  5
1631C2
331
0
  5
1631C3
331
0
  5
1631C4
331
0
  5
1631C5
331
0
  5
1631C6
331
0
  5
1631C7
331
0
  5
1631C8
331
0
  5
1631C9
331
0
  5
1631CA
331
0
  5
1631CB
331
0
  5
1631CC
331
0
  5
1631CD
331
0
  5
1631CE
331
0
  5
1631CF
331
0
  5
1631D0
331
0
  5
1631D1
331
0
  5
1631D2
331
0
  5
1631D3
331
0
  5
1631D4
331
0
  5
1631D5
331
0
  5
1631D6
331
0
  5
1631D7
331
0
  5
1631D8
331
0
  5
1631D9
331
0
  5
1631DA
331
0
  5
1631DB
331
0
  5
1631DC
331
0
  5
1631DD
331
0
  5
1631DE
331
0
  5
1631DF
331
0
  5
1631E0
331
0
  5
1631E1
331
0
  5
1631E2
331
0
  5
1631E3
331
0
  5
1631E4
331
0
  5
1631E5
331
0
  5
1631E6
331
0
  5
1631E7
331
0
  5
1631E8
331
0
  5
1631E9
331
0
  5
1631EA
331
0
  5
1631EB
331
0
  5
1631EC
331
0
  5
1631ED
331
0
  5
1631EE
331
0
  5
1631EF
331
0
  5
1631F0
331
0
  5
1631F1
331
0
  5
1631F2
331
0
  5
1631F3
331
0
  5
1631F4
331
0
  5
1631F5
331
0
  5
1631F6
331
0
  5
1631F7
331
0
  5
1631F8
331
0
  5
1631F9
331
0
  5
1631FA
331
0
  5
1631FB
331
0
  5
1631FC
331
0
  5
1631FD
331
0
  5
1631FE
331
0
  5
1631FF
331
0
  5
163200
331
0
  5
163201
331
0
  5
163202
331
0
  5
163203
331
0
  5
163204
331
0
  5
163205
331
0
  5
163206
331
0
  5
163207
331
0
  5
163208
331
0
  5
163209
331
0
  5
16320A
331
0
  5
16320B
331
0
  5
16320C
331
163204
  5
16320D
331
163205
  5
16320E
331
163206
  5
16320F
331
163207
  5
163210
331
163208
  5
163211
331
163209
  5
163212
331
16320A
  5
163213
331
0
  5
163214
331
0
  5
163215
331
16320D
  5
163216
331
16320E
  5
163224
331
0
  5
163225
331
0
  5
163226
331
0
  5
163227
331
163212
  5
163228
331
163213
  5
163229
331
163214
  5
16322A
331
0
  5
16322B
331
163216
  5
163230
331
0
  5
163231
331
0
  5
163232
331
0
  5
163233
331
163227
  5
163295
331
163228
  5
163296
331
163229
  5
163297
331
0
  5
163298
331
16322B
  5
163299
331
0
  5
16329A
331
0
  5
16329B
331
0
  5
16329C
331
0
  5
16329D
331
0
  5
16329E
331
0
  5
16329F
331
0
  5
1632A0
331
0
  5
1632A1
331
0
  5
1632A2
331
0
  5
1632A3
331
0
  5
1632A4
331
0
  5
1632A5
331
0
  5
1632A6
331
0
  5
1632A7
331
0
  5
1632A8
331
0
  5
1632A9
331
0
  5
1632AA
331
0
  5
1632AB
331
0
  5
1632AC
331
0
  5
1632AD
331
0
  5
1632AE
331
0
  5
1632AF
331
0
  5
1632B0
331
0
  5
1632B1
331
0
  5
1632B2
331
0
  5
1632B3
331
0
  5
1632B4
331
0
  5
1632B5
331
0
  5
1632B6
331
0
  5
1632B7
331
0
  5
1632B8
331
0
  5
1632B9
331
0
  5
1632BA
331
0
  5
1632BB
331
0
  5
1632BC
331
0
  5
1632BD
331
0
  5
1632BE
331
0
  5
1632BF
331
0
  5
1632C0
331
0
  5
1632C1
331
0
  5
1632C2
331
0
  5
1632C3
331
0
  5
1632C4
331
0
  5
1632C5
331
0
  5
1632C6
331
0
  5
1632C7
331
0
  5
1632C8
331
0
  5
1632C9
331
0
  5
1632CA
331
0
  5
1632CB
331
0
  5
1632CE
331
0
  5
163305
331
0
  5
163306
331
0
  5
163307
331
0
  5
163308
331
0
  5
163309
331
0
  5
16340D
331
0
  5
16340E
331
0
  5
16340F
331
0
  5
163411
331
0
  5
163412
331
0
  5
163413
331
0
  5
163414
331
0
  5
163415
331
0
  5
163416
331
0
  5
163417
331
0
  5
163418
331
0
  5
163419
331
0
  5
16341A
331
0
  5
16341B
331
0
  5
16341C
331
0
  5
16341D
331
0
  5
16341E
331
0
  5
16341F
331
0
  5
163420
331
0
  5
163421
331
0
  5
163422
331
0
  5
163423
331
0
  5
163424
331
0
  5
163425
331
0
  5
163426
331
0
  5
163427
331
0
  5
163428
331
0
  5
163429
331
0
  5
16342A
331
0
  5
16342B
331
0
  5
16342C
331
0
  5
16342D
331
0
  5
16342E
331
0
  5
16342F
331
0
  5
163430
331
0
  5
163431
331
0
  5
163432
331
0
  5
163433
331
0
  5
163434
331
0
  5
163435
331
0
  5
163436
331
0
  5
163437
331
0
  5
163438
331
0
  5
163439
331
0
  5
16343A
331
0
  5
16343B
331
0
  5
16343C
331
0
  5
16343D
331
0
  5
16343E
331
0
  5
16343F
331
0
  5
163440
331
0
  5
163441
331
0
  5
163442
331
0
  5
163443
331
0
  5
163444
331
0
  5
163445
331
0
  5
163446
331
0
  5
163447
331
0
  5
163448
331
0
  5
163449
331
0
  5
16344A
331
0
  5
16344B
331
0
  5
16344C
331
0
  5
16344D
331
0
  5
16344E
331
0
  5
16344F
331
0
  5
163450
331
0
  5
163451
331
0
  5
163452
331
0
  5
163453
331
0
  5
163454
331
0
  5
163457
331
0
  5
163458
331
0
  5
163459
331
0
  5
16345A
331
0
  5
16345B
331
0
  5
1636E9
331
0
  5
1636EA
331
0
  5
1636EB
331
0
  5
1636EC
331
0
  5
1636ED
331
0
  5
1636F6
331
0
  5
1636F7
331
0
  5
1636F8
331
0
  5
1636F9
331
0
  5
1636FA
331
0
  5
1636FB
331
0
  5
1636FC
331
0
  5
1636FD
331
0
  5
1636FE
331
0
  5
1636FF
331
0
  5
163700
331
0
  5
163701
331
0
  5
163702
331
0
  5
163703
331
0
  5
163713
331
0
  5
163714
331
0
  5
163715
331
0
  5
163716
331
0
  5
163717
331
0
  5
163718
331
0
  5
163719
331
0
  5
1638B1
331
0
  5
1638B2
331
0
  5
1638B3
331
0
  5
1638B4
331
0
  5
1638B5
331
0
  5
1638B6
331
0
  5
1638B7
331
0
  5
1638B8
331
0
  5
1638B9
331
0
  5
162C7B
331
0
  5
162C77
331
0
  5
162C74
331
0
  5
162C80
331
0
  5
162C81
331
0
  5
162C75
331
0
  5
162C78
331
0
  5
162C7C
331
0
  5
1638BA
331
0
  5
1638BC
331
0
  5
1638BD
331
0
  5
1638C1
331
0
  5
1638C2
331
0
  5
1638FE
331
0
  5
163914
331
0
  5
162C73
331
0
  5
163925
331
0
  5
163926
331
0
  5
163929
331
0
  5
16392C
331
0
  5
16392F
331
0
  5
16392D
331
0
  5
16392A
331
0
  5
163930
  0
LAYOUT
  5
619
102
{ACAD_REACTORS
330
617
102
}
330
617
100
AcDbPlotSettings
  1

  2
JUST PDF 2
  4
A4
  6

 40
3.174999952316284
 41
3.174999952316284
 42
3.175003051757812
 43
3.17498779296875
 44
209.8886566162109
 45
297.0530090332031
 46
14.27171755861507
 47
9.855173074625498
 48
1200.0
 49
0.0
140
1724.98565548472
141
812.9780254160014
142
1.0
143
3.0
 70
  3748
 72
     1
 73
     0
 74
     4
  7
spax form.ctb
 75
     0
147
0.5299230094000793
148
-1200.0
149
0.0
100
AcDbLayout
  1
Model
 70
     1
 71
     0
 10
0.0
 20
0.0
 11
12.0
 21
9.0
 12
0.0
 22
0.0
 32
0.0
 14
147.8698649662529
 24
-287.5533436791841
 34
0.0
 15
1710.471609883355
 25
755.4643477349728
 35
0.0
146
0.0
 13
0.0
 23
0.0
 33
0.0
 16
1.0
 26
0.0
 36
0.0
 17
0.0
 27
1.0
 37
0.0
 76
     0
330
18
331
A0C
1001
ACAD_PSEXT
1000
JUST PDF 2
1000
JUST PDF 2
1000
JUST PDF 2 Port:
1000

1070
     0
  0
LAYOUT
  5
61A
102
{ACAD_REACTORS
330
617
102
}
330
617
100
AcDbPlotSettings
  1

  2
Canon LASER SHOT LBP-750
  4

  6

 40
0.0
 41
0.0
 42
0.0
 43
0.0
 44
0.0
 45
0.0
 46
0.0
 47
0.0
 48
0.0
 49
0.0
140
0.0
141
0.0
142
1.0
143
1.0
 70
   688
 72
     0
 73
     0
 74
     5
  7
spax form.ctb
 75
    16
147
1.0
148
0.0
149
0.0
100
AcDbLayout
  1
ﾚｲｱｳﾄ1
 70
     0
 71
     1
 10
0.0
 20
0.0
 11
12.0
 21
9.0
 12
0.0
 22
0.0
 32
0.0
 14
1.000000000000000E+20
 24
1.000000000000000E+20
 34
1.000000000000000E+20
 15
-1.000000000000000E+20
 25
-1.000000000000000E+20
 35
-1.000000000000000E+20
146
0.0
 13
0.0
 23
0.0
 33
0.0
 16
1.0
 26
0.0
 36
0.0
 17
0.0
 27
1.0
 37
0.0
 76
     0
330
15
  0
MLINESTYLE
  5
1B
102
{ACAD_REACTORS
330
E
102
}
330
E
100
AcDbMlineStyle
  2
STANDARD
 70
     0
  3

 62
     0
 51
90.0
 52
90.0
 71
     2
 49
0.5
 62
   256
  6
BYLAYER
 49
-0.5
 62
   256
  6
BYLAYER
  0
ACDBPLACEHOLDER
  5
616
102
{ACAD_REACTORS
330
615
102
}
330
615
  0
SCALE
  5
A37
102
{ACAD_REACTORS
330
A36
102
}
330
A36
100
AcDbScale
 70
     0
300
1:1
140
1.0
141
1.0
290
     1
  0
SCALE
  5
A38
102
{ACAD_REACTORS
330
A36
102
}
330
A36
100
AcDbScale
 70
     0
300
1:2
140
1.0
141
2.0
290
     0
  0
SCALE
  5
A39
102
{ACAD_REACTORS
330
A36
102
}
330
A36
100
AcDbScale
 70
     0
300
1:4
140
1.0
141
4.0
290
     0
  0
SCALE
  5
A3A
102
{ACAD_REACTORS
330
A36
102
}
330
A36
100
AcDbScale
 70
     0
300
1:5
140
1.0
141
5.0
290
     0
  0
SCALE
  5
A3B
102
{ACAD_REACTORS
330
A36
102
}
330
A36
100
AcDbScale
 70
     0
300
1:8
140
1.0
141
8.0
290
     0
  0
SCALE
  5
A3C
102
{ACAD_REACTORS
330
A36
102
}
330
A36
100
AcDbScale
 70
     0
300
1:10
140
1.0
141
10.0
290
     0
  0
SCALE
  5
A3D
102
{ACAD_REACTORS
330
A36
102
}
330
A36
100
AcDbScale
 70
     0
300
1:16
140
1.0
141
16.0
290
     0
  0
SCALE
  5
A3E
102
{ACAD_REACTORS
330
A36
102
}
330
A36
100
AcDbScale
 70
     0
300
1:20
140
1.0
141
20.0
290
     0
  0
SCALE
  5
A3F
102
{ACAD_REACTORS
330
A36
102
}
330
A36
100
AcDbScale
 70
     0
300
1:30
140
1.0
141
30.0
290
     0
  0
SCALE
  5
A40
102
{ACAD_REACTORS
330
A36
102
}
330
A36
100
AcDbScale
 70
     0
300
1:40
140
1.0
141
40.0
290
     0
  0
SCALE
  5
A41
102
{ACAD_REACTORS
330
A36
102
}
330
A36
100
AcDbScale
 70
     0
300
1:50
140
1.0
141
50.0
290
     0
  0
SCALE
  5
A42
102
{ACAD_REACTORS
330
A36
102
}
330
A36
100
AcDbScale
 70
     0
300
1:100
140
1.0
141
100.0
290
     0
  0
SCALE
  5
A43
102
{ACAD_REACTORS
330
A36
102
}
330
A36
100
AcDbScale
 70
     0
300
2:1
140
2.0
141
1.0
290
     0
  0
SCALE
  5
A44
102
{ACAD_REACTORS
330
A36
102
}
330
A36
100
AcDbScale
 70
     0
300
4:1
140
4.0
141
1.0
290
     0
  0
SCALE
  5
A45
102
{ACAD_REACTORS
330
A36
102
}
330
A36
100
AcDbScale
 70
     0
300
8:1
140
8.0
141
1.0
290
     0
  0
SCALE
  5
A46
102
{ACAD_REACTORS
330
A36
102
}
330
A36
100
AcDbScale
 70
     0
300
10:1
140
10.0
141
1.0
290
     0
  0
SCALE
  5
A47
102
{ACAD_REACTORS
330
A36
102
}
330
A36
100
AcDbScale
 70
     0
300
100:1
140
100.0
141
1.0
290
     0
  0
SCALE
  5
A48
102
{ACAD_REACTORS
330
A36
102
}
330
A36
100
AcDbScale
 70
     0
300
1/128" = 1'-0"
140
0.0078125
141
12.0
290
     0
  0
SCALE
  5
A49
102
{ACAD_REACTORS
330
A36
102
}
330
A36
100
AcDbScale
 70
     0
300
1/64" = 1'-0"
140
0.015625
141
12.0
290
     0
  0
SCALE
  5
A4A
102
{ACAD_REACTORS
330
A36
102
}
330
A36
100
AcDbScale
 70
     0
300
1/32" = 1'-0"
140
0.03125
141
12.0
290
     0
  0
SCALE
  5
A4B
102
{ACAD_REACTORS
330
A36
102
}
330
A36
100
AcDbScale
 70
     0
300
1/16" = 1'-0"
140
0.0625
141
12.0
290
     0
  0
SCALE
  5
A4C
102
{ACAD_REACTORS
330
A36
102
}
330
A36
100
AcDbScale
 70
     0
300
3/32" = 1'-0"
140
0.09375
141
12.0
290
     0
  0
SCALE
  5
A4D
102
{ACAD_REACTORS
330
A36
102
}
330
A36
100
AcDbScale
 70
     0
300
1/8" = 1'-0"
140
0.125
141
12.0
290
     0
  0
SCALE
  5
A4E
102
{ACAD_REACTORS
330
A36
102
}
330
A36
100
AcDbScale
 70
     0
300
3/16" = 1'-0"
140
0.1875
141
12.0
290
     0
  0
SCALE
  5
A4F
102
{ACAD_REACTORS
330
A36
102
}
330
A36
100
AcDbScale
 70
     0
300
1/4" = 1'-0"
140
0.25
141
12.0
290
     0
  0
SCALE
  5
A50
102
{ACAD_REACTORS
330
A36
102
}
330
A36
100
AcDbScale
 70
     0
300
3/8" = 1'-0"
140
0.375
141
12.0
290
     0
  0
SCALE
  5
A51
102
{ACAD_REACTORS
330
A36
102
}
330
A36
100
AcDbScale
 70
     0
300
1/2" = 1'-0"
140
0.5
141
12.0
290
     0
  0
SCALE
  5
A52
102
{ACAD_REACTORS
330
A36
102
}
330
A36
100
AcDbScale
 70
     0
300
3/4" = 1'-0"
140
0.75
141
12.0
290
     0
  0
SCALE
  5
A53
102
{ACAD_REACTORS
330
A36
102
}
330
A36
100
AcDbScale
 70
     0
300
1" = 1'-0"
140
1.0
141
12.0
290
     0
  0
SCALE
  5
A54
102
{ACAD_REACTORS
330
A36
102
}
330
A36
100
AcDbScale
 70
     0
300
1-1/2" = 1'-0"
140
1.5
141
12.0
290
     0
  0
SCALE
  5
A55
102
{ACAD_REACTORS
330
A36
102
}
330
A36
100
AcDbScale
 70
     0
300
3" = 1'-0"
140
3.0
141
12.0
290
     0
  0
SCALE
  5
A56
102
{ACAD_REACTORS
330
A36
102
}
330
A36
100
AcDbScale
 70
     0
300
6" = 1'-0"
140
6.0
141
12.0
290
     0
  0
SCALE
  5
A57
102
{ACAD_REACTORS
330
A36
102
}
330
A36
100
AcDbScale
 70
     0
300
1'-0" = 1'-0"
140
12.0
141
12.0
290
     0
  0
DICTIONARYVAR
  5
6DF
102
{ACAD_REACTORS
330
6DE
102
}
330
6DE
100
DictionaryVariables
280
     0
  1
1
  0
DICTIONARYVAR
  5
A93
102
{ACAD_REACTORS
330
6DE
102
}
330
6DE
100
DictionaryVariables
280
     0
  1
0
  0
DICTIONARYVAR
  5
6E0
102
{ACAD_REACTORS
330
6DE
102
}
330
6DE
100
DictionaryVariables
280
     0
  1

  0
DICTIONARYVAR
  5
A92
102
{ACAD_REACTORS
330
6DE
102
}
330
6DE
100
DictionaryVariables
280
     0
  1
127
  0
ENDSEC
  0
EOF
