  0
SECTION
  2
HEADER
  9
$ACADVER
  1
AC1015
  9
$ACADMAINTVER
 70
     6
  9
$DWGCODEPAGE
  3
ANSI_932
  9
$INSBASE
 10
0.0
 20
0.0
 30
0.0
  9
$EXTMIN
 10
147.8698649662529
 20
-230.4951803702289
 30
-0.0000000000000142
  9
$EXTMAX
 10
1330.049150224307
 20
755.4643477349723
 30
0.0000000000000271
  9
$LIMMIN
 10
0.0
 20
0.0
  9
$LIMMAX
 10
420.0
 20
297.0
  9
$ORTHOMODE
 70
     0
  9
$REGENMODE
 70
     1
  9
$FILLMODE
 70
     1
  9
$QTEXTMODE
 70
     0
  9
$MIRRTEXT
 70
     1
  9
$LTSCALE
 40
5.0
  9
$ATTMODE
 70
     0
  9
$TEXTSIZE
 40
53.44730959687513
  9
$TRACEWID
 40
1.0
  9
$TEXTSTYLE
  7
STANDARD
  9
$CLAYER
  8
寸法線
  9
$CELTYPE
  6
BYLAYER
  9
$CECOLOR
 62
   256
  9
$CELTSCALE
 40
1.0
  9
$DISPSILH
 70
     0
  9
$DIMSCALE
 40
1.0
  9
$DIMASZ
 40
2.5
  9
$DIMEXO
 40
1.5
  9
$DIMDLI
 40
0.38
  9
$DIMRND
 40
0.0
  9
$DIMDLE
 40
0.0
  9
$DIMEXE
 40
1.0
  9
$DIMTP
 40
0.0
  9
$DIMTM
 40
0.0
  9
$DIMTXT
 40
2.500000000000003
  9
$DIMCEN
 40
0.0
  9
$DIMTSZ
 40
0.0
  9
$DIMTOL
 70
     0
  9
$DIMLIM
 70
     0
  9
$DIMTIH
 70
     0
  9
$DIMTOH
 70
     0
  9
$DIMSE1
 70
     0
  9
$DIMSE2
 70
     0
  9
$DIMTAD
 70
     3
  9
$DIMZIN
 70
     8
  9
$DIMBLK
  1

  9
$DIMASO
 70
     1
  9
$DIMSHO
 70
     0
  9
$DIMPOST
  1

  9
$DIMAPOST
  1

  9
$DIMALT
 70
     0
  9
$DIMALTD
 70
     0
  9
$DIMALTF
 40
25.4
  9
$DIMLFAC
 40
1.0
  9
$DIMTOFL
 70
     1
  9
$DIMTVP
 40
0.0
  9
$DIMTIX
 70
     0
  9
$DIMSOXD
 70
     0
  9
$DIMSAH
 70
     1
  9
$DIMBLK1
  1
OPEN
  9
$DIMBLK2
  1
OPEN
  9
$DIMSTYLE
  2
STANDARD
  9
$DIMCLRD
 70
     8
  9
$DIMCLRE
 70
     8
  9
$DIMCLRT
 70
   256
  9
$DIMTFAC
 40
1.0
  9
$DIMGAP
 40
1.0
  9
$DIMJUST
 70
     0
  9
$DIMSD1
 70
     0
  9
$DIMSD2
 70
     0
  9
$DIMTOLJ
 70
     1
  9
$DIMTZIN
 70
     0
  9
$DIMALTZ
 70
     0
  9
$DIMALTTZ
 70
     0
  9
$DIMUPT
 70
     0
  9
$DIMDEC
 70
     2
  9
$DIMTDEC
 70
     2
  9
$DIMALTU
 70
     2
  9
$DIMALTTD
 70
     0
  9
$DIMTXSTY
  7
STANDARD
  9
$DIMAUNIT
 70
     0
  9
$DIMADEC
 70
     2
  9
$DIMALTRND
 40
0.0
  9
$DIMAZIN
 70
     2
  9
$DIMDSEP
 70
    46
  9
$DIMATFIT
 70
     1
  9
$DIMFRAC
 70
     0
  9
$DIMLDRBLK
  1
OPEN
  9
$DIMLUNIT
 70
     2
  9
$DIMLWD
 70
    -2
  9
$DIMLWE
 70
    -2
  9
$DIMTMOVE
 70
     0
  9
$LUNITS
 70
     2
  9
$LUPREC
 70
     2
  9
$SKETCHINC
 40
0.1
  9
$FILLETRAD
 40
0.33
  9
$AUNITS
 70
     0
  9
$AUPREC
 70
     1
  9
$MENU
  1
FM
  9
$ELEVATION
 40
0.0
  9
$PELEVATION
 40
0.0
  9
$THICKNESS
 40
0.0
  9
$LIMCHECK
 70
     0
  9
$CHAMFERA
 40
0.0
  9
$CHAMFERB
 40
0.0
  9
$CHAMFERC
 40
0.0
  9
$CHAMFERD
 40
0.0
  9
$SKPOLY
 70
     0
  9
$TDCREATE
 40
2448636.619629629
  9
$TDUCREATE
 40
2448636.244629629
  9
$TDUPDATE
 40
2456822.633757847
  9
$TDUUPDATE
 40
2456822.258757847
  9
$TDINDWG
 40
49.2110510764
  9
$TDUSRTIMER
 40
2456822.258268368
  9
$USRTIMER
 70
     1
  9
$ANGBASE
 50
0.0
  9
$ANGDIR
 70
     0
  9
$PDMODE
 70
     3
  9
$PDSIZE
 40
0.0
  9
$PLINEWID
 40
0.0
  9
$SPLFRAME
 70
     0
  9
$SPLINETYPE
 70
     6
  9
$SPLINESEGS
 70
     8
  9
$HANDSEED
  5
13B6BC
  9
$SURFTAB1
 70
     6
  9
$SURFTAB2
 70
     6
  9
$SURFTYPE
 70
     6
  9
$SURFU
 70
     6
  9
$SURFV
 70
     6
  9
$UCSBASE
  2

  9
$UCSNAME
  2

  9
$UCSORG
 10
0.0
 20
0.0
 30
0.0
  9
$UCSXDIR
 10
1.0
 20
0.0
 30
0.0
  9
$UCSYDIR
 10
0.0
 20
1.0
 30
0.0
  9
$UCSORTHOREF
  2

  9
$UCSORTHOVIEW
 70
     0
  9
$UCSORGTOP
 10
0.0
 20
0.0
 30
0.0
  9
$UCSORGBOTTOM
 10
0.0
 20
0.0
 30
0.0
  9
$UCSORGLEFT
 10
0.0
 20
0.0
 30
0.0
  9
$UCSORGRIGHT
 10
0.0
 20
0.0
 30
0.0
  9
$UCSORGFRONT
 10
0.0
 20
0.0
 30
0.0
  9
$UCSORGBACK
 10
0.0
 20
0.0
 30
0.0
  9
$PUCSBASE
  2

  9
$PUCSNAME
  2

  9
$PUCSORG
 10
0.0
 20
0.0
 30
0.0
  9
$PUCSXDIR
 10
1.0
 20
0.0
 30
0.0
  9
$PUCSYDIR
 10
0.0
 20
1.0
 30
0.0
  9
$PUCSORTHOREF
  2

  9
$PUCSORTHOVIEW
 70
     0
  9
$PUCSORGTOP
 10
0.0
 20
0.0
 30
0.0
  9
$PUCSORGBOTTOM
 10
0.0
 20
0.0
 30
0.0
  9
$PUCSORGLEFT
 10
0.0
 20
0.0
 30
0.0
  9
$PUCSORGRIGHT
 10
0.0
 20
0.0
 30
0.0
  9
$PUCSORGFRONT
 10
0.0
 20
0.0
 30
0.0
  9
$PUCSORGBACK
 10
0.0
 20
0.0
 30
0.0
  9
$USERI1
 70
     0
  9
$USERI2
 70
     0
  9
$USERI3
 70
     0
  9
$USERI4
 70
     0
  9
$USERI5
 70
     0
  9
$USERR1
 40
0.0
  9
$USERR2
 40
0.0
  9
$USERR3
 40
0.0
  9
$USERR4
 40
0.0
  9
$USERR5
 40
0.0
  9
$WORLDVIEW
 70
     0
  9
$SHADEDGE
 70
     3
  9
$SHADEDIF
 70
    70
  9
$TILEMODE
 70
     1
  9
$MAXACTVP
 70
    16
  9
$PINSBASE
 10
0.0
 20
0.0
 30
0.0
  9
$PLIMCHECK
 70
     0
  9
$PEXTMIN
 10
1.000000000000000E+20
 20
1.000000000000000E+20
 30
1.000000000000000E+20
  9
$PEXTMAX
 10
-1.000000000000000E+20
 20
-1.000000000000000E+20
 30
-1.000000000000000E+20
  9
$PLIMMIN
 10
0.0
 20
0.0
  9
$PLIMMAX
 10
0.0
 20
0.0
  9
$UNITMODE
 70
     0
  9
$VISRETAIN
 70
     0
  9
$PLINEGEN
 70
     0
  9
$PSLTSCALE
 70
     0
  9
$TREEDEPTH
 70
  3020
  9
$CMLSTYLE
  2
STANDARD
  9
$CMLJUST
 70
     0
  9
$CMLSCALE
 40
1.0
  9
$PROXYGRAPHICS
 70
     1
  9
$MEASUREMENT
 70
     0
  9
$CELWEIGHT
370
    -1
  9
$ENDCAPS
280
     0
  9
$JOINSTYLE
280
     0
  9
$LWDISPLAY
290
     0
  9
$INSUNITS
 70
     0
  9
$HYPERLINKBASE
  1

  9
$STYLESHEET
  1
spax form.ctb
  9
$XEDIT
290
     1
  9
$CEPSNTYPE
380
     0
  9
$PSTYLEMODE
290
     1
  9
$FINGERPRINTGUID
  2
{BBAEEBA6-8B94-11D3-9160-00E0294F7E09}
  9
$VERSIONGUID
  2
{5D65D112-C11D-426F-8C7F-52B1E2EE8E3F}
  9
$EXTNAMES
290
     1
  9
$PSVPSCALE
 40
0.0
  9
$OLESTARTUP
290
     0
  0
ENDSEC
  0
SECTION
  2
CLASSES
  0
CLASS
  1
LWPOLYLINE
  2
AcDbPolyline
  3
ObjectDBX Classes
 90
        0
280
     0
281
     1
  0
CLASS
  1
ACDBDICTIONARYWDFLT
  2
AcDbDictionaryWithDefault
  3
ObjectDBX Classes
 90
        0
280
     0
281
     0
  0
CLASS
  1
ACDBPLACEHOLDER
  2
AcDbPlaceHolder
  3
ObjectDBX Classes
 90
        0
280
     0
281
     0
  0
CLASS
  1
LAYOUT
  2
AcDbLayout
  3
ObjectDBX Classes
 90
        0
280
     0
281
     0
  0
CLASS
  1
DICTIONARYVAR
  2
AcDbDictionaryVar
  3
ObjectDBX Classes
 90
        0
280
     0
281
     0
  0
CLASS
  1
MATERIAL
  2
AcDbMaterial
  3
ObjectDBX Classes
 90
     1153
280
     0
281
     0
  0
CLASS
  1
VISUALSTYLE
  2
AcDbVisualStyle
  3
ObjectDBX Classes
 90
     4095
280
     0
281
     0
  0
CLASS
  1
TABLESTYLE
  2
AcDbTableStyle
  3
ObjectDBX Classes
 90
     4095
280
     0
281
     0
  0
CLASS
  1
SCALE
  2
AcDbScale
  3
ObjectDBX Classes
 90
     1153
280
     0
281
     0
  0
CLASS
  1
MLEADERSTYLE
  2
AcDbMLeaderStyle
  3
ACDB_MLEADERSTYLE_CLASS
 90
     4095
280
     0
281
     0
  0
CLASS
  1
CELLSTYLEMAP
  2
AcDbCellStyleMap
  3
ObjectDBX Classes
 90
     1152
280
     0
281
     0
  0
CLASS
  1
SORTENTSTABLE
  2
AcDbSortentsTable
  3
ObjectDBX Classes
 90
        0
280
     0
281
     0
  0
CLASS
  1
MULTILEADER
  2
AcDbMLeader
  3
ACDB_MLEADER_CLASS
 90
     1025
280
     0
281
     1
  0
CLASS
  1
DIMASSOC
  2
AcDbDimAssoc
  3
"AcDbDimAssoc|Product Desc:     AcDim ARX App For Dimension|Company:          Autodesk, Inc.|WEB Address:      www.autodesk.com"
 90
        0
280
     0
281
     0
  0
CLASS
  1
SUN
  2
AcDbSun
  3
SCENEOE
 90
     1153
280
     0
281
     0
  0
CLASS
  1
RASTERVARIABLES
  2
AcDbRasterVariables
  3
ISM
 90
        0
280
     0
281
     0
  0
ENDSEC
  0
SECTION
  2
TABLES
  0
TABLE
  2
VPORT
  5
8
330
0
100
AcDbSymbolTable
 70
     1
  0
VPORT
  5
A0C
330
8
100
AcDbSymbolTableRecord
100
AcDbViewportTableRecord
  2
*Active
 70
     0
 10
0.0
 20
0.0
 11
1.0
 21
1.0
 12
1309.387372906018
 22
-196.9290342336418
 13
0.0
 23
0.0
 14
1.0
 24
1.0
 15
20.0
 25
20.0
 16
0.0
 26
0.0
 36
1.0
 17
0.0
 27
0.0
 37
0.0
 40
263.6326420263221
 41
2.027568922305764
 42
50.0
 43
0.0
 44
0.0
 50
0.0
 51
0.0
 71
    16
 72
   100
 73
     1
 74
     0
 75
     0
 76
     0
 77
     0
 78
     0
281
     0
 65
     1
110
0.0
120
0.0
130
0.0
111
1.0
121
0.0
131
0.0
112
0.0
122
1.0
132
0.0
 79
     0
146
0.0
  0
ENDTAB
  0
TABLE
  2
LTYPE
  5
5
330
0
100
AcDbSymbolTable
 70
     5
  0
LTYPE
  5
12
330
5
100
AcDbSymbolTableRecord
100
AcDbLinetypeTableRecord
  2
BYBLOCK
 70
     0
  3

 72
    65
 73
     0
 40
0.0
  0
LTYPE
  5
13
330
5
100
AcDbSymbolTableRecord
100
AcDbLinetypeTableRecord
  2
BYLAYER
 70
     0
  3

 72
    65
 73
     0
 40
0.0
  0
LTYPE
  5
14
330
5
100
AcDbSymbolTableRecord
100
AcDbLinetypeTableRecord
  2
CONTINUOUS
 70
     0
  3
Solid line
 72
    65
 73
     0
 40
0.0
  0
LTYPE
  5
26
330
5
100
AcDbSymbolTableRecord
100
AcDbLinetypeTableRecord
  2
PHANTOM
 70
     0
  3
_____ _ _ _____ _ _ _____ _ _ _____ _ _ ____
 72
    65
 73
     6
 40
2.5
 49
1.25
 74
     0
 49
-0.25
 74
     0
 49
0.25
 74
     0
 49
-0.25
 74
     0
 49
0.25
 74
     0
 49
-0.25
 74
     0
  0
LTYPE
  5
27
330
5
100
AcDbSymbolTableRecord
100
AcDbLinetypeTableRecord
  2
HIDDEN
 70
     0
  3
_ _ _ _ _ _ _ _ _ _ _ _ _ _ _ _ _ _ _ _ _ _ _
 72
    65
 73
     2
 40
0.375
 49
0.25
 74
     0
 49
-0.125
 74
     0
  0
LTYPE
  5
514
330
5
100
AcDbSymbolTableRecord
100
AcDbLinetypeTableRecord
  2
CENTER
 70
     0
  3
Center ____ _ ____ _ ____ _ ____ _ ____ _ ____
 72
    65
 73
     4
 40
2.0
 49
1.25
 74
     0
 49
-0.25
 74
     0
 49
0.25
 74
     0
 49
-0.25
 74
     0
  0
ENDTAB
  0
TABLE
  2
LAYER
  5
2
102
{ACAD_XDICTIONARY
360
8BF
102
}
330
0
100
AcDbSymbolTable
 70
    19
  0
LAYER
  5
F
102
{ACAD_XDICTIONARY
360
A60
102
}
330
2
100
AcDbSymbolTableRecord
100
AcDbLayerTableRecord
  2
0
 70
     0
 62
     7
  6
CONTINUOUS
370
    -3
390
616
  0
LAYER
  5
34
102
{ACAD_XDICTIONARY
360
A66
102
}
330
2
100
AcDbSymbolTableRecord
100
AcDbLayerTableRecord
  2
寸法線
 70
     0
 62
     7
  6
CONTINUOUS
370
    -3
390
616
  0
LAYER
  5
36
330
2
100
AcDbSymbolTableRecord
100
AcDbLayerTableRecord
  2
DEFPOINTS
 70
     0
 62
    -7
  6
CONTINUOUS
290
     0
370
    -3
390
616
  0
LAYER
  5
2F4
102
{ACAD_XDICTIONARY
360
A6E
102
}
330
2
100
AcDbSymbolTableRecord
100
AcDbLayerTableRecord
  2
文字
 70
     0
 62
     7
  6
CONTINUOUS
370
    -3
390
616
  0
LAYER
  5
305
102
{ACAD_XDICTIONARY
360
A72
102
}
330
2
100
AcDbSymbolTableRecord
100
AcDbLayerTableRecord
  2
姿図
 70
     0
 62
     8
  6
CONTINUOUS
370
    -3
390
616
  0
LAYER
  5
9A507
330
2
100
AcDbSymbolTableRecord
100
AcDbLayerTableRecord
  2
下書き線
 70
     0
 62
    -3
  6
HIDDEN
290
     0
370
    -3
390
616
  0
ENDTAB
  0
TABLE
  2
STYLE
  5
3
330
0
100
AcDbSymbolTable
 70
     2
  0
STYLE
  5
10
330
3
100
AcDbSymbolTableRecord
100
AcDbTextStyleTableRecord
  2
STANDARD
 70
     0
 40
0.0
 41
1.0
 50
0.0
 71
     0
 42
53.44730959687513
  3
MONOTXT
  4
BIGFONT
  0
STYLE
  5
5B6F
330
3
100
AcDbSymbolTableRecord
100
AcDbTextStyleTableRecord
  2
EXTFONT
 70
     0
 40
2.5
 41
1.0
 50
0.0
 71
     0
 42
2.5
  3
txt.shx
  4
extfont
  0
ENDTAB
  0
TABLE
  2
VIEW
  5
6
330
0
100
AcDbSymbolTable
 70
     0
  0
ENDTAB
  0
TABLE
  2
UCS
  5
7
330
0
100
AcDbSymbolTable
 70
     0
  0
ENDTAB
  0
TABLE
  2
APPID
  5
9
330
0
100
AcDbSymbolTable
 70
    15
  0
APPID
  5
11
330
9
100
AcDbSymbolTableRecord
100
AcDbRegAppTableRecord
  2
ACAD
 70
     0
  0
APPID
  5
8BB
330
9
100
AcDbSymbolTableRecord
100
AcDbRegAppTableRecord
  2
ACAD_PSEXT
 70
     0
  0
APPID
  5
A5A
330
9
100
AcDbSymbolTableRecord
100
AcDbRegAppTableRecord
  2
ACAD_MLEADERVER
 70
     0
  0
APPID
  5
A5E
330
9
100
AcDbSymbolTableRecord
100
AcDbRegAppTableRecord
  2
ACAD_DSTYLE_DIMJAG
 70
     0
  0
APPID
  5
A5F
330
9
100
AcDbSymbolTableRecord
100
AcDbRegAppTableRecord
  2
ACAD_DSTYLE_DIMTALN
 70
     0
  0
APPID
  5
12C0
330
9
100
AcDbSymbolTableRecord
100
AcDbRegAppTableRecord
  2
ACAD_EXEMPT_FROM_CAD_STANDARDS
 70
     0
  0
APPID
  5
1C50
330
9
100
AcDbSymbolTableRecord
100
AcDbRegAppTableRecord
  2
AcAecLayerStandard
 70
     0
  0
APPID
  5
5088
330
9
100
AcDbSymbolTableRecord
100
AcDbRegAppTableRecord
  2
ACAD_DSTYLE_DIMRADIAL_EXTENSION
 70
     0
  0
APPID
  5
14AF3
330
9
100
AcDbSymbolTableRecord
100
AcDbRegAppTableRecord
  2
WACOM_STRING
 70
     0
  0
APPID
  5
14AF4
330
9
100
AcDbSymbolTableRecord
100
AcDbRegAppTableRecord
  2
WACOM_DRSYM_ARROW
 70
     0
  0
APPID
  5
1E1A8
330
9
100
AcDbSymbolTableRecord
100
AcDbRegAppTableRecord
  2
GENIUS_GENODEF_13
 70
     0
  0
APPID
  5
1E1A9
330
9
100
AcDbSymbolTableRecord
100
AcDbRegAppTableRecord
  2
GENIUS_GENREC_14
 70
     0
  0
APPID
  5
1E1AA
330
9
100
AcDbSymbolTableRecord
100
AcDbRegAppTableRecord
  2
GENIUS_GENOBJ-N-REC_13
 70
     0
  0
APPID
  5
27C72
330
9
100
AcDbSymbolTableRecord
100
AcDbRegAppTableRecord
  2
ASK_MEN_XD
 70
     0
  0
APPID
  5
29316
330
9
100
AcDbSymbolTableRecord
100
AcDbRegAppTableRecord
  2
ACAD_DSTYLE_DIMBREAK
 70
     0
  0
ENDTAB
  0
TABLE
  2
DIMSTYLE
  5
A
330
0
100
AcDbSymbolTable
 70
     4
100
AcDbDimStyleTable
  0
DIMSTYLE
105
1CC
330
A
100
AcDbSymbolTableRecord
100
AcDbDimStyleTableRecord
  2
STANDARD
 70
     0
 41
2.5
 42
1.5
 44
1.0
 73
     0
 74
     0
 77
     3
 78
     8
 79
     2
140
2.500000000000003
141
0.0
147
1.0
171
     0
172
     1
173
     1
176
     8
177
     8
271
     2
178
   256
179
     2
271
     2
272
     2
274
     0
289
     1
340
10
341
608
343
608
344
608
1001
ACAD_DSTYLE_DIMJAG
1070
   388
1040
1.5
1001
ACAD_DSTYLE_DIMTALN
1070
   392
1070
     0
  0
ENDTAB
  0
TABLE
  2
BLOCK_RECORD
  5
1
330
0
100
AcDbSymbolTable
 70
    37
  0
BLOCK_RECORD
  5
18
102
{ACAD_XDICTIONARY
360
143F
102
}
330
1
100
AcDbSymbolTableRecord
100
AcDbBlockTableRecord
  2
*MODEL_SPACE
340
619
  0
BLOCK_RECORD
  5
15
330
1
100
AcDbSymbolTableRecord
100
AcDbBlockTableRecord
  2
*PAPER_SPACE
340
61A
  0
BLOCK_RECORD
  5
608
330
1
100
AcDbSymbolTableRecord
100
AcDbBlockTableRecord
  2
_OPEN
340
0
102
{BLKREFS
331
12FA53
331
12FA54
331
12FA5E
331
12FA5F
331
12FA67
331
12FA68
331
12FA70
331
12FA71
331
12FA7B
331
12FA7C
331
12FA86
331
12FA87
331
13383C
331
13383D
331
133847
331
133848
331
133850
331
133851
331
13385B
331
13385C
331
133864
331
133865
331
13386D
331
13386E
331
134D3E
331
134D3F
331
134D49
331
134D4A
331
134D52
331
134D53
331
134D5D
331
134D5E
331
134D68
331
134D69
331
134D71
331
134D72
331
138BF0
331
138BF1
331
138BF9
331
138BFA
331
138C04
331
138C05
331
138C0F
331
138C10
331
138C18
331
138C19
331
138C23
331
138C24
331
138C49
331
138C4A
331
138C57
331
138C58
331
138C2F
331
138C30
331
138C3D
331
138C3E
331
13B664
331
13B665
331
13B66F
331
13B670
331
13B678
331
13B679
331
13B683
331
13B684
102
}
  0
BLOCK_RECORD
  5
89D
330
1
100
AcDbSymbolTableRecord
100
AcDbBlockTableRecord
  2
SUN
340
0
  0
BLOCK_RECORD
  5
1F1F
330
1
100
AcDbSymbolTableRecord
100
AcDbBlockTableRecord
  2
_OPEN30
340
0
  0
ENDTAB
  0
ENDSEC
  0
SECTION
  2
BLOCKS
  0
BLOCK
  5
39
330
18
100
AcDbEntity
  8
0
100
AcDbBlockBegin
  2
*MODEL_SPACE
 70
     0
 10
0.0
 20
0.0
 30
0.0
  3
*MODEL_SPACE
  1
*MODEL_SPACE
  0
ENDBLK
  5
3A
330
18
100
AcDbEntity
  8
0
100
AcDbBlockEnd
  0
BLOCK
  5
37
330
15
100
AcDbEntity
 67
     1
  8
0
100
AcDbBlockBegin
  2
*PAPER_SPACE
 70
     0
 10
0.0
 20
0.0
 30
0.0
  3
*PAPER_SPACE
  1
*PAPER_SPACE
  0
ENDBLK
  5
38
330
15
100
AcDbEntity
 67
     1
  8
0
100
AcDbBlockEnd
  0
BLOCK
  5
609
330
608
100
AcDbEntity
  8
0
100
AcDbBlockBegin
  2
_OPEN
 70
     0
 10
0.0
 20
0.0
 30
0.0
  3
_OPEN
  1
_OPEN
  0
LINE
  5
60A
330
608
100
AcDbEntity
  8
0
  6
ByBlock
 62
     0
100
AcDbLine
 10
-1.0
 20
0.1666666666666667
 30
0.0
 11
0.0
 21
0.0
 31
0.0
  0
LINE
  5
60B
330
608
100
AcDbEntity
  8
0
  6
ByBlock
 62
     0
100
AcDbLine
 10
0.0
 20
0.0
 30
0.0
 11
-1.0
 21
-0.1666666666666667
 31
0.0
  0
LINE
  5
60C
330
608
100
AcDbEntity
  8
0
  6
ByBlock
 62
     0
100
AcDbLine
 10
0.0
 20
0.0
 30
0.0
 11
-1.0
 21
0.0
 31
0.0
  0
ENDBLK
  5
60D
330
608
100
AcDbEntity
  8
0
100
AcDbBlockEnd
  0
BLOCK
  5
89E
330
89D
100
AcDbEntity
  8
0
100
AcDbBlockBegin
  2
SUN
 70
     0
 10
0.0
 20
0.0
 30
0.0
  3
SUN
  1
SUN
  0
LINE
  5
89F
330
89D
100
AcDbEntity
  8
0
100
AcDbLine
 10
-0.0000000000000568
 20
0.0
 30
0.0
 11
-1.500000000000057
 21
0.0
 31
0.0
  0
LINE
  5
8A0
330
89D
100
AcDbEntity
  8
0
100
AcDbLine
 10
-0.0000000000000568
 20
0.0000000000000284
 30
0.0
 11
-1.500000000000057
 21
0.401923788646684
 31
0.0
  0
LINE
  5
8A1
330
89D
100
AcDbEntity
  8
0
100
AcDbLine
 10
-0.0000000000000568
 20
0.0000000000000284
 30
0.0
 11
-1.500000000000057
 21
-0.4019237886466556
 31
0.0
  0
ENDBLK
  5
8A2
330
89D
100
AcDbEntity
  8
0
100
AcDbBlockEnd
  0
BLOCK
  5
1F20
330
1F1F
100
AcDbEntity
  8
0
100
AcDbBlockBegin
  2
_OPEN30
 70
     0
 10
0.0
 20
0.0
 30
0.0
  3
_OPEN30
  1
_OPEN30
  0
LINE
  5
1F21
330
1F1F
100
AcDbEntity
  8
0
  6
ByBlock
 62
     0
100
AcDbLine
 10
-1.0
 20
0.26794919
 30
0.0
 11
0.0
 21
0.0
 31
0.0
  0
LINE
  5
1F22
330
1F1F
100
AcDbEntity
  8
0
  6
ByBlock
 62
     0
100
AcDbLine
 10
0.0
 20
0.0
 30
0.0
 11
-1.0
 21
-0.26794919
 31
0.0
  0
LINE
  5
1F23
330
1F1F
100
AcDbEntity
  8
0
  6
ByBlock
 62
     0
100
AcDbLine
 10
0.0
 20
0.0
 30
0.0
 11
-1.0
 21
0.0
 31
0.0
  0
ENDBLK
  5
1F24
330
1F1F
100
AcDbEntity
  8
0
100
AcDbBlockEnd
  0
ENDSEC
  0
SECTION
  2
ENTITIES
  0
MTEXT
  5
D0CC6
330
18
100
AcDbEntity
  8
寸法線
100
AcDbMText
 10
2610.774875364868
 20
-2740.315466585338
 30
0.0
 40
2.500000000000003
 41
0.0
 71
     9
 72
     1
  1
\A1;
 73
     1
 44
1.0
  0
MTEXT
  5
F6D77
330
18
100
AcDbEntity
  8
文字
100
AcDbMText
 10
5821.057140836062
 20
-2842.341718131323
 30
0.0
 40
2.5
 41
64.39156592258223
 71
     1
 72
     5
  1
   
 73
     1
 44
1.0
  0
MTEXT
  5
F6D78
330
18
100
AcDbEntity
  8
寸法線
100
AcDbMText
 10
6222.662262480188
 20
-2968.738290481128
 30
0.0
 40
3.000000000000001
 41
0.0
 71
     7
 72
     1
  1
\A1;
 73
     1
 44
1.0
  0
LINE
  5
128DC8
330
18
100
AcDbEntity
  8
DEFPOINTS
  6
HIDDEN
 62
     3
100
AcDbLine
 10
347.4812423534704
 20
743.3137163629694
 30
0.0
 11
347.4812423534704
 21
633.9312813522397
 31
0.0
  0
LINE
  5
128DC9
330
18
100
AcDbEntity
  8
DEFPOINTS
  6
HIDDEN
 62
     3
100
AcDbLine
 10
347.4812423534704
 20
743.3137163629694
 30
0.0
 11
514.7720019353028
 21
743.3137163629685
 31
0.0
  0
LINE
  5
128DCA
330
18
100
AcDbEntity
  8
DEFPOINTS
  6
HIDDEN
 62
     3
100
AcDbLine
 10
347.4812423534704
 20
733.1013072226347
 30
0.0
 11
514.7720019353028
 21
733.1013072226347
 31
0.0
  0
LINE
  5
128DCB
330
18
100
AcDbEntity
  8
DEFPOINTS
  6
HIDDEN
 62
     3
100
AcDbLine
 10
347.4812423534704
 20
722.4496899483188
 30
0.0
 11
514.7720019353064
 21
722.4496899483179
 31
0.0
  0
LINE
  5
128DCC
330
18
100
AcDbEntity
  8
DEFPOINTS
  6
HIDDEN
 62
     3
100
AcDbLine
 10
347.687636775433
 20
696.8303093499358
 30
0.0
 11
514.7720019352973
 21
696.8303093499358
 31
0.0
  0
LINE
  5
128DCD
330
18
100
AcDbEntity
  8
DEFPOINTS
  6
HIDDEN
 62
     3
100
AcDbLine
 10
347.687636775433
 20
686.6179002095973
 30
0.0
 11
514.7720019353028
 21
686.6179002095973
 31
0.0
  0
LINE
  5
128DCE
330
18
100
AcDbEntity
  8
DEFPOINTS
  6
HIDDEN
 62
     3
100
AcDbLine
 10
347.687636775433
 20
675.966282935296
 30
0.0
 11
514.7720019352973
 21
675.966282935296
 31
0.0
  0
LINE
  5
128DD1
330
18
100
AcDbEntity
  8
DEFPOINTS
  6
HIDDEN
 62
     3
100
AcDbLine
 10
347.4812423534722
 20
711.798072674002
 30
0.0
 11
514.7720019353083
 21
711.7980726740011
 31
0.0
  0
LINE
  5
128DD2
330
18
100
AcDbEntity
  8
DEFPOINTS
  6
HIDDEN
 62
     3
100
AcDbLine
 10
347.6876367754385
 20
665.3146656609792
 30
0.0
 11
514.7720019353028
 21
665.3146656609802
 31
0.0
  0
LINE
  5
128DD3
330
18
100
AcDbEntity
  8
下書き線
100
AcDbLine
 10
147.8698649662529
 20
755.4643477349723
 30
0.0
 11
147.8698649662529
 21
630.2657565080976
 31
0.0
  0
LINE
  5
128DD4
330
18
100
AcDbEntity
  8
下書き線
100
AcDbLine
 10
154.8559427423806
 20
749.9657522330886
 30
0.0
 11
154.8559427423788
 21
627.2732612503655
 31
0.0
  0
LINE
  5
128DD5
330
18
100
AcDbEntity
  8
下書き線
100
AcDbLine
 10
147.8698649662529
 20
690.1157543705917
 30
0.0
 11
154.8559427423806
 21
690.115754370589
 31
0.0
  0
LINE
  5
128DD6
330
18
100
AcDbEntity
  8
下書き線
100
AcDbLine
 10
147.8698649662529
 20
700.0907540143412
 30
0.0
 11
154.8559427423806
 21
700.0907540143412
 31
0.0
  0
LINE
  5
128DD7
330
18
100
AcDbEntity
  8
下書き線
100
AcDbLine
 10
154.8559427423788
 20
707.0732584003531
 30
0.0
 11
220.0822683572651
 21
707.0732584003531
 31
0.0
  0
LINE
  5
128DD8
330
18
100
AcDbEntity
  8
下書き線
100
AcDbLine
 10
147.8698649662529
 20
710.0657536580961
 30
0.0
 11
154.8559427423806
 21
710.0657536580961
 31
0.0
  0
LINE
  5
128DD9
330
18
100
AcDbEntity
  8
下書き線
100
AcDbLine
 10
147.8698649662529
 20
720.0407533018456
 30
0.0
 11
154.8559427423806
 21
720.0407533018401
 31
0.0
  0
LINE
  5
128DDA
330
18
100
AcDbEntity
  8
下書き線
100
AcDbLine
 10
154.8559427423788
 20
717.0482580441053
 30
0.0
 11
220.0822683572651
 21
717.0482580441053
 31
0.0
  0
LINE
  5
128DDB
330
18
100
AcDbEntity
  8
下書き線
100
AcDbLine
 10
154.8559427423788
 20
717.0482580441053
 30
0.0
 11
220.0822683572651
 21
717.0482580441053
 31
0.0
  0
LINE
  5
128DDC
330
18
100
AcDbEntity
  8
下書き線
100
AcDbLine
 10
147.8698649662529
 20
720.0407533018456
 30
0.0
 11
154.8559427423806
 21
720.0407533018401
 31
0.0
  0
LINE
  5
128DDD
330
18
100
AcDbEntity
  8
下書き線
100
AcDbLine
 10
147.8698649662529
 20
730.0157529455951
 30
0.0
 11
154.8559427423806
 21
730.0157529455842
 31
0.0
  0
LINE
  5
128DDE
330
18
100
AcDbEntity
  8
下書き線
100
AcDbLine
 10
154.8559427423788
 20
727.0232576878548
 30
0.0
 11
220.0822683572651
 21
727.0232576878548
 31
0.0
  0
LINE
  5
128DDF
330
18
100
AcDbEntity
  8
下書き線
100
AcDbLine
 10
154.8559427423788
 20
736.998257331607
 30
0.0
 11
220.0822683572651
 21
736.998257331607
 31
0.0
  0
LINE
  5
128DE0
330
18
100
AcDbEntity
  8
下書き線
100
AcDbLine
 10
147.8698649662529
 20
739.9907525893445
 30
0.0
 11
154.8559427423806
 21
739.9907525893445
 31
0.0
  0
LINE
  5
128DE1
330
18
100
AcDbEntity
  8
下書き線
100
AcDbLine
 10
147.8698649662529
 20
749.965752233094
 30
0.0
 11
154.8559427423806
 21
749.9657522330886
 31
0.0
  0
LINE
  5
128DE2
330
18
100
AcDbEntity
  8
下書き線
100
AcDbLine
 10
154.8559427423788
 20
746.9732569753564
 30
0.0
 11
220.0822683572651
 21
746.9732569753564
 31
0.0
  0
LINE
  5
128DF3
330
18
100
AcDbEntity
  8
下書き線
100
AcDbLine
 10
147.8698649662529
 20
680.140754726845
 30
0.0
 11
154.8559427423806
 21
680.1407547268395
 31
0.0
  0
LINE
  5
128DF4
330
18
100
AcDbEntity
  8
下書き線
100
AcDbLine
 10
147.8698649662529
 20
670.1657550830955
 30
0.0
 11
154.8559427423806
 21
670.1657550830901
 31
0.0
  0
LINE
  5
128DF5
330
18
100
AcDbEntity
  8
下書き線
100
AcDbLine
 10
147.8698649662529
 20
660.190755439346
 30
0.0
 11
154.8559427423806
 21
660.1907554393406
 31
0.0
  0
LINE
  5
128DF6
330
18
100
AcDbEntity
  8
下書き線
100
AcDbLine
 10
202.1267971434445
 20
749.9657522330886
 30
0.0
 11
202.1267971434481
 21
627.2732612503628
 31
0.0
  0
LINE
  5
128DF7
330
18
100
AcDbEntity
  8
下書き線
100
AcDbLine
 10
154.8559427423788
 20
667.1732598253552
 30
0.0
 11
220.0822683572615
 21
667.1732598253552
 31
0.0
  0
LINE
  5
128DF8
330
18
100
AcDbEntity
  8
下書き線
100
AcDbLine
 10
147.8698649662529
 20
670.1657550830928
 30
0.0
 11
154.8559427423806
 21
670.1657550830873
 31
0.0
  0
LINE
  5
128DF9
330
18
100
AcDbEntity
  8
下書き線
100
AcDbLine
 10
147.8698649662529
 20
680.1407547268423
 30
0.0
 11
154.8559427423806
 21
680.1407547268395
 31
0.0
  0
LINE
  5
128DFA
330
18
100
AcDbEntity
  8
下書き線
100
AcDbLine
 10
154.8559427423788
 20
677.1482594691047
 30
0.0
 11
220.0822683572615
 21
677.1482594691047
 31
0.0
  0
LINE
  5
128DFB
330
18
100
AcDbEntity
  8
下書き線
100
AcDbLine
 10
154.8559427423788
 20
697.0982587566036
 30
0.0
 11
220.0822683572615
 21
697.0982587566036
 31
0.0
  0
LINE
  5
128DFC
330
18
100
AcDbEntity
  8
下書き線
100
AcDbLine
 10
147.8698649662529
 20
700.0907540143412
 30
0.0
 11
154.8559427423806
 21
700.0907540143412
 31
0.0
  0
LINE
  5
128E06
330
18
100
AcDbEntity
  8
下書き線
100
AcDbLine
 10
154.8559427423788
 20
647.2232605378563
 30
0.0
 11
220.0822683572615
 21
647.2232605378563
 31
0.0
  0
LINE
  5
128E07
330
18
100
AcDbEntity
  8
下書き線
100
AcDbLine
 10
147.8698649662529
 20
650.2157557955966
 30
0.0
 11
154.8559427423806
 21
650.2157557955911
 31
0.0
  0
LINE
  5
128E0B
330
18
100
AcDbEntity
  8
下書き線
100
AcDbLine
 10
154.8559427423788
 20
637.2482608941095
 30
0.0
 11
220.0822683572615
 21
637.2482608941095
 31
0.0
  0
LINE
  5
128E0F
330
18
100
AcDbEntity
  8
下書き線
100
AcDbLine
 10
154.8559427423788
 20
687.1232591128542
 30
0.0
 11
220.0822683572615
 21
687.1232591128542
 31
0.0
  0
LINE
  5
128E10
330
18
100
AcDbEntity
  8
下書き線
100
AcDbLine
 10
147.8698649662529
 20
690.1157543705917
 30
0.0
 11
154.8559427423806
 21
690.1157543705917
 31
0.0
  0
LINE
  5
128E14
330
18
100
AcDbEntity
  8
下書き線
100
AcDbLine
 10
147.8698649662529
 20
660.1907554393433
 30
0.0
 11
154.8559427423806
 21
660.1907554393379
 31
0.0
  0
LINE
  5
128E18
330
18
100
AcDbEntity
  8
下書き線
100
AcDbLine
 10
154.8559427423788
 20
657.198260181603
 30
0.0
 11
220.0822683572615
 21
657.198260181603
 31
0.0
  0
LINE
  5
128E19
330
18
100
AcDbEntity
  8
下書き線
100
AcDbLine
 10
147.8698649662529
 20
640.2407561518471
 30
0.0
 11
154.8559427423806
 21
640.2407561518444
 31
0.0
  0
LINE
  5
128E1C
330
18
100
AcDbEntity
  8
下書き線
100
AcDbLine
 10
154.8559427423788
 20
627.2732612503628
 30
0.0
 11
220.0822683572615
 21
627.2732612503628
 31
0.0
  0
LINE
  5
128E1D
330
18
100
AcDbEntity
  8
下書き線
100
AcDbLine
 10
147.8698649662529
 20
630.2657565081004
 30
0.0
 11
154.8559427423806
 21
630.2657565080976
 31
0.0
  0
LINE
  5
132800
330
18
100
AcDbEntity
  8
DEFPOINTS
  6
HIDDEN
 62
     3
100
AcDbLine
 10
947.4812423534704
 20
743.3137163629694
 30
0.0
 11
947.4812423534704
 21
633.9312813522397
 31
0.0
  0
LINE
  5
132801
330
18
100
AcDbEntity
  8
DEFPOINTS
  6
HIDDEN
 62
     3
100
AcDbLine
 10
947.4812423534704
 20
743.3137163629694
 30
0.0
 11
1114.772001935303
 21
743.3137163629685
 31
0.0
  0
LINE
  5
132802
330
18
100
AcDbEntity
  8
DEFPOINTS
  6
HIDDEN
 62
     3
100
AcDbLine
 10
947.4812423534704
 20
733.1013072226347
 30
0.0
 11
1114.772001935303
 21
733.1013072226347
 31
0.0
  0
LINE
  5
132803
330
18
100
AcDbEntity
  8
DEFPOINTS
  6
HIDDEN
 62
     3
100
AcDbLine
 10
947.4812423534704
 20
722.4496899483188
 30
0.0
 11
1114.772001935306
 21
722.4496899483179
 31
0.0
  0
LINE
  5
132808
330
18
100
AcDbEntity
  8
DEFPOINTS
  6
HIDDEN
 62
     3
100
AcDbLine
 10
947.4812423534722
 20
711.798072674002
 30
0.0
 11
1114.772001935308
 21
711.7980726740011
 31
0.0
  0
LINE
  5
13280A
330
18
100
AcDbEntity
  8
下書き線
100
AcDbLine
 10
747.8698649662529
 20
755.4643477349723
 30
0.0
 11
747.8698649662529
 21
630.2657565080976
 31
0.0
  0
LINE
  5
13280B
330
18
100
AcDbEntity
  8
下書き線
100
AcDbLine
 10
754.8559427423806
 20
749.9657522330886
 30
0.0
 11
754.8559427423788
 21
627.2732612503655
 31
0.0
  0
LINE
  5
13280C
330
18
100
AcDbEntity
  8
下書き線
100
AcDbLine
 10
747.8698649662529
 20
690.1157543705917
 30
0.0
 11
754.8559427423806
 21
690.115754370589
 31
0.0
  0
LINE
  5
13280D
330
18
100
AcDbEntity
  8
下書き線
100
AcDbLine
 10
747.8698649662529
 20
700.0907540143412
 30
0.0
 11
754.8559427423806
 21
700.0907540143412
 31
0.0
  0
LINE
  5
13280E
330
18
100
AcDbEntity
  8
下書き線
100
AcDbLine
 10
754.8559427423788
 20
707.0732584003531
 30
0.0
 11
820.0822683572651
 21
707.0732584003531
 31
0.0
  0
LINE
  5
13280F
330
18
100
AcDbEntity
  8
下書き線
100
AcDbLine
 10
747.8698649662529
 20
710.0657536580961
 30
0.0
 11
754.8559427423806
 21
710.0657536580961
 31
0.0
  0
LINE
  5
132810
330
18
100
AcDbEntity
  8
下書き線
100
AcDbLine
 10
747.8698649662529
 20
720.0407533018456
 30
0.0
 11
754.8559427423806
 21
720.0407533018401
 31
0.0
  0
LINE
  5
132811
330
18
100
AcDbEntity
  8
下書き線
100
AcDbLine
 10
754.8559427423788
 20
717.0482580441053
 30
0.0
 11
820.0822683572651
 21
717.0482580441053
 31
0.0
  0
LINE
  5
132812
330
18
100
AcDbEntity
  8
下書き線
100
AcDbLine
 10
754.8559427423788
 20
717.0482580441053
 30
0.0
 11
820.0822683572651
 21
717.0482580441053
 31
0.0
  0
LINE
  5
132813
330
18
100
AcDbEntity
  8
下書き線
100
AcDbLine
 10
747.8698649662529
 20
720.0407533018456
 30
0.0
 11
754.8559427423806
 21
720.0407533018401
 31
0.0
  0
LINE
  5
132814
330
18
100
AcDbEntity
  8
下書き線
100
AcDbLine
 10
747.8698649662529
 20
730.0157529455951
 30
0.0
 11
754.8559427423806
 21
730.0157529455842
 31
0.0
  0
LINE
  5
132815
330
18
100
AcDbEntity
  8
下書き線
100
AcDbLine
 10
754.8559427423788
 20
727.0232576878548
 30
0.0
 11
820.0822683572651
 21
727.0232576878548
 31
0.0
  0
LINE
  5
132816
330
18
100
AcDbEntity
  8
下書き線
100
AcDbLine
 10
754.8559427423788
 20
736.998257331607
 30
0.0
 11
820.0822683572651
 21
736.998257331607
 31
0.0
  0
LINE
  5
132817
330
18
100
AcDbEntity
  8
下書き線
100
AcDbLine
 10
747.8698649662529
 20
739.9907525893445
 30
0.0
 11
754.8559427423806
 21
739.9907525893445
 31
0.0
  0
LINE
  5
132818
330
18
100
AcDbEntity
  8
下書き線
100
AcDbLine
 10
747.8698649662529
 20
749.965752233094
 30
0.0
 11
754.8559427423806
 21
749.9657522330886
 31
0.0
  0
LINE
  5
132819
330
18
100
AcDbEntity
  8
下書き線
100
AcDbLine
 10
754.8559427423788
 20
746.9732569753564
 30
0.0
 11
820.0822683572651
 21
746.9732569753564
 31
0.0
  0
LINE
  5
13282A
330
18
100
AcDbEntity
  8
下書き線
100
AcDbLine
 10
747.8698649662529
 20
680.140754726845
 30
0.0
 11
754.8559427423806
 21
680.1407547268395
 31
0.0
  0
LINE
  5
13282B
330
18
100
AcDbEntity
  8
下書き線
100
AcDbLine
 10
747.8698649662529
 20
670.1657550830955
 30
0.0
 11
754.8559427423806
 21
670.1657550830901
 31
0.0
  0
LINE
  5
13282C
330
18
100
AcDbEntity
  8
下書き線
100
AcDbLine
 10
747.8698649662529
 20
660.190755439346
 30
0.0
 11
754.8559427423806
 21
660.1907554393406
 31
0.0
  0
LINE
  5
13282D
330
18
100
AcDbEntity
  8
下書き線
100
AcDbLine
 10
802.1267971434445
 20
749.9657522330886
 30
0.0
 11
802.1267971434481
 21
627.2732612503628
 31
0.0
  0
LINE
  5
13282E
330
18
100
AcDbEntity
  8
下書き線
100
AcDbLine
 10
754.8559427423788
 20
667.1732598253552
 30
0.0
 11
820.0822683572615
 21
667.1732598253552
 31
0.0
  0
LINE
  5
13282F
330
18
100
AcDbEntity
  8
下書き線
100
AcDbLine
 10
747.8698649662529
 20
670.1657550830928
 30
0.0
 11
754.8559427423806
 21
670.1657550830873
 31
0.0
  0
LINE
  5
132830
330
18
100
AcDbEntity
  8
下書き線
100
AcDbLine
 10
747.8698649662529
 20
680.1407547268423
 30
0.0
 11
754.8559427423806
 21
680.1407547268395
 31
0.0
  0
LINE
  5
132831
330
18
100
AcDbEntity
  8
下書き線
100
AcDbLine
 10
754.8559427423788
 20
677.1482594691047
 30
0.0
 11
820.0822683572615
 21
677.1482594691047
 31
0.0
  0
LINE
  5
132832
330
18
100
AcDbEntity
  8
下書き線
100
AcDbLine
 10
754.8559427423788
 20
697.0982587566036
 30
0.0
 11
820.0822683572615
 21
697.0982587566036
 31
0.0
  0
LINE
  5
132833
330
18
100
AcDbEntity
  8
下書き線
100
AcDbLine
 10
747.8698649662529
 20
700.0907540143412
 30
0.0
 11
754.8559427423806
 21
700.0907540143412
 31
0.0
  0
LINE
  5
13283D
330
18
100
AcDbEntity
  8
下書き線
100
AcDbLine
 10
754.8559427423788
 20
647.2232605378563
 30
0.0
 11
820.0822683572615
 21
647.2232605378563
 31
0.0
  0
LINE
  5
13283E
330
18
100
AcDbEntity
  8
下書き線
100
AcDbLine
 10
747.8698649662529
 20
650.2157557955966
 30
0.0
 11
754.8559427423806
 21
650.2157557955911
 31
0.0
  0
LINE
  5
132842
330
18
100
AcDbEntity
  8
下書き線
100
AcDbLine
 10
754.8559427423788
 20
637.2482608941095
 30
0.0
 11
820.0822683572615
 21
637.2482608941095
 31
0.0
  0
LINE
  5
132846
330
18
100
AcDbEntity
  8
下書き線
100
AcDbLine
 10
754.8559427423788
 20
687.1232591128542
 30
0.0
 11
820.0822683572615
 21
687.1232591128542
 31
0.0
  0
LINE
  5
132847
330
18
100
AcDbEntity
  8
下書き線
100
AcDbLine
 10
747.8698649662529
 20
690.1157543705917
 30
0.0
 11
754.8559427423806
 21
690.1157543705917
 31
0.0
  0
LINE
  5
13284B
330
18
100
AcDbEntity
  8
下書き線
100
AcDbLine
 10
747.8698649662529
 20
660.1907554393433
 30
0.0
 11
754.8559427423806
 21
660.1907554393379
 31
0.0
  0
LINE
  5
13284F
330
18
100
AcDbEntity
  8
下書き線
100
AcDbLine
 10
754.8559427423788
 20
657.198260181603
 30
0.0
 11
820.0822683572615
 21
657.198260181603
 31
0.0
  0
LINE
  5
132850
330
18
100
AcDbEntity
  8
下書き線
100
AcDbLine
 10
747.8698649662529
 20
640.2407561518471
 30
0.0
 11
754.8559427423806
 21
640.2407561518444
 31
0.0
  0
LINE
  5
132853
330
18
100
AcDbEntity
  8
下書き線
100
AcDbLine
 10
754.8559427423788
 20
627.2732612503628
 30
0.0
 11
820.0822683572615
 21
627.2732612503628
 31
0.0
  0
LINE
  5
132854
330
18
100
AcDbEntity
  8
下書き線
100
AcDbLine
 10
747.8698649662529
 20
630.2657565081004
 30
0.0
 11
754.8559427423806
 21
630.2657565080976
 31
0.0
  0
LINE
  5
133892
330
18
100
AcDbEntity
  8
DEFPOINTS
  6
HIDDEN
 62
     3
100
AcDbLine
 10
947.481242353474
 20
701.1464553996852
 30
0.0
 11
1114.77200193531
 21
701.1464553996843
 31
0.0
  0
LINE
  5
1338A6
330
18
100
AcDbEntity
  8
DEFPOINTS
  6
HIDDEN
 62
     3
100
AcDbLine
 10
947.481242353474
 20
701.1464553996852
 30
0.0
 11
1114.772001935306
 21
701.1464553996843
 31
0.0
  0
LINE
  5
1338A7
330
18
100
AcDbEntity
  8
DEFPOINTS
  6
HIDDEN
 62
     3
100
AcDbLine
 10
947.481242353474
 20
690.9340462593505
 30
0.0
 11
1114.772001935306
 21
690.9340462593505
 31
0.0
  0
LINE
  5
1338A8
330
18
100
AcDbEntity
  8
DEFPOINTS
  6
HIDDEN
 62
     3
100
AcDbLine
 10
947.481242353474
 20
680.2824289850346
 30
0.0
 11
1114.77200193531
 21
680.2824289850337
 31
0.0
  0
LINE
  5
1338AA
330
18
100
AcDbEntity
  8
DEFPOINTS
  6
HIDDEN
 62
     3
100
AcDbLine
 10
947.4812423534759
 20
669.6308117107178
 30
0.0
 11
1114.772001935312
 21
669.6308117107169
 31
0.0
  0
LINE
  5
1338AB
330
18
100
AcDbEntity
  8
DEFPOINTS
  6
HIDDEN
 62
     3
100
AcDbLine
 10
947.4812423534777
 20
658.979194436401
 30
0.0
 11
1114.772001935314
 21
658.9791944364001
 31
0.0
  0
LINE
  5
1338AF
330
18
100
AcDbEntity
  8
DEFPOINTS
  6
HIDDEN
 62
     3
100
AcDbLine
 10
947.4812423534777
 20
658.979194436401
 30
0.0
 11
1114.77200193531
 21
658.9791944364001
 31
0.0
  0
LINE
  5
1338B0
330
18
100
AcDbEntity
  8
DEFPOINTS
  6
HIDDEN
 62
     3
100
AcDbLine
 10
947.4812423534777
 20
648.7667852960662
 30
0.0
 11
1114.77200193531
 21
648.7667852960662
 31
0.0
  0
LINE
  5
1338B1
330
18
100
AcDbEntity
  8
DEFPOINTS
  6
HIDDEN
 62
     3
100
AcDbLine
 10
947.4812423534777
 20
638.1151680217504
 30
0.0
 11
1114.772001935314
 21
638.1151680217495
 31
0.0
  0
LINE
  5
1338B3
330
18
100
AcDbEntity
  8
DEFPOINTS
  6
HIDDEN
 62
     3
100
AcDbLine
 10
947.4812423534795
 20
627.4635507474336
 30
0.0
 11
1114.772001935316
 21
627.4635507474327
 31
0.0
  0
TEXT
  5
137889
330
18
100
AcDbEntity
  8
文字
100
AcDbText
 10
1196.799150224307
 20
-230.4951803702289
 30
0.0
 40
9.75
  1
MOD-P1652DR/BF
100
AcDbText
  0
SPLINE
  5
1378A8
330
18
100
AcDbEntity
  8
姿図
100
AcDbSpline
210
0.0
220
0.0
230
1.0
 70
     8
 71
     3
 72
     8
 73
     4
 74
     0
 42
0.000000001
 43
0.0000000001
 40
0.0
 40
0.0
 40
0.0
 40
0.0
 40
1.0
 40
1.0
 40
1.0
 40
1.0
 10
1254.363967179914
 20
-143.6785541564645
 30
0.0
 10
1259.073550513248
 20
-143.1493874897978
 30
0.0
 10
1264.365217179914
 20
-144.7459385961147
 30
0.0
 10
1273.31691884007
 20
-151.3262527241727
 30
0.0
  0
SPLINE
  5
1378A9
330
18
100
AcDbEntity
  8
姿図
100
AcDbSpline
210
0.0
220
0.0
230
1.0
 70
     8
 71
     3
 72
     8
 73
     4
 74
     0
 42
0.000000001
 43
0.0000000001
 40
0.0
 40
0.0
 40
0.0
 40
0.0
 40
1.0
 40
1.0
 40
1.0
 40
1.0
 10
1273.395363664288
 20
-150.7230854064637
 30
0.0
 10
1266.990689998924
 20
-145.8129165628634
 30
0.0
 10
1255.489686580956
 20
-139.4110110249535
 30
0.0
 10
1249.407473853091
 20
-145.2044558491725
 30
0.0
  0
SPLINE
  5
1378AA
330
18
100
AcDbEntity
  8
姿図
100
AcDbSpline
210
0.0
220
0.0
230
1.0
 70
     8
 71
     3
 72
     8
 73
     4
 74
     0
 42
0.000000001
 43
0.0000000001
 40
6.0
 40
6.0
 40
6.0
 40
6.0
 40
7.0
 40
7.0
 40
7.0
 40
7.0
 10
1251.600724992414
 20
-142.4271576720894
 30
0.0
 10
1253.405266008039
 20
-140.0957237528182
 30
0.0
 10
1256.108666886945
 20
-137.0396828999537
 30
0.0
 10
1258.828087459861
 20
-133.5996861551616
 30
0.0
  0
SPLINE
  5
1378AB
330
18
100
AcDbEntity
  8
姿図
100
AcDbSpline
210
0.0
220
0.0
230
1.0
 70
     8
 71
     3
 72
     8
 73
     4
 74
     0
 42
0.000000001
 43
0.0000000001
 40
3.0
 40
3.0
 40
3.0
 40
3.0
 40
4.0
 40
4.0
 40
4.0
 40
4.0
 10
1247.185077205954
 20
-158.0400548075054
 30
0.0
 10
1247.185077205954
 20
-158.0400548075054
 30
0.0
 10
1248.457144263247
 20
-154.268502073131
 30
0.0
 10
1248.836552629133
 20
-153.7550450418807
 30
0.0
  0
SPLINE
  5
1378AC
330
18
100
AcDbEntity
  8
姿図
100
AcDbSpline
210
0.0
220
0.0
230
1.0
 70
     8
 71
     3
 72
     8
 73
     4
 74
     0
 42
0.000000001
 43
0.0000000001
 40
0.0
 40
0.0
 40
0.0
 40
0.0
 40
1.0
 40
1.0
 40
1.0
 40
1.0
 10
1254.363967179914
 20
-143.6785541564645
 30
0.0
 10
1251.468329972883
 20
-143.6785541564645
 30
0.0
 10
1246.95563384658
 20
-146.0598041564645
 30
0.0
 10
1249.125217179914
 20
-152.780220823131
 30
0.0
  0
SPLINE
  5
1378AD
330
18
100
AcDbEntity
  8
姿図
100
AcDbSpline
210
0.0
220
0.0
230
1.0
 70
     8
 71
     3
 72
     8
 73
     4
 74
     0
 42
0.000000001
 43
0.0000000001
 40
0.0
 40
0.0
 40
0.0
 40
0.0
 40
1.0
 40
1.0
 40
1.0
 40
1.0
 10
1248.836552629133
 20
-153.7550450418807
 30
0.0
 10
1249.566740617415
 20
-151.9934988179225
 30
0.0
 10
1250.994973853091
 20
-149.1378591694847
 30
0.0
 10
1254.41688384658
 20
-143.8108458231309
 30
0.0
  0
SPLINE
  5
1378AE
330
18
100
AcDbEntity
  8
姿図
100
AcDbSpline
210
0.0
220
0.0
230
1.0
 70
     8
 71
     3
 72
     8
 73
     4
 74
     0
 42
0.000000001
 43
0.0000000001
 40
4.0
 40
4.0
 40
4.0
 40
4.0
 40
5.0
 40
5.0
 40
5.0
 40
5.0
 10
1248.836552629133
 20
-153.7550450418807
 30
0.0
 10
1248.300978084861
 20
-152.2597357970894
 30
0.0
 10
1247.120481665592
 20
-149.0766742736514
 30
0.0
 10
1248.532901912987
 20
-146.4668077371934
 30
0.0
  0
SPLINE
  5
1378AF
330
18
100
AcDbEntity
  8
姿図
100
AcDbSpline
210
0.0
220
0.0
230
1.0
 70
     8
 71
     3
 72
     8
 73
     4
 74
     0
 42
0.000000001
 43
0.0000000001
 40
5.0
 40
5.0
 40
5.0
 40
5.0
 40
6.0
 40
6.0
 40
6.0
 40
6.0
 10
1248.532901912987
 20
-146.4668077371934
 30
0.0
 10
1249.58203684137
 20
-144.6066628804224
 30
0.0
 10
1251.104114478091
 20
-142.9860899637561
 30
0.0
 10
1251.600724992414
 20
-142.4271576720894
 30
0.0
  0
SPLINE
  5
1378B0
330
18
100
AcDbEntity
  8
姿図
100
AcDbSpline
210
0.0
220
0.0
230
1.0
 70
     8
 71
     3
 72
     8
 73
     4
 74
     0
 42
0.000000001
 43
0.0000000001
 40
0.0
 40
0.0
 40
0.0
 40
0.0
 40
1.0
 40
1.0
 40
1.0
 40
1.0
 10
1283.997300513248
 20
-161.5275938700061
 30
0.0
 10
1283.997300513248
 20
-158.6320600158392
 30
0.0
 10
1283.999160864809
 20
-155.9583214090685
 30
0.0
 10
1283.494798885643
 20
-155.9678298726103
 30
0.0
  0
SPLINE
  5
1378B1
330
18
100
AcDbEntity
  8
姿図
100
AcDbSpline
210
0.0
220
0.0
230
1.0
 70
     8
 71
     3
 72
    11
 73
     7
 74
     0
 42
0.000000001
 43
0.0000000001
 40
39.0
 40
39.0
 40
39.0
 40
39.0
 40
40.0
 40
40.0
 40
40.0
 40
41.0
 40
41.0
 40
41.0
 40
41.0
 10
1284.749295955956
 20
-156.2648660054228
 30
0.0
 10
1284.811514380434
 20
-156.9174359924018
 30
0.0
 10
1284.873732804914
 20
-160.8332693257353
 30
0.0
 10
1284.873732804914
 20
-161.0509304585471
 30
0.0
 10
1284.873732804914
 20
-161.2683848856304
 30
0.0
 10
1284.718290096579
 20
-161.7969314351103
 30
0.0
 10
1284.531841528872
 20
-162.0453917215686
 30
0.0
  0
LINE
  5
1378B2
330
18
100
AcDbEntity
  8
姿図
100
AcDbLine
 10
1298.443550513249
 20
-117.1937624897973
 30
0.0
 11
1296.150563859602
 21
-115.1829291564645
 31
0.0
  0
LINE
  5
1378B3
330
18
100
AcDbEntity
  8
姿図
100
AcDbLine
 10
1295.762577205955
 20
-125.9779291564641
 30
0.0
 11
1300.066397192934
 21
-119.0634158101097
 31
0.0
  0
LINE
  5
1378B4
330
18
100
AcDbEntity
  8
姿図
100
AcDbLine
 10
1294.062422583561
 20
-113.9789716369328
 30
0.0
 11
1289.08143462783
 21
-121.7450092345898
 31
0.0
  0
LINE
  5
1378B5
330
18
100
AcDbEntity
  8
姿図
100
AcDbLine
 10
1294.316050513246
 20
-114.2304291564642
 30
0.0
 11
1289.871050513246
 21
-121.2506724832874
 31
0.0
  0
SPLINE
  5
1378B6
330
18
100
AcDbEntity
  8
姿図
100
AcDbSpline
210
0.0
220
0.0
230
1.0
 70
     8
 71
     3
 72
     8
 73
     4
 74
     0
 42
0.000000001
 43
0.0000000001
 40
0.0
 40
0.0
 40
0.0
 40
0.0
 40
1.0
 40
1.0
 40
1.0
 40
1.0
 10
1283.30938384658
 20
-128.8883458231303
 30
0.0
 10
1277.494131567936
 20
-125.5308246642771
 30
0.0
 10
1270.133237199444
 20
-124.7947455627145
 30
0.0
 10
1266.759799699445
 20
-125.7856928283391
 30
0.0
  0
SPLINE
  5
1378B7
330
18
100
AcDbEntity
  8
姿図
100
AcDbSpline
210
0.0
220
0.0
230
1.0
 70
     8
 71
     3
 72
     8
 73
     4
 74
     0
 42
0.000000001
 43
0.0000000001
 40
0.0
 40
0.0
 40
0.0
 40
0.0
 40
1.0
 40
1.0
 40
1.0
 40
1.0
 10
1273.31691884007
 20
-151.3262527241727
 30
0.0
 10
1274.704017635643
 20
-152.2981830627141
 30
0.0
 10
1276.306813859602
 20
-151.1881732970887
 30
0.0
 10
1276.306813859602
 20
-150.6811241434434
 30
0.0
  0
SPLINE
  5
1378B8
330
18
100
AcDbEntity
  8
姿図
100
AcDbSpline
210
0.0
220
0.0
230
1.0
 70
     8
 71
     3
 72
     8
 73
     4
 74
     0
 42
0.000000001
 43
0.0000000001
 40
0.0
 40
0.0
 40
0.0
 40
0.0
 40
1.0
 40
1.0
 40
1.0
 40
1.0
 10
1276.286763403873
 20
-150.0694818908391
 30
0.0
 10
1276.286763403873
 20
-150.5765310444854
 30
0.0
 10
1274.782359106996
 20
-151.695015745006
 30
0.0
 10
1273.395363664288
 20
-150.7230854064637
 30
0.0
  0
SPLINE
  5
1378B9
330
18
100
AcDbEntity
  8
姿図
100
AcDbSpline
210
0.0
220
0.0
230
1.0
 70
     8
 71
     3
 72
     8
 73
     4
 74
     0
 42
0.000000001
 43
0.0000000001
 40
7.0
 40
7.0
 40
7.0
 40
7.0
 40
8.0
 40
8.0
 40
8.0
 40
8.0
 10
1258.828087459861
 20
-133.5996861551616
 30
0.0
 10
1261.793281144758
 20
-129.8487006408395
 30
0.0
 10
1264.659049373923
 20
-125.9315237202663
 30
0.0
 10
1266.759799699445
 20
-125.7856928283391
 30
0.0
  0
LINE
  5
1378BA
330
18
100
AcDbEntity
  8
姿図
100
AcDbLine
 10
1290.929383846581
 20
-127.1244224832872
 30
0.0
 11
1280.957325514036
 21
-142.7506877239302
 31
0.0
  0
SPLINE
  5
1378BB
330
18
100
AcDbEntity
  8
姿図
100
AcDbSpline
210
0.0
220
0.0
230
1.0
 70
     8
 71
     3
 72
     8
 73
     4
 74
     0
 42
0.000000001
 43
0.0000000001
 40
0.0
 40
0.0
 40
0.0
 40
0.0
 40
1.0
 40
1.0
 40
1.0
 40
1.0
 10
1283.91957915908
 20
-154.3644135314644
 30
0.0
 10
1283.620269263248
 20
-154.0336843647979
 30
0.0
 10
1283.401988013248
 20
-153.8352468647972
 30
0.0
 10
1283.213679093977
 20
-153.7290001200058
 30
0.0
  0
SPLINE
  5
1378BC
330
18
100
AcDbEntity
  8
姿図
100
AcDbSpline
210
0.0
220
0.0
230
1.0
 70
     8
 71
     3
 72
     8
 73
     4
 74
     0
 42
0.000000001
 43
0.0000000001
 40
0.0
 40
0.0
 40
0.0
 40
0.0
 40
1.0
 40
1.0
 40
1.0
 40
1.0
 10
1283.613654679914
 20
-156.0118581929223
 30
0.0
 10
1282.764920955954
 20
-154.8534792866722
 30
0.0
 10
1281.542669979394
 20
-154.1289757059435
 30
0.0
 10
1279.605217179914
 20
-153.7591791564646
 30
0.0
  0
SPLINE
  5
1378BD
330
18
100
AcDbEntity
  8
姿図
100
AcDbSpline
210
0.0
220
0.0
230
1.0
 70
     8
 71
     3
 72
     8
 73
     4
 74
     0
 42
0.000000001
 43
0.0000000001
 40
0.0
 40
0.0
 40
0.0
 40
0.0
 40
1.0
 40
1.0
 40
1.0
 40
1.0
 10
1283.573967179914
 20
-155.9023041564642
 30
0.0
 10
1282.303967179913
 20
-148.599804156464
 30
0.0
 10
1281.721883846582
 20
-145.1073041564641
 30
0.0
 10
1280.346050513247
 20
-143.466887489798
 30
0.0
  0
SPLINE
  5
1378BE
330
18
100
AcDbEntity
  8
姿図
100
AcDbSpline
210
0.0
220
0.0
230
1.0
 70
     8
 71
     3
 72
     8
 73
     4
 74
     0
 42
0.000000001
 43
0.0000000001
 40
38.0
 40
38.0
 40
38.0
 40
38.0
 40
39.0
 40
39.0
 40
39.0
 40
39.0
 10
1283.910277401267
 20
-154.3379551981307
 30
0.0
 10
1284.531841528872
 20
-155.052743609589
 30
0.0
 10
1284.687077531475
 20
-155.6120893127145
 30
0.0
 10
1284.749295955956
 20
-156.2648660054228
 30
0.0
  0
LINE
  5
1378BF
330
18
100
AcDbEntity
  8
姿図
100
AcDbLine
 10
1270.394253022802
 20
-148.5839203293954
 30
0.0
 11
1287.542717179914
 21
-122.4325124897973
 31
0.0
  0
ELLIPSE
  5
1378C0
330
18
100
AcDbEntity
  8
姿図
100
AcDbEllipse
 10
1295.495616756737
 20
-119.1433592508656
 30
0.0
 11
-1.39185302734375
 21
1.167835693359375
 31
0.0
210
0.0
220
0.0
230
1.0
 40
0.7351229721554962
 41
0.0
 42
6.283185307179586
  0
ELLIPSE
  5
1378C1
330
18
100
AcDbEntity
  8
姿図
100
AcDbEllipse
 10
1292.886473690329
 20
-123.2182009663597
 30
0.0
 11
-1.353922526041667
 21
1.136158040364583
 31
0.0
210
0.0
220
0.0
230
1.0
 40
0.7417511887598578
 41
0.0
 42
6.283185307179586
  0
SPLINE
  5
1378C2
330
18
100
AcDbEntity
  8
姿図
100
AcDbSpline
210
0.0
220
0.0
230
1.0
 70
     8
 71
     3
 72
     8
 73
     4
 74
     0
 42
0.000000001
 43
0.0000000001
 40
0.0
 40
0.0
 40
0.0
 40
0.0
 40
1.0
 40
1.0
 40
1.0
 40
1.0
 10
1293.867442361505
 20
-118.308065482438
 30
0.0
 10
1294.35299411932
 20
-117.8241673704583
 30
0.0
 10
1295.287304015152
 20
-117.9029222532713
 30
0.0
 10
1296.00457289536
 20
-118.5047459837397
 30
0.0
  0
SPLINE
  5
1378C3
330
18
100
AcDbEntity
  8
姿図
100
AcDbSpline
210
0.0
220
0.0
230
1.0
 70
     8
 71
     3
 72
     8
 73
     4
 74
     0
 42
0.000000001
 43
0.0000000001
 40
1.0
 40
1.0
 40
1.0
 40
1.0
 40
2.0
 40
2.0
 40
2.0
 40
2.0
 10
1296.00457289536
 20
-118.5047459837397
 30
0.0
 10
1296.733624002131
 20
-119.1164915892082
 30
0.0
 10
1296.96947523911
 20
-120.042946667334
 30
0.0
 10
1296.549449197445
 20
-120.6029124876459
 30
0.0
  0
SPLINE
  5
1378C4
330
18
100
AcDbEntity
  8
姿図
100
AcDbSpline
210
0.0
220
0.0
230
1.0
 70
     8
 71
     3
 72
     8
 73
     4
 74
     0
 42
0.000000001
 43
0.0000000001
 40
0.0
 40
0.0
 40
0.0
 40
0.0
 40
0.8940086046754551
 40
0.8940086046754551
 40
0.8940086046754551
 40
0.8940086046754551
 10
1295.447241134571
 20
-126.4382534702327
 30
0.0
 10
1294.811084287615
 20
-127.4934509847353
 30
0.0
 10
1293.263046546347
 20
-127.2705777050473
 30
0.0
 10
1292.232785195218
 20
-126.9083997440675
 30
0.0
  0
SPLINE
  5
1378C5
330
18
100
AcDbEntity
  8
姿図
100
AcDbSpline
210
0.0
220
0.0
230
1.0
 70
     8
 71
     3
 72
     8
 73
     4
 74
     0
 42
0.000000001
 43
0.0000000001
 40
0.0
 40
0.0
 40
0.0
 40
0.0
 40
1.0
 40
1.0
 40
1.0
 40
1.0
 10
1292.463967179913
 20
-126.4211062397972
 30
0.0
 10
1291.621641333559
 20
-126.1366791564642
 30
0.0
 10
1291.12782134658
 20
-126.7915229064643
 30
0.0
 10
1290.929383846581
 20
-127.1244224832872
 30
0.0
  0
SPLINE
  5
1378C6
330
18
100
AcDbEntity
  8
姿図
100
AcDbSpline
210
0.0
220
0.0
230
1.0
 70
     8
 71
     3
 72
     8
 73
     4
 74
     0
 42
0.000000001
 43
0.0000000001
 40
0.0
 40
0.0
 40
0.0
 40
0.0
 40
1.0
 40
1.0
 40
1.0
 40
1.0
 10
1295.762577205955
 20
-125.9779291564641
 30
0.0
 10
1295.127577205955
 20
-127.3890058166207
 30
0.0
 10
1293.108268937726
 20
-126.8685207905792
 30
0.0
 10
1292.463967179913
 20
-126.4211062397972
 30
0.0
  0
SPLINE
  5
1378C7
330
18
100
AcDbEntity
  8
姿図
100
AcDbSpline
210
0.0
220
0.0
230
1.0
 70
     8
 71
     3
 72
     8
 73
     4
 74
     0
 42
0.000000001
 43
0.0000000001
 40
0.0
 40
0.0
 40
0.0
 40
0.0
 40
1.0
 40
1.0
 40
1.0
 40
1.0
 10
1287.542717179914
 20
-122.3795958231308
 30
0.0
 10
1287.860217179915
 20
-121.9562624897972
 30
0.0
 10
1288.063408911684
 20
-121.7798391499541
 30
0.0
 10
1288.706883846581
 20
-121.7798391499541
 30
0.0
  0
SPLINE
  5
1378C8
330
18
100
AcDbEntity
  8
姿図
100
AcDbSpline
210
0.0
220
0.0
230
1.0
 70
     8
 71
     3
 72
     8
 73
     4
 74
     0
 42
0.000000001
 43
0.0000000001
 40
0.0
 40
0.0
 40
0.0
 40
0.0
 40
1.0
 40
1.0
 40
1.0
 40
1.0
 10
1289.871050513246
 20
-121.2506724832874
 30
0.0
 10
1289.765217179913
 20
-121.6034158101102
 30
0.0
 10
1289.095077205956
 20
-121.8856724832876
 30
0.0
 10
1288.706883846581
 20
-121.7798391499541
 30
0.0
  0
SPLINE
  5
1378C9
330
18
100
AcDbEntity
  8
姿図
100
AcDbSpline
210
0.0
220
0.0
230
1.0
 70
     8
 71
     3
 72
     8
 73
     4
 74
     0
 42
0.000000001
 43
0.0000000001
 40
0.0
 40
0.0
 40
0.0
 40
0.0
 40
1.0
 40
1.0
 40
1.0
 40
1.0
 10
1292.232785195218
 20
-126.9083997440675
 30
0.0
 10
1291.383516333561
 20
-126.6658458231304
 30
0.0
 10
1290.88969634658
 20
-127.3206895731309
 30
0.0
 10
1290.631417138981
 20
-127.5914120922234
 30
0.0
  0
SPLINE
  5
1378CA
330
18
100
AcDbEntity
  8
姿図
100
AcDbSpline
210
0.0
220
0.0
230
1.0
 70
     8
 71
     3
 72
     8
 73
     4
 74
     0
 42
0.000000001
 43
0.0000000001
 40
0.0
 40
0.0
 40
0.0
 40
0.0
 40
1.0
 40
1.0
 40
1.0
 40
1.0
 10
1294.062422583561
 20
-113.9789716369328
 30
0.0
 10
1294.520895890852
 20
-113.2383450093289
 30
0.0
 10
1295.01471587783
 20
-113.9198537983916
 30
0.0
 10
1295.01471587783
 20
-113.8028583556829
 30
0.0
  0
SPLINE
  5
1378CB
330
18
100
AcDbEntity
  8
姿図
100
AcDbSpline
210
0.0
220
0.0
230
1.0
 70
     8
 71
     3
 72
     8
 73
     4
 74
     0
 42
0.000000001
 43
0.0000000001
 40
0.0
 40
0.0
 40
0.0
 40
0.0
 40
1.0
 40
1.0
 40
1.0
 40
1.0
 10
1294.316050513246
 20
-114.2304291564642
 30
0.0
 10
1294.774730526268
 20
-113.454249143444
 30
0.0
 10
1295.268550513247
 20
-114.1357579325054
 30
0.0
 10
1295.268550513247
 20
-114.0187624897972
 30
0.0
  0
LINE
  5
1378CC
330
18
100
AcDbEntity
  8
姿図
100
AcDbLine
 10
1296.36223052627
 20
-114.8300824767766
 30
0.0
 11
1295.268550513247
 21
-114.0187624897972
 31
0.0
  0
LINE
  5
1378CD
330
18
100
AcDbEntity
  8
姿図
100
AcDbLine
 10
1296.150563859602
 20
-115.1829291564645
 30
0.0
 11
1296.326883846582
 21
-114.9006724832875
 31
0.0
  0
LINE
  5
1378CE
330
18
100
AcDbEntity
  8
姿図
100
AcDbLine
 10
1298.443550513249
 20
-117.1937624897973
 30
0.0
 11
1298.796397192936
 21
-116.8409158101099
 31
0.0
  0
LINE
  5
1378CF
330
18
100
AcDbEntity
  8
姿図
100
AcDbLine
 10
1300.031050513248
 20
-117.8992491434437
 30
0.0
 11
1298.796397192936
 21
-116.8409158101099
 31
0.0
  0
SPLINE
  5
1378D0
330
18
100
AcDbEntity
  8
姿図
100
AcDbSpline
210
0.0
220
0.0
230
1.0
 70
     8
 71
     3
 72
     8
 73
     4
 74
     0
 42
0.000000001
 43
0.0000000001
 40
0.0
 40
0.0
 40
0.0
 40
0.0
 40
1.0
 40
1.0
 40
1.0
 40
1.0
 10
1300.031050513248
 20
-117.9345958231311
 30
0.0
 10
1300.07011789606
 20
-117.9345958231311
 30
0.0
 10
1300.419243872621
 20
-118.5342491434435
 30
0.0
 10
1300.066397192934
 20
-119.0987624897975
 30
0.0
  0
ELLIPSE
  5
1378D1
330
18
100
AcDbEntity
  8
姿図
100
AcDbEllipse
 10
1263.20679054358
 20
-181.3882196890086
 30
0.0
 11
32.91569628906247
 21
0.1865312500000001
 31
0.0
210
0.0
220
0.0
230
1.0
 40
0.4502805162895567
 41
0.0
 42
6.283185307179586
  0
SPLINE
  5
1378D2
330
18
100
AcDbEntity
  8
姿図
100
AcDbSpline
210
0.0
220
0.0
230
1.0
 70
     8
 71
     3
 72
    11
 73
     7
 74
     0
 42
0.000000001
 43
0.0000000001
 40
0.0
 40
0.0
 40
0.0
 40
0.0
 40
1.0
 40
1.0
 40
1.0
 40
2.0
 40
2.0
 40
2.0
 40
2.0
 10
1230.291094254517
 20
-180.959594689009
 30
0.0
 10
1230.244461442017
 20
-172.771567345259
 30
0.0
 10
1244.898326676394
 20
-166.0539618765088
 30
0.0
 10
1263.020135270143
 20
-165.9517665640087
 30
0.0
 10
1279.879385270143
 20
-165.8565165640084
 30
0.0
 10
1293.800768082642
 20
-171.5189306265092
 30
0.0
 10
1295.697334488893
 20
-178.9013017202587
 30
0.0
  0
ELLIPSE
  5
1378D3
330
18
100
AcDbEntity
  8
姿図
100
AcDbEllipse
 10
1263.145398942018
 20
-182.3183954702595
 30
0.0
 11
27.023466796875
 21
0.0
 31
0.0
210
0.0
220
0.0
230
1.0
 40
0.4469778328514387
 41
0.0
 42
6.283185307179586
  0
SPLINE
  5
1378D4
330
18
100
AcDbEntity
  8
姿図
100
AcDbSpline
210
0.0
220
0.0
230
1.0
 70
     8
 71
     3
 72
    17
 73
    13
 74
     0
 42
0.000000001
 43
0.0000000001
 40
0.0
 40
0.0
 40
0.0
 40
0.0
 40
1.0
 40
1.0
 40
1.0
 40
2.0
 40
2.0
 40
2.0
 40
3.0
 40
3.0
 40
3.0
 40
4.0
 40
4.0
 40
4.0
 40
4.0
 10
1235.859498551393
 20
-172.5230243765086
 30
0.0
 10
1235.840895035769
 20
-172.3325243765094
 30
0.0
 10
1235.831469254518
 20
-172.1410321890085
 30
0.0
 10
1235.831469254518
 20
-171.9485478140086
 30
0.0
 10
1235.831469254518
 20
-164.9784306265083
 30
0.0
 10
1248.011314957643
 20
-159.0868212515093
 30
0.0
 10
1263.141430192017
 20
-159.3289150015094
 30
0.0
 10
1283.638287613893
 20
-159.6568329702582
 30
0.0
 10
1289.251092301393
 20
-167.1994423452588
 30
0.0
 10
1290.391115738893
 20
-170.2742314077586
 30
0.0
 10
1290.391115738893
 20
-170.2742314077586
 30
0.0
 10
1290.600963395142
 20
-171.957477501508
 30
0.0
 10
1290.567229020143
 20
-172.4570439077584
 30
0.0
  0
POLYLINE
  5
1378D5
330
18
100
AcDbEntity
  8
姿図
100
AcDb2dPolyline
 66
     1
 10
0.0
 20
0.0
 30
0.0
  0
VERTEX
  5
1378D6
330
1378D5
100
AcDbEntity
  8
姿図
100
AcDbVertex
100
AcDb2dVertex
 10
1235.834693863894
 20
-171.5179384390094
 30
0.0
  0
VERTEX
  5
1378D7
330
1378D5
100
AcDbEntity
  8
姿図
100
AcDbVertex
100
AcDb2dVertex
 10
1235.689338395142
 20
-169.2924618765092
 30
0.0
  0
VERTEX
  5
1378D8
330
1378D5
100
AcDbEntity
  8
姿図
100
AcDbVertex
100
AcDb2dVertex
 10
1235.858754410769
 20
-156.6167704702584
 30
0.0
  0
VERTEX
  5
1378D9
330
1378D5
100
AcDbEntity
  8
姿図
100
AcDbVertex
100
AcDb2dVertex
 10
1236.632908707642
 20
-154.5366493765096
 30
0.0
  0
VERTEX
  5
1378DA
330
1378D5
100
AcDbEntity
  8
姿図
100
AcDbVertex
100
AcDb2dVertex
 10
1237.648908707643
 20
-154.4399110952595
 30
0.0
  0
VERTEX
  5
1378DB
330
1378D5
100
AcDbEntity
  8
姿図
100
AcDbVertex
100
AcDb2dVertex
 10
1237.963184098268
 20
-154.7541864858845
 30
0.0
  0
VERTEX
  5
1378DC
330
1378D5
100
AcDbEntity
  8
姿図
100
AcDbVertex
100
AcDb2dVertex
 10
1237.987235204952
 20
-166.9841742349563
 30
0.0
  0
SEQEND
  5
1378DD
330
1378D5
100
AcDbEntity
  8
姿図
  0
POLYLINE
  5
1378DE
330
18
100
AcDbEntity
  8
姿図
100
AcDb2dPolyline
 66
     1
 10
0.0
 20
0.0
 30
0.0
  0
VERTEX
  5
1378DF
330
1378DE
100
AcDbEntity
  8
姿図
100
AcDbVertex
100
AcDb2dVertex
 10
1238.713029801393
 20
-166.2483431791638
 30
0.0
  0
VERTEX
  5
1378E0
330
1378DE
100
AcDbEntity
  8
姿図
100
AcDbVertex
100
AcDb2dVertex
 10
1238.713029801393
 20
-161.5276025015096
 30
0.0
  0
VERTEX
  5
1378E1
330
1378DE
100
AcDbEntity
  8
姿図
100
AcDbVertex
100
AcDb2dVertex
 10
1237.963184098268
 20
-160.1003407827584
 30
0.0
  0
SEQEND
  5
1378E2
330
1378DE
100
AcDbEntity
  8
姿図
  0
POLYLINE
  5
1378E3
330
18
100
AcDbEntity
  8
姿図
100
AcDb2dPolyline
 66
     1
 10
0.0
 20
0.0
 30
0.0
  0
VERTEX
  5
1378E4
330
1378E3
100
AcDbEntity
  8
姿図
100
AcDbVertex
100
AcDb2dVertex
 10
1290.452631363893
 20
-170.277207970259
 30
0.0
  0
VERTEX
  5
1378E5
330
1378E3
100
AcDbEntity
  8
姿図
100
AcDbVertex
100
AcDb2dVertex
 10
1290.529029801394
 20
-169.9478017202582
 30
0.0
  0
VERTEX
  5
1378E6
330
1378E3
100
AcDbEntity
  8
姿図
100
AcDbVertex
100
AcDb2dVertex
 10
1290.326127457642
 20
-156.915915001508
 30
0.0
  0
VERTEX
  5
1378E7
330
1378E3
100
AcDbEntity
  8
姿図
100
AcDbVertex
100
AcDb2dVertex
 10
1290.275525895143
 20
-156.5106064077581
 30
0.0
  0
VERTEX
  5
1378E8
330
1378E3
100
AcDbEntity
  8
姿図
100
AcDbVertex
100
AcDb2dVertex
 10
1289.895021988893
 20
-155.7753954702584
 30
0.0
  0
VERTEX
  5
1378E9
330
1378E3
100
AcDbEntity
  8
姿図
100
AcDbVertex
100
AcDb2dVertex
 10
1289.945623551392
 20
-155.5216435171342
 30
0.0
  0
VERTEX
  5
1378EA
330
1378E3
100
AcDbEntity
  8
姿図
100
AcDbVertex
100
AcDb2dVertex
 10
1289.413314957642
 20
-154.5076278921333
 30
0.0
  0
VERTEX
  5
1378EB
330
1378E3
100
AcDbEntity
  8
姿図
100
AcDbVertex
100
AcDb2dVertex
 10
1288.297600113893
 20
-154.4061767202597
 30
0.0
  0
VERTEX
  5
1378EC
330
1378E3
100
AcDbEntity
  8
姿図
100
AcDbVertex
100
AcDb2dVertex
 10
1288.39891437941
 20
-167.1609014250748
 30
0.0
  0
SEQEND
  5
1378ED
330
1378E3
100
AcDbEntity
  8
姿図
  0
POLYLINE
  5
1378EE
330
18
100
AcDbEntity
  8
姿図
100
AcDb2dPolyline
 66
     1
 10
0.0
 20
0.0
 30
0.0
  0
VERTEX
  5
1378EF
330
1378EE
100
AcDbEntity
  8
姿図
100
AcDbVertex
100
AcDb2dVertex
 10
1288.303553238894
 20
-159.7014814077575
 30
0.0
  0
VERTEX
  5
1378F0
330
1378EE
100
AcDbEntity
  8
姿図
100
AcDbVertex
100
AcDb2dVertex
 10
1287.378834488893
 20
-161.186290001509
 30
0.0
  0
VERTEX
  5
1378F1
330
1378EE
100
AcDbEntity
  8
姿図
100
AcDbVertex
100
AcDb2dVertex
 10
1287.445822841718
 20
-166.2074523770402
 30
0.0
  0
SEQEND
  5
1378F2
330
1378EE
100
AcDbEntity
  8
姿図
  0
LINE
  5
1378F3
330
18
100
AcDbEntity
  8
姿図
100
AcDbLine
 10
1288.872076676393
 20
-154.4766220327597
 30
0.0
 11
1289.175189957644
 21
-168.0973720327584
 31
0.0
  0
POLYLINE
  5
1378F4
330
18
100
AcDbEntity
  8
姿図
100
AcDb2dPolyline
 66
     1
 10
0.0
 20
0.0
 30
0.0
  0
VERTEX
  5
1378F5
330
1378F4
100
AcDbEntity
  8
姿図
100
AcDbVertex
100
AcDb2dVertex
 10
1289.981342301394
 20
-155.9162860952583
 30
0.0
  0
VERTEX
  5
1378F6
330
1378F4
100
AcDbEntity
  8
姿図
100
AcDbVertex
100
AcDb2dVertex
 10
1290.224924332643
 20
-169.5042939077593
 30
0.0
  0
VERTEX
  5
1378F7
330
1378F4
100
AcDbEntity
  8
姿図
100
AcDbVertex
100
AcDb2dVertex
 10
1290.529029801394
 20
-169.9478017202582
 30
0.0
  0
SEQEND
  5
1378F8
330
1378F4
100
AcDbEntity
  8
姿図
  0
LINE
  5
1378F9
330
18
100
AcDbEntity
  8
姿図
100
AcDbLine
 10
1289.645982926392
 20
-154.941461876509
 30
0.0
 11
1289.980319160519
 21
-169.3688617074263
 31
0.0
  0
LINE
  5
1378FA
330
18
100
AcDbEntity
  8
姿図
100
AcDbLine
 10
1237.389699723268
 20
-154.4446239858835
 30
0.0
 11
1237.257144982636
 21
-167.8833500318592
 31
0.0
  0
LINE
  5
1378FB
330
18
100
AcDbEntity
  8
姿図
100
AcDbLine
 10
1236.632908707642
 20
-154.5366493765096
 30
0.0
 11
1236.548871665719
 21
-169.0449031614062
 31
0.0
  0
ARC
  5
1378FC
330
18
100
AcDbEntity
  8
姿図
100
AcDbCircle
 10
1261.299174847289
 20
-187.5733770749662
 30
0.0
 40
32.80922378007655
100
AcDbArc
 50
93.98074746307971
 51
107.8070272858295
  0
ARC
  5
1378FD
330
18
100
AcDbEntity
  8
姿図
100
AcDbCircle
 10
1262.93192684559
 20
-193.4660929017364
 30
0.0
 40
38.34873428268889
100
AcDbArc
 50
62.74935352216934
 51
116.6720763546668
  0
ARC
  5
1378FE
330
18
100
AcDbEntity
  8
姿図
100
AcDbCircle
 10
1256.49222457817
 20
-173.0805534180845
 30
0.0
 40
17.54129624230994
100
AcDbArc
 50
107.3347820979411
 51
124.3980172455523
  0
LINE
  5
1378FF
330
18
100
AcDbEntity
  8
姿図
100
AcDbLine
 10
1246.547767168406
 20
-158.5221318892036
 30
0.0
 11
1246.632255628304
 21
-158.7278912757556
 31
0.0
  0
LINE
  5
137900
330
18
100
AcDbEntity
  8
姿図
100
AcDbLine
 10
1243.753593657065
 20
-158.5034182186555
 30
0.0
 11
1244.180953184987
 21
-158.1823431631369
 31
0.0
  0
ARC
  5
137901
330
18
100
AcDbEntity
  8
姿図
100
AcDbCircle
 10
1244.379816427431
 20
-158.7718936215228
 30
0.0
 40
0.6813471949530258
100
AcDbArc
 50
156.7941273154498
 51
207.5593620771237
  0
SPLINE
  5
137902
330
18
100
AcDbEntity
  8
姿図
100
AcDbSpline
210
0.0
220
0.0
230
1.0
 70
     8
 71
     3
 72
     8
 73
     4
 74
     0
 42
0.000000001
 43
0.0000000001
 40
24.0
 40
24.0
 40
24.0
 40
24.0
 40
25.0
 40
25.0
 40
25.0
 40
25.0
 10
1245.862522793405
 20
-157.2449517589957
 30
0.0
 10
1245.98710599002
 20
-157.4630643371202
 30
0.0
 10
1246.547767168406
 20
-158.5221318892036
 30
0.0
 10
1246.547767168406
 20
-158.5221318892036
 30
0.0
  0
SPLINE
  5
137903
330
18
100
AcDbEntity
  8
姿図
100
AcDbSpline
210
0.0
220
0.0
230
1.0
 70
     8
 71
     3
 72
     8
 73
     4
 74
     0
 42
0.000000001
 43
0.0000000001
 40
23.0
 40
23.0
 40
23.0
 40
23.0
 40
24.0
 40
24.0
 40
24.0
 40
24.0
 10
1245.239606810334
 20
-157.3385547277448
 30
0.0
 10
1245.675611204865
 20
-157.0581873449323
 30
0.0
 10
1245.737939596792
 20
-157.026986355349
 30
0.0
 10
1245.862522793405
 20
-157.2449517589957
 30
0.0
  0
SPLINE
  5
137904
330
18
100
AcDbEntity
  8
姿図
100
AcDbSpline
210
0.0
220
0.0
230
1.0
 70
     8
 71
     3
 72
     8
 73
     4
 74
     0
 42
0.000000001
 43
0.0000000001
 40
22.0
 40
22.0
 40
22.0
 40
22.0
 40
23.0
 40
23.0
 40
23.0
 40
23.0
 10
1244.180953184987
 20
-158.1823431631369
 30
0.0
 10
1244.180953184987
 20
-158.1823431631369
 30
0.0
 10
1244.803455241323
 20
-157.6189221105578
 30
0.0
 10
1245.239606810334
 20
-157.3385547277448
 30
0.0
  0
ARC
  5
137905
330
18
100
AcDbEntity
  8
姿図
100
AcDbCircle
 10
1239.772095836596
 20
-160.2188219712862
 30
0.0
 40
4.933183360478367
100
AcDbArc
 50
327.3274661667484
 51
328.4791224773523
  0
ARC
  5
137906
330
18
100
AcDbEntity
  8
姿図
100
AcDbCircle
 10
1246.574742169533
 20
-163.3752299653074
 30
0.0
 40
1.995854029087521
100
AcDbArc
 50
126.7373714880062
 51
154.0752283627692
  0
ARC
  5
137907
330
18
100
AcDbEntity
  8
姿図
100
AcDbCircle
 10
1246.336211669427
 20
-163.1736001072131
 30
0.0
 40
1.529861478451047
100
AcDbArc
 50
130.0785474406354
 51
149.8174236719944
  0
LINE
  5
137908
330
18
100
AcDbEntity
  8
姿図
100
AcDbLine
 10
1244.788741963785
 20
-161.47667446996
 30
0.0
 11
1245.480836978743
 21
-161.0112921549935
 31
0.0
  0
ARC
  5
137909
330
18
100
AcDbEntity
  8
姿図
100
AcDbCircle
 10
1244.150249557054
 20
-161.1549053289505
 30
0.0
 40
0.714988065326212
100
AcDbArc
 50
333.2541164958707
 51
25.00167590417994
  0
LINE
  5
13790A
330
18
100
AcDbEntity
  8
姿図
100
AcDbLine
 10
1243.977386605706
 20
-162.7979356980036
 30
0.0
 11
1244.788741963785
 21
-161.47667446996
 31
0.0
  0
LINE
  5
13790B
330
18
100
AcDbEntity
  8
姿図
100
AcDbLine
 10
1245.314843344594
 20
-162.2814272905416
 30
0.0
 11
1245.717810778632
 21
-159.1980373817983
 31
0.0
  0
LINE
  5
13790C
330
18
100
AcDbEntity
  8
姿図
100
AcDbLine
 10
1244.850050244537
 20
-161.0083211164374
 30
0.0
 11
1245.543898537761
 21
-160.5287633988801
 31
0.0
  0
LINE
  5
13790D
330
18
100
AcDbEntity
  8
姿図
100
AcDbLine
 10
1243.775780365825
 20
-159.0871307328389
 30
0.0
 11
1244.798239969622
 21
-160.8527193617388
 31
0.0
  0
ARC
  5
13790E
330
18
100
AcDbEntity
  8
姿図
100
AcDbCircle
 10
1272.558428992256
 20
-168.2993751482031
 30
0.0
 40
11.91442289675602
100
AcDbArc
 50
54.97594631035493
 51
68.3950549255222
  0
ARC
  5
13790F
330
18
100
AcDbEntity
  8
姿図
100
AcDbCircle
 10
1263.048170779809
 20
-199.513893559511
 30
0.0
 40
44.8517020833621
100
AcDbArc
 50
82.26642964453974
 51
95.15078153009281
  0
ARC
  5
137910
330
18
100
AcDbEntity
  8
姿図
100
AcDbCircle
 10
1264.929892663219
 20
-185.68268269909
 30
0.0
 40
30.89307555794776
100
AcDbArc
 50
67.11157932921104
 51
82.27270771509374
  0
ARC
  5
137911
330
18
100
AcDbEntity
  8
姿図
100
AcDbCircle
 10
1280.469936877903
 20
-157.541473169269
 30
0.0
 40
0.4767084649455859
100
AcDbArc
 50
119.0435180761677
 51
159.4188376883561
  0
SPLINE
  5
137912
330
18
100
AcDbEntity
  8
姿図
100
AcDbSpline
210
0.0
220
0.0
230
1.0
 70
     8
 71
     3
 72
     8
 73
     4
 74
     0
 42
0.000000001
 43
0.0000000001
 40
131.0
 40
131.0
 40
131.0
 40
131.0
 40
132.0
 40
132.0
 40
132.0
 40
132.0
 10
1282.271281322052
 20
-158.9317184647243
 30
0.0
 10
1282.077746881948
 20
-159.3995861339949
 30
0.0
 10
1281.496849212676
 20
-160.4482042980576
 30
0.0
 10
1281.496849212676
 20
-160.4482042980576
 30
0.0
  0
SPLINE
  5
137913
330
18
100
AcDbEntity
  8
姿図
100
AcDbSpline
210
0.0
220
0.0
230
1.0
 70
     8
 71
     3
 72
     8
 73
     4
 74
     0
 42
0.000000001
 43
0.0000000001
 40
130.0
 40
130.0
 40
130.0
 40
130.0
 40
131.0
 40
131.0
 40
131.0
 40
131.0
 10
1282.126020111115
 20
-158.1733283735789
 30
0.0
 10
1282.335743743927
 20
-158.3347787772241
 30
0.0
 10
1282.464962936635
 20
-158.4637036209742
 30
0.0
 10
1282.271281322052
 20
-158.9317184647243
 30
0.0
  0
SPLINE
  5
137914
330
18
100
AcDbEntity
  8
姿図
100
AcDbSpline
210
0.0
220
0.0
230
1.0
 70
     8
 71
     3
 72
     8
 73
     4
 74
     0
 42
0.000000001
 43
0.0000000001
 40
129.0
 40
129.0
 40
129.0
 40
129.0
 40
130.0
 40
130.0
 40
130.0
 40
130.0
 10
1280.51269347049
 20
-157.0924789985779
 30
0.0
 10
1280.674143874134
 20
-157.1731306131619
 30
0.0
 10
1281.916296478302
 20
-158.0120251444114
 30
0.0
 10
1282.126020111115
 20
-158.1733283735789
 30
0.0
  0
SPLINE
  5
137915
330
18
100
AcDbEntity
  8
姿図
100
AcDbSpline
210
0.0
220
0.0
230
1.0
 70
     8
 71
     3
 72
     8
 73
     4
 74
     0
 42
0.000000001
 43
0.0000000001
 40
128.0
 40
128.0
 40
128.0
 40
128.0
 40
129.0
 40
129.0
 40
129.0
 40
129.0
 10
1280.238507415802
 20
-157.1247102095153
 30
0.0
 10
1280.238507415802
 20
-157.1247102095153
 30
0.0
 10
1280.351390241322
 20
-157.0116802095158
 30
0.0
 10
1280.51269347049
 20
-157.0924789985779
 30
0.0
  0
LINE
  5
137916
330
18
100
AcDbEntity
  8
姿図
100
AcDbLine
 10
1280.51269347049
 20
-157.0924789985779
 30
0.0
 11
1279.541801861875
 21
-158.8559814026671
 31
0.0
  0
LINE
  5
137917
330
18
100
AcDbEntity
  8
姿図
100
AcDbLine
 10
1280.023654252775
 20
-157.3738939967557
 30
0.0
 11
1279.296146147445
 21
-158.7292114390712
 31
0.0
  0
ARC
  5
137918
330
18
100
AcDbEntity
  8
姿図
100
AcDbCircle
 10
1279.646414774871
 20
-163.257200695527
 30
0.0
 40
1.601659530506788
100
AcDbArc
 50
36.42191274693822
 51
46.24047802658605
  0
ARC
  5
137919
330
18
100
AcDbEntity
  8
姿図
100
AcDbCircle
 10
1279.675598267648
 20
-163.3313695028669
 30
0.0
 40
1.753694878231653
100
AcDbArc
 50
32.20728722475869
 51
52.69836353273745
  0
LINE
  5
13791A
330
18
100
AcDbEntity
  8
姿図
100
AcDbLine
 10
1281.263236139063
 20
-161.4374171380855
 30
0.0
 11
1282.46093468247
 21
-162.9669615340968
 31
0.0
  0
LINE
  5
13791B
330
18
100
AcDbEntity
  8
姿図
100
AcDbLine
 10
1283.610969240532
 20
-162.0737949468994
 30
0.0
 11
1283.591630056161
 21
-163.5338067043572
 31
0.0
  0
LINE
  5
13791C
330
18
100
AcDbEntity
  8
姿図
100
AcDbLine
 10
1281.22567902573
 20
-161.3605240028428
 30
0.0
 11
1280.652215043613
 21
-161.0431884654681
 31
0.0
  0
ARC
  5
13791D
330
18
100
AcDbEntity
  8
姿図
100
AcDbCircle
 10
1281.659427138832
 20
-161.196285914521
 30
0.0
 40
0.4638012238845369
100
AcDbArc
 50
158.29472268713
 51
211.3256838175544
  0
LINE
  5
13791E
330
18
100
AcDbEntity
  8
姿図
100
AcDbLine
 10
1283.610969240532
 20
-162.0737949468994
 30
0.0
 11
1287.423995443999
 21
-164.571363362149
 31
0.0
  0
LINE
  5
13791F
330
18
100
AcDbEntity
  8
姿図
100
AcDbLine
 10
1282.690728587678
 20
-162.1745609386821
 30
0.0
 11
1283.610969240532
 21
-162.0737949468994
 31
0.0
  0
SPLINE
  5
137920
330
18
100
AcDbEntity
  8
姿図
100
AcDbSpline
210
0.0
220
0.0
230
1.0
 70
     8
 71
     3
 72
     8
 73
     4
 74
     0
 42
0.000000001
 43
0.0000000001
 40
133.0
 40
133.0
 40
133.0
 40
133.0
 40
134.0
 40
134.0
 40
134.0
 40
134.0
 10
1282.577845762157
 20
-162.1583717459744
 30
0.0
 10
1282.64230818403
 20
-162.2390233605574
 30
0.0
 10
1282.690728587678
 20
-162.1745609386821
 30
0.0
 10
1282.690728587678
 20
-162.1745609386821
 30
0.0
  0
LINE
  5
137921
330
18
100
AcDbEntity
  8
姿図
100
AcDbLine
 10
1280.767645157252
 20
-162.2400686732581
 30
0.0
 11
1280.491196623706
 21
-159.3736088921537
 31
0.0
  0
LINE
  5
137922
330
18
100
AcDbEntity
  8
姿図
100
AcDbLine
 10
1281.22851011208
 20
-161.02475722499
 30
0.0
 11
1280.604225251324
 21
-160.5455883959912
 31
0.0
  0
LINE
  5
137923
330
18
100
AcDbEntity
  8
姿図
100
AcDbLine
 10
1281.496849212676
 20
-160.4482042980576
 30
0.0
 11
1281.22851011208
 21
-161.02475722499
 31
0.0
  0
SPLINE
  5
137924
330
18
100
AcDbEntity
  8
姿図
100
AcDbSpline
210
0.0
220
0.0
230
1.0
 70
     8
 71
     3
 72
     8
 73
     4
 74
     0
 42
0.000000001
 43
0.0000000001
 40
132.0
 40
132.0
 40
132.0
 40
132.0
 40
133.0
 40
133.0
 40
133.0
 40
133.0
 10
1281.496849212676
 20
-160.4482042980576
 30
0.0
 10
1281.496849212676
 20
-160.4482042980576
 30
0.0
 10
1282.158251322052
 20
-161.0289547928492
 30
0.0
 10
1282.577845762157
 20
-162.1583717459744
 30
0.0
  0
LINE
  5
137925
330
18
100
AcDbEntity
  8
姿図
100
AcDbLine
 10
1242.665465763807
 20
-162.0737949468994
 30
0.0
 11
1242.684306461767
 21
-163.4961734719345
 31
0.0
  0
LINE
  5
137926
330
18
100
AcDbEntity
  8
姿図
100
AcDbLine
 10
1242.665465763807
 20
-162.0737949468994
 30
0.0
 11
1238.713029801393
 21
-164.6626780796832
 31
0.0
  0
LINE
  5
137927
330
18
100
AcDbEntity
  8
姿図
100
AcDbLine
 10
1243.585706416662
 20
-162.1745609386821
 30
0.0
 11
1242.665465763807
 21
-162.0737949468994
 31
0.0
  0
SPLINE
  5
137928
330
18
100
AcDbEntity
  8
姿図
100
AcDbSpline
210
0.0
220
0.0
230
1.0
 70
     8
 71
     3
 72
     8
 73
     4
 74
     0
 42
0.000000001
 43
0.0000000001
 40
132.2808036309329
 40
132.2808036309329
 40
132.2808036309329
 40
132.2808036309329
 40
133.0
 40
133.0
 40
133.0
 40
133.0
 10
1244.643128245928
 20
-160.58487162032
 30
0.0
 10
1244.427204262968
 20
-160.8176207161282
 30
0.0
 10
1244.000360039988
 20
-161.3460991741235
 30
0.0
 10
1243.698589242182
 20
-162.1583717459744
 30
0.0
  0
SPLINE
  5
137929
330
18
100
AcDbEntity
  8
姿図
100
AcDbSpline
210
0.0
220
0.0
230
1.0
 70
     8
 71
     3
 72
     8
 73
     4
 74
     0
 42
0.000000001
 43
0.0000000001
 40
133.0
 40
133.0
 40
133.0
 40
133.0
 40
134.0
 40
134.0
 40
134.0
 40
134.0
 10
1243.698589242182
 20
-162.1583717459744
 30
0.0
 10
1243.634126820308
 20
-162.2390233605574
 30
0.0
 10
1243.585706416662
 20
-162.1745609386821
 30
0.0
 10
1243.585706416662
 20
-162.1745609386821
 30
0.0
  0
ELLIPSE
  5
13792A
330
18
100
AcDbEntity
  8
姿図
100
AcDbEllipse
 10
1263.145398942018
 20
-182.3183954702595
 30
0.0
 11
25.16729616729826
 21
0.0
 31
0.0
210
0.0
220
0.0
230
1.0
 40
0.4353578139121608
 41
0.0
 42
6.283185307179586
  0
ELLIPSE
  5
13792B
330
18
100
AcDbEntity
  8
姿図
100
AcDbEllipse
 10
1263.145398942018
 20
-178.4144872558122
 30
0.0
 11
25.16729616729826
 21
0.0
 31
0.0
210
0.0
220
0.0
230
1.0
 40
0.4353578139121608
 41
3.430182674761786
 42
3.654760014940499
  0
ELLIPSE
  5
13792C
330
18
100
AcDbEntity
  8
姿図
100
AcDbEllipse
 10
1263.145398942018
 20
-178.4144872558122
 30
0.0
 11
25.16729616729826
 21
0.0
 31
0.0
210
0.0
220
0.0
230
1.0
 40
0.4353578139121608
 41
3.89140980700206
 42
4.1768344607692
  0
ELLIPSE
  5
13792D
330
18
100
AcDbEntity
  8
姿図
100
AcDbEllipse
 10
1263.145398942018
 20
-178.4144872558122
 30
0.0
 11
25.16729616729826
 21
0.0
 31
0.0
210
0.0
220
0.0
230
1.0
 40
0.4353578139121608
 41
4.329600751246138
 42
4.635042359883845
  0
ELLIPSE
  5
13792E
330
18
100
AcDbEntity
  8
姿図
100
AcDbEllipse
 10
1263.145398942018
 20
-178.4144872558122
 30
0.0
 11
25.16729616729826
 21
0.0
 31
0.0
210
0.0
220
0.0
230
1.0
 40
0.4353578139121608
 41
4.789735600885534
 42
5.095177209523239
  0
ELLIPSE
  5
13792F
330
18
100
AcDbEntity
  8
姿図
100
AcDbEllipse
 10
1263.145398942018
 20
-178.4144872558122
 30
0.0
 11
25.16729616729826
 21
0.0
 31
0.0
210
0.0
220
0.0
230
1.0
 40
0.4353578139121608
 41
5.247943500000344
 42
5.533368153767317
  0
ELLIPSE
  5
137930
330
18
100
AcDbEntity
  8
姿図
100
AcDbEllipse
 10
1263.145398942018
 20
-178.4144872558122
 30
0.0
 11
25.16729616729826
 21
0.0
 31
0.0
210
0.0
220
0.0
230
1.0
 40
0.4353578139121608
 41
5.77001794582888
 42
5.994595286008098
  0
ELLIPSE
  5
137931
330
18
100
AcDbEntity
  8
姿図
100
AcDbEllipse
 10
1263.145398942018
 20
-178.4144872558122
 30
0.0
 11
19.99538315184036
 21
0.0
 31
0.0
210
0.0
220
0.0
230
-1.0
 40
0.3684551029263017
 41
5.542264346187127
 42
10.16569892176183
  0
LINE
  5
137932
330
18
100
AcDbEntity
  8
姿図
100
AcDbLine
 10
1263.145398942018
 20
-193.2751745117343
 30
0.0
 11
1261.200733983446
 21
-189.3385081697834
 31
0.0
  0
LINE
  5
137933
330
18
100
AcDbEntity
  8
姿図
100
AcDbLine
 10
1261.200733983446
 20
-189.3385081697834
 30
0.0
 11
1263.145398942018
 21
-185.7818882130746
 31
0.0
  0
LINE
  5
137934
330
18
100
AcDbEntity
  8
姿図
100
AcDbLine
 10
1251.978284119733
 20
-192.1375079827512
 30
0.0
 11
1250.302074775848
 21
-187.8371614279372
 31
0.0
  0
LINE
  5
137935
330
18
100
AcDbEntity
  8
姿図
100
AcDbLine
 10
1250.302074775848
 20
-187.8371614279372
 30
0.0
 11
1255.417621655332
 21
-185.209430789304
 31
0.0
  0
LINE
  5
137936
330
18
100
AcDbEntity
  8
姿図
100
AcDbLine
 10
1255.417621655332
 20
-185.209430789304
 30
0.0
 11
1251.978284119733
 21
-192.1375079827512
 31
0.0
  0
LINE
  5
137937
330
18
100
AcDbEntity
  8
姿図
100
AcDbLine
 10
1242.26913810775
 20
-188.4378374629832
 30
0.0
 11
1241.219804073623
 21
-183.7935983959283
 31
0.0
  0
LINE
  5
137938
330
18
100
AcDbEntity
  8
姿図
100
AcDbLine
 10
1241.219804073623
 20
-183.7935983959283
 30
0.0
 11
1247.497817204351
 21
-183.001250638883
 31
0.0
  0
LINE
  5
137939
330
18
100
AcDbEntity
  8
姿図
100
AcDbLine
 10
1247.497817204351
 20
-183.001250638883
 30
0.0
 11
1242.26913810775
 21
-188.4378374629832
 31
0.0
  0
LINE
  5
13793A
330
18
100
AcDbEntity
  8
姿図
100
AcDbLine
 10
1237.97810277472
 20
-182.3183954702595
 30
0.0
 11
1243.150015790176
 21
-178.4144872558122
 31
0.0
  0
LINE
  5
13793B
330
18
100
AcDbEntity
  8
姿図
100
AcDbLine
 10
1243.150015790176
 20
-178.4144872558122
 30
0.0
 11
1239.62979871194
 21
-178.4144872558122
 31
0.0
  0
LINE
  5
13793C
330
18
100
AcDbEntity
  8
姿図
100
AcDbLine
 10
1263.145398942018
 20
-193.2751745117343
 30
0.0
 11
1265.090063900589
 21
-189.3385081697834
 31
0.0
  0
LINE
  5
13793D
330
18
100
AcDbEntity
  8
姿図
100
AcDbLine
 10
1265.090063900589
 20
-189.3385081697834
 30
0.0
 11
1263.145398942018
 21
-185.7818882130746
 31
0.0
  0
LINE
  5
13793E
330
18
100
AcDbEntity
  8
姿図
100
AcDbLine
 10
1274.312513764303
 20
-192.1375079827512
 30
0.0
 11
1275.988723108187
 21
-187.8371614279372
 31
0.0
  0
LINE
  5
13793F
330
18
100
AcDbEntity
  8
姿図
100
AcDbLine
 10
1275.988723108187
 20
-187.8371614279372
 30
0.0
 11
1270.873176228703
 21
-185.209430789304
 31
0.0
  0
LINE
  5
137940
330
18
100
AcDbEntity
  8
姿図
100
AcDbLine
 10
1270.873176228703
 20
-185.209430789304
 30
0.0
 11
1274.312513764303
 21
-192.1375079827512
 31
0.0
  0
LINE
  5
137941
330
18
100
AcDbEntity
  8
姿図
100
AcDbLine
 10
1284.021659776285
 20
-188.4378374629832
 30
0.0
 11
1285.070993810413
 21
-183.7935983959283
 31
0.0
  0
LINE
  5
137942
330
18
100
AcDbEntity
  8
姿図
100
AcDbLine
 10
1285.070993810413
 20
-183.7935983959283
 30
0.0
 11
1278.792980679683
 21
-183.001250638883
 31
0.0
  0
LINE
  5
137943
330
18
100
AcDbEntity
  8
姿図
100
AcDbLine
 10
1278.792980679683
 20
-183.001250638883
 30
0.0
 11
1284.021659776285
 21
-188.4378374629832
 31
0.0
  0
LINE
  5
137944
330
18
100
AcDbEntity
  8
姿図
100
AcDbLine
 10
1288.312695109315
 20
-182.3183954702595
 30
0.0
 11
1283.140782093857
 21
-178.4144872558122
 31
0.0
  0
LINE
  5
137945
330
18
100
AcDbEntity
  8
姿図
100
AcDbLine
 10
1283.140782093857
 20
-178.4144872558122
 30
0.0
 11
1286.660999172095
 21
-178.4144872558122
 31
0.0
  0
LINE
  5
137946
330
18
100
AcDbEntity
  8
姿図
100
AcDbLine
 10
1263.14539894069
 20
-185.7818882130746
 30
0.0
 11
1263.145398940453
 21
-193.2751745117343
 31
0.0
  0
ELLIPSE
  5
137947
330
18
100
AcDbEntity
  8
姿図
100
AcDbEllipse
 10
1263.145398942018
 20
-178.1036078915536
 30
0.0
 11
19.99538315184036
 21
0.0
 31
0.0
210
0.0
220
0.0
230
-1.0
 40
0.3684551029263017
 41
6.304285179084703
 42
9.403678088864263
  0
LINE
  5
137948
330
18
100
AcDbEntity
  8
姿図
100
AcDbLine
 10
1276.286763403873
 20
-150.0694818908391
 30
0.0
 11
1275.841613064124
 21
-142.8504904620049
 31
0.0
  0
LINE
  5
137949
330
18
100
AcDbEntity
  8
姿図
100
AcDbLine
 10
1275.841613064124
 20
-142.8504904620049
 30
0.0
 11
1280.957325514036
 21
-142.7506877239302
 31
0.0
  0
LINE
  5
13794A
330
18
100
AcDbEntity
  8
姿図
100
AcDbLine
 10
1280.957325514036
 20
-142.7506877239302
 30
0.0
 11
1280.346050513247
 21
-143.466887489798
 31
0.0
  0
LINE
  5
13794B
330
18
100
AcDbEntity
  8
姿図
100
AcDbLine
 10
1280.346050513247
 20
-143.466887489798
 30
0.0
 11
1275.841613064124
 21
-142.8504904620049
 31
0.0
  0
LINE
  5
13794C
330
18
100
AcDbEntity
  8
姿図
100
AcDbLine
 10
1280.346050513247
 20
-143.466887489798
 30
0.0
 11
1281.068294240745
 21
-150.4582501933414
 31
0.0
  0
LINE
  5
13794D
330
18
100
AcDbEntity
  8
姿図
100
AcDbLine
 10
1281.068294240745
 20
-150.4582501933414
 30
0.0
 11
1277.536848446097
 21
-148.2298109717344
 31
0.0
  0
LINE
  5
13794E
330
18
100
AcDbEntity
  8
姿図
100
AcDbLine
 10
1277.536848446097
 20
-148.2298109717344
 30
0.0
 11
1276.286763403873
 21
-150.0694818908391
 31
0.0
  0
LINE
  5
13794F
330
18
100
AcDbEntity
  8
姿図
100
AcDbLine
 10
1276.306813859602
 20
-150.6811241434434
 30
0.0
 11
1277.536848446097
 21
-148.2298109717344
 31
0.0
  0
LINE
  5
137950
330
18
100
AcDbEntity
  8
姿図
100
AcDbLine
 10
1281.068294240745
 20
-150.4582501933414
 30
0.0
 11
1280.338330310579
 21
-151.2076389047561
 31
0.0
  0
LINE
  5
137951
330
18
100
AcDbEntity
  8
姿図
100
AcDbLine
 10
1280.338330310579
 20
-151.2076389047561
 30
0.0
 11
1277.043032439213
 21
-149.2139277562237
 31
0.0
  0
ARC
  5
137952
330
18
100
AcDbEntity
  8
姿図
100
AcDbCircle
 10
1275.467291066828
 20
-154.3404560107501
 30
0.0
 40
4.178554211528678
100
AcDbArc
 50
7.996323837423438
 51
75.66240874418374
  0
ELLIPSE
  5
137953
330
18
100
AcDbEntity
  8
姿図
100
AcDbEllipse
 10
1278.625719900638
 20
-155.68161879638
 30
0.0
 11
0.0
 21
1.90130905266451
 31
0.0
210
0.0
220
0.0
230
1.0
 40
0.9623071241746061
 41
0.0
 42
6.283185307179586
  0
LINE
  5
137BCE
330
18
100
AcDbEntity
  8
姿図
100
AcDbLine
 10
1245.527676327124
 20
-179.5786992631574
 30
0.0
 11
1257.93903897198
 21
-172.4129956991396
 31
0.0
  0
LINE
  5
137BCF
330
18
100
AcDbEntity
  8
姿図
100
AcDbLine
 10
1246.396740457338
 20
-180.363877629421
 30
0.0
 11
1260.318574306849
 21
-172.3261031087932
 31
0.0
  0
LINE
  5
137BD0
330
18
100
AcDbEntity
  8
姿図
100
AcDbLine
 10
1253.181634058061
 20
-183.2103330971368
 30
0.0
 11
1270.960533495102
 21
-172.9456807212659
 31
0.0
  0
LINE
  5
137BD1
330
18
100
AcDbEntity
  8
姿図
100
AcDbLine
 10
1254.739210534769
 20
-183.5979986748121
 30
0.0
 11
1272.802996322361
 21
-173.1688670877629
 31
0.0
  0
LINE
  5
137BD2
330
18
100
AcDbEntity
  8
姿図
100
AcDbLine
 10
1265.427949909423
 20
-184.2565989661653
 30
0.0
 11
1279.771133117217
 21
-175.9755582801099
 31
0.0
  0
LINE
  5
137BD3
330
18
100
AcDbEntity
  8
姿図
100
AcDbLine
 10
1267.636919009434
 20
-184.2681828374284
 30
0.0
 11
1280.795834219559
 21
-176.6708795986196
 31
0.0
  0
SPLINE
  5
13828A
330
18
100
AcDbEntity
  8
姿図
100
AcDbSpline
210
0.0
220
0.0
230
1.0
 70
     8
 71
     3
 72
     8
 73
     4
 74
     0
 42
0.000000001
 43
0.0000000001
 40
36.0
 40
36.0
 40
36.0
 40
36.0
 40
37.0
 40
37.0
 40
37.0
 40
37.0
 10
1294.426431372624
 20
-145.9979991434429
 30
0.0
 10
1291.722720435123
 20
-149.5411420470896
 30
0.0
 10
1289.671579484603
 20
-151.9341742736519
 30
0.0
 10
1288.863566789291
 20
-152.5867442606313
 30
0.0
  0
SPLINE
  5
13828B
330
18
100
AcDbEntity
  8
姿図
100
AcDbSpline
210
0.0
220
0.0
230
1.0
 70
     8
 71
     3
 72
    12
 73
     8
 74
     6
 42
0.000000001
 43
0.0000000001
 44
0.0000000001
 40
0.0
 40
0.0
 40
0.0
 40
0.0
 40
2.813366467462174
 40
4.182083402193591
 40
4.983029398489661
 40
5.478405391480901
 40
6.2241541161486
 40
6.2241541161486
 40
6.2241541161486
 40
6.2241541161486
 10
1288.321271217389
 20
-147.8412278969668
 30
0.0
 10
1288.51470724892
 20
-148.7679852391068
 30
0.0
 10
1288.802250882573
 20
-150.1456146888248
 30
0.0
 10
1288.587398819636
 20
-151.8103773078564
 30
0.0
 10
1288.302451710474
 20
-152.6601253139671
 30
0.0
 10
1287.909344099315
 20
-153.2271004843278
 30
0.0
 10
1287.574674480353
 20
-153.4754386801738
 30
0.0
 10
1287.373583133146
 20
-153.6246564744883
 30
0.0
 11
1288.321271217389
 21
-147.8412278969668
 31
0.0
 11
1288.689848264296
 21
-150.6303463671529
 31
0.0
 11
1288.507827372584
 21
-151.9869061492491
 31
0.0
 11
1288.227426852495
 21
-152.7371661290672
 31
0.0
 11
1287.942288536324
 21
-153.1422507067587
 31
0.0
 11
1287.373583133146
 21
-153.6246564744883
 31
0.0
  0
LINE
  5
13828C
330
18
100
AcDbEntity
  8
姿図
100
AcDbLine
 10
1290.350928883398
 20
-148.7044175473993
 30
0.0
 11
1288.690986601264
 21
-150.4773424153041
 31
0.0
  0
LINE
  5
13828D
330
18
100
AcDbEntity
  8
姿図
100
AcDbLine
 10
1290.299864751095
 20
-148.032919825715
 30
0.0
 11
1288.654191069116
 21
-149.7835042612314
 31
0.0
  0
LINE
  5
13828E
330
18
100
AcDbEntity
  8
姿図
100
AcDbLine
 10
1290.228940008293
 20
-147.4979022364378
 30
0.0
 11
1288.565611444787
 21
-149.1086021464562
 31
0.0
  0
SPLINE
  5
13828F
330
18
100
AcDbEntity
  8
姿図
100
AcDbSpline
210
0.0
220
0.0
230
1.0
 70
     8
 71
     3
 72
     8
 73
     4
 74
     0
 42
0.000000001
 43
0.0000000001
 40
0.0
 40
0.0
 40
0.0
 40
0.0
 40
1.0
 40
1.0
 40
1.0
 40
1.0
 10
1290.114582042291
 20
-151.3195956435302
 30
0.0
 10
1291.521169056074
 20
-145.2726650800714
 30
0.0
 10
1286.527585343975
 20
-139.5021682515162
 30
0.0
 10
1284.552098690329
 20
-137.3855015848494
 30
0.0
  0
SPLINE
  5
138290
330
18
100
AcDbEntity
  8
姿図
100
AcDbSpline
210
0.0
220
0.0
230
1.0
 70
     8
 71
     3
 72
     8
 73
     4
 74
     0
 42
0.000000001
 43
0.0000000001
 40
0.0
 40
0.0
 40
0.0
 40
0.0
 40
1.0
 40
1.0
 40
1.0
 40
1.0
 10
1282.383342179914
 20
-140.6093874897979
 30
0.0
 10
1284.711675513247
 20
-142.549527463756
 30
0.0
 10
1286.99598052627
 20
-147.391609169485
 30
0.0
 10
1286.899609845551
 20
-149.2753622419009
 30
0.0
  0
LINE
  5
138291
330
18
100
AcDbEntity
  8
姿図
100
AcDbLine
 10
1290.25593506475
 20
-150.5776527331718
 30
0.0
 11
1287.930086579746
 21
-153.3177659693711
 31
0.0
  0
SPLINE
  5
138292
330
18
100
AcDbEntity
  8
姿図
100
AcDbSpline
210
0.0
220
0.0
230
1.0
 70
     8
 71
     3
 72
     8
 73
     4
 74
     0
 42
0.000000001
 43
0.0000000001
 40
0.0
 40
0.0
 40
0.0
 40
0.0
 40
1.0
 40
1.0
 40
1.0
 40
1.0
 10
1283.052650570506
 20
-152.9162458016144
 30
0.0
 10
1284.692084065792
 20
-153.2200596746652
 30
0.0
 10
1287.489718666965
 20
-152.8437098620179
 30
0.0
 10
1286.899609845551
 20
-149.2753622419009
 30
0.0
  0
SPLINE
  5
138293
330
18
100
AcDbEntity
  8
姿図
100
AcDbSpline
210
0.0
220
0.0
230
1.0
 70
     8
 71
     3
 72
     8
 73
     4
 74
     0
 42
0.000000001
 43
0.0000000001
 40
37.0
 40
37.0
 40
37.0
 40
37.0
 40
38.0
 40
38.0
 40
38.0
 40
38.0
 10
1288.863566789291
 20
-152.5867442606313
 30
0.0
 10
1287.010861521076
 20
-154.333926605615
 30
0.0
 10
1285.128534095768
 20
-154.2354524925386
 30
0.0
 10
1283.459245500226
 20
-153.9268175028183
 30
0.0
  0
LINE
  5
138294
330
18
100
AcDbEntity
  8
姿図
100
AcDbLine
 10
1290.329719309452
 20
-149.9322728793468
 30
0.0
 11
1288.471212320034
 21
-152.1218048433202
 31
0.0
  0
LINE
  5
138295
330
18
100
AcDbEntity
  8
姿図
100
AcDbLine
 10
1290.335328865561
 20
-149.281249784648
 30
0.0
 11
1288.643218147291
 21
-151.2747480740391
 31
0.0
  0
LINE
  5
138296
330
18
100
AcDbEntity
  8
姿図
100
AcDbLine
 10
1296.934598690332
 20
-112.4265082580268
 30
0.0
 11
1295.64801438368
 21
-114.3002585569757
 31
0.0
  0
SPLINE
  5
138297
330
18
100
AcDbEntity
  8
姿図
100
AcDbSpline
210
0.0
220
0.0
230
1.0
 70
     8
 71
     3
 72
     8
 73
     4
 74
     0
 42
0.000000001
 43
0.0000000001
 40
0.0
 40
0.0
 40
0.0
 40
0.0
 40
1.0
 40
1.0
 40
1.0
 40
1.0
 10
1300.876890356997
 20
-115.7337999246934
 30
0.0
 10
1302.146890356999
 20
-114.0404665913597
 30
0.0
 10
1298.945432023663
 20
-110.1246332580267
 30
0.0
 10
1296.934598690332
 20
-112.4265082580268
 30
0.0
  0
LINE
  5
138298
330
18
100
AcDbEntity
  8
姿図
100
AcDbLine
 10
1290.713531155271
 20
-131.2915504798639
 30
0.0
 11
1292.695141655526
 21
-127.0500170194264
 31
0.0
  0
ELLIPSE
  5
138299
330
18
100
AcDbEntity
  8
姿図
100
AcDbEllipse
 10
1292.828859511342
 20
-123.1892064047101
 30
0.0
 11
-0.7457942708333334
 21
0.6259049479166667
 31
0.0
210
0.0
220
0.0
230
1.0
 40
0.7351581471724162
 41
0.0
 42
6.283185307179586
  0
LINE
  5
13829A
330
18
100
AcDbEntity
  8
姿図
100
AcDbLine
 10
1300.876890356997
 20
-115.7337999246934
 30
0.0
 11
1299.659548620898
 21
-117.5808011794666
 31
0.0
  0
SPLINE
  5
13829B
330
18
100
AcDbEntity
  8
姿図
100
AcDbSpline
210
0.0
220
0.0
230
1.0
 70
     8
 71
     3
 72
     8
 73
     4
 74
     0
 42
0.000000001
 43
0.0000000001
 40
0.0
 40
0.0
 40
0.0
 40
0.0
 40
1.0
 40
1.0
 40
1.0
 40
1.0
 10
1267.063140356999
 20
-125.4969249246933
 30
0.0
 10
1267.830432023665
 20
-124.6767165913602
 30
0.0
 10
1269.39147369033
 20
-123.3008832580272
 30
0.0
 10
1271.984390356997
 20
-122.9833832580266
 30
0.0
  0
SPLINE
  5
13829C
330
18
100
AcDbEntity
  8
姿図
100
AcDbSpline
210
0.0
220
0.0
230
1.0
 70
     8
 71
     3
 72
     8
 73
     4
 74
     0
 42
0.000000001
 43
0.0000000001
 40
0.0
 40
0.0
 40
0.0
 40
0.0
 40
1.0
 40
1.0
 40
1.0
 40
1.0
 10
1268.306682023666
 20
-123.9623415913597
 30
0.0
 10
1269.179807023663
 20
-123.2744249246939
 30
0.0
 10
1270.238140356997
 20
-122.6394249246932
 30
0.0
 10
1272.381265356999
 20
-122.110258258027
 30
0.0
  0
SPLINE
  5
13829D
330
18
100
AcDbEntity
  8
姿図
100
AcDbSpline
210
0.0
220
0.0
230
1.0
 70
     8
 71
     3
 72
     8
 73
     4
 74
     0
 42
0.000000001
 43
0.0000000001
 40
0.0106763948050698
 40
0.0106763948050698
 40
0.0106763948050698
 40
0.0106763948050698
 40
1.0
 40
1.0
 40
1.0
 40
1.0
 10
1284.750925747584
 20
-126.6899944241027
 30
0.0
 10
1282.678297587606
 20
-125.1165747282871
 30
0.0
 10
1276.7745715879
 20
-122.2242835001248
 30
0.0
 10
1271.984390356997
 20
-122.9833832580266
 30
0.0
  0
SPLINE
  5
13829E
330
18
100
AcDbEntity
  8
姿図
100
AcDbSpline
210
0.0
220
0.0
230
1.0
 70
     8
 71
     3
 72
     8
 73
     4
 74
     0
 42
0.000000001
 43
0.0000000001
 40
0.0
 40
0.0
 40
0.0
 40
0.0
 40
0.9548759970193254
 40
0.9548759970193254
 40
0.9548759970193254
 40
0.9548759970193254
 10
1272.381265356999
 20
-122.110258258027
 30
0.0
 10
1279.480569462336
 20
-121.8070851289731
 30
0.0
 10
1283.564324152318
 20
-124.7124565778618
 30
0.0
 10
1285.346639414066
 20
-125.7815310827177
 30
0.0
  0
LINE
  5
13829F
330
18
100
AcDbEntity
  8
姿図
100
AcDbLine
 10
1290.106465307152
 20
-146.8413078421354
 30
0.0
 11
1288.44879733833
 21
-148.4636865132306
 31
0.0
  0
LINE
  5
1382A0
330
18
100
AcDbEntity
  8
姿図
100
AcDbLine
 10
1289.970749209394
 20
-146.2763305736676
 30
0.0
 11
1288.322049340228
 21
-147.8223851807566
 31
0.0
  0
LINE
  5
1382A1
330
18
100
AcDbEntity
  8
姿図
100
AcDbLine
 10
1289.769799562006
 20
-145.591624990956
 30
0.0
 11
1288.093721953927
 21
-147.0274522970471
 31
0.0
  0
LINE
  5
1382A2
330
18
100
AcDbEntity
  8
姿図
100
AcDbLine
 10
1289.536540515736
 20
-144.9242150615505
 30
0.0
 11
1287.867526925251
 21
-146.3994284380765
 31
0.0
  0
LINE
  5
1382A3
330
18
100
AcDbEntity
  8
姿図
100
AcDbLine
 10
1289.271199881422
 20
-144.2657044119346
 30
0.0
 11
1287.570615500542
 21
-145.704349285259
 31
0.0
  0
SPLINE
  5
1382A4
330
18
100
AcDbEntity
  8
姿図
100
AcDbSpline
210
0.0
220
0.0
230
1.0
 70
     8
 71
     3
 72
     8
 73
     4
 74
     0
 42
0.000000001
 43
0.0000000001
 40
35.0
 40
35.0
 40
35.0
 40
35.0
 40
36.0
 40
36.0
 40
36.0
 40
36.0
 10
1296.035015356997
 20
-138.584911578339
 30
0.0
 10
1296.322129614808
 20
-139.9065880106309
 30
0.0
 10
1297.192360734602
 20
-142.9834027892771
 30
0.0
 10
1294.426431372624
 20
-145.9979991434429
 30
0.0
  0
SPLINE
  5
1382A5
330
18
100
AcDbEntity
  8
姿図
100
AcDbSpline
210
0.0
220
0.0
230
1.0
 70
     8
 71
     3
 72
     8
 73
     4
 74
     0
 42
0.000000001
 43
0.0000000001
 40
0.3748330610719267
 40
0.3748330610719267
 40
0.3748330610719267
 40
0.3748330610719267
 40
0.9335741083362055
 40
0.9335741083362055
 40
0.9335741083362055
 40
0.9335741083362055
 10
1288.321271217389
 20
-147.8412278969668
 30
0.0
 10
1287.536821249688
 20
-144.4429636244327
 30
0.0
 10
1284.571529761118
 20
-140.9763410954656
 30
0.0
 10
1283.122172282769
 20
-139.3603085137961
 30
0.0
  0
LINE
  5
1382A6
330
18
100
AcDbEntity
  8
姿図
100
AcDbLine
 10
1285.020821213357
 20
-137.8967036754088
 30
0.0
 11
1283.504424963074
 21
-139.790899450617
 31
0.0
  0
LINE
  5
1382A7
330
18
100
AcDbEntity
  8
姿図
100
AcDbLine
 10
1287.022014505129
 20
-140.3665168400053
 30
0.0
 11
1285.394855723008
 21
-142.1222830078577
 31
0.0
  0
LINE
  5
1382A8
330
18
100
AcDbEntity
  8
姿図
100
AcDbLine
 10
1286.65117592544
 20
-139.8337098041329
 30
0.0
 11
1284.976982403344
 21
-141.5699074939112
 31
0.0
  0
LINE
  5
1382A9
330
18
100
AcDbEntity
  8
姿図
100
AcDbLine
 10
1286.163099236929
 20
-139.2386740085462
 30
0.0
 11
1284.529791840386
 21
-141.0051551608235
 31
0.0
  0
LINE
  5
1382AA
330
18
100
AcDbEntity
  8
姿図
100
AcDbLine
 10
1285.619044275569
 20
-138.5803392354228
 30
0.0
 11
1284.032863407777
 21
-140.4043147098255
 31
0.0
  0
LINE
  5
1382AB
330
18
100
AcDbEntity
  8
姿図
100
AcDbLine
 10
1287.912554798545
 20
-141.6908114530543
 30
0.0
 11
1286.221687300344
 21
-143.3064664126737
 31
0.0
  0
LINE
  5
1382AC
330
18
100
AcDbEntity
  8
姿図
100
AcDbLine
 10
1287.447727854808
 20
-140.9759681485607
 30
0.0
 11
1285.79137288282
 21
-142.6729210187914
 31
0.0
  0
LINE
  5
1382AD
330
18
100
AcDbEntity
  8
姿図
100
AcDbLine
 10
1289.033972321988
 20
-143.738130098141
 30
0.0
 11
1287.310349322461
 21
-145.1675355379866
 31
0.0
  0
LINE
  5
1382AE
330
18
100
AcDbEntity
  8
姿図
100
AcDbLine
 10
1288.674803239778
 20
-143.0166521174615
 30
0.0
 11
1286.964485503874
 21
-144.5225975540493
 31
0.0
  0
LINE
  5
1382AF
330
18
100
AcDbEntity
  8
姿図
100
AcDbLine
 10
1288.317724636147
 20
-142.3671032383809
 30
0.0
 11
1286.647354679612
 21
-143.9803602231395
 31
0.0
  0
SPLINE
  5
1382B0
330
18
100
AcDbEntity
  8
姿図
100
AcDbSpline
210
0.0
220
0.0
230
1.0
 70
     8
 71
     3
 72
     8
 73
     4
 74
     0
 42
0.000000001
 43
0.0000000001
 40
0.0
 40
0.0
 40
0.0
 40
0.0
 40
0.9866995420590119
 40
0.9866995420590119
 40
0.9866995420590119
 40
0.9866995420590119
 10
1296.035015356997
 20
-138.584911578339
 30
0.0
 10
1295.547763401985
 20
-136.5660486747452
 30
0.0
 10
1293.96131817106
 20
-133.3793683818953
 30
0.0
 10
1291.068126152925
 20
-130.5325584643983
 30
0.0
  0
SPLINE
  5
1382B1
330
18
100
AcDbEntity
  8
姿図
100
AcDbSpline
210
0.0
220
0.0
230
1.0
 70
     8
 71
     3
 72
     8
 73
     4
 74
     0
 42
0.000000001
 43
0.0000000001
 40
0.0
 40
0.0
 40
0.0
 40
0.0
 40
1.0
 40
1.0
 40
1.0
 40
1.0
 10
1295.188348690332
 20
-145.0099457580268
 30
0.0
 10
1297.185952856999
 20
-140.406195758027
 30
0.0
 10
1293.56116119033
 20
-133.9768207580273
 30
0.0
 10
1290.637515356998
 20
-131.7543207580266
 30
0.0
  0
SPLINE
  5
1382B2
330
18
100
AcDbEntity
  8
姿図
100
AcDbSpline
210
0.0
220
0.0
230
1.0
 70
    24
 71
     3
 72
     8
 73
     4
 74
     0
 42
0.000000001
 43
0.0000000001
 40
0.0
 40
0.0
 40
0.0
 40
0.0
 40
1.0
 40
1.0
 40
1.0
 40
1.0
 10
1300.390341909443
 20
-117.6469038810264
 30
0.0
 10
1300.390341909443
 20
-117.6469038810264
 30
0.0
 10
1301.700822866035
 20
-115.1043732139919
 30
0.0
 10
1301.700822866035
 20
-115.1043732139919
 30
0.0
  0
SPLINE
  5
1382B3
330
18
100
AcDbEntity
  8
姿図
100
AcDbSpline
210
0.0
220
0.0
230
1.0
 70
     8
 71
     3
 72
     8
 73
     4
 74
     0
 42
0.000000001
 43
0.0000000001
 40
1.0
 40
1.0
 40
1.0
 40
1.0
 40
2.0
 40
2.0
 40
2.0
 40
2.0
 10
1301.700822866035
 20
-115.1043732139919
 30
0.0
 10
1301.700822866035
 20
-115.1043732139919
 30
0.0
 10
1301.729794486532
 20
-114.9233620361124
 30
0.0
 10
1301.651347014355
 20
-114.8201808330659
 30
0.0
  0
SPLINE
  5
1382B4
330
18
100
AcDbEntity
  8
姿図
100
AcDbSpline
210
0.0
220
0.0
230
1.0
 70
     8
 71
     3
 72
     8
 73
     4
 74
     0
 42
0.000000001
 43
0.0000000001
 40
1.471451898813356
 40
1.471451898813356
 40
1.471451898813356
 40
1.471451898813356
 40
1.773254205883107
 40
1.773254205883107
 40
1.773254205883107
 40
1.773254205883107
 10
1284.30625083785
 20
-111.4627912448796
 30
0.0000000000000018
 10
1285.615038389679
 20
-109.5968140604655
 30
0.000000000000003
 10
1287.069284404181
 20
-107.525367011056
 30
0.0000000000000049
 10
1288.318881680317
 20
-105.7500595536585
 30
0.000000000000008
  0
SPLINE
  5
1382B5
330
18
100
AcDbEntity
  8
姿図
100
AcDbSpline
210
0.0
220
0.0
230
1.0
 70
     8
 71
     3
 72
     8
 73
     4
 74
     0
 42
0.000000001
 43
0.0000000001
 40
0.0
 40
0.0
 40
0.0
 40
0.0
 40
1.0
 40
1.0
 40
1.0
 40
1.0
 10
1306.43500210502
 20
-118.2325030592092
 30
0.0
 10
1306.43500210502
 20
-118.2325030592092
 30
0.0
 10
1306.936113492106
 20
-118.583368235918
 30
0.0
 10
1306.820210137896
 20
-118.8798174898093
 30
0.0
  0
SPLINE
  5
1382B6
330
18
100
AcDbEntity
  8
姿図
100
AcDbSpline
210
0.0
220
0.0
230
1.0
 70
     8
 71
     3
 72
     8
 73
     4
 74
     0
 42
0.000000001
 43
0.0000000001
 40
1.0
 40
1.0
 40
1.0
 40
1.0
 40
1.888883729132651
 40
1.888883729132651
 40
1.888883729132651
 40
1.888883729132651
 10
1306.820210137896
 20
-118.8798174898093
 30
0.0
 10
1306.820210137896
 20
-118.8798174898093
 30
0.0
 10
1301.848030365284
 20
-126.4708859055149
 30
0.0
 10
1298.593710957172
 20
-131.2632570055684
 30
0.0
  0
SPLINE
  5
1382B7
330
18
100
AcDbEntity
  8
姿図
100
AcDbSpline
210
0.0
220
0.0
230
1.0
 70
     8
 71
     3
 72
    11
 73
     7
 74
     0
 42
0.000000001
 43
0.0000000001
 40
0.0
 40
0.0
 40
0.0
 40
0.0
 40
1.0
 40
1.0
 40
1.0
 40
1.788176320105198
 40
1.788176320105198
 40
1.788176320105198
 40
1.788176320105198
 10
1306.86888275942
 20
-115.7656537342727
 30
0.0
 10
1306.86888275942
 20
-115.7656537342727
 30
0.0
 10
1307.34634319119
 20
-115.9105287089797
 30
0.0
 10
1306.930733866488
 20
-116.6064815089717
 30
0.0
 10
1306.603160438347
 20
-117.1550150258349
 30
0.0
 10
1300.25689995684
 20
-127.134015350855
 30
0.0
 10
1295.800633824635
 20
-137.7768423711836
 30
0.0
  0
SPLINE
  5
1382B8
330
18
100
AcDbEntity
  8
姿図
100
AcDbSpline
210
0.0
220
0.0
230
1.0
 70
    24
 71
     3
 72
     8
 73
     4
 74
     0
 42
0.000000001
 43
0.0000000001
 40
0.0
 40
0.0
 40
0.0
 40
0.0
 40
1.0
 40
1.0
 40
1.0
 40
1.0
 10
1305.035652930849
 20
-115.295992162432
 30
0.0
 10
1305.035652930849
 20
-115.295992162432
 30
0.0
 10
1307.140107695931
 20
-115.8051735648819
 30
0.0
 10
1307.140107695931
 20
-115.8051735648819
 30
0.0
  0
SPLINE
  5
1382B9
330
18
100
AcDbEntity
  8
姿図
100
AcDbSpline
210
0.0
220
0.0
230
1.0
 70
     8
 71
     3
 72
     8
 73
     4
 74
     0
 42
0.000000001
 43
0.0000000001
 40
1.0
 40
1.0
 40
1.0
 40
1.0
 40
2.0
 40
2.0
 40
2.0
 40
2.0
 10
1307.140107695931
 20
-115.8051735648819
 30
0.0
 10
1307.140107695931
 20
-115.8051735648819
 30
0.0
 10
1307.668372048184
 20
-115.9756281427003
 30
0.0
 10
1307.434501391189
 20
-116.4401211300465
 30
0.0
  0
SPLINE
  5
1382BA
330
18
100
AcDbEntity
  8
姿図
100
AcDbSpline
210
0.0
220
0.0
230
1.0
 70
     8
 71
     3
 72
     8
 73
     4
 74
     0
 42
0.000000001
 43
0.0000000001
 40
2.0
 40
2.0
 40
2.0
 40
2.0
 40
2.733284138265212
 40
2.733284138265212
 40
2.733284138265212
 40
2.733284138265212
 10
1307.434501391189
 20
-116.4401211300465
 30
0.0
 10
1307.434501391189
 20
-116.4401211300465
 30
0.0
 10
1301.268444281436
 20
-126.0209736796342
 30
0.0
 10
1296.035015356997
 20
-138.584911578339
 30
0.0
  0
SPLINE
  5
1382BB
330
18
100
AcDbEntity
  8
姿図
100
AcDbSpline
210
0.0
220
0.0
230
1.0
 70
     8
 71
     3
 72
    11
 73
     7
 74
     0
 42
0.000000001
 43
0.0000000001
 40
0.0
 40
0.0
 40
0.0
 40
0.0
 40
1.0
 40
1.0
 40
1.0
 40
1.768789991941922
 40
1.768789991941922
 40
1.768789991941922
 40
1.768789991941922
 10
1306.011492871738
 20
-112.6501702998808
 30
0.0
 10
1306.011492871738
 20
-112.6501702998808
 30
0.0
 10
1306.502047658764
 20
-112.4437995038329
 30
0.0
 10
1305.71094941896
 20
-113.5662988226291
 30
0.0
 10
1305.102761009556
 20
-114.4292650648827
 30
0.0
 10
1299.393803459154
 20
-122.3700090262664
 30
0.0
 10
1294.072610367767
 20
-134.2429907784735
 30
0.0
  0
SPLINE
  5
1382BC
330
18
100
AcDbEntity
  8
姿図
100
AcDbSpline
210
0.0
220
0.0
230
1.0
 70
     8
 71
     3
 72
     8
 73
     4
 74
     0
 42
0.000000001
 43
0.0000000001
 40
0.0
 40
0.0
 40
0.0
 40
0.0
 40
1.0
 40
1.0
 40
1.0
 40
1.0
 10
1303.601944120596
 20
-109.9161559851968
 30
0.0
 10
1303.601944120596
 20
-109.9161559851968
 30
0.0
 10
1304.198945217221
 20
-109.7633805480436
 30
0.0
 10
1303.899484539989
 20
-110.2918901935595
 30
0.0
  0
SPLINE
  5
1382BD
330
18
100
AcDbEntity
  8
姿図
100
AcDbSpline
210
0.0
220
0.0
230
1.0
 70
     8
 71
     3
 72
     8
 73
     4
 74
     0
 42
0.000000001
 43
0.0000000001
 40
1.0
 40
1.0
 40
1.0
 40
1.0
 40
1.309625444955235
 40
1.309625444955235
 40
1.309625444955235
 40
1.309625444955235
 10
1303.899484539989
 20
-110.2918901935595
 30
0.0
 10
1303.806763894555
 20
-110.4555302277154
 30
0.0
 10
1302.94786712734
 20
-111.7838988805142
 30
0.0
 10
1301.152529212923
 20
-114.5591558278034
 30
0.0
  0
SPLINE
  5
1382BE
330
18
100
AcDbEntity
  8
姿図
100
AcDbSpline
210
0.0
220
0.0
230
1.0
 70
     8
 71
     3
 72
     8
 73
     4
 74
     0
 42
0.000000001
 43
0.0000000001
 40
1.612607606405297
 40
1.612607606405297
 40
1.612607606405297
 40
1.612607606405297
 40
1.648289524194878
 40
1.648289524194878
 40
1.648289524194878
 40
1.648289524194878
 10
1293.032474381632
 20
-127.1270722706763
 30
0.0
 10
1292.595582792984
 20
-127.8043652814681
 30
0.0
 10
1292.144041816916
 20
-128.5045409703698
 30
0.0
 10
1291.677590862025
 20
-129.2280311840568
 30
0.0
  0
SPLINE
  5
1382BF
330
18
100
AcDbEntity
  8
姿図
100
AcDbSpline
210
0.0
220
0.0
230
1.0
 70
    24
 71
     3
 72
     8
 73
     4
 74
     0
 42
0.000000001
 43
0.0000000001
 40
0.0
 40
0.0
 40
0.0
 40
0.0
 40
1.0
 40
1.0
 40
1.0
 40
1.0
 10
1302.792819844356
 20
-112.9385579283535
 30
0.0
 10
1302.792819844356
 20
-112.9385579283535
 30
0.0
 10
1306.011492871738
 20
-112.6501702998808
 30
0.0
 10
1306.011492871738
 20
-112.6501702998808
 30
0.0
  0
SPLINE
  5
1382C0
330
18
100
AcDbEntity
  8
姿図
100
AcDbSpline
210
0.0
220
0.0
230
1.0
 70
     8
 71
     3
 72
    11
 73
     7
 74
     0
 42
0.000000001
 43
0.0000000001
 40
1.0
 40
1.0
 40
1.0
 40
1.0
 40
2.0
 40
2.0
 40
2.0
 40
2.814388548252564
 40
2.814388548252564
 40
2.814388548252564
 40
2.814388548252564
 10
1306.011492871738
 20
-112.6501702998808
 30
0.0
 10
1306.011492871738
 20
-112.6501702998808
 30
0.0
 10
1306.798496912656
 20
-112.5597028580414
 30
0.0
 10
1306.423253290807
 20
-113.1152554762643
 30
0.0
 10
1306.117659182368
 20
-113.5676911664964
 30
0.0
 10
1298.93683805873
 20
-124.1970946415872
 30
0.0
 10
1294.463603456982
 20
-134.8860508622702
 30
0.0
  0
SPLINE
  5
1382C1
330
18
100
AcDbEntity
  8
姿図
100
AcDbSpline
210
0.0
220
0.0
230
1.0
 70
     8
 71
     3
 72
     8
 73
     4
 74
     0
 42
0.000000001
 43
0.0000000001
 40
1.0
 40
1.0
 40
1.0
 40
1.0
 40
1.201957035102942
 40
1.201957035102942
 40
1.201957035102942
 40
1.201957035102942
 10
1299.888875790498
 20
-112.2194021174769
 30
0.0
 10
1299.657351446251
 20
-111.8612223745567
 30
0.0
 10
1299.391978992506
 20
-111.5756731442743
 30
0.0
 10
1299.11587325795
 20
-111.348026890319
 30
0.0
  0
SPLINE
  5
1382C2
330
18
100
AcDbEntity
  8
姿図
100
AcDbSpline
210
0.0
220
0.0
230
1.0
 70
     8
 71
     3
 72
     8
 73
     4
 74
     0
 42
0.000000001
 43
0.0000000001
 40
1.371408514633379
 40
1.371408514633379
 40
1.371408514633379
 40
1.371408514633379
 40
2.0
 40
2.0
 40
2.0
 40
2.0
 10
1298.411861038011
 20
-110.8886007673091
 30
0.0
 10
1297.547070206893
 20
-110.4502118888163
 30
0.0
 10
1296.766185685214
 20
-110.4530561258075
 30
0.0
 10
1296.766185685214
 20
-110.4530561258075
 30
0.0
  0
SPLINE
  5
1382C3
330
18
100
AcDbEntity
  8
姿図
100
AcDbSpline
210
0.0
220
0.0
230
1.0
 70
    24
 71
     3
 72
     8
 73
     4
 74
     0
 42
0.000000001
 43
0.0000000001
 40
2.0
 40
2.0
 40
2.0
 40
2.0
 40
3.0
 40
3.0
 40
3.0
 40
3.0
 10
1296.766185685214
 20
-110.4530561258075
 30
0.0
 10
1296.766185685214
 20
-110.4530561258075
 30
0.0
 10
1294.910416880158
 20
-113.1736415436076
 30
0.0
 10
1294.910416880158
 20
-113.1736415436076
 30
0.0
  0
SPLINE
  5
1382C4
330
18
100
AcDbEntity
  8
姿図
100
AcDbSpline
210
0.0
220
0.0
230
1.0
 70
    24
 71
     3
 72
     8
 73
     4
 74
     0
 42
0.000000001
 43
0.0000000001
 40
0.1253663450285614
 40
0.1253663450285614
 40
0.1253663450285614
 40
0.1253663450285614
 40
1.0
 40
1.0
 40
1.0
 40
1.0
 10
1299.532920234323
 20
-111.7502565244663
 30
0.0
 10
1300.421596104005
 20
-111.341499356482
 30
0.0
 10
1303.965912042516
 20
-109.7112485587427
 30
0.0
 10
1303.965912042516
 20
-109.7112485587427
 30
0.0
  0
SPLINE
  5
1382C5
330
18
100
AcDbEntity
  8
姿図
100
AcDbSpline
210
0.0
220
0.0
230
1.0
 70
     8
 71
     3
 72
    11
 73
     7
 74
     0
 42
0.000000001
 43
0.0000000001
 40
1.0
 40
1.0
 40
1.0
 40
1.0
 40
2.0
 40
2.0
 40
2.0
 40
2.466205817988146
 40
2.466205817988146
 40
2.466205817988146
 40
2.466205817988146
 10
1303.965912042516
 20
-109.7112485587427
 30
0.0
 10
1303.965912042516
 20
-109.7112485587427
 30
0.0
 10
1305.078446950286
 20
-109.2994797497295
 30
0.0
 10
1304.441934413001
 20
-110.3709298547756
 30
0.0
 10
1304.145188564901
 20
-110.8704461274338
 30
0.0
 10
1302.5002691702
 20
-113.4889368876538
 30
0.0
 10
1299.828592408673
 20
-117.7257039407923
 30
0.0
  0
SPLINE
  5
1382C6
330
18
100
AcDbEntity
  8
姿図
100
AcDbSpline
210
0.0
220
0.0
230
1.0
 70
     8
 71
     3
 72
     8
 73
     4
 74
     0
 42
0.000000001
 43
0.0000000001
 40
2.75154837122198
 40
2.75154837122198
 40
2.75154837122198
 40
2.75154837122198
 40
2.782200575022114
 40
2.782200575022114
 40
2.782200575022114
 40
2.782200575022114
 10
1293.842769119564
 20
-127.2089390425463
 30
0.0
 10
1293.592391285731
 20
-127.6054101684276
 30
0.0
 10
1293.338425358316
 20
-128.0075520786959
 30
0.0
 10
1291.51918637674
 20
-130.9899555018546
 30
0.0
  0
SPLINE
  5
1382C7
330
18
100
AcDbEntity
  8
姿図
100
AcDbSpline
210
0.0
220
0.0
230
1.0
 70
    24
 71
     3
 72
     8
 73
     4
 74
     0
 42
0.000000001
 43
0.0000000001
 40
1.59391947097972
 40
1.59391947097972
 40
1.59391947097972
 40
1.59391947097972
 40
2.0
 40
2.0
 40
2.0
 40
2.0
 10
1297.759020072874
 20
-111.8283691786314
 30
0.0
 10
1299.722189758001
 20
-109.0023748635226
 30
0.0
 10
1301.039983607982
 20
-107.1054028611834
 30
0.0
 10
1301.039983607982
 20
-107.1054028611834
 30
0.0
  0
SPLINE
  5
1382C8
330
18
100
AcDbEntity
  8
姿図
100
AcDbSpline
210
0.0
220
0.0
230
1.0
 70
     8
 71
     3
 72
     8
 73
     4
 74
     0
 42
0.000000001
 43
0.0000000001
 40
2.0
 40
2.0
 40
2.0
 40
2.0
 40
3.0
 40
3.0
 40
3.0
 40
3.0
 10
1301.039983607982
 20
-107.1054028611834
 30
0.0
 10
1301.039983607982
 20
-107.1054028611834
 30
0.0
 10
1301.474929842633
 20
-106.8589032194359
 30
0.0
 10
1301.555280515821
 20
-107.3648531212921
 30
0.0
  0
SPLINE
  5
1382C9
330
18
100
AcDbEntity
  8
姿図
100
AcDbSpline
210
0.0
220
0.0
230
1.0
 70
     8
 71
     3
 72
     8
 73
     4
 74
     0
 42
0.000000001
 43
0.0000000001
 40
3.0
 40
3.0
 40
3.0
 40
3.0
 40
3.38639110915234
 40
3.38639110915234
 40
3.38639110915234
 40
3.38639110915234
 10
1301.555280515821
 20
-107.3648531212921
 30
0.0
 10
1301.570227031291
 20
-107.459673514988
 30
0.0
 10
1300.445951430917
 20
-109.2605015996887
 30
0.0
 10
1298.821181722446
 20
-111.7802038181608
 30
0.0
  0
SPLINE
  5
1382CA
330
18
100
AcDbEntity
  8
姿図
100
AcDbSpline
210
0.0
220
0.0
230
1.0
 70
     8
 71
     3
 72
     8
 73
     4
 74
     0
 42
0.000000001
 43
0.0000000001
 40
1.170835818589572
 40
1.170835818589572
 40
1.170835818589572
 40
1.170835818589572
 40
1.26068276038169
 40
1.26068276038169
 40
1.26068276038169
 40
1.26068276038169
 10
1292.750574862611
 20
-113.4814895162713
 30
0.0
 10
1293.944671955904
 20
-111.718767451307
 30
0.0
 10
1295.702687772175
 20
-109.1210079554103
 30
0.0
 10
1298.287496334908
 20
-105.2974408507448
 30
0.0
  0
SPLINE
  5
1382CB
330
18
100
AcDbEntity
  8
姿図
100
AcDbSpline
210
0.0
220
0.0
230
1.0
 70
    24
 71
     3
 72
     8
 73
     4
 74
     0
 42
0.000000001
 43
0.0000000001
 40
1.505104155280973
 40
1.505104155280973
 40
1.505104155280973
 40
1.505104155280973
 40
2.0
 40
2.0
 40
2.0
 40
2.0
 10
1291.97052352674
 20
-113.3438953856062
 30
0.0
 10
1295.698699001184
 20
-108.0501704947469
 30
0.0
 10
1297.671648169301
 20
-105.2487331184134
 30
0.0
 10
1297.671648169301
 20
-105.2487331184134
 30
0.0
  0
SPLINE
  5
1382CC
330
18
100
AcDbEntity
  8
姿図
100
AcDbSpline
210
0.0
220
0.0
230
1.0
 70
     8
 71
     3
 72
     8
 73
     4
 74
     0
 42
0.000000001
 43
0.0000000001
 40
2.0
 40
2.0
 40
2.0
 40
2.0
 40
3.0
 40
3.0
 40
3.0
 40
3.0
 10
1297.671648169301
 20
-105.2487331184134
 30
0.0
 10
1297.671648169301
 20
-105.2487331184134
 30
0.0
 10
1298.347934220398
 20
-104.6825139076609
 30
0.0
 10
1298.499808789071
 20
-105.2767870212992
 30
0.0
  0
SPLINE
  5
1382CD
330
18
100
AcDbEntity
  8
姿図
100
AcDbSpline
210
0.0
220
0.0
230
1.0
 70
    24
 71
     3
 72
     8
 73
     4
 74
     0
 42
0.000000001
 43
0.0000000001
 40
3.0
 40
3.0
 40
3.0
 40
3.0
 40
4.0
 40
4.0
 40
4.0
 40
4.0
 10
1298.499808789071
 20
-105.2767870212992
 30
0.0
 10
1298.499808789071
 20
-105.2767870212992
 30
0.0
 10
1297.334215161342
 20
-110.4812918665339
 30
0.0
 10
1297.334215161342
 20
-110.4812918665339
 30
0.0
  0
SPLINE
  5
1382CE
330
18
100
AcDbEntity
  8
姿図
100
AcDbSpline
210
0.0
220
0.0
230
1.0
 70
    24
 71
     3
 72
     8
 73
     4
 74
     0
 42
0.000000001
 43
0.0000000001
 40
1.351290308159437
 40
1.351290308159437
 40
1.351290308159437
 40
1.351290308159437
 40
1.428242292534494
 40
1.428242292534494
 40
1.428242292534494
 40
1.428242292534494
 10
1288.683250293067
 20
-112.6564014048618
 30
0.0
 10
1288.967134683261
 20
-112.2547547428212
 30
0.0
 10
1289.265274626016
 20
-111.8329389721671
 30
0.0
 10
1289.570293379141
 20
-111.4013908903376
 30
0.0
  0
SPLINE
  5
1382CF
330
18
100
AcDbEntity
  8
姿図
100
AcDbSpline
210
0.0
220
0.0
230
1.0
 70
    24
 71
     3
 72
     8
 73
     4
 74
     0
 42
0.000000001
 43
0.0000000001
 40
1.615278216396081
 40
1.615278216396081
 40
1.615278216396081
 40
1.615278216396081
 40
2.0
 40
2.0
 40
2.0
 40
2.0
 10
1289.570293379141
 20
-111.4013908903376
 30
0.0
 10
1293.284624642515
 20
-106.1462630806896
 30
0.0
 10
1294.482657403093
 20
-104.4512566769572
 30
0.0
 10
1294.482657403093
 20
-104.4512566769572
 30
0.0
  0
SPLINE
  5
1382D0
330
18
100
AcDbEntity
  8
姿図
100
AcDbSpline
210
0.0
220
0.0
230
1.0
 70
     8
 71
     3
 72
     8
 73
     4
 74
     0
 42
0.000000001
 43
0.0000000001
 40
2.0
 40
2.0
 40
2.0
 40
2.0
 40
3.0
 40
3.0
 40
3.0
 40
3.0
 10
1294.482657403093
 20
-104.4512566769572
 30
0.0
 10
1294.482657403093
 20
-104.4512566769572
 30
0.0
 10
1294.741443628801
 20
-104.0652661580261
 30
0.0
 10
1295.074709969397
 20
-105.2027166345051
 30
0.0
  0
SPLINE
  5
1382D1
330
18
100
AcDbEntity
  8
姿図
100
AcDbSpline
210
0.0
220
0.0
230
1.0
 70
    24
 71
     3
 72
     8
 73
     4
 74
     0
 42
0.000000001
 43
0.0000000001
 40
1.350323050295565
 40
1.350323050295565
 40
1.350323050295565
 40
1.350323050295565
 40
1.445359962748388
 40
1.445359962748388
 40
1.445359962748388
 40
1.445359962748388
 10
1288.197830575093
 20
-112.5399185547976
 30
0.0
 10
1288.556437602078
 20
-112.0305915410599
 30
0.0
 10
1288.937457622601
 20
-111.4894315117713
 30
0.0
 10
1289.326659576302
 20
-110.9366507408831
 30
0.0
  0
SPLINE
  5
1382D2
330
18
100
AcDbEntity
  8
姿図
100
AcDbSpline
210
0.0
220
0.0
230
1.0
 70
    24
 71
     3
 72
     8
 73
     4
 74
     0
 42
0.000000001
 43
0.0000000001
 40
1.629831745831646
 40
1.629831745831646
 40
1.629831745831646
 40
1.629831745831646
 40
2.0
 40
2.0
 40
2.0
 40
2.0
 10
1289.326659576302
 20
-110.9366507408831
 30
0.0
 10
1293.012264783795
 20
-105.7020118384357
 30
0.0
 10
1294.14813483906
 20
-104.0887436654561
 30
0.0
 10
1294.14813483906
 20
-104.0887436654561
 30
0.0
  0
SPLINE
  5
1382D3
330
18
100
AcDbEntity
  8
姿図
100
AcDbSpline
210
0.0
220
0.0
230
1.0
 70
     8
 71
     3
 72
    11
 73
     7
 74
     0
 42
0.000000001
 43
0.0000000001
 40
2.0
 40
2.0
 40
2.0
 40
2.0
 40
3.0
 40
3.0
 40
3.0
 40
4.0
 40
4.0
 40
4.0
 40
4.0
 10
1294.14813483906
 20
-104.0887436654561
 30
0.0
 10
1294.14813483906
 20
-104.0887436654561
 30
0.0
 10
1294.626077467387
 20
-103.8441811076086
 30
0.0
 10
1294.792738135803
 20
-104.3488579599671
 30
0.0
 10
1294.95939880422
 20
-104.8535348123301
 30
0.0
 10
1295.843696363822
 20
-107.6596015484142
 30
0.0
 10
1295.843696363822
 20
-107.6596015484142
 30
0.0
  0
SPLINE
  5
1382D4
330
18
100
AcDbEntity
  8
姿図
100
AcDbSpline
210
0.0
220
0.0
230
1.0
 70
    24
 71
     3
 72
     8
 73
     4
 74
     0
 42
0.000000001
 43
0.0000000001
 40
1.393866661974843
 40
1.393866661974843
 40
1.393866661974843
 40
1.393866661974843
 40
1.573101002211188
 40
1.573101002211188
 40
1.573101002211188
 40
1.573101002211188
 10
1286.104425860395
 20
-111.9925087889533
 30
0.0
 10
1286.800578035206
 20
-111.0004475810192
 30
0.0
 10
1287.552200423271
 20
-109.9293377846302
 30
0.0
 10
1288.265616831407
 20
-108.9126739441217
 30
0.0
  0
SPLINE
  5
1382D5
330
18
100
AcDbEntity
  8
姿図
100
AcDbSpline
210
0.0
220
0.0
230
1.0
 70
    24
 71
     3
 72
     8
 73
     4
 74
     0
 42
0.000000001
 43
0.0000000001
 40
1.799348189808347
 40
1.799348189808347
 40
1.799348189808347
 40
1.799348189808347
 40
2.0
 40
2.0
 40
2.0
 40
2.0
 10
1288.265616831407
 20
-108.9126739441217
 30
0.0
 10
1291.119788537794
 20
-104.8452973946396
 30
0.0
 10
1291.447296405468
 20
-104.3785778143902
 30
0.0
 10
1291.447296405468
 20
-104.3785778143902
 30
0.0
  0
SPLINE
  5
1382D6
330
18
100
AcDbEntity
  8
姿図
100
AcDbSpline
210
0.0
220
0.0
230
1.0
 70
     8
 71
     3
 72
     8
 73
     4
 74
     0
 42
0.000000001
 43
0.0000000001
 40
2.0
 40
2.0
 40
2.0
 40
2.0
 40
3.0
 40
3.0
 40
3.0
 40
3.0
 10
1291.447296405468
 20
-104.3785778143902
 30
0.0
 10
1291.447296405468
 20
-104.3785778143902
 30
0.0
 10
1291.731797535073
 20
-104.3269830178897
 30
0.0
 10
1291.884881720897
 20
-104.9218651697001
 30
0.0
  0
SPLINE
  5
1382D7
330
18
100
AcDbEntity
  8
姿図
100
AcDbSpline
210
0.0
220
0.0
230
1.0
 70
    24
 71
     3
 72
     8
 73
     4
 74
     0
 42
0.000000001
 43
0.0000000001
 40
1.391994967145553
 40
1.391994967145553
 40
1.391994967145553
 40
1.391994967145553
 40
1.583667207078013
 40
1.583667207078013
 40
1.583667207078013
 40
1.583667207078013
 10
1285.769504347504
 20
-111.8980578213636
 30
0.0
 10
1286.518487460459
 20
-110.8329738692669
 30
0.0
 10
1287.332526605642
 20
-109.675377636564
 30
0.0
 10
1288.096169427831
 20
-108.5894469914183
 30
0.0
  0
SPLINE
  5
1382D8
330
18
100
AcDbEntity
  8
姿図
100
AcDbSpline
210
0.0
220
0.0
230
1.0
 70
    24
 71
     3
 72
     8
 73
     4
 74
     0
 42
0.000000001
 43
0.0000000001
 40
1.815455566821609
 40
1.815455566821609
 40
1.815455566821609
 40
1.815455566821609
 40
2.0
 40
2.0
 40
2.0
 40
2.0
 10
1288.096169427831
 20
-108.5894469914183
 30
0.0
 10
1290.896637984479
 20
-104.6070686621038
 30
0.0
 10
1291.175826175699
 20
-104.2100518843667
 30
0.0
 10
1291.175826175699
 20
-104.2100518843667
 30
0.0
  0
SPLINE
  5
1382D9
330
18
100
AcDbEntity
  8
姿図
100
AcDbSpline
210
0.0
220
0.0
230
1.0
 70
     8
 71
     3
 72
     8
 73
     4
 74
     0
 42
0.000000001
 43
0.0000000001
 40
2.0
 40
2.0
 40
2.0
 40
2.0
 40
3.0
 40
3.0
 40
3.0
 40
3.0
 10
1291.175826175699
 20
-104.2100518843667
 30
0.0
 10
1291.175826175699
 20
-104.2100518843667
 30
0.0
 10
1291.513368622268
 20
-103.925123623666
 30
0.0
 10
1291.692696445608
 20
-104.3398954660747
 30
0.0
  0
SPLINE
  5
1382DA
330
18
100
AcDbEntity
  8
姿図
100
AcDbSpline
210
0.0
220
0.0
230
1.0
 70
    24
 71
     3
 72
     8
 73
     4
 74
     0
 42
0.000000001
 43
0.0000000001
 40
3.0
 40
3.0
 40
3.0
 40
3.0
 40
4.0
 40
4.0
 40
4.0
 40
4.0
 10
1291.692696445608
 20
-104.3398954660747
 30
0.0
 10
1291.692696445608
 20
-104.3398954660747
 30
0.0
 10
1292.511458981208
 20
-107.0818820885729
 30
0.0
 10
1292.511458981208
 20
-107.0818820885729
 30
0.0
  0
SPLINE
  5
1382DB
330
18
100
AcDbEntity
  8
姿図
100
AcDbSpline
210
0.0
220
0.0
230
1.0
 70
    24
 71
     3
 72
     8
 73
     4
 74
     0
 42
0.000000001
 43
0.0000000001
 40
1.477316060400323
 40
1.477316060400323
 40
1.477316060400323
 40
1.477316060400323
 40
1.790999460430504
 40
1.790999460430504
 40
1.790999460430504
 40
1.790999460430504
 10
1284.077647294219
 20
-111.3914334899619
 30
0.0
 10
1285.442491633351
 20
-109.4446721417544
 30
0.0
 10
1286.947271812322
 20
-107.298311706365
 30
0.0
 10
1288.186454712901
 20
-105.5307889896503
 30
0.0
  0
ELLIPSE
  5
1382DC
330
18
100
AcDbEntity
  8
姿図
100
AcDbEllipse
 10
1292.049001847107
 20
-118.4194018848325
 30
0.0
 11
8.946570577400736
 21
-4.744703701203169
 31
0.0
210
0.0
220
0.0
230
1.0
 40
0.589675754012904
 41
2.589251650966877
 42
2.665769938206601
  0
ELLIPSE
  5
1382DD
330
18
100
AcDbEntity
  8
姿図
100
AcDbEllipse
 10
1292.049001847107
 20
-118.4194018848325
 30
0.0
 11
8.946570577400736
 21
-4.744703701203169
 31
0.0
210
0.0
220
0.0
230
1.0
 40
0.589675754012904
 41
6.96598111917236
 42
7.147828363455014
  0
ELLIPSE
  5
1382DE
330
18
100
AcDbEntity
  8
姿図
100
AcDbEllipse
 10
1292.049001847107
 20
-118.4194018848325
 30
0.0
 11
8.946570577400736
 21
-4.744703701203169
 31
0.0
210
0.0
220
0.0
230
1.0
 40
0.589675754012904
 41
7.723477700805621
 42
7.896541804765815
  0
ELLIPSE
  5
1382DF
330
18
100
AcDbEntity
  8
姿図
100
AcDbEllipse
 10
1292.049001847107
 20
-118.4194018848325
 30
0.0
 11
8.946570577400736
 21
-4.744703701203169
 31
0.0
210
0.0
220
0.0
230
1.0
 40
0.589675754012904
 41
8.489247713282603
 42
8.60769396429671
  0
ARC
  5
1382E0
330
18
100
AcDbEntity
  8
姿図
100
AcDbCircle
 10
1287.974506589801
 20
-110.7366062976025
 30
0.0
 40
0.5891071285579997
100
AcDbArc
 50
176.6035262431334
 51
269.2179010900517
  0
ARC
  5
1382E1
330
18
100
AcDbEntity
  8
姿図
100
AcDbCircle
 10
1294.786372935575
 20
-112.3205160483194
 30
0.0
 40
0.7044793750256743
100
AcDbArc
 50
178.6996333805673
 51
242.7355601294742
  0
ARC
  5
1382E2
330
18
100
AcDbEntity
  8
姿図
100
AcDbCircle
 10
1301.234177539038
 20
-118.3476983774763
 30
0.0
 40
0.6396895438985299
100
AcDbArc
 50
221.5153020365913
 51
291.942231817592
  0
LINE
  5
1382E3
330
18
100
AcDbEntity
  8
姿図
100
AcDbLine
 10
1288.69245550711
 20
-105.5849860906628
 30
0.0000000000000074
 11
1289.449575820262
 21
-106.6648489539989
 31
0.0000000000000003
  0
ARC
  5
1382E4
330
18
100
AcDbEntity
  8
姿図
100
AcDbCircle
 10
1288.411696463478
 20
-105.8170507967297
 30
-0.0000000000000142
 40
0.3642522043636391
100
AcDbArc
 50
30.49478329114514
 51
128.1970235673176
  0
ARC
  5
1382E5
330
18
100
AcDbEntity
  8
姿図
100
AcDbCircle
 10
1288.563293643158
 20
-105.9605986630249
 30
0.0000000000000271
 40
0.3225894048985802
100
AcDbArc
 50
39.97839485111001
 51
150.461910059325
  0
LINE
  5
1382E6
330
18
100
AcDbEntity
  8
姿図
100
AcDbLine
 10
1294.463652375524
 20
-112.9467289753293
 30
0.0
 11
1293.928467980296
 21
-113.6709683146596
 31
0.0
  0
ARC
  5
1382E7
330
18
100
AcDbEntity
  8
姿図
100
AcDbCircle
 10
1287.418724866897
 20
-126.9884761869716
 30
0.0000000000000086
 40
15.70992260825765
100
AcDbArc
 50
70.10507181515462
 51
78.98271778318735
  0
ARC
  5
1382E8
330
18
100
AcDbEntity
  8
姿図
100
AcDbCircle
 10
1290.597208227732
 20
-110.9980721507131
 30
0.0000000000000086
 40
0.5966443679784726
100
AcDbArc
 50
188.0617757773385
 51
252.819615844142
  0
LINE
  5
1382E9
330
18
100
AcDbEntity
  8
姿図
100
AcDbLine
 10
1290.259653269047
 20
-111.4900489303586
 30
0.0000000000000086
 11
1289.279319298407
 21
-112.7941198055719
 31
0.0000000000000075
  0
LINE
  5
1382EA
330
18
100
AcDbEntity
  8
姿図
100
AcDbLine
 10
1287.818676060885
 20
-111.3047295722322
 30
0.0
 11
1287.086907428544
 21
-112.2585909368258
 31
0.0
  0
LINE
  5
1382EB
330
18
100
AcDbEntity
  8
姿図
100
AcDbLine
 10
1300.90467806397
 20
-118.8959983031555
 30
0.0
 11
1291.984832920891
 21
-131.4924859099024
 31
0.0
  0
ARC
  5
1382EC
330
18
100
AcDbEntity
  8
姿図
100
AcDbCircle
 10
1314.578717119236
 20
-155.6342622046504
 30
0.0000000000000084
 40
54.37145505000529
100
AcDbArc
 50
125.0955168657197
 51
142.2118279621425
  0
ARC
  5
1382ED
330
18
100
AcDbEntity
  8
姿図
100
AcDbCircle
 10
1303.779590918705
 20
-48.67563785486254
 30
0.0000000000000084
 40
65.73764222061708
100
AcDbArc
 50
251.8650335897579
 51
261.6937835389581
  0
ENDSEC
  0
SECTION
  2
OBJECTS
  0
DICTIONARY
  5
C
330
0
100
AcDbDictionary
281
     1
  3
ACAD_GROUP
350
D
  3
ACAD_IMAGE_VARS
350
13B6BA
  3
ACAD_LAYOUT
350
617
  3
ACAD_MLINESTYLE
350
E
  3
ACAD_PLOTSETTINGS
350
618
  3
ACAD_PLOTSTYLENAME
350
615
  3
ACAD_SCALELIST
350
A36
  3
AcadDim
350
AB4
  3
AcDbVariableDictionary
350
6DE
  3
APPDATA
350
13B6B8
  3
DWGPROPS
350
13B6BB
  0
DICTIONARY
  5
8BF
330
2
100
AcDbDictionary
280
     1
281
     1
  3
ACAD_LAYERSTATES
360
8C0
  0
DICTIONARY
  5
A60
330
F
100
AcDbDictionary
280
     1
281
     1
  3
ADSK_XREC_LAYER_RECONCILED
360
A61
  0
DICTIONARY
  5
A66
330
34
100
AcDbDictionary
280
     1
281
     1
  3
ADSK_XREC_LAYER_RECONCILED
360
A67
  0
DICTIONARY
  5
A6E
330
2F4
100
AcDbDictionary
280
     1
281
     1
  3
ADSK_XREC_LAYER_RECONCILED
360
A6F
  0
DICTIONARY
  5
A72
330
305
100
AcDbDictionary
280
     1
281
     1
  3
ADSK_XREC_LAYER_RECONCILED
360
A73
  0
DICTIONARY
  5
143F
330
18
100
AcDbDictionary
280
     1
281
     1
  3
ACAD_SORTENTS
360
1440
  0
DICTIONARY
  5
D
102
{ACAD_REACTORS
330
C
102
}
330
C
100
AcDbDictionary
281
     1
  0
RASTERVARIABLES
  5
13B6BA
102
{ACAD_REACTORS
330
C
102
}
330
C
100
AcDbRasterVariables
 90
        0
 70
     1
 71
     1
 72
     0
  0
DICTIONARY
  5
617
102
{ACAD_REACTORS
330
C
102
}
330
C
100
AcDbDictionary
281
     1
  3
Model
350
619
  3
ﾚｲｱｳﾄ1
350
61A
  0
DICTIONARY
  5
E
102
{ACAD_REACTORS
330
C
102
}
330
C
100
AcDbDictionary
281
     1
  3
STANDARD
350
1B
  0
DICTIONARY
  5
618
102
{ACAD_REACTORS
330
C
102
}
330
C
100
AcDbDictionary
281
     1
  0
ACDBDICTIONARYWDFLT
  5
615
102
{ACAD_REACTORS
330
C
102
}
330
C
100
AcDbDictionary
281
     1
  3
Normal
350
616
100
AcDbDictionaryWithDefault
340
616
  0
DICTIONARY
  5
A36
102
{ACAD_REACTORS
330
C
102
}
330
C
100
AcDbDictionary
281
     1
  3
A0
350
A37
  3
A1
350
A38
  3
A2
350
A39
  3
A3
350
A3A
  3
A4
350
A3B
  3
A5
350
A3C
  3
A6
350
A3D
  3
A7
350
A3E
  3
A8
350
A3F
  3
A9
350
A40
  3
B0
350
A41
  3
B1
350
A42
  3
B2
350
A43
  3
B3
350
A44
  3
B4
350
A45
  3
B5
350
A46
  3
B6
350
A47
  3
B7
350
A48
  3
B8
350
A49
  3
B9
350
A4A
  3
C0
350
A4B
  3
C1
350
A4C
  3
C2
350
A4D
  3
C3
350
A4E
  3
C4
350
A4F
  3
C5
350
A50
  3
C6
350
A51
  3
C7
350
A52
  3
C8
350
A53
  3
C9
350
A54
  3
D0
350
A55
  3
D1
350
A56
  3
D2
350
A57
  0
XRECORD
  5
AB4
102
{ACAD_REACTORS
330
C
102
}
330
C
100
AcDbXrecord
280
     1
 90
   990106
  3
OPEN
 60
     0
 61
     0
 62
     1
 63
     3
 64
     1
 65
     0
 66
     0
 67
     3
 68
     1
 69
     0
 70
     0
 71
     0
 72
     0
 40
0.0
170
     2
  0
DICTIONARY
  5
6DE
102
{ACAD_REACTORS
330
C
102
}
330
C
100
AcDbDictionary
281
     1
  3
DIMASSOC
350
6DF
  3
INDEXCTL
350
A93
  3
PROJECTNAME
350
6E0
  3
SORTENTS
350
A92
  0
DICTIONARY
  5
13B6B8
102
{ACAD_REACTORS
330
C
102
}
330
C
100
AcDbDictionary
281
     1
  0
XRECORD
  5
13B6BB
102
{ACAD_REACTORS
330
C
102
}
330
C
100
AcDbXrecord
280
     1
  1
DWGPROPS COOKIE
  2

  3

  4

  6

  7

  8
SPAX
  9

300
=
301
=
302
=
303
=
304
=
305
=
306
=
307
=
308
=
309
=
 40
0.0
 41
2448636.244629629
 42
2456822.258757847
  1

 90
        0
  0
DICTIONARY
  5
8C0
102
{ACAD_REACTORS
330
8BF
102
}
330
8BF
100
AcDbDictionary
281
     1
  0
XRECORD
  5
A61
102
{ACAD_REACTORS
330
A60
102
}
330
A60
100
AcDbXrecord
280
     1
290
     1
  0
XRECORD
  5
A67
102
{ACAD_REACTORS
330
A66
102
}
330
A66
100
AcDbXrecord
280
     1
290
     1
  0
XRECORD
  5
A6F
102
{ACAD_REACTORS
330
A6E
102
}
330
A6E
100
AcDbXrecord
280
     1
290
     1
  0
XRECORD
  5
A73
102
{ACAD_REACTORS
330
A72
102
}
330
A72
100
AcDbXrecord
280
     1
290
     1
  0
SORTENTSTABLE
  5
1440
102
{ACAD_REACTORS
330
143F
102
}
330
143F
100
AcDbSortentsTable
330
18
331
D0CC6
  5
D0CC6
331
F6D77
  5
F6D77
331
F6D78
  5
F6D78
331
0
  5
126EC3
331
0
  5
126EC4
331
0
  5
126EC5
331
0
  5
126EC6
331
0
  5
126EC7
331
0
  5
126EC8
331
0
  5
126EC9
331
0
  5
126ECA
331
0
  5
126ECB
331
0
  5
126ECC
331
0
  5
126ECD
331
0
  5
126EE0
331
0
  5
126EE1
331
0
  5
126EE2
331
0
  5
126EE3
331
0
  5
126EE4
331
0
  5
126EE5
331
0
  5
126EE6
331
0
  5
126EE7
331
0
  5
126EE8
331
0
  5
126EE9
331
0
  5
126EEA
331
0
  5
126EEB
331
0
  5
126EEC
331
0
  5
126EED
331
0
  5
126EEE
331
0
  5
126EEF
331
0
  5
126EF0
331
0
  5
126EF1
331
0
  5
126EF2
331
0
  5
126EF3
331
0
  5
126EF4
331
0
  5
126EF5
331
0
  5
126EF6
331
0
  5
126EF7
331
0
  5
126EF8
331
0
  5
126EF9
331
0
  5
126EFA
331
0
  5
126EFB
331
0
  5
126EFC
331
0
  5
126EFD
331
0
  5
126EFE
331
0
  5
126EFF
331
0
  5
126F00
331
0
  5
126F01
331
0
  5
126F02
331
0
  5
126F03
331
0
  5
126F04
331
0
  5
126F05
331
0
  5
126F06
331
0
  5
126F07
331
0
  5
126F08
331
0
  5
126F09
331
0
  5
126F0A
331
0
  5
126F0B
331
0
  5
126F0C
331
0
  5
126F0D
331
0
  5
126F0E
331
0
  5
126F0F
331
0
  5
126F10
331
0
  5
126F11
331
0
  5
126F12
331
0
  5
126F13
331
0
  5
126F14
331
0
  5
126F15
331
0
  5
126F16
331
0
  5
126F17
331
0
  5
126F18
331
0
  5
126F19
331
0
  5
126F1A
331
0
  5
126F1B
331
0
  5
126F1C
331
0
  5
126F1D
331
0
  5
126F1E
331
0
  5
126F1F
331
0
  5
126F20
331
0
  5
126F21
331
0
  5
126F22
331
0
  5
126F23
331
0
  5
126F24
331
0
  5
126F25
331
0
  5
126F26
331
0
  5
126F27
331
0
  5
126F28
331
0
  5
126F29
331
0
  5
126F2A
331
0
  5
126F2B
331
0
  5
126F2C
331
0
  5
126F2D
331
0
  5
126F2E
331
0
  5
126F2F
331
0
  5
126F30
331
0
  5
126F31
331
0
  5
126F32
331
0
  5
126F33
331
0
  5
126F34
331
0
  5
126F35
331
0
  5
126F36
331
0
  5
126F37
331
0
  5
126F38
331
0
  5
126F39
331
0
  5
126F3A
331
0
  5
126F3B
331
0
  5
126F3C
331
0
  5
126F3D
331
0
  5
126F3E
331
0
  5
126F3F
331
0
  5
126F40
331
0
  5
126F41
331
0
  5
126F42
331
0
  5
126F43
331
0
  5
126F44
331
0
  5
126F45
331
0
  5
126F46
331
0
  5
126F47
331
0
  5
126F48
331
0
  5
126F49
331
0
  5
126F4A
331
0
  5
126F4B
331
0
  5
126F4C
331
0
  5
126F4D
331
0
  5
126F4E
331
0
  5
126F4F
331
0
  5
126F50
331
0
  5
126F51
331
0
  5
126F52
331
0
  5
126F53
331
0
  5
126F54
331
0
  5
126F55
331
0
  5
126F56
331
0
  5
126F57
331
0
  5
126F58
331
0
  5
126F59
331
0
  5
126F5A
331
0
  5
126F5B
331
0
  5
126F5C
331
0
  5
126F5D
331
0
  5
126F5E
331
0
  5
126F5F
331
0
  5
126F60
331
0
  5
126F61
331
0
  5
126F62
331
0
  5
126F63
331
0
  5
126F64
331
0
  5
126F65
331
0
  5
126F66
331
0
  5
126F67
331
0
  5
126F68
331
0
  5
126F69
331
0
  5
126F6A
331
0
  5
126F6B
331
0
  5
126F6C
331
0
  5
126F6D
331
0
  5
126F6E
331
0
  5
126F6F
331
0
  5
126F70
331
0
  5
126F71
331
0
  5
126F72
331
0
  5
126F73
331
0
  5
126F74
331
0
  5
126F75
331
0
  5
126F76
331
0
  5
126F77
331
0
  5
126F78
331
0
  5
126F79
331
0
  5
126F7A
331
0
  5
126F7B
331
0
  5
126F7C
331
0
  5
126F7D
331
0
  5
126F7E
331
0
  5
126F7F
331
0
  5
126F80
331
0
  5
126F81
331
0
  5
126F82
331
0
  5
126F83
331
0
  5
126F84
331
0
  5
126F85
331
0
  5
126F86
331
0
  5
126F87
331
0
  5
126F88
331
0
  5
126F89
331
0
  5
126F8A
331
0
  5
126F8B
331
0
  5
126F8C
331
0
  5
126F8D
331
0
  5
126F8E
331
0
  5
126F8F
331
0
  5
126F90
331
0
  5
126F91
331
0
  5
126F92
331
0
  5
126F93
331
0
  5
126F94
331
0
  5
126F95
331
0
  5
126F96
331
0
  5
126F97
331
0
  5
126F98
331
0
  5
126F99
331
0
  5
126F9A
331
0
  5
126F9B
331
0
  5
126F9C
331
0
  5
126F9D
331
0
  5
126FE1
331
0
  5
126FE6
331
0
  5
126FE7
331
0
  5
126FF3
331
0
  5
126FF4
331
0
  5
126FF5
331
0
  5
126FF6
331
0
  5
12702D
331
0
  5
1270DB
331
0
  5
12727D
331
0
  5
12729D
331
0
  5
12729E
331
0
  5
1272A0
331
0
  5
1272A1
331
0
  5
1272A2
331
0
  5
1272A3
331
0
  5
1272A4
331
0
  5
1272A5
331
0
  5
1272A6
331
0
  5
1272A7
331
0
  5
1272A8
331
0
  5
1272A9
331
0
  5
1272AA
331
0
  5
1272AB
331
0
  5
1272AC
331
0
  5
1272AD
331
0
  5
1272AE
331
0
  5
1272AF
331
0
  5
1272B0
331
0
  5
1272B1
331
0
  5
1272B2
331
0
  5
1272B3
331
0
  5
1272B6
331
0
  5
1272BB
331
0
  5
1272BC
331
0
  5
1273CC
331
0
  5
1273CD
331
0
  5
1273CE
331
0
  5
1273CF
331
0
  5
1275D4
331
0
  5
1275D5
331
0
  5
1275D6
331
0
  5
1275D7
331
0
  5
1275D8
331
0
  5
1275D9
331
0
  5
1275DA
331
0
  5
1275DB
331
0
  5
1275DC
331
0
  5
1275DD
331
0
  5
1275E0
331
0
  5
1275E1
331
0
  5
1275F0
331
0
  5
1275F1
331
0
  5
1275F4
331
0
  5
1275F5
331
0
  5
1275F6
331
0
  5
1275F8
331
0
  5
1275FC
331
0
  5
127602
331
0
  5
127603
331
0
  5
127604
331
0
  5
127605
331
0
  5
127607
331
0
  5
12760A
331
0
  5
12760B
331
0
  5
12760C
331
0
  5
12760D
331
0
  5
12760E
331
0
  5
127610
331
0
  5
127611
331
0
  5
127612
331
0
  5
127613
331
0
  5
127614
331
0
  5
12761F
331
0
  5
127620
331
0
  5
127621
331
0
  5
127622
331
0
  5
127632
331
0
  5
127633
331
0
  5
127634
331
0
  5
127645
331
0
  5
127646
331
0
  5
127647
331
0
  5
127648
331
0
  5
127649
331
0
  5
127652
331
0
  5
127657
331
0
  5
127662
331
0
  5
127667
331
0
  5
127668
331
0
  5
12766D
331
0
  5
12766E
331
0
  5
12766F
331
0
  5
127670
331
0
  5
127671
331
0
  5
127672
331
0
  5
127673
331
0
  5
127674
331
0
  5
127675
331
0
  5
127676
331
0
  5
127677
331
0
  5
127678
331
0
  5
127679
331
0
  5
12767A
331
0
  5
12767B
331
0
  5
12767C
331
0
  5
12767D
331
0
  5
12767E
331
0
  5
12767F
331
0
  5
127680
331
0
  5
127681
331
0
  5
127682
331
0
  5
127683
331
0
  5
127684
331
0
  5
127685
331
0
  5
127686
331
0
  5
127687
331
0
  5
127688
331
0
  5
127689
331
0
  5
12768A
331
0
  5
12768B
331
0
  5
12768C
331
0
  5
12768D
331
0
  5
12768E
331
0
  5
12768F
331
0
  5
127690
331
0
  5
127691
331
0
  5
127692
331
0
  5
127693
331
0
  5
127694
331
0
  5
127695
331
0
  5
127696
331
0
  5
127697
331
0
  5
127698
331
0
  5
127699
331
0
  5
12769A
331
0
  5
12769B
331
0
  5
12769C
331
0
  5
12769D
331
0
  5
12769E
331
0
  5
12769F
331
0
  5
1276A0
331
0
  5
1276A1
331
0
  5
1276A2
331
0
  5
1276A3
331
0
  5
1276A4
331
0
  5
1276A5
331
0
  5
1276A6
331
0
  5
1276A7
331
0
  5
1276A8
331
0
  5
1276A9
331
0
  5
1276AA
331
0
  5
1276AB
331
0
  5
1276AC
331
0
  5
1276AD
331
0
  5
1276AE
331
0
  5
1276AF
331
0
  5
1276B0
331
0
  5
1276B1
331
0
  5
1276B2
331
0
  5
1276B3
331
0
  5
1276B4
331
0
  5
1276B5
331
0
  5
1276B6
331
0
  5
1276B7
331
0
  5
1276B8
331
0
  5
1276B9
331
0
  5
1276BA
331
0
  5
1276BB
331
0
  5
1276BC
331
0
  5
1276BD
331
0
  5
1276BE
331
0
  5
1276BF
331
0
  5
1276C0
331
0
  5
1276C1
331
0
  5
1276C2
331
0
  5
1276C3
331
0
  5
1276C4
331
0
  5
1276C5
331
0
  5
1276C6
331
0
  5
1276C7
331
0
  5
1276F0
331
0
  5
1276F1
331
0
  5
1276F2
331
0
  5
1276F3
331
0
  5
1276F4
331
0
  5
1276F5
331
0
  5
1276F6
331
0
  5
1276F7
331
0
  5
1276F8
331
0
  5
1276F9
331
0
  5
1276FA
331
0
  5
1276FB
331
0
  5
1276FC
331
0
  5
1276FD
331
0
  5
1276FE
331
0
  5
1276FF
331
0
  5
127700
331
0
  5
127701
331
0
  5
127702
331
0
  5
127703
331
0
  5
127704
331
0
  5
127705
331
0
  5
127706
331
0
  5
127707
331
0
  5
127708
331
0
  5
127709
331
0
  5
12770A
331
0
  5
12770B
331
0
  5
12770C
331
0
  5
12770D
331
0
  5
12770E
331
0
  5
12770F
331
0
  5
127710
331
0
  5
127711
331
0
  5
127712
331
0
  5
127713
331
0
  5
127714
331
0
  5
127715
331
0
  5
127716
331
0
  5
127717
331
0
  5
127718
331
0
  5
127719
331
0
  5
12771A
331
0
  5
12771B
331
0
  5
12771D
331
0
  5
12771E
331
0
  5
12771F
331
0
  5
127720
331
0
  5
127721
331
0
  5
127722
331
0
  5
127723
331
0
  5
127724
331
0
  5
127725
331
0
  5
127726
331
0
  5
127727
331
0
  5
127728
331
0
  5
127729
331
0
  5
12772A
331
0
  5
12772B
331
0
  5
12772C
331
0
  5
12772D
331
0
  5
12772E
331
0
  5
12772F
331
0
  5
127730
331
0
  5
127731
331
0
  5
127732
331
0
  5
127733
331
0
  5
127734
331
0
  5
127735
331
0
  5
127736
331
0
  5
127737
331
0
  5
127738
331
0
  5
127739
331
0
  5
12773A
331
0
  5
12773B
331
0
  5
12773C
331
0
  5
12773D
331
0
  5
12773E
331
0
  5
12773F
331
0
  5
127740
331
0
  5
127741
331
0
  5
127742
331
0
  5
127743
331
0
  5
127744
331
0
  5
127745
331
0
  5
127746
331
0
  5
127747
331
0
  5
127748
331
0
  5
127749
331
0
  5
12774B
331
0
  5
12774C
331
0
  5
12774D
331
0
  5
12774E
331
0
  5
12774F
331
0
  5
127750
331
0
  5
127751
331
0
  5
127752
331
0
  5
127753
331
0
  5
127754
331
0
  5
127755
331
0
  5
127756
331
0
  5
127757
331
0
  5
127758
331
0
  5
127759
331
0
  5
12775A
331
0
  5
12775B
331
0
  5
12775C
331
0
  5
12775D
331
0
  5
12775E
331
0
  5
12775F
331
0
  5
127760
331
0
  5
127761
331
0
  5
127762
331
0
  5
127763
331
0
  5
127764
331
0
  5
127765
331
0
  5
127766
331
0
  5
127767
331
0
  5
127768
331
0
  5
127769
331
0
  5
12776A
331
0
  5
12776B
331
0
  5
12776C
331
0
  5
12776D
331
0
  5
12776E
331
0
  5
12776F
331
0
  5
127770
331
0
  5
127771
331
0
  5
127772
331
0
  5
127773
331
0
  5
127774
331
0
  5
127775
331
0
  5
127776
331
0
  5
127777
331
0
  5
127778
331
0
  5
127779
331
0
  5
12777A
331
0
  5
12777B
331
0
  5
12777C
331
0
  5
12777D
331
0
  5
12777E
331
0
  5
12777F
331
0
  5
127780
331
0
  5
127781
331
0
  5
127782
331
0
  5
127783
331
0
  5
127784
331
0
  5
127785
331
0
  5
127786
331
0
  5
127787
331
0
  5
127788
331
0
  5
127789
331
0
  5
12778A
331
0
  5
12778B
331
0
  5
12778C
331
0
  5
12778D
331
0
  5
12778E
331
0
  5
12778F
331
0
  5
127790
331
0
  5
127791
331
0
  5
127792
331
0
  5
127793
331
0
  5
127794
331
0
  5
127795
331
0
  5
127796
331
0
  5
127797
331
0
  5
127798
331
0
  5
127799
331
0
  5
12779A
331
0
  5
12779B
331
0
  5
12779C
331
0
  5
12779D
331
0
  5
12779E
331
0
  5
12779F
331
0
  5
1277A0
331
0
  5
1277A1
331
0
  5
1277A2
331
0
  5
1277A3
331
0
  5
1277A4
331
0
  5
1277A5
331
0
  5
1277A6
331
0
  5
1277A7
331
0
  5
1277A8
331
0
  5
1277A9
331
0
  5
1277AA
331
0
  5
1277AB
331
0
  5
1277AC
331
0
  5
1277AD
331
0
  5
1277AE
331
0
  5
1277AF
331
0
  5
1277B0
331
0
  5
1277B1
331
0
  5
1277B2
331
0
  5
1277B3
331
0
  5
1277B4
331
0
  5
1277B5
331
0
  5
1277B6
331
0
  5
1277B7
331
0
  5
1277B8
331
0
  5
1277B9
331
0
  5
1277BA
331
0
  5
1277BB
331
0
  5
1277BC
331
0
  5
1277BD
331
0
  5
1277BE
331
0
  5
1277BF
331
0
  5
1277C0
331
0
  5
1277C1
331
0
  5
1277C2
331
0
  5
1277C3
331
0
  5
1277C4
331
0
  5
1277C5
331
0
  5
1277C6
331
0
  5
1277C7
331
0
  5
1277C8
331
0
  5
1277C9
331
0
  5
1277CA
331
0
  5
1277CB
331
0
  5
1277CC
331
0
  5
1277CD
331
0
  5
1277CE
331
0
  5
1277CF
331
0
  5
1277D0
331
0
  5
1277D1
331
0
  5
1277D2
331
0
  5
1277D3
331
0
  5
1277D4
331
0
  5
1277D5
331
0
  5
1277D6
331
0
  5
1277D7
331
0
  5
1277D8
331
0
  5
1277D9
331
0
  5
1277DA
331
0
  5
1277DB
331
0
  5
1277DC
331
0
  5
1277DD
331
0
  5
1277DE
331
0
  5
1277DF
331
0
  5
1277E0
331
0
  5
1277E1
331
0
  5
1277E2
331
0
  5
1277E3
331
0
  5
1277E4
331
0
  5
1277E5
331
0
  5
1277E6
331
0
  5
1277E7
331
0
  5
1277E8
331
0
  5
1277E9
331
0
  5
1277EA
331
0
  5
1277EB
331
0
  5
1277EC
331
0
  5
1277ED
331
0
  5
1277EE
331
0
  5
1277EF
331
0
  5
1277F0
331
0
  5
1277F1
331
0
  5
1277F2
331
0
  5
1277F3
331
0
  5
1277F4
331
0
  5
1277F5
331
0
  5
1277F6
331
0
  5
1277F7
331
0
  5
1277F8
331
0
  5
1277F9
331
0
  5
1277FA
331
0
  5
1277FB
331
0
  5
1277FC
331
0
  5
1277FD
331
0
  5
1277FE
331
0
  5
1277FF
331
0
  5
127800
331
0
  5
127801
331
0
  5
127802
331
0
  5
127803
331
0
  5
127804
331
0
  5
127805
331
0
  5
127806
331
0
  5
127807
331
0
  5
127808
331
0
  5
127809
331
0
  5
12780A
331
0
  5
12780B
331
0
  5
12780C
331
0
  5
12780D
331
0
  5
12780E
331
0
  5
12780F
331
0
  5
127810
331
0
  5
127811
331
0
  5
127812
331
0
  5
127813
331
0
  5
127814
331
0
  5
127815
331
0
  5
127816
331
0
  5
127817
331
0
  5
127818
331
0
  5
127819
331
0
  5
12781A
331
0
  5
12781B
331
0
  5
12781C
331
0
  5
12781D
331
0
  5
12781E
331
0
  5
12781F
331
0
  5
127820
331
0
  5
127821
331
0
  5
127822
331
0
  5
127823
331
0
  5
127824
331
0
  5
127825
331
0
  5
127826
331
0
  5
127827
331
0
  5
127828
331
0
  5
127829
331
0
  5
12782A
331
0
  5
12782B
331
0
  5
12782C
331
0
  5
12782D
331
0
  5
12782E
331
0
  5
12782F
331
0
  5
127830
331
0
  5
127831
331
0
  5
127832
331
0
  5
127833
331
0
  5
127834
331
0
  5
127835
331
0
  5
127836
331
0
  5
127837
331
0
  5
127838
331
0
  5
127839
331
0
  5
12783A
331
0
  5
12783B
331
0
  5
12783C
331
0
  5
12783D
331
0
  5
12783E
331
0
  5
12783F
331
0
  5
127840
331
0
  5
127841
331
0
  5
127842
331
0
  5
127843
331
0
  5
127844
331
0
  5
127845
331
0
  5
127846
331
0
  5
127847
331
0
  5
127848
331
0
  5
127849
331
0
  5
12784A
331
0
  5
12784B
331
0
  5
12784C
331
0
  5
12784D
331
0
  5
12784E
331
0
  5
12784F
331
0
  5
127850
331
0
  5
127851
331
0
  5
127852
331
0
  5
127853
331
0
  5
127854
331
0
  5
127855
331
0
  5
127856
331
0
  5
127857
331
0
  5
127858
331
0
  5
127859
331
0
  5
12785A
331
0
  5
12785B
331
0
  5
12785C
331
0
  5
12785D
331
0
  5
12785E
331
0
  5
12785F
331
0
  5
127860
331
0
  5
127861
331
0
  5
127862
331
0
  5
127865
331
0
  5
127866
331
0
  5
127867
331
0
  5
127868
331
0
  5
12786A
331
0
  5
12786B
331
0
  5
12786C
331
0
  5
12786D
331
0
  5
12786E
331
0
  5
12786F
331
0
  5
127870
331
0
  5
127871
331
0
  5
127878
331
0
  5
127879
331
0
  5
12787A
331
0
  5
12787D
331
0
  5
12787E
331
0
  5
12787F
331
0
  5
127880
331
0
  5
127881
331
0
  5
127882
331
0
  5
127883
331
0
  5
127884
331
0
  5
127885
331
0
  5
127886
331
0
  5
127887
331
0
  5
127888
331
0
  5
127889
331
0
  5
12788A
331
0
  5
12788B
331
0
  5
12788C
331
0
  5
12788D
331
0
  5
12788E
331
0
  5
12788F
331
0
  5
127890
331
0
  5
127891
331
0
  5
127892
331
0
  5
127893
331
0
  5
127894
331
0
  5
127895
331
0
  5
127896
331
0
  5
127897
331
0
  5
127898
331
0
  5
127899
331
0
  5
12789A
331
0
  5
12789B
331
0
  5
12789C
331
0
  5
12789D
331
0
  5
12789E
331
0
  5
12789F
331
0
  5
1278A0
331
0
  5
1278A1
331
0
  5
1278A2
331
0
  5
1278A3
331
0
  5
1278A4
331
0
  5
1278A5
331
0
  5
1278A6
331
0
  5
1278A7
331
0
  5
1278AB
331
0
  5
1278AC
331
0
  5
1278AD
331
0
  5
1278AE
331
0
  5
1278C1
331
0
  5
1278C3
331
0
  5
1278C5
331
0
  5
1278D7
331
0
  5
1278D8
331
0
  5
1278D9
331
0
  5
1278DD
331
0
  5
1278DE
331
0
  5
1278DF
331
0
  5
1278E0
331
0
  5
1278E1
331
0
  5
1278E2
331
0
  5
1278E3
331
0
  5
1278E4
331
0
  5
1278E5
331
0
  5
1278E6
331
0
  5
1278E7
331
0
  5
1278E8
331
0
  5
1278E9
331
0
  5
1278EA
331
0
  5
1278EB
331
0
  5
1278EC
331
0
  5
1278ED
331
0
  5
1278EE
331
0
  5
1278EF
331
0
  5
1278F0
331
0
  5
1278F1
331
0
  5
1278F2
331
0
  5
1278F3
331
0
  5
1278F4
331
0
  5
1278F5
331
0
  5
1278F6
331
0
  5
1278F7
331
0
  5
1278F8
331
0
  5
1278F9
331
0
  5
1278FA
331
0
  5
1278FB
331
0
  5
1278FC
331
0
  5
1278FD
331
0
  5
1278FE
331
0
  5
1278FF
331
0
  5
127900
331
0
  5
127901
331
0
  5
127902
331
0
  5
127903
331
0
  5
127904
331
0
  5
127905
331
0
  5
127906
331
0
  5
127907
331
0
  5
127908
331
0
  5
127909
331
0
  5
12790A
331
0
  5
12790B
331
0
  5
12790C
331
0
  5
12790D
331
0
  5
12790E
331
0
  5
12790F
331
0
  5
127910
331
0
  5
127911
331
0
  5
127912
331
0
  5
127915
331
0
  5
127916
331
0
  5
127917
331
0
  5
127918
331
0
  5
127919
331
0
  5
12791A
331
0
  5
12791C
331
0
  5
12791D
331
0
  5
12791E
331
0
  5
12791F
331
0
  5
127920
331
0
  5
127924
331
0
  5
127929
331
0
  5
12792A
331
0
  5
12792B
331
0
  5
12792C
331
0
  5
12792D
331
0
  5
12792E
331
0
  5
12792F
331
0
  5
127930
331
0
  5
127931
331
0
  5
127932
331
0
  5
127933
331
0
  5
127934
331
0
  5
127935
331
0
  5
127936
331
0
  5
127937
331
0
  5
127938
331
0
  5
127939
331
0
  5
12793A
331
0
  5
12793B
331
0
  5
12793C
331
0
  5
12793D
331
0
  5
12793E
331
0
  5
12793F
331
0
  5
127940
331
0
  5
127941
331
0
  5
127942
331
0
  5
127943
331
0
  5
127944
331
0
  5
127945
331
0
  5
127946
331
0
  5
127947
331
0
  5
127948
331
0
  5
127949
331
0
  5
12794A
331
0
  5
12794B
331
0
  5
12794C
331
0
  5
12794D
331
0
  5
12794E
331
0
  5
12794F
331
0
  5
127950
331
0
  5
127951
331
0
  5
127952
331
0
  5
127953
331
0
  5
127954
331
0
  5
127955
331
0
  5
127956
331
0
  5
127957
331
0
  5
127958
331
0
  5
127959
331
0
  5
12795A
331
0
  5
12795B
331
0
  5
12795C
331
0
  5
12795D
331
0
  5
12795E
331
0
  5
12795F
331
0
  5
127960
331
0
  5
127961
331
0
  5
127962
331
0
  5
127963
331
0
  5
127964
331
0
  5
127965
331
0
  5
127966
331
0
  5
127967
331
0
  5
127968
331
0
  5
127969
331
0
  5
12796A
331
0
  5
12796B
331
0
  5
12796C
331
0
  5
12796D
331
0
  5
12796E
331
0
  5
12796F
331
0
  5
127970
331
0
  5
127971
331
0
  5
127972
331
0
  5
127973
331
0
  5
127974
331
0
  5
127975
331
0
  5
127976
331
0
  5
127977
331
0
  5
127978
331
0
  5
127979
331
0
  5
12797A
331
0
  5
12797B
331
0
  5
12797C
331
0
  5
12797D
331
0
  5
12797E
331
0
  5
12797F
331
0
  5
127980
331
0
  5
127981
331
0
  5
127982
331
0
  5
127983
331
0
  5
127984
331
0
  5
127985
331
0
  5
127986
331
0
  5
127987
331
0
  5
127988
331
0
  5
127989
331
0
  5
12798A
331
0
  5
12798B
331
0
  5
12798C
331
0
  5
12798D
331
0
  5
12798E
331
0
  5
12798F
331
0
  5
127990
331
0
  5
127991
331
0
  5
127992
331
0
  5
127993
331
0
  5
127994
331
0
  5
127995
331
0
  5
127996
331
0
  5
127997
331
0
  5
127998
331
0
  5
127999
331
0
  5
12799A
331
0
  5
12799B
331
0
  5
12799C
331
0
  5
12799D
331
0
  5
12799E
331
0
  5
12799F
331
0
  5
1279A0
331
0
  5
1279A1
331
0
  5
1279A2
331
0
  5
1279A3
331
0
  5
1279A4
331
0
  5
1279A5
331
0
  5
1279A6
331
0
  5
1279A7
331
0
  5
1279A8
331
0
  5
1279A9
331
0
  5
1279E8
331
0
  5
1279F1
331
0
  5
1279F2
331
0
  5
1279F7
331
0
  5
1279F8
331
0
  5
1279F9
331
0
  5
1279FA
331
0
  5
1279FB
331
0
  5
1279FC
331
0
  5
1279FD
331
0
  5
127A11
331
0
  5
127A12
331
0
  5
127A13
331
0
  5
127A14
331
0
  5
127A15
331
0
  5
127A16
331
0
  5
127A17
331
0
  5
127A18
331
0
  5
127A19
331
0
  5
127A1A
331
0
  5
127A1F
331
0
  5
128DC3
331
0
  5
128DC4
331
0
  5
128DC5
331
128DC8
  5
128DC9
331
128DC9
  5
128DCA
331
128DCA
  5
128DCB
331
128DCB
  5
128DCC
331
128DCC
  5
128DCD
331
128DCD
  5
128DCE
331
128DCE
  5
128DCF
331
0
  5
128DD0
331
128DD1
  5
128DD2
331
128DD2
  5
128DD3
331
128DD3
  5
128DD4
331
128DD4
  5
128DD5
331
128DD5
  5
128DD6
331
128DD6
  5
128DD7
331
128DD7
  5
128DD8
331
128DD8
  5
128DD9
331
128DD9
  5
128DDA
331
128DDA
  5
128DDB
331
128DDB
  5
128DDC
331
128DDC
  5
128DDD
331
128DDD
  5
128DDE
331
128DDE
  5
128DDF
331
128DDF
  5
128DE0
331
128DE0
  5
128DE1
331
128DE1
  5
128DE2
331
128DE2
  5
128DE3
331
0
  5
128DE4
331
0
  5
128DE5
331
0
  5
128DE6
331
0
  5
128DE7
331
0
  5
128DE8
331
0
  5
128DE9
331
0
  5
128DEA
331
0
  5
128DEB
331
0
  5
128DEC
331
0
  5
128DED
331
0
  5
128DEE
331
0
  5
128DEF
331
0
  5
128DF0
331
0
  5
128DF1
331
0
  5
128DF2
331
0
  5
128DF3
331
128DF3
  5
128DF4
331
128DF4
  5
128DF5
331
128DF5
  5
128DF6
331
128DF6
  5
128DF7
331
128DF7
  5
128DF8
331
128DF8
  5
128DF9
331
128DF9
  5
128DFA
331
128DFA
  5
128DFB
331
128DFB
  5
128DFC
331
128DFC
  5
128DFD
331
0
  5
128DFE
331
0
  5
128DFF
331
0
  5
128E00
331
0
  5
128E01
331
0
  5
128E02
331
0
  5
128E03
331
0
  5
128E04
331
0
  5
128E05
331
0
  5
128E06
331
128E06
  5
128E07
331
128E07
  5
128E08
331
0
  5
128E09
331
0
  5
128E0A
331
0
  5
128E0B
331
128E0B
  5
128E0C
331
0
  5
128E0D
331
0
  5
128E0E
331
0
  5
128E0F
331
128E0F
  5
128E10
331
128E10
  5
128E11
331
0
  5
128E12
331
0
  5
128E13
331
0
  5
128E14
331
128E14
  5
128E15
331
0
  5
128E16
331
0
  5
128E17
331
0
  5
128E18
331
128E18
  5
128E19
331
128E19
  5
128E1A
331
0
  5
128E1B
331
0
  5
128E1C
331
128E1C
  5
128E1D
331
128E1D
  5
128E1E
331
0
  5
128E20
331
0
  5
128E21
331
0
  5
128E22
331
0
  5
128E23
331
0
  5
128E24
331
0
  5
128E25
331
0
  5
128E26
331
0
  5
128E27
331
0
  5
128E28
331
0
  5
128E29
331
0
  5
128E2A
331
0
  5
128E2B
331
0
  5
128E2C
331
0
  5
128E32
331
0
  5
128E33
331
0
  5
128E34
331
0
  5
128E35
331
0
  5
128E36
331
0
  5
128E37
331
0
  5
128E38
331
0
  5
128E39
331
0
  5
128E3A
331
0
  5
128E3B
331
0
  5
128E3D
331
0
  5
128E3E
331
0
  5
128E3F
331
0
  5
128E40
331
0
  5
128E42
331
0
  5
128E43
331
0
  5
128E44
331
0
  5
128E45
331
0
  5
128E46
331
0
  5
128E47
331
0
  5
128E48
331
0
  5
128E49
331
0
  5
128E4A
331
0
  5
128E4B
331
0
  5
128E4D
331
0
  5
128E4E
331
0
  5
128E4F
331
0
  5
128E50
331
0
  5
128E51
331
0
  5
128E52
331
0
  5
128E53
331
0
  5
128E54
331
0
  5
128E55
331
0
  5
128E56
331
0
  5
128E57
331
0
  5
128E58
331
0
  5
128E59
331
0
  5
128E5A
331
0
  5
128E5D
331
0
  5
128E5E
331
0
  5
128E5F
331
0
  5
128E61
331
0
  5
128E63
331
0
  5
128E64
331
0
  5
128E7B
331
0
  5
128E7C
331
0
  5
128E7D
331
0
  5
128E7E
331
0
  5
128E7F
331
0
  5
128E81
331
0
  5
128E82
331
0
  5
128E83
331
0
  5
128E84
331
0
  5
128E85
331
0
  5
128E86
331
0
  5
128E87
331
0
  5
128E88
331
0
  5
128E89
331
0
  5
128E8A
331
0
  5
128E8B
331
0
  5
128E8C
331
0
  5
128E8D
331
0
  5
128E8E
331
0
  5
128E8F
331
0
  5
128E90
331
0
  5
128E91
331
0
  5
128E92
331
0
  5
128E93
331
0
  5
128E94
331
0
  5
128E95
331
0
  5
128E96
331
0
  5
128E97
331
0
  5
128E98
331
0
  5
128E99
331
0
  5
128E9A
331
0
  5
128E9B
331
0
  5
128E9C
331
0
  5
128E9D
331
0
  5
128E9E
331
0
  5
128E9F
331
0
  5
128EA0
331
0
  5
128EA1
331
0
  5
128EA2
331
0
  5
128EA3
331
0
  5
128EA4
331
0
  5
128EA5
331
0
  5
128EA6
331
0
  5
128EA7
331
0
  5
128EA8
331
0
  5
128EA9
331
0
  5
128EAA
331
0
  5
128EAB
331
0
  5
128EAC
331
0
  5
128EAD
331
0
  5
128EAE
331
0
  5
128EAF
331
0
  5
128EB0
331
0
  5
128EB1
331
0
  5
128EB2
331
0
  5
128EB3
331
0
  5
128EB4
331
0
  5
128EB5
331
0
  5
128EB6
331
0
  5
128EB7
331
0
  5
128EB8
331
0
  5
128EB9
331
0
  5
128EBA
331
0
  5
128EBB
331
0
  5
128EBC
331
0
  5
128EBD
331
0
  5
128EBE
331
0
  5
128EBF
331
0
  5
128EC0
331
0
  5
128EC1
331
0
  5
128EC2
331
0
  5
128EC3
331
0
  5
128EC4
331
0
  5
128EC5
331
0
  5
128EC6
331
0
  5
128EC7
331
0
  5
128EC8
331
0
  5
128EC9
331
0
  5
128ECA
331
0
  5
128ECB
331
0
  5
128ECC
331
0
  5
128ECD
331
0
  5
128ECE
331
0
  5
128ECF
331
0
  5
128ED0
331
0
  5
128ED1
331
0
  5
128ED2
331
0
  5
128ED3
331
0
  5
128ED4
331
0
  5
128ED5
331
0
  5
128ED6
331
0
  5
128ED7
331
0
  5
128ED8
331
0
  5
128ED9
331
0
  5
128EDA
331
0
  5
128EDB
331
0
  5
128EDC
331
0
  5
128EDD
331
0
  5
128EDE
331
0
  5
128EDF
331
0
  5
128EE0
331
0
  5
128EE1
331
0
  5
128EE2
331
0
  5
128EE3
331
0
  5
128EE4
331
0
  5
128EE5
331
0
  5
128EE6
331
0
  5
128EE7
331
0
  5
128EE8
331
0
  5
128EE9
331
0
  5
128EEA
331
0
  5
128EEB
331
0
  5
128EEC
331
0
  5
128EED
331
0
  5
128EEE
331
0
  5
128EEF
331
0
  5
128EF0
331
0
  5
128EF1
331
0
  5
128EF2
331
0
  5
128EF3
331
0
  5
128EF4
331
0
  5
128EF5
331
0
  5
128EF6
331
0
  5
128EF7
331
0
  5
128EF8
331
0
  5
128EF9
331
0
  5
128EFA
331
0
  5
128EFB
331
0
  5
128EFC
331
0
  5
128EFD
331
0
  5
128EFE
331
0
  5
128EFF
331
0
  5
128F00
331
0
  5
128F01
331
0
  5
128F02
331
0
  5
128F03
331
0
  5
128F04
331
0
  5
128F05
331
0
  5
128F06
331
0
  5
128F07
331
0
  5
128F08
331
0
  5
128F09
331
0
  5
128F0A
331
0
  5
128F0B
331
0
  5
128F0C
331
0
  5
128F0D
331
0
  5
128F0E
331
0
  5
128F0F
331
0
  5
128F10
331
0
  5
128F11
331
0
  5
128F12
331
0
  5
128F13
331
0
  5
128F14
331
0
  5
128F15
331
0
  5
128F16
331
0
  5
128F17
331
0
  5
128F18
331
0
  5
128F19
331
0
  5
128F1A
331
0
  5
128F1B
331
0
  5
128F1C
331
0
  5
128F1D
331
0
  5
128F1E
331
0
  5
128F1F
331
0
  5
128F20
331
0
  5
128F21
331
0
  5
128F22
331
0
  5
128F23
331
0
  5
128F24
331
0
  5
128F25
331
0
  5
128F26
331
0
  5
128F27
331
0
  5
128F28
331
0
  5
128F29
331
0
  5
128F2A
331
0
  5
128F2B
331
0
  5
128F2C
331
0
  5
128F2D
331
0
  5
128F2E
331
0
  5
128F2F
331
0
  5
128F30
331
0
  5
128F31
331
0
  5
128F32
331
0
  5
128F33
331
0
  5
128F34
331
0
  5
128F35
331
0
  5
128F36
331
0
  5
128F37
331
0
  5
128F38
331
0
  5
128F39
331
0
  5
128F3A
331
0
  5
128F3B
331
0
  5
128F3C
331
0
  5
128F3D
331
0
  5
128F3E
331
0
  5
128F3F
331
0
  5
128F40
331
0
  5
128F41
331
0
  5
128F42
331
0
  5
128F43
331
0
  5
128F44
331
0
  5
128F45
331
0
  5
128F46
331
0
  5
128F47
331
0
  5
128F48
331
0
  5
128F49
331
0
  5
128F4A
331
0
  5
128F4B
331
0
  5
128F4C
331
0
  5
128F4D
331
0
  5
128F4E
331
0
  5
128F4F
331
0
  5
128F50
331
0
  5
128F51
331
0
  5
128F52
331
0
  5
128F53
331
0
  5
128F54
331
0
  5
128F55
331
0
  5
128F56
331
0
  5
128F57
331
0
  5
128F58
331
0
  5
128F59
331
0
  5
128F5A
331
0
  5
128F5B
331
0
  5
128F5C
331
0
  5
128F5D
331
0
  5
128F5E
331
0
  5
128F5F
331
0
  5
128F60
331
0
  5
128F61
331
0
  5
128F62
331
0
  5
128F63
331
0
  5
128F64
331
0
  5
128F65
331
0
  5
128F66
331
0
  5
128F67
331
0
  5
128F68
331
0
  5
128F69
331
0
  5
128F6A
331
0
  5
128F6B
331
0
  5
128F6C
331
0
  5
128F6D
331
0
  5
128F6E
331
0
  5
128F6F
331
0
  5
128F70
331
0
  5
128F71
331
0
  5
128F72
331
0
  5
128F73
331
0
  5
128F74
331
0
  5
128F75
331
0
  5
128F76
331
0
  5
128F77
331
0
  5
128F78
331
0
  5
128F79
331
0
  5
128F7A
331
0
  5
128F7B
331
0
  5
128F7C
331
0
  5
128F7D
331
0
  5
128F7E
331
0
  5
128F7F
331
0
  5
128F80
331
0
  5
128F81
331
0
  5
128F82
331
0
  5
128F83
331
0
  5
128F84
331
0
  5
128F85
331
0
  5
128F86
331
0
  5
128F87
331
0
  5
128F88
331
0
  5
128F89
331
0
  5
128F8A
331
0
  5
128F8B
331
0
  5
128F8C
331
0
  5
128F8D
331
0
  5
128F8E
331
0
  5
128F8F
331
0
  5
128F90
331
0
  5
128F91
331
0
  5
128F92
331
0
  5
128F93
331
0
  5
128F94
331
0
  5
128F95
331
0
  5
128F96
331
0
  5
128F97
331
0
  5
128F98
331
0
  5
128F99
331
0
  5
128F9A
331
0
  5
1290EE
331
0
  5
1290EF
331
0
  5
1291DA
331
0
  5
1291E2
331
0
  5
1291E3
331
0
  5
1291E6
331
0
  5
1291E7
331
0
  5
1291E8
331
0
  5
12922B
331
0
  5
12922C
331
0
  5
12964A
331
0
  5
129682
331
0
  5
129683
331
0
  5
129684
331
0
  5
129685
331
0
  5
129686
331
0
  5
129687
331
0
  5
129688
331
0
  5
129689
331
0
  5
12968A
331
0
  5
12968B
331
0
  5
12968C
331
0
  5
12968D
331
0
  5
12968E
331
0
  5
12968F
331
0
  5
129690
331
0
  5
129691
331
0
  5
129692
331
0
  5
129693
331
0
  5
129694
331
0
  5
129695
331
0
  5
129696
331
0
  5
129697
331
0
  5
129698
331
0
  5
129699
331
0
  5
12969A
331
0
  5
12969B
331
0
  5
12969C
331
0
  5
12969D
331
0
  5
12969E
331
0
  5
12969F
331
0
  5
1296A0
331
0
  5
1296A1
331
0
  5
1296A2
331
0
  5
1296A3
331
0
  5
1296A4
331
0
  5
1296A5
331
0
  5
1296A6
331
0
  5
1296A7
331
0
  5
1296A8
331
0
  5
1296A9
331
0
  5
1296AA
331
0
  5
1296AB
331
0
  5
1296AC
331
0
  5
1296AD
331
0
  5
1296AE
331
0
  5
1296AF
331
0
  5
1296B0
331
0
  5
1296B1
331
0
  5
1296B2
331
0
  5
1296B3
331
0
  5
1296B4
331
0
  5
1296B5
331
0
  5
1296B6
331
0
  5
1296B7
331
0
  5
1296B8
331
0
  5
1296B9
331
0
  5
1296BA
331
0
  5
1296BB
331
0
  5
1296BC
331
0
  5
1296BD
331
0
  5
1296BE
331
0
  5
1296BF
331
0
  5
1296C0
331
0
  5
1296C1
331
0
  5
1296C2
331
0
  5
1296C3
331
0
  5
1296C4
331
0
  5
1296C5
331
0
  5
1296C6
331
0
  5
1296C7
331
0
  5
1296C8
331
0
  5
1296C9
331
0
  5
1296CA
331
0
  5
1296CB
331
0
  5
1296CC
331
0
  5
1296CD
331
0
  5
1296CE
331
0
  5
1296CF
331
0
  5
1296D0
331
0
  5
1296D1
331
0
  5
1296D2
331
0
  5
1296D3
331
0
  5
1296D4
331
0
  5
1296D5
331
0
  5
1296D6
331
0
  5
1296D7
331
0
  5
1296D8
331
0
  5
1296D9
331
0
  5
1296DA
331
0
  5
1296DB
331
0
  5
1296DC
331
0
  5
1296DD
331
0
  5
1296DE
331
0
  5
1296DF
331
0
  5
1296E0
331
0
  5
1296E1
331
0
  5
1296E2
331
0
  5
1296E3
331
0
  5
1296E4
331
0
  5
1296E5
331
0
  5
1296E6
331
0
  5
1296E7
331
0
  5
1296E8
331
0
  5
1296E9
331
0
  5
1296EA
331
0
  5
1296EB
331
0
  5
1296EC
331
0
  5
1296ED
331
0
  5
1296EE
331
0
  5
1296EF
331
0
  5
1296F0
331
0
  5
1296F1
331
0
  5
1296F2
331
0
  5
1296F3
331
0
  5
1296F4
331
0
  5
1296F5
331
0
  5
1296F6
331
0
  5
1296F7
331
0
  5
1296F8
331
0
  5
1296F9
331
0
  5
1296FA
331
0
  5
1296FB
331
0
  5
1296FC
331
0
  5
1296FD
331
0
  5
1296FE
331
0
  5
1296FF
331
0
  5
129700
331
0
  5
129701
331
0
  5
129702
331
0
  5
129703
331
0
  5
129704
331
0
  5
129705
331
0
  5
129706
331
0
  5
129707
331
0
  5
129708
331
0
  5
129709
331
0
  5
12970A
331
0
  5
12970B
331
0
  5
12970C
331
0
  5
12970D
331
0
  5
12970E
331
0
  5
12970F
331
0
  5
129710
331
0
  5
129711
331
0
  5
129712
331
0
  5
12972B
331
0
  5
12972D
331
0
  5
12972E
331
0
  5
12972F
331
0
  5
129730
331
0
  5
129731
331
0
  5
129732
331
0
  5
129733
331
0
  5
129734
331
0
  5
129735
331
0
  5
129736
331
0
  5
129737
331
0
  5
129738
331
0
  5
129739
331
0
  5
12973A
331
0
  5
12973B
331
0
  5
129747
331
0
  5
129748
331
0
  5
129749
331
0
  5
12974A
331
0
  5
12974B
331
0
  5
12974C
331
0
  5
12974D
331
0
  5
12974E
331
0
  5
12974F
331
0
  5
129750
331
0
  5
129751
331
0
  5
129752
331
0
  5
129753
331
0
  5
129755
331
0
  5
129756
331
0
  5
129757
331
0
  5
129758
331
0
  5
129759
331
0
  5
12975A
331
0
  5
12975B
331
0
  5
12975C
331
0
  5
12975D
331
0
  5
12975E
331
0
  5
12975F
331
0
  5
129760
331
0
  5
129761
331
0
  5
129762
331
0
  5
129763
331
0
  5
129764
331
0
  5
129765
331
0
  5
129766
331
0
  5
129767
331
0
  5
129768
331
0
  5
129769
331
0
  5
12976A
331
0
  5
12976B
331
0
  5
12976C
331
0
  5
12976D
331
0
  5
12976E
331
0
  5
12976F
331
0
  5
129770
331
0
  5
129771
331
0
  5
129772
331
0
  5
129773
331
0
  5
129774
331
0
  5
129775
331
0
  5
129776
331
0
  5
129777
331
0
  5
129778
331
0
  5
129779
331
0
  5
12977A
331
0
  5
12977B
331
0
  5
12977C
331
0
  5
12977D
331
0
  5
12977E
331
0
  5
12977F
331
0
  5
129780
331
0
  5
129781
331
0
  5
129782
331
0
  5
129783
331
0
  5
129784
331
0
  5
129785
331
0
  5
129786
331
0
  5
129787
331
0
  5
129788
331
0
  5
129789
331
0
  5
12978A
331
0
  5
12978B
331
0
  5
12978C
331
0
  5
12978D
331
0
  5
12978E
331
0
  5
12978F
331
0
  5
129790
331
0
  5
129791
331
0
  5
129792
331
0
  5
129793
331
0
  5
129794
331
0
  5
129795
331
0
  5
129796
331
0
  5
129797
331
0
  5
129798
331
0
  5
129799
331
0
  5
12979A
331
0
  5
12979B
331
0
  5
12979C
331
0
  5
12979D
331
0
  5
12979E
331
0
  5
12979F
331
0
  5
1297A0
331
0
  5
1297A1
331
0
  5
1297A2
331
0
  5
1297A4
331
0
  5
1297A7
331
0
  5
1297A8
331
0
  5
1297AA
331
0
  5
1297AB
331
0
  5
1297AC
331
0
  5
1297AD
331
0
  5
1297AE
331
0
  5
1297AF
331
0
  5
1297B0
331
0
  5
1297B1
331
0
  5
1297B2
331
0
  5
1297B3
331
0
  5
1297B4
331
0
  5
1297B5
331
0
  5
1297B6
331
0
  5
1297B9
331
0
  5
1297BA
331
0
  5
1297BB
331
0
  5
1297BD
331
0
  5
1297BE
331
0
  5
1297BF
331
0
  5
1297C0
331
0
  5
1297C1
331
0
  5
1297C2
331
0
  5
1297C3
331
0
  5
1297C4
331
0
  5
1297C5
331
0
  5
1297C6
331
0
  5
1297C7
331
0
  5
1297C8
331
0
  5
1297C9
331
0
  5
1297CA
331
0
  5
1297CB
331
0
  5
1297CC
331
0
  5
1297CD
331
0
  5
1297CE
331
0
  5
1297CF
331
0
  5
1297D0
331
0
  5
1297D1
331
0
  5
1297D2
331
0
  5
1297D3
331
0
  5
1297D4
331
0
  5
1297D5
331
0
  5
1297D6
331
0
  5
1297D7
331
0
  5
1297D8
331
0
  5
1297D9
331
0
  5
1297DA
331
0
  5
1297DB
331
0
  5
1297DC
331
0
  5
1297DD
331
0
  5
1297DE
331
0
  5
1297DF
331
0
  5
1297E0
331
0
  5
1297E1
331
0
  5
1297E2
331
0
  5
1297E3
331
0
  5
1297E4
331
0
  5
1297E5
331
0
  5
1297E6
331
0
  5
1297E7
331
0
  5
1297E8
331
0
  5
1297E9
331
0
  5
1297EA
331
0
  5
1297EB
331
0
  5
1297EC
331
0
  5
1297ED
331
0
  5
1297EE
331
0
  5
1297EF
331
0
  5
1297F0
331
0
  5
1297F1
331
0
  5
1297F2
331
0
  5
1297F3
331
0
  5
1297F4
331
0
  5
1297F5
331
0
  5
1297F6
331
0
  5
1297F7
331
0
  5
1297F8
331
0
  5
1297F9
331
0
  5
1297FA
331
0
  5
1297FB
331
0
  5
1297FE
331
0
  5
1297FF
331
0
  5
129800
331
0
  5
129801
331
0
  5
129802
331
0
  5
129803
331
0
  5
129804
331
0
  5
129805
331
0
  5
129806
331
0
  5
129807
331
0
  5
129808
331
0
  5
129809
331
0
  5
12980A
331
0
  5
12980B
331
0
  5
12980C
331
0
  5
12980D
331
0
  5
12980E
331
0
  5
12980F
331
0
  5
129810
331
0
  5
129811
331
0
  5
129812
331
0
  5
129813
331
0
  5
129814
331
0
  5
129815
331
0
  5
129816
331
0
  5
129817
331
0
  5
129818
331
0
  5
129819
331
0
  5
12981A
331
0
  5
12981B
331
0
  5
12981C
331
0
  5
12981D
331
0
  5
12981E
331
0
  5
12981F
331
0
  5
129820
331
0
  5
129821
331
0
  5
129822
331
0
  5
129823
331
0
  5
129824
331
0
  5
129825
331
0
  5
129826
331
0
  5
129827
331
0
  5
129828
331
0
  5
129829
331
0
  5
12982A
331
0
  5
12982B
331
0
  5
12982C
331
0
  5
12982D
331
0
  5
12982E
331
0
  5
12982F
331
0
  5
129830
331
0
  5
129831
331
0
  5
129832
331
0
  5
129833
331
0
  5
129834
331
0
  5
129835
331
0
  5
129836
331
0
  5
129837
331
0
  5
129838
331
0
  5
129839
331
0
  5
12983A
331
0
  5
12983B
331
0
  5
12983C
331
0
  5
12983D
331
0
  5
12983E
331
0
  5
12983F
331
0
  5
129840
331
0
  5
129841
331
0
  5
129842
331
0
  5
129843
331
0
  5
129844
331
0
  5
129845
331
0
  5
129846
331
0
  5
129847
331
0
  5
129848
331
0
  5
129849
331
0
  5
12984A
331
0
  5
12984B
331
0
  5
12984C
331
0
  5
12984D
331
0
  5
12984E
331
0
  5
12984F
331
0
  5
129850
331
0
  5
129851
331
0
  5
129852
331
0
  5
129853
331
0
  5
129854
331
0
  5
129855
331
0
  5
129856
331
0
  5
129857
331
0
  5
129858
331
0
  5
129859
331
0
  5
12985A
331
0
  5
12985B
331
0
  5
12985C
331
0
  5
12985D
331
0
  5
12985E
331
0
  5
12985F
331
0
  5
129860
331
0
  5
129861
331
0
  5
129862
331
0
  5
129863
331
0
  5
129864
331
0
  5
129865
331
0
  5
129866
331
0
  5
129867
331
0
  5
129868
331
0
  5
129869
331
0
  5
12986A
331
0
  5
12986B
331
0
  5
12986C
331
0
  5
12986D
331
0
  5
12986E
331
0
  5
12986F
331
0
  5
129870
331
0
  5
129871
331
0
  5
129872
331
0
  5
129873
331
0
  5
129874
331
0
  5
129875
331
0
  5
129876
331
0
  5
129877
331
0
  5
129878
331
0
  5
129879
331
0
  5
12987A
331
0
  5
12987B
331
0
  5
12987C
331
0
  5
12987D
331
0
  5
12987E
331
0
  5
12987F
331
0
  5
129880
331
0
  5
129881
331
0
  5
129882
331
0
  5
129883
331
0
  5
129884
331
0
  5
129885
331
0
  5
129886
331
0
  5
129887
331
0
  5
129888
331
0
  5
129889
331
0
  5
12988A
331
0
  5
12988B
331
0
  5
12988C
331
0
  5
12988D
331
0
  5
12988E
331
0
  5
12988F
331
0
  5
129890
331
0
  5
129891
331
0
  5
129892
331
0
  5
129893
331
0
  5
129894
331
0
  5
129895
331
0
  5
129896
331
0
  5
129897
331
0
  5
129898
331
0
  5
129899
331
0
  5
12989A
331
0
  5
12989B
331
0
  5
12989C
331
0
  5
12989D
331
0
  5
12989E
331
0
  5
12989F
331
0
  5
1298A0
331
0
  5
1298A1
331
0
  5
1298A2
331
0
  5
1298A3
331
0
  5
1298A4
331
0
  5
1298A5
331
0
  5
1298A6
331
0
  5
1298A7
331
0
  5
1298A8
331
0
  5
1298A9
331
0
  5
1298AA
331
0
  5
1298AB
331
0
  5
1298AC
331
0
  5
1298AD
331
0
  5
1298AE
331
0
  5
1298AF
331
0
  5
1298B0
331
0
  5
1298B1
331
0
  5
1298B2
331
0
  5
1298B3
331
0
  5
1298B4
331
0
  5
1298B5
331
0
  5
1298B6
331
0
  5
1298B7
331
0
  5
1298B8
331
0
  5
1298B9
331
0
  5
1298BA
331
0
  5
1298BB
331
0
  5
1298BC
331
0
  5
1298BD
331
0
  5
1298BE
331
0
  5
1298BF
331
0
  5
1298C0
331
0
  5
1298C1
331
0
  5
1298C2
331
0
  5
1298C3
331
0
  5
1298C4
331
0
  5
1298C5
331
0
  5
1298C6
331
0
  5
1298C7
331
0
  5
1298C8
331
0
  5
1298C9
331
0
  5
1298CA
331
0
  5
1298CB
331
0
  5
1298CC
331
0
  5
1298CD
331
0
  5
1298CE
331
0
  5
1298CF
331
0
  5
1298D0
331
0
  5
1298D1
331
0
  5
1298D2
331
0
  5
1298D3
331
0
  5
1298D4
331
0
  5
1298D5
331
0
  5
1298D6
331
0
  5
1298D7
331
0
  5
1298D8
331
0
  5
1298D9
331
0
  5
1298DA
331
0
  5
1298DB
331
0
  5
1298DC
331
0
  5
1298DD
331
0
  5
1298DE
331
0
  5
1298DF
331
0
  5
1298E0
331
0
  5
1298E1
331
0
  5
1298E2
331
0
  5
1298E3
331
0
  5
1298E4
331
0
  5
1298E5
331
0
  5
1298E6
331
0
  5
1298E7
331
0
  5
1298E8
331
0
  5
1298E9
331
0
  5
1298EA
331
0
  5
1298EB
331
0
  5
1298EC
331
0
  5
1298ED
331
0
  5
1298EE
331
0
  5
1298EF
331
0
  5
1298F0
331
0
  5
1298F1
331
0
  5
1298F2
331
0
  5
1298F3
331
0
  5
1298F4
331
0
  5
1298F5
331
0
  5
1298F6
331
0
  5
1298F7
331
0
  5
1298F8
331
0
  5
1298F9
331
0
  5
1298FA
331
0
  5
1298FB
331
0
  5
1298FC
331
0
  5
1298FD
331
0
  5
1298FE
331
0
  5
1298FF
331
0
  5
129900
331
0
  5
129901
331
0
  5
129902
331
0
  5
129903
331
0
  5
129904
331
0
  5
129905
331
0
  5
129906
331
0
  5
129907
331
0
  5
129908
331
0
  5
129909
331
0
  5
12990A
331
0
  5
12990B
331
0
  5
12990C
331
0
  5
12990D
331
0
  5
12990E
331
0
  5
12990F
331
0
  5
129910
331
0
  5
129911
331
0
  5
129912
331
0
  5
129913
331
0
  5
129914
331
0
  5
129915
331
0
  5
129916
331
0
  5
129917
331
0
  5
129918
331
0
  5
129919
331
0
  5
12991A
331
0
  5
12991B
331
0
  5
12991C
331
0
  5
12991D
331
0
  5
12991E
331
0
  5
12991F
331
0
  5
129920
331
0
  5
129921
331
0
  5
129922
331
0
  5
129923
331
0
  5
129924
331
0
  5
129925
331
0
  5
129926
331
0
  5
129927
331
0
  5
129928
331
0
  5
129929
331
0
  5
12992A
331
0
  5
12992B
331
0
  5
12992C
331
0
  5
12992D
331
0
  5
12992E
331
0
  5
12992F
331
0
  5
129930
331
0
  5
129931
331
0
  5
129932
331
0
  5
129933
331
0
  5
129934
331
0
  5
129935
331
0
  5
129936
331
0
  5
129937
331
0
  5
129938
331
0
  5
129939
331
0
  5
12993A
331
0
  5
12993B
331
0
  5
12993C
331
0
  5
12993D
331
0
  5
12993E
331
0
  5
12993F
331
0
  5
129940
331
0
  5
129941
331
0
  5
129942
331
0
  5
129943
331
0
  5
129944
331
0
  5
129945
331
0
  5
129946
331
0
  5
129947
331
0
  5
129948
331
0
  5
129949
331
0
  5
12994A
331
0
  5
12994B
331
0
  5
12994C
331
0
  5
12994D
331
0
  5
12994E
331
0
  5
12994F
331
0
  5
129950
331
0
  5
129951
331
0
  5
129952
331
0
  5
129953
331
0
  5
129954
331
0
  5
129955
331
0
  5
129956
331
0
  5
129957
331
0
  5
129958
331
0
  5
129959
331
0
  5
12995A
331
0
  5
12995B
331
0
  5
12995C
331
0
  5
12995D
331
0
  5
12995E
331
0
  5
12995F
331
0
  5
129960
331
0
  5
129961
331
0
  5
129962
331
0
  5
129963
331
0
  5
129964
331
0
  5
129965
331
0
  5
129966
331
0
  5
129967
331
0
  5
129968
331
0
  5
129969
331
0
  5
12996A
331
0
  5
12996B
331
0
  5
12996C
331
0
  5
12996D
331
0
  5
12996E
331
0
  5
12996F
331
0
  5
129970
331
0
  5
129971
331
0
  5
129972
331
0
  5
129973
331
0
  5
129974
331
0
  5
129975
331
0
  5
129976
331
0
  5
129977
331
0
  5
129978
331
0
  5
129979
331
0
  5
12997A
331
0
  5
12997B
331
0
  5
12997C
331
0
  5
12997D
331
0
  5
12997E
331
0
  5
12997F
331
0
  5
129980
331
0
  5
129981
331
0
  5
129982
331
0
  5
129983
331
0
  5
129984
331
0
  5
129985
331
0
  5
129986
331
0
  5
129987
331
0
  5
129988
331
0
  5
129989
331
0
  5
12998A
331
0
  5
12998B
331
0
  5
12998C
331
0
  5
12998D
331
0
  5
12998E
331
0
  5
12998F
331
0
  5
129990
331
0
  5
129991
331
0
  5
129992
331
0
  5
129993
331
0
  5
129994
331
0
  5
129995
331
0
  5
129996
331
0
  5
129997
331
0
  5
129998
331
0
  5
129999
331
0
  5
12999A
331
0
  5
12999B
331
0
  5
12999C
331
0
  5
12999D
331
0
  5
12999E
331
0
  5
12999F
331
0
  5
1299A0
331
0
  5
1299A1
331
0
  5
1299A2
331
0
  5
1299A3
331
0
  5
1299A4
331
0
  5
1299A5
331
0
  5
1299A6
331
0
  5
1299A7
331
0
  5
1299A8
331
0
  5
1299A9
331
0
  5
1299AA
331
0
  5
1299AB
331
0
  5
1299AC
331
0
  5
1299AD
331
0
  5
1299AE
331
0
  5
1299AF
331
0
  5
1299B0
331
0
  5
1299B1
331
0
  5
1299B2
331
0
  5
1299B3
331
0
  5
1299B4
331
0
  5
1299B5
331
0
  5
1299B6
331
0
  5
1299B7
331
0
  5
1299B8
331
0
  5
1299B9
331
0
  5
1299BA
331
0
  5
1299BB
331
0
  5
1299BC
331
0
  5
1299BD
331
0
  5
1299BE
331
0
  5
1299BF
331
0
  5
1299C0
331
0
  5
1299C1
331
0
  5
1299C2
331
0
  5
1299C3
331
0
  5
1299C4
331
0
  5
1299C5
331
0
  5
1299C6
331
0
  5
1299C7
331
0
  5
1299C8
331
0
  5
1299C9
331
0
  5
1299CA
331
0
  5
1299CB
331
0
  5
1299CC
331
0
  5
1299CD
331
0
  5
1299CE
331
0
  5
1299CF
331
0
  5
1299D0
331
0
  5
1299D1
331
0
  5
1299D2
331
0
  5
1299D3
331
0
  5
1299D4
331
0
  5
1299D5
331
0
  5
1299D6
331
0
  5
1299D7
331
0
  5
1299D8
331
0
  5
1299D9
331
0
  5
1299DA
331
0
  5
1299DB
331
0
  5
1299DC
331
0
  5
1299DD
331
0
  5
1299DE
331
0
  5
1299DF
331
0
  5
1299E0
331
0
  5
1299E1
331
0
  5
1299E2
331
0
  5
1299E3
331
0
  5
1299E4
331
0
  5
1299E5
331
0
  5
1299E6
331
0
  5
1299E7
331
0
  5
1299E8
331
0
  5
1299E9
331
0
  5
1299EA
331
0
  5
1299EB
331
0
  5
1299EC
331
0
  5
1299ED
331
0
  5
1299EE
331
0
  5
1299EF
331
0
  5
1299F0
331
0
  5
1299F1
331
0
  5
1299F2
331
0
  5
1299F3
331
0
  5
1299F4
331
0
  5
1299F5
331
0
  5
1299F6
331
0
  5
1299F7
331
0
  5
1299F8
331
0
  5
1299F9
331
0
  5
1299FA
331
0
  5
1299FB
331
0
  5
1299FC
331
0
  5
1299FD
331
0
  5
1299FE
331
0
  5
1299FF
331
0
  5
129A00
331
0
  5
129A01
331
0
  5
129A02
331
0
  5
129A03
331
0
  5
129A04
331
0
  5
129A05
331
0
  5
129A06
331
0
  5
129A07
331
0
  5
129A08
331
0
  5
129A09
331
0
  5
129A0A
331
0
  5
129A0B
331
0
  5
129A0C
331
0
  5
129A0D
331
0
  5
129A0E
331
0
  5
129A0F
331
0
  5
129A10
331
0
  5
129A11
331
0
  5
129A12
331
0
  5
129A13
331
0
  5
129A14
331
0
  5
129A15
331
0
  5
129A16
331
0
  5
129A17
331
0
  5
129A18
331
0
  5
129A19
331
0
  5
129A1A
331
0
  5
129A1B
331
0
  5
129A1C
331
0
  5
129A1D
331
0
  5
129A1E
331
0
  5
129A1F
331
0
  5
129A20
331
0
  5
129A21
331
0
  5
129A22
331
0
  5
129A23
331
0
  5
129A24
331
0
  5
129A25
331
0
  5
129A26
331
0
  5
129A27
331
0
  5
129A28
331
0
  5
129A29
331
0
  5
129A2A
331
0
  5
129A2B
331
0
  5
129A2C
331
0
  5
129A2D
331
0
  5
129A2E
331
0
  5
129A2F
331
0
  5
129A30
331
0
  5
129A31
331
0
  5
129A32
331
0
  5
129A33
331
0
  5
129A34
331
0
  5
129A35
331
0
  5
129A36
331
0
  5
129A37
331
0
  5
129A38
331
0
  5
129A39
331
0
  5
129A3A
331
0
  5
129A3B
331
0
  5
129A3C
331
0
  5
129A3D
331
0
  5
129A3E
331
0
  5
129A3F
331
0
  5
129A40
331
0
  5
129A41
331
0
  5
129A42
331
0
  5
129A43
331
0
  5
129A44
331
0
  5
129A45
331
0
  5
129A46
331
0
  5
129A47
331
0
  5
129A48
331
0
  5
129A49
331
0
  5
129A4A
331
0
  5
129A4B
331
0
  5
129A4C
331
0
  5
129A4D
331
0
  5
129A4E
331
0
  5
129A4F
331
0
  5
129A50
331
0
  5
129A51
331
0
  5
129A52
331
0
  5
129A53
331
0
  5
129A54
331
0
  5
129A55
331
0
  5
129A56
331
0
  5
129A57
331
0
  5
129A58
331
0
  5
129A59
331
0
  5
129A5A
331
0
  5
129A5B
331
0
  5
129A5C
331
0
  5
129A5D
331
0
  5
129A5E
331
0
  5
129A5F
331
0
  5
129A60
331
0
  5
129A61
331
0
  5
129A62
331
0
  5
129A63
331
0
  5
129A64
331
0
  5
129A65
331
0
  5
129A66
331
0
  5
129A67
331
0
  5
129A68
331
0
  5
129A69
331
0
  5
129A6A
331
0
  5
129A6B
331
0
  5
129A6C
331
0
  5
129A6D
331
0
  5
129A6E
331
0
  5
129A6F
331
0
  5
129A70
331
0
  5
129A71
331
0
  5
129A72
331
0
  5
129A73
331
0
  5
129A74
331
0
  5
129A75
331
0
  5
129A76
331
0
  5
129A77
331
0
  5
129A78
331
0
  5
129A79
331
0
  5
129A7A
331
0
  5
129A7B
331
0
  5
129A7C
331
0
  5
129A7D
331
0
  5
129A7E
331
0
  5
129A7F
331
0
  5
129A80
331
0
  5
129A81
331
0
  5
129A82
331
0
  5
129A83
331
0
  5
129A84
331
0
  5
129A85
331
0
  5
129A86
331
0
  5
129A87
331
0
  5
129A88
331
0
  5
129A89
331
0
  5
129A8A
331
0
  5
129A8B
331
0
  5
129A8C
331
0
  5
129A8D
331
0
  5
129A8E
331
0
  5
129A8F
331
0
  5
129A90
331
0
  5
129A91
331
0
  5
129A92
331
0
  5
129A93
331
0
  5
129A94
331
0
  5
129A95
331
0
  5
129A96
331
0
  5
129A97
331
0
  5
129A98
331
0
  5
129A99
331
0
  5
129A9A
331
0
  5
129A9B
331
0
  5
129A9C
331
0
  5
129A9D
331
0
  5
129A9E
331
0
  5
129A9F
331
0
  5
129AA0
331
0
  5
129AA1
331
0
  5
129AA2
331
0
  5
129AA3
331
0
  5
129AA4
331
0
  5
129AA5
331
0
  5
129AA6
331
0
  5
129AA7
331
0
  5
129AA8
331
0
  5
129AA9
331
0
  5
129AAA
331
0
  5
129AAB
331
0
  5
129AAC
331
0
  5
129AAD
331
0
  5
129AAE
331
0
  5
129AAF
331
0
  5
129AB0
331
0
  5
129AB1
331
0
  5
129AB2
331
0
  5
129AB3
331
0
  5
129AB4
331
0
  5
129AB5
331
0
  5
129AB6
331
0
  5
129AB7
331
0
  5
129AB8
331
0
  5
129AB9
331
0
  5
129ABA
331
0
  5
129ABB
331
0
  5
129ABC
331
0
  5
129ABD
331
0
  5
129ABE
331
0
  5
129ABF
331
0
  5
129AC0
331
0
  5
129AC1
331
0
  5
129AC2
331
0
  5
129AC3
331
0
  5
129AC4
331
0
  5
129AC5
331
0
  5
129AC6
331
0
  5
129AC7
331
0
  5
129AC8
331
0
  5
129AC9
331
0
  5
129ACA
331
0
  5
129ACB
331
0
  5
129ACC
331
0
  5
129ACD
331
0
  5
129ACE
331
0
  5
129ACF
331
0
  5
129AD0
331
0
  5
129AD1
331
0
  5
129AD2
331
0
  5
129AD3
331
0
  5
129AD4
331
0
  5
129AD5
331
0
  5
129AD6
331
0
  5
129AD7
331
0
  5
129AD8
331
0
  5
129AD9
331
0
  5
129ADA
331
0
  5
129ADB
331
0
  5
129ADC
331
0
  5
129ADD
331
0
  5
129ADE
331
0
  5
129ADF
331
0
  5
129AE0
331
0
  5
129AE1
331
0
  5
129AE2
331
0
  5
129AE3
331
0
  5
129AE4
331
0
  5
129AE5
331
0
  5
129AE6
331
0
  5
129AE7
331
0
  5
129AE8
331
0
  5
129AE9
331
0
  5
129AEA
331
0
  5
129AEB
331
0
  5
129AEC
331
0
  5
129AED
331
0
  5
129AEE
331
0
  5
129AEF
331
0
  5
129AF0
331
0
  5
129AF1
331
0
  5
129AF2
331
0
  5
129AF3
331
0
  5
129AF4
331
0
  5
129AF5
331
0
  5
129AF6
331
0
  5
129AF7
331
0
  5
129AF8
331
0
  5
129AF9
331
0
  5
129AFA
331
0
  5
129AFB
331
0
  5
129AFC
331
0
  5
129AFD
331
0
  5
129AFE
331
0
  5
129AFF
331
0
  5
129B00
331
0
  5
129B01
331
0
  5
129B02
331
0
  5
129B03
331
0
  5
129B04
331
0
  5
129B05
331
0
  5
129B06
331
0
  5
129B07
331
0
  5
129B08
331
0
  5
129B09
331
0
  5
129B0A
331
0
  5
129B0B
331
0
  5
129B0C
331
0
  5
129B0D
331
0
  5
129B0E
331
0
  5
129B0F
331
0
  5
129B10
331
0
  5
129B11
331
0
  5
129B12
331
0
  5
129B13
331
0
  5
129B14
331
0
  5
129B15
331
0
  5
129B16
331
0
  5
129B17
331
0
  5
129B18
331
0
  5
129B19
331
0
  5
129B1A
331
0
  5
129B1B
331
0
  5
129B1C
331
0
  5
129B1D
331
0
  5
129B1E
331
0
  5
129B1F
331
0
  5
129B20
331
0
  5
129B21
331
0
  5
129B22
331
0
  5
129B23
331
0
  5
129B24
331
0
  5
129B25
331
0
  5
129B26
331
0
  5
129B27
331
0
  5
129B28
331
0
  5
129B29
331
0
  5
129B2A
331
0
  5
129B2B
331
0
  5
129B2C
331
0
  5
129B2D
331
0
  5
129B2E
331
0
  5
129B2F
331
0
  5
129B30
331
0
  5
129B31
331
0
  5
129B32
331
0
  5
129B33
331
0
  5
129B34
331
0
  5
129B35
331
0
  5
129B36
331
0
  5
129B37
331
0
  5
129B38
331
0
  5
129B39
331
0
  5
129B3A
331
0
  5
129B3B
331
0
  5
129B3C
331
0
  5
129B3D
331
0
  5
129B3E
331
0
  5
129B3F
331
0
  5
129B40
331
0
  5
129B41
331
0
  5
129B42
331
0
  5
129B43
331
0
  5
129B44
331
0
  5
129B45
331
0
  5
129B46
331
0
  5
129B47
331
0
  5
129B48
331
0
  5
129B49
331
0
  5
129B4A
331
0
  5
129B4B
331
0
  5
129B4C
331
0
  5
129B4D
331
0
  5
129B4E
331
0
  5
129B4F
331
0
  5
129B50
331
0
  5
129B51
331
0
  5
129B52
331
0
  5
129B53
331
0
  5
129B54
331
0
  5
129B55
331
0
  5
129B56
331
0
  5
129B57
331
0
  5
129B58
331
0
  5
129B59
331
0
  5
129B5A
331
0
  5
129B5B
331
0
  5
129B5C
331
0
  5
129B5D
331
0
  5
129B5E
331
0
  5
129B5F
331
0
  5
129B60
331
0
  5
129B61
331
0
  5
129B62
331
0
  5
129B63
331
0
  5
129B64
331
0
  5
129B65
331
0
  5
129B66
331
0
  5
129B67
331
0
  5
129B68
331
0
  5
129B69
331
0
  5
129B6A
331
0
  5
129B6B
331
0
  5
129B6C
331
0
  5
129B6D
331
0
  5
129B6E
331
0
  5
129B6F
331
0
  5
129B70
331
0
  5
129B71
331
0
  5
129B72
331
0
  5
129B73
331
0
  5
129B74
331
0
  5
129B75
331
0
  5
129B76
331
0
  5
129B77
331
0
  5
129B78
331
0
  5
129B79
331
0
  5
129B7A
331
0
  5
129B7B
331
0
  5
129B7C
331
0
  5
129B7D
331
0
  5
129B7E
331
0
  5
129B7F
331
0
  5
129B80
331
0
  5
129B81
331
0
  5
129B82
331
0
  5
129B83
331
0
  5
129B84
331
0
  5
129B85
331
0
  5
129B86
331
0
  5
129B87
331
0
  5
129B88
331
0
  5
129B89
331
0
  5
129B8A
331
0
  5
129B8B
331
0
  5
129B8C
331
0
  5
129B8D
331
0
  5
129B8E
331
0
  5
129B8F
331
0
  5
129B90
331
0
  5
129B91
331
0
  5
129B92
331
0
  5
129B93
331
0
  5
129B94
331
0
  5
129B95
331
0
  5
129B96
331
0
  5
129B97
331
0
  5
129B98
331
0
  5
129B99
331
0
  5
129B9A
331
0
  5
129B9B
331
0
  5
129B9C
331
0
  5
129B9D
331
0
  5
129B9E
331
0
  5
129B9F
331
0
  5
129BA0
331
0
  5
129BA1
331
0
  5
129BA2
331
0
  5
129BA3
331
0
  5
129BA4
331
0
  5
129BA5
331
0
  5
129BA6
331
0
  5
129BA7
331
0
  5
129BA8
331
0
  5
129BA9
331
0
  5
129BAA
331
0
  5
129BAB
331
0
  5
129BAC
331
0
  5
129BAD
331
0
  5
129BAE
331
0
  5
129BAF
331
0
  5
129BB0
331
0
  5
129BB1
331
0
  5
129BB2
331
0
  5
129BB3
331
0
  5
129BB4
331
0
  5
129BB5
331
0
  5
129BB6
331
0
  5
129BB7
331
0
  5
129BB8
331
0
  5
129BB9
331
0
  5
129BBA
331
0
  5
129BBB
331
0
  5
129BBC
331
0
  5
129BBD
331
0
  5
129BBE
331
0
  5
129BBF
331
0
  5
129BC0
331
0
  5
129BC1
331
0
  5
129BC2
331
0
  5
129BC3
331
0
  5
129BC4
331
0
  5
129BC5
331
0
  5
129BC6
331
0
  5
129BC7
331
0
  5
129BC8
331
0
  5
129BC9
331
0
  5
129BCA
331
0
  5
129BCB
331
0
  5
129BCC
331
0
  5
129BCD
331
0
  5
129BCE
331
0
  5
129BCF
331
0
  5
129BD0
331
0
  5
129BD1
331
0
  5
129BD2
331
0
  5
129BD3
331
0
  5
129BD4
331
0
  5
129BD5
331
0
  5
129BD6
331
0
  5
129BD7
331
0
  5
129BD8
331
0
  5
129BD9
331
0
  5
129BDA
331
0
  5
129BDB
331
0
  5
129BDC
331
0
  5
129BDD
331
0
  5
129BDE
331
0
  5
129BDF
331
0
  5
129BE0
331
0
  5
129BE1
331
0
  5
129BE2
331
0
  5
129BE3
331
0
  5
129BE4
331
0
  5
129BE5
331
0
  5
129BE6
331
0
  5
129BE7
331
0
  5
129BE8
331
0
  5
129BE9
331
0
  5
129BEA
331
0
  5
129BEB
331
0
  5
129BEC
331
0
  5
129BED
331
0
  5
129BEE
331
0
  5
129BEF
331
0
  5
129BF0
331
0
  5
129BF1
331
0
  5
129BF2
331
0
  5
129BF3
331
0
  5
129BF4
331
0
  5
129BF5
331
0
  5
129BF6
331
0
  5
129BF7
331
0
  5
129BF8
331
0
  5
129BF9
331
0
  5
129BFA
331
0
  5
129BFB
331
0
  5
129BFC
331
0
  5
129BFD
331
0
  5
129BFE
331
0
  5
129BFF
331
0
  5
129C00
331
0
  5
129C01
331
0
  5
129C02
331
0
  5
129C03
331
0
  5
129C04
331
0
  5
129C05
331
0
  5
129C06
331
0
  5
129C07
331
0
  5
129C08
331
0
  5
129C09
331
0
  5
129C0A
331
0
  5
129C0B
331
0
  5
129C0C
331
0
  5
129C0D
331
0
  5
129C0E
331
0
  5
129C0F
331
0
  5
129C10
331
0
  5
129C11
331
0
  5
129C12
331
0
  5
129C13
331
0
  5
129C14
331
0
  5
129C15
331
0
  5
129C16
331
0
  5
129C17
331
0
  5
129C18
331
0
  5
129C19
331
0
  5
129C1A
331
0
  5
129C1B
331
0
  5
129C1C
331
0
  5
129C1D
331
0
  5
129C1E
331
0
  5
129C1F
331
0
  5
129C20
331
0
  5
129C21
331
0
  5
129C22
331
0
  5
129C23
331
0
  5
129C24
331
0
  5
129C25
331
0
  5
129C26
331
0
  5
129C27
331
0
  5
129C28
331
0
  5
129C29
331
0
  5
129C2A
331
0
  5
129C2B
331
0
  5
129C2C
331
0
  5
129C2D
331
0
  5
129C2E
331
0
  5
129C2F
331
0
  5
129C30
331
0
  5
129C31
331
0
  5
129C32
331
0
  5
129C33
331
0
  5
129C34
331
0
  5
129C35
331
0
  5
129C36
331
0
  5
129C37
331
0
  5
129C38
331
0
  5
129C39
331
0
  5
129C3A
331
0
  5
129C3B
331
0
  5
129C3C
331
0
  5
129C3D
331
0
  5
129C3E
331
0
  5
129C3F
331
0
  5
129C40
331
0
  5
129C41
331
0
  5
129C42
331
0
  5
129C43
331
0
  5
129C44
331
0
  5
129C45
331
0
  5
129C46
331
0
  5
129C47
331
0
  5
129C48
331
0
  5
129C49
331
0
  5
129C4A
331
0
  5
129C79
331
0
  5
129D0E
331
0
  5
129D0F
331
0
  5
129D16
331
0
  5
129D17
331
0
  5
129D18
331
0
  5
129D19
331
0
  5
129D6B
331
0
  5
129D6C
331
0
  5
129E96
331
0
  5
129E97
331
0
  5
129E98
331
0
  5
129E99
331
0
  5
129E9A
331
0
  5
129E9B
331
0
  5
129E9C
331
0
  5
129E9D
331
0
  5
129E9E
331
0
  5
129E9F
331
0
  5
129EA0
331
0
  5
129EA1
331
0
  5
129EA2
331
0
  5
129EA3
331
0
  5
129EA4
331
0
  5
129EA5
331
0
  5
129EA6
331
0
  5
129EA7
331
0
  5
129EA8
331
0
  5
129EA9
331
0
  5
129EAA
331
0
  5
129EAB
331
0
  5
129EAC
331
0
  5
129EAD
331
0
  5
129EAE
331
0
  5
129EAF
331
0
  5
129EB0
331
0
  5
129EB1
331
0
  5
129EB2
331
0
  5
129EB3
331
0
  5
129EB4
331
0
  5
129EB5
331
0
  5
129EB6
331
0
  5
129EB7
331
0
  5
129EB8
331
0
  5
129EB9
331
0
  5
129EBA
331
0
  5
129EBB
331
0
  5
129EBC
331
0
  5
129EBD
331
0
  5
129EBE
331
0
  5
129EBF
331
0
  5
129EC0
331
0
  5
129EC1
331
0
  5
129EC2
331
0
  5
129EC3
331
0
  5
129EC4
331
0
  5
129EC5
331
0
  5
129EC6
331
0
  5
129EC7
331
0
  5
129EC8
331
0
  5
129EC9
331
0
  5
129ECA
331
0
  5
129ECB
331
0
  5
129ECC
331
0
  5
129ECD
331
0
  5
129ECE
331
0
  5
129ECF
331
0
  5
129ED0
331
0
  5
129ED1
331
0
  5
129ED2
331
0
  5
129ED3
331
0
  5
129ED4
331
0
  5
129ED5
331
0
  5
129ED6
331
0
  5
129ED7
331
0
  5
129ED8
331
0
  5
129ED9
331
0
  5
129EDA
331
0
  5
129EDB
331
0
  5
129EDC
331
0
  5
129EDD
331
0
  5
129EDE
331
0
  5
129EDF
331
0
  5
129EE0
331
0
  5
129EE1
331
0
  5
129EE2
331
0
  5
129EE3
331
0
  5
129EE4
331
0
  5
129EE5
331
0
  5
129EE6
331
0
  5
129EE7
331
0
  5
129EE8
331
0
  5
129EE9
331
0
  5
129EEA
331
0
  5
129EEB
331
0
  5
129EEC
331
0
  5
129EED
331
0
  5
129EEE
331
0
  5
129EEF
331
0
  5
129EF0
331
0
  5
129EF1
331
0
  5
129EF2
331
0
  5
129EF3
331
0
  5
129EF4
331
0
  5
129EF5
331
0
  5
129EF6
331
0
  5
129EF7
331
0
  5
129EF8
331
0
  5
129EF9
331
0
  5
129F01
331
0
  5
129F02
331
0
  5
129F03
331
0
  5
129F04
331
0
  5
129F05
331
0
  5
129F06
331
0
  5
129F07
331
0
  5
129F08
331
0
  5
129F09
331
0
  5
129F0A
331
0
  5
129F0B
331
0
  5
129F0C
331
0
  5
129F0D
331
0
  5
129F0E
331
0
  5
129F0F
331
0
  5
129F10
331
0
  5
129F31
331
0
  5
12A4BA
331
0
  5
12A9C7
331
0
  5
12A9C8
331
0
  5
12A9C9
331
0
  5
12A9CA
331
0
  5
12A9CB
331
0
  5
12A9CC
331
0
  5
12A9CD
331
0
  5
12A9CE
331
0
  5
12A9CF
331
0
  5
12A9D0
331
0
  5
12A9D1
331
0
  5
12A9D2
331
0
  5
12A9D3
331
0
  5
12A9D4
331
0
  5
12A9D5
331
0
  5
12A9D6
331
0
  5
12A9D7
331
0
  5
12A9D8
331
0
  5
12A9D9
331
0
  5
12A9DA
331
0
  5
12A9DB
331
0
  5
12A9DC
331
0
  5
12A9DD
331
0
  5
12A9DE
331
0
  5
12A9DF
331
0
  5
12A9E0
331
0
  5
12A9E1
331
0
  5
12A9E2
331
0
  5
12A9E3
331
0
  5
12A9E4
331
0
  5
12A9E5
331
0
  5
12A9E6
331
0
  5
12A9E7
331
0
  5
12A9E8
331
0
  5
12A9E9
331
0
  5
12A9EA
331
0
  5
12A9EB
331
0
  5
12A9EC
331
0
  5
12A9ED
331
0
  5
12A9EE
331
0
  5
12A9EF
331
0
  5
12A9F0
331
0
  5
12A9F1
331
0
  5
12A9F2
331
0
  5
12A9F3
331
0
  5
12A9F4
331
0
  5
12A9F5
331
0
  5
12A9F6
331
0
  5
12A9F7
331
0
  5
12A9F8
331
0
  5
12A9F9
331
0
  5
12A9FA
331
0
  5
12A9FB
331
0
  5
12A9FC
331
0
  5
12A9FD
331
0
  5
12A9FE
331
0
  5
12A9FF
331
0
  5
12AA00
331
0
  5
12AA01
331
0
  5
12AA02
331
0
  5
12AA03
331
0
  5
12AA04
331
0
  5
12AA05
331
0
  5
12AA06
331
0
  5
12AA07
331
0
  5
12AA08
331
0
  5
12AA09
331
0
  5
12AA0A
331
0
  5
12AA0B
331
0
  5
12AA0C
331
0
  5
12AA0D
331
0
  5
12AA0E
331
0
  5
12AA0F
331
0
  5
12AA10
331
0
  5
12AA11
331
0
  5
12AA12
331
0
  5
12AA13
331
0
  5
12AA14
331
0
  5
12AA15
331
0
  5
12AA16
331
0
  5
12AA17
331
0
  5
12AA18
331
0
  5
12AA19
331
0
  5
12AA1A
331
0
  5
12AA1B
331
0
  5
12AA1C
331
0
  5
12AA1D
331
0
  5
12AA1E
331
0
  5
12AA1F
331
0
  5
12AA20
331
0
  5
12AA21
331
0
  5
12AA22
331
0
  5
12AA23
331
0
  5
12AA24
331
0
  5
12AA25
331
0
  5
12AA26
331
0
  5
12AA27
331
0
  5
12AA28
331
0
  5
12AA29
331
0
  5
12AA2A
331
0
  5
12AA2B
331
0
  5
12AA2C
331
0
  5
12AA2D
331
0
  5
12AA2E
331
0
  5
12AA2F
331
0
  5
12AA30
331
0
  5
12AA31
331
0
  5
12AA32
331
0
  5
12AA33
331
0
  5
12AA34
331
0
  5
12AA35
331
0
  5
12AA36
331
0
  5
12AA37
331
0
  5
12AA39
331
0
  5
12AA3A
331
0
  5
12AA3C
331
0
  5
12AA3D
331
0
  5
12AA3E
331
0
  5
12AA4C
331
0
  5
12AA4D
331
0
  5
129713
331
0
  5
12AA4E
331
0
  5
12AA5F
331
0
  5
12AA60
331
0
  5
12B0A5
331
0
  5
12B113
331
0
  5
127914
331
0
  5
12B114
331
0
  5
12B115
331
0
  5
12B136
331
0
  5
12B137
331
0
  5
12B138
331
0
  5
12B13A
331
0
  5
12B13B
331
0
  5
12B13C
331
0
  5
12B13D
331
0
  5
12B144
331
0
  5
12B145
331
0
  5
12B146
331
0
  5
12B147
331
0
  5
12B148
331
0
  5
12B149
331
0
  5
12B14A
331
0
  5
12B14B
331
0
  5
12B14C
331
0
  5
12B14D
331
0
  5
12B7F7
331
0
  5
12BEAB
331
0
  5
12BEAC
331
0
  5
12BEAD
331
0
  5
12BEAE
331
0
  5
12BEAF
331
0
  5
12BEB0
331
0
  5
12BEB1
331
0
  5
12BEB2
331
0
  5
12BEB3
331
0
  5
12BEB4
331
0
  5
12BEB5
331
0
  5
12BEB6
331
0
  5
12BEB7
331
0
  5
12BEB8
331
0
  5
12BEB9
331
0
  5
12BEBA
331
0
  5
12BEBB
331
0
  5
12BEBC
331
0
  5
12BEBD
331
0
  5
12BEBE
331
0
  5
12BEBF
331
0
  5
12BEC0
331
0
  5
12BEC1
331
0
  5
12BEC2
331
0
  5
12BEC3
331
0
  5
12BEC4
331
0
  5
12BEC5
331
0
  5
12BEC6
331
0
  5
12BEC7
331
0
  5
12BEC8
331
0
  5
12BEC9
331
0
  5
12BECA
331
0
  5
12BECB
331
0
  5
12BECC
331
0
  5
12BECD
331
0
  5
12BECE
331
0
  5
12BECF
331
0
  5
12BED0
331
0
  5
12BED1
331
0
  5
12BED2
331
0
  5
12BED3
331
0
  5
12BED4
331
0
  5
12BED5
331
0
  5
12BED6
331
0
  5
12BED7
331
0
  5
12BED8
331
0
  5
12BED9
331
0
  5
12BEDA
331
0
  5
12BEDB
331
0
  5
12BEDC
331
0
  5
12BEDD
331
0
  5
12BEDE
331
0
  5
12BEDF
331
0
  5
12BEE0
331
0
  5
12BEE1
331
0
  5
12BEE2
331
0
  5
12BEE3
331
0
  5
12BEE4
331
0
  5
12BEE5
331
0
  5
12BEE6
331
0
  5
12BEE7
331
0
  5
12BEE8
331
0
  5
12BEE9
331
0
  5
12BEEA
331
0
  5
12BEEB
331
0
  5
12BEEC
331
0
  5
12BEED
331
0
  5
12BEEE
331
0
  5
12BEEF
331
0
  5
12BEF0
331
0
  5
12BEF1
331
0
  5
12BEF2
331
0
  5
12BEF3
331
0
  5
12BEF4
331
0
  5
12BEF5
331
0
  5
12BEF6
331
0
  5
12BEF7
331
0
  5
12BEF8
331
0
  5
12BEF9
331
0
  5
12BEFA
331
0
  5
12BEFB
331
0
  5
12BEFC
331
0
  5
12BEFD
331
0
  5
12BEFE
331
0
  5
12BEFF
331
0
  5
12BF00
331
0
  5
12BF01
331
0
  5
12BF02
331
0
  5
12BF03
331
0
  5
12BF04
331
0
  5
12BF05
331
0
  5
12BF06
331
0
  5
12BF07
331
0
  5
12BF08
331
0
  5
12BF09
331
0
  5
12BF0A
331
0
  5
12BF0B
331
0
  5
12BF0C
331
0
  5
12BF0D
331
0
  5
12BF0E
331
0
  5
12BF0F
331
0
  5
12BF10
331
0
  5
12BF11
331
0
  5
12BF12
331
0
  5
12BF13
331
0
  5
12BF14
331
0
  5
12BF15
331
0
  5
12BF16
331
0
  5
12BF17
331
0
  5
12BF18
331
0
  5
12BF19
331
0
  5
12BF1A
331
0
  5
12BF1B
331
0
  5
12BF1C
331
0
  5
12BF1D
331
0
  5
12BF1E
331
0
  5
12BF1F
331
0
  5
12BF20
331
0
  5
12BF21
331
0
  5
12BF22
331
0
  5
12BF23
331
0
  5
12BF24
331
0
  5
12BF25
331
0
  5
12BF26
331
0
  5
12BF27
331
0
  5
12BF28
331
0
  5
12BF29
331
0
  5
12BF2A
331
0
  5
12BF2B
331
0
  5
12BF2C
331
0
  5
12BF2D
331
0
  5
12BF2E
331
0
  5
12BF2F
331
0
  5
12BF30
331
0
  5
12BF31
331
0
  5
12BF32
331
0
  5
12BF33
331
0
  5
12BF34
331
0
  5
12BF35
331
0
  5
12BF36
331
0
  5
12BF37
331
0
  5
12BF38
331
0
  5
12BF39
331
0
  5
12BF3A
331
0
  5
12BF3B
331
0
  5
12BF3C
331
0
  5
12BF3D
331
0
  5
12BF3E
331
0
  5
12BF3F
331
0
  5
12BF40
331
0
  5
12BF41
331
0
  5
12BF42
331
0
  5
12BF43
331
0
  5
12BF44
331
0
  5
12BF45
331
0
  5
12BF46
331
0
  5
12BF47
331
0
  5
12BF48
331
0
  5
12BF49
331
0
  5
12BF4A
331
0
  5
12BF4B
331
0
  5
12BF4C
331
0
  5
12BF4D
331
0
  5
12BF4E
331
0
  5
12BF4F
331
0
  5
12BF50
331
0
  5
12BF51
331
0
  5
12BF52
331
0
  5
12BF53
331
0
  5
12BF54
331
0
  5
12BF55
331
0
  5
12BF56
331
0
  5
12BF57
331
0
  5
12BF58
331
0
  5
12BF59
331
0
  5
12BF5A
331
0
  5
12BF5B
331
0
  5
12BF5C
331
0
  5
12BF5D
331
0
  5
12BF5E
331
0
  5
12BF5F
331
0
  5
12BF60
331
0
  5
12BF61
331
0
  5
12BF62
331
0
  5
12BF63
331
0
  5
12BF64
331
0
  5
12BF65
331
0
  5
12BF66
331
0
  5
12BF67
331
0
  5
12BF68
331
0
  5
12BF69
331
0
  5
12BF6A
331
0
  5
12BF6B
331
0
  5
12BF6C
331
0
  5
12BF6D
331
0
  5
12BF6E
331
0
  5
12BF6F
331
0
  5
12BF70
331
0
  5
12BF71
331
0
  5
12BF72
331
0
  5
12BF73
331
0
  5
12BF74
331
0
  5
12BF75
331
0
  5
12BF76
331
0
  5
12BF77
331
0
  5
12BF78
331
0
  5
12BF79
331
0
  5
12BF7A
331
0
  5
12BF7B
331
0
  5
12BF7C
331
0
  5
12BF7D
331
0
  5
12BF7E
331
0
  5
12BF7F
331
0
  5
12BF80
331
0
  5
12BF81
331
0
  5
12BF82
331
0
  5
12BF83
331
0
  5
12BF84
331
0
  5
12BF85
331
0
  5
12BF86
331
0
  5
12BF87
331
0
  5
12BF88
331
0
  5
12BF89
331
0
  5
12BF8A
331
0
  5
12BF8B
331
0
  5
12BF8C
331
0
  5
12BF8D
331
0
  5
12BF8E
331
0
  5
12BF8F
331
0
  5
12BF90
331
0
  5
12BF91
331
0
  5
12BF92
331
0
  5
12BF93
331
0
  5
12BF94
331
0
  5
12BF95
331
0
  5
12BF96
331
0
  5
12BF97
331
0
  5
12BF98
331
0
  5
12BF99
331
0
  5
12BF9A
331
0
  5
12BF9B
331
0
  5
12BF9C
331
0
  5
12BF9D
331
0
  5
12BF9E
331
0
  5
12BF9F
331
0
  5
12BFA0
331
0
  5
12BFA1
331
0
  5
12BFA2
331
0
  5
12BFA3
331
0
  5
12BFA4
331
0
  5
12BFA5
331
0
  5
12BFA6
331
0
  5
12BFA7
331
0
  5
12BFA8
331
0
  5
12BFA9
331
0
  5
12BFAA
331
0
  5
12BFAB
331
0
  5
12BFAC
331
0
  5
12BFAD
331
0
  5
12BFAE
331
0
  5
12BFAF
331
0
  5
12BFB0
331
0
  5
12BFB1
331
0
  5
12BFB2
331
0
  5
12BFB3
331
0
  5
12BFB4
331
0
  5
12BFB5
331
0
  5
12BFB6
331
0
  5
12BFB7
331
0
  5
12BFB8
331
0
  5
12BFB9
331
0
  5
12BFBA
331
0
  5
12BFBB
331
0
  5
12BFBC
331
0
  5
12BFBD
331
0
  5
12BFBE
331
0
  5
12BFBF
331
0
  5
12BFC0
331
0
  5
12BFC1
331
0
  5
12BFC2
331
0
  5
12BFC3
331
0
  5
12BFC4
331
0
  5
12BFC5
331
0
  5
12BFC6
331
0
  5
12BFC7
331
0
  5
12BFC8
331
0
  5
12BFC9
331
0
  5
12BFCA
331
0
  5
12BFCB
331
0
  5
12BFCC
331
0
  5
12BFCD
331
0
  5
12BFCE
331
0
  5
12BFCF
331
0
  5
12BFD0
331
0
  5
12BFD1
331
0
  5
12BFD2
331
0
  5
12BFD3
331
0
  5
12BFD4
331
0
  5
12BFD5
331
0
  5
12BFD6
331
0
  5
12BFD7
331
0
  5
12BFD8
331
0
  5
12BFD9
331
0
  5
12BFDA
331
0
  5
12BFDB
331
0
  5
12BFDC
331
0
  5
12BFDD
331
0
  5
12BFDE
331
0
  5
12BFDF
331
0
  5
12BFE0
331
0
  5
12BFE1
331
0
  5
12BFE2
331
0
  5
12BFE3
331
0
  5
12BFE4
331
0
  5
12BFE5
331
0
  5
12BFE6
331
0
  5
12BFE7
331
0
  5
12BFE8
331
0
  5
12BFE9
331
0
  5
12BFEA
331
0
  5
12BFEB
331
0
  5
12BFEC
331
0
  5
12BFED
331
0
  5
12BFEE
331
0
  5
12BFEF
331
0
  5
12BFF0
331
0
  5
12BFF1
331
0
  5
12BFF2
331
0
  5
12BFF3
331
0
  5
12BFF4
331
0
  5
12BFF5
331
0
  5
12BFF6
331
0
  5
12BFF7
331
0
  5
12BFF8
331
0
  5
12BFF9
331
0
  5
12BFFA
331
0
  5
12BFFB
331
0
  5
12BFFC
331
0
  5
12BFFD
331
0
  5
12BFFE
331
0
  5
12BFFF
331
0
  5
12C000
331
0
  5
12C001
331
0
  5
12C002
331
0
  5
12C003
331
0
  5
12C004
331
0
  5
12C005
331
0
  5
12C006
331
0
  5
12C007
331
0
  5
12C008
331
0
  5
12C009
331
0
  5
12C00A
331
0
  5
12C00B
331
0
  5
12C00C
331
0
  5
12C00D
331
0
  5
12C00E
331
0
  5
12C00F
331
0
  5
12C010
331
0
  5
12C011
331
0
  5
12C012
331
0
  5
12C013
331
0
  5
12C014
331
0
  5
12C015
331
0
  5
12C016
331
0
  5
12C017
331
0
  5
12C018
331
0
  5
12C019
331
0
  5
12C01A
331
0
  5
12C01B
331
0
  5
12C01C
331
0
  5
12C01D
331
0
  5
12C01E
331
0
  5
12C01F
331
0
  5
12C020
331
0
  5
12C021
331
0
  5
12C022
331
0
  5
12C023
331
0
  5
12C024
331
0
  5
12C025
331
0
  5
12C026
331
0
  5
12C027
331
0
  5
12C028
331
0
  5
12C029
331
0
  5
12C02A
331
0
  5
12C02B
331
0
  5
12C02C
331
0
  5
12C02D
331
0
  5
12C02E
331
0
  5
12C02F
331
0
  5
12C030
331
0
  5
12C031
331
0
  5
12C032
331
0
  5
12C168
331
0
  5
12C92A
331
0
  5
12C92B
331
0
  5
128E5C
331
0
  5
128E62
331
0
  5
12C92C
331
0
  5
12C92D
331
0
  5
12C92E
331
0
  5
12C92F
331
0
  5
12C930
331
0
  5
12C931
331
0
  5
12C932
331
0
  5
12C933
331
0
  5
12C934
331
0
  5
12C935
331
0
  5
12C936
331
0
  5
12C937
331
0
  5
12C938
331
0
  5
12C939
331
0
  5
12C93A
331
0
  5
12C93B
331
0
  5
12C93C
331
0
  5
12C93D
331
0
  5
12C93E
331
0
  5
12C93F
331
0
  5
12C940
331
0
  5
12C941
331
0
  5
12C942
331
0
  5
12C943
331
0
  5
12C944
331
0
  5
12C945
331
0
  5
12C946
331
0
  5
12C947
331
0
  5
12C948
331
0
  5
12C949
331
0
  5
12C94A
331
0
  5
12C94B
331
0
  5
12C94C
331
0
  5
12C94D
331
0
  5
12C94E
331
0
  5
12C94F
331
0
  5
12C950
331
0
  5
12C951
331
0
  5
12C952
331
0
  5
12C953
331
0
  5
12C954
331
0
  5
12C955
331
0
  5
12C956
331
0
  5
12C957
331
0
  5
12C958
331
0
  5
12C959
331
0
  5
12C95A
331
0
  5
12C95B
331
0
  5
12C95C
331
0
  5
12C95D
331
0
  5
12C95E
331
0
  5
12C95F
331
0
  5
12C960
331
0
  5
12C961
331
0
  5
12C962
331
0
  5
12C963
331
0
  5
12C964
331
0
  5
12C965
331
0
  5
12C966
331
0
  5
12C967
331
0
  5
12C968
331
0
  5
12C969
331
0
  5
12C96A
331
0
  5
12C96B
331
0
  5
12C96C
331
0
  5
12C96D
331
0
  5
12C96E
331
0
  5
12C96F
331
0
  5
12C970
331
0
  5
12C971
331
0
  5
12C972
331
0
  5
12C973
331
0
  5
12C974
331
0
  5
12C975
331
0
  5
12C976
331
0
  5
12C977
331
0
  5
12C978
331
0
  5
12C979
331
0
  5
12C97A
331
0
  5
12C97B
331
0
  5
12C97C
331
0
  5
12C97D
331
0
  5
12C97E
331
0
  5
12C97F
331
0
  5
12C980
331
0
  5
12C981
331
0
  5
12C982
331
0
  5
12C983
331
0
  5
12C984
331
0
  5
12C985
331
0
  5
12C986
331
0
  5
12C987
331
0
  5
12C988
331
0
  5
12C989
331
0
  5
12C98A
331
0
  5
12C98B
331
0
  5
12C98C
331
0
  5
12C98D
331
0
  5
12C98E
331
0
  5
12C98F
331
0
  5
12C990
331
0
  5
12C991
331
0
  5
12C992
331
0
  5
12C993
331
0
  5
12C994
331
0
  5
12C995
331
0
  5
12C996
331
0
  5
12C997
331
0
  5
12C998
331
0
  5
12C999
331
0
  5
12C99A
331
0
  5
12C99B
331
0
  5
12C99C
331
0
  5
12C99D
331
0
  5
12C99E
331
0
  5
12C99F
331
0
  5
12C9A0
331
0
  5
12C9A1
331
0
  5
12C9A2
331
0
  5
12C9A3
331
0
  5
12C9A4
331
0
  5
12C9A5
331
0
  5
12C9A6
331
0
  5
12C9A7
331
0
  5
12C9A8
331
0
  5
12C9A9
331
0
  5
12C9AA
331
0
  5
12C9AB
331
0
  5
12C9AC
331
0
  5
12C9AD
331
0
  5
12C9AE
331
0
  5
12C9AF
331
0
  5
12C9B0
331
0
  5
12C9B1
331
0
  5
12C9B2
331
0
  5
12C9B3
331
0
  5
12C9B4
331
0
  5
12C9B5
331
0
  5
12C9B6
331
0
  5
12C9B7
331
0
  5
12C9B8
331
0
  5
12C9B9
331
0
  5
12C9BA
331
0
  5
12C9BB
331
0
  5
12C9BC
331
0
  5
12C9BD
331
0
  5
12C9BE
331
0
  5
12C9BF
331
0
  5
12C9C0
331
0
  5
12C9C1
331
0
  5
12C9C2
331
0
  5
12C9C3
331
0
  5
12C9C4
331
0
  5
12C9C5
331
0
  5
12C9C6
331
0
  5
12C9C7
331
0
  5
12C9C8
331
0
  5
12C9C9
331
0
  5
12C9CA
331
0
  5
12C9CB
331
0
  5
12C9CC
331
0
  5
12C9CD
331
0
  5
12C9CE
331
0
  5
12C9CF
331
0
  5
12C9D0
331
0
  5
12C9D1
331
0
  5
12C9D2
331
0
  5
12C9D3
331
0
  5
12C9D4
331
0
  5
12C9D5
331
0
  5
12C9D6
331
0
  5
12C9D7
331
0
  5
12C9D8
331
0
  5
12C9D9
331
0
  5
12C9DA
331
0
  5
12C9DB
331
0
  5
12C9DC
331
0
  5
12C9DD
331
0
  5
12C9DE
331
0
  5
12C9DF
331
0
  5
12C9E0
331
0
  5
12C9E1
331
0
  5
12C9E2
331
0
  5
12C9E3
331
0
  5
12C9E4
331
0
  5
12C9E5
331
0
  5
12C9E6
331
0
  5
12C9E7
331
0
  5
12C9E8
331
0
  5
12C9E9
331
0
  5
12C9EA
331
0
  5
12C9EB
331
0
  5
12C9EC
331
0
  5
12C9ED
331
0
  5
12C9EE
331
0
  5
12C9EF
331
0
  5
12C9F0
331
0
  5
12C9F1
331
0
  5
12C9F2
331
0
  5
12C9F3
331
0
  5
12C9F4
331
0
  5
12C9F5
331
0
  5
12C9F6
331
0
  5
12C9F7
331
0
  5
12C9F8
331
0
  5
12C9F9
331
0
  5
12C9FA
331
0
  5
12C9FB
331
0
  5
12C9FC
331
0
  5
12C9FD
331
0
  5
12C9FE
331
0
  5
12C9FF
331
0
  5
12CA00
331
0
  5
12CA01
331
0
  5
12CA02
331
0
  5
12CA03
331
0
  5
12CA04
331
0
  5
12CA08
331
0
  5
12CA09
331
0
  5
12CA0A
331
0
  5
12CA0B
331
0
  5
12CA0C
331
0
  5
12CA0D
331
0
  5
12CA0E
331
0
  5
12CA0F
331
0
  5
12CA10
331
0
  5
12CA11
331
0
  5
12CA12
331
0
  5
12CA13
331
0
  5
12CA14
331
0
  5
12CA15
331
0
  5
12CA16
331
0
  5
12CA17
331
0
  5
12CA18
331
0
  5
12CA19
331
0
  5
12CA1A
331
0
  5
12CA1B
331
0
  5
12CA1C
331
0
  5
12CA1D
331
0
  5
12CA1E
331
0
  5
12CA1F
331
0
  5
12CA20
331
0
  5
12CA21
331
0
  5
12CA22
331
0
  5
12CA23
331
0
  5
12CA24
331
0
  5
12CA25
331
0
  5
12CA26
331
0
  5
12CA27
331
0
  5
12CA28
331
0
  5
12CA29
331
0
  5
12CA2A
331
0
  5
12CA2B
331
0
  5
12CA2C
331
0
  5
12CA2D
331
0
  5
12CA2E
331
0
  5
12CA2F
331
0
  5
12CA30
331
0
  5
12CA31
331
0
  5
12CA32
331
0
  5
12CA33
331
0
  5
12CA34
331
0
  5
12CA35
331
0
  5
12CA36
331
0
  5
12CA37
331
0
  5
12CA38
331
0
  5
12CA39
331
0
  5
12CA3A
331
0
  5
12CA3B
331
0
  5
12CA3C
331
0
  5
12CA3D
331
0
  5
12CA3E
331
0
  5
12CA3F
331
0
  5
12CA40
331
0
  5
12CA41
331
0
  5
12CA42
331
0
  5
12CA43
331
0
  5
12CA44
331
0
  5
12CA45
331
0
  5
12CA46
331
0
  5
12CA47
331
0
  5
12CA48
331
0
  5
12CA49
331
0
  5
12CA4A
331
0
  5
12CA4B
331
0
  5
12CA4C
331
0
  5
12CA4D
331
0
  5
12CA4E
331
0
  5
12CA4F
331
0
  5
12CA50
331
0
  5
12CA51
331
0
  5
12CA52
331
0
  5
12CA53
331
0
  5
12CA54
331
0
  5
12CA55
331
0
  5
12CA56
331
0
  5
12CA57
331
0
  5
12CA58
331
0
  5
12CA59
331
0
  5
12CA5A
331
0
  5
12CA5B
331
0
  5
12CA5C
331
0
  5
12CA5D
331
0
  5
12CA5E
331
0
  5
12CA5F
331
0
  5
12CA60
331
0
  5
12CA61
331
0
  5
12CA62
331
0
  5
12CA63
331
0
  5
12CA64
331
0
  5
12CA65
331
0
  5
12CA66
331
0
  5
12CA67
331
0
  5
12CA68
331
0
  5
12CA69
331
0
  5
12CA6A
331
0
  5
12CA6B
331
0
  5
12CA6C
331
0
  5
12CA6D
331
0
  5
12CA6E
331
0
  5
12CA6F
331
0
  5
12CA70
331
0
  5
12CA71
331
0
  5
12CA72
331
0
  5
12CA73
331
0
  5
12CA74
331
0
  5
12CA75
331
0
  5
12CA76
331
0
  5
12CA77
331
0
  5
12CA78
331
0
  5
12CA79
331
0
  5
12CA7A
331
0
  5
12CA7B
331
0
  5
12CA7C
331
0
  5
12CA7D
331
0
  5
12CA7E
331
0
  5
12CA7F
331
0
  5
12CA80
331
0
  5
12CA81
331
0
  5
12CA82
331
0
  5
12CA83
331
0
  5
12CA84
331
0
  5
12CA85
331
0
  5
12CA86
331
0
  5
12CA87
331
0
  5
12CA88
331
0
  5
12CA89
331
0
  5
12CA8A
331
0
  5
12CA8B
331
0
  5
12CA8C
331
0
  5
12CA8D
331
0
  5
12CA8E
331
0
  5
12CA8F
331
0
  5
12CA90
331
0
  5
12CA91
331
0
  5
12CA92
331
0
  5
12CA93
331
0
  5
12CA94
331
0
  5
12CA95
331
0
  5
12CA96
331
0
  5
12CA97
331
0
  5
12CA98
331
0
  5
12CA99
331
0
  5
12CA9A
331
0
  5
12CA9B
331
0
  5
12CA9C
331
0
  5
12CA9D
331
0
  5
12CA9E
331
0
  5
12CA9F
331
0
  5
12CAA0
331
0
  5
12CAA1
331
0
  5
12CAA2
331
0
  5
12CAA3
331
0
  5
12CAA4
331
0
  5
12CAA5
331
0
  5
12CAA6
331
0
  5
12CAA7
331
0
  5
12CAA8
331
0
  5
12CAA9
331
0
  5
12CAAA
331
0
  5
12CAAB
331
0
  5
12CAAC
331
0
  5
12CAAD
331
0
  5
12CAAE
331
0
  5
12CAAF
331
0
  5
12CAB0
331
0
  5
12CAB1
331
0
  5
12CAB2
331
0
  5
12CAB3
331
0
  5
12CAB4
331
0
  5
12CAB5
331
0
  5
12CAB6
331
0
  5
12CAB7
331
0
  5
12CAB8
331
0
  5
12CAB9
331
0
  5
12CABA
331
0
  5
12CABB
331
0
  5
12CABC
331
0
  5
12CABD
331
0
  5
12CABE
331
0
  5
12CABF
331
0
  5
12CAC0
331
0
  5
12CAC1
331
0
  5
12CAC2
331
0
  5
12CAC3
331
0
  5
12CAC4
331
0
  5
12CAC5
331
0
  5
12CAC6
331
0
  5
12CAC7
331
0
  5
12CAC8
331
0
  5
12CAC9
331
0
  5
12CACA
331
0
  5
12CACB
331
0
  5
12CACC
331
0
  5
12CACD
331
0
  5
12CACE
331
0
  5
12CACF
331
0
  5
12CAD0
331
0
  5
12CAD1
331
0
  5
12CAD2
331
0
  5
12CAD3
331
0
  5
12CAD4
331
0
  5
12CAD5
331
0
  5
12CAD6
331
0
  5
12CAD7
331
0
  5
12CAD8
331
0
  5
12CAD9
331
0
  5
12CADA
331
0
  5
12CADB
331
0
  5
12CADC
331
0
  5
12CADD
331
0
  5
12CADE
331
0
  5
12CADF
331
0
  5
12CAE0
331
0
  5
12CAE1
331
0
  5
12CAE2
331
0
  5
12CAE3
331
0
  5
12CAE4
331
0
  5
12CAE5
331
0
  5
12CAE6
331
0
  5
12CAE7
331
0
  5
12CAE8
331
0
  5
12CAE9
331
0
  5
12CAEA
331
0
  5
12CAEB
331
0
  5
12CAEC
331
0
  5
12CAED
331
0
  5
12CAEE
331
0
  5
12CAEF
331
0
  5
12CAF0
331
0
  5
12CAF1
331
0
  5
12CAF2
331
0
  5
12CAF3
331
0
  5
12CAF4
331
0
  5
12CAF5
331
0
  5
12CAF6
331
0
  5
12CAF7
331
0
  5
12CAF8
331
0
  5
12CAF9
331
0
  5
12CAFA
331
0
  5
12CAFB
331
0
  5
12CAFC
331
0
  5
12CAFD
331
0
  5
12CAFE
331
0
  5
12CAFF
331
0
  5
12CB00
331
0
  5
12CB01
331
0
  5
12CB02
331
0
  5
12CB03
331
0
  5
12CB04
331
0
  5
12CB05
331
0
  5
12CB06
331
0
  5
12CB07
331
0
  5
12CB08
331
0
  5
12CB09
331
0
  5
12CB0A
331
0
  5
12CB0B
331
0
  5
12CB0C
331
0
  5
12CB0D
331
0
  5
12CB0E
331
0
  5
12CB0F
331
0
  5
12CB10
331
0
  5
12CB11
331
0
  5
12CB12
331
0
  5
12CB13
331
0
  5
12CB14
331
0
  5
12CB15
331
0
  5
12CB16
331
0
  5
12CB17
331
0
  5
12CB18
331
0
  5
12CB19
331
0
  5
12CB1A
331
0
  5
12CB1B
331
0
  5
12CB1C
331
0
  5
12CB1D
331
0
  5
12CB1E
331
0
  5
12CB1F
331
0
  5
12CB20
331
0
  5
12CB21
331
0
  5
12CB22
331
0
  5
12CB23
331
0
  5
12CB24
331
0
  5
12CB25
331
0
  5
12CB26
331
0
  5
12CB27
331
0
  5
12CB28
331
0
  5
12CB29
331
0
  5
12CB2A
331
0
  5
12CB2B
331
0
  5
12CB2C
331
0
  5
12CB2D
331
0
  5
12CB2E
331
0
  5
12CB2F
331
0
  5
12CB30
331
0
  5
12CB31
331
0
  5
12CB32
331
0
  5
12CB33
331
0
  5
12CB34
331
0
  5
12CB35
331
0
  5
12CB36
331
0
  5
12CB37
331
0
  5
12CB38
331
0
  5
12CB39
331
0
  5
12CB3A
331
0
  5
12CB3B
331
0
  5
12CB3C
331
0
  5
12CB3D
331
0
  5
12CB3E
331
0
  5
12CB3F
331
0
  5
12CB40
331
0
  5
12CB41
331
0
  5
12CB42
331
0
  5
12CB43
331
0
  5
12CB44
331
0
  5
12CB45
331
0
  5
12CB46
331
0
  5
12CB47
331
0
  5
12CB48
331
0
  5
12CB49
331
0
  5
12CB4A
331
0
  5
12CB4B
331
0
  5
12CB4C
331
0
  5
12CB4D
331
0
  5
12CB4E
331
0
  5
12CB4F
331
0
  5
12CB50
331
0
  5
12CB51
331
0
  5
12CB52
331
0
  5
12CB53
331
0
  5
12CB54
331
0
  5
12CB55
331
0
  5
12CB56
331
0
  5
12CB57
331
0
  5
12CB58
331
0
  5
12CB59
331
0
  5
12CB5A
331
0
  5
12CB5B
331
0
  5
12CB5C
331
0
  5
12CB5D
331
0
  5
12CB5E
331
0
  5
12CB5F
331
0
  5
12CB60
331
0
  5
12CB61
331
0
  5
12CB62
331
0
  5
12CB63
331
0
  5
12CB64
331
0
  5
12CB65
331
0
  5
12CB66
331
0
  5
12CB67
331
0
  5
12CB68
331
0
  5
12CB69
331
0
  5
12CB6A
331
0
  5
12CB6B
331
0
  5
12CB6C
331
0
  5
12CB6D
331
0
  5
12CB6E
331
0
  5
12CB6F
331
0
  5
12CB70
331
0
  5
12CB71
331
0
  5
12CB72
331
0
  5
12CB73
331
0
  5
12CB74
331
0
  5
12CB75
331
0
  5
12CB76
331
0
  5
12CB77
331
0
  5
12CB78
331
0
  5
12CB79
331
0
  5
12CB7A
331
0
  5
12CB7B
331
0
  5
12CB7C
331
0
  5
12CB7D
331
0
  5
12CB7E
331
0
  5
12CB7F
331
0
  5
12CB80
331
0
  5
12CB81
331
0
  5
12CB82
331
0
  5
12CB83
331
0
  5
12CB84
331
0
  5
12CB85
331
0
  5
12CB86
331
0
  5
12CB87
331
0
  5
12CB88
331
0
  5
12CB89
331
0
  5
12CB8A
331
0
  5
12CB8B
331
0
  5
12CB8C
331
0
  5
12CB8D
331
0
  5
12CB8E
331
0
  5
12CB8F
331
0
  5
12CB90
331
0
  5
12CB91
331
0
  5
12CB92
331
0
  5
12CB93
331
0
  5
12CB94
331
0
  5
12CB95
331
0
  5
12CB96
331
0
  5
12CB97
331
0
  5
12CB98
331
0
  5
12CB99
331
0
  5
12CB9A
331
0
  5
12CB9B
331
0
  5
12CB9C
331
0
  5
12CB9D
331
0
  5
12CB9E
331
0
  5
12CB9F
331
0
  5
12CBA0
331
0
  5
12CBA1
331
0
  5
12CBA2
331
0
  5
12CBA3
331
0
  5
12CBA4
331
0
  5
12CBA5
331
0
  5
12CBA6
331
0
  5
12CBA7
331
0
  5
12CBA8
331
0
  5
12CBA9
331
0
  5
12CBAA
331
0
  5
12CBAB
331
0
  5
12CBAC
331
0
  5
12CBAD
331
0
  5
12CBAE
331
0
  5
12CBAF
331
0
  5
12CBB0
331
0
  5
12CBB1
331
0
  5
12CBB2
331
0
  5
12CBB3
331
0
  5
12CBB4
331
0
  5
12CBB5
331
0
  5
12CBB6
331
0
  5
12CBB7
331
0
  5
12CBB8
331
0
  5
12CBB9
331
0
  5
12CBBA
331
0
  5
12CBBB
331
0
  5
12CBBC
331
0
  5
12CBBD
331
0
  5
12CBBE
331
0
  5
12CBBF
331
0
  5
12CBC0
331
0
  5
12CBC1
331
0
  5
12CBC2
331
0
  5
12CBC3
331
0
  5
12CBC4
331
0
  5
12CBC5
331
0
  5
12CBC6
331
0
  5
12CBC7
331
0
  5
12CBC8
331
0
  5
12CBC9
331
0
  5
12CBCA
331
0
  5
12CBCB
331
0
  5
12CBCC
331
0
  5
12CBCD
331
0
  5
12CBCE
331
0
  5
12CBCF
331
0
  5
12CBD0
331
0
  5
12CBD1
331
0
  5
12CBD2
331
0
  5
12CBD3
331
0
  5
12CBD4
331
0
  5
12CBD5
331
0
  5
12CBD6
331
0
  5
12CBD7
331
0
  5
12CBD8
331
0
  5
12CBD9
331
0
  5
12CBDA
331
0
  5
12CBDB
331
0
  5
12CBDC
331
0
  5
12CBDD
331
0
  5
12CBDE
331
0
  5
12CBDF
331
0
  5
12CBE0
331
0
  5
12CBE1
331
0
  5
12CBE2
331
0
  5
12CBE3
331
0
  5
12CBE4
331
0
  5
12CBE5
331
0
  5
12CBE6
331
0
  5
12CBE7
331
0
  5
12CBE8
331
0
  5
12CBE9
331
0
  5
12CBEA
331
0
  5
12CBEB
331
0
  5
12CBEC
331
0
  5
12CBED
331
0
  5
12CBEE
331
0
  5
12CBEF
331
0
  5
12CBF0
331
0
  5
12CBF1
331
0
  5
12CBF2
331
0
  5
12CBF3
331
0
  5
12CBF4
331
0
  5
12CBF5
331
0
  5
12CBF6
331
0
  5
12CBF7
331
0
  5
12CBF8
331
0
  5
12CBF9
331
0
  5
12CBFA
331
0
  5
12CBFB
331
0
  5
12CBFC
331
0
  5
12CBFD
331
0
  5
12CBFE
331
0
  5
12CBFF
331
0
  5
12CC00
331
0
  5
12CC01
331
0
  5
12CC02
331
0
  5
12CC03
331
0
  5
12CC04
331
0
  5
12CC05
331
0
  5
12CC06
331
0
  5
12CC07
331
0
  5
12CC08
331
0
  5
12CC09
331
0
  5
12CC0A
331
0
  5
12CC0B
331
0
  5
12CC0C
331
0
  5
12CC0D
331
0
  5
12CC0E
331
0
  5
12CC0F
331
0
  5
12CC10
331
0
  5
12CC11
331
0
  5
12CC12
331
0
  5
12CC13
331
0
  5
12CC14
331
0
  5
12CC15
331
0
  5
12CC16
331
0
  5
12CC17
331
0
  5
12CC18
331
0
  5
12CC19
331
0
  5
12CC1A
331
0
  5
12CC1B
331
0
  5
12CC1C
331
0
  5
12CC1D
331
0
  5
12CC1E
331
0
  5
12CC1F
331
0
  5
12CC20
331
0
  5
12CC21
331
0
  5
12CC22
331
0
  5
12CC23
331
0
  5
12CC24
331
0
  5
12CC25
331
0
  5
12CC26
331
0
  5
12CC27
331
0
  5
12CC28
331
0
  5
12CC29
331
0
  5
12CC2A
331
0
  5
12CC2B
331
0
  5
12CC2C
331
0
  5
12CC2D
331
0
  5
12CC2E
331
0
  5
12CC2F
331
0
  5
12CC30
331
0
  5
12CC31
331
0
  5
12CC32
331
0
  5
12CC33
331
0
  5
12CC34
331
0
  5
12CC35
331
0
  5
12CC36
331
0
  5
12CC37
331
0
  5
12CC38
331
0
  5
12CC39
331
0
  5
12CC3A
331
0
  5
12CC3B
331
0
  5
12CC3C
331
0
  5
12CC3D
331
0
  5
12CC3E
331
0
  5
12CC3F
331
0
  5
12CC40
331
0
  5
12CC41
331
0
  5
12CC42
331
0
  5
12CC43
331
0
  5
12CC44
331
0
  5
12CC45
331
0
  5
12CC46
331
0
  5
12CC47
331
0
  5
12CC48
331
0
  5
12CC49
331
0
  5
12CC4A
331
0
  5
12CC4B
331
0
  5
12CC4C
331
0
  5
12CC4D
331
0
  5
12CC4E
331
0
  5
12CC4F
331
0
  5
12CC50
331
0
  5
12CC51
331
0
  5
12CC52
331
0
  5
12CC53
331
0
  5
12CC54
331
0
  5
12CC55
331
0
  5
12CC56
331
0
  5
12CC57
331
0
  5
12CC58
331
0
  5
12CC59
331
0
  5
12CC5A
331
0
  5
12CC5B
331
0
  5
12CC5C
331
0
  5
12CC5D
331
0
  5
12CC5E
331
0
  5
12CC5F
331
0
  5
12CC60
331
0
  5
12CC61
331
0
  5
12CC62
331
0
  5
12CC63
331
0
  5
12CC64
331
0
  5
12CC65
331
0
  5
12CC66
331
0
  5
12CC67
331
0
  5
12CC68
331
0
  5
12CC69
331
0
  5
12CC6A
331
0
  5
12CC6B
331
0
  5
12CC6C
331
0
  5
12CC6D
331
0
  5
12CC6E
331
0
  5
12CC6F
331
0
  5
12CC70
331
0
  5
12CC71
331
0
  5
12CC72
331
0
  5
12CC73
331
0
  5
12CC74
331
0
  5
12CC75
331
0
  5
12CC76
331
0
  5
12CC77
331
0
  5
12CC78
331
0
  5
12CC79
331
0
  5
12CC7A
331
0
  5
12CC7B
331
0
  5
12CC7C
331
0
  5
12CC7D
331
0
  5
12CC7E
331
0
  5
12CC7F
331
0
  5
12CC80
331
0
  5
12CC81
331
0
  5
12CC82
331
0
  5
12CC83
331
0
  5
12CC84
331
0
  5
12CC85
331
0
  5
12CC86
331
0
  5
12CC87
331
0
  5
12CC88
331
0
  5
12CC89
331
0
  5
12CC8A
331
0
  5
12CC8B
331
0
  5
12CC8C
331
0
  5
12CC8D
331
0
  5
12CC8E
331
0
  5
12CC8F
331
0
  5
12CC90
331
0
  5
12CC91
331
0
  5
12CC92
331
0
  5
12CC93
331
0
  5
12CC94
331
0
  5
12CC95
331
0
  5
12CC96
331
0
  5
12CC97
331
0
  5
12CC98
331
0
  5
12CC99
331
0
  5
12CC9A
331
0
  5
12CC9B
331
0
  5
12CC9C
331
0
  5
12CC9D
331
0
  5
12CC9E
331
0
  5
12CC9F
331
0
  5
12CCA0
331
0
  5
12CCA1
331
0
  5
12CCA2
331
0
  5
12CCA3
331
0
  5
12CCA4
331
0
  5
12CCA5
331
0
  5
12CCA6
331
0
  5
12CCA7
331
0
  5
12CCA8
331
0
  5
12CCA9
331
0
  5
12CCAA
331
0
  5
12CCAB
331
0
  5
12CCAC
331
0
  5
12CCAD
331
0
  5
12CCAE
331
0
  5
12CCAF
331
0
  5
12CCB0
331
0
  5
12CCB1
331
0
  5
12CCB2
331
0
  5
12CCB3
331
0
  5
12CCB4
331
0
  5
12CCB5
331
0
  5
12CCB6
331
0
  5
12CCB7
331
0
  5
12CCB8
331
0
  5
12CCB9
331
0
  5
12CCBA
331
0
  5
12CCBB
331
0
  5
12CCBC
331
0
  5
12CCBD
331
0
  5
12CCBE
331
0
  5
12CCBF
331
0
  5
12CCC0
331
0
  5
12CCC1
331
0
  5
12CCC2
331
0
  5
12CCC3
331
0
  5
12CCC4
331
0
  5
12CCC5
331
0
  5
12CCC6
331
0
  5
12CCC7
331
0
  5
12CCC8
331
0
  5
12CCC9
331
0
  5
12CCCA
331
0
  5
12CCCB
331
0
  5
12CCCC
331
0
  5
12CCCD
331
0
  5
12CCCE
331
0
  5
12CCCF
331
0
  5
12CCD0
331
0
  5
12CCD1
331
0
  5
12CCD2
331
0
  5
12CCD3
331
0
  5
12CCD4
331
0
  5
12CCD5
331
0
  5
12CCD6
331
0
  5
12CCD7
331
0
  5
12CCD8
331
0
  5
12CCD9
331
0
  5
12CCDA
331
0
  5
12CCDB
331
0
  5
12CCDC
331
0
  5
12CCDD
331
0
  5
12CCDE
331
0
  5
12CCDF
331
0
  5
12CCE0
331
0
  5
12CCE1
331
0
  5
12CCE2
331
0
  5
12CCE3
331
0
  5
12CCE4
331
0
  5
12CCE5
331
0
  5
12CCE6
331
0
  5
12CCE7
331
0
  5
12CCE8
331
0
  5
12CCE9
331
0
  5
12CCEA
331
0
  5
12CCEB
331
0
  5
12CCEC
331
0
  5
12CCED
331
0
  5
12CCEE
331
0
  5
12CCEF
331
0
  5
12CCF0
331
0
  5
12CCF1
331
0
  5
12CCF2
331
0
  5
12CCF3
331
0
  5
12CCF4
331
0
  5
12CCF5
331
0
  5
12CCF6
331
0
  5
12CCF7
331
0
  5
12CCF8
331
0
  5
12CCF9
331
0
  5
12CCFA
331
0
  5
12CCFB
331
0
  5
12CCFC
331
0
  5
12CCFD
331
0
  5
12CCFE
331
0
  5
12CCFF
331
0
  5
12CD00
331
0
  5
12CD01
331
0
  5
12CD02
331
0
  5
12CD03
331
0
  5
12CD04
331
0
  5
12CD05
331
0
  5
12CD06
331
0
  5
12CD07
331
0
  5
12CD08
331
0
  5
12CD09
331
0
  5
12CD0A
331
0
  5
12CD0B
331
0
  5
12CD0C
331
0
  5
12CD0D
331
0
  5
12CD0E
331
0
  5
12CD0F
331
0
  5
12CD10
331
0
  5
12CD11
331
0
  5
12CD12
331
0
  5
12CD13
331
0
  5
12CD14
331
0
  5
12CD15
331
0
  5
12CD16
331
0
  5
12CD17
331
0
  5
12CD18
331
0
  5
12CD19
331
0
  5
12CD1A
331
0
  5
12CD1B
331
0
  5
12CD1C
331
0
  5
12CD1D
331
0
  5
12CD1E
331
0
  5
12CD1F
331
0
  5
12CD20
331
0
  5
12CD21
331
0
  5
12CD22
331
0
  5
12CD23
331
0
  5
12CD24
331
0
  5
12CD25
331
0
  5
12CD26
331
0
  5
12CD27
331
0
  5
12CD28
331
0
  5
12CD29
331
0
  5
12CD2A
331
0
  5
12CD2B
331
0
  5
12CD2C
331
0
  5
12CD2D
331
0
  5
12CD2E
331
0
  5
12CD2F
331
0
  5
12CD30
331
0
  5
12CD31
331
0
  5
12CD32
331
0
  5
12CD33
331
0
  5
12CD34
331
0
  5
12CD35
331
0
  5
12CD36
331
0
  5
12CD37
331
0
  5
12CD38
331
0
  5
12CD39
331
0
  5
12CD3A
331
0
  5
12CD3B
331
0
  5
12CD3C
331
0
  5
12CD3D
331
0
  5
12CD3E
331
0
  5
12CD3F
331
0
  5
12CD40
331
0
  5
12CD41
331
0
  5
12CD42
331
0
  5
12CD43
331
0
  5
12CD44
331
0
  5
12CD45
331
0
  5
12CD46
331
0
  5
12CD47
331
0
  5
12CD48
331
0
  5
12CD49
331
0
  5
12CD4A
331
0
  5
12CD4B
331
0
  5
12CD4C
331
0
  5
12CD4D
331
0
  5
12CD4E
331
0
  5
12CD4F
331
0
  5
12CD50
331
0
  5
12CD51
331
0
  5
12CD52
331
0
  5
12CD53
331
0
  5
12CD54
331
0
  5
12CD55
331
0
  5
12CD56
331
0
  5
12CD57
331
0
  5
12CD58
331
0
  5
12CD59
331
0
  5
12CD5A
331
0
  5
12CD5B
331
0
  5
12CD5C
331
0
  5
12CD5D
331
0
  5
12CD5E
331
0
  5
12CD5F
331
0
  5
12CD60
331
0
  5
12CD61
331
0
  5
12CD62
331
0
  5
12CD63
331
0
  5
12CD64
331
0
  5
12CD65
331
0
  5
12CD66
331
0
  5
12CD67
331
0
  5
12CD68
331
0
  5
12CD69
331
0
  5
12CD6A
331
0
  5
12CD6B
331
0
  5
12CD6C
331
0
  5
12CD6D
331
0
  5
12CD6E
331
0
  5
12CD6F
331
0
  5
12CD70
331
0
  5
12CD71
331
0
  5
12CD72
331
0
  5
12CD73
331
0
  5
12CD74
331
0
  5
12CD75
331
0
  5
12CD76
331
0
  5
12CD77
331
0
  5
12CD78
331
0
  5
12CD79
331
0
  5
12CD7A
331
0
  5
12CD7B
331
0
  5
12CD7C
331
0
  5
12CD7D
331
0
  5
12CD7E
331
0
  5
12CD7F
331
0
  5
12CD80
331
0
  5
12CD81
331
0
  5
12CD82
331
0
  5
12CD83
331
0
  5
12CD84
331
0
  5
12CD85
331
0
  5
12CD86
331
0
  5
12CD87
331
0
  5
12CD88
331
0
  5
12CD89
331
0
  5
12CD8A
331
0
  5
12CD8B
331
0
  5
12CD8C
331
0
  5
12CD8D
331
0
  5
12CD8E
331
0
  5
12CD8F
331
0
  5
12CD90
331
0
  5
12CD91
331
0
  5
12CD92
331
0
  5
12CD93
331
0
  5
12CD94
331
0
  5
12CD95
331
0
  5
12CD96
331
0
  5
12CD97
331
0
  5
12CD98
331
0
  5
12CD99
331
0
  5
12CD9A
331
0
  5
12CD9B
331
0
  5
12CD9C
331
0
  5
12CD9D
331
0
  5
12CD9E
331
0
  5
12CD9F
331
0
  5
12CDA0
331
0
  5
12CDA1
331
0
  5
12CDA2
331
0
  5
12CDA3
331
0
  5
12CDA4
331
0
  5
12CDA5
331
0
  5
12CDA6
331
0
  5
12CDA7
331
0
  5
12CDA8
331
0
  5
12CDA9
331
0
  5
12CDAA
331
0
  5
12CDAB
331
0
  5
12CDAC
331
0
  5
12CDAD
331
0
  5
12CDAE
331
0
  5
12CDAF
331
0
  5
12CDB0
331
0
  5
12CDB1
331
0
  5
12CDB2
331
0
  5
12CDB3
331
0
  5
12CDB4
331
0
  5
12CDB5
331
0
  5
12CDB6
331
0
  5
12CDB7
331
0
  5
12CDB8
331
0
  5
12CDB9
331
0
  5
12CDBA
331
0
  5
12CDBB
331
0
  5
12CDBC
331
0
  5
12CDBD
331
0
  5
12CDBE
331
0
  5
12CDBF
331
0
  5
12CDC0
331
0
  5
12CDC1
331
0
  5
12CDC2
331
0
  5
12CDC3
331
0
  5
12CDC4
331
0
  5
12CDC5
331
0
  5
12CDC6
331
0
  5
12CDC7
331
0
  5
12CDC8
331
0
  5
12CDC9
331
0
  5
12CDCA
331
0
  5
12CDCB
331
0
  5
12CDCC
331
0
  5
12CDCD
331
0
  5
12CDCE
331
0
  5
12CDCF
331
0
  5
12CDD0
331
0
  5
12CDD1
331
0
  5
12CDD2
331
0
  5
12CDD3
331
0
  5
12CDD4
331
0
  5
12CDD5
331
0
  5
12CDD6
331
0
  5
12CDD7
331
0
  5
12CDD8
331
0
  5
12CDD9
331
0
  5
12CDDA
331
0
  5
12CDDB
331
0
  5
12CDDC
331
0
  5
12CDDD
331
0
  5
12CDDE
331
0
  5
12CDDF
331
0
  5
12CDE0
331
0
  5
12CDE1
331
0
  5
12CDE2
331
0
  5
12CDE3
331
0
  5
12CDE4
331
0
  5
12CDE5
331
0
  5
12CDE6
331
0
  5
12CDE7
331
0
  5
12CDE8
331
0
  5
12CDE9
331
0
  5
12CDEA
331
0
  5
12CDEB
331
0
  5
12CDEC
331
0
  5
12CDED
331
0
  5
12CDEE
331
0
  5
12CDEF
331
0
  5
12CDF0
331
0
  5
12CDF1
331
0
  5
12CDF2
331
0
  5
12CDF3
331
0
  5
12CDF4
331
0
  5
12CDF5
331
0
  5
12CDF6
331
0
  5
12CDF7
331
0
  5
12CDF8
331
0
  5
12CDF9
331
0
  5
12CDFA
331
0
  5
12CDFB
331
0
  5
12CDFC
331
0
  5
12CDFD
331
0
  5
12CDFE
331
0
  5
12CDFF
331
0
  5
12CE00
331
0
  5
12CE01
331
0
  5
12CE02
331
0
  5
12CE03
331
0
  5
12CE04
331
0
  5
12CE05
331
0
  5
12CE06
331
0
  5
12CE07
331
0
  5
12CE08
331
0
  5
12CE09
331
0
  5
12CE0A
331
0
  5
12CE0B
331
0
  5
12CE0C
331
0
  5
12CE0D
331
0
  5
12CE0E
331
0
  5
12CE0F
331
0
  5
12CE10
331
0
  5
12CE11
331
0
  5
12CE12
331
0
  5
12CE13
331
0
  5
12CE14
331
0
  5
12CE15
331
0
  5
12CE16
331
0
  5
12CE17
331
0
  5
12CE18
331
0
  5
12CE19
331
0
  5
12CE1A
331
0
  5
12CE1B
331
0
  5
12CE1C
331
0
  5
12CE1D
331
0
  5
12CE1E
331
0
  5
12CE1F
331
0
  5
12CE20
331
0
  5
12CE21
331
0
  5
12CE22
331
0
  5
12CE23
331
0
  5
12CE24
331
0
  5
12CE25
331
0
  5
12CE26
331
0
  5
12CE27
331
0
  5
12CE28
331
0
  5
12CE29
331
0
  5
12CE2A
331
0
  5
12CE2B
331
0
  5
12CE2C
331
0
  5
12CE2D
331
0
  5
12CE2E
331
0
  5
12CE2F
331
0
  5
12CE30
331
0
  5
12CE31
331
0
  5
12CE32
331
0
  5
12CE33
331
0
  5
12CE34
331
0
  5
12CE35
331
0
  5
12CE36
331
0
  5
12CE37
331
0
  5
12CE38
331
0
  5
12CE39
331
0
  5
12CE3A
331
0
  5
12CE3B
331
0
  5
12CE3C
331
0
  5
12CE3D
331
0
  5
12CE3E
331
0
  5
12CE3F
331
0
  5
12CE40
331
0
  5
12CE41
331
0
  5
12CE42
331
0
  5
12CE43
331
0
  5
12CE44
331
0
  5
12CE45
331
0
  5
12CE46
331
0
  5
12CE47
331
0
  5
12CE48
331
0
  5
12CE49
331
0
  5
12CE4A
331
0
  5
12CE4B
331
0
  5
12CE4C
331
0
  5
12CE4D
331
0
  5
12CE4E
331
0
  5
12CE4F
331
0
  5
12CE50
331
0
  5
12CE51
331
0
  5
12CE52
331
0
  5
12CE53
331
0
  5
12CE54
331
0
  5
12CE55
331
0
  5
12CE56
331
0
  5
12CE57
331
0
  5
12CE58
331
0
  5
12CE59
331
0
  5
12CE5A
331
0
  5
12CE5B
331
0
  5
12CE5C
331
0
  5
12CE5D
331
0
  5
12CE5E
331
0
  5
12CE5F
331
0
  5
12CE60
331
0
  5
12CE61
331
0
  5
12CE62
331
0
  5
12CE63
331
0
  5
12CE64
331
0
  5
12CE65
331
0
  5
12CE66
331
0
  5
12CE67
331
0
  5
12CE68
331
0
  5
12CE69
331
0
  5
12CE6A
331
0
  5
12CE6B
331
0
  5
12CE6C
331
0
  5
12CE6D
331
0
  5
12CE6E
331
0
  5
12CE6F
331
0
  5
12CE70
331
0
  5
12CE71
331
0
  5
12CE72
331
0
  5
12CE73
331
0
  5
12CE74
331
0
  5
12CE75
331
0
  5
12CE76
331
0
  5
12CE77
331
0
  5
12CE78
331
0
  5
12CE79
331
0
  5
12CE7A
331
0
  5
12CE7B
331
0
  5
12CE7C
331
0
  5
12CE7D
331
0
  5
12CE7E
331
0
  5
12CE7F
331
0
  5
12CE80
331
0
  5
12CE81
331
0
  5
12CE82
331
0
  5
12CE83
331
0
  5
12CE84
331
0
  5
12CE85
331
0
  5
12CE86
331
0
  5
12CE87
331
0
  5
12CE88
331
0
  5
12CE89
331
0
  5
12CE8A
331
0
  5
12CE8B
331
0
  5
12CE8C
331
0
  5
12CE8D
331
0
  5
12CE8E
331
0
  5
12CE8F
331
0
  5
12CE90
331
0
  5
12CE91
331
0
  5
12CE92
331
0
  5
12CE93
331
0
  5
12CE94
331
0
  5
12CE95
331
0
  5
12CE96
331
0
  5
12CE97
331
0
  5
12CE98
331
0
  5
12CE99
331
0
  5
12CE9A
331
0
  5
12CE9B
331
0
  5
12CE9C
331
0
  5
12CE9D
331
0
  5
12CE9E
331
0
  5
12CE9F
331
0
  5
12CEA0
331
0
  5
12CEA1
331
0
  5
12CEA2
331
0
  5
12CEA3
331
0
  5
12CEA4
331
0
  5
12CEA5
331
0
  5
12CEA6
331
0
  5
12CEA7
331
0
  5
12CEA8
331
0
  5
12CEA9
331
0
  5
12CEAA
331
0
  5
12CEAB
331
0
  5
12CEAC
331
0
  5
12CEAD
331
0
  5
12CEAE
331
0
  5
12CEB2
331
0
  5
12CEB3
331
0
  5
12CEB4
331
0
  5
12CEB5
331
0
  5
12CEB7
331
0
  5
12CEB8
331
0
  5
12CEBB
331
0
  5
12D769
331
0
  5
12CEBC
331
0
  5
12D76A
331
0
  5
12D76B
331
0
  5
12D76C
331
0
  5
12D76D
331
0
  5
12D76E
331
0
  5
12D76F
331
0
  5
12D770
331
0
  5
12D771
331
0
  5
12D772
331
0
  5
12D773
331
0
  5
12D774
331
0
  5
12D775
331
0
  5
12D776
331
0
  5
12D777
331
0
  5
12D778
331
0
  5
12D779
331
0
  5
12D77A
331
0
  5
12D77B
331
0
  5
12D77C
331
0
  5
12D77D
331
0
  5
12D77E
331
0
  5
12D77F
331
0
  5
12D780
331
0
  5
12D781
331
0
  5
12D782
331
0
  5
12D783
331
0
  5
12D784
331
0
  5
12D785
331
0
  5
12D786
331
0
  5
12D787
331
0
  5
12D788
331
0
  5
12D789
331
0
  5
12D78A
331
0
  5
12D78B
331
0
  5
12D78C
331
0
  5
12D78D
331
0
  5
12D78E
331
0
  5
12D78F
331
0
  5
12D790
331
0
  5
12D791
331
0
  5
12D792
331
0
  5
12D793
331
0
  5
12D794
331
0
  5
12D795
331
0
  5
12D796
331
0
  5
12D797
331
0
  5
12D798
331
0
  5
12D799
331
0
  5
12D79B
331
0
  5
12D79C
331
0
  5
12D79D
331
0
  5
12D816
331
0
  5
12D817
331
0
  5
12D818
331
0
  5
12D819
331
0
  5
12D81A
331
0
  5
12D904
331
0
  5
12D905
331
0
  5
12D906
331
0
  5
12D907
331
0
  5
12D908
331
0
  5
12D909
331
0
  5
12D90A
331
0
  5
12D90B
331
0
  5
12D90C
331
0
  5
12D90D
331
0
  5
12D90E
331
0
  5
12D90F
331
0
  5
12D910
331
0
  5
12D911
331
0
  5
12D912
331
0
  5
12D913
331
0
  5
12D914
331
0
  5
12D915
331
0
  5
12D916
331
0
  5
12D917
331
0
  5
12D918
331
0
  5
12E985
331
0
  5
12E986
331
0
  5
12F9F3
331
0
  5
12F9F4
331
0
  5
12F9F5
331
0
  5
12F9F6
331
0
  5
12F9F7
331
0
  5
12F9F8
331
0
  5
12F9F9
331
0
  5
12F9FA
331
0
  5
12F9FB
331
0
  5
12F9FC
331
0
  5
12F9FD
331
0
  5
12F9FE
331
0
  5
12F9FF
331
0
  5
12FA00
331
0
  5
12FA01
331
0
  5
12FA02
331
0
  5
12FA03
331
0
  5
12FA04
331
0
  5
12FA05
331
0
  5
129754
331
0
  5
12972C
  0
LAYOUT
  5
619
102
{ACAD_REACTORS
330
617
102
}
330
617
100
AcDbPlotSettings
  1

  2
JUST PDF 2
  4
A4
  6

 40
3.174999952316284
 41
3.174999952316284
 42
3.175003051757812
 43
3.17498779296875
 44
209.8886566162109
 45
297.0530090332031
 46
14.27171755861507
 47
9.855173074625725
 48
1200.0
 49
0.0
140
1724.98565548472
141
812.978025416
142
1.0
143
3.0
 70
  3748
 72
     1
 73
     0
 74
     4
  7
spax form.ctb
 75
     0
147
2.049951397771953
148
-1200.0
149
0.0
100
AcDbLayout
  1
Model
 70
     1
 71
     0
 10
0.0
 20
0.0
 11
12.0
 21
9.0
 12
0.0
 22
0.0
 32
0.0
 14
147.8698649662529
 24
-230.4951803702289
 34
-0.0000000000000142
 15
1330.049150224307
 25
755.4643477349723
 35
0.0000000000000271
146
0.0
 13
0.0
 23
0.0
 33
0.0
 16
1.0
 26
0.0
 36
0.0
 17
0.0
 27
1.0
 37
0.0
 76
     0
330
18
331
A0C
1001
ACAD_PSEXT
1000
JUST PDF 2
1000
JUST PDF 2
1000
JUST PDF 2 Port:
1000

1070
     0
  0
LAYOUT
  5
61A
102
{ACAD_REACTORS
330
617
102
}
330
617
100
AcDbPlotSettings
  1

  2
Canon LASER SHOT LBP-750
  4

  6

 40
0.0
 41
0.0
 42
0.0
 43
0.0
 44
0.0
 45
0.0
 46
0.0
 47
0.0
 48
0.0
 49
0.0
140
0.0
141
0.0
142
1.0
143
1.0
 70
   688
 72
     0
 73
     0
 74
     5
  7
spax form.ctb
 75
    16
147
1.0
148
0.0
149
0.0
100
AcDbLayout
  1
ﾚｲｱｳﾄ1
 70
     0
 71
     1
 10
0.0
 20
0.0
 11
12.0
 21
9.0
 12
0.0
 22
0.0
 32
0.0
 14
1.000000000000000E+20
 24
1.000000000000000E+20
 34
1.000000000000000E+20
 15
-1.000000000000000E+20
 25
-1.000000000000000E+20
 35
-1.000000000000000E+20
146
0.0
 13
0.0
 23
0.0
 33
0.0
 16
1.0
 26
0.0
 36
0.0
 17
0.0
 27
1.0
 37
0.0
 76
     0
330
15
  0
MLINESTYLE
  5
1B
102
{ACAD_REACTORS
330
E
102
}
330
E
100
AcDbMlineStyle
  2
STANDARD
 70
     0
  3

 62
     0
 51
90.0
 52
90.0
 71
     2
 49
0.5
 62
   256
  6
BYLAYER
 49
-0.5
 62
   256
  6
BYLAYER
  0
ACDBPLACEHOLDER
  5
616
102
{ACAD_REACTORS
330
615
102
}
330
615
  0
SCALE
  5
A37
102
{ACAD_REACTORS
330
A36
102
}
330
A36
100
AcDbScale
 70
     0
300
1:1
140
1.0
141
1.0
290
     1
  0
SCALE
  5
A38
102
{ACAD_REACTORS
330
A36
102
}
330
A36
100
AcDbScale
 70
     0
300
1:2
140
1.0
141
2.0
290
     0
  0
SCALE
  5
A39
102
{ACAD_REACTORS
330
A36
102
}
330
A36
100
AcDbScale
 70
     0
300
1:4
140
1.0
141
4.0
290
     0
  0
SCALE
  5
A3A
102
{ACAD_REACTORS
330
A36
102
}
330
A36
100
AcDbScale
 70
     0
300
1:5
140
1.0
141
5.0
290
     0
  0
SCALE
  5
A3B
102
{ACAD_REACTORS
330
A36
102
}
330
A36
100
AcDbScale
 70
     0
300
1:8
140
1.0
141
8.0
290
     0
  0
SCALE
  5
A3C
102
{ACAD_REACTORS
330
A36
102
}
330
A36
100
AcDbScale
 70
     0
300
1:10
140
1.0
141
10.0
290
     0
  0
SCALE
  5
A3D
102
{ACAD_REACTORS
330
A36
102
}
330
A36
100
AcDbScale
 70
     0
300
1:16
140
1.0
141
16.0
290
     0
  0
SCALE
  5
A3E
102
{ACAD_REACTORS
330
A36
102
}
330
A36
100
AcDbScale
 70
     0
300
1:20
140
1.0
141
20.0
290
     0
  0
SCALE
  5
A3F
102
{ACAD_REACTORS
330
A36
102
}
330
A36
100
AcDbScale
 70
     0
300
1:30
140
1.0
141
30.0
290
     0
  0
SCALE
  5
A40
102
{ACAD_REACTORS
330
A36
102
}
330
A36
100
AcDbScale
 70
     0
300
1:40
140
1.0
141
40.0
290
     0
  0
SCALE
  5
A41
102
{ACAD_REACTORS
330
A36
102
}
330
A36
100
AcDbScale
 70
     0
300
1:50
140
1.0
141
50.0
290
     0
  0
SCALE
  5
A42
102
{ACAD_REACTORS
330
A36
102
}
330
A36
100
AcDbScale
 70
     0
300
1:100
140
1.0
141
100.0
290
     0
  0
SCALE
  5
A43
102
{ACAD_REACTORS
330
A36
102
}
330
A36
100
AcDbScale
 70
     0
300
2:1
140
2.0
141
1.0
290
     0
  0
SCALE
  5
A44
102
{ACAD_REACTORS
330
A36
102
}
330
A36
100
AcDbScale
 70
     0
300
4:1
140
4.0
141
1.0
290
     0
  0
SCALE
  5
A45
102
{ACAD_REACTORS
330
A36
102
}
330
A36
100
AcDbScale
 70
     0
300
8:1
140
8.0
141
1.0
290
     0
  0
SCALE
  5
A46
102
{ACAD_REACTORS
330
A36
102
}
330
A36
100
AcDbScale
 70
     0
300
10:1
140
10.0
141
1.0
290
     0
  0
SCALE
  5
A47
102
{ACAD_REACTORS
330
A36
102
}
330
A36
100
AcDbScale
 70
     0
300
100:1
140
100.0
141
1.0
290
     0
  0
SCALE
  5
A48
102
{ACAD_REACTORS
330
A36
102
}
330
A36
100
AcDbScale
 70
     0
300
1/128" = 1'-0"
140
0.0078125
141
12.0
290
     0
  0
SCALE
  5
A49
102
{ACAD_REACTORS
330
A36
102
}
330
A36
100
AcDbScale
 70
     0
300
1/64" = 1'-0"
140
0.015625
141
12.0
290
     0
  0
SCALE
  5
A4A
102
{ACAD_REACTORS
330
A36
102
}
330
A36
100
AcDbScale
 70
     0
300
1/32" = 1'-0"
140
0.03125
141
12.0
290
     0
  0
SCALE
  5
A4B
102
{ACAD_REACTORS
330
A36
102
}
330
A36
100
AcDbScale
 70
     0
300
1/16" = 1'-0"
140
0.0625
141
12.0
290
     0
  0
SCALE
  5
A4C
102
{ACAD_REACTORS
330
A36
102
}
330
A36
100
AcDbScale
 70
     0
300
3/32" = 1'-0"
140
0.09375
141
12.0
290
     0
  0
SCALE
  5
A4D
102
{ACAD_REACTORS
330
A36
102
}
330
A36
100
AcDbScale
 70
     0
300
1/8" = 1'-0"
140
0.125
141
12.0
290
     0
  0
SCALE
  5
A4E
102
{ACAD_REACTORS
330
A36
102
}
330
A36
100
AcDbScale
 70
     0
300
3/16" = 1'-0"
140
0.1875
141
12.0
290
     0
  0
SCALE
  5
A4F
102
{ACAD_REACTORS
330
A36
102
}
330
A36
100
AcDbScale
 70
     0
300
1/4" = 1'-0"
140
0.25
141
12.0
290
     0
  0
SCALE
  5
A50
102
{ACAD_REACTORS
330
A36
102
}
330
A36
100
AcDbScale
 70
     0
300
3/8" = 1'-0"
140
0.375
141
12.0
290
     0
  0
SCALE
  5
A51
102
{ACAD_REACTORS
330
A36
102
}
330
A36
100
AcDbScale
 70
     0
300
1/2" = 1'-0"
140
0.5
141
12.0
290
     0
  0
SCALE
  5
A52
102
{ACAD_REACTORS
330
A36
102
}
330
A36
100
AcDbScale
 70
     0
300
3/4" = 1'-0"
140
0.75
141
12.0
290
     0
  0
SCALE
  5
A53
102
{ACAD_REACTORS
330
A36
102
}
330
A36
100
AcDbScale
 70
     0
300
1" = 1'-0"
140
1.0
141
12.0
290
     0
  0
SCALE
  5
A54
102
{ACAD_REACTORS
330
A36
102
}
330
A36
100
AcDbScale
 70
     0
300
1-1/2" = 1'-0"
140
1.5
141
12.0
290
     0
  0
SCALE
  5
A55
102
{ACAD_REACTORS
330
A36
102
}
330
A36
100
AcDbScale
 70
     0
300
3" = 1'-0"
140
3.0
141
12.0
290
     0
  0
SCALE
  5
A56
102
{ACAD_REACTORS
330
A36
102
}
330
A36
100
AcDbScale
 70
     0
300
6" = 1'-0"
140
6.0
141
12.0
290
     0
  0
SCALE
  5
A57
102
{ACAD_REACTORS
330
A36
102
}
330
A36
100
AcDbScale
 70
     0
300
1'-0" = 1'-0"
140
12.0
141
12.0
290
     0
  0
DICTIONARYVAR
  5
6DF
102
{ACAD_REACTORS
330
6DE
102
}
330
6DE
100
DictionaryVariables
280
     0
  1
1
  0
DICTIONARYVAR
  5
A93
102
{ACAD_REACTORS
330
6DE
102
}
330
6DE
100
DictionaryVariables
280
     0
  1
0
  0
DICTIONARYVAR
  5
6E0
102
{ACAD_REACTORS
330
6DE
102
}
330
6DE
100
DictionaryVariables
280
     0
  1

  0
DICTIONARYVAR
  5
A92
102
{ACAD_REACTORS
330
6DE
102
}
330
6DE
100
DictionaryVariables
280
     0
  1
127
  0
ENDSEC
  0
EOF
