  0
SECTION
  2
HEADER
  9
$ACADVER
  1
AC1015
  9
$ACADMAINTVER
 70
     6
  9
$DWGCODEPAGE
  3
ANSI_932
  9
$INSBASE
 10
0.0
 20
0.0
 30
0.0
  9
$EXTMIN
 10
2171.293696641718
 20
-476.5801782537319
 30
0.0
  9
$EXTMAX
 10
2369.393696641718
 20
-287.7796267011702
 30
0.0
  9
$LIMMIN
 10
0.0
 20
0.0
  9
$LIMMAX
 10
420.0
 20
297.0
  9
$ORTHOMODE
 70
     1
  9
$REGENMODE
 70
     1
  9
$FILLMODE
 70
     1
  9
$QTEXTMODE
 70
     0
  9
$MIRRTEXT
 70
     1
  9
$LTSCALE
 40
5.0
  9
$ATTMODE
 70
     0
  9
$TEXTSIZE
 40
3.5
  9
$TRACEWID
 40
1.0
  9
$TEXTSTYLE
  7
STANDARD
  9
$CLAYER
  8
0
  9
$CELTYPE
  6
BYLAYER
  9
$CECOLOR
 62
   256
  9
$CELTSCALE
 40
1.0
  9
$DISPSILH
 70
     0
  9
$DIMSCALE
 40
1.0
  9
$DIMASZ
 40
2.5
  9
$DIMEXO
 40
1.5
  9
$DIMDLI
 40
0.38
  9
$DIMRND
 40
0.0
  9
$DIMDLE
 40
0.0
  9
$DIMEXE
 40
1.0
  9
$DIMTP
 40
0.0
  9
$DIMTM
 40
0.0
  9
$DIMTXT
 40
2.500000000000002
  9
$DIMCEN
 40
0.0
  9
$DIMTSZ
 40
0.0
  9
$DIMTOL
 70
     0
  9
$DIMLIM
 70
     0
  9
$DIMTIH
 70
     0
  9
$DIMTOH
 70
     0
  9
$DIMSE1
 70
     0
  9
$DIMSE2
 70
     0
  9
$DIMTAD
 70
     3
  9
$DIMZIN
 70
     8
  9
$DIMBLK
  1

  9
$DIMASO
 70
     1
  9
$DIMSHO
 70
     0
  9
$DIMPOST
  1

  9
$DIMAPOST
  1

  9
$DIMALT
 70
     0
  9
$DIMALTD
 70
     0
  9
$DIMALTF
 40
25.4
  9
$DIMLFAC
 40
1.0
  9
$DIMTOFL
 70
     1
  9
$DIMTVP
 40
0.0
  9
$DIMTIX
 70
     0
  9
$DIMSOXD
 70
     0
  9
$DIMSAH
 70
     1
  9
$DIMBLK1
  1
OPEN
  9
$DIMBLK2
  1
OPEN
  9
$DIMSTYLE
  2
STANDARD
  9
$DIMCLRD
 70
     8
  9
$DIMCLRE
 70
     8
  9
$DIMCLRT
 70
   256
  9
$DIMTFAC
 40
1.0
  9
$DIMGAP
 40
1.0
  9
$DIMJUST
 70
     0
  9
$DIMSD1
 70
     0
  9
$DIMSD2
 70
     0
  9
$DIMTOLJ
 70
     1
  9
$DIMTZIN
 70
     0
  9
$DIMALTZ
 70
     0
  9
$DIMALTTZ
 70
     0
  9
$DIMUPT
 70
     0
  9
$DIMDEC
 70
     2
  9
$DIMTDEC
 70
     2
  9
$DIMALTU
 70
     2
  9
$DIMALTTD
 70
     0
  9
$DIMTXSTY
  7
STANDARD
  9
$DIMAUNIT
 70
     0
  9
$DIMADEC
 70
     2
  9
$DIMALTRND
 40
0.0
  9
$DIMAZIN
 70
     2
  9
$DIMDSEP
 70
    46
  9
$DIMATFIT
 70
     1
  9
$DIMFRAC
 70
     0
  9
$DIMLDRBLK
  1
OPEN
  9
$DIMLUNIT
 70
     2
  9
$DIMLWD
 70
    -2
  9
$DIMLWE
 70
    -2
  9
$DIMTMOVE
 70
     0
  9
$LUNITS
 70
     2
  9
$LUPREC
 70
     2
  9
$SKETCHINC
 40
0.1
  9
$FILLETRAD
 40
0.0
  9
$AUNITS
 70
     0
  9
$AUPREC
 70
     1
  9
$MENU
  1
FM
  9
$ELEVATION
 40
0.0
  9
$PELEVATION
 40
0.0
  9
$THICKNESS
 40
0.0
  9
$LIMCHECK
 70
     0
  9
$CHAMFERA
 40
0.0
  9
$CHAMFERB
 40
0.0
  9
$CHAMFERC
 40
0.0
  9
$CHAMFERD
 40
0.0
  9
$SKPOLY
 70
     0
  9
$TDCREATE
 40
2457592.712316771
  9
$TDUCREATE
 40
2457592.337316771
  9
$TDUPDATE
 40
2457963.684560382
  9
$TDUUPDATE
 40
2457963.309560382
  9
$TDINDWG
 40
0.0484703125
  9
$TDUSRTIMER
 40
2457963.307908634
  9
$USRTIMER
 70
     1
  9
$ANGBASE
 50
0.0
  9
$ANGDIR
 70
     0
  9
$PDMODE
 70
     3
  9
$PDSIZE
 40
0.0
  9
$PLINEWID
 40
0.0
  9
$SPLFRAME
 70
     0
  9
$SPLINETYPE
 70
     6
  9
$SPLINESEGS
 70
     8
  9
$HANDSEED
  5
1FD6
  9
$SURFTAB1
 70
     6
  9
$SURFTAB2
 70
     6
  9
$SURFTYPE
 70
     6
  9
$SURFU
 70
     6
  9
$SURFV
 70
     6
  9
$UCSBASE
  2

  9
$UCSNAME
  2

  9
$UCSORG
 10
0.0
 20
0.0
 30
0.0
  9
$UCSXDIR
 10
1.0
 20
0.0
 30
0.0
  9
$UCSYDIR
 10
0.0
 20
1.0
 30
0.0
  9
$UCSORTHOREF
  2

  9
$UCSORTHOVIEW
 70
     0
  9
$UCSORGTOP
 10
0.0
 20
0.0
 30
0.0
  9
$UCSORGBOTTOM
 10
0.0
 20
0.0
 30
0.0
  9
$UCSORGLEFT
 10
0.0
 20
0.0
 30
0.0
  9
$UCSORGRIGHT
 10
0.0
 20
0.0
 30
0.0
  9
$UCSORGFRONT
 10
0.0
 20
0.0
 30
0.0
  9
$UCSORGBACK
 10
0.0
 20
0.0
 30
0.0
  9
$PUCSBASE
  2

  9
$PUCSNAME
  2

  9
$PUCSORG
 10
0.0
 20
0.0
 30
0.0
  9
$PUCSXDIR
 10
1.0
 20
0.0
 30
0.0
  9
$PUCSYDIR
 10
0.0
 20
1.0
 30
0.0
  9
$PUCSORTHOREF
  2

  9
$PUCSORTHOVIEW
 70
     0
  9
$PUCSORGTOP
 10
0.0
 20
0.0
 30
0.0
  9
$PUCSORGBOTTOM
 10
0.0
 20
0.0
 30
0.0
  9
$PUCSORGLEFT
 10
0.0
 20
0.0
 30
0.0
  9
$PUCSORGRIGHT
 10
0.0
 20
0.0
 30
0.0
  9
$PUCSORGFRONT
 10
0.0
 20
0.0
 30
0.0
  9
$PUCSORGBACK
 10
0.0
 20
0.0
 30
0.0
  9
$USERI1
 70
     0
  9
$USERI2
 70
     0
  9
$USERI3
 70
     0
  9
$USERI4
 70
     0
  9
$USERI5
 70
     0
  9
$USERR1
 40
0.0
  9
$USERR2
 40
0.0
  9
$USERR3
 40
0.0
  9
$USERR4
 40
0.0
  9
$USERR5
 40
0.0
  9
$WORLDVIEW
 70
     0
  9
$SHADEDGE
 70
     3
  9
$SHADEDIF
 70
    70
  9
$TILEMODE
 70
     1
  9
$MAXACTVP
 70
    16
  9
$PINSBASE
 10
0.0
 20
0.0
 30
0.0
  9
$PLIMCHECK
 70
     0
  9
$PEXTMIN
 10
1.000000000000000E+20
 20
1.000000000000000E+20
 30
1.000000000000000E+20
  9
$PEXTMAX
 10
-1.000000000000000E+20
 20
-1.000000000000000E+20
 30
-1.000000000000000E+20
  9
$PLIMMIN
 10
0.0
 20
0.0
  9
$PLIMMAX
 10
0.0
 20
0.0
  9
$UNITMODE
 70
     0
  9
$VISRETAIN
 70
     0
  9
$PLINEGEN
 70
     0
  9
$PSLTSCALE
 70
     0
  9
$TREEDEPTH
 70
  3020
  9
$CMLSTYLE
  2
STANDARD
  9
$CMLJUST
 70
     0
  9
$CMLSCALE
 40
1.0
  9
$PROXYGRAPHICS
 70
     1
  9
$MEASUREMENT
 70
     0
  9
$CELWEIGHT
370
    -1
  9
$ENDCAPS
280
     0
  9
$JOINSTYLE
280
     0
  9
$LWDISPLAY
290
     0
  9
$INSUNITS
 70
     0
  9
$HYPERLINKBASE
  1

  9
$STYLESHEET
  1
spax form.ctb
  9
$XEDIT
290
     1
  9
$CEPSNTYPE
380
     0
  9
$PSTYLEMODE
290
     1
  9
$FINGERPRINTGUID
  2
{BF998BFB-9685-441B-ACE8-539FB5070592}
  9
$VERSIONGUID
  2
{93723936-6788-465A-A29D-D583F4CE1E2E}
  9
$EXTNAMES
290
     1
  9
$PSVPSCALE
 40
0.0
  9
$OLESTARTUP
290
     0
  0
ENDSEC
  0
SECTION
  2
CLASSES
  0
CLASS
  1
ACDBDICTIONARYWDFLT
  2
AcDbDictionaryWithDefault
  3
ObjectDBX Classes
 90
        0
280
     0
281
     0
  0
CLASS
  1
ACDBPLACEHOLDER
  2
AcDbPlaceHolder
  3
ObjectDBX Classes
 90
        0
280
     0
281
     0
  0
CLASS
  1
LAYOUT
  2
AcDbLayout
  3
ObjectDBX Classes
 90
        0
280
     0
281
     0
  0
CLASS
  1
DICTIONARYVAR
  2
AcDbDictionaryVar
  3
ObjectDBX Classes
 90
        0
280
     0
281
     0
  0
CLASS
  1
MATERIAL
  2
AcDbMaterial
  3
ObjectDBX Classes
 90
     1153
280
     0
281
     0
  0
CLASS
  1
VISUALSTYLE
  2
AcDbVisualStyle
  3
ObjectDBX Classes
 90
     4095
280
     0
281
     0
  0
CLASS
  1
TABLESTYLE
  2
AcDbTableStyle
  3
ObjectDBX Classes
 90
     4095
280
     0
281
     0
  0
CLASS
  1
SCALE
  2
AcDbScale
  3
ObjectDBX Classes
 90
     1153
280
     0
281
     0
  0
CLASS
  1
MLEADERSTYLE
  2
AcDbMLeaderStyle
  3
ACDB_MLEADERSTYLE_CLASS
 90
     4095
280
     0
281
     0
  0
CLASS
  1
MULTILEADER
  2
AcDbMLeader
  3
ACDB_MLEADER_CLASS
 90
     1025
280
     0
281
     1
  0
CLASS
  1
CELLSTYLEMAP
  2
AcDbCellStyleMap
  3
ObjectDBX Classes
 90
     1152
280
     0
281
     0
  0
CLASS
  1
SORTENTSTABLE
  2
AcDbSortentsTable
  3
ObjectDBX Classes
 90
        0
280
     0
281
     0
  0
CLASS
  1
ACAD_EVALUATION_GRAPH
  2
AcDbEvalGraph
  3
ObjectDBX Classes
 90
     1153
280
     0
281
     0
  0
CLASS
  1
ACAECUSTOBJ
  2
AcAeEditorObj
  3
AcAeEditorObj
 90
     1024
280
     1
281
     0
  0
CLASS
  1
ACDB_DYNAMICBLOCKPURGEPREVENTER_VERSION
  2
AcDbDynamicBlockPurgePreventer
  3
ObjectDBX Classes
 90
     1153
280
     0
281
     0
  0
CLASS
  1
SUN
  2
AcDbSun
  3
SCENEOE
 90
     1153
280
     0
281
     0
  0
CLASS
  1
RASTERVARIABLES
  2
AcDbRasterVariables
  3
ISM
 90
        0
280
     0
281
     0
  0
ENDSEC
  0
SECTION
  2
TABLES
  0
TABLE
  2
VPORT
  5
8
102
{ACAD_XDICTIONARY
360
B1B
102
}
330
0
100
AcDbSymbolTable
 70
     1
  0
VPORT
  5
AAC
330
8
100
AcDbSymbolTableRecord
100
AcDbViewportTableRecord
  2
*Active
 70
     0
 10
0.0
 20
0.0
 11
1.0
 21
1.0
 12
2293.296077444025
 22
-368.0986033922774
 13
0.0
 23
0.0
 14
1.0
 24
1.0
 15
20.0
 25
20.0
 16
0.0
 26
0.0
 36
1.0
 17
0.0
 27
0.0
 37
0.0
 40
371.2521045722556
 41
2.05036855036855
 42
50.0
 43
0.0
 44
0.0
 50
0.0
 51
0.0
 71
    16
 72
   100
 73
     1
 74
     0
 75
     0
 76
     0
 77
     0
 78
     0
281
     0
 65
     1
110
0.0
120
0.0
130
0.0
111
1.0
121
0.0
131
0.0
112
0.0
122
1.0
132
0.0
 79
     0
146
0.0
  0
ENDTAB
  0
TABLE
  2
LTYPE
  5
5
330
0
100
AcDbSymbolTable
 70
     1
  0
LTYPE
  5
12
330
5
100
AcDbSymbolTableRecord
100
AcDbLinetypeTableRecord
  2
BYBLOCK
 70
     0
  3

 72
    65
 73
     0
 40
0.0
  0
LTYPE
  5
13
330
5
100
AcDbSymbolTableRecord
100
AcDbLinetypeTableRecord
  2
BYLAYER
 70
     0
  3

 72
    65
 73
     0
 40
0.0
  0
LTYPE
  5
14
330
5
100
AcDbSymbolTableRecord
100
AcDbLinetypeTableRecord
  2
CONTINUOUS
 70
     0
  3
Solid line
 72
    65
 73
     0
 40
0.0
  0
ENDTAB
  0
TABLE
  2
LAYER
  5
2
102
{ACAD_XDICTIONARY
360
9EB
102
}
330
0
100
AcDbSymbolTable
 70
     4
  0
LAYER
  5
F
102
{ACAD_XDICTIONARY
360
B03
102
}
330
2
100
AcDbSymbolTableRecord
100
AcDbLayerTableRecord
  2
0
 70
     0
 62
     7
  6
CONTINUOUS
370
    -3
390
616
  0
LAYER
  5
36
330
2
100
AcDbSymbolTableRecord
100
AcDbLayerTableRecord
  2
DEFPOINTS
 70
     0
 62
     7
  6
CONTINUOUS
290
     0
370
    -3
390
616
  0
LAYER
  5
2F4
102
{ACAD_XDICTIONARY
360
B11
102
}
330
2
100
AcDbSymbolTableRecord
100
AcDbLayerTableRecord
  2
文字
 70
     0
 62
     7
  6
CONTINUOUS
370
    -3
390
616
  0
LAYER
  5
F51
102
{ACAD_XDICTIONARY
360
F52
102
}
330
2
100
AcDbSymbolTableRecord
100
AcDbLayerTableRecord
  2
姿図
 70
     0
 62
     8
  6
CONTINUOUS
370
    -3
390
616
  0
ENDTAB
  0
TABLE
  2
STYLE
  5
3
330
0
100
AcDbSymbolTable
 70
     1
  0
STYLE
  5
10
330
3
100
AcDbSymbolTableRecord
100
AcDbTextStyleTableRecord
  2
STANDARD
 70
     0
 40
0.0
 41
1.0
 50
0.0
 71
     0
 42
3.5
  3
MONOTXT
  4
BIGFONT
  0
ENDTAB
  0
TABLE
  2
VIEW
  5
6
330
0
100
AcDbSymbolTable
 70
     0
  0
ENDTAB
  0
TABLE
  2
UCS
  5
7
330
0
100
AcDbSymbolTable
 70
     0
  0
ENDTAB
  0
TABLE
  2
APPID
  5
9
330
0
100
AcDbSymbolTable
 70
    12
  0
APPID
  5
11
330
9
100
AcDbSymbolTableRecord
100
AcDbRegAppTableRecord
  2
ACAD
 70
     0
  0
APPID
  5
AFD
330
9
100
AcDbSymbolTableRecord
100
AcDbRegAppTableRecord
  2
ACAD_MLEADERVER
 70
     0
  0
APPID
  5
B3A
330
9
100
AcDbSymbolTableRecord
100
AcDbRegAppTableRecord
  2
ACAD_DSTYLE_DIMJAG
 70
     0
  0
APPID
  5
B3B
330
9
100
AcDbSymbolTableRecord
100
AcDbRegAppTableRecord
  2
ACAD_DSTYLE_DIMTALN
 70
     0
  0
APPID
  5
BE7
330
9
100
AcDbSymbolTableRecord
100
AcDbRegAppTableRecord
  2
AcAecLayerStandard
 70
     0
  0
APPID
  5
BE8
330
9
100
AcDbSymbolTableRecord
100
AcDbRegAppTableRecord
  2
ACAD_PSEXT
 70
     0
  0
APPID
  5
11AA
330
9
100
AcDbSymbolTableRecord
100
AcDbRegAppTableRecord
  2
ACAD_EXEMPT_FROM_CAD_STANDARDS
 70
     0
  0
APPID
  5
148D
330
9
100
AcDbSymbolTableRecord
100
AcDbRegAppTableRecord
  2
ACAD_DSTYLE_DIMRADIAL_EXTENSION
 70
     0
  0
APPID
  5
14ED
330
9
100
AcDbSymbolTableRecord
100
AcDbRegAppTableRecord
  2
AcDbDynamicBlockGUID
 70
     0
  0
APPID
  5
14EE
330
9
100
AcDbSymbolTableRecord
100
AcDbRegAppTableRecord
  2
AcDbBlockRepETag
 70
     0
  0
APPID
  5
1B7A
330
9
100
AcDbSymbolTableRecord
100
AcDbRegAppTableRecord
  2
ACAUTHENVIRON
 70
     0
  0
APPID
  5
1B7D
330
9
100
AcDbSymbolTableRecord
100
AcDbRegAppTableRecord
  2
AcDbDynamicBlockTrueName
 70
     0
  0
ENDTAB
  0
TABLE
  2
DIMSTYLE
  5
A
330
0
100
AcDbSymbolTable
 70
     1
100
AcDbDimStyleTable
  0
DIMSTYLE
105
1CC
330
A
100
AcDbSymbolTableRecord
100
AcDbDimStyleTableRecord
  2
STANDARD
 70
     0
 41
2.5
 42
1.5
 44
1.0
 73
     0
 74
     0
 77
     3
 78
     8
 79
     2
140
2.500000000000002
141
0.0
147
1.0
171
     0
172
     1
173
     1
176
     8
177
     8
271
     2
178
   256
179
     2
271
     2
272
     2
274
     0
289
     1
340
10
341
608
343
608
344
608
1001
ACAD_DSTYLE_DIMJAG
1070
   388
1040
1.5
1001
ACAD_DSTYLE_DIMTALN
1070
   392
1070
     0
  0
ENDTAB
  0
TABLE
  2
BLOCK_RECORD
  5
1
330
0
100
AcDbSymbolTable
 70
     1
  0
BLOCK_RECORD
  5
18
330
1
100
AcDbSymbolTableRecord
100
AcDbBlockTableRecord
  2
*MODEL_SPACE
340
619
  0
BLOCK_RECORD
  5
15
330
1
100
AcDbSymbolTableRecord
100
AcDbBlockTableRecord
  2
*PAPER_SPACE
340
61A
  0
BLOCK_RECORD
  5
608
330
1
100
AcDbSymbolTableRecord
100
AcDbBlockTableRecord
  2
_OPEN
340
0
  0
ENDTAB
  0
ENDSEC
  0
SECTION
  2
BLOCKS
  0
BLOCK
  5
39
330
18
100
AcDbEntity
  8
0
100
AcDbBlockBegin
  2
*MODEL_SPACE
 70
     0
 10
0.0
 20
0.0
 30
0.0
  3
*MODEL_SPACE
  1
*MODEL_SPACE
  0
ENDBLK
  5
3A
330
18
100
AcDbEntity
  8
0
100
AcDbBlockEnd
  0
BLOCK
  5
37
330
15
100
AcDbEntity
 67
     1
  8
0
100
AcDbBlockBegin
  2
*PAPER_SPACE
 70
     0
 10
0.0
 20
0.0
 30
0.0
  3
*PAPER_SPACE
  1
*PAPER_SPACE
  0
ENDBLK
  5
38
330
15
100
AcDbEntity
 67
     1
  8
0
100
AcDbBlockEnd
  0
BLOCK
  5
609
330
608
100
AcDbEntity
  8
0
100
AcDbBlockBegin
  2
_OPEN
 70
     0
 10
0.0
 20
0.0
 30
0.0
  3
_OPEN
  1
_OPEN
  0
LINE
  5
60A
330
608
100
AcDbEntity
  8
0
  6
ByBlock
 62
     0
100
AcDbLine
 10
-1.0
 20
0.1666666666666666
 30
0.0
 11
0.0
 21
0.0
 31
0.0
  0
LINE
  5
60B
330
608
100
AcDbEntity
  8
0
  6
ByBlock
 62
     0
100
AcDbLine
 10
0.0
 20
0.0
 30
0.0
 11
-1.0
 21
-0.1666666666666666
 31
0.0
  0
LINE
  5
60C
330
608
100
AcDbEntity
  8
0
  6
ByBlock
 62
     0
100
AcDbLine
 10
0.0
 20
0.0
 30
0.0
 11
-1.0
 21
0.0
 31
0.0
  0
ENDBLK
  5
60D
330
608
100
AcDbEntity
  8
0
100
AcDbBlockEnd
  0
ENDSEC
  0
SECTION
  2
ENTITIES
  0
ELLIPSE
  5
1ED2
330
18
100
AcDbEntity
  8
姿図
100
AcDbEllipse
 10
2343.369315276272
 20
-427.3175835306424
 30
0.0
 11
2.587404513888888
 21
0.0
 31
0.0
210
0.0
220
0.0
230
1.0
 40
0.6100340860673201
 41
0.0
 42
6.283185307179586
  0
ELLIPSE
  5
1ED3
330
18
100
AcDbEntity
  8
姿図
100
AcDbEllipse
 10
2214.674603904744
 20
-425.9290722459186
 30
0.0
 11
2.587680121527777
 21
0.0
 31
0.0
210
0.0
220
0.0
230
1.0
 40
0.6096495899456811
 41
0.0
 42
6.283185307179586
  0
LINE
  5
1ED4
330
18
100
AcDbEntity
  8
姿図
100
AcDbLine
 10
2314.335704165158
 20
-333.7158550150157
 30
0.0
 11
2313.073972394326
 21
-334.8520475063374
 31
0.0
  0
LINE
  5
1ED5
330
18
100
AcDbEntity
  8
姿図
100
AcDbLine
 10
2310.170170310994
 20
-336.9980663865458
 30
0.0
 11
2308.59259218599
 21
-338.0077549716148
 31
0.0
  0
LINE
  5
1ED6
330
18
100
AcDbEntity
  8
姿図
100
AcDbLine
 10
2302.97488168252
 20
-340.3431162997399
 30
0.0
 11
2305.121313974189
 21
-340.027683357031
 31
0.0
  0
LINE
  5
1ED7
330
18
100
AcDbEntity
  8
姿図
100
AcDbLine
 10
2296.726305293633
 20
-342.1734266296039
 30
0.0
 11
2298.746233679049
 21
-341.9212456400196
 31
0.0
  0
LINE
  5
1ED8
330
18
100
AcDbEntity
  8
姿図
100
AcDbLine
 10
2318.943863887384
 20
-304.7452202493946
 30
0.0
 11
2318.943863887384
 21
-305.5027278448792
 31
0.0
  0
SPLINE
  5
1ED9
330
18
100
AcDbEntity
  8
姿図
100
AcDbSpline
210
0.0
220
0.0
230
1.0
 70
     8
 71
     3
 72
    11
 73
     7
 74
     0
 42
0.000000001
 43
0.0000000001
 40
0.0
 40
0.0
 40
0.0
 40
0.0
 40
1.0
 40
1.0
 40
1.0
 40
2.0
 40
2.0
 40
2.0
 40
2.0
 10
2317.681305293631
 20
-302.7258430792531
 30
0.0
 10
2317.681305293631
 20
-302.7258430792531
 30
0.0
 10
2318.754521439464
 20
-304.4299251105035
 30
0.0
 10
2318.754521439464
 20
-304.4299251105035
 30
0.0
 10
2318.754521439464
 20
-304.4299251105035
 30
0.0
 10
2319.133206335297
 20
-305.0606531920998
 30
0.0
 10
2318.438675085298
 20
-304.6821061000878
 30
0.0
  0
LINE
  5
1EDA
330
18
100
AcDbEntity
  8
姿図
100
AcDbLine
 10
2319.764072220715
 20
-307.3329003709218
 30
0.0
 11
2319.890576126964
 21
-310.6151117424484
 31
0.0
  0
SPLINE
  5
1EDB
330
18
100
AcDbEntity
  8
姿図
100
AcDbSpline
210
0.0
220
0.0
230
1.0
 70
     8
 71
     3
 72
     8
 73
     4
 74
     0
 42
0.000000001
 43
0.0000000001
 40
0.0
 40
0.0
 40
0.0
 40
0.0
 40
1.0
 40
1.0
 40
1.0
 40
1.0
 10
2318.690856074878
 20
-306.4495778882806
 30
0.0
 10
2318.690856074878
 20
-306.4495778882806
 30
0.0
 10
2321.153134720713
 20
-309.2893011955744
 30
0.0
 10
2318.754521439464
 20
-305.2501334438343
 30
0.0
  0
SPLINE
  5
1EDC
330
18
100
AcDbEntity
  8
姿図
100
AcDbSpline
210
0.0
220
0.0
230
1.0
 70
     8
 71
     3
 72
    11
 73
     7
 74
     0
 42
0.000000001
 43
0.0000000001
 40
0.0
 40
0.0
 40
0.0
 40
0.0
 40
1.0
 40
1.0
 40
1.0
 40
2.0
 40
2.0
 40
2.0
 40
2.0
 10
2320.079918574881
 20
-311.0570485914063
 30
0.0
 10
2320.079918574881
 20
-311.0570485914063
 30
0.0
 10
2320.900126908215
 20
-327.0253417771705
 30
0.0
 10
2320.900126908215
 20
-327.0253417771705
 30
0.0
 10
2320.900126908215
 20
-327.0253417771705
 30
0.0
 10
2320.584556161688
 20
-328.0354437737001
 30
0.0
 10
2319.258883418632
 20
-327.4674164299463
 30
0.0
  0
SPLINE
  5
1EDD
330
18
100
AcDbEntity
  8
姿図
100
AcDbSpline
210
0.0
220
0.0
230
1.0
 70
     8
 71
     3
 72
    11
 73
     7
 74
     0
 42
0.000000001
 43
0.0000000001
 40
0.0
 40
0.0
 40
0.0
 40
0.0
 40
1.0
 40
1.0
 40
1.0
 40
2.0
 40
2.0
 40
2.0
 40
2.0
 10
2318.817359981131
 20
-308.4689550584221
 30
0.0
 10
2321.973343054048
 20
-313.8337955532111
 30
0.0
 10
2318.186494095717
 20
-309.542446811894
 30
0.0
 10
2318.186494095717
 20
-309.542446811894
 30
0.0
 10
2318.186494095717
 20
-309.542446811894
 30
0.0
 10
2318.312171179045
 20
-313.5186382181414
 30
0.0
 10
2318.312171179045
 20
-313.5186382181414
 30
0.0
  0
SPLINE
  5
1EDE
330
18
100
AcDbEntity
  8
姿図
100
AcDbSpline
210
0.0
220
0.0
230
1.0
 70
     8
 71
     3
 72
    11
 73
     7
 74
     0
 42
0.000000001
 43
0.0000000001
 40
0.0
 40
0.0
 40
0.0
 40
0.0
 40
1.0
 40
1.0
 40
1.0
 40
2.0
 40
2.0
 40
2.0
 40
2.0
 10
2318.565178991551
 20
-314.3388465514759
 30
0.0
 10
2318.565178991551
 20
-314.3388465514759
 30
0.0
 10
2319.385387324881
 20
-330.307553148697
 30
0.0
 10
2319.385387324881
 20
-330.307553148697
 30
0.0
 10
2319.385387324881
 20
-330.307553148697
 30
0.0
 10
2318.501513626966
 20
-332.1378634785574
 30
0.0
 10
2316.734593054047
 20
-331.1911512389774
 30
0.0
  0
SPLINE
  5
1EDF
330
18
100
AcDbEntity
  8
姿図
100
AcDbSpline
210
0.0
220
0.0
230
1.0
 70
     8
 71
     3
 72
    11
 73
     7
 74
     0
 42
0.000000001
 43
0.0000000001
 40
0.0
 40
0.0
 40
0.0
 40
0.0
 40
1.0
 40
1.0
 40
1.0
 40
2.0
 40
2.0
 40
2.0
 40
2.0
 10
2316.418746699882
 20
-321.976209832726
 30
0.0
 10
2316.418746699882
 20
-321.976209832726
 30
0.0
 10
2316.355908158214
 20
-312.3193315775202
 30
0.0
 10
2316.355908158214
 20
-312.3193315775202
 30
0.0
 10
2316.355908158214
 20
-312.3193315775202
 30
0.0
 10
2320.458603470714
 20
-317.4322666903677
 30
0.0
 10
2317.491962845714
 20
-311.8145561868946
 30
0.0
  0
SPLINE
  5
1EE0
330
18
100
AcDbEntity
  8
姿図
100
AcDbSpline
210
0.0
220
0.0
230
1.0
 70
     8
 71
     3
 72
    17
 73
    13
 74
     0
 42
0.000000001
 43
0.0000000001
 40
0.0
 40
0.0
 40
0.0
 40
0.0
 40
1.0
 40
1.0
 40
1.0
 40
2.0
 40
2.0
 40
2.0
 40
3.0
 40
3.0
 40
3.0
 40
4.0
 40
4.0
 40
4.0
 40
4.0
 10
2316.166565710297
 20
-316.989916429949
 30
0.0
 10
2316.166565710297
 20
-316.989916429949
 30
0.0
 10
2316.923935501964
 20
-333.4632606139744
 30
0.0
 10
2316.923935501964
 20
-333.4632606139744
 30
0.0
 10
2316.166565710297
 20
-334.7255436000883
 30
0.0
 10
2314.335704165158
 20
-333.7158550150157
 30
0.0
 10
2314.335704165158
 20
-333.7158550150157
 30
0.0
 10
2314.335704165158
 20
-333.7158550150157
 30
0.0
 10
2313.767676821408
 20
-315.8537239386273
 30
0.0
 10
2313.767676821408
 20
-315.8537239386273
 30
0.0
 10
2313.767676821408
 20
-315.8537239386273
 30
0.0
 10
2317.680478470713
 20
-319.8300531486962
 30
0.0
 10
2315.282692012381
 20
-315.2855587910594
 30
0.0
  0
SPLINE
  5
1EE1
330
18
100
AcDbEntity
  8
姿図
100
AcDbSpline
210
0.0
220
0.0
230
1.0
 70
     8
 71
     3
 72
     8
 73
     4
 74
     0
 42
0.000000001
 43
0.0000000001
 40
0.0
 40
0.0
 40
0.0
 40
0.0
 40
1.0
 40
1.0
 40
1.0
 40
1.0
 10
2309.47619027627
 20
-319.0098448153654
 30
0.0
 10
2309.47619027627
 20
-319.0098448153654
 30
0.0
 10
2313.389818748492
 20
-323.4276974629352
 30
0.0
 10
2311.937917706826
 20
-318.125833313628
 30
0.0
  0
SPLINE
  5
1EE2
330
18
100
AcDbEntity
  8
姿図
100
AcDbSpline
210
0.0
220
0.0
230
1.0
 70
     8
 71
     3
 72
    14
 73
    10
 74
     0
 42
0.000000001
 43
0.0000000001
 40
0.0
 40
0.0
 40
0.0
 40
0.0
 40
1.0
 40
1.0
 40
1.0
 40
2.0
 40
2.0
 40
2.0
 40
3.0
 40
3.0
 40
3.0
 40
3.0
 10
2309.539304425577
 20
-318.8833409091162
 30
0.0
 10
2309.539304425577
 20
-318.8833409091162
 30
0.0
 10
2310.170170310994
 20
-336.9980663865458
 30
0.0
 10
2310.170170310994
 20
-336.9980663865458
 30
0.0
 10
2310.170170310994
 20
-336.9980663865458
 30
0.0
 10
2312.883803123492
 20
-337.5028417771714
 30
0.0
 10
2313.199649477658
 20
-336.3667870896711
 30
0.0
 10
2313.199649477658
 20
-336.3667870896711
 30
0.0
 10
2312.31660260266
 20
-320.3352419507787
 30
0.0
 10
2312.31660260266
 20
-320.3352419507787
 30
0.0
  0
SPLINE
  5
1EE3
330
18
100
AcDbEntity
  8
姿図
100
AcDbSpline
210
0.0
220
0.0
230
1.0
 70
    11
 71
     3
 72
    17
 73
    13
 74
     0
 42
0.000000001
 43
0.0000000001
 40
0.0
 40
0.0
 40
0.0
 40
0.0
 40
1.0
 40
1.0
 40
1.0
 40
2.0
 40
2.0
 40
2.0
 40
3.0
 40
3.0
 40
3.0
 40
4.0
 40
4.0
 40
4.0
 40
4.0
 10
2304.552459807521
 20
-321.2820919941837
 30
0.0
 10
2304.552459807521
 20
-321.2820919941837
 30
0.0
 10
2304.994810067936
 20
-339.9011794507819
 30
0.0
 10
2304.994810067936
 20
-339.9011794507819
 30
0.0
 10
2304.994810067936
 20
-339.9011794507819
 30
0.0
 10
2308.339584373491
 20
-341.3530804924481
 30
0.0
 10
2308.655430727661
 20
-339.4596560132809
 30
0.0
 10
2308.655430727661
 20
-339.4596560132809
 30
0.0
 10
2307.456261890854
 20
-320.0826475497374
 30
0.0
 10
2307.456261890854
 20
-320.0826475497374
 30
0.0
 10
2307.456261890854
 20
-320.0826475497374
 30
0.0
 10
2307.897234113076
 20
-326.5839561434909
 30
0.0
 10
2304.552459807521
 20
-321.2820919941837
 30
0.0
  0
SPLINE
  5
1EE4
330
18
100
AcDbEntity
  8
姿図
100
AcDbSpline
210
0.0
220
0.0
230
1.0
 70
    11
 71
     3
 72
    17
 73
    13
 74
     0
 42
0.000000001
 43
0.0000000001
 40
0.0
 40
0.0
 40
0.0
 40
0.0
 40
1.0
 40
1.0
 40
1.0
 40
2.0
 40
2.0
 40
2.0
 40
3.0
 40
3.0
 40
3.0
 40
4.0
 40
4.0
 40
4.0
 40
4.0
 10
2298.430387324879
 20
-323.1122645202263
 30
0.0
 10
2298.430387324879
 20
-323.1122645202263
 30
0.0
 10
2298.746233679049
 20
-341.9212456400196
 30
0.0
 10
2298.746233679049
 20
-341.9212456400196
 30
0.0
 10
2298.746233679049
 20
-341.9212456400196
 30
0.0
 10
2302.911216317939
 20
-343.5624891296025
 30
0.0
 10
2303.037720224188
 20
-341.1637380445313
 30
0.0
 10
2303.037720224188
 20
-341.1637380445313
 30
0.0
 10
2301.965330901273
 20
-322.6076269334221
 30
0.0
 10
2301.965330901273
 20
-322.6076269334221
 30
0.0
 10
2301.965330901273
 20
-322.6076269334221
 30
0.0
 10
2301.965330901273
 20
-329.4242306660594
 30
0.0
 10
2298.430387324879
 20
-323.1122645202263
 30
0.0
  0
LINE
  5
1EE5
330
18
100
AcDbEntity
  8
姿図
100
AcDbLine
 10
2282.272613887381
 20
-344.1933550150202
 30
0.0
 11
2284.670675953356
 21
-344.130103061892
 31
0.0
  0
LINE
  5
1EE6
330
18
100
AcDbEntity
  8
姿図
100
AcDbLine
 10
2275.89780919988
 20
-344.3194455098087
 30
0.0
 11
2277.980576126964
 21
-344.4456738084186
 31
0.0
  0
LINE
  5
1EE7
330
18
100
AcDbEntity
  8
姿図
100
AcDbLine
 10
2268.071379078356
 20
-343.4359852233533
 30
0.0
 11
2270.848126040161
 21
-344.130103061892
 31
0.0
  0
LINE
  5
1EE8
330
18
100
AcDbEntity
  8
姿図
100
AcDbLine
 10
2261.254775345712
 20
-342.1105880879363
 30
0.0
 11
2263.71636497245
 21
-342.8679578796032
 31
0.0
  0
LINE
  5
1EE9
330
18
100
AcDbEntity
  8
姿図
100
AcDbLine
 10
2254.816994312729
 20
-340.4063682528644
 30
0.0
 11
2257.341422481132
 21
-341.1637380445313
 31
0.0
  0
LINE
  5
1EEA
330
18
100
AcDbEntity
  8
姿図
100
AcDbLine
 10
2249.830563106131
 20
-338.3864398674482
 30
0.0
 11
2251.850215883912
 21
-339.3331521070318
 31
0.0
  0
LINE
  5
1EEB
330
18
100
AcDbEntity
  8
姿図
100
AcDbLine
 10
2246.169666838767
 20
-335.6726692511288
 30
0.0
 11
2246.990288583562
 21
-336.0513541469623
 31
0.0
  0
LINE
  5
1EEC
330
18
100
AcDbEntity
  8
姿図
100
AcDbLine
 10
2289.593855206826
 20
-343.5620757181419
 30
0.0
 11
2291.929629946408
 21
-343.3094813171006
 31
0.0
  0
SPLINE
  5
1EED
330
18
100
AcDbEntity
  8
姿図
100
AcDbSpline
210
0.0
220
0.0
230
1.0
 70
    11
 71
     3
 72
    17
 73
    13
 74
     0
 42
0.000000001
 43
0.0000000001
 40
0.0
 40
0.0
 40
0.0
 40
0.0
 40
1.0
 40
1.0
 40
1.0
 40
2.0
 40
2.0
 40
2.0
 40
3.0
 40
3.0
 40
3.0
 40
4.0
 40
4.0
 40
4.0
 40
4.0
 10
2291.740287498492
 20
-324.1223665167558
 30
0.0
 10
2291.740287498492
 20
-324.1223665167558
 30
0.0
 10
2291.929629946408
 20
-343.3094813171006
 30
0.0
 10
2291.929629946408
 20
-343.3094813171006
 30
0.0
 10
2291.929629946408
 20
-343.3094813171006
 30
0.0
 10
2295.96976232488
 20
-345.4559136087696
 30
0.0
 10
2296.663466751962
 20
-342.4892729837661
 30
0.0
 10
2296.663466751962
 20
-342.4892729837661
 30
0.0
 10
2295.842431595717
 20
-323.8065201625864
 30
0.0
 10
2295.842431595717
 20
-323.8065201625864
 30
0.0
 10
2295.842431595717
 20
-323.8065201625864
 30
0.0
 10
2295.527136456826
 20
-331.69634004106
 30
0.0
 10
2291.740287498492
 20
-324.1223665167558
 30
0.0
  0
SPLINE
  5
1EEE
330
18
100
AcDbEntity
  8
姿図
100
AcDbSpline
210
0.0
220
0.0
230
1.0
 70
    11
 71
     3
 72
    17
 73
    13
 74
     0
 42
0.000000001
 43
0.0000000001
 40
0.0
 40
0.0
 40
0.0
 40
0.0
 40
1.0
 40
1.0
 40
1.0
 40
2.0
 40
2.0
 40
2.0
 40
3.0
 40
3.0
 40
3.0
 40
4.0
 40
4.0
 40
4.0
 40
4.0
 10
2284.860018401269
 20
-324.9424370462689
 30
0.0
 10
2284.860018401269
 20
-324.9424370462689
 30
0.0
 10
2284.670675953356
 20
-344.130103061892
 30
0.0
 10
2284.670675953356
 20
-344.130103061892
 30
0.0
 10
2284.670675953356
 20
-344.130103061892
 30
0.0
 10
2287.826107810994
 20
-345.7710709438357
 30
0.0
 10
2289.593855206826
 20
-343.5620757181419
 30
0.0
 10
2289.593855206826
 20
-343.5620757181419
 30
0.0
 10
2288.773371265852
 20
-324.8797363084227
 30
0.0
 10
2288.773371265852
 20
-324.8797363084227
 30
0.0
 10
2288.773371265852
 20
-324.8797363084227
 30
0.0
 10
2287.952611717243
 20
-332.7058908223075
 30
0.0
 10
2284.860018401269
 20
-324.9424370462689
 30
0.0
  0
SPLINE
  5
1EEF
330
18
100
AcDbEntity
  8
姿図
100
AcDbSpline
210
0.0
220
0.0
230
1.0
 70
    11
 71
     3
 72
    17
 73
    13
 74
     0
 42
0.000000001
 43
0.0000000001
 40
0.0
 40
0.0
 40
0.0
 40
0.0
 40
1.0
 40
1.0
 40
1.0
 40
2.0
 40
2.0
 40
2.0
 40
3.0
 40
3.0
 40
3.0
 40
4.0
 40
4.0
 40
4.0
 40
4.0
 10
2277.917737585296
 20
-325.1951692511279
 30
0.0
 10
2277.917737585296
 20
-325.1951692511279
 30
0.0
 10
2277.980576126964
 20
-344.57203991085
 30
0.0
 10
2277.980576126964
 20
-344.57203991085
 30
0.0
 10
2278.49017465127
 20
-344.8964301018236
 30
0.0
 10
2280.364582203351
 20
-347.1353287563356
 30
0.0
 10
2282.272613887381
 20
-344.1933550150202
 30
0.0
 10
2282.272613887381
 20
-344.1933550150202
 30
0.0
 10
2281.704586543631
 20
-325.1319172980034
 30
0.0
 10
2281.704586543631
 20
-325.1319172980034
 30
0.0
 10
2281.704586543631
 20
-325.1319172980034
 30
0.0
 10
2279.685484981129
 20
-333.0845757181446
 30
0.0
 10
2277.917737585296
 20
-325.1951692511279
 30
0.0
  0
SPLINE
  5
1EF0
330
18
100
AcDbEntity
  8
姿図
100
AcDbSpline
210
0.0
220
0.0
230
1.0
 70
    11
 71
     3
 72
    17
 73
    13
 74
     0
 42
0.000000001
 43
0.0000000001
 40
0.0
 40
0.0
 40
0.0
 40
0.0
 40
1.0
 40
1.0
 40
1.0
 40
2.0
 40
2.0
 40
2.0
 40
3.0
 40
3.0
 40
3.0
 40
4.0
 40
4.0
 40
4.0
 40
4.0
 10
2270.722448956826
 20
-325.3845116990483
 30
0.0
 10
2270.722448956826
 20
-325.3845116990483
 30
0.0
 10
2270.78528749849
 20
-344.3194455098087
 30
0.0
 10
2270.78528749849
 20
-344.3194455098087
 30
0.0
 10
2270.78528749849
 20
-344.3194455098087
 30
0.0
 10
2273.05739687349
 20
-346.402350240714
 30
0.0
 10
2275.89780919988
 20
-344.3194455098087
 30
0.0
 10
2275.89780919988
 20
-344.3194455098087
 30
0.0
 10
2274.761478904745
 20
-325.2582834004347
 30
0.0
 10
2274.761478904745
 20
-325.2582834004347
 30
0.0
 10
2274.761478904745
 20
-325.2582834004347
 30
0.0
 10
2271.795665102658
 20
-333.2110796243938
 30
0.0
 10
2270.722448956826
 20
-325.3845116990483
 30
0.0
  0
SPLINE
  5
1EF1
330
18
100
AcDbEntity
  8
姿図
100
AcDbSpline
210
0.0
220
0.0
230
1.0
 70
    11
 71
     3
 72
    17
 73
    13
 74
     0
 42
0.000000001
 43
0.0000000001
 40
0.0
 40
0.0
 40
0.0
 40
0.0
 40
1.0
 40
1.0
 40
1.0
 40
2.0
 40
2.0
 40
2.0
 40
3.0
 40
3.0
 40
3.0
 40
4.0
 40
4.0
 40
4.0
 40
4.0
 10
2263.842455467242
 20
-324.6271419073814
 30
0.0
 10
2263.842455467242
 20
-324.6271419073814
 30
0.0
 10
2263.71636497245
 20
-343.0573003275163
 30
0.0
 10
2263.71636497245
 20
-343.0573003275163
 30
0.0
 10
2263.71636497245
 20
-343.0573003275163
 30
0.0
 10
2265.168266014117
 20
-345.077366516754
 30
0.0
 10
2268.071379078356
 20
-343.4359852233533
 30
0.0
 10
2268.071379078356
 20
-343.4359852233533
 30
0.0
 10
2267.692694182523
 20
-324.7532324021699
 30
0.0
 10
2267.692694182523
 20
-324.7532324021699
 30
0.0
 10
2267.692694182523
 20
-324.7532324021699
 30
0.0
 10
2264.663215015855
 20
-331.8856824889767
 30
0.0
 10
2263.842455467242
 20
-324.6271419073814
 30
0.0
  0
SPLINE
  5
1EF2
330
18
100
AcDbEntity
  8
姿図
100
AcDbSpline
210
0.0
220
0.0
230
1.0
 70
    11
 71
     3
 72
    17
 73
    13
 74
     0
 42
0.000000001
 43
0.0000000001
 40
0.0
 40
0.0
 40
0.0
 40
0.0
 40
1.0
 40
1.0
 40
1.0
 40
2.0
 40
2.0
 40
2.0
 40
3.0
 40
3.0
 40
3.0
 40
4.0
 40
4.0
 40
4.0
 40
4.0
 10
2260.876090449882
 20
-323.9958626105031
 30
0.0
 10
2257.467788583563
 20
-330.0550965514772
 30
0.0
 10
2257.467788583563
 20
-322.6703276712683
 30
0.0
 10
2257.467788583563
 20
-322.6703276712683
 30
0.0
 10
2257.467788583563
 20
-322.6703276712683
 30
0.0
 10
2257.467788583563
 20
-341.2899663431413
 30
0.0
 10
2257.467788583563
 20
-341.2899663431413
 30
0.0
 10
2257.467788583563
 20
-341.2899663431413
 30
0.0
 10
2257.531040536684
 20
-343.8779220723113
 30
0.0
 10
2261.254775345712
 20
-342.1105880879363
 30
0.0
 10
2261.254775345712
 20
-342.1105880879363
 30
0.0
 10
2260.876090449882
 20
-323.9958626105031
 30
0.0
 10
2260.876090449882
 20
-323.9958626105031
 30
0.0
  0
SPLINE
  5
1EF3
330
18
100
AcDbEntity
  8
姿図
100
AcDbSpline
210
0.0
220
0.0
230
1.0
 70
     8
 71
     3
 72
    17
 73
    13
 74
     0
 42
0.000000001
 43
0.0000000001
 40
0.0
 40
0.0
 40
0.0
 40
0.0
 40
1.0
 40
1.0
 40
1.0
 40
2.0
 40
2.0
 40
2.0
 40
3.0
 40
3.0
 40
3.0
 40
4.0
 40
4.0
 40
4.0
 40
4.0
 10
2251.976719790161
 20
-322.7335796243929
 30
0.0
 10
2251.976719790161
 20
-322.7335796243929
 30
0.0
 10
2251.850215883912
 20
-339.5224945549485
 30
0.0
 10
2251.850215883912
 20
-339.5224945549485
 30
0.0
 10
2251.850215883912
 20
-339.5224945549485
 30
0.0
 10
2252.355404685994
 20
-341.3530804924481
 30
0.0
 10
2254.816994312729
 20
-340.4063682528644
 30
0.0
 10
2254.816994312729
 20
-340.4063682528644
 30
0.0
 10
2254.879695050576
 20
-322.3548947285594
 30
0.0
 10
2254.879695050576
 20
-322.3548947285594
 30
0.0
 10
2251.471530988078
 20
-327.7198730271698
 30
0.0
 10
2252.039558331825
 20
-320.8400173414043
 30
0.0
 10
2252.039558331825
 20
-320.8400173414043
 30
0.0
  0
SPLINE
  5
1EF4
330
18
100
AcDbEntity
  8
姿図
100
AcDbSpline
210
0.0
220
0.0
230
1.0
 70
     8
 71
     3
 72
    17
 73
    13
 74
     0
 42
0.000000001
 43
0.0000000001
 40
0.0
 40
0.0
 40
0.0
 40
0.0
 40
1.0
 40
1.0
 40
1.0
 40
2.0
 40
2.0
 40
2.0
 40
3.0
 40
3.0
 40
3.0
 40
4.0
 40
4.0
 40
4.0
 40
4.0
 10
2247.305721526267
 20
-320.3352419507787
 30
0.0
 10
2247.305721526267
 20
-320.3352419507787
 30
0.0
 10
2247.116379078355
 20
-337.6290700757814
 30
0.0
 10
2247.116379078355
 20
-337.6290700757814
 30
0.0
 10
2247.116379078355
 20
-337.6290700757814
 30
0.0
 10
2247.810910328354
 20
-339.1438096591151
 30
0.0
 10
2249.830563106131
 20
-338.3864398674482
 30
0.0
 10
2249.830563106131
 20
-338.3864398674482
 30
0.0
 10
2249.641220658214
 20
-320.2087380445332
 30
0.0
 10
2249.641220658214
 20
-320.2087380445332
 30
0.0
 10
2246.359009286688
 20
-324.6901182528632
 30
0.0
 10
2247.621567880437
 20
-317.7474240254337
 30
0.0
 10
2247.621567880437
 20
-317.7474240254337
 30
0.0
  0
SPLINE
  5
1EF5
330
18
100
AcDbEntity
  8
姿図
100
AcDbSpline
210
0.0
220
0.0
230
1.0
 70
     8
 71
     3
 72
    17
 73
    13
 74
     0
 42
0.000000001
 43
0.0000000001
 40
0.0
 40
0.0
 40
0.0
 40
0.0
 40
1.0
 40
1.0
 40
1.0
 40
2.0
 40
2.0
 40
2.0
 40
3.0
 40
3.0
 40
3.0
 40
4.0
 40
4.0
 40
4.0
 40
4.0
 10
2243.203301821407
 20
-317.8104003709227
 30
0.0
 10
2243.203301821407
 20
-317.8104003709227
 30
0.0
 10
2243.077211326614
 20
-334.8520475063374
 30
0.0
 10
2243.077211326614
 20
-334.8520475063374
 30
0.0
 10
2243.077211326614
 20
-334.8520475063374
 30
0.0
 10
2244.591537498491
 20
-336.1778580532114
 30
0.0
 10
2246.169666838767
 20
-335.6726692511288
 30
0.0
 10
2246.169666838767
 20
-335.6726692511288
 30
0.0
 10
2245.917348045369
 20
-316.6110937302942
 30
0.0
 10
2245.917348045369
 20
-316.6110937302942
 30
0.0
 10
2242.193751040159
 20
-323.6800162563373
 30
0.0
 10
2243.455896222448
 20
-314.5281889993926
 30
0.0
 10
2243.455896222448
 20
-314.5281889993926
 30
0.0
  0
SPLINE
  5
1EF6
330
18
100
AcDbEntity
  8
姿図
100
AcDbSpline
210
0.0
220
0.0
230
1.0
 70
     8
 71
     3
 72
    11
 73
     7
 74
     0
 42
0.000000001
 43
0.0000000001
 40
0.0
 40
0.0
 40
0.0
 40
0.0
 40
1.0
 40
1.0
 40
1.0
 40
2.0
 40
2.0
 40
2.0
 40
2.0
 10
2240.867940493285
 20
-315.0962163431427
 30
0.0
 10
2240.867940493285
 20
-315.0962163431427
 30
0.0
 10
2240.426279251966
 20
-331.4437456400187
 30
0.0
 10
2240.426279251966
 20
-331.4437456400187
 30
0.0
 10
2240.426279251966
 20
-331.4437456400187
 30
0.0
 10
2241.18337343599
 20
-333.021737176477
 30
0.0
 10
2243.140049868285
 20
-332.5799381313368
 30
0.0
  0
SPLINE
  5
1EF7
330
18
100
AcDbEntity
  8
姿図
100
AcDbSpline
210
0.0
220
0.0
230
1.0
 70
     8
 71
     3
 72
    11
 73
     7
 74
     0
 42
0.000000001
 43
0.0000000001
 40
0.0
 40
0.0
 40
0.0
 40
0.0
 40
1.0
 40
1.0
 40
1.0
 40
2.0
 40
2.0
 40
2.0
 40
2.0
 10
2239.54240555405
 20
-312.3193315775202
 30
0.0
 10
2239.54240555405
 20
-312.3193315775202
 30
0.0
 10
2239.226972611338
 20
-327.6566210740452
 30
0.0
 10
2239.226972611338
 20
-327.6566210740452
 30
0.0
 10
2239.226972611338
 20
-327.6566210740452
 30
0.0
 10
2238.974653817939
 20
-328.9191796677983
 30
0.0
 10
2240.615621699879
 20
-328.8560655184915
 30
0.0
  0
LINE
  5
1EF8
330
18
100
AcDbEntity
  8
姿図
100
AcDbLine
 10
2239.479567012379
 20
-309.1636241122392
 30
0.0
 11
2239.226972611338
 21
-324.6902560566846
 31
0.0
  0
SPLINE
  5
1EF9
330
18
100
AcDbEntity
  8
姿図
100
AcDbSpline
210
0.0
220
0.0
230
1.0
 70
     8
 71
     3
 72
     8
 73
     4
 74
     0
 42
0.000000001
 43
0.0000000001
 40
0.0
 40
0.0
 40
0.0
 40
0.0
 40
1.0
 40
1.0
 40
1.0
 40
1.0
 10
2241.120397090505
 20
-306.3861881313382
 30
0.0
 10
2241.120397090505
 20
-306.3861881313382
 30
0.0
 10
2237.729871916894
 20
-311.6876388691849
 30
0.0
 10
2240.75728402627
 20
-307.8518695549496
 30
0.0
  0
SPLINE
  5
1EFA
330
18
100
AcDbEntity
  8
姿図
100
AcDbSpline
210
0.0
220
0.0
230
1.0
 70
     8
 71
     3
 72
    11
 73
     7
 74
     0
 42
0.000000001
 43
0.0000000001
 40
0.0
 40
0.0
 40
0.0
 40
0.0
 40
1.0
 40
1.0
 40
1.0
 40
2.0
 40
2.0
 40
2.0
 40
2.0
 10
2240.895914668632
 20
-309.1006477667538
 30
0.0
 10
2240.556366057521
 20
-309.7180088778655
 30
0.0
 10
2237.945121482866
 20
-314.5551985480047
 30
0.0
 10
2241.246211977662
 20
-311.3090917771692
 30
0.0
 10
2241.246211977662
 20
-311.3090917771692
 30
0.0
 10
2241.183786847451
 20
-313.4555240688383
 30
0.0
 10
2241.183786847451
 20
-313.4555240688383
 30
0.0
  0
SPLINE
  5
1EFB
330
18
100
AcDbEntity
  8
姿図
100
AcDbSpline
210
0.0
220
0.0
230
1.0
 70
     8
 71
     3
 72
     8
 73
     4
 74
     0
 42
0.000000001
 43
0.0000000001
 40
0.0
 40
0.0
 40
0.0
 40
0.0
 40
1.0
 40
1.0
 40
1.0
 40
1.0
 10
2241.618557897797
 20
-312.4434928188343
 30
0.0
 10
2241.262886239813
 20
-313.4136317077278
 30
0.0
 10
2239.605657507171
 20
-317.7474240254337
 30
0.0
 10
2243.077211326614
 20
-313.8340711608539
 30
0.0
  0
POLYLINE
  5
1EFC
330
18
100
AcDbEntity
  8
姿図
100
AcDb2dPolyline
 66
     1
 10
0.0
 20
0.0
 30
0.0
  0
VERTEX
  5
1EFD
330
1EFC
100
AcDbEntity
  8
姿図
100
AcDbVertex
100
AcDb2dVertex
 10
2241.75167638738
 20
-304.2405826625868
 30
0.0
  0
VERTEX
  5
1EFE
330
1EFC
100
AcDbEntity
  8
姿図
100
AcDbVertex
100
AcDb2dVertex
 10
2240.741712194671
 20
-305.7554600497419
 30
0.0
  0
VERTEX
  5
1EFF
330
1EFC
100
AcDbEntity
  8
姿図
100
AcDbVertex
100
AcDb2dVertex
 10
2240.678460241551
 20
-306.8282627841177
 30
0.0
  0
SEQEND
  5
1F00
330
1EFC
100
AcDbEntity
  8
姿図
  0
POLYLINE
  5
1F01
330
18
100
AcDbEntity
  8
姿図
100
AcDb2dPolyline
 66
     1
 10
0.0
 20
0.0
 30
0.0
  0
VERTEX
  5
1F02
330
1F01
100
AcDbEntity
  8
姿図
100
AcDbVertex
100
AcDb2dVertex
 10
2316.166565710297
 20
-294.7097949021695
 30
0.0
  0
VERTEX
  5
1F03
330
1F01
100
AcDbEntity
  8
姿図
100
AcDbVertex
100
AcDb2dVertex
 10
2316.608089147798
 20
-295.403774936894
 30
0.0
  0
VERTEX
  5
1F04
330
1F01
100
AcDbEntity
  8
姿図
100
AcDbVertex
100
AcDb2dVertex
 10
2316.734593054047
 20
-300.3270919941856
 30
0.0
  0
SEQEND
  5
1F05
330
1F01
100
AcDbEntity
  8
姿図
  0
POLYLINE
  5
1F06
330
18
100
AcDbEntity
  8
姿図
100
AcDb2dPolyline
 66
     1
 10
0.0
 20
0.0
 30
0.0
  0
VERTEX
  5
1F07
330
1F06
100
AcDbEntity
  8
姿図
100
AcDbVertex
100
AcDb2dVertex
 10
2310.927540102661
 20
-294.6464051452272
 30
0.0
  0
VERTEX
  5
1F08
330
1F06
100
AcDbEntity
  8
姿図
100
AcDbVertex
100
AcDb2dVertex
 10
2316.166565710297
 20
-294.7097949021695
 30
0.0
  0
VERTEX
  5
1F09
330
1F06
100
AcDbEntity
  8
姿図
100
AcDbVertex
100
AcDb2dVertex
 10
2316.166565710297
 20
-299.6329741556433
 30
0.0
  0
SEQEND
  5
1F0A
330
1F06
100
AcDbEntity
  8
姿図
  0
LINE
  5
1F0B
330
18
100
AcDbEntity
  8
姿図
100
AcDbLine
 10
2234.177702863076
 20
-311.2465288431445
 30
0.0
 11
2233.420333071409
 21
-313.581476759809
 31
0.0
  0
SPLINE
  5
1F0C
330
18
100
AcDbEntity
  8
姿図
100
AcDbSpline
210
0.0
220
0.0
230
1.0
 70
     8
 71
     3
 72
    11
 73
     7
 74
     0
 42
0.000000001
 43
0.0000000001
 40
0.0
 40
0.0
 40
0.0
 40
0.0
 40
1.0
 40
1.0
 40
1.0
 40
2.0
 40
2.0
 40
2.0
 40
2.0
 10
2193.89337452106
 20
-351.2467057094614
 30
0.0
 10
2193.89337452106
 20
-351.2467057094614
 30
0.0
 10
2193.230675953353
 20
-349.9213085740444
 30
0.0
 10
2195.976279251962
 20
-347.0810340514759
 30
0.0
 10
2195.976279251962
 20
-347.0810340514759
 30
0.0
 10
2225.51494136134
 20
-315.4594672111993
 30
0.0
 10
2225.51494136134
 20
-315.4594672111993
 30
0.0
  0
SPLINE
  5
1F0D
330
18
100
AcDbEntity
  8
姿図
100
AcDbSpline
210
0.0
220
0.0
230
1.0
 70
     8
 71
     3
 72
    11
 73
     7
 74
     0
 42
0.000000001
 43
0.0000000001
 40
0.0
 40
0.0
 40
0.0
 40
0.0
 40
1.0
 40
1.0
 40
1.0
 40
2.0
 40
2.0
 40
2.0
 40
2.0
 10
2193.325347177314
 20
-353.8029665601566
 30
0.0
 10
2193.325347177314
 20
-353.8029665601566
 30
0.0
 10
2192.662648609603
 20
-352.4774316209218
 30
0.0
 10
2195.408251908215
 20
-349.6371570983533
 30
0.0
 10
2195.408251908215
 20
-349.6371570983533
 30
0.0
 10
2224.946914017587
 20
-318.0157280618946
 30
0.0
 10
2224.946914017587
 20
-318.0157280618946
 30
0.0
  0
SPLINE
  5
1F0E
330
18
100
AcDbEntity
  8
姿図
100
AcDbSpline
210
0.0
220
0.0
230
1.0
 70
     8
 71
     3
 72
    11
 73
     7
 74
     0
 42
0.000000001
 43
0.0000000001
 40
0.0
 40
0.0
 40
0.0
 40
0.0
 40
1.0
 40
1.0
 40
1.0
 40
2.0
 40
2.0
 40
2.0
 40
2.0
 10
2192.567977385647
 20
-356.4538986348121
 30
0.0
 10
2192.567977385647
 20
-356.4538986348121
 30
0.0
 10
2191.905278817936
 20
-355.1283636955736
 30
0.0
 10
2194.650882116548
 20
-352.2880891730051
 30
0.0
 10
2194.650882116548
 20
-352.2880891730051
 30
0.0
 10
2224.52082460787
 20
-320.3352419507787
 30
0.0
 10
2224.52082460787
 20
-320.3352419507787
 30
0.0
  0
SPLINE
  5
1F0F
330
18
100
AcDbEntity
  8
姿図
100
AcDbSpline
210
0.0
220
0.0
230
1.0
 70
     8
 71
     3
 72
    11
 73
     7
 74
     0
 42
0.000000001
 43
0.0000000001
 40
0.0
 40
0.0
 40
0.0
 40
0.0
 40
1.0
 40
1.0
 40
1.0
 40
2.0
 40
2.0
 40
2.0
 40
2.0
 10
2192.094621265853
 20
-358.9153504577257
 30
0.0
 10
2192.094621265853
 20
-358.9153504577257
 30
0.0
 10
2191.431784894325
 20
-357.5899533223087
 30
0.0
 10
2194.366730640854
 20
-354.3077419507822
 30
0.0
 10
2194.366730640854
 20
-354.3077419507822
 30
0.0
 10
2223.905392750229
 20
-322.6861751105057
 30
0.0
 10
2223.905392750229
 20
-322.6861751105057
 30
0.0
  0
SPLINE
  5
1F10
330
18
100
AcDbEntity
  8
姿図
100
AcDbSpline
210
0.0
220
0.0
230
1.0
 70
     8
 71
     3
 72
    11
 73
     7
 74
     0
 42
0.000000001
 43
0.0000000001
 40
0.0
 40
0.0
 40
0.0
 40
0.0
 40
1.0
 40
1.0
 40
1.0
 40
2.0
 40
2.0
 40
2.0
 40
2.0
 10
2191.62126514606
 20
-361.2822688605043
 30
0.0
 10
2191.62126514606
 20
-361.2822688605043
 30
0.0
 10
2190.958428774532
 20
-359.9568717250873
 30
0.0
 10
2193.704032073148
 20
-357.1165972025188
 30
0.0
 10
2193.704032073148
 20
-357.1165972025188
 30
0.0
 10
2223.321517967241
 20
-325.1319172980034
 30
0.0
 10
2223.321517967241
 20
-325.1319172980034
 30
0.0
  0
SPLINE
  5
1F11
330
18
100
AcDbEntity
  8
姿図
100
AcDbSpline
210
0.0
220
0.0
230
1.0
 70
     8
 71
     3
 72
    11
 73
     7
 74
     0
 42
0.000000001
 43
0.0000000001
 40
0.0
 40
0.0
 40
0.0
 40
0.0
 40
1.0
 40
1.0
 40
1.0
 40
2.0
 40
2.0
 40
2.0
 40
2.0
 10
2191.053099998492
 20
-363.7437206834215
 30
0.0
 10
2191.053099998492
 20
-363.7437206834215
 30
0.0
 10
2190.390401430785
 20
-362.4183235480046
 30
0.0
 10
2193.136004729393
 20
-359.5781868292538
 30
0.0
 10
2193.136004729393
 20
-359.5781868292538
 30
0.0
 10
2222.942833071408
 20
-327.4674164299463
 30
0.0
 10
2222.942833071408
 20
-327.4674164299463
 30
0.0
  0
SPLINE
  5
1F12
330
18
100
AcDbEntity
  8
姿図
100
AcDbSpline
210
0.0
220
0.0
230
1.0
 70
     8
 71
     3
 72
    11
 73
     7
 74
     0
 42
0.000000001
 43
0.0000000001
 40
0.0
 40
0.0
 40
0.0
 40
0.0
 40
1.0
 40
1.0
 40
1.0
 40
2.0
 40
2.0
 40
2.0
 40
2.0
 10
2190.532477168629
 20
-366.252577020226
 30
0.0
 10
2190.532477168629
 20
-366.252577020226
 30
0.0
 10
2189.869640797101
 20
-364.927179884809
 30
0.0
 10
2192.615244095716
 20
-362.0870431660583
 30
0.0
 10
2192.615244095716
 20
-362.0870431660583
 30
0.0
 10
2222.564148175575
 20
-329.8656162997427
 30
0.0
 10
2222.564148175575
 20
-329.8656162997427
 30
0.0
  0
SPLINE
  5
1F13
330
18
100
AcDbEntity
  8
姿図
100
AcDbSpline
210
0.0
220
0.0
230
1.0
 70
     8
 71
     3
 72
    11
 73
     7
 74
     0
 42
0.000000001
 43
0.0000000001
 40
0.0
 40
0.0
 40
0.0
 40
0.0
 40
1.0
 40
1.0
 40
1.0
 40
2.0
 40
2.0
 40
2.0
 40
2.0
 10
2189.869640797101
 20
-368.7143044507825
 30
0.0
 10
2189.869640797101
 20
-368.7143044507825
 30
0.0
 10
2189.017599781481
 20
-367.2940982875875
 30
0.0
 10
2192.709915319673
 20
-363.8859342250867
 30
0.0
 10
2192.709915319673
 20
-363.8859342250867
 30
0.0
 10
2221.964563757174
 20
-332.5483810566871
 30
0.0
 10
2221.964563757174
 20
-332.5483810566871
 30
0.0
  0
SPLINE
  5
1F14
330
18
100
AcDbEntity
  8
姿図
100
AcDbSpline
210
0.0
220
0.0
230
1.0
 70
     8
 71
     3
 72
    80
 73
    76
 74
     0
 42
0.000000001
 43
0.0000000001
 40
0.0
 40
0.0
 40
0.0
 40
0.0
 40
1.0
 40
1.0
 40
1.0
 40
2.0
 40
2.0
 40
2.0
 40
3.0
 40
3.0
 40
3.0
 40
4.0
 40
4.0
 40
4.0
 40
5.0
 40
5.0
 40
5.0
 40
6.0
 40
6.0
 40
6.0
 40
7.0
 40
7.0
 40
7.0
 40
8.0
 40
8.0
 40
8.0
 40
9.0
 40
9.0
 40
9.0
 40
10.0
 40
10.0
 40
10.0
 40
11.0
 40
11.0
 40
11.0
 40
12.0
 40
12.0
 40
12.0
 40
13.0
 40
13.0
 40
13.0
 40
14.0
 40
14.0
 40
14.0
 40
15.0
 40
15.0
 40
15.0
 40
16.0
 40
16.0
 40
16.0
 40
17.0
 40
17.0
 40
17.0
 40
18.0
 40
18.0
 40
18.0
 40
19.0
 40
19.0
 40
19.0
 40
20.0
 40
20.0
 40
20.0
 40
21.0
 40
21.0
 40
21.0
 40
22.0
 40
22.0
 40
22.0
 40
23.0
 40
23.0
 40
23.0
 40
24.0
 40
24.0
 40
24.0
 40
25.0
 40
25.0
 40
25.0
 40
25.0
 10
2223.858126040159
 20
-336.1460253709188
 30
0.0
 10
2223.858126040159
 20
-336.1460253709188
 30
0.0
 10
2218.840275562729
 20
-335.4834646070299
 30
0.0
 10
2224.142139712036
 20
-333.7791069681439
 30
0.0
 10
2224.142139712036
 20
-333.7791069681439
 30
0.0
 10
2224.33148215995
 20
-333.4632606139744
 30
0.0
 10
2223.952797264116
 20
-333.3057508483539
 30
0.0
 10
2223.952797264116
 20
-333.3057508483539
 30
0.0
 10
2219.892132116548
 20
-332.7725878709202
 30
0.0
 10
2223.479441144326
 20
-331.69634004106
 30
0.0
 10
2224.426153383909
 20
-331.4121885653654
 30
0.0
 10
2224.994180727656
 20
-330.8441612216152
 30
0.0
 10
2224.047468488076
 20
-330.6548187736985
 30
0.0
 10
2223.100756248493
 20
-330.4654763257818
 30
0.0
 10
2220.839257767592
 20
-329.8475639993917
 30
0.0
 10
2224.426153383909
 20
-328.9507367424481
 30
0.0
 10
2225.562345875231
 20
-328.6668608743926
 30
0.0
 10
2224.426153383909
 20
-328.1933669507812
 30
0.0
 10
2223.952797264116
 20
-328.1933669507812
 30
0.0
 10
2223.479441144326
 20
-328.1933669507812
 30
0.0
 10
2221.869892533214
 20
-327.4359971591143
 30
0.0
 10
2224.047468488076
 20
-326.9625032355029
 30
0.0
 10
2226.225044442938
 20
-326.4891471157093
 30
0.0
 10
2225.183523175576
 20
-325.8264485480026
 30
0.0
 10
2224.615495831826
 20
-325.7316395202283
 30
0.0
 10
2224.047468488076
 20
-325.6371061000896
 30
0.0
 10
2222.185463279741
 20
-325.4480392598121
 30
0.0
 10
2224.268230206829
 20
-324.5641655618924
 30
0.0
 10
2226.35113493773
 20
-323.6802918639764
 30
0.0
 10
2225.341446352658
 20
-323.2383550150184
 30
0.0
 10
2224.962761456824
 20
-323.1755164733509
 30
0.0
 10
2224.327761456826
 20
-323.0700965514766
 30
0.0
 10
2223.40654292384
 20
-322.9099685132819
 30
0.0
 10
2224.205391665157
 20
-322.4180088778662
 30
0.0
 10
2225.025599998492
 20
-321.9129578796014
 30
0.0
 10
2226.793071786684
 20
-321.534272983768
 30
0.0
 10
2226.16179248981
 20
-321.2188400410592
 30
0.0
 10
2225.626286847452
 20
-320.9512250236981
 30
0.0
 10
2223.63736432141
 20
-320.587422940363
 30
0.0
 10
2224.710167055783
 20
-320.0826475497374
 30
0.0
 10
2225.782969790158
 20
-319.5778721591155
 30
0.0
 10
2227.33078229016
 20
-318.9336393032131
 30
0.0
 10
2226.540477385643
 20
-318.8205023674486
 30
0.0
 10
2225.65687929537
 20
-318.6939984611995
 30
0.0
 10
2224.43097651759
 20
-318.4684136087667
 30
0.0
 10
2225.152103904744
 20
-317.7474240254337
 30
0.0
 10
2225.65687929537
 20
-317.2423730271725
 30
0.0
 10
2227.550441578351
 20
-316.92694008446
 30
0.0
 10
2226.982414234605
 20
-316.5483929924481
 30
0.0
 10
2226.558943097451
 20
-316.2660329664063
 30
0.0
 10
2224.836257550575
 20
-315.9798144334195
 30
0.0
 10
2225.65687929537
 20
-315.4750390427976
 30
0.0
 10
2226.477501040158
 20
-314.9701258483506
 30
0.0
 10
2227.171756682518
 20
-315.0333778014751
 30
0.0
 10
2227.171756682518
 20
-315.0333778014751
 30
0.0
 10
2227.171756682518
 20
-315.0333778014751
 30
0.0
 10
2227.865874521064
 20
-314.2127560566837
 30
0.0
 10
2227.865874521064
 20
-314.2127560566837
 30
0.0
 10
2227.865874521064
 20
-314.2127560566837
 30
0.0
 10
2232.410368878701
 20
-314.0866655618952
 30
0.0
 10
2232.410368878701
 20
-314.0866655618952
 30
0.0
 10
2232.410368878701
 20
-314.0866655618952
 30
0.0
 10
2233.420333071409
 20
-313.581476759809
 30
0.0
 10
2233.420333071409
 20
-313.581476759809
 30
0.0
 10
2233.420333071409
 20
-313.581476759809
 30
0.0
 10
2233.988360415159
 20
-312.761406230296
 30
0.0
 10
2233.988360415159
 20
-312.761406230296
 30
0.0
 10
2233.988360415159
 20
-312.761406230296
 30
0.0
 10
2234.177702863076
 20
-311.2465288431445
 30
0.0
 10
2234.177702863076
 20
-311.2465288431445
 30
0.0
 10
2234.177702863076
 20
-311.2465288431445
 30
0.0
 10
2236.260469790159
 20
-311.1198871330739
 30
0.0
 10
2236.260469790159
 20
-311.1198871330739
 30
0.0
 10
2236.260469790159
 20
-311.1198871330739
 30
0.0
 10
2239.479567012379
 20
-309.4790570549481
 30
0.0
 10
2239.479567012379
 20
-309.4790570549481
 30
0.0
  0
SPLINE
  5
1F15
330
18
100
AcDbEntity
  8
姿図
100
AcDbSpline
210
0.0
220
0.0
230
1.0
 70
     8
 71
     3
 72
    17
 73
    13
 74
     0
 42
0.000000001
 43
0.0000000001
 40
0.0
 40
0.0
 40
0.0
 40
0.0
 40
1.0
 40
1.0
 40
1.0
 40
2.0
 40
2.0
 40
2.0
 40
3.0
 40
3.0
 40
3.0
 40
4.0
 40
4.0
 40
4.0
 40
4.0
 10
2190.437805944672
 20
-376.9511143466147
 30
0.0
 10
2190.437805944672
 20
-376.9511143466147
 30
0.0
 10
2189.774969573148
 20
-376.4776204230034
 30
0.0
 10
2189.774969573148
 20
-376.4776204230034
 30
0.0
 10
2189.774969573148
 20
-376.4776204230034
 30
0.0
 10
2189.301613453354
 20
-370.6077289299496
 30
0.0
 10
2189.301613453354
 20
-370.6077289299496
 30
0.0
 10
2189.301613453354
 20
-370.6077289299496
 30
0.0
 10
2188.733586109604
 20
-369.9451681660607
 30
0.0
 10
2191.289846960296
 20
-367.3889073153655
 30
0.0
 10
2193.846107810991
 20
-364.8326464646702
 30
0.0
 10
2221.680550085297
 20
-335.1046419073786
 30
0.0
 10
2221.680550085297
 20
-335.1046419073786
 30
0.0
  0
SPLINE
  5
1F16
330
18
100
AcDbEntity
  8
姿図
100
AcDbSpline
210
0.0
220
0.0
230
1.0
 70
     8
 71
     3
 72
    23
 73
    19
 74
     0
 42
0.000000001
 43
0.0000000001
 40
0.0
 40
0.0
 40
0.0
 40
0.0
 40
1.0
 40
1.0
 40
1.0
 40
2.0
 40
2.0
 40
2.0
 40
3.0
 40
3.0
 40
3.0
 40
4.0
 40
4.0
 40
4.0
 40
5.0
 40
5.0
 40
5.0
 40
6.0
 40
6.0
 40
6.0
 40
6.0
 10
2209.372877559254
 20
-394.844664693835
 30
0.0
 10
2209.372877559254
 20
-394.844664693835
 30
0.0
 10
2190.532477168629
 20
-378.0871690341151
 30
0.0
 10
2190.532477168629
 20
-378.0871690341151
 30
0.0
 10
2190.532477168629
 20
-378.0871690341151
 30
0.0
 10
2190.248463496756
 20
-372.5959624368911
 30
0.0
 10
2190.248463496756
 20
-372.5959624368911
 30
0.0
 10
2190.248463496756
 20
-372.5959624368911
 30
0.0
 10
2189.774969573148
 20
-372.2172775410613
 30
0.0
 10
2192.141887975923
 20
-369.8503591382828
 30
0.0
 10
2192.141887975923
 20
-369.8503591382828
 30
0.0
 10
2223.858126040159
 20
-336.1460253709188
 30
0.0
 10
2223.858126040159
 20
-336.1460253709188
 30
0.0
 10
2223.858126040159
 20
-336.1460253709188
 30
0.0
 10
2224.426153383909
 20
-337.0927376105024
 30
0.0
 10
2224.426153383909
 20
-337.0927376105024
 30
0.0
 10
2224.426153383909
 20
-337.0927376105024
 30
0.0
 10
2228.623657724188
 20
-336.9980663865458
 30
0.0
 10
2228.623657724188
 20
-336.9980663865458
 30
0.0
  0
LINE
  5
1F17
330
18
100
AcDbEntity
  8
姿図
100
AcDbLine
 10
2239.353476517587
 20
-359.8466286695325
 30
0.0
 11
2314.462208071411
 21
-359.9727191643247
 31
0.0
  0
POLYLINE
  5
1F18
330
18
100
AcDbEntity
  8
姿図
100
AcDb2dPolyline
 66
     1
 10
0.0
 20
0.0
 30
0.0
  0
VERTEX
  5
1F19
330
1F18
100
AcDbEntity
  8
姿図
100
AcDbVertex
100
AcDb2dVertex
 10
2334.533609981133
 20
-318.6310221157105
 30
0.0
  0
VERTEX
  5
1F1A
330
1F18
100
AcDbEntity
  8
姿図
100
AcDbVertex
100
AcDb2dVertex
 10
2346.841144703351
 20
-345.4242187302948
 30
0.0
  0
VERTEX
  5
1F1B
330
1F18
100
AcDbEntity
  8
姿図
100
AcDbVertex
100
AcDb2dVertex
 10
2346.841144703351
 20
-347.317643209462
 30
0.0
  0
SEQEND
  5
1F1C
330
1F18
100
AcDbEntity
  8
姿図
  0
LINE
  5
1F1D
330
18
100
AcDbEntity
  8
姿図
100
AcDbLine
 10
2336.237692012379
 20
-323.1755164733509
 30
0.0
 11
2347.787856942938
 21
-349.2112054924469
 31
0.0
  0
LINE
  5
1F1E
330
18
100
AcDbEntity
  8
姿図
100
AcDbLine
 10
2334.533609981133
 20
-324.248870423005
 30
0.0
 11
2347.977199390851
 21
-353.7555620462695
 31
0.0
  0
SPLINE
  5
1F1F
330
18
100
AcDbEntity
  8
姿図
100
AcDbSpline
210
0.0
220
0.0
230
1.0
 70
     8
 71
     3
 72
    11
 73
     7
 74
     0
 42
0.000000001
 43
0.0000000001
 40
0.0
 40
0.0
 40
0.0
 40
0.0
 40
1.0
 40
1.0
 40
1.0
 40
2.0
 40
2.0
 40
2.0
 40
2.0
 10
2346.557268835299
 20
-358.2053851799496
 30
0.0
 10
2346.557268835299
 20
-358.2053851799496
 30
0.0
 10
2348.450693314466
 20
-358.5840700757795
 30
0.0
 10
2347.882665970713
 20
-355.9331380011276
 30
0.0
 10
2347.882665970713
 20
-355.9331380011276
 30
0.0
 10
2336.427034460299
 20
-328.0985579230032
 30
0.0
 10
2336.427034460299
 20
-328.0985579230032
 30
0.0
  0
POLYLINE
  5
1F20
330
18
100
AcDbEntity
  8
姿図
100
AcDb2dPolyline
 66
     1
 10
0.0
 20
0.0
 30
0.0
  0
VERTEX
  5
1F21
330
1F20
100
AcDbEntity
  8
姿図
100
AcDbVertex
100
AcDb2dVertex
 10
2334.281153383909
 20
-329.0454079664082
 30
0.0
  0
VERTEX
  5
1F22
330
1F20
100
AcDbEntity
  8
姿図
100
AcDbVertex
100
AcDb2dVertex
 10
2346.557268835299
 20
-358.2053851799496
 30
0.0
  0
VERTEX
  5
1F23
330
1F20
100
AcDbEntity
  8
姿図
100
AcDbVertex
100
AcDb2dVertex
 10
2345.705090015851
 20
-360.85617945078
 30
0.0
  0
SEQEND
  5
1F24
330
1F20
100
AcDbEntity
  8
姿図
  0
SPLINE
  5
1F25
330
18
100
AcDbEntity
  8
姿図
100
AcDbSpline
210
0.0
220
0.0
230
1.0
 70
     8
 71
     3
 72
    11
 73
     7
 74
     0
 42
0.000000001
 43
0.0000000001
 40
0.0
 40
0.0
 40
0.0
 40
0.0
 40
1.0
 40
1.0
 40
1.0
 40
2.0
 40
2.0
 40
2.0
 40
2.0
 10
2334.438800953351
 20
-332.2643673848101
 30
0.0
 10
2334.438800953351
 20
-332.2643673848101
 30
0.0
 10
2346.651802255438
 20
-363.1285644334198
 30
0.0
 10
2346.651802255438
 20
-363.1285644334198
 30
0.0
 10
2346.651802255438
 20
-363.1285644334198
 30
0.0
 10
2347.220105206827
 20
-364.6433040167535
 30
0.0
 10
2344.190350432521
 20
-364.0752766730034
 30
0.0
  0
POLYLINE
  5
1F26
330
18
100
AcDbEntity
  8
姿図
100
AcDb2dPolyline
 66
     1
 10
0.0
 20
0.0
 30
0.0
  0
VERTEX
  5
1F27
330
1F26
100
AcDbEntity
  8
姿図
100
AcDbVertex
100
AcDb2dVertex
 10
2332.009044008909
 20
-333.8424967250862
 30
0.0
  0
VERTEX
  5
1F28
330
1F26
100
AcDbEntity
  8
姿図
100
AcDbVertex
100
AcDb2dVertex
 10
2344.190350432521
 20
-364.0752766730034
 30
0.0
  0
VERTEX
  5
1F29
330
1F26
100
AcDbEntity
  8
姿図
100
AcDbVertex
100
AcDb2dVertex
 10
2342.391459373492
 20
-367.672783183421
 30
0.0
  0
SEQEND
  5
1F2A
330
1F26
100
AcDbEntity
  8
姿図
  0
LINE
  5
1F2B
330
18
100
AcDbEntity
  8
姿図
100
AcDbLine
 10
2324.971127342244
 20
-379.7912510653655
 30
0.0
 11
2316.261099130436
 21
-383.3890331834187
 31
0.0
  0
SPLINE
  5
1F2C
330
18
100
AcDbEntity
  8
姿図
100
AcDbSpline
210
0.0
220
0.0
230
1.0
 70
     8
 71
     3
 72
    68
 73
    64
 74
     0
 42
0.000000001
 43
0.0000000001
 40
0.0
 40
0.0
 40
0.0
 40
0.0
 40
1.0
 40
1.0
 40
1.0
 40
2.0
 40
2.0
 40
2.0
 40
3.0
 40
3.0
 40
3.0
 40
4.0
 40
4.0
 40
4.0
 40
5.0
 40
5.0
 40
5.0
 40
6.0
 40
6.0
 40
6.0
 40
7.0
 40
7.0
 40
7.0
 40
8.0
 40
8.0
 40
8.0
 40
9.0
 40
9.0
 40
9.0
 40
10.0
 40
10.0
 40
10.0
 40
11.0
 40
11.0
 40
11.0
 40
12.0
 40
12.0
 40
12.0
 40
13.0
 40
13.0
 40
13.0
 40
14.0
 40
14.0
 40
14.0
 40
15.0
 40
15.0
 40
15.0
 40
16.0
 40
16.0
 40
16.0
 40
17.0
 40
17.0
 40
17.0
 40
18.0
 40
18.0
 40
18.0
 40
19.0
 40
19.0
 40
19.0
 40
20.0
 40
20.0
 40
20.0
 40
21.0
 40
21.0
 40
21.0
 40
21.0
 10
2328.284757984606
 20
-378.6551963778652
 30
0.0
 10
2328.284757984606
 20
-378.6551963778652
 30
0.0
 10
2328.568909460297
 20
-381.0221147806437
 30
0.0
 10
2324.971127342244
 20
-379.7912510653655
 30
0.0
 10
2324.971127342244
 20
-379.7912510653655
 30
0.0
 10
2315.472585675577
 20
-346.0869172980051
 30
0.0
 10
2315.472585675577
 20
-346.0869172980051
 30
0.0
 10
2315.472585675577
 20
-346.0869172980051
 30
0.0
 10
2316.10372716863
 20
-346.3395116990464
 30
0.0
 10
2316.10372716863
 20
-346.3395116990464
 30
0.0
 10
2316.10372716863
 20
-346.3395116990464
 30
0.0
 10
2319.890576126964
 20
-346.8447005011289
 30
0.0
 10
2319.133206335297
 20
-344.3198589212657
 30
0.0
 10
2319.133206335297
 20
-344.3198589212657
 30
0.0
 10
2322.667874304047
 20
-342.1738400410609
 30
0.0
 10
2322.667874304047
 20
-342.1738400410609
 30
0.0
 10
2322.667874304047
 20
-342.1738400410609
 30
0.0
 10
2326.581502776269
 20
-343.0577137389769
 30
0.0
 10
2325.697629078354
 20
-340.5328721591136
 30
0.0
 10
2325.697629078354
 20
-340.5328721591136
 30
0.0
 10
2328.600604338769
 20
-337.8819400844618
 30
0.0
 10
2328.600604338769
 20
-337.8819400844618
 30
0.0
 10
2328.600604338769
 20
-337.8819400844618
 30
0.0
 10
2332.765586977658
 20
-339.0181325757799
 30
0.0
 10
2330.367800519326
 20
-336.1146061000868
 30
0.0
 10
2330.367800519326
 20
-336.1146061000868
 30
0.0
 10
2332.009044008909
 20
-333.8424967250862
 30
0.0
 10
2332.009044008909
 20
-333.8424967250862
 30
0.0
 10
2332.009044008909
 20
-333.8424967250862
 30
0.0
 10
2336.554089581827
 20
-332.7063042337682
 30
0.0
 10
2333.271602602661
 20
-331.5701117424501
 30
0.0
 10
2333.271602602661
 20
-331.5701117424501
 30
0.0
 10
2334.281153383909
 20
-329.0454079664082
 30
0.0
 10
2334.281153383909
 20
-329.0454079664082
 30
0.0
 10
2334.281153383909
 20
-329.0454079664082
 30
0.0
 10
2338.573466751965
 20
-328.4144042771727
 30
0.0
 10
2334.659838279742
 20
-326.8998024976568
 30
0.0
 10
2334.659838279742
 20
-326.8998024976568
 30
0.0
 10
2334.533609981133
 20
-324.248870423005
 30
0.0
 10
2334.533609981133
 20
-324.248870423005
 30
0.0
 10
2334.533609981133
 20
-324.248870423005
 30
0.0
 10
2338.320458939467
 20
-322.9861740254341
 30
0.0
 10
2334.407657290158
 20
-322.2288042337673
 30
0.0
 10
2334.407657290158
 20
-322.2288042337673
 30
0.0
 10
2333.523783592242
 20
-319.4517816643233
 30
0.0
 10
2333.523783592242
 20
-319.4517816643233
 30
0.0
 10
2333.523783592242
 20
-319.4517816643233
 30
0.0
 10
2336.552711543631
 20
-318.8205023674486
 30
0.0
 10
2332.261224998493
 20
-317.5582193813384
 30
0.0
 10
2332.261224998493
 20
-317.5582193813384
 30
0.0
 10
2330.115619529745
 20
-315.1598817077243
 30
0.0
 10
2330.115619529745
 20
-315.1598817077243
 30
0.0
 10
2330.115619529745
 20
-315.1598817077243
 30
0.0
 10
2332.513405988073
 20
-313.5191894334198
 30
0.0
 10
2328.474100432519
 20
-313.2664572285607
 30
0.0
 10
2328.474100432519
 20
-313.2664572285607
 30
0.0
 10
2325.444621265852
 20
-311.2465288431445
 30
0.0
 10
2325.444621265852
 20
-311.2465288431445
 30
0.0
 10
2325.444621265852
 20
-311.2465288431445
 30
0.0
 10
2327.71755746377
 20
-309.3528287563381
 30
0.0
 10
2323.425244095714
 20
-309.7316514559893
 30
0.0
 10
2323.425244095714
 20
-309.7316514559893
 30
0.0
 10
2320.142757116548
 20
-307.8380891730044
 30
0.0
 10
2320.142757116548
 20
-307.8380891730044
 30
0.0
  0
SPLINE
  5
1F2D
330
18
100
AcDbEntity
  8
姿図
100
AcDbSpline
210
0.0
220
0.0
230
1.0
 70
     8
 71
     3
 72
     8
 73
     4
 74
     0
 42
0.000000001
 43
0.0000000001
 40
0.0
 40
0.0
 40
0.0
 40
0.0
 40
1.0
 40
1.0
 40
1.0
 40
1.0
 10
2336.142882984605
 20
-373.4481412563396
 30
0.0
 10
2336.142882984605
 20
-373.4481412563396
 30
0.0
 10
2337.846965015852
 20
-376.4776204230034
 30
0.0
 10
2333.775964581823
 20
-374.7735383917529
 30
0.0
  0
SPLINE
  5
1F2E
330
18
100
AcDbEntity
  8
姿図
100
AcDbSpline
210
0.0
220
0.0
230
1.0
 70
     8
 71
     3
 72
    11
 73
     7
 74
     0
 42
0.000000001
 43
0.0000000001
 40
0.0
 40
0.0
 40
0.0
 40
0.0
 40
1.0
 40
1.0
 40
1.0
 40
2.0
 40
2.0
 40
2.0
 40
2.0
 10
2331.125170310992
 20
-337.0927376105024
 30
0.0
 10
2331.125170310992
 20
-337.0927376105024
 30
0.0
 10
2342.675610849187
 20
-368.4301529750878
 30
0.0
 10
2342.675610849187
 20
-368.4301529750878
 30
0.0
 10
2342.675610849187
 20
-368.4301529750878
 30
0.0
 10
2342.864953297103
 20
-370.4183864820293
 30
0.0
 10
2340.403225866547
 20
-369.3771408223106
 30
0.0
  0
POLYLINE
  5
1F2F
330
18
100
AcDbEntity
  8
姿図
100
AcDb2dPolyline
 66
     1
 10
0.0
 20
0.0
 30
0.0
  0
VERTEX
  5
1F30
330
1F2F
100
AcDbEntity
  8
姿図
100
AcDbVertex
100
AcDb2dVertex
 10
2325.697629078354
 20
-340.5328721591136
 30
0.0
  0
VERTEX
  5
1F31
330
1F2F
100
AcDbEntity
  8
姿図
100
AcDbVertex
100
AcDb2dVertex
 10
2336.142882984605
 20
-373.4481412563396
 30
0.0
  0
VERTEX
  5
1F32
330
1F2F
100
AcDbEntity
  8
姿図
100
AcDbVertex
100
AcDb2dVertex
 10
2340.403225866547
 20
-369.3771408223106
 30
0.0
  0
VERTEX
  5
1F33
330
1F2F
100
AcDbEntity
  8
姿図
100
AcDbVertex
100
AcDb2dVertex
 10
2328.600604338769
 20
-337.8819400844618
 30
0.0
  0
SEQEND
  5
1F34
330
1F2F
100
AcDbEntity
  8
姿図
  0
POLYLINE
  5
1F35
330
18
100
AcDbEntity
  8
姿図
100
AcDb2dPolyline
 66
     1
 10
0.0
 20
0.0
 30
0.0
  0
VERTEX
  5
1F36
330
1F35
100
AcDbEntity
  8
姿図
100
AcDbVertex
100
AcDb2dVertex
 10
2319.133206335297
 20
-344.3198589212657
 30
0.0
  0
VERTEX
  5
1F37
330
1F35
100
AcDbEntity
  8
姿図
100
AcDbVertex
100
AcDb2dVertex
 10
2328.284757984606
 20
-378.6551963778652
 30
0.0
  0
VERTEX
  5
1F38
330
1F35
100
AcDbEntity
  8
姿図
100
AcDbVertex
100
AcDb2dVertex
 10
2333.775964581823
 20
-374.7735383917529
 30
0.0
  0
VERTEX
  5
1F39
330
1F35
100
AcDbEntity
  8
姿図
100
AcDbVertex
100
AcDb2dVertex
 10
2322.888360415157
 20
-342.2052593118928
 30
0.0
  0
SEQEND
  5
1F3A
330
1F35
100
AcDbEntity
  8
姿図
  0
POLYLINE
  5
1F3B
330
18
100
AcDbEntity
  8
姿図
100
AcDb2dPolyline
 66
     1
 10
0.0
 20
0.0
 30
0.0
  0
VERTEX
  5
1F3C
330
1F3B
100
AcDbEntity
  8
姿図
100
AcDbVertex
100
AcDb2dVertex
 10
2316.482136456828
 20
-390.0162944681428
 30
0.0
  0
VERTEX
  5
1F3D
330
1F3B
100
AcDbEntity
  8
姿図
100
AcDbVertex
100
AcDb2dVertex
 10
2316.230231074879
 20
-383.7048795375881
 30
0.0
  0
VERTEX
  5
1F3E
330
1F3B
100
AcDbEntity
  8
姿図
100
AcDbVertex
100
AcDb2dVertex
 10
2315.472585675577
 20
-346.0869172980051
 30
0.0
  0
VERTEX
  5
1F3F
330
1F3B
100
AcDbEntity
  8
姿図
100
AcDbVertex
100
AcDb2dVertex
 10
2314.840892967245
 20
-346.4656021938349
 30
0.0
  0
VERTEX
  5
1F40
330
1F3B
100
AcDbEntity
  8
姿図
100
AcDbVertex
100
AcDb2dVertex
 10
2314.462208071411
 20
-359.9727191643247
 30
0.0
  0
VERTEX
  5
1F41
330
1F3B
100
AcDbEntity
  8
姿図
100
AcDbVertex
100
AcDb2dVertex
 10
2315.472585675577
 20
-405.417249329253
 30
0.0
  0
VERTEX
  5
1F42
330
1F3B
100
AcDbEntity
  8
姿図
100
AcDbVertex
100
AcDb2dVertex
 10
2238.974653817939
 20
-404.7855566209213
 30
0.0
  0
VERTEX
  5
1F43
330
1F3B
100
AcDbEntity
  8
姿図
100
AcDbVertex
100
AcDb2dVertex
 10
2239.353476517587
 20
-359.8466286695325
 30
0.0
  0
VERTEX
  5
1F44
330
1F3B
100
AcDbEntity
  8
姿図
100
AcDbVertex
100
AcDb2dVertex
 10
2241.120810501962
 20
-345.708232402168
 30
0.0
  0
VERTEX
  5
1F45
330
1F3B
100
AcDbEntity
  8
姿図
100
AcDbVertex
100
AcDb2dVertex
 10
2237.081229338772
 20
-343.6885796243946
 30
0.0
  0
VERTEX
  5
1F46
330
1F3B
100
AcDbEntity
  8
姿図
100
AcDbVertex
100
AcDb2dVertex
 10
2227.61369353148
 20
-376.6358192077237
 30
0.0
  0
SEQEND
  5
1F47
330
1F3B
100
AcDbEntity
  8
姿図
  0
LINE
  5
1F48
330
18
100
AcDbEntity
  8
姿図
100
AcDbLine
 10
2326.580675953352
 20
-390.5214832702254
 30
0.0
 11
2348.41954965127
 21
-379.0338812736986
 31
0.0
  0
LINE
  5
1F49
330
18
100
AcDbEntity
  8
姿図
100
AcDbLine
 10
2326.833683765854
 20
-429.9063660827264
 30
0.0
 11
2348.798234547103
 21
-417.7878982007818
 31
0.0
  0
SPLINE
  5
1F4A
330
18
100
AcDbEntity
  8
姿図
100
AcDbSpline
210
0.0
220
0.0
230
1.0
 70
     8
 71
     3
 72
    26
 73
    22
 74
     0
 42
0.000000001
 43
0.0000000001
 40
0.0
 40
0.0
 40
0.0
 40
0.0
 40
1.0
 40
1.0
 40
1.0
 40
2.0
 40
2.0
 40
2.0
 40
3.0
 40
3.0
 40
3.0
 40
4.0
 40
4.0
 40
4.0
 40
5.0
 40
5.0
 40
5.0
 40
6.0
 40
6.0
 40
6.0
 40
7.0
 40
7.0
 40
7.0
 40
7.0
 10
2315.472585675577
 20
-405.417249329253
 30
0.0
 10
2315.472585675577
 20
-405.417249329253
 30
0.0
 10
2316.355908158214
 20
-402.6396755445307
 30
0.0
 10
2316.355908158214
 20
-402.6396755445307
 30
0.0
 10
2316.355908158214
 20
-402.6396755445307
 30
0.0
 10
2316.482136456828
 20
-390.0162944681428
 30
0.0
 10
2316.482136456828
 20
-390.0162944681428
 30
0.0
 10
2316.482136456828
 20
-390.0162944681428
 30
0.0
 10
2326.580675953352
 20
-390.5214832702254
 30
0.0
 10
2326.580675953352
 20
-390.5214832702254
 30
0.0
 10
2326.580675953352
 20
-390.5214832702254
 30
0.0
 10
2326.833683765854
 20
-429.9063660827264
 30
0.0
 10
2326.833683765854
 20
-429.9063660827264
 30
0.0
 10
2326.833683765854
 20
-429.9063660827264
 30
0.0
 10
2328.853060935992
 20
-430.2850509785598
 30
0.0
 10
2328.853060935992
 20
-430.2850509785598
 30
0.0
 10
2328.853060935992
 20
-430.2850509785598
 30
0.0
 10
2345.515747567938
 20
-430.6637358743933
 30
0.0
 10
2345.515747567938
 20
-430.6637358743933
 30
0.0
 10
2345.515747567938
 20
-430.6637358743933
 30
0.0
 10
2349.050691144323
 20
-430.5372319681405
 30
0.0
 10
2349.429376040157
 20
-426.7501074021707
 30
0.0
  0
SPLINE
  5
1F4B
330
18
100
AcDbEntity
  8
姿図
100
AcDbSpline
210
0.0
220
0.0
230
1.0
 70
     8
 71
     3
 72
    11
 73
     7
 74
     0
 42
0.000000001
 43
0.0000000001
 40
0.0
 40
0.0
 40
0.0
 40
0.0
 40
1.0
 40
1.0
 40
1.0
 40
2.0
 40
2.0
 40
2.0
 40
2.0
 10
2229.128433114813
 20
-338.6393098761287
 30
0.0
 10
2229.128433114813
 20
-338.6393098761287
 30
0.0
 10
2218.903665319675
 20
-370.8290418639767
 30
0.0
 10
2218.903665319675
 20
-370.8290418639767
 30
0.0
 10
2218.903665319675
 20
-370.8290418639767
 30
0.0
 10
2218.398338713771
 20
-372.5959624368911
 30
0.0
 10
2221.680550085297
 20
-371.965096551477
 30
0.0
  0
POLYLINE
  5
1F4C
330
18
100
AcDbEntity
  8
姿図
100
AcDb2dPolyline
 66
     1
 10
0.0
 20
0.0
 30
0.0
  0
VERTEX
  5
1F4D
330
1F4C
100
AcDbEntity
  8
姿図
100
AcDbVertex
100
AcDb2dVertex
 10
2231.274589798839
 20
-339.5229079664054
 30
0.0
  0
VERTEX
  5
1F4E
330
1F4C
100
AcDbEntity
  8
姿図
100
AcDbVertex
100
AcDb2dVertex
 10
2221.680550085297
 20
-371.965096551477
 30
0.0
  0
VERTEX
  5
1F4F
330
1F4C
100
AcDbEntity
  8
姿図
100
AcDbVertex
100
AcDb2dVertex
 10
2225.46753684745
 20
-374.9945757181444
 30
0.0
  0
SEQEND
  5
1F50
330
1F4C
100
AcDbEntity
  8
姿図
  0
SPLINE
  5
1F51
330
18
100
AcDbEntity
  8
姿図
100
AcDbSpline
210
0.0
220
0.0
230
1.0
 70
     8
 71
     3
 72
    17
 73
    13
 74
     0
 42
0.000000001
 43
0.0000000001
 40
0.0
 40
0.0
 40
0.0
 40
0.0
 40
1.0
 40
1.0
 40
1.0
 40
2.0
 40
2.0
 40
2.0
 40
3.0
 40
3.0
 40
3.0
 40
4.0
 40
4.0
 40
4.0
 40
4.0
 10
2238.848701126965
 20
-382.6950531486978
 30
0.0
 10
2237.207733245021
 20
-382.3163682528644
 30
0.0
 10
2227.61369353148
 20
-376.6358192077237
 30
0.0
 10
2227.61369353148
 20
-376.6358192077237
 30
0.0
 10
2226.351548349187
 20
-377.6461968118924
 30
0.0
 10
2225.341446352658
 20
-376.5095909091138
 30
0.0
 10
2225.341446352658
 20
-376.5095909091138
 30
0.0
 10
2225.341446352658
 20
-376.5095909091138
 30
0.0
 10
2234.304206769325
 20
-342.9312098327277
 30
0.0
 10
2234.304206769325
 20
-342.9312098327277
 30
0.0
 10
2234.304206769325
 20
-342.9312098327277
 30
0.0
 10
2233.799017967242
 20
-344.6985438171028
 30
0.0
 10
2237.081229338772
 20
-343.6885796243946
 30
0.0
  0
LINE
  5
1F52
330
18
100
AcDbEntity
  8
姿図
100
AcDbLine
 10
2216.631280337031
 20
-366.1580436000873
 30
0.0
 11
2219.408440710301
 21
-369.3140266730038
 31
0.0
  0
SPLINE
  5
1F53
330
18
100
AcDbEntity
  8
姿図
100
AcDbSpline
210
0.0
220
0.0
230
1.0
 70
     8
 71
     3
 72
     8
 73
     4
 74
     0
 42
0.000000001
 43
0.0000000001
 40
0.0
 40
0.0
 40
0.0
 40
0.0
 40
1.0
 40
1.0
 40
1.0
 40
1.0
 10
2239.100744312728
 20
-389.8906173848113
 30
0.0
 10
2238.595968922106
 20
-389.8906173848113
 30
0.0
 10
2229.507255814464
 20
-390.142798374392
 30
0.0
 10
2229.507255814464
 20
-390.142798374392
 30
0.0
  0
SPLINE
  5
1F54
330
18
100
AcDbEntity
  8
姿図
100
AcDbSpline
210
0.0
220
0.0
230
1.0
 70
     8
 71
     3
 72
    20
 73
    16
 74
     0
 42
0.000000001
 43
0.0000000001
 40
0.0
 40
0.0
 40
0.0
 40
0.0
 40
1.0
 40
1.0
 40
1.0
 40
2.0
 40
2.0
 40
2.0
 40
3.0
 40
3.0
 40
3.0
 40
4.0
 40
4.0
 40
4.0
 40
5.0
 40
5.0
 40
5.0
 40
5.0
 10
2228.118468922105
 20
-389.7638378709194
 30
0.0
 10
2228.118468922105
 20
-389.7638378709194
 30
0.0
 10
2229.507255814464
 20
-390.142798374392
 30
0.0
 10
2229.507255814464
 20
-390.142798374392
 30
0.0
 10
2229.507255814464
 20
-390.142798374392
 30
0.0
 10
2229.507255814464
 20
-428.896539693836
 30
0.0
 10
2229.507255814464
 20
-428.896539693836
 30
0.0
 10
2229.507255814464
 20
-428.896539693836
 30
0.0
 10
2227.992378427313
 20
-429.5276811868929
 30
0.0
 10
2227.992378427313
 20
-429.5276811868929
 30
0.0
 10
2227.992378427313
 20
-429.5276811868929
 30
0.0
 10
2222.311829382173
 20
-429.5276811868929
 30
0.0
 10
2215.495225649531
 20
-429.5276811868929
 30
0.0
 10
2208.678621916894
 20
-429.5276811868929
 30
0.0
 10
2208.29993702106
 20
-426.4979264125863
 30
0.0
 10
2208.29993702106
 20
-426.4979264125863
 30
0.0
  0
POLYLINE
  5
1F55
330
18
100
AcDbEntity
  8
姿図
100
AcDb2dPolyline
 66
     1
 10
0.0
 20
0.0
 30
0.0
  0
VERTEX
  5
1F56
330
1F55
100
AcDbEntity
  8
姿図
100
AcDbVertex
100
AcDb2dVertex
 10
2209.18339730752
 20
-376.6358192077237
 30
0.0
  0
VERTEX
  5
1F57
330
1F55
100
AcDbEntity
  8
姿図
100
AcDbVertex
100
AcDb2dVertex
 10
2210.067271005435
 20
-378.6551963778652
 30
0.0
  0
VERTEX
  5
1F58
330
1F55
100
AcDbEntity
  8
姿図
100
AcDbVertex
100
AcDb2dVertex
 10
2228.118468922105
 20
-389.7638378709194
 30
0.0
  0
VERTEX
  5
1F59
330
1F55
100
AcDbEntity
  8
姿図
100
AcDbVertex
100
AcDb2dVertex
 10
2228.87597651759
 20
-428.7700357875869
 30
0.0
  0
VERTEX
  5
1F5A
330
1F55
100
AcDbEntity
  8
姿図
100
AcDbVertex
100
AcDb2dVertex
 10
2209.814676604394
 20
-417.030528409115
 30
0.0
  0
SEQEND
  5
1F5B
330
1F55
100
AcDbEntity
  8
姿図
  0
SPLINE
  5
1F5C
330
18
100
AcDbEntity
  8
姿図
100
AcDbSpline
210
0.0
220
0.0
230
1.0
 70
     8
 71
     3
 72
    65
 73
    61
 74
     0
 42
0.000000001
 43
0.0000000001
 40
0.0
 40
0.0
 40
0.0
 40
0.0
 40
1.0
 40
1.0
 40
1.0
 40
2.0
 40
2.0
 40
2.0
 40
3.0
 40
3.0
 40
3.0
 40
4.0
 40
4.0
 40
4.0
 40
5.0
 40
5.0
 40
5.0
 40
6.0
 40
6.0
 40
6.0
 40
7.0
 40
7.0
 40
7.0
 40
8.0
 40
8.0
 40
8.0
 40
9.0
 40
9.0
 40
9.0
 40
10.0
 40
10.0
 40
10.0
 40
11.0
 40
11.0
 40
11.0
 40
12.0
 40
12.0
 40
12.0
 40
13.0
 40
13.0
 40
13.0
 40
14.0
 40
14.0
 40
14.0
 40
15.0
 40
15.0
 40
15.0
 40
16.0
 40
16.0
 40
16.0
 40
17.0
 40
17.0
 40
17.0
 40
18.0
 40
18.0
 40
18.0
 40
19.0
 40
19.0
 40
19.0
 40
20.0
 40
20.0
 40
20.0
 40
20.0
 10
2338.951324824881
 20
-328.2879003709199
 30
0.0
 10
2338.951324824881
 20
-328.2879003709199
 30
0.0
 10
2346.02093637002
 20
-331.8227061434914
 30
0.0
 10
2346.02093637002
 20
-331.8227061434914
 30
0.0
 10
2346.02093637002
 20
-331.8227061434914
 30
0.0
 10
2346.651802255438
 20
-332.580213738976
 30
0.0
 10
2346.651802255438
 20
-332.580213738976
 30
0.0
 10
2346.651802255438
 20
-332.580213738976
 30
0.0
 10
2348.040313540158
 20
-352.9035210306424
 30
0.0
 10
2348.040313540158
 20
-352.9035210306424
 30
0.0
 10
2348.040313540158
 20
-352.9035210306424
 30
0.0
 10
2348.923911630439
 20
-419.0504567945313
 30
0.0
 10
2348.923911630439
 20
-419.0504567945313
 30
0.0
 10
2348.923911630439
 20
-419.0504567945313
 30
0.0
 10
2349.555053123492
 20
-429.1489962910596
 30
0.0
 10
2349.555053123492
 20
-429.1489962910596
 30
0.0
 10
2349.555053123492
 20
-433.3145301452236
 30
0.0
 10
2344.631873870022
 20
-433.3145301452236
 30
0.0
 10
2344.631873870022
 20
-433.3145301452236
 30
0.0
 10
2344.631873870022
 20
-433.3145301452236
 30
0.0
 10
2212.339242576615
 20
-432.0519715514742
 30
0.0
 10
2212.339242576615
 20
-432.0519715514742
 30
0.0
 10
2212.339242576615
 20
-432.0519715514742
 30
0.0
 10
2207.921252125227
 20
-432.0527983743918
 30
0.0
 10
2208.29993702106
 20
-427.0031152146725
 30
0.0
 10
2208.29993702106
 20
-427.0031152146725
 30
0.0
 10
2209.940904903008
 20
-417.4092133049485
 30
0.0
 10
2209.940904903008
 20
-417.4092133049485
 30
0.0
 10
2209.940904903008
 20
-417.4092133049485
 30
0.0
 10
2209.940904903008
 20
-416.146654711199
 30
0.0
 10
2209.940904903008
 20
-416.146654711199
 30
0.0
 10
2209.940904903008
 20
-416.146654711199
 30
0.0
 10
2208.931216317935
 20
-378.4030153882809
 30
0.0
 10
2208.931216317935
 20
-378.4030153882809
 30
0.0
 10
2208.931216317935
 20
-378.4030153882809
 30
0.0
 10
2209.18339730752
 20
-376.6358192077237
 30
0.0
 10
2209.18339730752
 20
-376.6358192077237
 30
0.0
 10
2209.18339730752
 20
-376.6358192077237
 30
0.0
 10
2211.32955399155
 20
-367.0419172980032
 30
0.0
 10
2211.32955399155
 20
-367.0419172980032
 30
0.0
 10
2211.32955399155
 20
-367.0419172980032
 30
0.0
 10
2210.950869095716
 20
-366.1580436000873
 30
0.0
 10
2210.950869095716
 20
-366.1580436000873
 30
0.0
 10
2210.950869095716
 20
-366.1580436000873
 30
0.0
 10
2216.631280337031
 20
-366.1580436000873
 30
0.0
 10
2216.631280337031
 20
-366.1580436000873
 30
0.0
 10
2216.631280337031
 20
-366.1580436000873
 30
0.0
 10
2228.623657724188
 20
-336.9980663865458
 30
0.0
 10
2228.623657724188
 20
-336.9980663865458
 30
0.0
 10
2228.623657724188
 20
-336.9980663865458
 30
0.0
 10
2229.507255814464
 20
-338.1341210740461
 30
0.0
 10
2229.507255814464
 20
-338.1341210740461
 30
0.0
 10
2229.507255814464
 20
-338.1341210740461
 30
0.0
 10
2228.118882333562
 20
-339.396817471617
 30
0.0
 10
2231.274589798839
 20
-339.5229079664054
 30
0.0
 10
2231.274589798839
 20
-339.5229079664054
 30
0.0
 10
2234.935072654742
 20
-342.0476117424473
 30
0.0
 10
2234.935072654742
 20
-342.0476117424473
 30
0.0
 10
2234.935072654742
 20
-342.0476117424473
 30
0.0
 10
2234.304206769325
 20
-342.9312098327277
 30
0.0
 10
2234.304206769325
 20
-342.9312098327277
 30
0.0
  0
ELLIPSE
  5
1F5D
330
18
100
AcDbEntity
  8
姿図
100
AcDbEllipse
 10
2281.516070918632
 20
-289.8809423631096
 30
0.0
 11
0.5702322048611111
 21
-0.0026871744791667
 31
0.0
210
0.0
220
0.0
230
1.0
 40
0.4839300952275917
 41
0.0
 42
6.283185307179586
  0
ELLIPSE
  5
1F5E
330
18
100
AcDbEntity
  8
姿図
100
AcDbEllipse
 10
2281.515657507175
 20
-289.8808734611989
 30
0.0
 11
1.282264539930555
 21
-0.005925564236111101
 31
0.0
210
0.0
220
0.0
230
1.0
 40
0.4598599133070445
 41
0.0
 42
6.283185307179586
  0
ELLIPSE
  5
1F5F
330
18
100
AcDbEntity
  8
姿図
100
AcDbEllipse
 10
2281.515244095714
 20
-289.8973410176218
 30
0.0
 11
1.852083333333331
 21
-0.0083371310763889
 31
0.0
210
0.0
220
0.0
230
1.0
 40
0.4364209968497209
 41
0.0
 42
6.283185307179586
  0
ELLIPSE
  5
1F60
330
18
100
AcDbEntity
  8
姿図
100
AcDbEllipse
 10
2309.161170745022
 20
-297.4549158874138
 30
0.0
 11
0.5702322048611106
 21
-0.0025493706597222
 31
0.0
210
0.0
220
0.0
230
1.0
 40
0.4839284599885143
 41
0.0
 42
6.283185307179586
  0
ELLIPSE
  5
1F61
330
18
100
AcDbEntity
  8
姿図
100
AcDbEllipse
 10
2309.160895137379
 20
-297.4548469855031
 30
0.0
 11
1.28212673611111
 21
-0.0059255642361111
 31
0.0
210
0.0
220
0.0
230
1.0
 40
0.4599098280893984
 41
0.0
 42
6.283185307179586
  0
ELLIPSE
  5
1F62
330
18
100
AcDbEntity
  8
姿図
100
AcDbEllipse
 10
2309.160481725922
 20
-297.4713145419296
 30
0.0
 11
1.851945529513888
 21
-0.0083371310763889
 31
0.0
210
0.0
220
0.0
230
1.0
 40
0.4363793978270202
 41
0.0
 42
6.283185307179586
  0
ELLIPSE
  5
1F63
330
18
100
AcDbEntity
  8
姿図
100
AcDbEllipse
 10
2252.336456660819
 20
-296.9638519768228
 30
0.0
 11
0.5703011067708335
 21
-0.00248046875
 31
0.0
210
0.0
220
0.0
230
1.0
 40
0.4839915645259175
 41
0.0
 42
6.283185307179586
  0
ELLIPSE
  5
1F64
330
18
100
AcDbEntity
  8
姿図
100
AcDbEllipse
 10
2252.336525562729
 20
-296.9638519768228
 30
0.0
 11
1.282264539930555
 21
-0.005925564236111101
 31
0.0
210
0.0
220
0.0
230
1.0
 40
0.4599678698299705
 41
0.0
 42
6.283185307179586
  0
ELLIPSE
  5
1F65
330
18
100
AcDbEntity
  8
姿図
100
AcDbEllipse
 10
2252.336112151272
 20
-296.9801817294278
 30
0.0
 11
1.852083333333331
 21
-0.0083371310763889
 31
0.0
210
0.0
220
0.0
230
1.0
 40
0.4363465935727408
 41
0.0
 42
6.283185307179586
  0
ELLIPSE
  5
1F66
330
18
100
AcDbEntity
  8
姿図
100
AcDbEllipse
 10
2249.799143835299
 20
-312.0980875454002
 30
0.0
 11
0.6172233072916665
 21
-0.0029627821180556
 31
0.0
210
0.0
220
0.0
230
1.0
 40
0.4852651919265604
 41
0.0
 42
6.283185307179586
  0
ELLIPSE
  5
1F67
330
18
100
AcDbEntity
  8
姿図
100
AcDbEllipse
 10
2249.799281639116
 20
-312.0980875454002
 30
0.0
 11
1.388924696180554
 21
-0.0062700737847222
 31
0.0
210
0.0
220
0.0
230
1.0
 40
0.4603135481629941
 41
0.0
 42
6.283185307179586
  0
ELLIPSE
  5
1F68
330
18
100
AcDbEntity
  8
姿図
100
AcDbEllipse
 10
2249.799143835299
 20
-312.1162087476582
 30
0.0
 11
2.006285807291666
 21
-0.0092328559027778
 31
0.0
210
0.0
220
0.0
230
1.0
 40
0.4364996823309923
 41
0.0
 42
6.283185307179586
  0
ELLIPSE
  5
1F69
330
18
100
AcDbEntity
  8
姿図
100
AcDbEllipse
 10
2308.241881465503
 20
-312.3867865471361
 30
0.0
 11
0.6174989149305555
 21
-0.0028249782986111
 31
0.0
210
0.0
220
0.0
230
1.0
 40
0.483484941307208
 41
0.0
 42
6.283185307179586
  0
ELLIPSE
  5
1F6A
330
18
100
AcDbEntity
  8
姿図
100
AcDbEllipse
 10
2308.242157073146
 20
-312.3867176452254
 30
0.0
 11
1.388649088541666
 21
-0.006752387152777799
 31
0.0
210
0.0
220
0.0
230
1.0
 40
0.4604547136132913
 41
0.0
 42
6.283185307179586
  0
ELLIPSE
  5
1F6B
330
18
100
AcDbEntity
  8
姿図
100
AcDbEllipse
 10
2308.242157073146
 20
-312.405045553212
 30
0.0
 11
2.006285807291666
 21
-0.0092328559027778
 31
0.0
210
0.0
220
0.0
230
1.0
 40
0.436430997737425
 41
0.0
 42
6.283185307179586
  0
ELLIPSE
  5
1F6C
330
18
100
AcDbEntity
  8
姿図
100
AcDbEllipse
 10
2278.347823305784
 20
-320.2876996330738
 30
0.0
 11
0.6172233072916669
 21
-0.003169487847222201
 31
0.0
210
0.0
220
0.0
230
1.0
 40
0.4838132056250857
 41
0.0
 42
6.283185307179586
  0
ELLIPSE
  5
1F6D
330
18
100
AcDbEntity
  8
姿図
100
AcDbEllipse
 10
2278.34699648287
 20
-320.2879752407093
 30
0.0
 11
1.388649088541666
 21
-0.006752387152777799
 31
0.0
210
0.0
220
0.0
230
1.0
 40
0.4602553052175434
 41
0.0
 42
6.283185307179586
  0
ELLIPSE
  5
1F6E
330
18
100
AcDbEntity
  8
姿図
100
AcDbEllipse
 10
2278.347823305784
 20
-320.3058897372389
 30
0.0
 11
2.006285807291666
 21
-0.009370659722222199
 31
0.0
210
0.0
220
0.0
230
1.0
 40
0.4362254539308345
 41
0.0
 42
6.283185307179586
  0
ELLIPSE
  5
1F6F
330
18
100
AcDbEntity
  8
姿図
100
AcDbEllipse
 10
2279.745498544501
 20
-305.6187586608498
 30
0.0
 11
38.27149685329861
 21
1.009964192708333
 31
0.0
210
0.0
220
0.0
230
1.0
 40
0.4663398150492613
 41
0.0
 42
6.283185307179586
  0
ELLIPSE
  5
1F70
330
18
100
AcDbEntity
  8
姿図
100
AcDbEllipse
 10
2279.896049217242
 20
-305.4036468986956
 30
0.0
 11
37.38727864583333
 21
0.8014670138888887
 31
0.0
210
0.0
220
0.0
230
1.0
 40
0.4642546395591732
 41
0.0
 42
6.283185307179586
  0
ELLIPSE
  5
1F71
330
18
100
AcDbEntity
  8
姿図
100
AcDbEllipse
 10
2280.058795528006
 20
-305.0281314907111
 30
0.0
 11
36.76537000868056
 21
0.8994455295138891
 31
0.0
210
0.0
220
0.0
230
1.0
 40
0.4554470933186729
 41
0.0
 42
6.283185307179586
  0
ELLIPSE
  5
1F72
330
18
100
AcDbEntity
  8
姿図
100
AcDbEllipse
 10
2280.761043791892
 20
-305.3933116122384
 30
0.0
 11
28.02144205729166
 21
0.3741373697916666
 31
0.0
210
0.0
220
0.0
230
1.0
 40
0.4627108377680501
 41
0.0
 42
6.283185307179586
  0
ELLIPSE
  5
1F73
330
18
100
AcDbEntity
  8
姿図
100
AcDbEllipse
 10
2280.058795528006
 20
-305.0463215948762
 30
0.0
 11
36.76537000868056
 21
0.8994455295138891
 31
0.0
210
0.0
220
0.0
230
1.0
 40
0.4554470933186729
 41
0.0
 42
6.283185307179586
  0
ELLIPSE
  5
1F74
330
18
100
AcDbEntity
  8
姿図
100
AcDbEllipse
 10
2279.81770774589
 20
-305.1050949238702
 30
0.0
 11
30.24525119357639
 21
0.5350233289930556
 31
0.0
210
0.0
220
0.0
230
1.0
 40
0.4650686403493897
 41
0.0
 42
6.283185307179586
  0
TEXT
  5
1F7B
330
18
100
AcDbEntity
  8
文字
100
AcDbText
 10
2171.293696641718
 20
-476.5801782537319
 30
0.0
 40
15.0
  1
MOP-100A/MC/FLF/N・M
 41
0.7
100
AcDbText
  0
ENDSEC
  0
SECTION
  2
OBJECTS
  0
DICTIONARY
  5
C
330
0
100
AcDbDictionary
281
     1
  3
ACAD_GROUP
350
D
  3
ACAD_IMAGE_VARS
350
1FD4
  3
ACAD_LAYOUT
350
617
  3
ACAD_MLINESTYLE
350
E
  3
ACAD_PLOTSETTINGS
350
618
  3
ACAD_PLOTSTYLENAME
350
615
  3
ACAD_SCALELIST
350
AD9
  3
AcadDim
350
117B
  3
AcDbVariableDictionary
350
6DE
  3
APPDATA
350
1FD2
  3
DWGPROPS
350
1FD5
  0
DICTIONARY
  5
B1B
330
8
100
AcDbDictionary
280
     1
281
     1
  0
DICTIONARY
  5
9EB
330
2
100
AcDbDictionary
280
     1
281
     1
  3
ACAD_LAYERFILTERS
360
112E
  3
ACAD_LAYERSTATES
360
9EC
  3
ACLYDICTIONARY
360
112D
  0
DICTIONARY
  5
B03
330
F
100
AcDbDictionary
280
     1
281
     1
  3
ADSK_XREC_LAYER_RECONCILED
360
B04
  0
DICTIONARY
  5
B11
330
2F4
100
AcDbDictionary
280
     1
281
     1
  3
ADSK_XREC_LAYER_RECONCILED
360
B12
  0
DICTIONARY
  5
F52
330
F51
100
AcDbDictionary
280
     1
281
     1
  3
ADSK_XREC_LAYER_RECONCILED
360
F53
  0
DICTIONARY
  5
D
102
{ACAD_REACTORS
330
C
102
}
330
C
100
AcDbDictionary
281
     1
  0
RASTERVARIABLES
  5
1FD4
102
{ACAD_REACTORS
330
C
102
}
330
C
100
AcDbRasterVariables
 90
        0
 70
     1
 71
     1
 72
     0
  0
DICTIONARY
  5
617
102
{ACAD_REACTORS
330
C
102
}
330
C
100
AcDbDictionary
281
     1
  3
Model
350
619
  3
ﾚｲｱｳﾄ1
350
61A
  0
DICTIONARY
  5
E
102
{ACAD_REACTORS
330
C
102
}
330
C
100
AcDbDictionary
281
     1
  3
STANDARD
350
1B
  0
DICTIONARY
  5
618
102
{ACAD_REACTORS
330
C
102
}
330
C
100
AcDbDictionary
281
     1
  0
ACDBDICTIONARYWDFLT
  5
615
102
{ACAD_REACTORS
330
C
102
}
330
C
100
AcDbDictionary
281
     1
  3
Normal
350
616
100
AcDbDictionaryWithDefault
340
616
  0
DICTIONARY
  5
AD9
102
{ACAD_REACTORS
330
C
102
}
330
C
100
AcDbDictionary
281
     1
  3
A0
350
ADA
  3
A1
350
ADB
  3
A2
350
ADC
  3
A3
350
ADD
  3
A4
350
ADE
  3
A5
350
ADF
  3
A6
350
AE0
  3
A7
350
AE1
  3
A8
350
AE2
  3
A9
350
AE3
  3
B0
350
AE4
  3
B1
350
AE5
  3
B2
350
AE6
  3
B3
350
AE7
  3
B4
350
AE8
  3
B5
350
AE9
  3
B6
350
AEA
  3
B7
350
AEB
  3
B8
350
AEC
  3
B9
350
AED
  3
C0
350
AEE
  3
C1
350
AEF
  3
C2
350
AF0
  3
C3
350
AF1
  3
C4
350
AF2
  3
C5
350
AF3
  3
C6
350
AF4
  3
C7
350
AF5
  3
C8
350
AF6
  3
C9
350
AF7
  3
D0
350
AF8
  3
D1
350
AF9
  3
D2
350
AFA
  0
XRECORD
  5
117B
102
{ACAD_REACTORS
330
C
102
}
330
C
100
AcDbXrecord
280
     1
 90
   990106
  3

 60
     0
 61
     0
 62
     4
 63
     4
 64
     1
 65
     0
 66
     0
 67
     2
 68
     1
 69
     0
 70
     0
 71
     0
 72
     0
 40
0.0
170
     2
340
0
  0
DICTIONARY
  5
6DE
102
{ACAD_REACTORS
330
C
102
}
330
C
100
AcDbDictionary
281
     1
  3
DIMASSOC
350
6DF
  3
INDEXCTL
350
B35
  3
PROJECTNAME
350
6E0
  3
SORTENTS
350
B34
  0
DICTIONARY
  5
1FD2
102
{ACAD_REACTORS
330
C
102
}
330
C
100
AcDbDictionary
281
     1
  0
XRECORD
  5
1FD5
102
{ACAD_REACTORS
330
C
102
}
330
C
100
AcDbXrecord
280
     1
  1
DWGPROPS COOKIE
  2

  3

  4

  6

  7

  8
ModuleX
  9

300
=
301
=
302
=
303
=
304
=
305
=
306
=
307
=
308
=
309
=
 40
0.0
 41
2457592.337316771
 42
2457963.309560382
  1

 90
        0
  0
DICTIONARY
  5
112E
102
{ACAD_REACTORS
330
9EB
102
}
330
9EB
100
AcDbDictionary
281
     1
  0
DICTIONARY
  5
9EC
102
{ACAD_REACTORS
330
9EB
102
}
330
9EB
100
AcDbDictionary
281
     1
  0
DICTIONARY
  5
112D
102
{ACAD_REACTORS
330
9EB
102
}
330
9EB
100
AcDbDictionary
281
     1
1001
ACAD
1000
<All
  0
XRECORD
  5
B04
102
{ACAD_REACTORS
330
B03
102
}
330
B03
100
AcDbXrecord
280
     1
290
     1
  0
XRECORD
  5
B12
102
{ACAD_REACTORS
330
B11
102
}
330
B11
100
AcDbXrecord
280
     1
290
     1
  0
XRECORD
  5
F53
102
{ACAD_REACTORS
330
F52
102
}
330
F52
100
AcDbXrecord
280
     1
290
     1
  0
LAYOUT
  5
619
102
{ACAD_REACTORS
330
617
102
}
330
617
100
AcDbPlotSettings
  1

  2
DocuCentre Color f360 2F
  4
A4
  6

 40
4.857749938964843
 41
4.942390441894531
 42
4.942413330078125
 43
4.857757568359375
 44
209.9733276367187
 45
297.0106506347656
 46
7.588972936385289
 47
8.10891374292214
 48
862.3746764606941
 49
115.5095663137795
140
1047.369894955599
141
386.5022414524469
142
1.0
143
1.0
 70
 11956
 72
     1
 73
     0
 74
     4
  7
spax form.ctb
 75
    16
147
1.0
148
-862.3746764606941
149
-115.5095663137795
100
AcDbLayout
  1
Model
 70
     1
 71
     0
 10
0.0
 20
0.0
 11
12.0
 21
9.0
 12
0.0
 22
0.0
 32
0.0
 14
2171.293696641718
 24
-476.5801782537319
 34
0.0
 15
2369.393696641718
 25
-287.7796267011702
 35
0.0
146
0.0
 13
0.0
 23
0.0
 33
0.0
 16
1.0
 26
0.0
 36
0.0
 17
0.0
 27
1.0
 37
0.0
 76
     0
330
18
331
AAC
1001
ACAD_PSEXT
1000
DocuCentre Color f360 2F
1000
FX DocuCentre Color f360
1000
192.168.6.107
1000

1070
     0
  0
LAYOUT
  5
61A
102
{ACAD_REACTORS
330
617
102
}
330
617
100
AcDbPlotSettings
  1

  2
Canon LASER SHOT LBP-750
  4

  6

 40
0.0
 41
0.0
 42
0.0
 43
0.0
 44
0.0
 45
0.0
 46
0.0
 47
0.0
 48
0.0
 49
0.0
140
0.0
141
0.0
142
1.0
143
1.0
 70
   688
 72
     0
 73
     0
 74
     5
  7
spax form.ctb
 75
    16
147
1.0
148
0.0
149
0.0
100
AcDbLayout
  1
ﾚｲｱｳﾄ1
 70
     0
 71
     1
 10
0.0
 20
0.0
 11
12.0
 21
9.0
 12
0.0
 22
0.0
 32
0.0
 14
1.000000000000000E+20
 24
1.000000000000000E+20
 34
1.000000000000000E+20
 15
-1.000000000000000E+20
 25
-1.000000000000000E+20
 35
-1.000000000000000E+20
146
0.0
 13
0.0
 23
0.0
 33
0.0
 16
1.0
 26
0.0
 36
0.0
 17
0.0
 27
1.0
 37
0.0
 76
     0
330
15
  0
MLINESTYLE
  5
1B
102
{ACAD_REACTORS
330
E
102
}
330
E
100
AcDbMlineStyle
  2
STANDARD
 70
     0
  3

 62
     0
 51
90.0
 52
90.0
 71
     2
 49
0.5
 62
   256
  6
BYLAYER
 49
-0.5
 62
   256
  6
BYLAYER
  0
ACDBPLACEHOLDER
  5
616
102
{ACAD_REACTORS
330
615
102
}
330
615
  0
SCALE
  5
ADA
102
{ACAD_REACTORS
330
AD9
102
}
330
AD9
100
AcDbScale
 70
     0
300
1:1
140
1.0
141
1.0
290
     1
1001
ACAD
1000
AcRTDxfName
1000
SCALE
1000
AcRTDxfName
1000
SCALE
1000
AcRTDxfName
1000
SCALE
1000
AcRTDxfName
1000
SCALE
1000
AcRTDxfName
1000
SCALE
1000
AcRTDxfName
1000
SCALE
  0
SCALE
  5
ADB
102
{ACAD_REACTORS
330
AD9
102
}
330
AD9
100
AcDbScale
 70
     0
300
1:2
140
1.0
141
2.0
290
     0
1001
ACAD
1000
AcRTDxfName
1000
SCALE
1000
AcRTDxfName
1000
SCALE
1000
AcRTDxfName
1000
SCALE
1000
AcRTDxfName
1000
SCALE
1000
AcRTDxfName
1000
SCALE
1000
AcRTDxfName
1000
SCALE
  0
SCALE
  5
ADC
102
{ACAD_REACTORS
330
AD9
102
}
330
AD9
100
AcDbScale
 70
     0
300
1:4
140
1.0
141
4.0
290
     0
1001
ACAD
1000
AcRTDxfName
1000
SCALE
1000
AcRTDxfName
1000
SCALE
1000
AcRTDxfName
1000
SCALE
1000
AcRTDxfName
1000
SCALE
1000
AcRTDxfName
1000
SCALE
1000
AcRTDxfName
1000
SCALE
  0
SCALE
  5
ADD
102
{ACAD_REACTORS
330
AD9
102
}
330
AD9
100
AcDbScale
 70
     0
300
1:5
140
1.0
141
5.0
290
     0
1001
ACAD
1000
AcRTDxfName
1000
SCALE
1000
AcRTDxfName
1000
SCALE
1000
AcRTDxfName
1000
SCALE
1000
AcRTDxfName
1000
SCALE
1000
AcRTDxfName
1000
SCALE
1000
AcRTDxfName
1000
SCALE
  0
SCALE
  5
ADE
102
{ACAD_REACTORS
330
AD9
102
}
330
AD9
100
AcDbScale
 70
     0
300
1:8
140
1.0
141
8.0
290
     0
1001
ACAD
1000
AcRTDxfName
1000
SCALE
1000
AcRTDxfName
1000
SCALE
1000
AcRTDxfName
1000
SCALE
1000
AcRTDxfName
1000
SCALE
1000
AcRTDxfName
1000
SCALE
1000
AcRTDxfName
1000
SCALE
  0
SCALE
  5
ADF
102
{ACAD_REACTORS
330
AD9
102
}
330
AD9
100
AcDbScale
 70
     0
300
1:10
140
1.0
141
10.0
290
     0
1001
ACAD
1000
AcRTDxfName
1000
SCALE
1000
AcRTDxfName
1000
SCALE
1000
AcRTDxfName
1000
SCALE
1000
AcRTDxfName
1000
SCALE
1000
AcRTDxfName
1000
SCALE
1000
AcRTDxfName
1000
SCALE
  0
SCALE
  5
AE0
102
{ACAD_REACTORS
330
AD9
102
}
330
AD9
100
AcDbScale
 70
     0
300
1:16
140
1.0
141
16.0
290
     0
1001
ACAD
1000
AcRTDxfName
1000
SCALE
1000
AcRTDxfName
1000
SCALE
1000
AcRTDxfName
1000
SCALE
1000
AcRTDxfName
1000
SCALE
1000
AcRTDxfName
1000
SCALE
1000
AcRTDxfName
1000
SCALE
  0
SCALE
  5
AE1
102
{ACAD_REACTORS
330
AD9
102
}
330
AD9
100
AcDbScale
 70
     0
300
1:20
140
1.0
141
20.0
290
     0
1001
ACAD
1000
AcRTDxfName
1000
SCALE
1000
AcRTDxfName
1000
SCALE
1000
AcRTDxfName
1000
SCALE
1000
AcRTDxfName
1000
SCALE
1000
AcRTDxfName
1000
SCALE
1000
AcRTDxfName
1000
SCALE
  0
SCALE
  5
AE2
102
{ACAD_REACTORS
330
AD9
102
}
330
AD9
100
AcDbScale
 70
     0
300
1:30
140
1.0
141
30.0
290
     0
1001
ACAD
1000
AcRTDxfName
1000
SCALE
1000
AcRTDxfName
1000
SCALE
1000
AcRTDxfName
1000
SCALE
1000
AcRTDxfName
1000
SCALE
1000
AcRTDxfName
1000
SCALE
1000
AcRTDxfName
1000
SCALE
  0
SCALE
  5
AE3
102
{ACAD_REACTORS
330
AD9
102
}
330
AD9
100
AcDbScale
 70
     0
300
1:40
140
1.0
141
40.0
290
     0
1001
ACAD
1000
AcRTDxfName
1000
SCALE
1000
AcRTDxfName
1000
SCALE
1000
AcRTDxfName
1000
SCALE
1000
AcRTDxfName
1000
SCALE
1000
AcRTDxfName
1000
SCALE
1000
AcRTDxfName
1000
SCALE
  0
SCALE
  5
AE4
102
{ACAD_REACTORS
330
AD9
102
}
330
AD9
100
AcDbScale
 70
     0
300
1:50
140
1.0
141
50.0
290
     0
1001
ACAD
1000
AcRTDxfName
1000
SCALE
1000
AcRTDxfName
1000
SCALE
1000
AcRTDxfName
1000
SCALE
1000
AcRTDxfName
1000
SCALE
1000
AcRTDxfName
1000
SCALE
1000
AcRTDxfName
1000
SCALE
  0
SCALE
  5
AE5
102
{ACAD_REACTORS
330
AD9
102
}
330
AD9
100
AcDbScale
 70
     0
300
1:100
140
1.0
141
100.0
290
     0
1001
ACAD
1000
AcRTDxfName
1000
SCALE
1000
AcRTDxfName
1000
SCALE
1000
AcRTDxfName
1000
SCALE
1000
AcRTDxfName
1000
SCALE
1000
AcRTDxfName
1000
SCALE
1000
AcRTDxfName
1000
SCALE
  0
SCALE
  5
AE6
102
{ACAD_REACTORS
330
AD9
102
}
330
AD9
100
AcDbScale
 70
     0
300
2:1
140
2.0
141
1.0
290
     0
1001
ACAD
1000
AcRTDxfName
1000
SCALE
1000
AcRTDxfName
1000
SCALE
1000
AcRTDxfName
1000
SCALE
1000
AcRTDxfName
1000
SCALE
1000
AcRTDxfName
1000
SCALE
1000
AcRTDxfName
1000
SCALE
  0
SCALE
  5
AE7
102
{ACAD_REACTORS
330
AD9
102
}
330
AD9
100
AcDbScale
 70
     0
300
4:1
140
4.0
141
1.0
290
     0
1001
ACAD
1000
AcRTDxfName
1000
SCALE
1000
AcRTDxfName
1000
SCALE
1000
AcRTDxfName
1000
SCALE
1000
AcRTDxfName
1000
SCALE
1000
AcRTDxfName
1000
SCALE
1000
AcRTDxfName
1000
SCALE
  0
SCALE
  5
AE8
102
{ACAD_REACTORS
330
AD9
102
}
330
AD9
100
AcDbScale
 70
     0
300
8:1
140
8.0
141
1.0
290
     0
1001
ACAD
1000
AcRTDxfName
1000
SCALE
1000
AcRTDxfName
1000
SCALE
1000
AcRTDxfName
1000
SCALE
1000
AcRTDxfName
1000
SCALE
1000
AcRTDxfName
1000
SCALE
1000
AcRTDxfName
1000
SCALE
  0
SCALE
  5
AE9
102
{ACAD_REACTORS
330
AD9
102
}
330
AD9
100
AcDbScale
 70
     0
300
10:1
140
10.0
141
1.0
290
     0
1001
ACAD
1000
AcRTDxfName
1000
SCALE
1000
AcRTDxfName
1000
SCALE
1000
AcRTDxfName
1000
SCALE
1000
AcRTDxfName
1000
SCALE
1000
AcRTDxfName
1000
SCALE
1000
AcRTDxfName
1000
SCALE
  0
SCALE
  5
AEA
102
{ACAD_REACTORS
330
AD9
102
}
330
AD9
100
AcDbScale
 70
     0
300
100:1
140
100.0
141
1.0
290
     0
1001
ACAD
1000
AcRTDxfName
1000
SCALE
1000
AcRTDxfName
1000
SCALE
1000
AcRTDxfName
1000
SCALE
1000
AcRTDxfName
1000
SCALE
1000
AcRTDxfName
1000
SCALE
1000
AcRTDxfName
1000
SCALE
  0
SCALE
  5
AEB
102
{ACAD_REACTORS
330
AD9
102
}
330
AD9
100
AcDbScale
 70
     0
300
1/128" = 1'-0"
140
0.0078125
141
12.0
290
     0
1001
ACAD
1000
AcRTDxfName
1000
SCALE
1000
AcRTDxfName
1000
SCALE
1000
AcRTDxfName
1000
SCALE
1000
AcRTDxfName
1000
SCALE
1000
AcRTDxfName
1000
SCALE
1000
AcRTDxfName
1000
SCALE
  0
SCALE
  5
AEC
102
{ACAD_REACTORS
330
AD9
102
}
330
AD9
100
AcDbScale
 70
     0
300
1/64" = 1'-0"
140
0.015625
141
12.0
290
     0
1001
ACAD
1000
AcRTDxfName
1000
SCALE
1000
AcRTDxfName
1000
SCALE
1000
AcRTDxfName
1000
SCALE
1000
AcRTDxfName
1000
SCALE
1000
AcRTDxfName
1000
SCALE
1000
AcRTDxfName
1000
SCALE
  0
SCALE
  5
AED
102
{ACAD_REACTORS
330
AD9
102
}
330
AD9
100
AcDbScale
 70
     0
300
1/32" = 1'-0"
140
0.03125
141
12.0
290
     0
1001
ACAD
1000
AcRTDxfName
1000
SCALE
1000
AcRTDxfName
1000
SCALE
1000
AcRTDxfName
1000
SCALE
1000
AcRTDxfName
1000
SCALE
1000
AcRTDxfName
1000
SCALE
1000
AcRTDxfName
1000
SCALE
  0
SCALE
  5
AEE
102
{ACAD_REACTORS
330
AD9
102
}
330
AD9
100
AcDbScale
 70
     0
300
1/16" = 1'-0"
140
0.0625
141
12.0
290
     0
1001
ACAD
1000
AcRTDxfName
1000
SCALE
1000
AcRTDxfName
1000
SCALE
1000
AcRTDxfName
1000
SCALE
1000
AcRTDxfName
1000
SCALE
1000
AcRTDxfName
1000
SCALE
1000
AcRTDxfName
1000
SCALE
  0
SCALE
  5
AEF
102
{ACAD_REACTORS
330
AD9
102
}
330
AD9
100
AcDbScale
 70
     0
300
3/32" = 1'-0"
140
0.09375
141
12.0
290
     0
1001
ACAD
1000
AcRTDxfName
1000
SCALE
1000
AcRTDxfName
1000
SCALE
1000
AcRTDxfName
1000
SCALE
1000
AcRTDxfName
1000
SCALE
1000
AcRTDxfName
1000
SCALE
1000
AcRTDxfName
1000
SCALE
  0
SCALE
  5
AF0
102
{ACAD_REACTORS
330
AD9
102
}
330
AD9
100
AcDbScale
 70
     0
300
1/8" = 1'-0"
140
0.125
141
12.0
290
     0
1001
ACAD
1000
AcRTDxfName
1000
SCALE
1000
AcRTDxfName
1000
SCALE
1000
AcRTDxfName
1000
SCALE
1000
AcRTDxfName
1000
SCALE
1000
AcRTDxfName
1000
SCALE
1000
AcRTDxfName
1000
SCALE
  0
SCALE
  5
AF1
102
{ACAD_REACTORS
330
AD9
102
}
330
AD9
100
AcDbScale
 70
     0
300
3/16" = 1'-0"
140
0.1875
141
12.0
290
     0
1001
ACAD
1000
AcRTDxfName
1000
SCALE
1000
AcRTDxfName
1000
SCALE
1000
AcRTDxfName
1000
SCALE
1000
AcRTDxfName
1000
SCALE
1000
AcRTDxfName
1000
SCALE
1000
AcRTDxfName
1000
SCALE
  0
SCALE
  5
AF2
102
{ACAD_REACTORS
330
AD9
102
}
330
AD9
100
AcDbScale
 70
     0
300
1/4" = 1'-0"
140
0.25
141
12.0
290
     0
1001
ACAD
1000
AcRTDxfName
1000
SCALE
1000
AcRTDxfName
1000
SCALE
1000
AcRTDxfName
1000
SCALE
1000
AcRTDxfName
1000
SCALE
1000
AcRTDxfName
1000
SCALE
1000
AcRTDxfName
1000
SCALE
  0
SCALE
  5
AF3
102
{ACAD_REACTORS
330
AD9
102
}
330
AD9
100
AcDbScale
 70
     0
300
3/8" = 1'-0"
140
0.375
141
12.0
290
     0
1001
ACAD
1000
AcRTDxfName
1000
SCALE
1000
AcRTDxfName
1000
SCALE
1000
AcRTDxfName
1000
SCALE
1000
AcRTDxfName
1000
SCALE
1000
AcRTDxfName
1000
SCALE
1000
AcRTDxfName
1000
SCALE
  0
SCALE
  5
AF4
102
{ACAD_REACTORS
330
AD9
102
}
330
AD9
100
AcDbScale
 70
     0
300
1/2" = 1'-0"
140
0.5
141
12.0
290
     0
1001
ACAD
1000
AcRTDxfName
1000
SCALE
1000
AcRTDxfName
1000
SCALE
1000
AcRTDxfName
1000
SCALE
1000
AcRTDxfName
1000
SCALE
1000
AcRTDxfName
1000
SCALE
1000
AcRTDxfName
1000
SCALE
  0
SCALE
  5
AF5
102
{ACAD_REACTORS
330
AD9
102
}
330
AD9
100
AcDbScale
 70
     0
300
3/4" = 1'-0"
140
0.75
141
12.0
290
     0
1001
ACAD
1000
AcRTDxfName
1000
SCALE
1000
AcRTDxfName
1000
SCALE
1000
AcRTDxfName
1000
SCALE
1000
AcRTDxfName
1000
SCALE
1000
AcRTDxfName
1000
SCALE
1000
AcRTDxfName
1000
SCALE
  0
SCALE
  5
AF6
102
{ACAD_REACTORS
330
AD9
102
}
330
AD9
100
AcDbScale
 70
     0
300
1" = 1'-0"
140
1.0
141
12.0
290
     0
1001
ACAD
1000
AcRTDxfName
1000
SCALE
1000
AcRTDxfName
1000
SCALE
1000
AcRTDxfName
1000
SCALE
1000
AcRTDxfName
1000
SCALE
1000
AcRTDxfName
1000
SCALE
1000
AcRTDxfName
1000
SCALE
  0
SCALE
  5
AF7
102
{ACAD_REACTORS
330
AD9
102
}
330
AD9
100
AcDbScale
 70
     0
300
1-1/2" = 1'-0"
140
1.5
141
12.0
290
     0
1001
ACAD
1000
AcRTDxfName
1000
SCALE
1000
AcRTDxfName
1000
SCALE
1000
AcRTDxfName
1000
SCALE
1000
AcRTDxfName
1000
SCALE
1000
AcRTDxfName
1000
SCALE
1000
AcRTDxfName
1000
SCALE
  0
SCALE
  5
AF8
102
{ACAD_REACTORS
330
AD9
102
}
330
AD9
100
AcDbScale
 70
     0
300
3" = 1'-0"
140
3.0
141
12.0
290
     0
1001
ACAD
1000
AcRTDxfName
1000
SCALE
1000
AcRTDxfName
1000
SCALE
1000
AcRTDxfName
1000
SCALE
1000
AcRTDxfName
1000
SCALE
1000
AcRTDxfName
1000
SCALE
1000
AcRTDxfName
1000
SCALE
  0
SCALE
  5
AF9
102
{ACAD_REACTORS
330
AD9
102
}
330
AD9
100
AcDbScale
 70
     0
300
6" = 1'-0"
140
6.0
141
12.0
290
     0
1001
ACAD
1000
AcRTDxfName
1000
SCALE
1000
AcRTDxfName
1000
SCALE
1000
AcRTDxfName
1000
SCALE
1000
AcRTDxfName
1000
SCALE
1000
AcRTDxfName
1000
SCALE
1000
AcRTDxfName
1000
SCALE
  0
SCALE
  5
AFA
102
{ACAD_REACTORS
330
AD9
102
}
330
AD9
100
AcDbScale
 70
     0
300
1'-0" = 1'-0"
140
12.0
141
12.0
290
     0
1001
ACAD
1000
AcRTDxfName
1000
SCALE
1000
AcRTDxfName
1000
SCALE
1000
AcRTDxfName
1000
SCALE
1000
AcRTDxfName
1000
SCALE
1000
AcRTDxfName
1000
SCALE
1000
AcRTDxfName
1000
SCALE
  0
DICTIONARYVAR
  5
6DF
102
{ACAD_REACTORS
330
6DE
102
}
330
6DE
100
DictionaryVariables
280
     0
  1
1
  0
DICTIONARYVAR
  5
B35
102
{ACAD_REACTORS
330
6DE
102
}
330
6DE
100
DictionaryVariables
280
     0
  1
0
  0
DICTIONARYVAR
  5
6E0
102
{ACAD_REACTORS
330
6DE
102
}
330
6DE
100
DictionaryVariables
280
     0
  1

  0
DICTIONARYVAR
  5
B34
102
{ACAD_REACTORS
330
6DE
102
}
330
6DE
100
DictionaryVariables
280
     0
  1
127
  0
ENDSEC
  0
EOF
