  0
SECTION
  2
HEADER
  9
$ACADVER
  1
AC1015
  9
$ACADMAINTVER
 70
    20
  9
$DWGCODEPAGE
  3
ANSI_932
  9
$INSBASE
 10
0.0
 20
0.0
 30
0.0
  9
$EXTMIN
 10
3084.238311390214
 20
-18408.7494261104
 30
0.0
  9
$EXTMAX
 10
3244.138311390213
 20
-18280.67316417302
 30
0.0000000000000047
  9
$LIMMIN
 10
0.0
 20
0.0
  9
$LIMMAX
 10
420.0
 20
297.0
  9
$ORTHOMODE
 70
     0
  9
$REGENMODE
 70
     1
  9
$FILLMODE
 70
     1
  9
$QTEXTMODE
 70
     0
  9
$MIRRTEXT
 70
     1
  9
$LTSCALE
 40
5.0
  9
$ATTMODE
 70
     0
  9
$TEXTSIZE
 40
3.5
  9
$TRACEWID
 40
1.0
  9
$TEXTSTYLE
  7
STANDARD
  9
$CLAYER
  8
0
  9
$CELTYPE
  6
BYLAYER
  9
$CECOLOR
 62
   256
  9
$CELTSCALE
 40
1.0
  9
$DISPSILH
 70
     0
  9
$DIMSCALE
 40
1.0
  9
$DIMASZ
 40
3.5
  9
$DIMEXO
 40
1.0
  9
$DIMDLI
 40
3.0
  9
$DIMRND
 40
0.0
  9
$DIMDLE
 40
0.0
  9
$DIMEXE
 40
1.0
  9
$DIMTP
 40
0.0
  9
$DIMTM
 40
0.0
  9
$DIMTXT
 40
2.5
  9
$DIMCEN
 40
0.0
  9
$DIMTSZ
 40
0.0
  9
$DIMTOL
 70
     0
  9
$DIMLIM
 70
     0
  9
$DIMTIH
 70
     0
  9
$DIMTOH
 70
     0
  9
$DIMSE1
 70
     0
  9
$DIMSE2
 70
     0
  9
$DIMTAD
 70
     3
  9
$DIMZIN
 70
     8
  9
$DIMBLK
  1

  9
$DIMASO
 70
     1
  9
$DIMSHO
 70
     0
  9
$DIMPOST
  1

  9
$DIMAPOST
  1

  9
$DIMALT
 70
     0
  9
$DIMALTD
 70
     0
  9
$DIMALTF
 40
25.4
  9
$DIMLFAC
 40
1.0
  9
$DIMTOFL
 70
     0
  9
$DIMTVP
 40
0.0
  9
$DIMTIX
 70
     0
  9
$DIMSOXD
 70
     0
  9
$DIMSAH
 70
     1
  9
$DIMBLK1
  1
OPEN
  9
$DIMBLK2
  1
OPEN
  9
$DIMSTYLE
  2
ｺﾋﾟｰ - STANDARD
  9
$DIMCLRD
 70
     8
  9
$DIMCLRE
 70
     8
  9
$DIMCLRT
 70
   256
  9
$DIMTFAC
 40
1.0
  9
$DIMGAP
 40
1.0
  9
$DIMJUST
 70
     0
  9
$DIMSD1
 70
     0
  9
$DIMSD2
 70
     0
  9
$DIMTOLJ
 70
     1
  9
$DIMTZIN
 70
     0
  9
$DIMALTZ
 70
     0
  9
$DIMALTTZ
 70
     0
  9
$DIMUPT
 70
     0
  9
$DIMDEC
 70
     2
  9
$DIMTDEC
 70
     2
  9
$DIMALTU
 70
     2
  9
$DIMALTTD
 70
     0
  9
$DIMTXSTY
  7
STANDARD
  9
$DIMAUNIT
 70
     0
  9
$DIMADEC
 70
     2
  9
$DIMALTRND
 40
0.0
  9
$DIMAZIN
 70
     2
  9
$DIMDSEP
 70
    46
  9
$DIMATFIT
 70
     3
  9
$DIMFRAC
 70
     0
  9
$DIMLDRBLK
  1
OPEN
  9
$DIMLUNIT
 70
     2
  9
$DIMLWD
 70
    -2
  9
$DIMLWE
 70
    -2
  9
$DIMTMOVE
 70
     0
  9
$LUNITS
 70
     2
  9
$LUPREC
 70
     2
  9
$SKETCHINC
 40
0.1
  9
$FILLETRAD
 40
1.6
  9
$AUNITS
 70
     0
  9
$AUPREC
 70
     1
  9
$MENU
  1
FM
  9
$ELEVATION
 40
0.0
  9
$PELEVATION
 40
0.0
  9
$THICKNESS
 40
0.0
  9
$LIMCHECK
 70
     0
  9
$CHAMFERA
 40
0.0
  9
$CHAMFERB
 40
0.0
  9
$CHAMFERC
 40
0.0
  9
$CHAMFERD
 40
0.0
  9
$SKPOLY
 70
     0
  9
$TDCREATE
 40
2448636.619629630
  9
$TDUCREATE
 40
2448636.244629629
  9
$TDUPDATE
 40
2457242.685354283
  9
$TDUUPDATE
 40
2457242.310354283
  9
$TDINDWG
 40
96.5771086458
  9
$TDUSRTIMER
 40
2456807.598410081
  9
$USRTIMER
 70
     1
  9
$ANGBASE
 50
0.0
  9
$ANGDIR
 70
     0
  9
$PDMODE
 70
     3
  9
$PDSIZE
 40
0.0
  9
$PLINEWID
 40
0.0
  9
$SPLFRAME
 70
     0
  9
$SPLINETYPE
 70
     6
  9
$SPLINESEGS
 70
     8
  9
$HANDSEED
  5
2F6E97
  9
$SURFTAB1
 70
     6
  9
$SURFTAB2
 70
     6
  9
$SURFTYPE
 70
     6
  9
$SURFU
 70
     6
  9
$SURFV
 70
     6
  9
$UCSBASE
  2

  9
$UCSNAME
  2

  9
$UCSORG
 10
0.0
 20
0.0
 30
0.0
  9
$UCSXDIR
 10
1.0
 20
0.0
 30
0.0
  9
$UCSYDIR
 10
0.0
 20
1.0
 30
0.0
  9
$UCSORTHOREF
  2

  9
$UCSORTHOVIEW
 70
     0
  9
$UCSORGTOP
 10
0.0
 20
0.0
 30
0.0
  9
$UCSORGBOTTOM
 10
0.0
 20
0.0
 30
0.0
  9
$UCSORGLEFT
 10
0.0
 20
0.0
 30
0.0
  9
$UCSORGRIGHT
 10
0.0
 20
0.0
 30
0.0
  9
$UCSORGFRONT
 10
0.0
 20
0.0
 30
0.0
  9
$UCSORGBACK
 10
0.0
 20
0.0
 30
0.0
  9
$PUCSBASE
  2

  9
$PUCSNAME
  2

  9
$PUCSORG
 10
0.0
 20
0.0
 30
0.0
  9
$PUCSXDIR
 10
1.0
 20
0.0
 30
0.0
  9
$PUCSYDIR
 10
0.0
 20
1.0
 30
0.0
  9
$PUCSORTHOREF
  2

  9
$PUCSORTHOVIEW
 70
     0
  9
$PUCSORGTOP
 10
0.0
 20
0.0
 30
0.0
  9
$PUCSORGBOTTOM
 10
0.0
 20
0.0
 30
0.0
  9
$PUCSORGLEFT
 10
0.0
 20
0.0
 30
0.0
  9
$PUCSORGRIGHT
 10
0.0
 20
0.0
 30
0.0
  9
$PUCSORGFRONT
 10
0.0
 20
0.0
 30
0.0
  9
$PUCSORGBACK
 10
0.0
 20
0.0
 30
0.0
  9
$USERI1
 70
     0
  9
$USERI2
 70
     0
  9
$USERI3
 70
     0
  9
$USERI4
 70
     0
  9
$USERI5
 70
     0
  9
$USERR1
 40
0.0
  9
$USERR2
 40
0.0
  9
$USERR3
 40
0.0
  9
$USERR4
 40
0.0
  9
$USERR5
 40
0.0
  9
$WORLDVIEW
 70
     0
  9
$SHADEDGE
 70
     3
  9
$SHADEDIF
 70
    70
  9
$TILEMODE
 70
     1
  9
$MAXACTVP
 70
    16
  9
$PINSBASE
 10
0.0
 20
0.0
 30
0.0
  9
$PLIMCHECK
 70
     0
  9
$PEXTMIN
 10
1.049999952316283
 20
0.7999999523162842
 30
0.0
  9
$PEXTMAX
 10
9.449999570846559
 20
7.199999570846557
 30
0.0
  9
$PLIMMIN
 10
-0.2500002402958907
 20
-0.2499999962453767
  9
$PLIMMAX
 10
10.74999951940822
 20
8.249999763458731
  9
$UNITMODE
 70
     0
  9
$VISRETAIN
 70
     0
  9
$PLINEGEN
 70
     0
  9
$PSLTSCALE
 70
     0
  9
$TREEDEPTH
 70
  3020
  9
$CMLSTYLE
  2
STANDARD
  9
$CMLJUST
 70
     0
  9
$CMLSCALE
 40
1.0
  9
$PROXYGRAPHICS
 70
     1
  9
$MEASUREMENT
 70
     0
  9
$CELWEIGHT
370
    -1
  9
$ENDCAPS
280
     0
  9
$JOINSTYLE
280
     0
  9
$LWDISPLAY
290
     0
  9
$INSUNITS
 70
     0
  9
$HYPERLINKBASE
  1

  9
$STYLESHEET
  1
SPAX FORM.CTB
  9
$XEDIT
290
     1
  9
$CEPSNTYPE
380
     0
  9
$PSTYLEMODE
290
     1
  9
$FINGERPRINTGUID
  2
{BBAEEBA6-8B94-11D3-9160-00E0294F7E09}
  9
$VERSIONGUID
  2
{3015D051-F482-4AA8-AD2B-3C2E69862C10}
  9
$EXTNAMES
290
     1
  9
$PSVPSCALE
 40
0.0
  9
$OLESTARTUP
290
     0
  0
ENDSEC
  0
SECTION
  2
CLASSES
  0
CLASS
  1
LWPOLYLINE
  2
AcDbPolyline
  3
ObjectDBX Classes
 90
        0
280
     0
281
     1
  0
CLASS
  1
ACDBDICTIONARYWDFLT
  2
AcDbDictionaryWithDefault
  3
ObjectDBX Classes
 90
        0
280
     0
281
     0
  0
CLASS
  1
ACDBPLACEHOLDER
  2
AcDbPlaceHolder
  3
ObjectDBX Classes
 90
        0
280
     0
281
     0
  0
CLASS
  1
LAYOUT
  2
AcDbLayout
  3
ObjectDBX Classes
 90
        0
280
     0
281
     0
  0
CLASS
  1
DICTIONARYVAR
  2
AcDbDictionaryVar
  3
ObjectDBX Classes
 90
        0
280
     0
281
     0
  0
CLASS
  1
MATERIAL
  2
AcDbMaterial
  3
ObjectDBX Classes
 90
     1153
280
     0
281
     0
  0
CLASS
  1
VISUALSTYLE
  2
AcDbVisualStyle
  3
ObjectDBX Classes
 90
     4095
280
     0
281
     0
  0
CLASS
  1
TABLESTYLE
  2
AcDbTableStyle
  3
ObjectDBX Classes
 90
     4095
280
     0
281
     0
  0
CLASS
  1
SCALE
  2
AcDbScale
  3
ObjectDBX Classes
 90
     1153
280
     0
281
     0
  0
CLASS
  1
MLEADERSTYLE
  2
AcDbMLeaderStyle
  3
ACDB_MLEADERSTYLE_CLASS
 90
     4095
280
     0
281
     0
  0
CLASS
  1
CELLSTYLEMAP
  2
AcDbCellStyleMap
  3
ObjectDBX Classes
 90
     1152
280
     0
281
     0
  0
CLASS
  1
SORTENTSTABLE
  2
AcDbSortentsTable
  3
ObjectDBX Classes
 90
        0
280
     0
281
     0
  0
CLASS
  1
DIMASSOC
  2
AcDbDimAssoc
  3
"AcDbDimAssoc|Product Desc:     AcDim ARX App For Dimension|Company:          Autodesk, Inc.|WEB Address:      www.autodesk.com"
 90
    32768
280
     0
281
     0
  0
CLASS
  1
ACDB_RADIMOBJECTCONTEXTDATA_CLASS
  2
AcDbRadialDimensionObjectContextData
  3
ObjectDBX Classes
 90
    33921
280
     0
281
     0
  0
CLASS
  1
ACDB_DMDIMOBJECTCONTEXTDATA_CLASS
  2
AcDbDiametricDimensionObjectContextData
  3
ObjectDBX Classes
 90
    33921
280
     0
281
     0
  0
CLASS
  1
MULTILEADER
  2
AcDbMLeader
  3
ACDB_MLEADER_CLASS
 90
    33793
280
     0
281
     1
  0
CLASS
  1
AEC_VARS_DWG_SETUP
  2
AecDbVarsDwgSetup
  3
AecBase60
 90
      129
280
     0
281
     0
  0
CLASS
  1
AEC_DISP_REP_2D_SECTION
  2
AecDbDispRep2dSection
  3
AecBase60
 90
      129
280
     0
281
     0
  0
CLASS
  1
AEC_DISP_PROPS_2D_SECTION
  2
AecDbDispProps2dSection
  3
AecBase60
 90
      129
280
     0
281
     0
  0
CLASS
  1
AEC_DISP_REP_CLIP_VOLUME_MODEL
  2
AecDbDispRepClipVolModel
  3
AecBase60
 90
      129
280
     0
281
     0
  0
CLASS
  1
AEC_DISP_PROPS_CLIP_VOLUME
  2
AecDbDispPropsClipVol
  3
AecBase60
 90
      129
280
     0
281
     0
  0
CLASS
  1
AEC_DISP_REP_CLIP_VOLUME_PLAN
  2
AecDbDispRepClipVolPlan
  3
AecBase60
 90
      129
280
     0
281
     0
  0
CLASS
  1
AEC_DISP_REP_CLIP_VOLUME_RESULT
  2
AecDbDispRepClipVolResult
  3
AecBase60
 90
      129
280
     0
281
     0
  0
CLASS
  1
AEC_DISP_REP_CLIP_VOLUME_RESULT_SUBDIV
  2
AecDbDispRepClipVolResSubDiv
  3
AecBase60
 90
      129
280
     0
281
     0
  0
CLASS
  1
AEC_DISP_PROPS_CLIP_VOLUME_RESULT
  2
AecDbDispPropsClipVolResSubDiv
  3
AecBase60
 90
      129
280
     0
281
     0
  0
CLASS
  1
AEC_DISP_REP_DISPLAYTHEME
  2
AecDbDispRepDisplayTheme
  3
AecBase60
 90
      129
280
     0
281
     0
  0
CLASS
  1
AEC_DISP_PROPS_DISPLAYTHEME
  2
AecDbDispPropsDisplayTheme
  3
AecBase60
 90
      129
280
     0
281
     0
  0
CLASS
  1
AEC_DISP_REP_ENT_REF
  2
AecDbDispRepEntRef
  3
AecBase60
 90
      129
280
     0
281
     0
  0
CLASS
  1
AEC_DISP_PROPS_ENT_REF
  2
AecDbDispPropsEntRef
  3
AecBase60
 90
      129
280
     0
281
     0
  0
CLASS
  1
AEC_DISP_REP_LAYOUT_CURVE
  2
AecDbDispRepLayoutCurve
  3
AecBase60
 90
      129
280
     0
281
     0
  0
CLASS
  1
AEC_DISP_PROPS_LAYOUT_CURVE
  2
AecDbDispPropsLayoutCurve
  3
AecBase60
 90
      129
280
     0
281
     0
  0
CLASS
  1
AEC_DISP_REP_LAYOUT_GRID2D
  2
AecDbDispRepLayoutGrid2d
  3
AecBase60
 90
      129
280
     0
281
     0
  0
CLASS
  1
AEC_DISP_PROPS_LAYOUT_GRID2D
  2
AecDbDispPropsLayoutGrid2d
  3
AecBase60
 90
      129
280
     0
281
     0
  0
CLASS
  1
AEC_DISP_REP_LAYOUT_GRID3D
  2
AecDbDispRepLayoutGrid3d
  3
AecBase60
 90
      129
280
     0
281
     0
  0
CLASS
  1
AEC_DISP_PROPS_LAYOUT_GRID3D
  2
AecDbDispPropsLayoutGrid3d
  3
AecBase60
 90
      129
280
     0
281
     0
  0
CLASS
  1
AEC_DISP_REP_MASKBLOCK_REF
  2
AecDbDispRepMaskBlockRef
  3
AecBase60
 90
      129
280
     0
281
     0
  0
CLASS
  1
AEC_DISP_PROPS_MASKBLOCK
  2
AecDbDispPropsMaskBlock
  3
AecBase60
 90
      129
280
     0
281
     0
  0
CLASS
  1
AEC_DISP_REP_MASKBLOCK_REF_RCP
  2
AecDbDispRepMaskBlockRefRcp
  3
AecArchBase60
 90
      129
280
     0
281
     0
  0
CLASS
  1
AEC_DISP_REP_MASS_ELEM_MODEL
  2
AecDbDispRepMassElemModel
  3
AecBase60
 90
      129
280
     0
281
     0
  0
CLASS
  1
AEC_DISP_PROPS_MASS_ELEM_MODEL
  2
AecDbDispPropsMassElem
  3
AecBase60
 90
      129
280
     0
281
     0
  0
CLASS
  1
AEC_DISP_REP_MASS_ELEM_SCHEM
  2
AecDbDispRepMassElemSchem
  3
AecBase60
 90
      129
280
     0
281
     0
  0
CLASS
  1
AEC_DISPREPAECDBDISPREPMASSELEMPLAN50
  2
AecDbDispRepMassElemPlan50
  3
AecArchDACHBase60
 90
      129
280
     0
281
     0
  0
CLASS
  1
AEC_DISPROPSMASSELEMPLANCOMMON
  2
AecDbDispPropsMassElemPlanCommon
  3
AecArchDACHBase60
 90
      129
280
     0
281
     0
  0
CLASS
  1
AEC_DISPREPAECDBDISPREPMASSELEMPLAN100
  2
AecDbDispRepMassElemPlan100
  3
AecArchDACHBase60
 90
      129
280
     0
281
     0
  0
CLASS
  1
AEC_DISP_REP_MASS_ELEM_RCP
  2
AecDbDispRepMassElemRcp
  3
AecArchBase60
 90
      129
280
     0
281
     0
  0
CLASS
  1
AEC_DISP_REP_MASS_GROUP_MODEL
  2
AecDbDispRepMassGroupModel
  3
AecBase60
 90
      129
280
     0
281
     0
  0
CLASS
  1
AEC_DISP_PROPS_MASS_GROUP
  2
AecDbDispPropsMassGroup
  3
AecBase60
 90
      129
280
     0
281
     0
  0
CLASS
  1
AEC_DISP_REP_MASS_GROUP_PLAN
  2
AecDbDispRepMassGroupPlan
  3
AecBase60
 90
      129
280
     0
281
     0
  0
CLASS
  1
AEC_DISPREPAECDBDISPREPMASSGROUPPLAN50
  2
AecDbDispRepMassGroupPlan50
  3
AecArchDACHBase60
 90
      129
280
     0
281
     0
  0
CLASS
  1
AEC_DISPROPSMASSGROUPPLANCOMMON
  2
AecDbDispPropsMassGroupPlanCommon
  3
AecArchDACHBase60
 90
      129
280
     0
281
     0
  0
CLASS
  1
AEC_DISPREPAECDBDISPREPMASSGROUPPLAN100
  2
AecDbDispRepMassGroupPlan100
  3
AecArchDACHBase60
 90
      129
280
     0
281
     0
  0
CLASS
  1
AEC_DISP_REP_MASS_GROUP_RCP
  2
AecDbDispRepMassGroupRcp
  3
AecArchBase60
 90
      129
280
     0
281
     0
  0
CLASS
  1
AEC_DISP_REP_MVBLOCK_REF
  2
AecDbDispRepMvBlockRef
  3
AecBase60
 90
      129
280
     0
281
     0
  0
CLASS
  1
AEC_DISP_REP_MVBLOCK_REF_MODEL
  2
AecDbDispRepMvBlockRefModel
  3
AecBase60
 90
      129
280
     0
281
     0
  0
CLASS
  1
AEC_AECDBDISPREPMVBLOCKREFPLAN100
  2
AecDbDispRepMvBlockRefPlan100
  3
AecBase60
 90
      129
280
     0
281
     0
  0
CLASS
  1
AEC_AECDBDISPREPMVBLOCKREFPLAN50
  2
AecDbDispRepMvBlockRefPlan50
  3
AecBase60
 90
      129
280
     0
281
     0
  0
CLASS
  1
AEC_DISP_REP_POLYGON_MODEL
  2
AecDbDispRepPolygonModel
  3
AecBase60
 90
      129
280
     0
281
     0
  0
CLASS
  1
AEC_DISP_PROPS_POLYGON_MODEL
  2
AecDbDispPropsPolygonModel
  3
AecBase60
 90
      129
280
     0
281
     0
  0
CLASS
  1
AEC_DISP_REP_POLYGON_TRUECOLOUR
  2
AecDbDispRepPolygonTrueColour
  3
AecBase60
 90
      129
280
     0
281
     0
  0
CLASS
  1
AEC_DISP_PROPS_POLYGON_TRUECOLOUR
  2
AecDbDispPropsPolygonTrueColour
  3
AecBase60
 90
      129
280
     0
281
     0
  0
CLASS
  1
AEC_DISP_REP_SLICE
  2
AecDbDispRepSlice
  3
AecBase60
 90
      129
280
     0
281
     0
  0
CLASS
  1
AEC_DISP_PROPS_SLICE
  2
AecDbDispPropsSlice
  3
AecBase60
 90
      129
280
     0
281
     0
  0
CLASS
  1
AEC_DISP_REP_ANCHOR
  2
AecDbDispRepAnchor
  3
AecBase60
 90
      129
280
     0
281
     0
  0
CLASS
  1
AEC_DISP_REP_ANCHOR_ENT_TO_NODE
  2
AecDbDispRepAnchorEntToNode
  3
AecBase60
 90
      129
280
     0
281
     0
  0
CLASS
  1
AEC_DISP_PROPS_ENT
  2
AecDbDispPropsEnt
  3
AecBase60
 90
      129
280
     0
281
     0
  0
CLASS
  1
AEC_DISP_REP_MATERIAL
  2
AecDbDispRepMaterial
  3
AecBase60
 90
      129
280
     0
281
     0
  0
CLASS
  1
AEC_DISP_PROPS_MATERIAL
  2
AecDbDispPropsMaterial
  3
AecBase60
 90
      129
280
     0
281
     0
  0
CLASS
  1
AEC_DISP_REP_EDITINPLACEPROFILE
  2
AecDbDispRepEditInPlaceProfile
  3
AecBase60
 90
      129
280
     0
281
     0
  0
CLASS
  1
AEC_DISP_PROPS_EDITINPLACEPROFILE_MODEL
  2
AecDbDispPropsEditInPlaceProfile
  3
AecBase60
 90
      129
280
     0
281
     0
  0
CLASS
  1
SUN
  2
AcDbSun
  3
SCENEOE
 90
    33921
280
     0
281
     0
  0
CLASS
  1
RASTERVARIABLES
  2
AcDbRasterVariables
  3
ISM
 90
        0
280
     0
281
     0
  0
ENDSEC
  0
SECTION
  2
TABLES
  0
TABLE
  2
VPORT
  5
8
102
{ACAD_XDICTIONARY
360
2F02D7
102
}
330
0
100
AcDbSymbolTable
 70
     1
  0
VPORT
  5
163677
330
8
100
AcDbSymbolTableRecord
100
AcDbViewportTableRecord
  2
*Active
 70
     0
 10
0.0
 20
0.0
 11
1.0
 21
1.0
 12
3164.208995387355
 22
-18344.53466702205
 13
0.0
 23
0.0
 14
1.0
 24
1.0
 15
20.0
 25
20.0
 16
0.0
 26
0.0
 36
1.0
 17
0.0
 27
0.0
 37
0.0
 40
131.8976563189953
 41
1.761096605744125
 42
50.0
 43
0.0
 44
0.0
 50
0.0
 51
0.0
 71
    16
 72
   100
 73
     1
 74
     0
 75
     0
 76
     0
 77
     0
 78
     1
281
     0
 65
     1
110
0.0
120
0.0
130
0.0
111
1.0
121
0.0
131
0.0
112
0.0
122
1.0
132
0.0
 79
     0
146
0.0
  0
ENDTAB
  0
TABLE
  2
LTYPE
  5
5
330
0
100
AcDbSymbolTable
 70
     2
  0
LTYPE
  5
12
330
5
100
AcDbSymbolTableRecord
100
AcDbLinetypeTableRecord
  2
BYBLOCK
 70
     0
  3

 72
    65
 73
     0
 40
0.0
  0
LTYPE
  5
13
330
5
100
AcDbSymbolTableRecord
100
AcDbLinetypeTableRecord
  2
BYLAYER
 70
     0
  3

 72
    65
 73
     0
 40
0.0
  0
LTYPE
  5
14
330
5
100
AcDbSymbolTableRecord
100
AcDbLinetypeTableRecord
  2
CONTINUOUS
 70
     0
  3
Solid line
 72
    65
 73
     0
 40
0.0
  0
ENDTAB
  0
TABLE
  2
LAYER
  5
2
102
{ACAD_XDICTIONARY
360
67DE7
102
}
330
0
100
AcDbSymbolTable
 70
     4
  0
LAYER
  5
F
102
{ACAD_XDICTIONARY
360
66C5B
102
}
330
2
100
AcDbSymbolTableRecord
100
AcDbLayerTableRecord
  2
0
 70
     0
 62
     7
  6
CONTINUOUS
370
    -3
390
616
  0
LAYER
  5
36
330
2
100
AcDbSymbolTableRecord
100
AcDbLayerTableRecord
  2
DEFPOINTS
 70
     0
 62
     7
  6
CONTINUOUS
290
     0
370
    -3
390
616
  0
LAYER
  5
280
102
{ACAD_XDICTIONARY
360
66C61
102
}
330
2
100
AcDbSymbolTableRecord
100
AcDbLayerTableRecord
  2
実線
 70
     0
 62
     4
  6
CONTINUOUS
370
    -3
390
616
  0
LAYER
  5
2F4
102
{ACAD_XDICTIONARY
360
66C67
102
}
330
2
100
AcDbSymbolTableRecord
100
AcDbLayerTableRecord
  2
文字
 70
     0
 62
     7
  6
CONTINUOUS
370
    -3
390
616
  0
ENDTAB
  0
TABLE
  2
STYLE
  5
3
330
0
100
AcDbSymbolTable
 70
     1
  0
STYLE
  5
10
330
3
100
AcDbSymbolTableRecord
100
AcDbTextStyleTableRecord
  2
STANDARD
 70
     0
 40
0.0
 41
1.0
 50
0.0
 71
     0
 42
3.5
  3
MONOTXT
  4
BIGFONT
  0
ENDTAB
  0
TABLE
  2
VIEW
  5
6
330
0
100
AcDbSymbolTable
 70
     0
  0
ENDTAB
  0
TABLE
  2
UCS
  5
7
330
0
100
AcDbSymbolTable
 70
     0
  0
ENDTAB
  0
TABLE
  2
APPID
  5
9
330
0
100
AcDbSymbolTable
 70
    23
  0
APPID
  5
11
330
9
100
AcDbSymbolTableRecord
100
AcDbRegAppTableRecord
  2
ACAD
 70
     0
  0
APPID
  5
66C55
330
9
100
AcDbSymbolTableRecord
100
AcDbRegAppTableRecord
  2
ACAD_MLEADERVER
 70
     0
  0
APPID
  5
66CC8
330
9
100
AcDbSymbolTableRecord
100
AcDbRegAppTableRecord
  2
ACAD_PSEXT
 70
     0
  0
APPID
  5
67DE4
330
9
100
AcDbSymbolTableRecord
100
AcDbRegAppTableRecord
  2
ACAD_DSTYLE_DIMJAG
 70
     0
  0
APPID
  5
67DE5
330
9
100
AcDbSymbolTableRecord
100
AcDbRegAppTableRecord
  2
ACAD_DSTYLE_DIMBREAK
 70
     0
  0
APPID
  5
67DE6
330
9
100
AcDbSymbolTableRecord
100
AcDbRegAppTableRecord
  2
ACAD_DSTYLE_DIMTALN
 70
     0
  0
APPID
  5
68101
330
9
100
AcDbSymbolTableRecord
100
AcDbRegAppTableRecord
  2
ACAD_EXEMPT_FROM_CAD_STANDARDS
 70
     0
  0
APPID
  5
74C21
330
9
100
AcDbSymbolTableRecord
100
AcDbRegAppTableRecord
  2
ACAD_DSTYLE_DIMRADIAL_EXTENSION
 70
     0
  0
APPID
  5
86ADD
330
9
100
AcDbSymbolTableRecord
100
AcDbRegAppTableRecord
  2
AcAecLayerStandard
 70
     0
  0
APPID
  5
86ADE
330
9
100
AcDbSymbolTableRecord
100
AcDbRegAppTableRecord
  2
AcadAnnotative
 70
     0
  0
APPID
  5
86ADF
330
9
100
AcDbSymbolTableRecord
100
AcDbRegAppTableRecord
  2
AcadAnnotativeDecomposition
 70
     0
  0
APPID
  5
16E922
330
9
100
AcDbSymbolTableRecord
100
AcDbRegAppTableRecord
  2
ASK_MEN_XD
 70
     0
  0
APPID
  5
1A9AA5
330
9
100
AcDbSymbolTableRecord
100
AcDbRegAppTableRecord
  2
GENIUS_GENODEF_13
 70
     0
  0
APPID
  5
1A9AA6
330
9
100
AcDbSymbolTableRecord
100
AcDbRegAppTableRecord
  2
GENIUS_GENREC_14
 70
     0
  0
APPID
  5
1A9AA7
330
9
100
AcDbSymbolTableRecord
100
AcDbRegAppTableRecord
  2
GENIUS_GENOBJ-N-REC_13
 70
     0
  0
APPID
  5
25EB3A
330
9
100
AcDbSymbolTableRecord
100
AcDbRegAppTableRecord
  2
ACAD_NAV_VCDISPLAY
 70
     0
  0
APPID
  5
2DCF1B
330
9
100
AcDbSymbolTableRecord
100
AcDbRegAppTableRecord
  2
AcadStringInfo
 70
     0
  0
APPID
  5
2DCF1C
330
9
100
AcDbSymbolTableRecord
100
AcDbRegAppTableRecord
  2
RAK
 70
     0
  0
APPID
  5
2ED1BB
330
9
100
AcDbSymbolTableRecord
100
AcDbRegAppTableRecord
  2
AECBASE
 70
     0
  0
APPID
  5
2ED1BC
330
9
100
AcDbSymbolTableRecord
100
AcDbRegAppTableRecord
  2
AEC_2DSECTION_XDATA
 70
     0
  0
APPID
  5
2ED1BD
330
9
100
AcDbSymbolTableRecord
100
AcDbRegAppTableRecord
  2
AEC_MASSGROUP_XDADA
 70
     0
  0
APPID
  5
2EE65C
330
9
100
AcDbSymbolTableRecord
100
AcDbRegAppTableRecord
  2
ACAD_SPLINE_DATA
 70
     0
  0
APPID
  5
2EE65D
330
9
100
AcDbSymbolTableRecord
100
AcDbRegAppTableRecord
  2
ACAD_SPLINE_DATA2
 70
     0
  0
ENDTAB
  0
TABLE
  2
DIMSTYLE
  5
A
330
0
100
AcDbSymbolTable
 70
     2
100
AcDbDimStyleTable
 71
     1
340
1E3941
  0
DIMSTYLE
105
1CC
330
A
100
AcDbSymbolTableRecord
100
AcDbDimStyleTableRecord
  2
STANDARD
 70
     0
 41
1.5
 42
1.5
 44
1.0
 73
     0
 74
     0
 77
     3
 78
     8
 79
     2
140
2.500000000000002
141
0.0
147
1.0
171
     0
173
     1
176
     8
177
     8
179
     2
271
     2
272
     2
274
     0
340
10
341
608
343
608
344
608
1001
ACAD_DSTYLE_DIMJAG
1070
   388
1040
1.5
1001
ACAD_DSTYLE_DIMTALN
1070
   392
1070
     0
  0
DIMSTYLE
105
1E3941
330
A
100
AcDbSymbolTableRecord
100
AcDbDimStyleTableRecord
  2
ｺﾋﾟｰ - STANDARD
 70
     0
 41
3.5
 42
1.0
 43
3.0
 44
1.0
 73
     0
 74
     0
 77
     3
 78
     8
 79
     2
140
2.5
141
0.0
147
1.0
171
     0
173
     1
176
     8
177
     8
178
   256
179
     2
271
     2
272
     2
274
     0
340
10
341
608
343
608
344
608
1001
ACAD_DSTYLE_DIMJAG
1070
   388
1040
1.5
1001
ACAD_DSTYLE_DIMTALN
1070
   392
1070
     0
  0
ENDTAB
  0
TABLE
  2
BLOCK_RECORD
  5
1
330
0
100
AcDbSymbolTable
 70
     1
  0
BLOCK_RECORD
  5
18
102
{ACAD_XDICTIONARY
360
845D5
102
}
330
1
100
AcDbSymbolTableRecord
100
AcDbBlockTableRecord
  2
*MODEL_SPACE
340
619
  0
BLOCK_RECORD
  5
15
330
1
100
AcDbSymbolTableRecord
100
AcDbBlockTableRecord
  2
*PAPER_SPACE
340
61A
  0
BLOCK_RECORD
  5
608
330
1
100
AcDbSymbolTableRecord
100
AcDbBlockTableRecord
  2
_OPEN
340
0
  0
ENDTAB
  0
ENDSEC
  0
SECTION
  2
BLOCKS
  0
BLOCK
  5
39
330
18
100
AcDbEntity
  8
0
100
AcDbBlockBegin
  2
*MODEL_SPACE
 70
     0
 10
0.0
 20
0.0
 30
0.0
  3
*MODEL_SPACE
  1

  0
ENDBLK
  5
3A
330
18
100
AcDbEntity
  8
0
100
AcDbBlockEnd
  0
BLOCK
  5
37
330
15
100
AcDbEntity
 67
     1
  8
0
100
AcDbBlockBegin
  2
*PAPER_SPACE
 70
     0
 10
0.0
 20
0.0
 30
0.0
  3
*PAPER_SPACE
  1

  0
ENDBLK
  5
38
330
15
100
AcDbEntity
 67
     1
  8
0
100
AcDbBlockEnd
  0
BLOCK
  5
609
330
608
100
AcDbEntity
  8
0
100
AcDbBlockBegin
  2
_OPEN
 70
     0
 10
0.0
 20
0.0
 30
0.0
  3
_OPEN
  1

  0
LINE
  5
60A
330
608
100
AcDbEntity
  8
0
  6
ByBlock
 62
     0
100
AcDbLine
 10
-1.0
 20
0.1666666666666666
 30
0.0
 11
0.0
 21
0.0
 31
0.0
  0
LINE
  5
60B
330
608
100
AcDbEntity
  8
0
  6
ByBlock
 62
     0
100
AcDbLine
 10
0.0
 20
0.0
 30
0.0
 11
-1.0
 21
-0.1666666666666666
 31
0.0
  0
LINE
  5
60C
330
608
100
AcDbEntity
  8
0
  6
ByBlock
 62
     0
100
AcDbLine
 10
0.0
 20
0.0
 30
0.0
 11
-1.0
 21
0.0
 31
0.0
  0
ENDBLK
  5
60D
330
608
100
AcDbEntity
  8
0
100
AcDbBlockEnd
  0
ENDSEC
  0
SECTION
  2
ENTITIES
  0
TEXT
  5
11B04
330
18
100
AcDbEntity
  8
文字
100
AcDbText
 10
-1240.183388714458
 20
-1416.837204555437
 30
0.0
 40
6.75
  1

 41
1.022799999999999
100
AcDbText
  0
MTEXT
  5
12B3E
330
18
100
AcDbEntity
  8
0
100
AcDbMText
 10
-974.1891318600247
 20
-2072.131137572738
 30
0.0
 40
2.500000000000002
 41
0.0
 71
     9
 72
     1
  1
\A1;
 73
     1
 44
1.0
1001
ACAD
1000
MTEXTBEGIN
1070
    73
1070
     1
1070
    44
1040
1.0
1070
    74
1070
     0
1000
MTEXTEND
  0
LINE
  5
2F6935
330
18
100
AcDbEntity
  8
0
 62
     8
100
AcDbLine
 10
3198.219643423981
 20
-18369.43571461508
 30
0.0000000000000047
 11
3198.231672644702
 21
-18369.38453223189
 31
0.0000000000000047
  0
SPLINE
  5
2F6936
330
18
100
AcDbEntity
  8
0
 62
     8
100
AcDbSpline
210
0.0
220
0.0
230
1.0
 70
     8
 71
     3
 72
    61
 73
    57
 74
     0
 42
0.0000000001
 43
0.0000000001
 40
0.0
 40
0.0
 40
0.0
 40
0.0
 40
0.002199897546932
 40
0.0205306131583821
 40
0.0390702190309216
 40
0.0578471044631308
 40
0.0768282366628384
 40
0.0959498591789814
 40
0.1151487183145585
 40
0.134377599008035
 40
0.153603641249219
 40
0.1728130994847885
 40
0.1920015281230165
 40
0.2111684814342409
 40
0.2303153509787226
 40
0.2494442549488093
 40
0.2685575464407672
 40
0.2876573155879814
 40
0.3067457298196394
 40
0.3258243763973164
 40
0.3448949160877755
 40
0.363958633669242
 40
0.3830167112326967
 40
0.4020702506197435
 40
0.4211200181770476
 40
0.4401668951232508
 40
0.4592115969347474
 40
0.4782548078896893
 40
0.497297068033906
 40
0.5163391554188751
 40
0.5353814543523346
 40
0.5544244413346206
 40
0.5734688121236503
 40
0.5925152013769366
 40
0.6115643303226301
 40
0.6306168388465193
 40
0.6496737242598865
 40
0.6687358400045838
 40
0.6878042334317584
 40
0.7068802979934337
 40
0.7259652447849007
 40
0.7450608655094772
 40
0.7641690164664486
 40
0.7832917927328413
 40
0.8024316191239289
 40
0.8215910380216705
 40
0.8407724328562061
 40
0.8599774656070923
 40
0.8792060335371973
 40
0.8984543015928727
 40
0.9177092032786815
 40
0.9369379020869541
 40
0.9560919630938036
 40
0.975104115810949
 40
0.9939047658698989
 40
1.0
 40
1.0
 40
1.0
 40
1.0
 10
3125.305963038534
 20
-18369.25177900693
 30
0.0000000000000047
 10
3125.312475896474
 20
-18369.28109996603
 30
0.0000000000000047
 10
3125.373257348372
 20
-18369.55473874055
 30
0.0000000000000047
 10
3125.596490308418
 20
-18370.06570120461
 30
0.0000000000000047
 10
3125.982123740721
 20
-18370.78222066137
 30
0.0000000000000047
 10
3126.493112508649
 20
-18371.48924507076
 30
0.0000000000000047
 10
3127.114460396784
 20
-18372.18577859226
 30
0.0000000000000047
 10
3127.848450947062
 20
-18372.86853128957
 30
0.0000000000000047
 10
3128.690949715619
 20
-18373.53464714958
 30
0.0000000000000047
 10
3129.638507359832
 20
-18374.18139292028
 30
0.0000000000000047
 10
3130.686998395594
 20
-18374.80667930766
 30
0.0000000000000047
 10
3131.832397958914
 20
-18375.40872811576
 30
0.0000000000000047
 10
3133.070737865641
 20
-18375.98605238741
 30
0.0000000000000047
 10
3134.39801097994
 20
-18376.53729064312
 30
0.0000000000000047
 10
3135.810039836849
 20
-18377.06109083669
 30
0.0000000000000047
 10
3137.302468797314
 20
-18377.55619280385
 30
0.0000000000000047
 10
3138.870712498205
 20
-18378.02126039801
 30
0.0000000000000047
 10
3140.509959070982
 20
-18378.4551096819
 30
0.0000000000000047
 10
3142.215173047665
 20
-18378.85654330601
 30
0.0000000000000047
 10
3143.981108559764
 20
-18379.22443104711
 30
0.0000000000000047
 10
3145.802311456761
 20
-18379.55779327668
 30
0.0000000000000047
 10
3147.67315469911
 20
-18379.85560690453
 30
0.0000000000000047
 10
3149.587837271865
 20
-18380.11705350069
 30
0.0000000000000047
 10
3151.540412889716
 20
-18380.34136679154
 30
0.0000000000000047
 10
3153.524810201354
 20
-18380.52786121611
 30
0.0000000000000047
 10
3155.534837186043
 20
-18380.6760035498
 30
0.0000000000000047
 10
3157.564232817511
 20
-18380.78535378316
 30
0.0000000000000047
 10
3159.606655358313
 20
-18380.85559983919
 30
0.0000000000000047
 10
3161.65572970071
 20
-18380.88649922616
 30
0.0000000000000047
 10
3163.705047742598
 20
-18380.87797754451
 30
0.0000000000000047
 10
3165.748200675967
 20
-18380.83006954547
 30
0.0000000000000047
 10
3167.778793752284
 20
-18380.74289611785
 30
0.0000000000000047
 10
3169.790484707461
 20
-18380.61674813442
 30
0.0000000000000047
 10
3171.776997612068
 20
-18380.45197737889
 30
0.0000000000000047
 10
3173.732136592964
 20
-18380.24909193407
 30
0.0000000000000047
 10
3175.64980868379
 20
-18380.00869104594
 30
0.0000000000000047
 10
3177.524060886853
 20
-18379.73146887367
 30
0.0000000000000047
 10
3179.349063851527
 20
-18379.41822933478
 30
0.0000000000000047
 10
3181.119181824926
 20
-18379.06992283779
 30
0.0000000000000047
 10
3182.828941272755
 20
-18378.68748937961
 30
0.0000000000000047
 10
3184.473083774598
 20
-18378.27201162727
 30
0.0000000000000047
 10
3186.046567764333
 20
-18377.82466647779
 30
0.0000000000000047
 10
3187.54458512198
 20
-18377.34660263769
 30
0.0000000000000047
 10
3188.962590006517
 20
-18376.8390959908
 30
0.0000000000000047
 10
3190.296268746374
 20
-18376.30337474578
 30
0.0000000000000047
 10
3191.541583759847
 20
-18375.74069476283
 30
0.0000000000000047
 10
3192.694744192762
 20
-18375.15230993605
 30
0.0000000000000047
 10
3193.752117636768
 20
-18374.53938603132
 30
0.0000000000000047
 10
3194.710319198279
 20
-18373.9030469041
 30
0.0000000000000047
 10
3195.565906859256
 20
-18373.24445982274
 30
0.0000000000000047
 10
3196.315486227869
 20
-18372.56493783789
 30
0.0000000000000047
 10
3196.954714522663
 20
-18371.86615888715
 30
0.0000000000000047
 10
3197.48255133941
 20
-18371.15078965115
 30
0.0000000000000047
 10
3197.885815256737
 20
-18370.42141366814
 30
0.0000000000000047
 10
3198.129498861953
 20
-18369.84832344812
 30
0.0000000000000047
 10
3198.201914079545
 20
-18369.51686520202
 30
0.0000000000000047
 10
3198.219643423981
 20
-18369.43571461508
 30
0.0000000000000047
  0
LINE
  5
2F6937
330
18
100
AcDbEntity
  8
0
 62
     8
100
AcDbLine
 10
3125.109188287173
 20
-18367.20340452616
 30
0.0000000000000047
 11
3125.105631248941
 21
-18367.8802637189
 31
0.0000000000000047
  0
SPLINE
  5
2F6938
330
18
100
AcDbEntity
  8
0
 62
     8
100
AcDbSpline
210
0.0
220
0.0
230
1.0
 70
     8
 71
     3
 72
    11
 73
     7
 74
     0
 42
0.0000000001
 43
0.0000000001
 40
0.0
 40
0.0
 40
0.0
 40
0.0
 40
0.1660993234488002
 40
0.4996372125778488
 40
0.8330864592322349
 40
1.0
 40
1.0
 40
1.0
 40
1.0
 10
3130.315679435494
 20
-18350.63379837392
 30
0.0000000000000047
 10
3130.11722838327
 20
-18351.31118725929
 30
0.0000000000000047
 10
3129.520275135616
 20
-18353.34881563419
 30
0.0000000000000047
 10
3128.650114346858
 20
-18356.78670636853
 30
0.0000000000000047
 10
3127.835446240397
 20
-18360.24385077143
 30
0.0000000000000047
 10
3127.42329739024
 20
-18362.33694657336
 30
0.0000000000000047
 10
3127.285810699317
 20
-18363.03517202147
 30
0.0000000000000047
  0
SPLINE
  5
2F6939
330
18
100
AcDbEntity
  8
0
 62
     8
100
AcDbSpline
210
0.0
220
0.0
230
1.0
 70
     8
 71
     3
 72
    11
 73
     7
 74
     0
 42
0.0000000001
 43
0.0000000001
 40
0.0
 40
0.0
 40
0.0
 40
0.0
 40
0.0831433236283666
 40
0.411224626880945
 40
0.7385708942178546
 40
1.0
 40
1.0
 40
1.0
 40
1.0
 10
3196.250999265493
 20
-18363.35299365461
 30
0.0000000000000047
 10
3196.188092398614
 20
-18363.00567600566
 30
0.0000000000000047
 10
3195.876956738743
 20
-18361.28785232044
 30
0.0000000000000047
 10
3195.206734585414
 20
-18358.22750893023
 30
0.0000000000000047
 10
3194.315939078329
 20
-18354.44456544618
 30
0.0000000000000047
 10
3193.65710592964
 20
-18352.04124159587
 30
0.0000000000000047
 10
3193.364569643673
 20
-18350.97411339422
 30
0.0000000000000047
  0
SPLINE
  5
2F693A
330
18
100
AcDbEntity
  8
0
 62
     8
100
AcDbSpline
210
0.0
220
0.0
230
1.0
 70
     8
 71
     3
 72
    13
 73
     9
 74
     0
 42
0.0000000001
 43
0.0000000001
 40
0.0
 40
0.0
 40
0.0
 40
0.0
 40
0.1419184379148201
 40
0.3192388530256768
 40
0.4989193564545193
 40
0.680896389134111
 40
0.8646152539292002
 40
1.0
 40
1.0
 40
1.0
 40
1.0
 10
3126.81555226871
 20
-18349.37884388007
 30
0.0000000000000047
 10
3126.869394954284
 20
-18349.57102554653
 30
0.0000000000000047
 10
3126.990511543779
 20
-18350.00332916876
 30
0.0000000000000047
 10
3127.313827076541
 20
-18350.66367574597
 30
0.0000000000000047
 10
3127.758973471842
 20
-18351.36193045897
 30
0.0000000000000047
 10
3128.324883554327
 20
-18352.04953549368
 30
0.0000000000000047
 10
3128.929653424897
 20
-18352.66656153691
 30
0.0000000000000047
 10
3129.393022587696
 20
-18353.04491556424
 30
0.0000000000000047
 10
3129.589614272361
 20
-18353.20543823516
 30
0.0000000000000047
  0
SPLINE
  5
2F693B
330
18
100
AcDbEntity
  8
0
 62
     8
100
AcDbSpline
210
0.0
220
0.0
230
1.0
 70
     8
 71
     3
 72
    13
 73
     9
 74
     0
 42
0.0000000001
 43
0.0000000001
 40
0.0
 40
0.0
 40
0.0
 40
0.0
 40
0.1442657027014524
 40
0.3323156920258228
 40
0.5198805658933213
 40
0.7063433105492108
 40
0.8909468869821171
 40
1.0
 40
1.0
 40
1.0
 40
1.0
 10
3194.054599708741
 20
-18353.54542241356
 30
0.0000000000000047
 10
3194.262274311332
 20
-18353.37869126772
 30
0.0000000000000047
 10
3194.740652248595
 20
-18352.99462648256
 30
0.0000000000000047
 10
3195.362713177298
 20
-18352.36891774576
 30
0.0000000000000047
 10
3195.939694631334
 20
-18351.67478545053
 30
0.0000000000000047
 10
3196.392549899464
 20
-18350.96400435224
 30
0.0000000000000047
 10
3196.700725306226
 20
-18350.33933443346
 30
0.0000000000000047
 10
3196.80835981901
 20
-18349.94756228726
 30
0.0000000000000047
 10
3196.848331252009
 20
-18349.80207276271
 30
0.0000000000000047
  0
LINE
  5
2F693C
330
18
100
AcDbEntity
  8
0
 62
     8
100
AcDbLine
 10
3197.042905165047
 20
-18348.50144845929
 30
0.0000000000000047
 11
3196.958721390297
 21
-18335.15134898171
 31
0.0000000000000047
  0
LINE
  5
2F693D
330
18
100
AcDbEntity
  8
0
 62
     8
100
AcDbLine
 10
3126.66500752321
 20
-18347.53484352912
 30
0.0000000000000047
 11
3126.654979914926
 21
-18348.13154562208
 31
0.0000000000000047
  0
LINE
  5
2F693E
330
18
100
AcDbEntity
  8
0
 62
     8
100
AcDbLine
 10
3167.548576319235
 20
-18323.57823813467
 30
0.0000000000000047
 11
3167.368438224994
 21
-18323.95822876909
 31
0.0000000000000047
  0
LINE
  5
2F693F
330
18
100
AcDbEntity
  8
0
 62
     8
100
AcDbLine
 10
3155.468227675811
 20
-18323.92390464078
 30
0.0000000000000047
 11
3155.255695834633
 21
-18323.54447375596
 31
0.0000000000000047
  0
LINE
  5
2F6940
330
18
100
AcDbEntity
  8
0
 62
     8
100
AcDbLine
 10
3188.664274318637
 20
-18327.44755606876
 30
0.0000000000000047
 11
3187.8153104141
 21
-18327.69378217353
 31
0.0000000000000047
  0
LINE
  5
2F6941
330
18
100
AcDbEntity
  8
0
 62
     8
100
AcDbLine
 10
3135.387784998779
 20
-18327.71094346992
 30
0.0000000000000047
 11
3134.517802376812
 21
-18327.46534167024
 31
0.0000000000000047
  0
LINE
  5
2F6942
330
18
100
AcDbEntity
  8
0
 62
     8
100
AcDbLine
 10
3197.024714236339
 20
-18367.37571969561
 30
0.0000000000000047
 11
3197.693636856721
 21
-18367.37548623935
 31
0.0000000000000047
  0
LINE
  5
2F6943
330
18
100
AcDbEntity
  8
0
 62
     8
100
AcDbLine
 10
3198.176509971964
 20
-18366.91538804762
 30
0.0000000000000047
 11
3198.180066892409
 21
-18366.23855126817
 31
0.0000000000000047
  0
LINE
  5
2F6944
330
18
100
AcDbEntity
  8
0
 62
     8
100
AcDbLine
 10
3197.226222685305
 20
-18369.41058976302
 30
0.0000000000000047
 11
3197.138814954339
 21
-18367.37567675633
 31
0.0000000000000047
  0
LINE
  5
2F6945
330
18
100
AcDbEntity
  8
0
 62
     8
100
AcDbLine
 10
3198.274925188857
 20
-18369.20656301231
 30
0.0000000000000047
 11
3198.278482227087
 21
-18368.52970381957
 31
0.0000000000000047
  0
LINE
  5
2F6946
330
18
100
AcDbEntity
  8
0
 62
     8
100
AcDbLine
 10
3198.268026124881
 20
-18368.51922229429
 30
0.0000000000000047
 11
3197.187952099163
 21
-18368.51959924379
 31
0.0000000000000047
  0
LINE
  5
2F6947
330
18
100
AcDbEntity
  8
0
 62
     8
100
AcDbLine
 10
3196.958693437836
 20
-18335.14955753946
 30
0.0000000000000047
 11
3195.837294488297
 21
-18335.14994891149
 31
0.0000000000000047
  0
LINE
  5
2F6948
330
18
100
AcDbEntity
  8
0
 62
     8
100
AcDbLine
 10
3128.012438459759
 20
-18335.17362001629
 30
0.0000000000000047
 11
3126.89139709537
 21
-18335.17401126353
 31
0.0000000000000047
  0
LINE
  5
2F6949
330
18
100
AcDbEntity
  8
0
 62
     8
100
AcDbLine
 10
3155.816964072951
 20
-18281.29210588338
 30
0.0000000000000047
 11
3154.845689189038
 21
-18322.05839754128
 31
0.0000000000000047
  0
LINE
  5
2F694A
330
18
100
AcDbEntity
  8
0
 62
     8
100
AcDbLine
 10
3169.681896964652
 20
-18322.25737855511
 30
0.0000000000000047
 11
3169.138027004912
 21
-18281.39954033899
 31
0.0000000000000047
  0
LINE
  5
2F694B
330
18
100
AcDbEntity
  8
0
 62
     8
100
AcDbLine
 10
3144.664643333608
 20
-18282.76622017856
 30
0.0000000000000047
 11
3143.653728745873
 21
-18325.1965290411
 31
0.0000000000000047
  0
LINE
  5
2F694C
330
18
100
AcDbEntity
  8
0
 62
     8
100
AcDbLine
 10
3180.755581700251
 20
-18325.57420705182
 30
0.0000000000000047
 11
3180.189660664445
 21
-18283.05967340246
 31
0.0000000000000047
  0
LINE
  5
2F694D
330
18
100
AcDbEntity
  8
0
 62
     8
100
AcDbLine
 10
3136.074535179063
 20
-18285.59105974951
 30
0.0000000000000047
 11
3135.073135424633
 21
-18327.62211320885
 31
0.0000000000000047
  0
LINE
  5
2F694E
330
18
100
AcDbEntity
  8
0
 62
     8
100
AcDbLine
 10
3189.146952201197
 20
-18327.58945517629
 30
0.0000000000000047
 11
3188.593707423235
 21
-18286.02698116569
 31
0.0000000000000047
  0
SPLINE
  5
2F694F
330
18
100
AcDbEntity
  8
0
 62
     8
100
AcDbSpline
210
0.0
220
0.0
230
1.0
 70
     8
 71
     3
 72
    11
 73
     7
 74
     0
 42
0.0000000001
 43
0.0000000001
 40
0.0
 40
0.0
 40
0.0
 40
0.0
 40
0.1523999286863531
 40
0.4419423738760802
 40
0.7315048151607057
 40
0.9999999999999998
 40
0.9999999999999998
 40
0.9999999999999998
 40
0.9999999999999998
 10
3165.144053383605
 20
-18311.4873672353
 30
0.0000000000000047
 10
3164.852567232791
 20
-18311.4740234474
 30
0.0000000000000047
 10
3164.0072907123
 20
-18311.43532798768
 30
0.0000000000000047
 10
3162.59932633494
 20
-18311.4019698557
 30
0.0000000000000047
 10
3160.965128853864
 20
-18311.39736002017
 30
0.0000000000000047
 10
3159.894217279441
 20
-18311.42551905784
 30
0.0000000000000047
 10
3159.378975505722
 20
-18311.43906706017
 30
0.0000000000000047
  0
SPLINE
  5
2F6950
330
18
100
AcDbEntity
  8
0
 62
     8
100
AcDbSpline
210
0.0
220
0.0
230
1.0
 70
     8
 71
     3
 72
    11
 73
     7
 74
     0
 42
0.0000000001
 43
0.0000000001
 40
0.0
 40
0.0
 40
0.0
 40
0.0
 40
0.0349574801366461
 40
0.3646874854742504
 40
0.6946313654922378
 40
1.0
 40
1.0
 40
1.0
 40
1.0
 10
3155.09210008083
 20
-18311.71634893373
 30
0.0000000000000047
 10
3155.035134999203
 20
-18311.72162596503
 30
0.0000000000000047
 10
3154.440857256703
 20
-18311.77667762389
 30
0.0000000000000047
 10
3153.331048373188
 20
-18311.90728174584
 30
0.0000000000000047
 10
3151.819594707308
 20
-18312.11574710217
 30
0.0000000000000047
 10
3150.864051097127
 20
-18312.28240273039
 30
0.0000000000000047
 10
3150.404760526296
 20
-18312.36250724661
 30
0.0000000000000047
  0
SPLINE
  5
2F6951
330
18
100
AcDbEntity
  8
0
 62
     8
100
AcDbSpline
210
0.0
220
0.0
230
1.0
 70
     8
 71
     3
 72
    11
 73
     7
 74
     0
 42
0.0000000001
 43
0.0000000001
 40
0.0
 40
0.0
 40
0.0
 40
0.0
 40
0.1785674062997827
 40
0.518459248454363
 40
0.8580889746445594
 40
1.0
 40
1.0
 40
1.0
 40
1.0
 10
3174.056030856065
 20
-18312.5608879638
 30
0.0000000000000047
 10
3173.799044183169
 20
-18312.51033701597
 30
0.0000000000000047
 10
3173.052899519629
 20
-18312.36356551402
 30
0.0000000000000047
 10
3171.775021748127
 20
-18312.14914888363
 30
0.0000000000000047
 10
3170.522789579188
 20
-18311.96560658893
 30
0.0000000000000047
 10
3169.766355276886
 20
-18311.88029614295
 30
0.0000000000000047
 10
3169.543432570741
 20
-18311.85515498341
 30
0.0000000000000047
  0
LINE
  5
2F6952
330
18
100
AcDbEntity
  8
0
 62
     8
100
AcDbLine
 10
3128.316710487956
 20
-18335.67610974043
 30
0.0000000000000047
 11
3128.382876436703
 21
-18338.30847538101
 31
0.0000000000000047
  0
LWPOLYLINE
  5
2F6953
330
18
100
AcDbEntity
  8
0
 62
     8
100
AcDbPolyline
 90
        3
 70
   128
 43
0.0
 10
3160.736343213978
 20
-18289.73815481641
 10
3159.855282710238
 20
-18287.65178628614
 10
3157.070577314174
 20
-18281.05760246211
  0
LINE
  5
2F6954
330
18
100
AcDbEntity
  8
0
 62
     8
100
AcDbLine
 10
3195.418349152306
 20
-18338.66076218437
 30
0.0000000000000047
 11
3195.512181368965
 21
-18336.02923489066
 31
0.0000000000000047
  0
LINE
  5
2F6955
330
18
100
AcDbEntity
  8
0
 62
     8
100
AcDbLine
 10
3167.8963998234
 20
-18281.13230617835
 30
0.0000000000000047
 11
3163.781314011263
 21
-18289.74679855026
 31
0.0000000000000047
  0
SPLINE
  5
2F6956
330
18
100
AcDbEntity
  8
0
 62
     8
100
AcDbSpline
210
0.0
220
0.0
230
1.0
 70
     8
 71
     3
 72
    17
 73
    13
 74
     0
 42
0.0000000001
 43
0.0000000001
 40
0.0
 40
0.0
 40
0.0
 40
0.0
 40
0.0252236137851103
 40
0.1300360646462781
 40
0.2262149612821971
 40
0.3155498179721601
 40
0.4114737588690952
 40
0.5558363459898974
 40
0.6782271147057508
 40
0.7968075601005423
 40
0.9247264330562709
 40
1.0
 40
1.0
 40
1.0
 40
1.0
 10
3157.06441574279
 20
-18281.05917138194
 30
0.0000000000000047
 10
3157.060515798827
 20
-18281.04485422341
 30
0.0000000000000047
 10
3157.040410298891
 20
-18280.97104453985
 30
0.0000000000000047
 10
3156.951756058236
 20
-18280.86516313135
 30
0.0000000000000047
 10
3156.821678963762
 20
-18280.75538363056
 30
0.0000000000000047
 10
3156.669297066166
 20
-18280.68636894496
 30
0.0000000000000047
 10
3156.477587658756
 20
-18280.65091354919
 30
0.0000000000000047
 10
3156.26131106129
 20
-18280.68039429144
 30
0.0000000000000047
 10
3156.05830887778
 20
-18280.7898359733
 30
0.0000000000000047
 10
3155.911663489748
 20
-18280.9516150175
 30
0.0000000000000047
 10
3155.826040095152
 20
-18281.12816641883
 30
0.0000000000000047
 10
3155.826977152309
 20
-18281.24822167697
 30
0.0000000000000047
 10
3155.827324289409
 20
-18281.29269669541
 30
0.0000000000000047
  0
SPLINE
  5
2F6957
330
18
100
AcDbEntity
  8
0
 62
     8
100
AcDbSpline
210
0.0
220
0.0
230
1.0
 70
     8
 71
     3
 72
    17
 73
    13
 74
     0
 42
0.0000000001
 43
0.0000000001
 40
0.0
 40
0.0
 40
0.0
 40
0.0
 40
0.0267639473788942
 40
0.1628327734784854
 40
0.2722647083566674
 40
0.3717552309140611
 40
0.4628605264826853
 40
0.5574787532570267
 40
0.6854641697871069
 40
0.7919945844846385
 40
0.9081881805805148
 40
1.0
 40
1.0
 40
1.0
 40
1.0
 10
3169.131349799951
 20
-18281.39971593728
 30
0.0000000000000047
 10
3169.133233618496
 20
-18281.38431260019
 30
0.0000000000000047
 10
3169.14469483511
 20
-18281.29059816921
 30
0.0000000000000047
 10
3169.086501162227
 20
-18281.13450395285
 30
0.0000000000000047
 10
3168.976295433057
 20
-18280.9681828419
 30
0.0000000000000047
 10
3168.839503947717
 20
-18280.85694277073
 30
0.0000000000000047
 10
3168.688423263926
 20
-18280.78751675803
 30
0.0000000000000047
 10
3168.508502022828
 20
-18280.75392526966
 30
0.0000000000000047
 10
3168.315057250711
 20
-18280.77407535965
 30
0.0000000000000047
 10
3168.128672354353
 20
-18280.85752107696
 30
0.0000000000000047
 10
3167.983416760423
 20
-18280.97555854751
 30
0.0000000000000047
 10
3167.928602734912
 20
-18281.08364923929
 30
0.0000000000000047
 10
3167.904408290744
 20
-18281.13135955033
 30
0.0000000000000047
  0
LINE
  5
2F6958
330
18
100
AcDbEntity
  8
0
 62
     8
100
AcDbLine
 10
3143.918060944397
 20
-18314.10172032126
 30
0.0000000000000047
 11
3143.124442097436
 21
-18314.41398252563
 31
0.0000000000000047
  0
SPLINE
  5
2F6959
330
18
100
AcDbEntity
  8
0
 62
     8
100
AcDbSpline
210
0.0
220
0.0
230
1.0
 70
     8
 71
     3
 72
     9
 73
     5
 74
     0
 42
0.0000000001
 43
0.0000000001
 40
0.0
 40
0.0
 40
0.0
 40
0.0
 40
0.9414610300097624
 40
1.0
 40
1.0
 40
1.0
 40
1.0
 10
3181.207290175247
 20
-18314.73540742667
 30
0.0000000000000047
 10
3181.02526984087
 20
-18314.65254959575
 30
0.0000000000000047
 10
3180.831931690299
 20
-18314.56453975967
 30
0.0000000000000047
 10
3180.620257271901
 20
-18314.48254349398
 30
0.0000000000000047
 10
3180.607866069475
 20
-18314.47774351705
 30
0.0000000000000047
  0
LWPOLYLINE
  5
2F695A
330
18
100
AcDbEntity
  8
0
 62
     8
100
AcDbPolyline
 90
        3
 70
   128
 43
0.0
 10
3155.626187899566
 20
-18289.29925953208
 10
3153.97879246588
 20
-18288.13097013996
 10
3145.696940666192
 20
-18282.25771248232
  0
LINE
  5
2F695B
330
18
100
AcDbEntity
  8
0
 62
     8
100
AcDbLine
 10
3179.171904293673
 20
-18282.53529480307
 30
0.0000000000000047
 11
3169.241516879846
 21
-18289.17356886488
 31
0.0000000000000047
  0
SPLINE
  5
2F695C
330
18
100
AcDbEntity
  8
0
 62
     8
100
AcDbSpline
210
0.0
220
0.0
230
1.0
 70
     8
 71
     3
 72
    15
 73
    11
 74
     0
 42
0.0000000001
 43
0.0000000001
 40
0.0
 40
0.0
 40
0.0
 40
0.0
 40
0.0267202686596549
 40
0.1370077768780357
 40
0.2576269187588011
 40
0.4174785544040253
 40
0.5703971160519039
 40
0.7170369362648567
 40
0.8776594565397799
 40
1.0
 40
1.0
 40
1.0
 40
1.0
 10
3145.695697235872
 20
-18282.26131361326
 30
0.0000000000000047
 10
3145.686175977787
 20
-18282.25316787098
 30
0.0000000000000047
 10
3145.637355869728
 20
-18282.21140069959
 30
0.0000000000000047
 10
3145.522830248445
 20
-18282.16524825416
 30
0.0000000000000047
 10
3145.343325675942
 20
-18282.12707187266
 30
0.0000000000000047
 10
3145.136869896298
 20
-18282.14853329236
 30
0.0000000000000047
 10
3144.938094090627
 20
-18282.24097803285
 30
0.0000000000000047
 10
3144.781771541521
 20
-18282.39267777845
 30
0.0000000000000047
 10
3144.681529319682
 20
-18282.57537776515
 30
0.0000000000000047
 10
3144.675342104813
 20
-18282.70891082561
 30
0.0000000000000047
 10
3144.672667030476
 20
-18282.76664453464
 30
0.0000000000000047
  0
SPLINE
  5
2F695D
330
18
100
AcDbEntity
  8
0
 62
     8
100
AcDbSpline
210
0.0
220
0.0
230
1.0
 70
     8
 71
     3
 72
    16
 73
    12
 74
     0
 42
0.0000000001
 43
0.0000000001
 40
0.0
 40
0.0
 40
0.0
 40
0.0
 40
0.0240544379127609
 40
0.1981511493313526
 40
0.3376927955554705
 40
0.462037717489736
 40
0.5747989939797524
 40
0.6876881515321496
 40
0.8299945104077325
 40
0.9717576337201332
 40
1.0
 40
1.0
 40
1.0
 40
1.0
 10
3180.184521794974
 20
-18283.05974886703
 30
0.0000000000000047
 10
3180.186022376665
 20
-18283.04864099501
 30
0.0000000000000047
 10
3180.198383587841
 20
-18282.95713864458
 30
0.0000000000000047
 10
3180.140999099267
 20
-18282.80022845265
 30
0.0000000000000047
 10
3180.029690834325
 20
-18282.62979216913
 30
0.0000000000000047
 10
3179.891426844855
 20
-18282.51735418141
 30
0.0000000000000047
 10
3179.742456393521
 20
-18282.44905939944
 30
0.0000000000000047
 10
3179.572333172638
 20
-18282.41596947267
 30
0.0000000000000047
 10
3179.387902458536
 20
-18282.4337924523
 30
0.0000000000000047
 10
3179.244086894405
 20
-18282.47906591195
 30
0.0000000000000047
 10
3179.183653226975
 20
-18282.53027432285
 30
0.0000000000000047
 10
3179.17361361134
 20
-18282.53878138166
 30
0.0000000000000047
  0
LINE
  5
2F695E
330
18
100
AcDbEntity
  8
0
 62
     8
100
AcDbLine
 10
3131.354395272228
 20
-18289.3366502615
 30
0.0000000000000047
 11
3130.394621960204
 21
-18329.62060366723
 31
0.0000000000000047
  0
LINE
  5
2F695F
330
18
100
AcDbEntity
  8
0
 62
     8
100
AcDbLine
 10
3193.605586210666
 20
-18330.02969495487
 30
0.0000000000000047
 11
3193.070743214892
 21
-18289.84965431808
 31
0.0000000000000047
  0
LINE
  5
2F6960
330
18
100
AcDbEntity
  8
0
 62
     8
100
AcDbLine
 10
3144.546562472017
 20
-18287.72209565558
 30
0.0000000000000047
 11
3136.948951635849
 21
-18285.00137603885
 31
0.0000000000000047
  0
LINE
  5
2F6961
330
18
100
AcDbEntity
  8
0
 62
     8
100
AcDbLine
 10
3187.73145325691
 20
-18285.42718501636
 30
0.0000000000000047
 11
3180.254588968202
 21
-18287.93785306943
 31
0.0000000000000047
  0
SPLINE
  5
2F6962
330
18
100
AcDbEntity
  8
0
 62
     8
100
AcDbSpline
210
0.0
220
0.0
230
1.0
 70
     8
 71
     3
 72
    13
 73
     9
 74
     0
 42
0.0000000001
 43
0.0000000001
 40
0.0
 40
0.0
 40
0.0
 40
0.0
 40
0.1151515520821067
 40
0.3251158201285738
 40
0.5322108283573598
 40
0.7120319332147166
 40
0.8989351060394188
 40
1.0
 40
1.0
 40
1.0
 40
1.0
 10
3136.946990180569
 20
-18285.00313435703
 30
0.0000000000000047
 10
3136.901942598569
 20
-18284.98936458884
 30
0.0000000000000047
 10
3136.774756457332
 20
-18284.95048739267
 30
0.0000000000000047
 10
3136.551131484823
 20
-18284.96889225576
 30
0.0000000000000047
 10
3136.326405999897
 20
-18285.07701359484
 30
0.0000000000000047
 10
3136.167495805205
 20
-18285.25229799003
 30
0.0000000000000047
 10
3136.082170926068
 20
-18285.43150776326
 30
0.0000000000000047
 10
3136.084240588518
 20
-18285.54968315725
 30
0.0000000000000047
 10
3136.084966954529
 20
-18285.5911578381
 30
0.0000000000000047
  0
SPLINE
  5
2F6963
330
18
100
AcDbEntity
  8
0
 62
     8
100
AcDbSpline
210
0.0
220
0.0
230
1.0
 70
     8
 71
     3
 72
    10
 73
     6
 74
     0
 42
0.0000000001
 43
0.0000000001
 40
0.0
 40
0.0
 40
0.0
 40
0.0
 40
0.4435971219931588
 40
0.9449546602969848
 40
0.9999999999999998
 40
0.9999999999999998
 40
0.9999999999999998
 40
0.9999999999999998
 10
3161.594107864397
 20
-18302.77927543487
 30
0.0000000000000047
 10
3161.489914541402
 20
-18302.77834686142
 30
0.0000000000000047
 10
3161.267960968545
 20
-18302.77636880571
 30
0.0000000000000047
 10
3161.031601636473
 20
-18302.75034353856
 30
0.0000000000000047
 10
3160.934377083369
 20
-18302.72767145965
 30
0.0000000000000047
 10
3160.924758587916
 20
-18302.72542849447
 30
0.0000000000000047
  0
SPLINE
  5
2F6964
330
18
100
AcDbEntity
  8
0
 62
     8
100
AcDbSpline
210
0.0
220
0.0
230
1.0
 70
     8
 71
     3
 72
    10
 73
     6
 74
     0
 42
0.0000000001
 43
0.0000000001
 40
0.0
 40
0.0
 40
0.0
 40
0.0
 40
0.3755733917586761
 40
0.9417293519678395
 40
1.0
 40
1.0
 40
1.0
 40
1.0
 10
3163.378251742911
 20
-18302.75621591681
 30
0.0000000000000047
 10
3163.308854962627
 20
-18302.76566090303
 30
0.0000000000000047
 10
3163.134846403024
 20
-18302.7893436797
 30
0.0000000000000047
 10
3162.91880180907
 20
-18302.79749318837
 30
0.0000000000000047
 10
3162.791083846144
 20
-18302.79050107867
 30
0.0000000000000047
 10
3162.779165378279
 20
-18302.78984858444
 30
0.0000000000000047
  0
SPLINE
  5
2F6965
330
18
100
AcDbEntity
  8
0
 62
     8
100
AcDbSpline
210
0.0
220
0.0
230
1.0
 70
     8
 71
     3
 72
    14
 73
    10
 74
     0
 42
0.0000000001
 43
0.0000000001
 40
0.0
 40
0.0
 40
0.0
 40
0.0
 40
0.1455044122935077
 40
0.319057314563529
 40
0.4702533994552749
 40
0.6020672325889107
 40
0.7249715697236269
 40
0.8554212292777418
 40
1.0
 40
1.0
 40
1.0
 40
1.0
 10
3188.586101121743
 20
-18286.02797032128
 30
0.0000000000000047
 10
3188.583645527769
 20
-18285.96830584494
 30
0.0000000000000047
 10
3188.578260981647
 20
-18285.83747553336
 30
0.0000000000000047
 10
3188.485930165544
 20
-18285.66295834282
 30
0.0000000000000047
 10
3188.357063054814
 20
-18285.52740045386
 30
0.0000000000000047
 10
3188.213311373126
 20
-18285.44185334123
 30
0.0000000000000047
 10
3188.062689996872
 20
-18285.39700128317
 30
0.0000000000000047
 10
3187.89828534282
 20
-18285.38181246886
 30
0.0000000000000047
 10
3187.790967007599
 20
-18285.41712604643
 30
0.0000000000000047
 10
3187.734551192818
 20
-18285.43568992229
 30
0.0000000000000047
  0
SPLINE
  5
2F6966
330
18
100
AcDbEntity
  8
0
 62
     8
100
AcDbSpline
210
0.0
220
0.0
230
1.0
 70
     8
 71
     3
 72
     9
 73
     5
 74
     0
 42
0.0000000001
 43
0.0000000001
 40
0.0
 40
0.0
 40
0.0
 40
0.0
 40
0.4998737672749618
 40
1.0
 40
1.0
 40
1.0
 40
1.0
 10
3162.778909779178
 20
-18302.79088662235
 30
0.0000000000000047
 10
3162.581615067388
 20
-18302.78645547128
 30
0.0000000000000047
 10
3162.186925998457
 20
-18302.77759093117
 30
0.0000000000000047
 10
3161.791893022317
 20
-18302.7798440991
 30
0.0000000000000047
 10
3161.594326668155
 20
-18302.78097096749
 30
0.0000000000000047
  0
LINE
  5
2F6967
330
18
100
AcDbEntity
  8
0
 62
     8
100
AcDbLine
 10
3160.957320575234
 20
-18302.77251203646
 30
0.0000000000000047
 11
3160.787038134268
 21
-18289.97972421013
 31
0.0000000000000047
  0
LINE
  5
2F6968
330
18
100
AcDbEntity
  8
0
 62
     8
100
AcDbLine
 10
3163.718554616409
 20
-18290.00826676083
 30
0.0000000000000047
 11
3163.413858592682
 21
-18302.79685190917
 31
0.0000000000000047
  0
LINE
  5
2F6969
330
18
100
AcDbEntity
  8
0
 62
     8
100
AcDbLine
 10
3131.222824522506
 20
-18293.43287099131
 30
0.0000000000000047
 11
3130.360060378429
 21
-18329.64478818298
 31
0.0000000000000047
  0
SPLINE
  5
2F696A
330
18
100
AcDbEntity
  8
0
 62
     8
100
AcDbSpline
210
0.0
220
0.0
230
1.0
 70
     8
 71
     3
 72
     9
 73
     5
 74
     0
 42
0.0000000001
 43
0.0000000001
 40
0.0
 40
0.0
 40
0.0
 40
0.0
 40
0.2953671738498809
 40
1.0
 40
1.0
 40
1.0
 40
1.0
 10
3160.777917159283
 20
-18289.97902018848
 30
0.0000000000000047
 10
3160.780463278709
 20
-18289.95456185386
 30
0.0000000000000047
 10
3160.789083462845
 20
-18289.87175531071
 30
0.0000000000000047
 10
3160.754745976902
 20
-18289.79424602733
 30
0.0000000000000047
 10
3160.730550657138
 20
-18289.73963044194
 30
0.0000000000000047
  0
SPLINE
  5
2F696B
330
18
100
AcDbEntity
  8
0
 62
     8
100
AcDbSpline
210
0.0
220
0.0
230
1.0
 70
     8
 71
     3
 72
    10
 73
     6
 74
     0
 42
0.0000000001
 43
0.0000000001
 40
0.0
 40
0.0
 40
0.0
 40
0.0
 40
0.1427523858655691
 40
0.9866059488308112
 40
1.0
 40
1.0
 40
1.0
 40
1.0
 10
3163.787110193539
 20
-18289.7468081766
 30
0.0000000000000047
 10
3163.780056020943
 20
-18289.75769625555
 30
0.0000000000000047
 10
3163.731302449471
 20
-18289.83294714115
 30
0.0000000000000047
 10
3163.706340687819
 20
-18289.9309461407
 30
0.0000000000000047
 10
3163.719012021222
 20
-18290.00802946909
 30
0.0000000000000047
 10
3163.719210004261
 20
-18290.00923385629
 30
0.0000000000000047
  0
LINE
  5
2F696C
330
18
100
AcDbEntity
  8
0
 62
     8
100
AcDbLine
 10
3135.983653699831
 20
-18289.4051806525
 30
0.0000000000000047
 11
3132.120545002309
 21
-18288.71899044998
 31
0.0000000000000047
  0
LINE
  5
2F696D
330
18
100
AcDbEntity
  8
0
 62
     8
100
AcDbLine
 10
3192.31566264704
 20
-18289.22426661349
 30
0.0000000000000047
 11
3188.644079480561
 21
-18289.81142998909
 31
0.0000000000000047
  0
SPLINE
  5
2F696E
330
18
100
AcDbEntity
  8
0
 62
     8
100
AcDbSpline
210
0.0
220
0.0
230
1.0
 70
     8
 71
     3
 72
    13
 73
     9
 74
     0
 42
0.0000000001
 43
0.0000000001
 40
0.0
 40
0.0
 40
0.0
 40
0.0
 40
0.080817999676912
 40
0.2339221055581951
 40
0.4538139721732942
 40
0.6677917846351403
 40
0.8739137500499436
 40
1.0
 40
1.0
 40
1.0
 40
1.0
 10
3132.119412974737
 20
-18288.72434159868
 30
0.0000000000000047
 10
3132.089977397249
 20
-18288.71818415561
 30
0.0000000000000047
 10
3132.004778155843
 20
-18288.70036186285
 30
0.0000000000000047
 10
3131.834583476603
 20
-18288.72072967291
 30
0.0000000000000047
 10
3131.62899568146
 20
-18288.80575319277
 30
0.0000000000000047
 10
3131.459541416988
 20
-18288.97763851993
 30
0.0000000000000047
 10
3131.365213452363
 20
-18289.16563971327
 30
0.0000000000000047
 10
3131.364596190973
 20
-18289.28979146171
 30
0.0000000000000047
 10
3131.36436191569
 20
-18289.33691199536
 30
0.0000000000000047
  0
SPLINE
  5
2F696F
330
18
100
AcDbEntity
  8
0
 62
     8
100
AcDbSpline
210
0.0
220
0.0
230
1.0
 70
     8
 71
     3
 72
    14
 73
    10
 74
     0
 42
0.0000000001
 43
0.0000000001
 40
0.0
 40
0.0
 40
0.0
 40
0.0
 40
0.1404058877004931
 40
0.339767143657257
 40
0.5016187448240422
 40
0.6482237080609881
 40
0.7791013180431387
 40
0.9118058275451719
 40
1.0
 40
1.0
 40
1.0
 40
1.0
 10
3193.061503417371
 20
-18289.85010987242
 30
0.0000000000000047
 10
3193.060797311306
 20
-18289.79774644758
 30
0.0000000000000047
 10
3193.059088610588
 20
-18289.67103259259
 30
0.0000000000000047
 10
3192.972234209792
 20
-18289.49927471691
 30
0.0000000000000047
 10
3192.845214982776
 20
-18289.35949889298
 30
0.0000000000000047
 10
3192.705570848665
 20
-18289.27177117486
 30
0.0000000000000047
 10
3192.560834590287
 20
-18289.22525771144
 30
0.0000000000000047
 10
3192.429444099644
 20
-18289.20658678119
 30
0.0000000000000047
 10
3192.349236241823
 20
-18289.22432601836
 30
0.0000000000000047
 10
3192.317213118905
 20
-18289.23140843881
 30
0.0000000000000047
  0
LINE
  5
2F6970
330
18
100
AcDbEntity
  8
0
 62
     8
100
AcDbLine
 10
3163.485755995001
 20
-18297.25590399439
 30
0.0000000000000047
 11
3163.354647477139
 21
-18302.75907706307
 31
0.0000000000000047
  0
SPLINE
  5
2F6971
330
18
100
AcDbEntity
  8
0
 62
     8
100
AcDbSpline
210
0.0
220
0.0
230
1.0
 70
     8
 71
     3
 72
     9
 73
     5
 74
     0
 42
0.0000000001
 43
0.0000000001
 40
0.0
 40
0.0
 40
0.0
 40
0.0
 40
0.9540231897947746
 40
0.9999999999999998
 40
0.9999999999999998
 40
0.9999999999999998
 40
0.9999999999999998
 10
3131.261075300319
 20
-18293.25343806454
 30
0.0000000000000047
 10
3131.238418462313
 20
-18293.31014395653
 30
0.0000000000000047
 10
3131.214669733512
 20
-18293.36958265006
 30
0.0000000000000047
 10
3131.223845148257
 20
-18293.43027994191
 30
0.0000000000000047
 10
3131.224267004557
 20
-18293.43307060979
 30
0.0000000000000047
  0
SPLINE
  5
2F6972
330
18
100
AcDbEntity
  8
0
 62
     8
100
AcDbSpline
210
0.0
220
0.0
230
1.0
 70
     8
 71
     3
 72
     9
 73
     5
 74
     0
 42
0.0000000001
 43
0.0000000001
 40
0.0
 40
0.0
 40
0.0
 40
0.0
 40
0.5242576175573591
 40
1.0
 40
1.0
 40
1.0
 40
1.0
 10
3163.551752749908
 20
-18297.00911480591
 30
0.0000000000000047
 10
3163.530551019195
 20
-18297.0498909579
 30
0.0000000000000047
 10
3163.490109583529
 20
-18297.12766980292
 30
0.0000000000000047
 10
3163.494317464696
 20
-18297.21504070305
 30
0.0000000000000047
 10
3163.496319332109
 20
-18297.25660674324
 30
0.0000000000000047
  0
SPLINE
  5
2F6973
330
18
100
AcDbEntity
  8
0
 62
     8
100
AcDbSpline
210
0.0
220
0.0
230
1.0
 70
     8
 71
     3
 72
    12
 73
     8
 74
     0
 42
0.0000000001
 43
0.0000000001
 40
0.0
 40
0.0
 40
0.0
 40
0.0
 40
0.1440092902416987
 40
0.3586329020718148
 40
0.5725460291602383
 40
0.7862202516463883
 40
1.0
 40
1.0
 40
1.0
 40
1.0
 10
3197.692790612674
 20
-18367.36589757921
 30
0.0000000000000047
 10
3197.728885990707
 20
-18367.36323613889
 30
0.0000000000000047
 10
3197.81877595651
 20
-18367.35660823271
 30
0.0000000000000047
 10
3197.954276734673
 20
-18367.30041566013
 30
0.0000000000000047
 10
3198.07601158216
 20
-18367.19703011675
 30
0.0000000000000047
 10
3198.158961966023
 20
-18367.06130198204
 30
0.0000000000000047
 10
3198.170045151043
 20
-18366.96008659921
 30
0.0000000000000047
 10
3198.175588111612
 20
-18366.90946641423
 30
0.0000000000000047
  0
ARC
  5
2F6974
330
18
100
AcDbEntity
  8
0
 62
     8
100
AcDbCircle
 10
3161.247257365065
 20
-18457.04174995254
 30
0.0000000000000047
 40
100.8568190153962
100
AcDbArc
 50
80.60818624067831
 51
97.72983291241532
  0
SPLINE
  5
2F6975
330
18
100
AcDbEntity
  8
0
 62
     8
100
AcDbSpline
210
0.0
220
0.0
230
1.0
 70
     8
 71
     3
 72
    12
 73
     8
 74
     0
 42
0.0000000001
 43
0.0000000001
 40
0.0
 40
0.0
 40
0.0
 40
0.0
 40
0.2137798047687129
 40
0.4274542003933228
 40
0.6413670221571067
 40
0.8559909153259431
 40
0.9999999999999998
 40
0.9999999999999998
 40
0.9999999999999998
 40
0.9999999999999998
 10
3198.274435073351
 20
-18369.21069270045
 30
0.0000000000000047
 10
3198.268887337714
 20
-18369.26120207016
 30
0.0000000000000047
 10
3198.257794601879
 20
-18369.36219590475
 30
0.0000000000000047
 10
3198.174771313869
 20
-18369.49622113344
 30
0.0000000000000047
 10
3198.052927115023
 20
-18369.5970722391
 30
0.0000000000000047
 10
3197.917305610078
 20
-18369.65044182741
 30
0.0000000000000047
 10
3197.827333889706
 20
-18369.65517136551
 30
0.0000000000000047
 10
3197.791205742275
 20
-18369.6570705117
 30
0.0000000000000047
  0
ARC
  5
2F6976
330
18
100
AcDbEntity
  8
0
 62
     8
100
AcDbCircle
 10
3129.465382711623
 20
-18367.90318516952
 30
0.0000000000000047
 40
4.358963220970831
100
AcDbArc
 50
163.0688269382609
 51
196.3797455128747
  0
LINE
  5
2F6977
330
18
100
AcDbEntity
  8
0
 62
     8
100
AcDbLine
 10
3198.17558811161
 20
-18366.90946641423
 30
0.0000000000000047
 11
3198.179145149843
 21
-18366.23260722149
 31
0.0000000000000047
  0
LWPOLYLINE
  5
2F6978
330
18
100
AcDbEntity
  8
0
 62
     8
100
AcDbPolyline
 90
       53
 70
   128
 43
0.0
 10
3198.179145149843
 20
-18366.23260722149
 10
3197.884013083324
 20
-18365.49860727135
 10
3197.462210241767
 20
-18364.77126038287
 10
3196.915252415993
 20
-18364.05311039486
 10
3196.245035773487
 20
-18363.34667662644
 10
3195.4539075025
 20
-18362.65443353
 10
3194.544641973053
 20
-18361.97881069951
 10
3193.520439864004
 20
-18361.32217254835
 10
3192.384880659624
 20
-18360.68682239048
 10
3191.141945964851
 20
-18360.07499023873
 10
3189.795983048441
 20
-18359.48881655965
 10
3188.351716762475
 20
-18358.93035226936
 10
3186.814213958426
 20
-18358.4015628104
 10
3185.188858426068
 20
-18357.9042997091
 10
3183.48135089347
 20
-18357.44030057561
 10
3181.697673443072
 20
-18357.01119318081
 10
3179.844065323498
 20
-18356.61848733568
 10
3177.927045915661
 20
-18356.263554561
 10
3175.953319725884
 20
-18355.94763624937
 10
3173.92981231899
 20
-18355.6718477172
 10
3171.863597579207
 20
-18355.43714977873
 10
3169.761946086506
 20
-18355.24436498701
 10
3167.632205572387
 20
-18355.09416954669
 10
3165.481836678399
 20
-18354.98709330158
 10
3163.318388593376
 20
-18354.92350754963
 10
3161.149439805081
 20
-18354.9036331926
 10
3158.982586529864
 20
-18354.92754886912
 10
3156.825429571076
 20
-18354.99516250779
 10
3154.685527688553
 20
-18355.10623573043
 10
3152.570385853684
 20
-18355.26038792065
 10
3150.487418443408
 20
-18355.45707184976
 10
3148.443902784268
 20
-18355.69560214442
 10
3146.447038051609
 20
-18355.97513900813
 10
3144.503791188927
 20
-18356.29470859739
 10
3142.620991390991
 20
-18356.65318266636
 10
3140.805224224966
 20
-18357.04931111968
 10
3139.06287843552
 20
-18357.48170167365
 10
3137.400027622686
 20
-18357.94884022003
 10
3135.822525597904
 20
-18358.44909079273
 10
3134.335887363553
 20
-18358.98069967381
 10
3132.945325220638
 20
-18359.54180350988
 10
3131.655725278938
 20
-18360.13043744926
 10
3130.471587684907
 20
-18360.74453109836
 10
3129.397075696355
 20
-18361.38194102043
 10
3128.435955037425
 20
-18362.04042636979
 10
3127.591595469843
 20
-18362.7176854717
 10
3126.866946255575
 20
-18363.41133957294
 10
3126.264561217923
 20
-18364.11896128448
 10
3125.786538794828
 20
-18364.83806647342
 10
3125.434558844887
 20
-18365.56613863707
 10
3125.209858459186
 20
-18366.30062078241
 10
3125.113221263861
 20
-18367.03894388124
 10
3125.109188287173
 20
-18367.20340452616
  0
LWPOLYLINE
  5
2F6979
330
18
100
AcDbEntity
  8
0
 62
     8
100
AcDbPolyline
 90
      103
 70
   128
 43
0.0
 10
3162.240411542148
 20
-18380.11007372834
 10
3164.331173910522
 20
-18380.08736940529
 10
3166.412101689991
 20
-18380.02080052444
 10
3168.475326911925
 20
-18379.91062182983
 10
3170.513000423245
 20
-18379.7572486061
 10
3172.517423350146
 20
-18379.56126476161
 10
3174.480963137811
 20
-18379.32341066421
 10
3176.396185101421
 20
-18379.04459325661
 10
3178.255815882021
 20
-18378.72586777894
 10
3180.052815225419
 20
-18378.36844384043
 10
3181.780351706724
 20
-18377.97367526663
 10
3183.431886254161
 20
-18377.54306210254
 10
3185.001147699035
 20
-18377.07823639543
 10
3186.482168446943
 20
-18376.58096015015
 10
3187.869355907516
 20
-18376.053123272
 10
3189.157432111262
 20
-18375.4967252975
 10
3190.341517233408
 20
-18374.91387739763
 10
3191.417117150628
 20
-18374.30679018863
 10
3192.380147105481
 20
-18373.67776965928
 10
3193.226966592
 20
-18373.02919683626
 10
3193.954343859064
 20
-18372.36353389335
 10
3194.559538648582
 20
-18371.68330786452
 10
3195.040253993739
 20
-18370.99109846737
 10
3195.394659708833
 20
-18370.28952996591
 10
3195.621403959612
 20
-18369.5812630376
 10
3195.719636753115
 20
-18368.8689866361
 10
3195.688985487626
 20
-18368.1554037742
 10
3195.529566173842
 20
-18367.44321526191
 10
3195.241983784038
 20
-18366.73512783533
 10
3194.827319197774
 20
-18366.03382774202
 10
3194.287152866317
 20
-18365.34197666828
 10
3193.623540100718
 20
-18364.66219142536
 10
3192.838999676054
 20
-18363.99705614685
 10
3191.936488770336
 20
-18363.34909384607
 10
3190.919450642527
 20
-18362.72076639943
 10
3189.791729973926
 20
-18362.11444612454
 10
3188.557609848764
 20
-18361.53244421876
 10
3187.221773900689
 20
-18360.9769619985
 10
3185.78928317209
 20
-18360.45010716534
 10
3184.265587509851
 20
-18359.95388160853
 10
3182.656441430486
 20
-18359.49016517643
 10
3180.967963717654
 20
-18359.0607156557
 10
3179.206565730556
 20
-18358.66716473187
 10
3177.37891512167
 20
-18358.31100580848
 10
3175.491959501166
 20
-18357.99358993442
 10
3173.552842476631
 20
-18357.71611363972
 10
3171.568928364998
 20
-18357.47963924936
 10
3169.547729278836
 20
-18357.28506239284
 10
3167.496941059463
 20
-18357.13311605613
 10
3165.424312511547
 20
-18357.02437875627
 10
3163.337728490479
 20
-18356.95926638342
 10
3161.24507826407
 20
-18356.9380200533
 10
3159.154327902491
 20
-18356.96072640441
 10
3157.07340003573
 20
-18357.02729325305
 10
3155.010174901089
 20
-18357.13747397987
 10
3152.972489470263
 20
-18357.29084720776
 10
3150.968078375576
 20
-18357.48682901588
 10
3149.00453850062
 20
-18357.72468108108
 10
3147.089316711593
 20
-18358.00350255309
 10
3145.229673924196
 20
-18358.3222260027
 10
3143.432686500303
 20
-18358.67964993705
 10
3141.705138099494
 20
-18359.07441851501
 10
3140.053615558853
 20
-18359.50503370716
 10
3138.484354113979
 20
-18359.96985941427
 10
3137.003321359273
 20
-18360.46713363149
 10
3135.616145905499
 20
-18360.99497253771
 10
3134.328069701751
 20
-18361.5513705122
 10
3133.143984492314
 20
-18362.13421637986
 10
3132.068384662385
 20
-18362.74130562107
 10
3131.10535462024
 20
-18363.37032411821
 10
3130.258535133721
 20
-18364.01889694123
 10
3129.531145947154
 20
-18364.6845598883
 10
3128.925951244928
 20
-18365.36478794934
 10
3128.445247731983
 20
-18366.05699531012
 10
3128.090842016888
 20
-18366.75856381157
 10
3127.86409776611
 20
-18367.4668307399
 10
3127.765865059899
 20
-18368.17910917361
 10
3127.796516325387
 20
-18368.8926920355
 10
3127.95593555188
 20
-18369.60487851557
 10
3128.243517941684
 20
-18370.31296594216
 10
3128.658182527948
 20
-18371.01426603547
 10
3129.198337027191
 20
-18371.70611914558
 10
3129.861949705498
 20
-18372.38590235629
 10
3130.646502049668
 20
-18373.05103763064
 10
3131.549012955386
 20
-18373.69899993142
 10
3132.566051170486
 20
-18374.32732941027
 10
3133.693771751796
 20
-18374.93364765294
 10
3134.92789196425
 20
-18375.51565159095
 10
3136.263727912325
 20
-18376.0711338112
 10
3137.696206634127
 20
-18376.59798661631
 10
3139.219914303162
 20
-18377.09421420116
 10
3140.82906038253
 20
-18377.55793063327
 10
3142.517526088564
 20
-18377.98737812595
 10
3144.278935995167
 20
-18378.38092904562
 10
3146.106574684548
 20
-18378.73708797317
 10
3147.993542311848
 20
-18379.05450587528
 10
3149.932659161799
 20
-18379.33197810556
 10
3151.916573360724
 20
-18379.56845452813
 10
3153.937760614673
 20
-18379.76303342102
 10
3155.988560753551
 20
-18379.91497975357
 10
3158.061189214175
 20
-18380.02371502121
 10
3160.147773322535
 20
-18380.08882942629
 10
3162.240411542148
 20
-18380.11007372834
  0
LINE
  5
2F697A
330
18
100
AcDbEntity
  8
0
 62
     8
100
AcDbLine
 10
3196.969324337431
 20
-18367.3661500714
 30
0.0000000000000047
 11
3197.692790612674
 21
-18367.36589757921
 31
0.0000000000000047
  0
LINE
  5
2F697B
330
18
100
AcDbEntity
  8
0
 62
     8
100
AcDbLine
 10
3197.067739467031
 20
-18369.65732300388
 30
0.0000000000000047
 11
3196.969324337431
 21
-18367.3661500714
 31
0.0000000000000047
  0
LINE
  5
2F697C
330
18
100
AcDbEntity
  8
0
 62
     8
100
AcDbLine
 10
3197.791205742275
 20
-18369.6570705117
 30
0.0000000000000047
 11
3197.067739467031
 21
-18369.65732300388
 31
0.0000000000000047
  0
ARC
  5
2F697D
330
18
100
AcDbEntity
  8
0
 62
     8
100
AcDbCircle
 10
3162.277832214371
 20
-18276.61803379432
 30
0.0000000000000047
 40
80.79773306447306
100
AcDbArc
 50
269.9918073596078
 51
274.2925890739376
  0
ARC
  5
2F697E
330
18
100
AcDbEntity
  8
0
 62
     8
100
AcDbCircle
 10
3162.202279400621
 20
-18276.10395467951
 30
0.0000000000000047
 40
81.31183654001793
100
AcDbArc
 50
265.1159765002711
 51
270.0450968902447
  0
ARC
  5
2F697F
330
18
100
AcDbEntity
  8
0
 62
     8
100
AcDbCircle
 10
3192.855263433505
 20
-18348.52618854198
 30
0.0000000000000047
 40
4.186849173383408
100
AcDbArc
 50
343.9385622545298
 51
16.65683244428192
  0
ARC
  5
2F6980
330
18
100
AcDbEntity
  8
0
 62
     8
100
AcDbCircle
 10
3130.872132221888
 20
-18348.20051228765
 30
0.0000000000000047
 40
4.215683781116303
100
AcDbArc
 50
162.273187099425
 51
194.6370903623651
  0
SPLINE
  5
2F6981
330
18
100
AcDbEntity
  8
0
 62
     8
100
AcDbSpline
210
0.0
220
0.0
230
1.0
 70
     8
 71
     3
 72
    11
 73
     7
 74
     0
 42
0.0000000001
 43
0.0000000001
 40
0.0
 40
0.0
 40
0.0
 40
0.0
 40
0.2758559440227504
 40
0.5517103004796289
 40
0.8275564010223323
 40
1.0
 40
1.0
 40
1.0
 40
1.0
 10
3126.873093429359
 20
-18335.59581217821
 30
0.0000000000000047
 10
3126.874325018607
 20
-18335.53040698755
 30
0.0000000000000047
 10
3126.876788190017
 20
-18335.39959698263
 30
0.0000000000000047
 10
3126.881638757069
 20
-18335.25949024933
 30
0.0000000000000047
 10
3126.88645406288
 20
-18335.18031344218
 30
0.0000000000000047
 10
3126.890030070669
 20
-18335.18191016909
 30
0.0000000000000047
 10
3126.891405653586
 20
-18335.18252438203
 30
0.0000000000000047
  0
LINE
  5
2F6982
330
18
100
AcDbEntity
  8
0
 62
     8
100
AcDbLine
 10
3126.676432781164
 20
-18347.2904795931
 30
0.0000000000000047
 11
3126.873093429359
 21
-18335.59581217821
 31
0.0000000000000047
  0
ARC
  5
2F6983
330
18
100
AcDbEntity
  8
0
 62
     8
100
AcDbCircle
 10
3132.244380693739
 20
-18347.93022086537
 30
0.0000000000000047
 40
5.593364659491784
100
AcDbArc
 50
130.4729748175678
 51
175.9465613698188
  0
LINE
  5
2F6984
330
18
100
AcDbEntity
  8
0
 62
     8
100
AcDbLine
 10
3128.810874000286
 20
-18331.5082024102
 30
0.0000000000000047
 11
3128.613787491823
 21
-18343.67528006481
 31
0.0000000000000047
  0
SPLINE
  5
2F6985
330
18
100
AcDbEntity
  8
0
 62
     8
100
AcDbSpline
210
0.0
220
0.0
230
1.0
 70
     8
 71
     3
 72
    12
 73
     8
 74
     0
 42
0.0000000001
 43
0.0000000001
 40
0.0
 40
0.0
 40
0.0
 40
0.0
 40
0.2147189828484802
 40
0.4294436758872605
 40
0.6441468431332165
 40
0.8588499770219682
 40
1.0
 40
1.0
 40
1.0
 40
1.0
 10
3129.036196997866
 20
-18330.70291034731
 30
0.0000000000000047
 10
3129.011355477344
 20
-18330.73247830328
 30
0.0000000000000047
 10
3128.961671775668
 20
-18330.79161500154
 30
0.0000000000000047
 10
3128.895476054301
 20
-18330.95650721618
 30
0.0000000000000047
 10
3128.84493311836
 20
-18331.15531868353
 30
0.0000000000000047
 10
3128.816979437095
 20
-18331.34882137855
 30
0.0000000000000047
 10
3128.812607958097
 20
-18331.46293783807
 30
0.0000000000000047
 10
3128.810874000286
 20
-18331.5082024102
 30
0.0000000000000047
  0
ARC
  5
2F6986
330
18
100
AcDbEntity
  8
0
 62
     8
100
AcDbCircle
 10
3141.361504958398
 20
-18345.03673876266
 30
0.0000000000000047
 40
18.90428135006676
100
AcDbArc
 50
111.7690287529472
 51
130.6914304279205
  0
SPLINE
  5
2F6987
330
18
100
AcDbEntity
  8
0
 62
     8
100
AcDbSpline
210
0.0
220
0.0
230
1.0
 70
     8
 71
     3
 72
    12
 73
     8
 74
     0
 42
0.0000000001
 43
0.0000000001
 40
0.0
 40
0.0
 40
0.0
 40
0.0
 40
0.2147050310925321
 40
0.4294074916910899
 40
0.6441020104974503
 40
0.8588013361283868
 40
1.0
 40
1.0
 40
1.0
 40
1.0
 10
3134.741621841258
 20
-18327.91214392759
 30
0.0000000000000047
 10
3134.738109387933
 20
-18327.84651923342
 30
0.0000000000000047
 10
3134.731084523334
 20
-18327.71527063076
 30
0.0000000000000047
 10
3134.664096922073
 20
-18327.56430199924
 30
0.0000000000000047
 10
3134.564177509171
 20
-18327.47124324664
 30
0.0000000000000047
 10
3134.453076443611
 20
-18327.44680339998
 30
0.0000000000000047
 10
3134.379673634528
 20
-18327.47099240109
 30
0.0000000000000047
 10
3134.350551866852
 20
-18327.4805891247
 30
0.0000000000000047
  0
LINE
  5
2F6988
330
18
100
AcDbEntity
  8
0
 62
     8
100
AcDbLine
 10
3134.568361767994
 20
-18340.06476808585
 30
0.0000000000000047
 11
3134.741621841258
 21
-18327.91214392759
 31
0.0000000000000047
  0
ARC
  5
2F6989
330
18
100
AcDbEntity
  8
0
 62
     8
100
AcDbCircle
 10
3153.048727190984
 20
-18386.50296099556
 30
0.0000000000000047
 40
49.98029278512046
100
AcDbArc
 50
100.6478826177422
 51
111.7003877087171
  0
LINE
  5
2F698A
330
18
100
AcDbEntity
  8
0
 62
     8
100
AcDbLine
 10
3143.949965601803
 20
-18325.24137595061
 30
0.0000000000000047
 11
3143.813731820636
 21
-18337.38326507431
 31
0.0000000000000047
  0
SPLINE
  5
2F698B
330
18
100
AcDbEntity
  8
0
 62
     8
100
AcDbSpline
210
0.0
220
0.0
230
1.0
 70
     8
 71
     3
 72
    12
 73
     8
 74
     0
 42
0.0000000001
 43
0.0000000001
 40
0.0
 40
0.0
 40
0.0
 40
0.0
 40
0.214722961010815
 40
0.4294473479830188
 40
0.6441508555470698
 40
0.8588486322319324
 40
1.0
 40
1.0
 40
1.0
 40
1.0
 10
3144.509201440166
 20
-18324.53419783233
 30
0.0000000000000047
 10
3144.446739548691
 20
-18324.55276713169
 30
0.0000000000000047
 10
3144.321815350937
 20
-18324.58990585372
 30
0.0000000000000047
 10
3144.155122237693
 20
-18324.72557113084
 30
0.0000000000000047
 10
3144.028827017918
 20
-18324.90228238657
 30
0.0000000000000047
 10
3143.961099937127
 20
-18325.08395297242
 30
0.0000000000000047
 10
3143.953127825224
 20
-18325.19666680417
 30
0.0000000000000047
 10
3143.949965601803
 20
-18325.24137595063
 30
0.0000000000000047
  0
ARC
  5
2F698C
330
18
100
AcDbEntity
  8
0
 62
     8
100
AcDbCircle
 10
3160.178266119098
 20
-18408.39167614149
 30
0.0000000000000047
 40
85.30882871240789
100
AcDbArc
 50
93.68036160973757
 51
100.5838682842882
  0
SPLINE
  5
2F698D
330
18
100
AcDbEntity
  8
0
 62
     8
100
AcDbSpline
210
0.0
220
0.0
230
1.0
 70
     8
 71
     3
 72
    12
 73
     8
 74
     0
 42
0.0000000001
 43
0.0000000001
 40
0.0
 40
0.0
 40
0.0
 40
0.0
 40
0.2147033072997925
 40
0.4294067912935362
 40
0.6440967411830058
 40
0.8587963953440628
 40
1.0
 40
1.0
 40
1.0
 40
1.0
 10
3155.325274964256
 20
-18323.81803075129
 30
0.0000000000000047
 10
3155.318827702759
 20
-18323.75106764367
 30
0.0000000000000047
 10
3155.305933174458
 20
-18323.61714137333
 30
0.0000000000000047
 10
3155.198914533074
 20
-18323.44416284129
 30
0.0000000000000047
 10
3155.04059127217
 20
-18323.31861062955
 30
0.0000000000000047
 10
3154.864755742021
 20
-18323.25816781106
 30
0.0000000000000047
 10
3154.74842410149
 20
-18323.25860730246
 30
0.0000000000000047
 10
3154.702269854313
 20
-18323.25878166941
 30
0.0000000000000047
  0
LINE
  5
2F698E
330
18
100
AcDbEntity
  8
0
 62
     8
100
AcDbLine
 10
3155.234757679203
 20
-18335.95419738236
 30
0.0000000000000047
 11
3155.325274964256
 21
-18323.81803075129
 31
0.0000000000000047
  0
ARC
  5
2F698F
330
18
100
AcDbEntity
  8
0
 62
     8
100
AcDbCircle
 10
3161.379996405651
 20
-18438.14021340004
 30
0.0000000000000047
 40
102.3706297165859
100
AcDbArc
 50
86.59849744375804
 51
93.44149539737889
  0
LINE
  5
2F6990
330
18
100
AcDbEntity
  8
0
 62
     8
100
AcDbLine
 10
3167.495506747953
 20
-18323.81378329911
 30
0.0000000000000047
 11
3167.453907111405
 21
-18335.94993285777
 31
0.0000000000000047
  0
SPLINE
  5
2F6991
330
18
100
AcDbEntity
  8
0
 62
     8
100
AcDbSpline
210
0.0
220
0.0
230
1.0
 70
     8
 71
     3
 72
    12
 73
     8
 74
     0
 42
0.0000000001
 43
0.0000000001
 40
0.0
 40
0.0
 40
0.0
 40
0.0
 40
0.2147290540979187
 40
0.4294451437548095
 40
0.6441559085273743
 40
0.8588502639492164
 40
1.0
 40
1.0
 40
1.0
 40
1.0
 10
3168.12845987945
 20
-18323.25409588357
 30
0.0000000000000047
 10
3168.057584370489
 20
-18323.25608950629
 30
0.0000000000000047
 10
3167.915837631733
 20
-18323.26007663138
 30
0.0000000000000047
 10
3167.726391175297
 20
-18323.35158751647
 30
0.0000000000000047
 10
3167.583063809709
 20
-18323.4949498593
 30
0.0000000000000047
 10
3167.506818427944
 20
-18323.65893855276
 30
0.0000000000000047
 10
3167.498719344483
 20
-18323.7698063041
 30
0.0000000000000047
 10
3167.495506747953
 20
-18323.81378329911
 30
0.0000000000000047
  0
ARC
  5
2F6992
330
18
100
AcDbEntity
  8
0
 62
     8
100
AcDbCircle
 10
3162.543639931139
 20
-18411.09855994935
 30
0.0000000000000047
 40
88.02181593707272
100
AcDbArc
 50
79.60163683315085
 51
86.36224619978724
  0
SPLINE
  5
2F6993
330
18
100
AcDbEntity
  8
0
 62
     8
100
AcDbSpline
210
0.0
220
0.0
230
1.0
 70
     8
 71
     3
 72
    12
 73
     8
 74
     0
 42
0.0000000001
 43
0.0000000001
 40
0.0
 40
0.0
 40
0.0
 40
0.0
 40
0.2147017600871569
 40
0.429402965321324
 40
0.6440951983340426
 40
0.8587989149270846
 40
1.0
 40
1.0
 40
1.0
 40
1.0
 10
3178.99273815411
 20
-18325.22914590415
 30
0.0000000000000047
 10
3178.986538496892
 20
-18325.16052634811
 30
0.0000000000000047
 10
3178.974139198478
 20
-18325.02328741334
 30
0.0000000000000047
 10
3178.877623403936
 20
-18324.82486437839
 30
0.0000000000000047
 10
3178.735285182839
 20
-18324.66190630018
 30
0.0000000000000047
 10
3178.577186741281
 20
-18324.56001294973
 30
0.0000000000000047
 10
3178.472373161219
 20
-18324.53305452433
 30
0.0000000000000047
 10
3178.430789594025
 20
-18324.52235908301
 30
0.0000000000000047
  0
LINE
  5
2F6994
330
18
100
AcDbEntity
  8
0
 62
     8
100
AcDbLine
 10
3178.997357163483
 20
-18337.37098586973
 30
0.0000000000000047
 11
3178.99273815411
 21
-18325.22914590415
 31
0.0000000000000047
  0
ARC
  5
2F6995
330
18
100
AcDbEntity
  8
0
 62
     8
100
AcDbCircle
 10
3169.266540778759
 20
-18389.95980600259
 30
0.0000000000000047
 40
53.48151821403841
100
AcDbArc
 50
68.95386800639757
 51
79.51679647224683
  0
LINE
  5
2F6996
330
18
100
AcDbEntity
  8
0
 62
     8
100
AcDbLine
 10
3188.430254851547
 20
-18327.89340641257
 30
0.0000000000000047
 11
3188.472797416238
 21
-18340.04595525498
 31
0.0000000000000047
  0
SPLINE
  5
2F6997
330
18
100
AcDbEntity
  8
0
 62
     8
100
AcDbSpline
210
0.0
220
0.0
230
1.0
 70
     8
 71
     3
 72
    12
 73
     8
 74
     0
 42
0.0000000001
 43
0.0000000001
 40
0.0
 40
0.0
 40
0.0
 40
0.0
 40
0.2147197492025645
 40
0.4294410776401726
 40
0.6441480142828735
 40
0.8588480921686267
 40
1.0
 40
1.0
 40
1.0
 40
1.0
 10
3188.842249606748
 20
-18327.46157133735
 30
0.0000000000000047
 10
3188.796112151679
 20
-18327.44917039975
 30
0.0000000000000047
 10
3188.703836902204
 20
-18327.42436843331
 30
0.0000000000000047
 10
3188.580019302
 20
-18327.47744257016
 30
0.0000000000000047
 10
3188.486361546391
 20
-18327.59184260215
 30
0.0000000000000047
 10
3188.436857093508
 20
-18327.74056131869
 30
0.0000000000000047
 10
3188.432129925487
 20
-18327.84999754418
 30
0.0000000000000047
 10
3188.430254851547
 20
-18327.89340641257
 30
0.0000000000000047
  0
ARC
  5
2F6998
330
18
100
AcDbEntity
  8
0
 62
     8
100
AcDbCircle
 10
3181.219569765602
 20
-18347.16868937407
 30
0.0000000000000047
 40
21.12997277029903
100
AcDbArc
 50
51.29188892459628
 51
68.85361418265429
  0
SPLINE
  5
2F6999
330
18
100
AcDbEntity
  8
0
 62
     8
100
AcDbSpline
210
0.0
220
0.0
230
1.0
 70
     8
 71
     3
 72
    12
 73
     8
 74
     0
 42
0.0000000001
 43
0.0000000001
 40
0.0
 40
0.0
 40
0.0
 40
0.0
 40
0.2147012229696807
 40
0.4294013900645324
 40
0.6440980675667749
 40
0.8588074678585172
 40
1.0
 40
1.0
 40
1.0
 40
1.0
 10
3194.669738794273
 20
-18331.48521744301
 30
0.0000000000000047
 10
3194.666849492943
 20
-18331.41539851103
 30
0.0000000000000047
 10
3194.661070904492
 20
-18331.27576099045
 30
0.0000000000000047
 10
3194.620674113573
 20
-18331.06036841193
 30
0.0000000000000047
 10
3194.561259305079
 20
-18330.87258351984
 30
0.0000000000000047
 10
3194.495041020993
 20
-18330.74319361949
 30
0.0000000000000047
 10
3194.450811167568
 20
-18330.69801120458
 30
0.0000000000000047
 10
3194.433264409789
 20
-18330.68008654897
 30
0.0000000000000047
  0
LINE
  5
2F699A
330
18
100
AcDbEntity
  8
0
 62
     8
100
AcDbLine
 10
3194.737372572268
 20
-18343.65220270934
 30
0.0000000000000047
 11
3194.669738794273
 21
-18331.48521744301
 31
0.0000000000000047
  0
ARC
  5
2F699B
330
18
100
AcDbEntity
  8
0
 62
     8
100
AcDbCircle
 10
3191.013684942986
 20
-18348.43297817037
 30
0.0000000000000047
 40
6.059840226374214
100
AcDbArc
 50
6.425988510895522
 51
52.08541061155059
  0
LINE
  5
2F699C
330
18
100
AcDbEntity
  8
0
 62
     8
100
AcDbLine
 10
3196.958626614469
 20
-18335.57135208942
 30
0.0000000000000047
 11
3197.035452746288
 21
-18347.75476279728
 31
0.0000000000000047
  0
SPLINE
  5
2F699D
330
18
100
AcDbEntity
  8
0
 62
     8
100
AcDbSpline
210
0.0
220
0.0
230
1.0
 70
     8
 71
     3
 72
    12
 73
     8
 74
     0
 42
0.0000000001
 43
0.0000000001
 40
0.0
 40
0.0
 40
0.0
 40
0.0
 40
0.0123614233431668
 40
0.2824136151377121
 40
0.5524490372410532
 40
0.8224760384890235
 40
1.0
 40
1.0
 40
1.0
 40
1.0
 10
3196.958685631783
 20
-18335.15134899419
 30
0.0000000000000047
 10
3196.958691450448
 20
-18335.15074228815
 30
0.0000000000000047
 10
3196.958824385843
 20
-18335.13688125915
 30
0.0000000000000047
 10
3196.958305091404
 20
-18335.17692182717
 30
0.0000000000000047
 10
3196.957842856449
 20
-18335.27479525234
 30
0.0000000000000047
 10
3196.957805229156
 20
-18335.41915890716
 30
0.0000000000000047
 10
3196.958393337514
 20
-18335.5281285724
 30
0.0000000000000047
 10
3196.958626614469
 20
-18335.57135208942
 30
0.0000000000000047
  0
SPLINE
  5
2F699E
330
18
100
AcDbEntity
  8
0
 62
     8
100
AcDbSpline
210
0.0
220
0.0
230
1.0
 70
    11
 71
     3
 72
    26
 73
    22
 74
     0
 42
0.0000000001
 43
0.0000000001
 40
0.0
 40
0.0
 40
0.0
 40
0.0
 40
0.0536557160657955
 40
0.1073107484108666
 40
0.1609545051359216
 40
0.2146237893464336
 40
0.2683272450830309
 40
0.3220347609467206
 40
0.3757161861427561
 40
0.4293817679611673
 40
0.4830556119609251
 40
0.5367410411630745
 40
0.5904242798226958
 40
0.6441019549740658
 40
0.6977821172785034
 40
0.7514690083602466
 40
0.8051483258273766
 40
0.8588146473645085
 40
0.9124869934350348
 40
0.966185147164111
 40
1.0
 40
1.0
 40
1.0
 40
1.0
 10
3192.261227204221
 20
-18335.97485737153
 30
0.0000000000000047
 10
3192.208174255649
 20
-18335.98095402789
 30
0.0000000000000047
 10
3192.102069034544
 20
-18335.99314726292
 30
0.0000000000000047
 10
3191.924875267601
 20
-18335.87121679892
 30
0.0000000000000047
 10
3191.759152047336
 20
-18335.65981374944
 30
0.0000000000000047
 10
3191.621991098359
 20
-18335.37260892365
 30
0.0000000000000047
 10
3191.530915587365
 20
-18335.04419075231
 30
0.0000000000000047
 10
3191.497344655323
 20
-18334.71065037621
 30
0.0000000000000047
 10
3191.525552085634
 20
-18334.40983716884
 30
0.0000000000000047
 10
3191.611909272039
 20
-18334.17566493798
 30
0.0000000000000047
 10
3191.745459425708
 20
-18334.03472562175
 30
0.0000000000000047
 10
3191.909770661777
 20
-18334.00316420567
 30
0.0000000000000047
 10
3192.085302740399
 20
-18334.08480677622
 30
0.0000000000000047
 10
3192.252088489138
 20
-18334.27044481814
 30
0.0000000000000047
 10
3192.39206216306
 20
-18334.53901140772
 30
0.0000000000000047
 10
3192.490836645169
 20
-18334.86000936644
 30
0.0000000000000047
 10
3192.538540541466
 20
-18335.19680893226
 30
0.0000000000000047
 10
3192.530715716352
 20
-18335.51182135343
 30
0.0000000000000047
 10
3192.46763367678
 20
-18335.76755273309
 30
0.0000000000000047
 10
3192.370711911094
 20
-18335.92152153996
 30
0.0000000000000047
 10
3192.291741294464
 20
-18335.95999233308
 30
0.0000000000000047
 10
3192.261227204221
 20
-18335.97485737153
 30
0.0000000000000047
1001
ACAD_SPLINE_DATA
1070
   100
1070
     1
1070
   101
1070
     0
1070
   102
1070
    15
1001
ACAD_SPLINE_DATA2
1070
   103
1070
     1
1070
   104
1070
    15
  0
SPLINE
  5
2F699F
330
18
100
AcDbEntity
  8
0
 62
     8
100
AcDbSpline
210
0.0
220
0.0
230
1.0
 70
    11
 71
     3
 72
    26
 73
    22
 74
     0
 42
0.0000000001
 43
0.0000000001
 40
0.0
 40
0.0
 40
0.0
 40
0.0
 40
0.0536901575700041
 40
0.1073813694228545
 40
0.1610533967989647
 40
0.2147195458225473
 40
0.2683984087408435
 40
0.322086121311894
 40
0.3757663472820766
 40
0.4294433016056418
 40
0.4831271598319874
 40
0.5368128659734286
 40
0.5904856404239266
 40
0.6441508298218062
 40
0.6978331401796738
 40
0.7515408450491871
 40
0.8052437974824211
 40
0.8589124575773931
 40
0.912557316328391
 40
0.9662192001272329
 40
1.0
 40
1.0
 40
1.0
 40
1.0
 10
3130.812946014547
 20
-18335.76411464714
 30
0.0000000000000047
 10
3130.791764511343
 20
-18335.6831167902
 30
0.0000000000000047
 10
3130.749401089009
 20
-18335.52111948582
 30
0.0000000000000047
 10
3130.750987350761
 20
-18335.19942663512
 30
0.0000000000000047
 10
3130.801600021903
 20
-18334.86367290689
 30
0.0000000000000047
 10
3130.900601542512
 20
-18334.5442853092
 30
0.0000000000000047
 10
3131.037052484058
 20
-18334.27947824214
 30
0.0000000000000047
 10
3131.1972624848
 20
-18334.09885435887
 30
0.0000000000000047
 10
3131.363785854751
 20
-18334.02309463006
 30
0.0000000000000047
 10
3131.517669055038
 20
-18334.06063033642
 30
0.0000000000000047
 10
3131.640455362732
 20
-18334.207048655
 30
0.0000000000000047
 10
3131.716887450995
 20
-18334.44556203618
 30
0.0000000000000047
 10
3131.73715515068
 20
-18334.74900714653
 30
0.0000000000000047
 10
3131.698588503135
 20
-18335.08307353896
 30
0.0000000000000047
 10
3131.606093637902
 20
-18335.41030819302
 30
0.0000000000000047
 10
3131.471277058735
 20
-18335.69413842917
 30
0.0000000000000047
 10
3131.310833215554
 20
-18335.9026556651
 30
0.0000000000000047
 10
3131.143653173116
 20
-18336.01287137458
 30
0.0000000000000047
 10
3130.989578877709
 20
-18336.01105552314
 30
0.0000000000000047
 10
3130.877444789325
 20
-18335.91613607191
 30
0.0000000000000047
 10
3130.83091959639
 20
-18335.80647776999
 30
0.0000000000000047
 10
3130.812946014547
 20
-18335.76411464714
 30
0.0000000000000047
1001
ACAD_SPLINE_DATA
1070
   100
1070
     1
1070
   101
1070
     0
1070
   102
1070
    15
1001
ACAD_SPLINE_DATA2
1070
   103
1070
     1
1070
   104
1070
    15
  0
LINE
  5
2F69A0
330
18
100
AcDbEntity
  8
0
 62
     8
100
AcDbLine
 10
3167.110741000366
 20
-18335.93006176243
 30
0.0000000000000047
 11
3167.217806186603
 21
-18335.7042381721
 31
0.0000000000000047
  0
LINE
  5
2F69A1
330
18
100
AcDbEntity
  8
0
 62
     8
100
AcDbLine
 10
3167.217806186603
 20
-18335.7042381721
 30
0.0000000000000047
 11
3167.314176971066
 21
-18324.19627807241
 31
0.0000000000000047
  0
LINE
  5
2F69A2
330
18
100
AcDbEntity
  8
0
 62
     8
100
AcDbLine
 10
3167.495506747953
 20
-18323.81378329911
 30
0.0000000000000047
 11
3167.314176971066
 21
-18324.19627807241
 31
0.0000000000000047
  0
LINE
  5
2F69A3
330
18
100
AcDbEntity
  8
0
 62
     8
100
AcDbLine
 10
3155.522256769871
 20
-18335.70831995852
 30
0.0000000000000047
 11
3155.646486057715
 21
-18335.93009588861
 31
0.0000000000000047
  0
LINE
  5
2F69A4
330
18
100
AcDbEntity
  8
0
 62
     8
100
AcDbLine
 10
3155.539458202151
 20
-18324.20038748919
 30
0.0000000000000047
 11
3155.325274964256
 21
-18323.81803075129
 31
0.0000000000000047
  0
LINE
  5
2F69A5
330
18
100
AcDbEntity
  8
0
 62
     8
100
AcDbLine
 10
3155.539458202151
 20
-18324.20038748919
 30
0.0000000000000047
 11
3155.522256769871
 21
-18335.70831995852
 31
0.0000000000000047
  0
SPLINE
  5
2F69A6
330
18
100
AcDbEntity
  8
0
 62
     8
100
AcDbSpline
210
0.0
220
0.0
230
1.0
 70
     8
 71
     3
 72
     9
 73
     5
 74
     0
 42
0.0000000001
 43
0.0000000001
 40
0.0
 40
0.0
 40
0.0
 40
0.0
 40
0.8243909875357603
 40
1.0
 40
1.0
 40
1.0
 40
1.0
 10
3167.314176971066
 20
-18324.19627807241
 30
0.0000000000000047
 10
3167.317397273413
 20
-18324.12648239267
 30
0.0000000000000047
 10
3167.321303553801
 20
-18324.04181907055
 30
0.0000000000000047
 10
3167.365867822076
 20
-18323.97335220976
 30
0.0000000000000047
 10
3167.373693709218
 20
-18323.96132881197
 30
0.0000000000000047
  0
SPLINE
  5
2F69A7
330
18
100
AcDbEntity
  8
0
 62
     8
100
AcDbSpline
210
0.0
220
0.0
230
1.0
 70
     8
 71
     3
 72
     9
 73
     5
 74
     0
 42
0.0000000001
 43
0.0000000001
 40
0.0
 40
0.0
 40
0.0
 40
0.0
 40
0.5390038973076753
 40
0.9999999999999998
 40
0.9999999999999998
 40
0.9999999999999998
 40
0.9999999999999998
 10
3155.462402008363
 20
-18323.92654797523
 30
0.0000000000000047
 10
3155.48696095831
 20
-18323.97244593605
 30
0.0000000000000047
 10
3155.532524543417
 20
-18324.05759923653
 30
0.0000000000000047
 10
3155.537270386833
 20
-18324.15533272973
 30
0.0000000000000047
 10
3155.539458202149
 20
-18324.20038748919
 30
0.0000000000000047
  0
LINE
  5
2F69A8
330
18
100
AcDbEntity
  8
0
 62
     8
100
AcDbLine
 10
3187.336250533839
 20
-18339.61359625351
 30
0.0000000000000047
 11
3187.5685881483
 21
-18328.14332343883
 31
0.0000000000000047
  0
LINE
  5
2F69A9
330
18
100
AcDbEntity
  8
0
 62
     8
100
AcDbLine
 10
3188.430254851547
 20
-18327.89340641257
 30
0.0000000000000047
 11
3187.5685881483
 21
-18328.14332343883
 31
0.0000000000000047
  0
LINE
  5
2F69AA
330
18
100
AcDbEntity
  8
0
 62
     8
100
AcDbLine
 10
3135.624720359835
 20
-18328.16145202487
 30
0.0000000000000047
 11
3134.741621841258
 21
-18327.91214392759
 31
0.0000000000000047
  0
LINE
  5
2F69AB
330
18
100
AcDbEntity
  8
0
 62
     8
100
AcDbLine
 10
3135.624720359835
 20
-18328.16145202487
 30
0.0000000000000047
 11
3135.741047295968
 21
-18339.60421955709
 31
0.0000000000000047
  0
SPLINE
  5
2F69AC
330
18
100
AcDbEntity
  8
0
 62
     8
100
AcDbSpline
210
0.0
220
0.0
230
1.0
 70
     8
 71
     3
 72
    11
 73
     7
 74
     0
 42
0.0000000001
 43
0.0000000001
 40
0.0
 40
0.0
 40
0.0
 40
0.0
 40
0.300486517154343
 40
0.6009595994128443
 40
0.9013916215763375
 40
1.0
 40
1.0
 40
1.0
 40
1.0
 10
3187.5685881483
 20
-18328.14332343883
 30
0.0000000000000047
 10
3187.574534713013
 20
-18328.07695399195
 30
0.0000000000000047
 10
3187.586427576564
 20
-18327.94421806559
 30
0.0000000000000047
 10
3187.663045784935
 20
-18327.79601830741
 30
0.0000000000000047
 10
3187.744377589909
 20
-18327.7110151901
 30
0.0000000000000047
 10
3187.802830259495
 20
-18327.70342443114
 30
0.0000000000000047
 10
3187.817274719139
 20
-18327.70154865007
 30
0.0000000000000047
  0
SPLINE
  5
2F69AD
330
18
100
AcDbEntity
  8
0
 62
     8
100
AcDbSpline
210
0.0
220
0.0
230
1.0
 70
     8
 71
     3
 72
    11
 73
     7
 74
     0
 42
0.0000000001
 43
0.0000000001
 40
0.0
 40
0.0
 40
0.0
 40
0.0
 40
0.2094054697649285
 40
0.5065009245584978
 40
0.8037188973504092
 40
0.9999999999999998
 40
0.9999999999999998
 40
0.9999999999999998
 40
0.9999999999999998
 10
3135.385445227062
 20
-18327.71811351609
 30
0.0000000000000047
 10
3135.414258978701
 20
-18327.72674102793
 30
0.0000000000000047
 10
3135.48395243925
 20
-18327.74760888172
 30
0.0000000000000047
 10
3135.565544001897
 20
-18327.85919911818
 30
0.0000000000000047
 10
3135.616258007063
 20
-18328.0069315015
 30
0.0000000000000047
 10
3135.622312346404
 20
-18328.11748227962
 30
0.0000000000000047
 10
3135.624720359835
 20
-18328.16145202487
 30
0.0000000000000047
  0
LWPOLYLINE
  5
2F69AE
330
18
100
AcDbEntity
  8
0
 62
     8
100
AcDbPolyline
 90
        3
 70
   128
 43
0.0
 10
3197.693636856721
 20
-18367.37548623935
 10
3197.693262866596
 20
-18367.3736469268
 10
3197.692790612674
 20
-18367.36589757921
  0
LINE
  5
2F69AF
330
18
100
AcDbEntity
  8
0
 62
     8
100
AcDbLine
 10
3198.176509971964
 20
-18366.91538804762
 30
0.0000000000000047
 11
3198.17558811161
 21
-18366.90946641423
 31
0.0000000000000047
  0
ELLIPSE
  5
2F69B0
330
18
100
AcDbEntity
  8
0
 62
     8
100
AcDbEllipse
 10
3196.970117651559
 20
-18367.21573613815
 30
0.0000000000000047
 11
0.1345523200816842
 21
-0.128851805841316
 31
0.0
210
0.0
220
0.0
230
0.9999999999999998
 40
0.7047185726581672
 41
5.301174345644581
 42
5.649105566350026
  0
ELLIPSE
  5
2F69B1
330
18
100
AcDbEntity
  8
0
 62
     8
100
AcDbEllipse
 10
3197.068532861048
 20
-18369.50691093052
 30
0.0000000000000047
 11
0.1274639152926739
 21
0.1331030280665118
 31
0.0
210
0.0
220
0.0
230
1.0
 40
0.6968548365938064
 41
4.078309239555348
 42
5.649105566349849
  0
ARC
  5
2F69B2
330
18
100
AcDbEntity
  8
0
 62
     8
100
AcDbCircle
 10
3198.16097178238
 20
-18366.23843729089
 30
0.0000000000000047
 40
0.0190856227082955
100
AcDbArc
 50
2.410187735211638
 51
17.78639275016525
  0
LINE
  5
2F69B3
330
18
100
AcDbEntity
  8
0
 62
     8
100
AcDbLine
 10
3197.226353751242
 20
-18369.41740334744
 30
0.0000000000000047
 11
3197.226170357469
 21
-18369.45230085276
 31
0.0000000000000047
  0
LINE
  5
2F69B4
330
18
100
AcDbEntity
  8
0
 62
     8
100
AcDbLine
 10
3197.226222685305
 20
-18369.41058976302
 30
0.0000000000000047
 11
3197.226353751242
 21
-18369.41740334744
 31
0.0000000000000047
  0
ARC
  5
2F69B5
330
18
100
AcDbEntity
  8
0
 62
     8
100
AcDbCircle
 10
3203.960470700981
 20
-18369.50784670859
 30
0.0000000000000047
 40
6.171069427103392
100
AcDbArc
 50
179.4824472131744
 51
181.385615195379
  0
SPLINE
  5
2F69B6
330
18
100
AcDbEntity
  8
0
 62
     8
100
AcDbSpline
210
0.0
220
0.0
230
1.0
 70
     8
 71
     3
 72
    12
 73
     8
 74
     0
 42
0.0000000001
 43
0.0000000001
 40
0.0
 40
0.0
 40
0.0
 40
0.0
 40
0.1441788475651288
 40
0.3589770571516407
 40
0.5729172410347898
 40
0.7864504460891589
 40
1.0
 40
1.0
 40
1.0
 40
1.0
 10
3197.789653036654
 20
-18369.45210419539
 30
0.0000000000000047
 10
3197.813796136592
 20
-18369.45058640285
 30
0.0000000000000047
 10
3197.873907721002
 20
-18369.4468073971
 30
0.0000000000000047
 10
3197.964516046233
 20
-18369.41029381749
 30
0.0000000000000047
 10
3198.045941117142
 20
-18369.34223153893
 30
0.0000000000000047
 10
3198.101456996218
 20
-18369.25231243287
 30
0.0000000000000047
 10
3198.108874747096
 20
-18369.18488631214
 30
0.0000000000000047
 10
3198.112583764512
 20
-18369.15117196123
 30
0.0000000000000047
  0
LINE
  5
2F69B7
330
18
100
AcDbEntity
  8
0
 62
     8
100
AcDbLine
 10
3198.274435073352
 20
-18369.21069270045
 30
0.0000000000000047
 11
3198.274925188857
 21
-18369.20656301231
 31
0.0000000000000047
  0
LINE
  5
2F69B8
330
18
100
AcDbEntity
  8
0
 62
     8
100
AcDbLine
 10
3197.226170357469
 20
-18369.45230085276
 30
0.0000000000000047
 11
3197.789653036656
 21
-18369.45210419539
 31
0.0000000000000047
  0
LINE
  5
2F69B9
330
18
100
AcDbEntity
  8
0
 62
     8
100
AcDbLine
 10
3198.112583764512
 20
-18369.15117196123
 30
0.0000000000000047
 11
3198.115350336716
 21
-18368.6247284128
 31
0.0000000000000047
  0
ELLIPSE
  5
2F69BA
330
18
100
AcDbEntity
  8
0
 62
     8
100
AcDbEllipse
 10
3198.117689118563
 20
-18368.67927424886
 30
0.0000000000000047
 11
0.1581814277720241
 21
0.1574072619521985
 31
0.0
210
0.0
220
0.0
230
0.9999999999999998
 40
0.1831975075082375
 41
6.11743839225105
 42
7.688234719046985
  0
LINE
  5
2F69BB
330
18
100
AcDbEntity
  8
0
 62
     8
100
AcDbLine
 10
3195.594298696176
 20
-18344.52138577345
 30
0.0000000000000047
 11
3195.819813268131
 21
-18335.57174953915
 31
0.0000000000000047
  0
LINE
  5
2F69BC
330
18
100
AcDbEntity
  8
0
 62
     8
100
AcDbLine
 10
3196.958626614469
 20
-18335.57135208942
 30
0.0000000000000047
 11
3195.819813268131
 21
-18335.57174953915
 31
0.0000000000000047
  0
SPLINE
  5
2F69BD
330
18
100
AcDbEntity
  8
0
 62
     8
100
AcDbSpline
210
0.0
220
0.0
230
1.0
 70
     8
 71
     3
 72
    11
 73
     7
 74
     0
 42
0.0000000001
 43
0.0000000001
 40
0.0
 40
0.0
 40
0.0
 40
0.0
 40
0.2759000911396995
 40
0.5517918713627812
 40
0.8276407276106604
 40
1.0
 40
1.0
 40
1.0
 40
1.0
 10
3195.819813268131
 20
-18335.57174953915
 30
0.0000000000000047
 10
3195.821628184004
 20
-18335.50634100838
 30
0.0000000000000047
 10
3195.825257961079
 20
-18335.37552591714
 30
0.0000000000000047
 10
3195.831156978055
 20
-18335.23541828054
 30
0.0000000000000047
 10
3195.835715320384
 20
-18335.1562494641
 30
0.0000000000000047
 10
3195.836862022306
 20
-18335.15784198685
 30
0.0000000000000047
 10
3195.837302988671
 20
-18335.15845439445
 30
0.0000000000000047
  0
ARC
  5
2F69BE
330
18
100
AcDbEntity
  8
0
 62
     8
100
AcDbCircle
 10
3191.588186280109
 20
-18335.1032646027
 30
0.0000000000000047
 40
4.251475747335022
100
AcDbArc
 50
336.4153731899872
 51
357.8696343187849
  0
LINE
  5
2F69BF
330
18
100
AcDbEntity
  8
0
 62
     8
100
AcDbLine
 10
3128.011906775696
 20
-18335.5954147285
 30
0.0000000000000047
 11
3126.873093429359
 21
-18335.59581217821
 31
0.0000000000000047
  0
LINE
  5
2F69C0
330
18
100
AcDbEntity
  8
0
 62
     8
100
AcDbLine
 10
3128.011906775696
 20
-18335.5954147285
 30
0.0000000000000047
 11
3128.13792163774
 21
-18344.17533927149
 31
0.0000000000000047
  0
SPLINE
  5
2F69C1
330
18
100
AcDbEntity
  8
0
 62
     8
100
AcDbSpline
210
0.0
220
0.0
230
1.0
 70
     8
 71
     3
 72
    12
 73
     8
 74
     0
 42
0.0000000001
 43
0.0000000001
 40
0.0
 40
0.0
 40
0.0
 40
0.0
 40
0.2145399809578734
 40
0.4290814147923668
 40
0.643622074636428
 40
0.8582570860355417
 40
1.0
 40
1.0
 40
1.0
 40
1.0
 10
3128.018481719034
 20
-18335.21196658697
 30
0.0000000000000047
 10
3128.016307169493
 20
-18335.19409579396
 30
0.0000000000000047
 10
3128.011958055683
 20
-18335.15835408691
 30
0.0000000000000047
 10
3128.008957932742
 20
-18335.1965860837
 30
0.0000000000000047
 10
3128.008461325423
 20
-18335.29974357241
 30
0.0000000000000047
 10
3128.009776359374
 20
-18335.44273235525
 30
0.0000000000000047
 10
3128.011300554487
 20
-18335.55196815331
 30
0.0000000000000047
 10
3128.011906775696
 20
-18335.5954147285
 30
0.0000000000000047
  0
ARC
  5
2F69C2
330
18
100
AcDbEntity
  8
0
 62
     8
100
AcDbCircle
 10
3132.334084306484
 20
-18334.76617260565
 30
0.0000000000000047
 40
4.338566349219307
100
AcDbArc
 50
185.8976333427334
 51
202.8570173838229
  0
ARC
  5
2F69C3
330
18
100
AcDbEntity
  8
0
 62
     8
100
AcDbCircle
 10
3161.411637775094
 20
-18431.98364387853
 30
0.0000000000000047
 40
96.26125723791595
100
AcDbArc
 50
86.59517041857688
 51
93.44482242255859
  0
ARC
  5
2F69C4
330
18
100
AcDbEntity
  8
0
 62
     8
100
AcDbCircle
 10
3169.485158096636
 20
-18383.06288983027
 30
0.0000000000000047
 40
48.08599727662565
100
AcDbArc
 50
68.17739074305243
 51
78.65209439485393
  0
ARC
  5
2F69C5
330
18
100
AcDbEntity
  8
0
 62
     8
100
AcDbCircle
 10
3161.419789260019
 20
-18430.36530068441
 30
0.0000000000000047
 40
96.14722365955321
100
AcDbArc
 50
86.53621187032481
 51
93.51548000547621
  0
ARC
  5
2F69C6
330
18
100
AcDbEntity
  8
0
 62
     8
100
AcDbCircle
 10
3152.808315328738
 20
-18379.47124886394
 30
0.0000000000000047
 40
44.43132432213314
100
AcDbArc
 50
101.6584791872114
 51
112.60588700252
  0
ARC
  5
2F69C7
330
18
100
AcDbEntity
  8
0
 62
     8
100
AcDbCircle
 10
3169.300337105556
 20
-18374.87985791432
 30
0.0000000000000047
 40
46.737633839764
100
AcDbArc
 50
68.06186250376192
 51
78.02932509594402
  0
ARC
  5
2F69C8
330
18
100
AcDbEntity
  8
0
 62
     8
100
AcDbCircle
 10
3161.470849453712
 20
-18420.75720327003
 30
0.0000000000000047
 40
93.35637656290918
100
AcDbArc
 50
86.42885695340357
 51
93.64585522775369
  0
ARC
  5
2F69C9
330
18
100
AcDbEntity
  8
0
 62
     8
100
AcDbCircle
 10
3153.541084436048
 20
-18373.0892200328
 30
0.0000000000000047
 40
44.93840221418485
100
AcDbArc
 50
102.3812386673565
 51
110.9225413529336
  0
LINE
  5
2F69CA
330
18
100
AcDbEntity
  8
0
 62
     8
100
AcDbLine
 10
3186.761764387362
 20
-18331.5265999719
 30
0.0000000000000047
 11
3186.613618015289
 21
-18338.12282298199
 31
0.0000000000000047
  0
LINE
  5
2F69CB
330
18
100
AcDbEntity
  8
0
 62
     8
100
AcDbLine
 10
3137.493333520634
 20
-18331.11387388628
 30
0.0000000000000047
 11
3137.570552173548
 21
-18337.72348992797
 31
0.0000000000000047
  0
ARC
  5
2F69CC
330
18
100
AcDbEntity
  8
0
 62
     8
100
AcDbCircle
 10
3169.388322338568
 20
-18374.72288544454
 30
0.0000000000000047
 40
49.71107036534257
100
AcDbArc
 50
68.55594955849842
 51
78.85980841476538
  0
ARC
  5
2F69CD
330
18
100
AcDbEntity
  8
0
 62
     8
100
AcDbCircle
 10
3161.464611326845
 20
-18421.82793044381
 30
0.0000000000000047
 40
97.55036776887727
100
AcDbArc
 50
86.56348553222489
 51
93.48248109539524
  0
ARC
  5
2F69CE
330
18
100
AcDbEntity
  8
0
 62
     8
100
AcDbCircle
 10
3152.983445293816
 20
-18371.02530861333
 30
0.0000000000000047
 40
45.9512850200192
100
AcDbArc
 50
101.3479473285006
 51
112.1908929354617
  0
ARC
  5
2F69CF
330
18
100
AcDbEntity
  8
0
 62
     8
100
AcDbCircle
 10
3169.454508264911
 20
-18376.93226374935
 30
0.0000000000000047
 40
49.24950758033461
100
AcDbArc
 50
68.49504694729444
 51
78.83133260799866
  0
ARC
  5
2F69D0
330
18
100
AcDbEntity
  8
0
 62
     8
100
AcDbCircle
 10
3161.451867837941
 20
-18424.24804250192
 30
0.0000000000000047
 40
97.31098459348499
100
AcDbArc
 50
86.56064381511859
 51
93.48588683529014
  0
ARC
  5
2F69D1
330
18
100
AcDbEntity
  8
0
 62
     8
100
AcDbCircle
 10
3153.413979622543
 20
-18375.20537306128
 30
0.0000000000000047
 40
47.52470386690465
100
AcDbArc
 50
101.5335189617379
 51
110.8986498681268
  0
ARC
  5
2F69D2
330
18
100
AcDbEntity
  8
0
 62
     8
100
AcDbCircle
 10
3148.134750730844
 20
-18360.55179531251
 30
0.0000000000000047
 40
31.95332146930959
100
AcDbArc
 50
111.4280580440907
 51
112.9895239823995
  0
LINE
  5
2F69D3
330
18
100
AcDbEntity
  8
0
 62
     8
100
AcDbLine
 10
3187.504192913763
 20
-18331.32234027895
 30
0.0000000000000047
 11
3186.761764387362
 21
-18331.5265999719
 31
0.0000000000000047
  0
LINE
  5
2F69D4
330
18
100
AcDbEntity
  8
0
 62
     8
100
AcDbLine
 10
3136.461158052008
 20
-18330.80718257525
 30
0.0000000000000047
 11
3137.493333520634
 21
-18331.11387388628
 31
0.0000000000000047
  0
LWPOLYLINE
  5
2F69D5
330
18
100
AcDbEntity
  8
0
 62
     8
100
AcDbPolyline
 90
        4
 70
   128
 43
0.0
 10
3166.029216799811
 20
-18321.66656000701
 10
3165.928941923877
 20
-18320.51216288343
 10
3165.528010978051
 20
-18315.89466386615
 10
3165.166850225503
 20
-18311.73159085511
  0
LWPOLYLINE
  5
2F69D6
330
18
100
AcDbEntity
  8
0
 62
     8
100
AcDbPolyline
 90
        4
 70
   128
 43
0.0
 10
3159.361913694335
 20
-18311.68296111706
 10
3159.261494596509
 20
-18312.83559662229
 10
3158.8595581258
 20
-18317.44625166989
 10
3158.496842304955
 20
-18321.60346203909
  0
LINE
  5
2F69D7
330
18
100
AcDbEntity
  8
0
 62
     8
100
AcDbLine
 10
3157.628536094952
 20
-18321.10897976394
 30
0.0000000000000047
 11
3157.110169962557
 21
-18281.25922428997
 31
0.0000000000000047
  0
LINE
  5
2F69D8
330
18
100
AcDbEntity
  8
0
 62
     8
100
AcDbLine
 10
3157.628748413161
 20
-18321.1086714398
 30
0.0000000000000047
 11
3157.628536094952
 21
-18321.10897976394
 31
0.0000000000000047
  0
LINE
  5
2F69D9
330
18
100
AcDbEntity
  8
0
 62
     8
100
AcDbLine
 10
3166.91286706936
 20
-18321.18408380388
 30
0.0000000000000047
 11
3166.91286207581
 21
-18321.18644457411
 31
0.0000000000000047
  0
LINE
  5
2F69DA
330
18
100
AcDbEntity
  8
0
 62
     8
100
AcDbLine
 10
3166.91286706936
 20
-18321.18408380388
 30
0.0000000000000047
 11
3167.847589863137
 21
-18281.34917953865
 31
0.0000000000000047
  0
LWPOLYLINE
  5
2F69DB
330
18
100
AcDbEntity
  8
0
 62
     8
100
AcDbPolyline
 90
        4
 70
   128
 43
0.0
 10
3177.146773415201
 20
-18323.02732276047
 10
3176.808358313682
 20
-18321.84108628091
 10
3175.454820707916
 20
-18317.096274565
 10
3174.234661475353
 20
-18312.8184438968
  0
LWPOLYLINE
  5
2F69DC
330
18
100
AcDbEntity
  8
0
 62
     8
100
AcDbPolyline
 90
        4
 70
   128
 43
0.0
 10
3150.229185395864
 20
-18312.61735050924
 10
3149.888658672546
 20
-18313.79779366724
 10
3148.52635286864
 20
-18318.51971588493
 10
3147.297882071497
 20
-18322.77727571179
  0
LINE
  5
2F69DD
330
18
100
AcDbEntity
  8
0
 62
     8
100
AcDbLine
 10
3157.110170974273
 20
-18281.25910634401
 30
0.0000000000000047
 11
3157.110169962557
 21
-18281.25922428997
 31
0.0000000000000047
  0
LWPOLYLINE
  5
2F69DE
330
18
100
AcDbEntity
  8
0
 62
     8
100
AcDbPolyline
 90
        3
 70
   128
 43
0.0
 10
3160.775924954573
 20
-18289.93965870246
 10
3158.777850131777
 20
-18285.20817454065
 10
3157.110170974273
 20
-18281.25910634401
  0
LINE
  5
2F69DF
330
18
100
AcDbEntity
  8
0
 62
     8
100
AcDbLine
 10
3160.775936764725
 20
-18289.93979136306
 30
0.0000000000000047
 11
3160.775924954573
 21
-18289.93965870246
 31
0.0000000000000047
  0
LINE
  5
2F69E0
330
18
100
AcDbEntity
  8
0
 62
     8
100
AcDbLine
 10
3160.942477198679
 20
-18302.73609366077
 30
0.0000000000000047
 11
3160.775936764725
 21
-18289.93979136306
 31
0.0000000000000047
  0
SPLINE
  5
2F69E1
330
18
100
AcDbEntity
  8
0
 62
     8
100
AcDbSpline
210
0.0
220
0.0
230
1.0
 70
     8
 71
     3
 72
    11
 73
     7
 74
     0
 42
0.0000000001
 43
0.0000000001
 40
0.0
 40
0.0
 40
0.0
 40
0.0
 40
0.0040410882352441
 40
0.3890371979992625
 40
0.7796703609244041
 40
1.0
 40
1.0
 40
1.0
 40
1.0
 10
3160.745558823212
 20
-18303.0686885891
 30
0.0000000000000047
 10
3160.745760717492
 20
-18303.06796878314
 30
0.0000000000000047
 10
3160.765197161405
 20
-18302.99867277229
 30
0.0000000000000047
 10
3160.804884903327
 20
-18302.86547220136
 30
0.0000000000000047
 10
3160.862124766425
 20
-18302.73029194903
 30
0.0000000000000047
 10
3160.905437183559
 20
-18302.73630144288
 30
0.0000000000000047
 10
3160.921056807542
 20
-18302.73846862819
 30
0.0000000000000047
  0
LINE
  5
2F69E2
330
18
100
AcDbEntity
  8
0
 62
     8
100
AcDbLine
 10
3163.732414701929
 20
-18289.96442416587
 30
0.0000000000000047
 11
3163.732425115414
 21
-18289.96452431107
 31
0.0000000000000047
  0
SPLINE
  5
2F69E3
330
18
100
AcDbEntity
  8
0
 62
     8
100
AcDbSpline
210
0.0
220
0.0
230
1.0
 70
     8
 71
     3
 72
    10
 73
     6
 74
     0
 42
0.0000000001
 43
0.0000000001
 40
0.0
 40
0.0
 40
0.0
 40
0.0
 40
0.4966948904953421
 40
0.999996956869834
 40
1.0
 40
1.0
 40
1.0
 40
1.0
 10
3167.847590525687
 20
-18281.34905346385
 30
0.0000000000000047
 10
3167.177442496493
 20
-18282.77323056662
 30
0.0000000000000047
 10
3165.828231939531
 20
-18285.64052957868
 30
0.0000000000000047
 10
3164.343042094768
 20
-18288.53491122842
 30
0.0000000000000047
 10
3163.732418393939
 20
-18289.96441552266
 30
0.0000000000000047
 10
3163.732414701928
 20
-18289.96442416587
 30
0.0000000000000047
  0
LINE
  5
2F69E4
330
18
100
AcDbEntity
  8
0
 62
     8
100
AcDbLine
 10
3167.847589863137
 20
-18281.34917953865
 30
0.0000000000000047
 11
3167.847590525687
 21
-18281.34905346385
 31
0.0000000000000047
  0
SPLINE
  5
2F69E5
330
18
100
AcDbEntity
  8
0
 62
     8
100
AcDbSpline
210
0.0
220
0.0
230
1.0
 70
     8
 71
     3
 72
    11
 73
     7
 74
     0
 42
0.0000000001
 43
0.0000000001
 40
0.0
 40
0.0
 40
0.0
 40
0.0
 40
0.2933113103193048
 40
0.6398908707648856
 40
0.9963298599340888
 40
1.0
 40
1.0
 40
1.0
 40
1.0
 10
3163.432349120119
 20
-18302.75687599987
 30
0.0000000000000047
 10
3163.457749513974
 20
-18302.75280506576
 30
0.0000000000000047
 10
3163.513163265748
 20
-18302.74392387547
 30
0.0000000000000047
 10
3163.582445903936
 20
-18302.88572214313
 30
0.0000000000000047
 10
3163.624262070009
 20
-18303.02138980566
 30
0.0000000000000047
 10
3163.64578657483
 20
-18303.0922635463
 30
0.0000000000000047
 10
3163.646005947074
 20
-18303.09298587332
 30
0.0000000000000047
  0
LINE
  5
2F69E6
330
18
100
AcDbEntity
  8
0
 62
     8
100
AcDbLine
 10
3163.432349120118
 20
-18302.75687599987
 30
0.0000000000000047
 11
3163.732425115414
 21
-18289.96452431107
 31
0.0000000000000047
  0
SPLINE
  5
2F69E7
330
18
100
AcDbEntity
  8
0
 62
     8
100
AcDbSpline
210
0.0
220
0.0
230
1.0
 70
     8
 71
     3
 72
    15
 73
    11
 74
     0
 42
0.0000000001
 43
0.0000000001
 40
0.0
 40
0.0
 40
0.0
 40
0.0
 40
0.1323166488647001
 40
0.265248621805279
 40
0.3980519069099282
 40
0.5304068949888883
 40
0.6127642592523453
 40
0.7444124153261033
 40
0.8758788288919841
 40
1.0
 40
1.0
 40
1.0
 40
1.0
 10
3145.863029346494
 20
-18282.65279304784
 30
0.0000000000000047
 10
3145.816781549956
 20
-18282.63279882282
 30
0.0000000000000047
 10
3145.724070886569
 20
-18282.59271739186
 30
0.0000000000000047
 10
3145.521878417369
 20
-18282.55658004955
 30
0.0000000000000047
 10
3145.300813997903
 20
-18282.54399004529
 30
0.0000000000000047
 10
3145.108191929948
 20
-18282.55595393178
 30
0.0000000000000047
 10
3144.936060760063
 20
-18282.58474839827
 30
0.0000000000000047
 10
3144.793327468095
 20
-18282.62900024202
 30
0.0000000000000047
 10
3144.685356465694
 20
-18282.69417836315
 30
0.0000000000000047
 10
3144.672717088882
 20
-18282.74276766932
 30
0.0000000000000047
 10
3144.666579019797
 20
-18282.76636412683
 30
0.0000000000000047
  0
LINE
  5
2F69E8
330
18
100
AcDbEntity
  8
0
 62
     8
100
AcDbLine
 10
3146.273733217242
 20
-18322.41061085792
 30
0.0000000000000047
 11
3145.863029346493
 21
-18282.65279304783
 31
0.0000000000000047
  0
LINE
  5
2F69E9
330
18
100
AcDbEntity
  8
0
 62
     8
100
AcDbLine
 10
3146.274396032473
 20
-18322.41024547376
 30
0.0000000000000047
 11
3146.273733217242
 21
-18322.41061085792
 31
0.0000000000000047
  0
LINE
  5
2F69EA
330
18
100
AcDbEntity
  8
0
 62
     8
100
AcDbLine
 10
3178.177411220201
 20
-18322.67513110906
 30
0.0000000000000047
 11
3178.177513851364
 21
-18322.6774999707
 31
0.0000000000000047
  0
LINE
  5
2F69EB
330
18
100
AcDbEntity
  8
0
 62
     8
100
AcDbLine
 10
3178.177411220201
 20
-18322.67513110906
 30
0.0000000000000047
 11
3178.999157970546
 21
-18282.93038404144
 31
0.0000000000000047
  0
SPLINE
  5
2F69EC
330
18
100
AcDbEntity
  8
0
 62
     8
100
AcDbSpline
210
0.0
220
0.0
230
1.0
 70
     8
 71
     3
 72
    14
 73
    10
 74
     0
 42
0.0000000001
 43
0.0000000001
 40
0.0
 40
0.0
 40
0.0
 40
0.0
 40
0.0537068673585042
 40
0.120351093239523
 40
0.2283848783361874
 40
0.446340956230327
 40
0.6881965252032052
 40
0.9305825182603054
 40
1.0
 40
1.0
 40
1.0
 40
1.0
 10
3182.677382207549
 20
-18322.60016871424
 30
0.0000000000000047
 10
3182.623853781163
 20
-18322.57595393252
 30
0.0000000000000047
 10
3182.503902554219
 20
-18322.52169131032
 30
0.0000000000000047
 10
3182.264792769995
 20
-18322.32668413434
 30
0.0000000000000047
 10
3181.900869754771
 20
-18321.93238063959
 30
0.0000000000000047
 10
3181.47651844634
 20
-18321.31401093553
 30
0.0000000000000047
 10
3181.069132798604
 20
-18320.56113992029
 30
0.0000000000000047
 10
3180.800220949405
 20
-18319.97272027805
 30
0.0000000000000047
 10
3180.698515708416
 20
-18319.65713381316
 30
0.0000000000000047
 10
3180.67587285072
 20
-18319.58687411616
 30
0.0000000000000047
  0
SPLINE
  5
2F69ED
330
18
100
AcDbEntity
  8
0
 62
     8
100
AcDbSpline
210
0.0
220
0.0
230
1.0
 70
     8
 71
     3
 72
    21
 73
    17
 74
     0
 42
0.0000000001
 43
0.0000000001
 40
0.0
 40
0.0
 40
0.0
 40
0.0
 40
0.0120191681939203
 40
0.0364949368981249
 40
0.067553961475812
 40
0.1191687630184619
 40
0.2276509538426445
 40
0.3538656735988146
 40
0.4803484712459376
 40
0.6240879033676953
 40
0.7674505154532385
 40
0.8378752883725882
 40
0.9301669509887371
 40
0.9623993392416711
 40
0.9949568114344543
 40
1.0
 40
1.0
 40
1.0
 40
1.0
 10
3180.646159212694
 20
-18317.35460379478
 30
0.0000000000000047
 10
3180.665877790024
 20
-18317.35613159169
 30
0.0000000000000047
 10
3180.72575117092
 20
-18317.36077058594
 30
0.0000000000000047
 10
3180.865988407126
 20
-18317.44065660829
 30
0.0000000000000047
 10
3181.07987340634
 20
-18317.61426446241
 30
0.0000000000000047
 10
3181.424169168462
 20
-18318.00470519493
 30
0.0000000000000047
 10
3181.835098602182
 20
-18318.62726790132
 30
0.0000000000000047
 10
3182.25443738915
 20
-18319.40557474771
 30
0.0000000000000047
 10
3182.618370758101
 20
-18320.23691634315
 30
0.0000000000000047
 10
3182.915280027547
 20
-18321.07116429249
 30
0.0000000000000047
 10
3183.065676393037
 20
-18321.74311360609
 30
0.0000000000000047
 10
3183.092489919797
 20
-18322.25000723745
 30
0.0000000000000047
 10
3183.032015557137
 20
-18322.5251674389
 30
0.0000000000000047
 10
3182.868200107952
 20
-18322.62938476276
 30
0.0000000000000047
 10
3182.756301318296
 20
-18322.62646652155
 30
0.0000000000000047
 10
3182.686715416516
 20
-18322.60327877121
 30
0.0000000000000047
 10
3182.677382207549
 20
-18322.60016871424
 30
0.0000000000000047
  0
LWPOLYLINE
  5
2F69EE
330
18
100
AcDbEntity
  8
0
 62
     8
100
AcDbPolyline
 90
        4
 70
   128
 43
0.0
 10
3185.948561936141
 20
-18325.72812538101
 10
3185.424636673942
 20
-18324.48157571566
 10
3183.32895045158
 20
-18319.49549503626
 10
3181.43949120182
 20
-18315.00015534828
  0
LWPOLYLINE
  5
2F69EF
330
18
100
AcDbEntity
  8
0
 62
     8
100
AcDbPolyline
 90
        4
 70
   128
 43
0.0
 10
3142.888113690301
 20
-18314.67720465301
 10
3142.358207176331
 20
-18315.91481585951
 10
3140.238561875313
 20
-18320.86543053092
 10
3138.32736858873
 20
-18325.32920048851
  0
LINE
  5
2F69F0
330
18
100
AcDbEntity
  8
0
 62
     8
100
AcDbLine
 10
3136.95876973762
 20
-18337.95204770139
 30
0.0000000000000047
 11
3136.461158052008
 21
-18330.80718257525
 31
0.0000000000000047
  0
LINE
  5
2F69F1
330
18
100
AcDbEntity
  8
0
 62
     8
100
AcDbLine
 10
3187.232405533697
 20
-18338.36987664672
 30
0.0000000000000047
 11
3187.404182539609
 21
-18336.25990779676
 31
0.0000000000000047
  0
LINE
  5
2F69F2
330
18
100
AcDbEntity
  8
0
 62
     8
100
AcDbLine
 10
3145.863042277715
 20
-18282.65267509772
 30
0.0000000000000047
 11
3145.863029346493
 21
-18282.65279304783
 31
0.0000000000000047
  0
LINE
  5
2F69F3
330
18
100
AcDbEntity
  8
0
 62
     8
100
AcDbLine
 10
3178.999157970546
 20
-18282.93038404144
 30
0.0000000000000047
 11
3178.9991705526
 21
-18282.93025796249
 31
0.0000000000000047
  0
SPLINE
  5
2F69F4
330
18
100
AcDbEntity
  8
0
 62
     8
100
AcDbSpline
210
0.0
220
0.0
230
1.0
 70
     8
 71
     3
 72
    14
 73
    10
 74
     0
 42
0.0000000001
 43
0.0000000001
 40
0.0
 40
0.0
 40
0.0
 40
0.0
 40
0.1489883146198028
 40
0.3060275061492988
 40
0.4629268451820736
 40
0.6193163629450353
 40
0.7166676073614891
 40
0.8721816502198292
 40
1.0
 40
1.0
 40
1.0
 40
1.0
 10
3137.09495290534
 20
-18285.41517938413
 30
0.0000000000000047
 10
3137.033425774685
 20
-18285.40313521249
 30
0.0000000000000047
 10
3136.907046773736
 20
-18285.37839603869
 30
0.0000000000000047
 10
3136.685003146971
 20
-18285.37005098738
 30
0.0000000000000047
 10
3136.467359132288
 20
-18285.38599950665
 30
0.0000000000000047
 10
3136.301784921757
 20
-18285.42133897393
 30
0.0000000000000047
 10
3136.174948585788
 20
-18285.46985238719
 30
0.0000000000000047
 10
3136.08990455851
 20
-18285.52517340156
 30
0.0000000000000047
 10
3136.082983410881
 20
-18285.5708027877
 30
0.0000000000000047
 10
3136.079861107567
 20
-18285.59138734841
 30
0.0000000000000047
  0
LINE
  5
2F69F5
330
18
100
AcDbEntity
  8
0
 62
     8
100
AcDbLine
 10
3137.303532389519
 20
-18325.10162627777
 30
0.0000000000000047
 11
3137.09495290534
 21
-18285.41517938413
 31
0.0000000000000047
  0
LINE
  5
2F69F6
330
18
100
AcDbEntity
  8
0
 62
     8
100
AcDbLine
 10
3137.304548076147
 20
-18325.10115102936
 30
0.0000000000000047
 11
3137.303532389519
 21
-18325.10162627777
 31
0.0000000000000047
  0
LINE
  5
2F69F7
330
18
100
AcDbEntity
  8
0
 62
     8
100
AcDbLine
 10
3186.969526343
 20
-18325.51480837572
 30
0.0000000000000047
 11
3186.969713458197
 21
-18325.51720159479
 31
0.0000000000000047
  0
LINE
  5
2F69F8
330
18
100
AcDbEntity
  8
0
 62
     8
100
AcDbLine
 10
3186.969526343
 20
-18325.51480837572
 30
0.0000000000000047
 11
3187.585114360917
 21
-18285.83814429112
 31
0.0000000000000047
  0
LINE
  5
2F69F9
330
18
100
AcDbEntity
  8
0
 62
     8
100
AcDbLine
 10
3137.094965661978
 20
-18285.41505736959
 30
0.0000000000000047
 11
3137.09495290534
 21
-18285.41517938413
 31
0.0000000000000047
  0
LINE
  5
2F69FA
330
18
100
AcDbEntity
  8
0
 62
     8
100
AcDbLine
 10
3187.585114360917
 20
-18285.83814429112
 30
0.0000000000000047
 11
3187.585115023467
 21
-18285.83801821632
 31
0.0000000000000047
  0
ARC
  5
2F69FB
330
18
100
AcDbEntity
  8
0
 62
     8
100
AcDbCircle
 10
3132.533140837479
 20
-18335.60508169815
 30
0.0000000000000047
 40
4.2170285599172
100
AcDbArc
 50
153.0066934271445
 51
180.9650870122295
  0
LINE
  5
2F69FC
330
18
100
AcDbEntity
  8
0
 62
     8
100
AcDbLine
 10
3160.733616667953
 20
-18289.7388486886
 30
0.0000000000000047
 11
3160.775924954573
 21
-18289.93965870246
 31
0.0000000000000047
  0
LINE
  5
2F69FD
330
18
100
AcDbEntity
  8
0
 62
     8
100
AcDbLine
 10
3157.067850768148
 20
-18281.05829633431
 30
0.0000000000000047
 11
3157.110170974273
 21
-18281.25910634401
 31
0.0000000000000047
  0
ARC
  5
2F69FE
330
18
100
AcDbEntity
  8
0
 62
     8
100
AcDbCircle
 10
3191.126082691315
 20
-18338.51731415501
 30
0.0000000000000047
 40
4.280808861857924
100
AcDbArc
 50
327.1347472577185
 51
33.50223510922327
  0
ARC
  5
2F69FF
330
18
100
AcDbEntity
  8
0
 62
     8
100
AcDbCircle
 10
3190.896349720209
 20
-18335.99294559521
 30
0.0000000000000047
 40
4.615974298305764
100
AcDbArc
 50
359.5495544916121
 51
34.9445035528722
  0
SPLINE
  5
2F6A00
330
18
100
AcDbEntity
  8
0
 62
     8
100
AcDbSpline
210
0.0
220
0.0
230
1.0
 70
     8
 71
     3
 72
     9
 73
     5
 74
     0
 42
0.0000000001
 43
0.0000000001
 40
0.0
 40
0.0
 40
0.0
 40
0.0
 40
0.0180115168023349
 40
1.0
 40
1.0
 40
1.0
 40
1.0
 10
3167.896745009513
 20
-18281.13254644839
 30
0.0000000000000047
 10
3167.895926954983
 20
-18281.13360297875
 30
0.0000000000000047
 10
3167.850508540768
 20
-18281.19226157908
 30
0.0000000000000047
 10
3167.849036274354
 20
-18281.27136995236
 30
0.0000000000000047
 10
3167.847590525687
 20
-18281.34905346385
 30
0.0000000000000047
  0
SPLINE
  5
2F6A01
330
18
100
AcDbEntity
  8
0
 62
     8
100
AcDbSpline
210
0.0
220
0.0
230
1.0
 70
     8
 71
     3
 72
     9
 73
     5
 74
     0
 42
0.0000000001
 43
0.0000000001
 40
0.0
 40
0.0
 40
0.0
 40
0.0
 40
0.021393164701776
 40
1.0
 40
1.0
 40
1.0
 40
1.0
 10
3163.782040213524
 20
-18289.74730275392
 30
0.0000000000000047
 10
3163.78106312022
 20
-18289.74855898003
 30
0.0000000000000047
 10
3163.735389966315
 20
-18289.80727989014
 30
0.0000000000000047
 10
3163.733886249492
 20
-18289.88670156853
 30
0.0000000000000047
 10
3163.732414701928
 20
-18289.96442416587
 30
0.0000000000000047
  0
SPLINE
  5
2F6A02
330
18
100
AcDbEntity
  8
0
 62
     8
100
AcDbSpline
210
0.0
220
0.0
230
1.0
 70
     8
 71
     3
 72
    10
 73
     6
 74
     0
 42
0.0000000001
 43
0.0000000001
 40
0.0
 40
0.0
 40
0.0
 40
0.0
 40
0.447877567606315
 40
0.8957585099482116
 40
0.9999999999999998
 40
0.9999999999999998
 40
0.9999999999999998
 40
0.9999999999999998
 10
3145.863042277715
 20
-18282.65267509772
 30
0.0000000000000047
 10
3145.858358594717
 20
-18282.58118201979
 30
0.0000000000000047
 10
3145.848991193431
 20
-18282.43819532522
 30
0.0000000000000047
 10
3145.774817715239
 20
-18282.30356153579
 30
0.0000000000000047
 10
3145.705592647362
 20
-18282.27119744237
 30
0.0000000000000047
 10
3145.6925228574
 20
-18282.26508705611
 30
0.0000000000000047
  0
SPLINE
  5
2F6A03
330
18
100
AcDbEntity
  8
0
 62
     8
100
AcDbSpline
210
0.0
220
0.0
230
1.0
 70
     8
 71
     3
 72
    10
 73
     6
 74
     0
 42
0.0000000001
 43
0.0000000001
 40
0.0
 40
0.0
 40
0.0
 40
0.0
 40
0.1178933390870654
 40
0.5589504835828196
 40
1.0
 40
1.0
 40
1.0
 40
1.0
 10
3179.176167117458
 20
-18282.54268501371
 30
0.0000000000000047
 10
3179.161250022513
 20
-18282.54938686411
 30
0.0000000000000047
 10
3179.090525777209
 20
-18282.58116136941
 30
0.0000000000000047
 10
3179.014590244994
 20
-18282.71581057918
 30
0.0000000000000047
 10
3179.004310420433
 20
-18282.85877591348
 30
0.0000000000000047
 10
3178.9991705526
 20
-18282.93025796249
 30
0.0000000000000047
  0
LINE
  5
2F6A04
330
18
100
AcDbEntity
  8
0
 62
     8
100
AcDbLine
 10
3132.140796805722
 20
-18289.12570647432
 30
0.0000000000000047
 11
3132.140784223667
 21
-18289.12583255328
 31
0.0000000000000047
  0
LINE
  5
2F6A05
330
18
100
AcDbEntity
  8
0
 62
     8
100
AcDbLine
 10
3192.298307659561
 20
-18289.62977784656
 30
0.0000000000000047
 11
3192.298308322111
 21
-18289.62965177176
 31
0.0000000000000047
  0
SPLINE
  5
2F6A06
330
18
100
AcDbEntity
  8
0
 62
     8
100
AcDbSpline
210
0.0
220
0.0
230
1.0
 70
     8
 71
     3
 72
    10
 73
     6
 74
     0
 42
0.0000000001
 43
0.0000000001
 40
0.0
 40
0.0
 40
0.0
 40
0.0
 40
0.2834273941392146
 40
0.6417097882210747
 40
1.0
 40
1.0
 40
1.0
 40
1.0
 10
3136.945866463094
 20
-18285.00868761533
 30
0.0000000000000047
 10
3136.975171178077
 20
-18285.02212512263
 30
0.0000000000000047
 10
3137.041520171979
 20
-18285.05254906945
 30
0.0000000000000047
 10
3137.098846332419
 20
-18285.19909387127
 30
0.0000000000000047
 10
3137.096259228201
 20
-18285.34306901324
 30
0.0000000000000047
 10
3137.094965661979
 20
-18285.41505736959
 30
0.0000000000000047
  0
SPLINE
  5
2F6A07
330
18
100
AcDbEntity
  8
0
 62
     8
100
AcDbSpline
210
0.0
220
0.0
230
1.0
 70
     8
 71
     3
 72
    10
 73
     6
 74
     0
 42
0.0000000001
 43
0.0000000001
 40
0.0
 40
0.0
 40
0.0
 40
0.0
 40
0.2869399589510142
 40
0.6434700847298739
 40
1.0
 40
1.0
 40
1.0
 40
1.0
 10
3187.733886171094
 20
-18285.43323762648
 30
0.0000000000000047
 10
3187.704832160044
 20
-18285.44637810079
 30
0.0000000000000047
 10
3187.639677808518
 20
-18285.47584594536
 30
0.0000000000000047
 10
3187.582713007011
 20
-18285.62195494818
 30
0.0000000000000047
 10
3187.584322297809
 20
-18285.76599713834
 30
0.0000000000000047
 10
3187.585126942972
 20
-18285.83801821216
 30
0.0000000000000047
  0
LINE
  5
2F6A08
330
18
100
AcDbEntity
  8
0
 62
     8
100
AcDbLine
 10
3160.785668495492
 20
-18289.97977555279
 30
0.0000000000000047
 11
3160.775936764725
 21
-18289.93979136306
 31
0.0000000000000047
  0
SPLINE
  5
2F6A09
330
18
100
AcDbEntity
  8
0
 62
     8
100
AcDbSpline
210
0.0
220
0.0
230
1.0
 70
     8
 71
     3
 72
    11
 73
     7
 74
     0
 42
0.0000000001
 43
0.0000000001
 40
0.0
 40
0.0
 40
0.0
 40
0.0
 40
0.0135809077816039
 40
0.3423882832200291
 40
0.6711938240218494
 40
1.0
 40
1.0
 40
1.0
 40
1.0
 10
3132.120266306474
 20
-18288.72086253068
 30
0.0000000000000047
 10
3132.120882686443
 20
-18288.72033728767
 30
0.0000000000000047
 10
3132.136422242563
 20
-18288.70709538528
 30
0.0000000000000047
 10
3132.152010489541
 20
-18288.7692337675
 30
0.0000000000000047
 10
3132.161247693634
 20
-18288.90502647871
 30
0.0000000000000047
 10
3132.147613772749
 20
-18289.05214642841
 30
0.0000000000000047
 10
3132.140796805722
 20
-18289.12570647432
 30
0.0000000000000047
  0
SPLINE
  5
2F6A0A
330
18
100
AcDbEntity
  8
0
 62
     8
100
AcDbSpline
210
0.0
220
0.0
230
1.0
 70
     8
 71
     3
 72
    11
 73
     7
 74
     0
 42
0.0000000001
 43
0.0000000001
 40
0.0
 40
0.0
 40
0.0
 40
0.0
 40
0.3281186944412805
 40
0.6562411227120814
 40
0.9843655996793515
 40
1.0
 40
1.0
 40
1.0
 40
1.0
 10
3192.298320241615
 20
-18289.6296517676
 30
0.0000000000000047
 10
3192.292052812517
 20
-18289.5559868759
 30
0.0000000000000047
 10
3192.279517883
 20
-18289.40865625425
 30
0.0000000000000047
 10
3192.287400094822
 20
-18289.27291293585
 30
0.0000000000000047
 10
3192.301186064764
 20
-18289.21108076236
 30
0.0000000000000047
 10
3192.315178614026
 20
-18289.22473595083
 30
0.0000000000000047
 10
3192.315815005202
 20
-18289.2253569986
 30
0.0000000000000047
  0
LWPOLYLINE
  5
2F6A0B
330
18
100
AcDbEntity
  8
0
 62
     8
100
AcDbPolyline
 90
       18
 70
   128
 43
0.0
 10
3197.692790612674
 20
-18367.36589757921
 10
3197.396384601229
 20
-18366.63470663303
 10
3196.97262084804
 20
-18365.91027060041
 10
3196.423016540599
 20
-18365.19516583554
 10
3195.749541283837
 20
-18364.49195634126
 10
3194.954579246607
 20
-18363.80314500843
 10
3194.040989981294
 20
-18363.13120204614
 10
3193.01203498637
 20
-18362.47852029799
 10
3191.871378404723
 20
-18361.84743149973
 10
3190.623110338919
 20
-18361.24019407776
 10
3189.271674461256
 20
-18360.6589728519
 10
3187.821904121444
 20
-18360.10584715176
 10
3186.27897379567
 20
-18359.58279051133
 10
3184.648411006096
 20
-18359.09167066471
 10
3182.936024629258
 20
-18358.63424550673
 10
3181.147928036732
 20
-18358.21214682691
 10
3179.290527175631
 20
-18357.8268803136
 10
3177.705577602944
 20
-18357.53686747509
  0
LWPOLYLINE
  5
2F6A0C
330
18
100
AcDbEntity
  8
0
 62
     8
100
AcDbPolyline
 90
       73
 70
   128
 43
0.0
 10
3147.681797872215
 20
-18357.10138648185
 10
3146.023960009979
 20
-18357.34917926373
 10
3144.1066553616
 20
-18357.68024229254
 10
3142.252341044948
 20
-18358.05003414058
 10
3140.467647686458
 20
-18358.45724372948
 10
3138.758961062878
 20
-18358.90040968033
 10
3137.13236390041
 20
-18359.37795284995
 10
3135.593671109479
 20
-18359.88816412508
 10
3134.148394899128
 20
-18360.42922475699
 10
3132.801673085412
 20
-18360.99920232204
 10
3131.558340783009
 20
-18361.59605476113
 10
3130.42282417717
 20
-18362.21765480368
 10
3129.399175933077
 20
-18362.8617818263
 10
3128.491063800082
 20
-18363.52613405026
 10
3127.701735376942
 20
-18364.20834074717
 10
3127.033994272812
 20
-18364.9059622474
 10
3126.490236738673
 20
-18365.61651024959
 10
3126.072391720649
 20
-18366.33743971275
 10
3125.781969934685
 20
-18367.0661813549
 10
3125.620003745274
 20
-18367.80012948064
 10
3125.58707205197
 20
-18368.5366663594
 10
3125.683276188502
 20
-18369.27315613707
 10
3125.908288648295
 20
-18370.00696920597
 10
3126.26130558103
 20
-18370.73548628581
 10
3126.741070893535
 20
-18371.45610451216
 10
3127.345852934521
 20
-18372.16624963792
 10
3128.073504441274
 20
-18372.86338414138
 10
3128.921415298096
 20
-18373.54501740399
 10
3129.88657265758
 20
-18374.20871788278
 10
3130.965525094801
 20
-18374.85211109064
 10
3132.154407319243
 20
-18375.47289991011
 10
3133.448976107902
 20
-18376.06886864535
 10
3134.844622399369
 20
-18376.63788708239
 10
3136.336336059067
 20
-18377.17792269486
 10
3137.918813329385
 20
-18377.68704467106
 10
3139.586385923681
 20
-18378.16343816427
 10
3141.333092368733
 20
-18378.60540020346
 10
3143.152714199714
 20
-18379.01134984189
 10
3145.038740638131
 20
-18379.37983833056
 10
3146.984428276648
 20
-18379.70955112973
 10
3148.98282491809
 20
-18379.99930790046
 10
3151.026817864508
 20
-18380.24807671365
 10
3153.109073970491
 20
-18380.45496594176
 10
3155.222183200965
 20
-18380.6192364024
 10
3157.358575369253
 20
-18380.74030545169
 10
3159.510626888865
 20
-18380.81773475361
 10
3161.6706498142
 20
-18380.85125263853
 10
3163.830938820237
 20
-18380.84073782883
 10
3165.983759632192
 20
-18380.78622757193
 10
3168.121444294267
 20
-18380.68791557478
 10
3170.236331659424
 20
-18380.5461540569
 10
3172.320886409841
 20
-18380.36144964428
 10
3174.367651291606
 20
-18380.13446135395
 10
3176.369318631745
 20
-18379.86600056887
 10
3178.318742083148
 20
-18379.55702696944
 10
3180.208960288986
 20
-18379.20864446071
 10
3182.033208453062
 20
-18378.82209303941
 10
3183.78499029329
 20
-18378.39875893001
 10
3185.458029403465
 20
-18377.94015224706
 10
3187.046352864391
 20
-18377.44791103046
 10
3188.544302814213
 20
-18376.92379311249
 10
3189.946512434819
 20
-18376.36967206168
 10
3191.247976945129
 20
-18375.78752496458
 10
3192.444041768877
 20
-18375.17943446215
 10
3193.530449339711
 20
-18374.54756841095
 10
3194.503303691853
 20
-18373.89418802453
 10
3195.359140929618
 20
-18373.22162346192
 10
3196.094905737581
 20
-18372.53228196471
 10
3196.707950245777
 20
-18371.82862143841
 10
3197.196105808609
 20
-18371.11315652407
 10
3197.557622796282
 20
-18370.38844439357
 10
3197.791205742275
 20
-18369.6570705117
 10
3197.791205742275
 20
-18369.6570705117
  0
LWPOLYLINE
  5
2F6A0D
330
18
100
AcDbEntity
  8
0
 62
     8
100
AcDbPolyline
 90
       51
 70
   128
 43
0.0
 10
3125.295357533738
 20
-18366.6337560153
 10
3125.431001806656
 20
-18366.2429978298
 10
3125.782981756595
 20
-18365.51492566615
 10
3126.261004179691
 20
-18364.79582047721
 10
3126.863389217344
 20
-18364.08819876568
 10
3127.588038431611
 20
-18363.39454466444
 10
3128.432397999193
 20
-18362.71728556253
 10
3129.393518658123
 20
-18362.05880021316
 10
3130.468030646677
 20
-18361.4213902911
 10
3131.652168240707
 20
-18360.807296642
 10
3132.941768182407
 20
-18360.21866270261
 10
3134.332330325323
 20
-18359.65755886654
 10
3135.818968559672
 20
-18359.12594998547
 10
3137.396470584454
 20
-18358.62569941277
 10
3139.059321397289
 20
-18358.15856086638
 10
3140.801667186734
 20
-18357.72617031241
 10
3142.617434352759
 20
-18357.33004185911
 10
3144.500234150696
 20
-18356.97156779013
 10
3146.443481013379
 20
-18356.65199820086
 10
3148.440345746037
 20
-18356.37246133716
 10
3150.483861405176
 20
-18356.13393104249
 10
3152.566828815452
 20
-18355.93724711339
 10
3154.681970650321
 20
-18355.78309492317
 10
3156.821872532845
 20
-18355.67202170053
 10
3158.979029491632
 20
-18355.60440806186
 10
3161.145882766849
 20
-18355.58049238535
 10
3163.314831555145
 20
-18355.60036674237
 10
3165.478279640167
 20
-18355.66395249432
 10
3167.628648534156
 20
-18355.77102873943
 10
3169.758389048274
 20
-18355.92122417974
 10
3171.860040540977
 20
-18356.11400897147
 10
3173.926255280759
 20
-18356.34870690995
 10
3175.949762687651
 20
-18356.62449544211
 10
3177.923488877429
 20
-18356.94041375374
 10
3179.840508285266
 20
-18357.29534652842
 10
3181.694116404839
 20
-18357.68805237355
 10
3183.477793855239
 20
-18358.11715976836
 10
3185.185301387836
 20
-18358.58115890184
 10
3186.810656920195
 20
-18359.07842200313
 10
3188.348159724243
 20
-18359.6072114621
 10
3189.792426010209
 20
-18360.16567575239
 10
3191.138388926619
 20
-18360.75184943147
 10
3192.381323621393
 20
-18361.36368158322
 10
3193.516882825773
 20
-18361.99903174109
 10
3194.541084934821
 20
-18362.65566989224
 10
3195.450350464269
 20
-18363.33129272274
 10
3196.241478735255
 20
-18364.02353581918
 10
3196.911695377762
 20
-18364.7299695876
 10
3197.458653203535
 20
-18365.44811957561
 10
3197.880456045093
 20
-18366.17546646408
 10
3198.17558811161
 20
-18366.90946641423
  0
LWPOLYLINE
  5
2F6A0E
330
18
100
AcDbEntity
  8
0
 62
     8
100
AcDbPolyline
 90
       48
 70
   128
 43
0.0
 10
3193.373155398874
 20
-18350.9718691398
 10
3193.121900764131
 20
-18350.29367145324
 10
3192.743817133921
 20
-18349.61872084486
 10
3192.241271469866
 20
-18348.95272709046
 10
3191.616261929661
 20
-18348.29836392403
 10
3190.87130973255
 20
-18347.65827238111
 10
3190.009421829567
 20
-18347.03502423148
 10
3189.034079507772
 20
-18346.43113417657
 10
3187.949189315577
 20
-18345.84902735071
 10
3186.759119519579
 20
-18345.29105556639
 10
3185.468686788402
 20
-18344.75946480293
 10
3184.083060487479
 20
-18344.25638711101
 10
3182.607834894422
 20
-18343.78385684536
 10
3181.048944191235
 20
-18343.34377411406
 10
3179.412662638896
 20
-18342.93790884297
 10
3177.705592657853
 20
-18342.56790077989
 10
3175.934592088907
 20
-18342.23523106856
 10
3174.106799254314
 20
-18341.9412506913
 10
3172.229583184755
 20
-18341.68713171253
 10
3170.310485593069
 20
-18341.47390387947
 10
3168.357243491167
 20
-18341.30242616273
 10
3166.377717673023
 20
-18341.1733867814
 10
3164.379880795145
 20
-18341.08730320711
 10
3162.371781792662
 20
-18341.04452624096
 10
3160.361497677544
 20
-18341.04522783693
 10
3158.357133713189
 20
-18341.08940516626
 10
3156.366751897389
 20
-18341.17688064241
 10
3154.398370787755
 20
-18341.30729785665
 10
3152.459918347436
 20
-18341.48013378798
 10
3150.559196012032
 20
-18341.69469475116
 10
3148.703866770081
 20
-18341.9501164009
 10
3146.901383646031
 20
-18342.24536375678
 10
3145.159014761333
 20
-18342.57925964597
 10
3143.483782165672
 20
-18342.95044814412
 10
3141.88241625394
 20
-18343.35744336515
 10
3140.361378383165
 20
-18343.79860100198
 10
3138.926790577563
 20
-18344.27214680236
 10
3137.584423609036
 20
-18344.77617657319
 10
3136.339684903088
 20
-18345.30865212008
 10
3135.197596271051
 20
-18345.86743783561
 10
3134.16274553375
 20
-18346.45028445824
 10
3133.23929879016
 20
-18347.05483719696
 10
3132.430989894574
 20
-18347.67866825094
 10
3131.741048241244
 20
-18348.31926057669
 10
3131.172271678069
 20
-18348.97404037852
 10
3130.726942546318
 20
-18349.64036494443
 10
3130.406865010392
 20
-18350.31555921343
 10
3130.29849621919
 20
-18350.64062579686
  0
LWPOLYLINE
  5
2F6A0F
330
18
100
AcDbEntity
  8
0
 62
     8
100
AcDbPolyline
 90
       33
 70
   128
 43
0.0
 10
3161.346036728645
 20
-18337.17359079041
 10
3163.449574351453
 20
-18337.19494712637
 10
3165.547031881164
 20
-18337.2604011856
 10
3167.630448183774
 20
-18337.36970374843
 10
3169.691914564879
 20
-18337.52243893306
 10
3171.72362279687
 20
-18337.71803230768
 10
3173.717876514682
 20
-18337.95573869302
 10
3175.667079820039
 20
-18338.23465435986
 10
3177.563868745179
 20
-18338.55372511208
 10
3179.401027467151
 20
-18338.91173818689
 10
3181.171596281691
 20
-18339.30733847516
 10
3182.86885950914
 20
-18339.73902446113
 10
3184.486381427538
 20
-18340.20515227432
 10
3186.01801941421
 20
-18340.70396413638
 10
3187.457958482206
 20
-18341.23355989764
 10
3188.800748610052
 20
-18341.79193360441
 10
3190.041292473099
 20
-18342.37696537434
 10
3191.174882074936
 20
-18342.98644170605
 10
3192.197222062662
 20
-18343.61804327749
 10
3193.104431123544
 20
-18344.26937746141
 10
3193.893065649453
 20
-18344.93797425257
 10
3194.560132180113
 20
-18345.62129845684
 10
3195.10309949719
 20
-18346.3167537515
 10
3195.519923336223
 20
-18347.02170299905
 10
3195.808999057767
 20
-18347.73347639264
 10
3195.969257003433
 20
-18348.44937142285
 10
3196.000067838187
 20
-18349.16666916864
 10
3195.901314940289
 20
-18349.88265459452
 10
3195.67339396484
 20
-18350.59460638946
 10
3195.317142636127
 20
-18351.29982747512
 10
3194.83393592908
 20
-18351.995640908
 10
3194.225591586147
 20
-18352.67941023498
 10
3193.930864031998
 20
-18352.96464487032
  0
LWPOLYLINE
  5
2F6A10
330
18
100
AcDbEntity
  8
0
 62
     8
100
AcDbPolyline
 90
       32
 70
   128
 43
0.0
 10
3129.712252924623
 20
-18352.61989616619
 10
3129.132468198567
 20
-18352.01857094308
 10
3128.589500881489
 20
-18351.32311564841
 10
3128.172676955164
 20
-18350.61816436865
 10
3127.883589401407
 20
-18349.90639301143
 10
3127.723343375246
 20
-18349.19049797706
 10
3127.692532540493
 20
-18348.47320023127
 10
3127.791273518886
 20
-18347.75721480955
 10
3128.019206326548
 20
-18347.04526097823
 10
3128.375457742552
 20
-18346.3400419248
 10
3128.8586644496
 20
-18345.64422849192
 10
3129.467008792533
 20
-18344.96045916493
 10
3130.198182670657
 20
-18344.29133195549
 10
3131.04941050383
 20
-18343.63938407113
 10
3132.01744905788
 20
-18343.00708785082
 10
3133.098646518379
 20
-18342.39683855092
 10
3134.288894987208
 20
-18341.81095842621
 10
3135.583676763908
 20
-18341.2516641979
 10
3136.978088708442
 20
-18340.72107923853
 10
3138.466829448772
 20
-18340.22121325405
 10
3140.044247408046
 20
-18339.75397039601
 10
3141.704374991859
 20
-18339.32111266926
 10
3143.440905971332
 20
-18338.92428839126
 10
3145.247265778055
 20
-18338.56500371611
 10
3147.116575570989
 20
-18338.24461858269
 10
3149.041771606101
 20
-18337.96435073733
 10
3151.015533020999
 20
-18337.72525950124
 10
3153.030389459639
 20
-18337.52825386184
 10
3155.07867304515
 20
-18337.37408436053
 10
3157.152637051122
 20
-18337.26333085786
 10
3159.244408747342
 20
-18337.19641474344
 10
3161.346036728645
 20
-18337.17359079041
  0
LWPOLYLINE
  5
2F6A11
330
18
100
AcDbEntity
  8
0
 62
     8
100
AcDbPolyline
 90
       26
 70
   128
 43
0.0
 10
3161.333260292538
 20
-18336.36419523452
 10
3163.458959814633
 20
-18336.38534874061
 10
3165.578776860128
 20
-18336.45020564592
 10
3167.68497763853
 20
-18336.55853697388
 10
3169.769880624365
 20
-18336.70994302131
 10
3171.825893188614
 20
-18336.90387366811
 10
3173.845487410529
 20
-18337.13962025657
 10
3175.821319621863
 20
-18337.4163236788
 10
3177.74615871524
 20
-18337.73297033712
 10
3179.61298219854
 20
-18338.0884083686
 10
3181.41499968474
 20
-18338.48133950778
 10
3183.145617831732
 20
-18338.91033535694
 10
3184.798523080522
 20
-18339.37382109922
 10
3186.367683226484
 20
-18339.87011207848
 10
3187.847382304958
 20
-18340.39739346465
 10
3189.232221638747
 20
-18340.95374464036
 10
3190.517131583043
 20
-18341.53713513225
 10
3191.6974316467
 20
-18342.14543678353
 10
3192.768818747311
 20
-18342.77642782251
 10
3193.727391573974
 20
-18343.42780504759
 10
3194.56962709744
 20
-18344.09719196439
 10
3195.292476275329
 20
-18344.78214688137
 10
3195.893293058842
 20
-18345.48017512801
 10
3196.369881721623
 20
-18346.18872090936
 10
3196.72051052509
 20
-18346.90520794613
 10
3196.866427077277
 20
-18347.32607512087
  0
LWPOLYLINE
  5
2F6A12
330
18
100
AcDbEntity
  8
0
 62
     8
100
AcDbPolyline
 90
       25
 70
   128
 43
0.0
 10
3126.856612911106
 20
-18346.91692574709
 10
3127.141682772367
 20
-18346.2128817856
 10
3127.5574001731
 20
-18345.5040245864
 10
3128.098221658607
 20
-18344.80559790413
 10
3128.762206887016
 20
-18344.12015897724
 10
3129.546924197994
 20
-18343.45020424838
 10
3130.449498639938
 20
-18342.7981774766
 10
3131.46665912425
 20
-18342.16645752744
 10
3132.594666559128
 20
-18341.55735026901
 10
3133.829420775958
 20
-18340.97308040578
 10
3135.166412327534
 20
-18340.41577930186
 10
3136.600769991499
 20
-18339.88748089999
 10
3138.127260246589
 20
-18339.39010952824
 10
3139.740299366732
 20
-18338.9254839603
 10
3141.434011971062
 20
-18338.4952930081
 10
3143.202208057829
 20
-18338.10111585226
 10
3145.038452950184
 20
-18337.74438543736
 10
3146.936032235987
 20
-18337.42640474207
 10
3148.888022586516
 20
-18337.14833049645
 10
3150.887315944631
 20
-18336.91118130259
 10
3152.926594987439
 20
-18336.71582138514
 10
3154.998440576421
 20
-18336.56296461834
 10
3157.095271810736
 20
-18336.45316641795
 10
3159.209453651937
 20
-18336.38683183268
 10
3161.333260292538
 20
-18336.36419523452
  0
LINE
  5
2F6A13
330
18
100
AcDbEntity
  8
0
 62
     8
100
AcDbLine
 10
3197.136970876653
 20
-18367.37567465851
 30
0.0000000000000047
 11
3197.226170357469
 21
-18369.45230085276
 31
0.0000000000000047
  0
LINE
  5
2F6A14
330
18
100
AcDbEntity
  8
0
 62
     8
100
AcDbLine
 10
3197.226353751242
 20
-18369.41740334744
 30
0.0000000000000047
 11
3197.138653418429
 21
-18367.37567836546
 31
0.0000000000000047
  0
LWPOLYLINE
  5
2F6A15
330
18
100
AcDbEntity
  8
0
 62
     8
100
AcDbPolyline
 90
        9
 70
   128
 43
0.0
 10
3198.274925188857
 20
-18369.20656301231
 10
3198.273567434311
 20
-18369.19937341163
 10
3198.265857689694
 20
-18369.18832679901
 10
3198.2516600992
 20
-18369.17803031596
 10
3198.231565828658
 20
-18369.16892678508
 10
3198.206449929736
 20
-18369.16140812379
 10
3198.177387030463
 20
-18369.1557950514
 10
3198.145651247966
 20
-18369.15233505683
 10
3198.112583764512
 20
-18369.15117196123
  0
LINE
  5
2F6A16
330
18
100
AcDbEntity
  8
0
 62
     8
100
AcDbLine
 10
3198.115350336716
 20
-18368.6247284128
 30
0.0000000000000047
 11
3197.192482662393
 21
-18368.62505049676
 31
0.0000000000000047
  0
SPLINE
  5
2F6A17
330
18
100
AcDbEntity
  8
0
 62
     8
100
AcDbSpline
210
0.0
220
0.0
230
1.0
 70
     8
 71
     3
 72
    11
 73
     7
 74
     0
 42
0.0000000001
 43
0.0000000001
 40
0.0
 40
0.0
 40
0.0
 40
0.0
 40
0.0681320740594226
 40
0.1575616750025645
 40
0.5737526939970024
 40
0.9999999999999998
 40
0.9999999999999998
 40
0.9999999999999998
 40
0.9999999999999998
 10
3166.928686275262
 20
-18324.45136254773
 30
0.0000000000000047
 10
3166.88369390933
 20
-18324.39206820449
 30
0.0000000000000047
 10
3166.779644933332
 20
-18324.2549445932
 30
0.0000000000000047
 10
3166.521290196616
 20
-18323.72774205004
 30
0.0000000000000047
 10
3166.185640561133
 20
-18322.85921297318
 30
0.0000000000000047
 10
3166.081771353304
 20
-18322.06726219943
 30
0.0000000000000047
 10
3166.02921679981
 20
-18321.66656000701
 30
0.0000000000000047
  0
SPLINE
  5
2F6A18
330
18
100
AcDbEntity
  8
0
 62
     8
100
AcDbSpline
210
0.0
220
0.0
230
1.0
 70
     8
 71
     3
 72
    11
 73
     7
 74
     0
 42
0.0000000001
 43
0.0000000001
 40
0.0
 40
0.0
 40
0.0
 40
0.0
 40
0.0673604514620805
 40
0.4524706241825082
 40
0.8442766950162864
 40
1.0
 40
1.0
 40
1.0
 40
1.0
 10
3158.496842304955
 20
-18321.60346203909
 30
0.0000000000000047
 10
3158.49078520743
 20
-18321.6664310276
 30
0.0000000000000047
 10
3158.450098741724
 20
-18322.08940351245
 30
0.0000000000000047
 10
3158.293281733099
 20
-18322.87910392744
 30
0.0000000000000047
 10
3157.990090165663
 20
-18323.74747523565
 30
0.0000000000000047
 10
3157.694767573288
 20
-18324.23511936819
 30
0.0000000000000047
 10
3157.610774618477
 20
-18324.37381065915
 30
0.0000000000000047
  0
SPLINE
  5
2F6A19
330
18
100
AcDbEntity
  8
0
 62
     8
100
AcDbSpline
210
0.0
220
0.0
230
1.0
 70
     8
 71
     3
 72
    11
 73
     7
 74
     0
 42
0.0000000001
 43
0.0000000001
 40
0.0
 40
0.0
 40
0.0
 40
0.0
 40
0.2439184469308063
 40
0.6211715009645992
 40
0.9988949948460339
 40
1.0
 40
1.0
 40
1.0
 40
1.0
 10
3156.890288048011
 20
-18324.39798978648
 30
0.0000000000000047
 10
3157.009038277414
 20
-18324.13795097888
 30
0.0000000000000047
 10
3157.311451888056
 20
-18323.4757267869
 30
0.0000000000000047
 10
3157.523996532715
 20
-18322.36719793185
 30
0.0000000000000047
 10
3157.609216075136
 20
-18321.53014323396
 30
0.0000000000000047
 10
3157.628691604972
 20
-18321.10989725563
 30
0.0000000000000047
 10
3157.628748413162
 20
-18321.1086714398
 30
0.0000000000000047
  0
SPLINE
  5
2F6A1A
330
18
100
AcDbEntity
  8
0
 62
     8
100
AcDbSpline
210
0.0
220
0.0
230
1.0
 70
     8
 71
     3
 72
    10
 73
     6
 74
     0
 42
0.0000000001
 43
0.0000000001
 40
0.0
 40
0.0
 40
0.0
 40
0.0
 40
0.4577383639211762
 40
0.9149074791294918
 40
1.0
 40
1.0
 40
1.0
 40
1.0
 10
3166.91286207581
 20
-18321.18644457411
 30
0.0000000000000047
 10
3166.941901570796
 20
-18321.60605773956
 30
0.0000000000000047
 10
3166.999944446918
 20
-18322.44476223469
 30
0.0000000000000047
 10
3167.196628168778
 20
-18323.36065938226
 30
0.0000000000000047
 10
3167.358511835716
 20
-18323.84975386039
 30
0.0000000000000047
 10
3167.383914867004
 20
-18323.92650330995
 30
0.0000000000000047
  0
SPLINE
  5
2F6A1B
330
18
100
AcDbEntity
  8
0
 62
     8
100
AcDbSpline
210
0.0
220
0.0
230
1.0
 70
     8
 71
     3
 72
     9
 73
     5
 74
     0
 42
0.0000000001
 43
0.0000000001
 40
0.0
 40
0.0
 40
0.0
 40
0.0
 40
0.3673643887106599
 40
1.0
 40
1.0
 40
1.0
 40
1.0
 10
3154.860869327333
 20
-18322.05854530602
 30
0.0000000000000047
 10
3154.851677249501
 20
-18322.21171770024
 30
0.0000000000000047
 10
3154.826655559558
 20
-18322.62866718942
 30
0.0000000000000047
 10
3154.877601605905
 20
-18323.03211259529
 30
0.0000000000000047
 10
3154.909831889079
 20
-18323.28734652626
 30
0.0000000000000047
  0
SPLINE
  5
2F6A1C
330
18
100
AcDbEntity
  8
0
 62
     8
100
AcDbSpline
210
0.0
220
0.0
230
1.0
 70
     8
 71
     3
 72
    17
 73
    13
 74
     0
 42
0.0000000001
 43
0.0000000001
 40
0.0
 40
0.0
 40
0.0
 40
0.0
 40
0.1063094415213949
 40
0.2215326631953984
 40
0.3366587863015114
 40
0.4514216079778414
 40
0.5228766106577737
 40
0.6369800689836378
 40
0.7509303410898873
 40
0.8649063519391997
 40
0.9792169027124634
 40
1.0
 40
1.0
 40
1.0
 40
1.0
 10
3157.110169962556
 20
-18281.25922428997
 30
0.0000000000000047
 10
3157.091486382494
 20
-18281.23658578494
 30
0.0000000000000047
 10
3157.052552651018
 20
-18281.18941059299
 30
0.0000000000000047
 10
3156.912829676326
 20
-18281.13005730701
 30
0.0000000000000047
 10
3156.724132861562
 20
-18281.08800831568
 30
0.0000000000000047
 10
3156.532488760209
 20
-18281.07220640856
 30
0.0000000000000047
 10
3156.339985207582
 20
-18281.07458910907
 30
0.0000000000000047
 10
3156.155313415213
 20
-18281.09489561829
 30
0.0000000000000047
 10
3155.978748947692
 20
-18281.14077869329
 30
0.0000000000000047
 10
3155.861571690752
 20
-18281.20414467911
 30
0.0000000000000047
 10
3155.813116073607
 20
-18281.25802870329
 30
0.0000000000000047
 10
3155.819785145968
 20
-18281.28756177818
 30
0.0000000000000047
 10
3155.8208111304
 20
-18281.29210520991
 30
0.0000000000000047
  0
SPLINE
  5
2F6A1D
330
18
100
AcDbEntity
  8
0
 62
     8
100
AcDbSpline
210
0.0
220
0.0
230
1.0
 70
     8
 71
     3
 72
    17
 73
    13
 74
     0
 42
0.0000000001
 43
0.0000000001
 40
0.0
 40
0.0
 40
0.0
 40
0.0
 40
0.0379673986995121
 40
0.1539084125257415
 40
0.269736747438579
 40
0.3851906826712321
 40
0.4570628028541694
 40
0.5718702481441476
 40
0.6865293273440175
 40
0.8012164487013802
 40
0.9162452184934707
 40
1.0
 40
1.0
 40
1.0
 40
1.0
 10
3169.130355291895
 20
-18281.39951057609
 30
0.0000000000000047
 10
3169.132315241052
 20
-18281.3912619789
 30
0.0000000000000047
 10
3169.140260285314
 20
-18281.35782464734
 30
0.0000000000000047
 10
3169.079755409154
 20
-18281.30011457963
 30
0.0000000000000047
 10
3168.952331506302
 20
-18281.23725645517
 30
0.0000000000000047
 10
3168.790057609833
 20
-18281.1982693905
 30
0.0000000000000047
 10
3168.608024464951
 20
-18281.17596135863
 30
0.0000000000000047
 10
3168.413378979334
 20
-18281.17114989279
 30
0.0000000000000047
 10
3168.199339400343
 20
-18281.19111460601
 30
0.0000000000000047
 10
3168.018301567038
 20
-18281.23429419727
 30
0.0000000000000047
 10
3167.897264917298
 20
-18281.29008942822
 30
0.0000000000000047
 10
3167.862315381145
 20
-18281.33166305075
 30
0.0000000000000047
 10
3167.847589863137
 20
-18281.34917953865
 30
0.0000000000000047
  0
SPLINE
  5
2F6A1E
330
18
100
AcDbEntity
  8
0
 62
     8
100
AcDbSpline
210
0.0
220
0.0
230
1.0
 70
     8
 71
     3
 72
     9
 73
     5
 74
     0
 42
0.0000000001
 43
0.0000000001
 40
0.0
 40
0.0
 40
0.0
 40
0.0
 40
0.6467200680288732
 40
1.0
 40
1.0
 40
1.0
 40
1.0
 10
3169.615805592933
 20
-18323.37106127419
 30
0.0000000000000047
 10
3169.646943613015
 20
-18323.13488841165
 30
0.0000000000000047
 10
3169.695091214461
 20
-18322.76970280164
 30
0.0000000000000047
 10
3169.674672505649
 20
-18322.39105749725
 30
0.0000000000000047
 10
3169.667458985589
 20
-18322.25728970989
 30
0.0000000000000047
  0
SPLINE
  5
2F6A1F
330
18
100
AcDbEntity
  8
0
 62
     8
100
AcDbSpline
210
0.0
220
0.0
230
1.0
 70
     8
 71
     3
 72
    10
 73
     6
 74
     0
 42
0.0000000001
 43
0.0000000001
 40
0.0
 40
0.0
 40
0.0
 40
0.0
 40
0.1300405253459
 40
0.8735042798636856
 40
1.0
 40
1.0
 40
1.0
 40
1.0
 10
3170.219316977131
 20
-18321.98646024443
 30
0.0000000000000047
 10
3170.226927968674
 20
-18322.04960851057
 30
0.0000000000000047
 10
3170.278052290645
 20
-18322.47378613211
 30
0.0000000000000047
 10
3170.325170335067
 20
-18322.96242433403
 30
0.0000000000000047
 10
3170.254907500643
 20
-18323.3623672323
 30
0.0000000000000047
 10
3170.24469099275
 20
-18323.42052059048
 30
0.0000000000000047
  0
SPLINE
  5
2F6A20
330
18
100
AcDbEntity
  8
0
 62
     8
100
AcDbSpline
210
0.0
220
0.0
230
1.0
 70
     8
 71
     3
 72
     9
 73
     5
 74
     0
 42
0.0000000001
 43
0.0000000001
 40
0.0
 40
0.0
 40
0.0
 40
0.0
 40
0.0884879206022352
 40
1.0
 40
1.0
 40
1.0
 40
1.0
 10
3177.650409894335
 20
-18324.39661231831
 30
0.0000000000000047
 10
3177.629464669332
 20
-18324.35568053906
 30
0.0000000000000047
 10
3177.392763152788
 20
-18323.89311142246
 30
0.0000000000000047
 10
3177.264074592439
 20
-18323.44017750102
 30
0.0000000000000047
 10
3177.146773415201
 20
-18323.02732276047
 30
0.0000000000000047
  0
LWPOLYLINE
  5
2F6A21
330
18
100
AcDbEntity
  8
0
 62
     8
100
AcDbPolyline
 90
        3
 70
   128
 43
0.0
 10
3169.617959207567
 20
-18317.45409524655
 10
3169.665005300841
 20
-18317.80847117763
 10
3170.219316977131
 20
-18321.98646024443
  0
SPLINE
  5
2F6A22
330
18
100
AcDbEntity
  8
0
 62
     8
100
AcDbSpline
210
0.0
220
0.0
230
1.0
 70
     8
 71
     3
 72
    10
 73
     6
 74
     0
 42
0.0000000001
 43
0.0000000001
 40
0.0
 40
0.0
 40
0.0
 40
0.0
 40
0.1438654730078236
 40
0.9663685063082011
 40
1.0
 40
1.0
 40
1.0
 40
1.0
 10
3147.297882071497
 20
-18322.77727571179
 30
0.0000000000000047
 10
3147.278539344094
 20
-18322.84183990678
 30
0.0000000000000047
 10
3147.148611000635
 20
-18323.27552843091
 30
0.0000000000000047
 10
3147.009056081557
 20
-18323.72986768604
 30
0.0000000000000047
 10
3146.804042912882
 20
-18324.12237473949
 30
0.0000000000000047
 10
3146.795989389901
 20
-18324.13779357622
 30
0.0000000000000047
  0
ELLIPSE
  5
2F6A23
330
18
100
AcDbEntity
  8
0
 62
     8
100
AcDbEllipse
 10
3170.572712501132
 20
-18894.41743110264
 30
0.0000000000000047
 11
-13.48168746830726
 21
1034.935807701357
 31
0.0
210
0.0
220
0.0
230
0.9999999999999998
 40
0.0025002425814444
 41
0.9625689785682974
 42
0.972340763075895
  0
ELLIPSE
  5
2F6A24
330
18
100
AcDbEntity
  8
0
 62
     8
100
AcDbEllipse
 10
3147.428159210156
 20
-18894.2235474405
 30
0.0000000000000047
 11
24.2908110278924
 21
1034.619385230746
 31
0.0
210
0.0
220
0.0
230
1.0
 40
0.0027535465027592
 41
5.310832639055706
 42
5.320604381378329
  0
SPLINE
  5
2F6A25
330
18
100
AcDbEntity
  8
0
 62
     8
100
AcDbSpline
210
0.0
220
0.0
230
1.0
 70
     8
 71
     3
 72
    10
 73
     6
 74
     0
 42
0.0000000001
 43
0.0000000001
 40
0.0
 40
0.0
 40
0.0
 40
0.0
 40
0.3209677458789514
 40
0.9980189808343828
 40
1.0
 40
1.0
 40
1.0
 40
1.0
 10
3145.803644845911
 20
-18324.30799684448
 30
0.0000000000000047
 10
3145.872667886302
 20
-18324.10344244373
 30
0.0000000000000047
 10
3146.087288530621
 20
-18323.46739979714
 30
0.0000000000000047
 10
3146.201821573303
 20
-18322.83724771928
 30
0.0000000000000047
 10
3146.274184918534
 20
-18322.41148759292
 30
0.0000000000000047
 10
3146.274396032473
 20
-18322.41024547376
 30
0.0000000000000047
  0
SPLINE
  5
2F6A26
330
18
100
AcDbEntity
  8
0
 62
     8
100
AcDbSpline
210
0.0
220
0.0
230
1.0
 70
     8
 71
     3
 72
     9
 73
     5
 74
     0
 42
0.0000000001
 43
0.0000000001
 40
0.0
 40
0.0
 40
0.0
 40
0.0
 40
0.6650851500802322
 40
1.0
 40
1.0
 40
1.0
 40
1.0
 10
3178.177513851364
 20
-18322.6774999707
 30
0.0000000000000047
 10
3178.250657178962
 20
-18323.10470890373
 30
0.0000000000000047
 10
3178.360633063387
 20
-18323.74704610367
 30
0.0000000000000047
 10
3178.575770329667
 20
-18324.40006089888
 30
0.0000000000000047
 10
3178.647822994914
 20
-18324.61876525101
 30
0.0000000000000047
  0
LINE
  5
2F6A27
330
18
100
AcDbEntity
  8
0
 62
     8
100
AcDbLine
 10
3178.992880446486
 20
-18325.60960230649
 30
0.0000000000000047
 11
3179.190687076938
 21
-18326.00614339725
 31
0.0000000000000047
  0
SPLINE
  5
2F6A28
330
18
100
AcDbEntity
  8
0
 62
     8
100
AcDbSpline
210
0.0
220
0.0
230
1.0
 70
     8
 71
     3
 72
    10
 73
     6
 74
     0
 42
0.0000000001
 43
0.0000000001
 40
0.0
 40
0.0
 40
0.0
 40
0.0
 40
0.2340504435825158
 40
0.5179636181936816
 40
1.0
 40
1.0
 40
1.0
 40
1.0
 10
3143.665226972335
 20
-18325.19636599512
 30
0.0000000000000047
 10
3143.659431281467
 20
-18325.2665974122
 30
0.0000000000000047
 10
3143.646605170281
 20
-18325.42202253486
 30
0.0000000000000047
 10
3143.652811896702
 20
-18325.70941034011
 30
0.0000000000000047
 10
3143.691947322897
 20
-18325.9120315682
 30
0.0000000000000047
 10
3143.716576489513
 20
-18326.03954754212
 30
0.0000000000000047
  0
SPLINE
  5
2F6A29
330
18
100
AcDbEntity
  8
0
 62
     8
100
AcDbSpline
210
0.0
220
0.0
230
1.0
 70
     8
 71
     3
 72
    16
 73
    12
 74
     0
 42
0.0000000001
 43
0.0000000001
 40
0.0
 40
0.0
 40
0.0
 40
0.0
 40
0.0225354757725399
 40
0.1562909449588825
 40
0.2896188387051637
 40
0.3726144036080387
 40
0.5051959223623732
 40
0.6375957527303297
 40
0.7700361230017962
 40
0.9028651823425628
 40
1.0
 40
1.0
 40
1.0
 40
1.0
 10
3180.184418132546
 20
-18283.05953979962
 30
0.0000000000000047
 10
3180.186019333619
 20
-18283.05533377759
 30
0.0000000000000047
 10
3180.197124190301
 20
-18283.02616362979
 30
0.0000000000000047
 10
3180.14519278177
 20
-18282.97162024419
 30
0.0000000000000047
 10
3180.044095946578
 20
-18282.91485146145
 30
0.0000000000000047
 10
3179.899019123988
 20
-18282.87049953945
 30
0.0000000000000047
 10
3179.724098347471
 20
-18282.84064397885
 30
0.0000000000000047
 10
3179.502958780807
 20
-18282.83097673855
 30
0.0000000000000047
 10
3179.286616781856
 20
-18282.84697970613
 30
0.0000000000000047
 10
3179.11159130959
 20
-18282.88244382629
 30
0.0000000000000047
 10
3179.032546033735
 20
-18282.91614777534
 30
0.0000000000000047
 10
3178.999157970546
 20
-18282.93038404145
 30
0.0000000000000047
  0
SPLINE
  5
2F6A2A
330
18
100
AcDbEntity
  8
0
 62
     8
100
AcDbSpline
210
0.0
220
0.0
230
1.0
 70
     8
 71
     3
 72
     9
 73
     5
 74
     0
 42
0.0000000001
 43
0.0000000001
 40
0.0
 40
0.0
 40
0.0
 40
0.0
 40
0.822977685357435
 40
1.0
 40
1.0
 40
1.0
 40
1.0
 10
3180.692480038502
 20
-18326.34041944894
 30
0.0000000000000047
 10
3180.728358922682
 20
-18326.1400842812
 30
0.0000000000000047
 10
3180.771955346763
 20
-18325.89665706403
 30
0.0000000000000047
 10
3180.750950628747
 20
-18325.62248479918
 30
0.0000000000000047
 10
3180.747232324945
 20
-18325.57395019025
 30
0.0000000000000047
  0
SPLINE
  5
2F6A2B
330
18
100
AcDbEntity
  8
0
 62
     8
100
AcDbSpline
210
0.0
220
0.0
230
1.0
 70
     8
 71
     3
 72
    11
 73
     7
 74
     0
 42
0.0000000001
 43
0.0000000001
 40
0.0
 40
0.0
 40
0.0
 40
0.0
 40
0.0151009277702277
 40
0.112595782967653
 40
0.5663271902113917
 40
1.0
 40
1.0
 40
1.0
 40
1.0
 10
3143.301058370568
 20
-18326.13549010462
 30
0.0000000000000047
 10
3143.298490581438
 20
-18326.12503170303
 30
0.0000000000000047
 10
3143.2793445904
 20
-18326.04705159918
 30
0.0000000000000047
 10
3143.290163717709
 20
-18325.59847663093
 30
0.0000000000000047
 10
3143.349324773565
 20
-18324.80196620908
 30
0.0000000000000047
 10
3143.57872326537
 20
-18324.02084107065
 30
0.0000000000000047
 10
3143.690829886675
 20
-18323.63910665122
 30
0.0000000000000047
  0
SPLINE
  5
2F6A2C
330
18
100
AcDbEntity
  8
0
 62
     8
100
AcDbSpline
210
0.0
220
0.0
230
1.0
 70
     8
 71
     3
 72
    11
 73
     7
 74
     0
 42
0.0000000001
 43
0.0000000001
 40
0.0
 40
0.0
 40
0.0
 40
0.0
 40
0.0077952222465289
 40
0.4442060498527385
 40
0.8882059601132517
 40
0.9999999999999998
 40
0.9999999999999998
 40
0.9999999999999998
 40
0.9999999999999998
 10
3180.73520563178
 20
-18324.04349602653
 30
0.0000000000000047
 10
3180.737275063993
 20
-18324.05015162409
 30
0.0000000000000047
 10
3180.855200413547
 20
-18324.42941684766
 30
0.0000000000000047
 10
3181.027576842705
 20
-18325.16772994615
 30
0.0000000000000047
 10
3181.135052375364
 20
-18325.96387920909
 30
0.0000000000000047
 10
3181.097242813416
 20
-18326.36071560371
 30
0.0000000000000047
 10
3181.089637686237
 20
-18326.44053645049
 30
0.0000000000000047
  0
SPLINE
  5
2F6A2D
330
18
100
AcDbEntity
  8
0
 62
     8
100
AcDbSpline
210
0.0
220
0.0
230
1.0
 70
     8
 71
     3
 72
     9
 73
     5
 74
     0
 42
0.0000000001
 43
0.0000000001
 40
0.0
 40
0.0
 40
0.0
 40
0.0
 40
0.4924303489319362
 40
1.0
 40
1.0
 40
1.0
 40
1.0
 10
3187.269219390572
 20
-18328.36579055719
 30
0.0000000000000047
 10
3187.020676242461
 20
-18327.92323648802
 30
0.0000000000000047
 10
3186.51594872384
 20
-18327.02452244625
 30
0.0000000000000047
 10
3186.139590134175
 20
-18326.16459729168
 30
0.0000000000000047
 10
3185.94856193614
 20
-18325.72812538101
 30
0.0000000000000047
  0
SPLINE
  5
2F6A2E
330
18
100
AcDbEntity
  8
0
 62
     8
100
AcDbSpline
210
0.0
220
0.0
230
1.0
 70
     8
 71
     3
 72
    11
 73
     7
 74
     0
 42
0.0000000001
 43
0.0000000001
 40
0.0
 40
0.0
 40
0.0
 40
0.0
 40
0.0791653476477117
 40
0.5317694845673207
 40
0.9922426895355521
 40
1.0
 40
1.0
 40
1.0
 40
1.0
 10
3138.32736858873
 20
-18325.32920048851
 30
0.0000000000000047
 10
3138.298092006059
 20
-18325.39694140649
 30
0.0000000000000047
 10
3138.101435340749
 20
-18325.85197071044
 30
0.0000000000000047
 10
3137.681061708744
 20
-18326.72023532294
 30
0.0000000000000047
 10
3137.240542488929
 20
-18327.54678146098
 30
0.0000000000000047
 10
3136.971951540913
 20
-18327.96932209058
 30
0.0000000000000047
 10
3136.967501716942
 20
-18327.97632244348
 30
0.0000000000000047
  0
LWPOLYLINE
  5
2F6A2F
330
18
100
AcDbEntity
  8
0
 62
     8
100
AcDbPolyline
 90
        3
 70
   128
 43
0.0
 10
3155.619698115962
 20
-18289.57181460027
 10
3150.838235712018
 20
-18286.18093900387
 10
3145.863042277715
 20
-18282.65267509772
  0
LWPOLYLINE
  5
2F6A30
330
18
100
AcDbEntity
  8
0
 62
     8
100
AcDbPolyline
 90
        3
 70
   128
 43
0.0
 10
3178.9991705526
 20
-18282.93025796249
 10
3173.397579288787
 20
-18286.6751736113
 10
3169.245208253934
 20
-18289.45121457108
  0
SPLINE
  5
2F6A31
330
18
100
AcDbEntity
  8
0
 62
     8
100
AcDbSpline
210
0.0
220
0.0
230
1.0
 70
     8
 71
     3
 72
    11
 73
     7
 74
     0
 42
0.0000000001
 43
0.0000000001
 40
0.0
 40
0.0
 40
0.0
 40
0.0
 40
0.1495076660987949
 40
0.5738675333106129
 40
0.9987574675496388
 40
1.0
 40
1.0
 40
1.0
 40
1.0
 10
3136.223797299836
 20
-18328.26211692804
 30
0.0000000000000047
 10
3136.297240636019
 20
-18328.10116408502
 30
0.0000000000000047
 10
3136.579144215098
 20
-18327.48336559073
 30
0.0000000000000047
 10
3136.930439300199
 20
-18326.42376893916
 30
0.0000000000000047
 10
3137.191469442051
 20
-18325.54051172271
 30
0.0000000000000047
 10
3137.304219315989
 20
-18325.10242840852
 30
0.0000000000000047
 10
3137.304548076147
 20
-18325.10115102936
 30
0.0000000000000047
  0
SPLINE
  5
2F6A32
330
18
100
AcDbEntity
  8
0
 62
     8
100
AcDbSpline
210
0.0
220
0.0
230
1.0
 70
     8
 71
     3
 72
     9
 73
     5
 74
     0
 42
0.0000000001
 43
0.0000000001
 40
0.0
 40
0.0
 40
0.0
 40
0.0
 40
0.5885878965717187
 40
1.0
 40
1.0
 40
1.0
 40
1.0
 10
3186.969713458197
 20
-18325.51720159479
 30
0.0000000000000047
 10
3187.084390247776
 20
-18325.9579664007
 30
0.0000000000000047
 10
3187.279224001994
 20
-18326.70681769121
 30
0.0000000000000047
 10
3187.556654958737
 20
-18327.48121347671
 30
0.0000000000000047
 10
3187.670793412207
 20
-18327.7998092757
 30
0.0000000000000047
  0
SPLINE
  5
2F6A33
330
18
100
AcDbEntity
  8
0
 62
     8
100
AcDbSpline
210
0.0
220
0.0
230
1.0
 70
     8
 71
     3
 72
    10
 73
     6
 74
     0
 42
0.0000000001
 43
0.0000000001
 40
0.0
 40
0.0
 40
0.0
 40
0.0
 40
0.1587793502907278
 40
0.5799150209902903
 40
1.0
 40
1.0
 40
1.0
 40
1.0
 10
3159.467495357182
 20
-18311.44684223964
 30
0.0000000000000047
 10
3159.459352291948
 20
-18311.44443559351
 30
0.0000000000000047
 10
3159.429611108111
 20
-18311.43564572102
 30
0.0000000000000047
 10
3159.389604139201
 20
-18311.50997633545
 30
0.0000000000000047
 10
3159.371136153734
 20
-18311.62534755639
 30
0.0000000000000047
 10
3159.361913694335
 20
-18311.68296111706
 30
0.0000000000000047
  0
SPLINE
  5
2F6A34
330
18
100
AcDbEntity
  8
0
 62
     8
100
AcDbSpline
210
0.0
220
0.0
230
1.0
 70
     8
 71
     3
 72
    10
 73
     6
 74
     0
 42
0.0000000001
 43
0.0000000001
 40
0.0
 40
0.0
 40
0.0
 40
0.0
 40
0.1708048014216255
 40
0.5914482847267683
 40
1.0
 40
1.0
 40
1.0
 40
1.0
 10
3165.166850225503
 20
-18311.73159085512
 30
0.0000000000000047
 10
3165.163621606993
 20
-18311.70636566461
 30
0.0000000000000047
 10
3165.152441822446
 20
-18311.61901802845
 30
0.0000000000000047
 10
3165.11888123352
 20
-18311.51071620343
 30
0.0000000000000047
 10
3165.076982143822
 20
-18311.49319267645
 30
0.0000000000000047
 10
3165.056338096445
 20
-18311.48455868168
 30
0.0000000000000047
  0
SPLINE
  5
2F6A35
330
18
100
AcDbEntity
  8
0
 62
     8
100
AcDbSpline
210
0.0
220
0.0
230
1.0
 70
     8
 71
     3
 72
    15
 73
    11
 74
     0
 42
0.0000000001
 43
0.0000000001
 40
0.0
 40
0.0
 40
0.0
 40
0.0
 40
0.0093724180654337
 40
0.1670590980132207
 40
0.2651829517569482
 40
0.4220332046401753
 40
0.5786612439814587
 40
0.7353378959528991
 40
0.8925051390904947
 40
0.9999999999999998
 40
0.9999999999999998
 40
0.9999999999999998
 40
0.9999999999999998
 10
3188.59162836435
 20
-18286.02690170558
 30
0.0000000000000047
 10
3188.592295096107
 20
-18286.02543207999
 30
0.0000000000000047
 10
3188.604179287079
 20
-18285.99923667069
 30
0.0000000000000047
 10
3188.565127964864
 20
-18285.95649528546
 30
0.0000000000000047
 10
3188.482392467035
 20
-18285.8975663028
 30
0.0000000000000047
 10
3188.349392309941
 20
-18285.84791776414
 30
0.0000000000000047
 10
3188.153835413527
 20
-18285.81128703195
 30
0.0000000000000047
 10
3187.934456078592
 20
-18285.79893821158
 30
0.0000000000000047
 10
3187.7364990129
 20
-18285.80965468233
 30
0.0000000000000047
 10
3187.628840728125
 20
-18285.82991527266
 30
0.0000000000000047
 10
3187.585114360917
 20
-18285.83814429112
 30
0.0000000000000047
  0
SPLINE
  5
2F6A36
330
18
100
AcDbEntity
  8
0
 62
     8
100
AcDbSpline
210
0.0
220
0.0
230
1.0
 70
     8
 71
     3
 72
    10
 73
     6
 74
     0
 42
0.0000000001
 43
0.0000000001
 40
0.0
 40
0.0
 40
0.0
 40
0.0
 40
0.1166852441651422
 40
0.5589022255752607
 40
1.0
 40
1.0
 40
1.0
 40
1.0
 10
3150.404760526296
 20
-18312.36250724661
 30
0.0000000000000047
 10
3150.468031221653
 20
-18312.35721900613
 30
0.0000000000000047
 10
3150.402367518044
 20
-18312.3562583965
 30
0.0000000000000047
 10
3150.305958782105
 20
-18312.43833124652
 30
0.0000000000000047
 10
3150.254754898592
 20
-18312.55772784896
 30
0.0000000000000047
 10
3150.229185395864
 20
-18312.61735050924
 30
0.0000000000000047
  0
SPLINE
  5
2F6A37
330
18
100
AcDbEntity
  8
0
 62
     8
100
AcDbSpline
210
0.0
220
0.0
230
1.0
 70
     8
 71
     3
 72
    10
 73
     6
 74
     0
 42
0.0000000001
 43
0.0000000001
 40
0.0
 40
0.0
 40
0.0
 40
0.0
 40
0.1808507206472298
 40
0.6262110655427265
 40
1.0
 40
1.0
 40
1.0
 40
1.0
 10
3174.234661475353
 20
-18312.8184438968
 30
0.0000000000000047
 10
3174.225554855167
 20
-18312.79236303735
 30
0.0000000000000047
 10
3174.194022405038
 20
-18312.70205583413
 30
0.0000000000000047
 10
3174.114140508173
 20
-18312.59038010913
 30
0.0000000000000047
 10
3174.022495454784
 20
-18312.5641392281
 30
0.0000000000000047
 10
3173.980676573027
 20
-18312.55216515791
 30
0.0000000000000047
  0
LINE
  5
2F6A38
330
18
100
AcDbEntity
  8
0
 62
     8
100
AcDbLine
 10
3135.151194826802
 20
-18324.34574689623
 30
0.0000000000000047
 11
3133.401517190745
 21
-18327.94419598294
 31
0.0000000000000047
  0
SPLINE
  5
2F6A39
330
18
100
AcDbEntity
  8
0
 62
     8
100
AcDbSpline
210
0.0
220
0.0
230
1.0
 70
     8
 71
     3
 72
    12
 73
     8
 74
     0
 42
0.0000000001
 43
0.0000000001
 40
0.0
 40
0.0
 40
0.0
 40
0.0
 40
0.1000952570985932
 40
0.4513302258432041
 40
0.7046174493087066
 40
0.9576486940755948
 40
1.0
 40
1.0
 40
1.0
 40
1.0
 10
3189.118282179306
 20
-18325.43569407211
 30
0.0000000000000047
 10
3189.172152466155
 20
-18325.53151040022
 30
0.0000000000000047
 10
3189.415053972533
 20
-18325.96354690489
 30
0.0000000000000047
 10
3189.759304457731
 20
-18326.66843440743
 30
0.0000000000000047
 10
3190.130895685399
 20
-18327.44863929331
 30
0.0000000000000047
 10
3190.362867663147
 20
-18327.94842842563
 30
0.0000000000000047
 10
3190.447073258213
 20
-18328.15967290502
 30
0.0000000000000047
 10
3190.459146472791
 20
-18328.18996067778
 30
0.0000000000000047
  0
LWPOLYLINE
  5
2F6A3A
330
18
100
AcDbEntity
  8
0
 62
     8
100
AcDbPolyline
 90
        3
 70
   128
 43
0.0
 10
3190.5695691172
 20
-18328.25011716016
 10
3190.466008019954
 20
-18328.03163179174
 10
3189.11489849774
 20
-18325.18121480131
  0
LINE
  5
2F6A3B
330
18
100
AcDbEntity
  8
0
 62
     8
100
AcDbLine
 10
3144.53803246556
 20
-18288.08043000121
 30
0.0000000000000047
 11
3137.094965661978
 21
-18285.41505736959
 31
0.0000000000000047
  0
LINE
  5
2F6A3C
330
18
100
AcDbEntity
  8
0
 62
     8
100
AcDbLine
 10
3187.585115023467
 20
-18285.83801821632
 30
0.0000000000000047
 11
3180.259392690313
 21
-18288.29825548524
 31
0.0000000000000047
  0
SPLINE
  5
2F6A3D
330
18
100
AcDbEntity
  8
0
 62
     8
100
AcDbSpline
210
0.0
220
0.0
230
1.0
 70
     8
 71
     3
 72
     9
 73
     5
 74
     0
 42
0.0000000001
 43
0.0000000001
 40
0.0
 40
0.0
 40
0.0
 40
0.0
 40
0.4651630797656367
 40
1.0
 40
1.0
 40
1.0
 40
1.0
 10
3143.173971814559
 20
-18314.39885499368
 30
0.0000000000000047
 10
3143.116837659285
 20
-18314.42657093671
 30
0.0000000000000047
 10
3142.994011584391
 20
-18314.4861542189
 30
0.0000000000000047
 10
3142.92501539809
 20
-18314.61063026686
 30
0.0000000000000047
 10
3142.888113690301
 20
-18314.67720465301
 30
0.0000000000000047
  0
SPLINE
  5
2F6A3E
330
18
100
AcDbEntity
  8
0
 62
     8
100
AcDbSpline
210
0.0
220
0.0
230
1.0
 70
     8
 71
     3
 72
    10
 73
     6
 74
     0
 42
0.0000000001
 43
0.0000000001
 40
0.0
 40
0.0
 40
0.0
 40
0.0
 40
0.2218915721251016
 40
0.7683474803408781
 40
1.0
 40
1.0
 40
1.0
 40
1.0
 10
3181.43949120182
 20
-18315.00015534828
 30
0.0000000000000047
 10
3181.425861420757
 20
-18314.97261098897
 30
0.0000000000000047
 10
3181.378665360816
 20
-18314.87723269735
 30
0.0000000000000047
 10
3181.286925027641
 20
-18314.77019306472
 30
0.0000000000000047
 10
3181.187372781748
 20
-18314.73569791273
 30
0.0000000000000047
 10
3181.157734844703
 20
-18314.7254282786
 30
0.0000000000000047
  0
SPLINE
  5
2F6A3F
330
18
100
AcDbEntity
  8
0
 62
     8
100
AcDbSpline
210
0.0
220
0.0
230
1.0
 70
     8
 71
     3
 72
    13
 73
     9
 74
     0
 42
0.0000000001
 43
0.0000000001
 40
0.0
 40
0.0
 40
0.0
 40
0.0
 40
0.1826160619262754
 40
0.3744970347724482
 40
0.5661915253824617
 40
0.757266389058949
 40
0.8762138769762842
 40
1.0
 40
1.0
 40
1.0
 40
1.0
 10
3132.140784223668
 20
-18289.12583255328
 30
0.0000000000000047
 10
3132.070648699193
 20
-18289.12265862752
 30
0.0000000000000047
 10
3131.926819368568
 20
-18289.11614974887
 30
0.0000000000000047
 10
3131.71390908377
 20
-18289.13743832512
 30
0.0000000000000047
 10
3131.531602061172
 20
-18289.18070883701
 30
0.0000000000000047
 10
3131.421850706126
 20
-18289.23516921032
 30
0.0000000000000047
 10
3131.362423214584
 20
-18289.2886653164
 30
0.0000000000000047
 10
3131.362637718252
 20
-18289.32067038759
 30
0.0000000000000047
 10
3131.362747108037
 20
-18289.33699191663
 30
0.0000000000000047
  0
LINE
  5
2F6A40
330
18
100
AcDbEntity
  8
0
 62
     8
100
AcDbLine
 10
3132.083867162037
 20
-18328.57898426069
 30
0.0000000000000047
 11
3132.140784223667
 21
-18289.12583255328
 31
0.0000000000000047
  0
LINE
  5
2F6A41
330
18
100
AcDbEntity
  8
0
 62
     8
100
AcDbLine
 10
3191.953337383611
 20
-18328.96865211022
 30
0.0000000000000047
 11
3192.298307659561
 21
-18289.62977784656
 31
0.0000000000000047
  0
SPLINE
  5
2F6A42
330
18
100
AcDbEntity
  8
0
 62
     8
100
AcDbSpline
210
0.0
220
0.0
230
1.0
 70
     8
 71
     3
 72
    13
 73
     9
 74
     0
 42
0.0000000001
 43
0.0000000001
 40
0.0
 40
0.0
 40
0.0
 40
0.0
 40
0.0865499524560446
 40
0.278503797671345
 40
0.4702130930307212
 40
0.6619802246142861
 40
0.8542956507718573
 40
1.0
 40
1.0
 40
1.0
 40
1.0
 10
3193.067848096132
 20
-18289.84973953702
 30
0.0000000000000047
 10
3193.067320687245
 20
-18289.8385091601
 30
0.0000000000000047
 10
3193.065623570453
 20
-18289.80237161715
 30
0.0000000000000047
 10
3193.003129792677
 20
-18289.74337488104
 30
0.0000000000000047
 10
3192.86821894407
 20
-18289.68298336443
 30
0.0000000000000047
 10
3192.68125554502
 20
-18289.64150502567
 30
0.0000000000000047
 10
3192.481589074024
 20
-18289.62335729163
 30
0.0000000000000047
 10
3192.353514538567
 20
-18289.62784388724
 30
0.0000000000000047
 10
3192.298307659561
 20
-18289.62977784656
 30
0.0000000000000047
  0
LINE
  5
2F6A43
330
18
100
AcDbEntity
  8
0
 62
     8
100
AcDbLine
 10
3135.97409582433
 20
-18289.80660139055
 30
0.0000000000000047
 11
3132.140796805722
 21
-18289.12570647432
 31
0.0000000000000047
  0
LINE
  5
2F6A44
330
18
100
AcDbEntity
  8
0
 62
     8
100
AcDbLine
 10
3192.298308322111
 20
-18289.62965177176
 30
0.0000000000000047
 11
3188.649432981618
 21
-18290.21331580824
 31
0.0000000000000047
  0
SPLINE
  5
2F6A45
330
18
100
AcDbEntity
  8
0
 62
     8
100
AcDbSpline
210
0.0
220
0.0
230
1.0
 70
     8
 71
     3
 72
     9
 73
     5
 74
     0
 42
0.0000000001
 43
0.0000000001
 40
0.0
 40
0.0
 40
0.0
 40
0.0
 40
0.641914617427945
 40
1.0
 40
1.0
 40
1.0
 40
1.0
 10
3163.732425115414
 20
-18289.96452431107
 30
0.0000000000000047
 10
3163.726422697541
 20
-18289.97381123006
 30
0.0000000000000047
 10
3163.717071893383
 20
-18289.98827876007
 30
0.0000000000000047
 10
3163.722704593594
 20
-18290.0029525011
 30
0.0000000000000047
 10
3163.724721581203
 20
-18290.00820695327
 30
0.0000000000000047
  0
SPLINE
  5
2F6A46
330
18
100
AcDbEntity
  8
0
 62
     8
100
AcDbSpline
210
0.0
220
0.0
230
1.0
 70
     8
 71
     3
 72
     9
 73
     5
 74
     0
 42
0.0000000001
 43
0.0000000001
 40
0.0
 40
0.0
 40
0.0
 40
0.0
 40
0.838084675965967
 40
1.0
 40
1.0
 40
1.0
 40
1.0
 10
3131.258274213562
 20
-18293.37118403566
 30
0.0000000000000047
 10
3131.240848751826
 20
-18293.38812467228
 30
0.0000000000000047
 10
3131.22005674568
 20
-18293.40833818663
 30
0.0000000000000047
 10
3131.224561031622
 20
-18293.42945907484
 30
0.0000000000000047
 10
3131.22529034454
 20
-18293.43287887029
 30
0.0000000000000047
  0
SPLINE
  5
2F6A47
330
18
100
AcDbEntity
  8
0
 62
     8
100
AcDbSpline
210
0.0
220
0.0
230
1.0
 70
     8
 71
     3
 72
    10
 73
     6
 74
     0
 42
0.0000000001
 43
0.0000000001
 40
0.0
 40
0.0
 40
0.0
 40
0.0
 40
0.1615096745886532
 40
0.9740899851758127
 40
1.0
 40
1.0
 40
1.0
 40
1.0
 10
3163.547961744582
 20
-18297.16852952061
 30
0.0000000000000047
 10
3163.540482635482
 20
-18297.17267988056
 30
0.0000000000000047
 10
3163.495374964433
 20
-18297.19771134736
 30
0.0000000000000047
 10
3163.47979812351
 20
-18297.22977463621
 30
0.0000000000000047
 10
3163.486235807325
 20
-18297.25511762017
 30
0.0000000000000047
 10
3163.486434736852
 20
-18297.25590073844
 30
0.0000000000000047
  0
TEXT
  5
2F6BA4
330
18
100
AcDbEntity
  8
文字
100
AcDbText
 10
3084.238311390214
 20
-18408.7494261104
 30
0.0000000000000047
 40
9.75
  1
MSP-100F/FLF/M/30A/P1
 41
0.8
100
AcDbText
  0
VIEWPORT
  5
1B39D6
102
{ACAD_XDICTIONARY
360
1B39D7
102
}
330
15
100
AcDbEntity
 67
     1
  8
0
100
AcDbViewport
 10
9.443112410971275
 20
5.645708222464139
 30
0.0
 40
25.68200028106094
 41
14.3866760833721
 68
     1
 69
     1
 12
9.443112410971275
 22
5.645708222464139
 13
0.0
 23
0.0
 14
10.0
 24
10.0
 15
10.0
 25
10.0
 16
0.0
 26
0.0
 36
1.0
 17
0.0
 27
0.0
 37
0.0
 42
50.0
 43
0.0
 44
0.0
 45
14.3866760833721
 50
0.0
 51
0.0
 72
   100
 90
   557088
  1

281
     0
 71
     1
 74
     0
110
0.0
120
0.0
130
0.0
111
1.0
121
0.0
131
0.0
112
0.0
122
1.0
132
0.0
 79
     0
146
0.0
  0
VIEWPORT
  5
1B39DA
102
{ACAD_XDICTIONARY
360
1B39DB
102
}
330
15
100
AcDbEntity
 67
     1
  8
実線
100
AcDbViewport
 10
5.24999976158142
 20
3.999999761581421
 30
0.0
 40
8.399999618530275
 41
6.399999618530273
 68
     2
 69
     2
 12
973.7752257531099
 22
148.6828135753912
 13
0.0
 23
0.0
 14
1.0
 24
1.0
 15
20.0
 25
20.0
 16
0.0
 26
0.0
 36
1.0
 17
0.0
 27
0.0
 37
0.0
 42
50.0
 43
0.0
 44
0.0
 45
19878.02383915038
 50
0.0
 51
0.0
 72
   100
 90
   819200
  1

281
     0
 71
     1
 74
     0
110
0.0
120
0.0
130
0.0
111
1.0
121
0.0
131
0.0
112
0.0
122
1.0
132
0.0
 79
     0
146
0.0
  0
ENDSEC
  0
SECTION
  2
OBJECTS
  0
DICTIONARY
  5
C
330
0
100
AcDbDictionary
281
     1
  3
ACAD_COLOR
350
2F02C1
  3
ACAD_GROUP
350
D
  3
ACAD_IMAGE_VARS
350
2ED20A
  3
ACAD_LAYOUT
350
617
  3
ACAD_MATERIAL
350
2F0297
  3
ACAD_MLEADERSTYLE
350
2F02C4
  3
ACAD_MLINESTYLE
350
E
  3
ACAD_PLOTSETTINGS
350
618
  3
ACAD_PLOTSTYLENAME
350
615
  3
ACAD_SCALELIST
350
66C31
  3
ACAD_TABLESTYLE
350
2F02C2
  3
ACAD_VISUALSTYLE
350
2F02B0
  3
AcadDim
350
12B3C
  3
ACDB_RECOMPOSE_DATA
350
2F02D5
  3
AcDbVariableDictionary
350
6DE
  3
AEC_DISP_REPS
350
2ED1C0
  3
AEC_DISPLAY_PROPS_DEFAULTS
350
2ED1C2
  3
AEC_VARS
350
2ED1BE
  3
APPDATA
350
2ED208
  3
DWGPROPS
350
2F6E90
  0
DICTIONARY
  5
2F02D7
330
8
100
AcDbDictionary
280
     1
281
     1
  0
DICTIONARY
  5
67DE7
330
2
100
AcDbDictionary
280
     1
281
     1
  3
ACAD_LAYERSTATES
360
67DE8
  0
DICTIONARY
  5
66C5B
330
F
100
AcDbDictionary
280
     1
281
     1
  3
ADSK_XREC_LAYER_RECONCILED
360
66C5C
  0
DICTIONARY
  5
66C61
330
280
100
AcDbDictionary
280
     1
281
     1
  3
ADSK_XREC_LAYER_RECONCILED
360
66C62
  0
DICTIONARY
  5
66C67
330
2F4
100
AcDbDictionary
280
     1
281
     1
  3
ADSK_XREC_LAYER_RECONCILED
360
66C68
  0
DICTIONARY
  5
845D5
330
18
100
AcDbDictionary
280
     1
281
     1
  3
ACAD_SORTENTS
360
845D6
  0
DICTIONARY
  5
1B39D7
330
1B39D6
100
AcDbDictionary
280
     1
281
     1
  3
ACAD_XREC_ROUNDTRIP
360
2F6E94
  3
ASDK_XREC_ANNOTATION_SCALE_INFO
360
1B39D8
  0
DICTIONARY
  5
1B39DB
330
1B39DA
100
AcDbDictionary
280
     1
281
     1
  3
ACAD_XREC_ROUNDTRIP
360
2F6E95
  3
ASDK_XREC_ANNOTATION_SCALE_INFO
360
1B39DC
  0
DICTIONARY
  5
2F02C1
102
{ACAD_REACTORS
330
C
102
}
330
C
100
AcDbDictionary
281
     1
  0
DICTIONARY
  5
D
102
{ACAD_REACTORS
330
C
102
}
330
C
100
AcDbDictionary
281
     1
  3
*A1
350
11444
  3
*A10
350
DCD6E
  3
*A11
350
F7F9E
  3
*A12
350
1ACF6
  3
*A13
350
120900
  3
*A14
350
D1362
  3
*A15
350
31E62
  3
*A16
350
3AC40
  3
*A17
350
3610C
  3
*A18
350
16CDD
  3
*A19
350
3543B
  3
*A2
350
33994
  3
*A20
350
3AC3F
  3
*A21
350
1B2345
  3
*A22
350
1B2346
  3
*A23
350
1ACF7
  3
*A24
350
E60AA
  3
*A25
350
3616A
  3
*A26
350
336CA
  3
*A27
350
19EFE3
  3
*A28
350
10FF7C
  3
*A29
350
26F39
  3
*A3
350
100CC9
  3
*A30
350
EB499
  3
*A31
350
1928F
  3
*A32
350
1ACB62
  3
*A33
350
3FCA9
  3
*A34
350
CC1E6
  3
*A35
350
169CA2
  3
*A36
350
DFCC4
  3
*A37
350
E83F5
  3
*A38
350
1ACBDB
  3
*A39
350
1ACB61
  3
*A4
350
EE85E
  3
*A40
350
EE28F
  3
*A41
350
26F38
  3
*A42
350
19F4B9
  3
*A43
350
1AD6BA
  3
*A44
350
1ACB9F
  3
*A45
350
3BCF2
  3
*A46
350
EBAAA
  3
*A47
350
1C672
  3
*A48
350
1ADD31
  3
*A49
350
19FF1A
  3
*A5
350
3AC3D
  3
*A50
350
1ACB9E
  3
*A51
350
352E7
  3
*A52
350
1ADE11
  3
*A53
350
E3E76
  3
*A54
350
1ACBDC
  3
*A55
350
1A02C3
  3
*A56
350
31E65
  3
*A57
350
1A04C0
  3
*A58
350
1AD6BB
  3
*A59
350
18076
  3
*A6
350
1AE43B
  3
*A60
350
3AC3E
  3
*A61
350
1ADD32
  3
*A62
350
26F37
  3
*A63
350
33672
  3
*A64
350
1ADE12
  3
*A65
350
26F3A
  3
*A66
350
3FCA8
  3
*A67
350
18CA7
  3
*A68
350
3393C
  3
*A69
350
33CE0
  3
*A7
350
1AE43C
  3
*A70
350
DCD6D
  3
*A71
350
16971E
  3
*A72
350
16CAD
  3
*A73
350
10639A
  3
*A74
350
CCD2F
  3
*A75
350
D1E17
  3
*A76
350
CF3F2
  3
*A77
350
19F05D
  3
*A78
350
31E63
  3
*A79
350
1C673
  3
*A8
350
31E64
  3
*A9
350
1A00C4
  0
RASTERVARIABLES
  5
2ED20A
102
{ACAD_REACTORS
330
C
102
}
330
C
100
AcDbRasterVariables
 90
        0
 70
     1
 71
     1
 72
     0
  0
DICTIONARY
  5
617
102
{ACAD_REACTORS
330
C
102
}
330
C
100
AcDbDictionary
281
     1
  3
Model
350
619
  3
ﾚｲｱｳﾄ1
350
61A
  0
DICTIONARY
  5
2F0297
102
{ACAD_REACTORS
330
C
102
}
330
C
100
AcDbDictionary
281
     1
  3
ByBlock
350
2F02A0
  3
ByLayer
350
2F0298
  3
Global
350
2F02A8
  0
DICTIONARY
  5
2F02C4
102
{ACAD_REACTORS
330
C
102
}
330
C
100
AcDbDictionary
281
     1
  3
Standard
350
2F02C5
  0
DICTIONARY
  5
E
102
{ACAD_REACTORS
330
C
102
}
330
C
100
AcDbDictionary
281
     1
  3
STANDARD
350
1B
  0
DICTIONARY
  5
618
102
{ACAD_REACTORS
330
C
102
}
330
C
100
AcDbDictionary
281
     1
  0
ACDBDICTIONARYWDFLT
  5
615
102
{ACAD_REACTORS
330
C
102
}
330
C
100
AcDbDictionary
281
     1
  3
Normal
350
616
100
AcDbDictionaryWithDefault
340
616
  0
DICTIONARY
  5
66C31
102
{ACAD_REACTORS
330
C
102
}
330
C
100
AcDbDictionary
281
     1
  3
A0
350
66C32
  3
A1
350
66C33
  3
A2
350
66C34
  3
A3
350
66C35
  3
A4
350
66C36
  3
A5
350
66C37
  3
A6
350
66C38
  3
A7
350
66C39
  3
A8
350
66C3A
  3
A9
350
66C3B
  3
B0
350
66C3C
  3
B1
350
66C3D
  3
B2
350
66C3E
  3
B3
350
66C3F
  3
B4
350
66C40
  3
B5
350
66C41
  3
B6
350
66C42
  3
B7
350
66C43
  3
B8
350
66C44
  3
B9
350
66C45
  3
C0
350
66C46
  3
C1
350
66C47
  3
C2
350
66C48
  3
C3
350
66C49
  3
C4
350
66C4A
  3
C5
350
66C4B
  3
C6
350
66C4C
  3
C7
350
66C4D
  3
C8
350
66C4E
  3
C9
350
66C4F
  3
D0
350
66C50
  3
D1
350
66C51
  3
D2
350
66C52
  0
DICTIONARY
  5
2F02C2
102
{ACAD_REACTORS
330
C
102
}
330
C
100
AcDbDictionary
281
     1
  3
Standard
350
2F02C3
  0
DICTIONARY
  5
2F02B0
102
{ACAD_REACTORS
330
C
102
}
330
C
100
AcDbDictionary
281
     1
  3
2dWireframe
350
2F02B6
  3
3D Hidden
350
2F02B8
  3
3dWireframe
350
2F02B7
  3
Basic
350
2F02B5
  3
Brighten
350
2F02BC
  3
ColorChange
350
2F02C0
  3
Conceptual
350
2F02B9
  3
Dim
350
2F02BB
  3
Facepattern
350
2F02BF
  3
Flat
350
2F02B1
  3
FlatWithEdges
350
2F02B2
  3
Gouraud
350
2F02B3
  3
GouraudWithEdges
350
2F02B4
  3
Linepattern
350
2F02BE
  3
Realistic
350
2F02BA
  3
Thicken
350
2F02BD
  0
XRECORD
  5
12B3C
102
{ACAD_REACTORS
330
C
102
}
330
C
100
AcDbXrecord
280
     1
 90
   990106
  3
OPEN
 60
     0
 61
     0
 62
     1
 63
     3
 64
     1
 65
     0
 66
     0
 67
     3
 68
     1
 69
     0
 70
     0
 71
     0
 72
     0
 40
0.0
170
     2
340
0
  0
XRECORD
  5
2F02D5
102
{ACAD_REACTORS
330
C
102
}
330
C
100
AcDbXrecord
280
     1
 90
        1
330
2F02C3
  0
DICTIONARY
  5
6DE
102
{ACAD_REACTORS
330
C
102
}
330
C
100
AcDbDictionary
281
     1
  3
CANNOSCALE
350
2F02E4
  3
CMLEADERSTYLE
350
2F02E3
  3
CTABLESTYLE
350
2F02E2
  3
DIMASSOC
350
6DF
  3
INDEXCTL
350
66CB9
  3
LAYEREVAL
350
2F2B7D
  3
LAYERNOTIFY
350
2F2B7E
  3
LIGHTINGUNITS
350
2F2B7C
  3
MSLTSCALE
350
2F2B7B
  3
PROJECTNAME
350
6E0
  3
SORTENTS
350
66CB8
  0
DICTIONARY
  5
2ED1C0
102
{ACAD_REACTORS
330
C
102
}
330
C
100
AcDbDictionary
281
     1
  3
AecDbDispRep2dSection
350
2ED1C1
  3
AecDbDispRepAnchor
350
2ED1F7
  3
AecDbDispRepAnchorEntToNode
350
2ED1F8
  3
AecDbDispRepClipVolModel
350
2ED1C4
  3
AecDbDispRepClipVolPlan
350
2ED1C6
  3
AecDbDispRepClipVolResSubDiv
350
2ED1C9
  3
AecDbDispRepClipVolResult
350
2ED1C8
  3
AecDbDispRepDisplayTheme
350
2ED1CB
  3
AecDbDispRepEditInPlaceProfile
350
2ED1FC
  3
AecDbDispRepEntRef
350
2ED1CD
  3
AecDbDispRepLayoutCurve
350
2ED1CF
  3
AecDbDispRepLayoutGrid2d
350
2ED1D1
  3
AecDbDispRepLayoutGrid3d
350
2ED1D3
  3
AecDbDispRepMaskBlockRef
350
2ED1D5
  3
AecDbDispRepMaskBlockRefRcp
350
2ED1D7
  3
AecDbDispRepMassElemModel
350
2ED1D9
  3
AecDbDispRepMassElemPlan100
350
2ED1DF
  3
AecDbDispRepMassElemPlan50
350
2ED1DD
  3
AecDbDispRepMassElemRcp
350
2ED1E1
  3
AecDbDispRepMassElemSchem
350
2ED1DB
  3
AecDbDispRepMassGroupModel
350
2ED1E3
  3
AecDbDispRepMassGroupPlan
350
2ED1E5
  3
AecDbDispRepMassGroupPlan100
350
2ED1E9
  3
AecDbDispRepMassGroupPlan50
350
2ED1E7
  3
AecDbDispRepMassGroupRcp
350
2ED1EB
  3
AecDbDispRepMaterial
350
2ED1FA
  3
AecDbDispRepMvBlockRef
350
2ED1ED
  3
AecDbDispRepMvBlockRefModel
350
2ED1EE
  3
AecDbDispRepMvBlockRefPlan100
350
2ED1EF
  3
AecDbDispRepMvBlockRefPlan50
350
2ED1F0
  3
AecDbDispRepPolygonModel
350
2ED1F1
  3
AecDbDispRepPolygonTrueColour
350
2ED1F3
  3
AecDbDispRepSlice
350
2ED1F5
  0
DICTIONARY
  5
2ED1C2
102
{ACAD_REACTORS
330
C
102
}
330
C
100
AcDbDictionary
281
     1
  3
*A1
350
2ED1C3
  3
*A10
350
2ED1F2
  3
*A11
350
2ED1DE
  3
*A12
350
2ED1D0
  3
*A13
350
2ED1E2
  3
*A14
350
2ED1E4
  3
*A15
350
2ED1D6
  3
*A16
350
2ED1E8
  3
*A17
350
2ED1EA
  3
*A18
350
2ED1CA
  3
*A19
350
2ED1EC
  3
*A2
350
2ED1E0
  3
*A20
350
2ED1F4
  3
*A21
350
2ED1F6
  3
*A22
350
2ED1E6
  3
*A23
350
2ED1FB
  3
*A24
350
2ED1FD
  3
*A25
350
2ED1DA
  3
*A26
350
2ED1C7
  3
*A27
350
2ED1CC
  3
*A3
350
2ED1CE
  3
*A4
350
2ED1F9
  3
*A5
350
2ED1D2
  3
*A6
350
2ED1D4
  3
*A7
350
2ED1C5
  3
*A8
350
2ED1D8
  3
*A9
350
2ED1DC
  0
DICTIONARY
  5
2ED1BE
102
{ACAD_REACTORS
330
C
102
}
330
C
100
AcDbDictionary
281
     1
  3
AEC_VARS_DWG_SETUP
350
2ED1BF
  0
DICTIONARY
  5
2ED208
102
{ACAD_REACTORS
330
C
102
}
330
C
100
AcDbDictionary
281
     1
  0
XRECORD
  5
2F6E90
102
{ACAD_REACTORS
330
C
102
}
330
C
100
AcDbXrecord
280
     1
  1
DWGPROPS COOKIE
  2

  3

  4

  6

  7

  8
SPAX
  9

300
=
301
=
302
=
303
=
304
=
305
=
306
=
307
=
308
=
309
=
 40
96.57710864583334
 41
2448636.61962963
 42
2457242.685354283
  1

 90
        0
  0
DICTIONARY
  5
67DE8
102
{ACAD_REACTORS
330
67DE7
102
}
330
67DE7
100
AcDbDictionary
281
     1
  0
XRECORD
  5
66C5C
102
{ACAD_REACTORS
330
66C5B
102
}
330
66C5B
100
AcDbXrecord
280
     1
290
     1
  0
XRECORD
  5
66C62
102
{ACAD_REACTORS
330
66C61
102
}
330
66C61
100
AcDbXrecord
280
     1
290
     1
  0
XRECORD
  5
66C68
102
{ACAD_REACTORS
330
66C67
102
}
330
66C67
100
AcDbXrecord
280
     1
290
     1
  0
SORTENTSTABLE
  5
845D6
102
{ACAD_REACTORS
330
845D5
102
}
330
845D5
100
AcDbSortentsTable
330
18
331
11B04
  5
11B04
331
12B3E
  5
12B3E
  0
XRECORD
  5
2F6E94
102
{ACAD_REACTORS
330
1B39D7
102
}
330
1B39D7
100
AcDbXrecord
280
     1
102
SHADEPLOT
 70
     0
  0
XRECORD
  5
1B39D8
102
{ACAD_REACTORS
330
1B39D7
102
}
330
1B39D7
100
AcDbXrecord
280
     1
 90
        1
340
66C32
  0
XRECORD
  5
2F6E95
102
{ACAD_REACTORS
330
1B39DB
102
}
330
1B39DB
100
AcDbXrecord
280
     1
102
SHADEPLOT
 70
     0
  0
XRECORD
  5
1B39DC
102
{ACAD_REACTORS
330
1B39DB
102
}
330
1B39DB
100
AcDbXrecord
280
     1
 90
        1
340
66C32
  0
GROUP
  5
11444
102
{ACAD_REACTORS
330
D
102
}
330
D
100
AcDbGroup
300

 70
     1
 71
     1
  0
GROUP
  5
DCD6E
102
{ACAD_REACTORS
330
D
102
}
330
D
100
AcDbGroup
300

 70
     1
 71
     1
  0
GROUP
  5
F7F9E
102
{ACAD_REACTORS
330
D
102
}
330
D
100
AcDbGroup
300

 70
     1
 71
     1
  0
GROUP
  5
1ACF6
102
{ACAD_REACTORS
330
D
102
}
330
D
100
AcDbGroup
300

 70
     1
 71
     1
  0
GROUP
  5
120900
102
{ACAD_REACTORS
330
D
102
}
330
D
100
AcDbGroup
300

 70
     1
 71
     1
  0
GROUP
  5
D1362
102
{ACAD_REACTORS
330
D
102
}
330
D
100
AcDbGroup
300

 70
     1
 71
     1
  0
GROUP
  5
31E62
102
{ACAD_REACTORS
330
D
102
}
330
D
100
AcDbGroup
300

 70
     1
 71
     1
  0
GROUP
  5
3AC40
102
{ACAD_REACTORS
330
D
102
}
330
D
100
AcDbGroup
300

 70
     1
 71
     1
  0
GROUP
  5
3610C
102
{ACAD_REACTORS
330
D
102
}
330
D
100
AcDbGroup
300

 70
     1
 71
     1
  0
GROUP
  5
16CDD
102
{ACAD_REACTORS
330
D
102
}
330
D
100
AcDbGroup
300

 70
     1
 71
     1
  0
GROUP
  5
3543B
102
{ACAD_REACTORS
330
D
102
}
330
D
100
AcDbGroup
300

 70
     1
 71
     1
  0
GROUP
  5
33994
102
{ACAD_REACTORS
330
D
102
}
330
D
100
AcDbGroup
300

 70
     1
 71
     1
  0
GROUP
  5
3AC3F
102
{ACAD_REACTORS
330
D
102
}
330
D
100
AcDbGroup
300

 70
     1
 71
     1
  0
GROUP
  5
1B2345
102
{ACAD_REACTORS
330
D
102
}
330
D
100
AcDbGroup
300

 70
     1
 71
     1
  0
GROUP
  5
1B2346
102
{ACAD_REACTORS
330
D
102
}
330
D
100
AcDbGroup
300

 70
     1
 71
     1
  0
GROUP
  5
1ACF7
102
{ACAD_REACTORS
330
D
102
}
330
D
100
AcDbGroup
300

 70
     1
 71
     1
  0
GROUP
  5
E60AA
102
{ACAD_REACTORS
330
D
102
}
330
D
100
AcDbGroup
300

 70
     1
 71
     1
  0
GROUP
  5
3616A
102
{ACAD_REACTORS
330
D
102
}
330
D
100
AcDbGroup
300

 70
     1
 71
     1
  0
GROUP
  5
336CA
102
{ACAD_REACTORS
330
D
102
}
330
D
100
AcDbGroup
300

 70
     1
 71
     1
  0
GROUP
  5
19EFE3
102
{ACAD_REACTORS
330
D
102
}
330
D
100
AcDbGroup
300

 70
     1
 71
     1
  0
GROUP
  5
10FF7C
102
{ACAD_REACTORS
330
D
102
}
330
D
100
AcDbGroup
300

 70
     1
 71
     1
  0
GROUP
  5
26F39
102
{ACAD_REACTORS
330
D
102
}
330
D
100
AcDbGroup
300

 70
     1
 71
     1
  0
GROUP
  5
100CC9
102
{ACAD_REACTORS
330
D
102
}
330
D
100
AcDbGroup
300

 70
     1
 71
     1
  0
GROUP
  5
EB499
102
{ACAD_REACTORS
330
D
102
}
330
D
100
AcDbGroup
300

 70
     1
 71
     1
  0
GROUP
  5
1928F
102
{ACAD_REACTORS
330
D
102
}
330
D
100
AcDbGroup
300

 70
     1
 71
     1
  0
GROUP
  5
1ACB62
102
{ACAD_REACTORS
330
D
102
}
330
D
100
AcDbGroup
300

 70
     1
 71
     1
  0
GROUP
  5
3FCA9
102
{ACAD_REACTORS
330
D
102
}
330
D
100
AcDbGroup
300

 70
     1
 71
     1
  0
GROUP
  5
CC1E6
102
{ACAD_REACTORS
330
D
102
}
330
D
100
AcDbGroup
300

 70
     1
 71
     1
  0
GROUP
  5
169CA2
102
{ACAD_REACTORS
330
D
102
}
330
D
100
AcDbGroup
300

 70
     1
 71
     1
  0
GROUP
  5
DFCC4
102
{ACAD_REACTORS
330
D
102
}
330
D
100
AcDbGroup
300

 70
     1
 71
     1
  0
GROUP
  5
E83F5
102
{ACAD_REACTORS
330
D
102
}
330
D
100
AcDbGroup
300

 70
     1
 71
     1
  0
GROUP
  5
1ACBDB
102
{ACAD_REACTORS
330
D
102
}
330
D
100
AcDbGroup
300

 70
     1
 71
     1
  0
GROUP
  5
1ACB61
102
{ACAD_REACTORS
330
D
102
}
330
D
100
AcDbGroup
300

 70
     1
 71
     1
  0
GROUP
  5
EE85E
102
{ACAD_REACTORS
330
D
102
}
330
D
100
AcDbGroup
300

 70
     1
 71
     1
  0
GROUP
  5
EE28F
102
{ACAD_REACTORS
330
D
102
}
330
D
100
AcDbGroup
300

 70
     1
 71
     1
  0
GROUP
  5
26F38
102
{ACAD_REACTORS
330
D
102
}
330
D
100
AcDbGroup
300

 70
     1
 71
     1
  0
GROUP
  5
19F4B9
102
{ACAD_REACTORS
330
D
102
}
330
D
100
AcDbGroup
300

 70
     1
 71
     1
  0
GROUP
  5
1AD6BA
102
{ACAD_REACTORS
330
D
102
}
330
D
100
AcDbGroup
300

 70
     1
 71
     1
  0
GROUP
  5
1ACB9F
102
{ACAD_REACTORS
330
D
102
}
330
D
100
AcDbGroup
300

 70
     1
 71
     1
  0
GROUP
  5
3BCF2
102
{ACAD_REACTORS
330
D
102
}
330
D
100
AcDbGroup
300

 70
     1
 71
     1
  0
GROUP
  5
EBAAA
102
{ACAD_REACTORS
330
D
102
}
330
D
100
AcDbGroup
300

 70
     1
 71
     1
  0
GROUP
  5
1C672
102
{ACAD_REACTORS
330
D
102
}
330
D
100
AcDbGroup
300

 70
     1
 71
     1
  0
GROUP
  5
1ADD31
102
{ACAD_REACTORS
330
D
102
}
330
D
100
AcDbGroup
300

 70
     1
 71
     1
  0
GROUP
  5
19FF1A
102
{ACAD_REACTORS
330
D
102
}
330
D
100
AcDbGroup
300

 70
     1
 71
     1
  0
GROUP
  5
3AC3D
102
{ACAD_REACTORS
330
D
102
}
330
D
100
AcDbGroup
300

 70
     1
 71
     1
  0
GROUP
  5
1ACB9E
102
{ACAD_REACTORS
330
D
102
}
330
D
100
AcDbGroup
300

 70
     1
 71
     1
  0
GROUP
  5
352E7
102
{ACAD_REACTORS
330
D
102
}
330
D
100
AcDbGroup
300

 70
     1
 71
     1
  0
GROUP
  5
1ADE11
102
{ACAD_REACTORS
330
D
102
}
330
D
100
AcDbGroup
300

 70
     1
 71
     1
  0
GROUP
  5
E3E76
102
{ACAD_REACTORS
330
D
102
}
330
D
100
AcDbGroup
300

 70
     1
 71
     1
  0
GROUP
  5
1ACBDC
102
{ACAD_REACTORS
330
D
102
}
330
D
100
AcDbGroup
300

 70
     1
 71
     1
  0
GROUP
  5
1A02C3
102
{ACAD_REACTORS
330
D
102
}
330
D
100
AcDbGroup
300

 70
     1
 71
     1
  0
GROUP
  5
31E65
102
{ACAD_REACTORS
330
D
102
}
330
D
100
AcDbGroup
300

 70
     1
 71
     1
  0
GROUP
  5
1A04C0
102
{ACAD_REACTORS
330
D
102
}
330
D
100
AcDbGroup
300

 70
     1
 71
     1
  0
GROUP
  5
1AD6BB
102
{ACAD_REACTORS
330
D
102
}
330
D
100
AcDbGroup
300

 70
     1
 71
     1
  0
GROUP
  5
18076
102
{ACAD_REACTORS
330
D
102
}
330
D
100
AcDbGroup
300

 70
     1
 71
     1
  0
GROUP
  5
1AE43B
102
{ACAD_REACTORS
330
D
102
}
330
D
100
AcDbGroup
300

 70
     1
 71
     1
  0
GROUP
  5
3AC3E
102
{ACAD_REACTORS
330
D
102
}
330
D
100
AcDbGroup
300

 70
     1
 71
     1
  0
GROUP
  5
1ADD32
102
{ACAD_REACTORS
330
D
102
}
330
D
100
AcDbGroup
300

 70
     1
 71
     1
  0
GROUP
  5
26F37
102
{ACAD_REACTORS
330
D
102
}
330
D
100
AcDbGroup
300

 70
     1
 71
     1
  0
GROUP
  5
33672
102
{ACAD_REACTORS
330
D
102
}
330
D
100
AcDbGroup
300

 70
     1
 71
     1
  0
GROUP
  5
1ADE12
102
{ACAD_REACTORS
330
D
102
}
330
D
100
AcDbGroup
300

 70
     1
 71
     1
  0
GROUP
  5
26F3A
102
{ACAD_REACTORS
330
D
102
}
330
D
100
AcDbGroup
300

 70
     1
 71
     1
  0
GROUP
  5
3FCA8
102
{ACAD_REACTORS
330
D
102
}
330
D
100
AcDbGroup
300

 70
     1
 71
     1
  0
GROUP
  5
18CA7
102
{ACAD_REACTORS
330
D
102
}
330
D
100
AcDbGroup
300

 70
     1
 71
     1
  0
GROUP
  5
3393C
102
{ACAD_REACTORS
330
D
102
}
330
D
100
AcDbGroup
300

 70
     1
 71
     1
  0
GROUP
  5
33CE0
102
{ACAD_REACTORS
330
D
102
}
330
D
100
AcDbGroup
300

 70
     1
 71
     1
  0
GROUP
  5
1AE43C
102
{ACAD_REACTORS
330
D
102
}
330
D
100
AcDbGroup
300

 70
     1
 71
     1
  0
GROUP
  5
DCD6D
102
{ACAD_REACTORS
330
D
102
}
330
D
100
AcDbGroup
300

 70
     1
 71
     1
  0
GROUP
  5
16971E
102
{ACAD_REACTORS
330
D
102
}
330
D
100
AcDbGroup
300

 70
     1
 71
     1
  0
GROUP
  5
16CAD
102
{ACAD_REACTORS
330
D
102
}
330
D
100
AcDbGroup
300

 70
     1
 71
     1
  0
GROUP
  5
10639A
102
{ACAD_REACTORS
330
D
102
}
330
D
100
AcDbGroup
300

 70
     1
 71
     1
  0
GROUP
  5
CCD2F
102
{ACAD_REACTORS
330
D
102
}
330
D
100
AcDbGroup
300

 70
     1
 71
     1
  0
GROUP
  5
D1E17
102
{ACAD_REACTORS
330
D
102
}
330
D
100
AcDbGroup
300

 70
     1
 71
     1
  0
GROUP
  5
CF3F2
102
{ACAD_REACTORS
330
D
102
}
330
D
100
AcDbGroup
300

 70
     1
 71
     1
  0
GROUP
  5
19F05D
102
{ACAD_REACTORS
330
D
102
}
330
D
100
AcDbGroup
300

 70
     1
 71
     1
  0
GROUP
  5
31E63
102
{ACAD_REACTORS
330
D
102
}
330
D
100
AcDbGroup
300

 70
     1
 71
     1
  0
GROUP
  5
1C673
102
{ACAD_REACTORS
330
D
102
}
330
D
100
AcDbGroup
300

 70
     1
 71
     1
  0
GROUP
  5
31E64
102
{ACAD_REACTORS
330
D
102
}
330
D
100
AcDbGroup
300

 70
     1
 71
     1
  0
GROUP
  5
1A00C4
102
{ACAD_REACTORS
330
D
102
}
330
D
100
AcDbGroup
300

 70
     1
 71
     1
  0
LAYOUT
  5
619
102
{ACAD_XDICTIONARY
360
2F6E91
102
}
102
{ACAD_REACTORS
330
617
102
}
330
617
100
AcDbPlotSettings
  1

  2
JUST PDF 3
  4
A4
  6

 40
3.174999952316283
 41
3.174999952316283
 42
3.175003051757812
 43
3.17498779296875
 44
209.8886566162109
 45
297.0530090332031
 46
14.27171755861522
 47
9.855173074625779
 48
3095.959806859421
 49
-19018.48478430772
140
3620.945462344141
141
-18205.50675889172
142
1.0
143
3.0
 70
  3748
 72
     1
 73
     0
 74
     4
  7
spax form.ctb
 75
    16
147
1.0
148
-3095.959806859421
149
19018.48478430772
100
AcDbLayout
  1
Model
 70
     1
 71
     0
 10
0.0
 20
0.0
 11
12.0
 21
9.0
 12
0.0
 22
0.0
 32
0.0
 14
0.0
 24
0.0
 34
0.0
 15
0.0
 25
0.0
 35
0.0
146
0.0
 13
0.0
 23
0.0
 33
0.0
 16
1.0
 26
0.0
 36
0.0
 17
0.0
 27
1.0
 37
0.0
 76
     0
330
18
331
163677
1001
ACAD_PSEXT
1000
JUST PDF 3
1000
JUST PDF 3
1000
JUST PDF 3 Port:
1000

1070
     0
  0
LAYOUT
  5
61A
102
{ACAD_XDICTIONARY
360
1B39E4
102
}
102
{ACAD_REACTORS
330
617
102
}
330
617
100
AcDbPlotSettings
  1

  2
none_device
  4
Letter_(8.50_x_11.00_Inches)
  6

 40
6.349999904632567
 41
6.349999904632567
 42
6.350006103515625
 43
6.350006103515625
 44
215.8999938964844
 45
279.3999938964844
 46
0.0
 47
0.0
 48
0.0
 49
0.0
140
0.0
141
0.0
142
1.0
143
1.0
 70
   688
 72
     0
 73
     1
 74
     5
  7
spax form.ctb
 75
    16
147
1.0
148
0.0
149
0.0
100
AcDbLayout
  1
ﾚｲｱｳﾄ1
 70
     0
 71
     1
 10
-0.2500002402958907
 20
-0.2499999962453767
 11
10.74999951940822
 21
8.249999763458731
 12
0.0
 22
0.0
 32
0.0
 14
1.049999952316283
 24
0.7999999523162842
 34
0.0
 15
9.449999570846559
 25
7.199999570846557
 35
0.0
146
0.0
 13
0.0
 23
0.0
 33
0.0
 16
1.0
 26
0.0
 36
0.0
 17
0.0
 27
1.0
 37
0.0
 76
     0
330
15
331
1B39D6
1001
ACAD_PSEXT
1000
なし
1000
なし
1000
適切ではありません
1000
新しいプロッタ環境設定名を選択しない限り、レイアウトは印刷されません。
1070
     0
  0
MATERIAL
  5
2F02A0
102
{ACAD_XDICTIONARY
360
2F02A1
102
}
102
{ACAD_REACTORS
330
2F0297
102
}
330
2F0297
100
AcDbMaterial
  1
ByBlock
 72
     0
 43
0.0208333333333333
 43
0.0
 43
0.0
 43
0.0
 43
0.0
 43
0.0208333333333333
 43
0.0
 43
0.0
 43
0.0
 43
0.0
 43
1.0
 43
0.0
 43
0.0
 43
0.0
 43
0.0
 43
1.0
 77
     0
 47
0.0208333333333333
 47
0.0
 47
0.0
 47
0.0
 47
0.0
 47
0.0208333333333333
 47
0.0
 47
0.0
 47
0.0
 47
0.0
 47
1.0
 47
0.0
 47
0.0
 47
0.0
 47
0.0
 47
1.0
171
     0
 49
0.0208333333333333
 49
0.0
 49
0.0
 49
0.0
 49
0.0
 49
0.0208333333333333
 49
0.0
 49
0.0
 49
0.0
 49
0.0
 49
1.0
 49
0.0
 49
0.0
 49
0.0
 49
0.0
 49
1.0
175
     0
142
0.0208333333333333
142
0.0
142
0.0
142
0.0
142
0.0
142
0.0208333333333333
142
0.0
142
0.0
142
0.0
142
0.0
142
1.0
142
0.0
142
0.0
142
0.0
142
0.0
142
1.0
179
     0
144
0.0208333333333333
144
0.0
144
0.0
144
0.0
144
0.0
144
0.0208333333333333
144
0.0
144
0.0
144
0.0
144
0.0
144
1.0
144
0.0
144
0.0
144
0.0
144
0.0
144
1.0
147
0.0208333333333333
147
0.0
147
0.0
147
0.0
147
0.0
147
0.0208333333333333
147
0.0
147
0.0
147
0.0
147
0.0
147
1.0
147
0.0
147
0.0
147
0.0
147
0.0
147
1.0
  0
MATERIAL
  5
2F0298
102
{ACAD_XDICTIONARY
360
2F0299
102
}
102
{ACAD_REACTORS
330
2F0297
102
}
330
2F0297
100
AcDbMaterial
  1
ByLayer
 72
     0
 43
0.0208333333333333
 43
0.0
 43
0.0
 43
0.0
 43
0.0
 43
0.0208333333333333
 43
0.0
 43
0.0
 43
0.0
 43
0.0
 43
1.0
 43
0.0
 43
0.0
 43
0.0
 43
0.0
 43
1.0
 77
     0
 47
0.0208333333333333
 47
0.0
 47
0.0
 47
0.0
 47
0.0
 47
0.0208333333333333
 47
0.0
 47
0.0
 47
0.0
 47
0.0
 47
1.0
 47
0.0
 47
0.0
 47
0.0
 47
0.0
 47
1.0
171
     0
 49
0.0208333333333333
 49
0.0
 49
0.0
 49
0.0
 49
0.0
 49
0.0208333333333333
 49
0.0
 49
0.0
 49
0.0
 49
0.0
 49
1.0
 49
0.0
 49
0.0
 49
0.0
 49
0.0
 49
1.0
175
     0
142
0.0208333333333333
142
0.0
142
0.0
142
0.0
142
0.0
142
0.0208333333333333
142
0.0
142
0.0
142
0.0
142
0.0
142
1.0
142
0.0
142
0.0
142
0.0
142
0.0
142
1.0
179
     0
144
0.0208333333333333
144
0.0
144
0.0
144
0.0
144
0.0
144
0.0208333333333333
144
0.0
144
0.0
144
0.0
144
0.0
144
1.0
144
0.0
144
0.0
144
0.0
144
0.0
144
1.0
147
0.0208333333333333
147
0.0
147
0.0
147
0.0
147
0.0
147
0.0208333333333333
147
0.0
147
0.0
147
0.0
147
0.0
147
1.0
147
0.0
147
0.0
147
0.0
147
0.0
147
1.0
  0
MATERIAL
  5
2F02A8
102
{ACAD_XDICTIONARY
360
2F02A9
102
}
102
{ACAD_REACTORS
330
2F0297
102
}
330
2F0297
100
AcDbMaterial
  1
Global
 72
     0
 43
0.0208333333333333
 43
0.0
 43
0.0
 43
0.0
 43
0.0
 43
0.0208333333333333
 43
0.0
 43
0.0
 43
0.0
 43
0.0
 43
1.0
 43
0.0
 43
0.0
 43
0.0
 43
0.0
 43
1.0
 77
     0
 47
0.0208333333333333
 47
0.0
 47
0.0
 47
0.0
 47
0.0
 47
0.0208333333333333
 47
0.0
 47
0.0
 47
0.0
 47
0.0
 47
1.0
 47
0.0
 47
0.0
 47
0.0
 47
0.0
 47
1.0
171
     0
 49
0.0208333333333333
 49
0.0
 49
0.0
 49
0.0
 49
0.0
 49
0.0208333333333333
 49
0.0
 49
0.0
 49
0.0
 49
0.0
 49
1.0
 49
0.0
 49
0.0
 49
0.0
 49
0.0
 49
1.0
175
     0
142
0.0208333333333333
142
0.0
142
0.0
142
0.0
142
0.0
142
0.0208333333333333
142
0.0
142
0.0
142
0.0
142
0.0
142
1.0
142
0.0
142
0.0
142
0.0
142
0.0
142
1.0
179
     0
144
0.0208333333333333
144
0.0
144
0.0
144
0.0
144
0.0
144
0.0208333333333333
144
0.0
144
0.0
144
0.0
144
0.0
144
1.0
144
0.0
144
0.0
144
0.0
144
0.0
144
1.0
147
0.0208333333333333
147
0.0
147
0.0
147
0.0
147
0.0
147
0.0208333333333333
147
0.0
147
0.0
147
0.0
147
0.0
147
1.0
147
0.0
147
0.0
147
0.0
147
0.0
147
1.0
  0
MLEADERSTYLE
  5
2F02C5
102
{ACAD_REACTORS
330
2F02C4
102
}
330
2F02C4
100
AcDbMLeaderStyle
170
     2
171
     1
172
     0
 90
        2
 40
0.0
 41
0.0
173
     1
 91
-1056964608
340
12
 92
       -2
290
     1
 42
0.09
291
     1
 43
0.36
  3
Standard
 44
0.18
300

342
10
174
     1
178
     6
175
     1
176
     0
 93
-1056964608
 45
0.18
292
     0
297
     0
 46
0.18
 94
-1056964608
 47
1.0
 49
1.0
140
1.0
293
     1
141
0.0
294
     1
177
     0
142
1.0
295
     0
296
     0
143
0.125
1001
ACAD_MLEADERVER
1070
     2
  0
MLINESTYLE
  5
1B
102
{ACAD_REACTORS
330
E
102
}
330
E
100
AcDbMlineStyle
  2
STANDARD
 70
     0
  3

 62
     0
 51
90.0
 52
90.0
 71
     2
 49
0.5
 62
   256
  6
BYLAYER
 49
-0.5
 62
   256
  6
BYLAYER
  0
ACDBPLACEHOLDER
  5
616
102
{ACAD_REACTORS
330
615
102
}
330
615
  0
SCALE
  5
66C32
102
{ACAD_REACTORS
330
66C31
102
}
330
66C31
100
AcDbScale
 70
     0
300
1:1
140
1.0
141
1.0
290
     1
1001
ACAD
1000
AcRTDxfName
1000
SCALE
  0
SCALE
  5
66C33
102
{ACAD_REACTORS
330
66C31
102
}
330
66C31
100
AcDbScale
 70
     0
300
1:2
140
1.0
141
2.0
290
     0
1001
ACAD
1000
AcRTDxfName
1000
SCALE
  0
SCALE
  5
66C34
102
{ACAD_REACTORS
330
66C31
102
}
330
66C31
100
AcDbScale
 70
     0
300
1:4
140
1.0
141
4.0
290
     0
1001
ACAD
1000
AcRTDxfName
1000
SCALE
  0
SCALE
  5
66C35
102
{ACAD_REACTORS
330
66C31
102
}
330
66C31
100
AcDbScale
 70
     0
300
1:5
140
1.0
141
5.0
290
     0
1001
ACAD
1000
AcRTDxfName
1000
SCALE
  0
SCALE
  5
66C36
102
{ACAD_REACTORS
330
66C31
102
}
330
66C31
100
AcDbScale
 70
     0
300
1:8
140
1.0
141
8.0
290
     0
1001
ACAD
1000
AcRTDxfName
1000
SCALE
  0
SCALE
  5
66C37
102
{ACAD_REACTORS
330
66C31
102
}
330
66C31
100
AcDbScale
 70
     0
300
1:10
140
1.0
141
10.0
290
     0
1001
ACAD
1000
AcRTDxfName
1000
SCALE
  0
SCALE
  5
66C38
102
{ACAD_REACTORS
330
66C31
102
}
330
66C31
100
AcDbScale
 70
     0
300
1:16
140
1.0
141
16.0
290
     0
1001
ACAD
1000
AcRTDxfName
1000
SCALE
  0
SCALE
  5
66C39
102
{ACAD_REACTORS
330
66C31
102
}
330
66C31
100
AcDbScale
 70
     0
300
1:20
140
1.0
141
20.0
290
     0
1001
ACAD
1000
AcRTDxfName
1000
SCALE
  0
SCALE
  5
66C3A
102
{ACAD_REACTORS
330
66C31
102
}
330
66C31
100
AcDbScale
 70
     0
300
1:30
140
1.0
141
30.0
290
     0
1001
ACAD
1000
AcRTDxfName
1000
SCALE
  0
SCALE
  5
66C3B
102
{ACAD_REACTORS
330
66C31
102
}
330
66C31
100
AcDbScale
 70
     0
300
1:40
140
1.0
141
40.0
290
     0
1001
ACAD
1000
AcRTDxfName
1000
SCALE
  0
SCALE
  5
66C3C
102
{ACAD_REACTORS
330
66C31
102
}
330
66C31
100
AcDbScale
 70
     0
300
1:50
140
1.0
141
50.0
290
     0
1001
ACAD
1000
AcRTDxfName
1000
SCALE
  0
SCALE
  5
66C3D
102
{ACAD_REACTORS
330
66C31
102
}
330
66C31
100
AcDbScale
 70
     0
300
1:100
140
1.0
141
100.0
290
     0
1001
ACAD
1000
AcRTDxfName
1000
SCALE
  0
SCALE
  5
66C3E
102
{ACAD_REACTORS
330
66C31
102
}
330
66C31
100
AcDbScale
 70
     0
300
2:1
140
2.0
141
1.0
290
     0
1001
ACAD
1000
AcRTDxfName
1000
SCALE
  0
SCALE
  5
66C3F
102
{ACAD_REACTORS
330
66C31
102
}
330
66C31
100
AcDbScale
 70
     0
300
4:1
140
4.0
141
1.0
290
     0
1001
ACAD
1000
AcRTDxfName
1000
SCALE
  0
SCALE
  5
66C40
102
{ACAD_REACTORS
330
66C31
102
}
330
66C31
100
AcDbScale
 70
     0
300
8:1
140
8.0
141
1.0
290
     0
1001
ACAD
1000
AcRTDxfName
1000
SCALE
  0
SCALE
  5
66C41
102
{ACAD_REACTORS
330
66C31
102
}
330
66C31
100
AcDbScale
 70
     0
300
10:1
140
10.0
141
1.0
290
     0
1001
ACAD
1000
AcRTDxfName
1000
SCALE
  0
SCALE
  5
66C42
102
{ACAD_REACTORS
330
66C31
102
}
330
66C31
100
AcDbScale
 70
     0
300
100:1
140
100.0
141
1.0
290
     0
1001
ACAD
1000
AcRTDxfName
1000
SCALE
  0
SCALE
  5
66C43
102
{ACAD_REACTORS
330
66C31
102
}
330
66C31
100
AcDbScale
 70
     0
300
1/128" = 1'-0"
140
0.0078125
141
12.0
290
     0
1001
ACAD
1000
AcRTDxfName
1000
SCALE
  0
SCALE
  5
66C44
102
{ACAD_REACTORS
330
66C31
102
}
330
66C31
100
AcDbScale
 70
     0
300
1/64" = 1'-0"
140
0.015625
141
12.0
290
     0
1001
ACAD
1000
AcRTDxfName
1000
SCALE
  0
SCALE
  5
66C45
102
{ACAD_REACTORS
330
66C31
102
}
330
66C31
100
AcDbScale
 70
     0
300
1/32" = 1'-0"
140
0.03125
141
12.0
290
     0
1001
ACAD
1000
AcRTDxfName
1000
SCALE
  0
SCALE
  5
66C46
102
{ACAD_REACTORS
330
66C31
102
}
330
66C31
100
AcDbScale
 70
     0
300
1/16" = 1'-0"
140
0.0625
141
12.0
290
     0
1001
ACAD
1000
AcRTDxfName
1000
SCALE
  0
SCALE
  5
66C47
102
{ACAD_REACTORS
330
66C31
102
}
330
66C31
100
AcDbScale
 70
     0
300
3/32" = 1'-0"
140
0.09375
141
12.0
290
     0
1001
ACAD
1000
AcRTDxfName
1000
SCALE
  0
SCALE
  5
66C48
102
{ACAD_REACTORS
330
66C31
102
}
330
66C31
100
AcDbScale
 70
     0
300
1/8" = 1'-0"
140
0.125
141
12.0
290
     0
1001
ACAD
1000
AcRTDxfName
1000
SCALE
  0
SCALE
  5
66C49
102
{ACAD_REACTORS
330
66C31
102
}
330
66C31
100
AcDbScale
 70
     0
300
3/16" = 1'-0"
140
0.1875
141
12.0
290
     0
1001
ACAD
1000
AcRTDxfName
1000
SCALE
  0
SCALE
  5
66C4A
102
{ACAD_REACTORS
330
66C31
102
}
330
66C31
100
AcDbScale
 70
     0
300
1/4" = 1'-0"
140
0.25
141
12.0
290
     0
1001
ACAD
1000
AcRTDxfName
1000
SCALE
  0
SCALE
  5
66C4B
102
{ACAD_REACTORS
330
66C31
102
}
330
66C31
100
AcDbScale
 70
     0
300
3/8" = 1'-0"
140
0.375
141
12.0
290
     0
1001
ACAD
1000
AcRTDxfName
1000
SCALE
  0
SCALE
  5
66C4C
102
{ACAD_REACTORS
330
66C31
102
}
330
66C31
100
AcDbScale
 70
     0
300
1/2" = 1'-0"
140
0.5
141
12.0
290
     0
1001
ACAD
1000
AcRTDxfName
1000
SCALE
  0
SCALE
  5
66C4D
102
{ACAD_REACTORS
330
66C31
102
}
330
66C31
100
AcDbScale
 70
     0
300
3/4" = 1'-0"
140
0.75
141
12.0
290
     0
1001
ACAD
1000
AcRTDxfName
1000
SCALE
  0
SCALE
  5
66C4E
102
{ACAD_REACTORS
330
66C31
102
}
330
66C31
100
AcDbScale
 70
     0
300
1" = 1'-0"
140
1.0
141
12.0
290
     0
1001
ACAD
1000
AcRTDxfName
1000
SCALE
  0
SCALE
  5
66C4F
102
{ACAD_REACTORS
330
66C31
102
}
330
66C31
100
AcDbScale
 70
     0
300
1-1/2" = 1'-0"
140
1.5
141
12.0
290
     0
1001
ACAD
1000
AcRTDxfName
1000
SCALE
  0
SCALE
  5
66C50
102
{ACAD_REACTORS
330
66C31
102
}
330
66C31
100
AcDbScale
 70
     0
300
3" = 1'-0"
140
3.0
141
12.0
290
     0
1001
ACAD
1000
AcRTDxfName
1000
SCALE
  0
SCALE
  5
66C51
102
{ACAD_REACTORS
330
66C31
102
}
330
66C31
100
AcDbScale
 70
     0
300
6" = 1'-0"
140
6.0
141
12.0
290
     0
1001
ACAD
1000
AcRTDxfName
1000
SCALE
  0
SCALE
  5
66C52
102
{ACAD_REACTORS
330
66C31
102
}
330
66C31
100
AcDbScale
 70
     0
300
1'-0" = 1'-0"
140
12.0
141
12.0
290
     0
1001
ACAD
1000
AcRTDxfName
1000
SCALE
  0
TABLESTYLE
  5
2F02C3
102
{ACAD_XDICTIONARY
360
2F02D3
102
}
102
{ACAD_REACTORS
330
2F02C2
102
}
330
2F02C2
100
AcDbTableStyle
  3
Standard
 70
     0
 71
     0
 40
0.06
 41
0.06
280
     0
281
     0
  7
STANDARD
140
0.18
170
     2
 62
     0
 63
     7
283
     0
274
    -2
284
     1
 64
     0
275
    -2
285
     1
 65
     0
276
    -2
286
     1
 66
     0
277
    -2
287
     1
 67
     0
278
    -2
288
     1
 68
     0
279
    -2
289
     1
 69
     0
  7
STANDARD
140
0.25
170
     5
 62
     0
 63
     7
283
     0
274
    -2
284
     1
 64
     0
275
    -2
285
     1
 65
     0
276
    -2
286
     1
 66
     0
277
    -2
287
     1
 67
     0
278
    -2
288
     1
 68
     0
279
    -2
289
     1
 69
     0
  7
STANDARD
140
0.18
170
     5
 62
     0
 63
     7
283
     0
274
    -2
284
     1
 64
     0
275
    -2
285
     1
 65
     0
276
    -2
286
     1
 66
     0
277
    -2
287
     1
 67
     0
278
    -2
288
     1
 68
     0
279
    -2
289
     1
 69
     0
  0
VISUALSTYLE
  5
2F02B6
102
{ACAD_REACTORS
330
2F02B0
102
}
330
2F02B0
100
AcDbVisualStyle
  2
2dWireframe
 70
     4
 71
     0
 72
     2
 73
     0
 90
        0
 40
-0.6
 41
-30.0
 62
     5
 63
     7
 74
     1
 91
        4
 64
     7
 65
   257
 75
     1
175
     1
 42
1.0
 92
        0
 66
   257
 43
1.0
 76
     1
 77
     6
 78
     2
 67
     7
 79
     5
170
     0
171
     0
290
     0
174
     0
 93
        1
 44
0.0
173
     0
291
     0
 45
0.0
1001
ACAD
1000
AcDbSavedByObjectVersion
1070
     0
1000
AcDbSavedByObjectVersion
1070
     0
  0
VISUALSTYLE
  5
2F02B8
102
{ACAD_REACTORS
330
2F02B0
102
}
330
2F02B0
100
AcDbVisualStyle
  2
3D Hidden
 70
     6
 71
     1
 72
     2
 73
     2
 90
        0
 40
-0.6
 41
-30.0
 62
     5
 63
     7
 74
     2
 91
        2
 64
     7
 65
   257
 75
     2
175
     1
 42
40.0
 92
        0
 66
   257
 43
1.0
 76
     1
 77
     6
 78
     2
 67
     7
 79
     3
170
     0
171
     0
290
     0
174
     0
 93
        1
 44
0.0
173
     0
291
     0
 45
0.0
1001
ACAD
1000
AcDbSavedByObjectVersion
1070
     0
1000
AcDbSavedByObjectVersion
1070
     0
  0
VISUALSTYLE
  5
2F02B7
102
{ACAD_REACTORS
330
2F02B0
102
}
330
2F02B0
100
AcDbVisualStyle
  2
3dWireframe
 70
     5
 71
     0
 72
     2
 73
     0
 90
        0
 40
-0.6
 41
-30.0
 62
     5
 63
     7
 74
     1
 91
        4
 64
     7
 65
   257
 75
     1
175
     1
 42
1.0
 92
        0
 66
   257
 43
1.0
 76
     1
 77
     6
 78
     2
 67
     7
 79
     5
170
     0
171
     0
290
     0
174
     0
 93
        1
 44
0.0
173
     0
291
     0
 45
0.0
1001
ACAD
1000
AcDbSavedByObjectVersion
1070
     0
1000
AcDbSavedByObjectVersion
1070
     0
  0
VISUALSTYLE
  5
2F02B5
102
{ACAD_REACTORS
330
2F02B0
102
}
330
2F02B0
100
AcDbVisualStyle
  2
Basic
 70
     7
 71
     1
 72
     0
 73
     1
 90
        0
 40
-0.6
 41
-30.0
 62
     5
 63
     7
 74
     0
 91
        4
 64
     7
 65
   257
 75
     1
175
     1
 42
1.0
 92
        8
 66
     7
 43
1.0
 76
     1
 77
     6
 78
     2
 67
     7
 79
     5
170
     0
171
     0
290
     0
174
     0
 93
        1
 44
0.0
173
     0
291
     1
 45
0.0
1001
ACAD
1000
AcDbSavedByObjectVersion
1070
     0
1000
AcDbSavedByObjectVersion
1070
     0
  0
VISUALSTYLE
  5
2F02BC
102
{ACAD_REACTORS
330
2F02B0
102
}
330
2F02B0
100
AcDbVisualStyle
  2
Brighten
 70
    12
 71
     2
 72
     2
 73
     0
 90
        0
 40
-0.6
 41
-30.0
 62
     5
 63
     7
 74
     1
 91
        4
 64
     7
 65
   257
 75
     1
175
     1
 42
1.0
 92
        8
 66
     7
 43
1.0
 76
     1
 77
     6
 78
     2
 67
     7
 79
     5
170
     0
171
     0
290
     0
174
     0
 93
        1
 44
50.0
173
     0
291
     1
 45
0.0
1001
ACAD
1000
AcDbSavedByObjectVersion
1070
     0
1000
AcDbSavedByObjectVersion
1070
     0
  0
VISUALSTYLE
  5
2F02C0
102
{ACAD_REACTORS
330
2F02B0
102
}
330
2F02B0
100
AcDbVisualStyle
  2
ColorChange
 70
    16
 71
     2
 72
     2
 73
     3
 90
        0
 40
-0.6
 41
-30.0
 62
     5
 63
     8
 74
     1
 91
        4
 64
     7
 65
   257
 75
     1
175
     1
 42
1.0
 92
        8
 66
     8
 43
1.0
 76
     1
 77
     6
 78
     2
 67
     7
 79
     5
170
     0
171
     0
290
     0
174
     0
 93
        1
 44
0.0
173
     0
291
     1
 45
0.0
1001
ACAD
1000
AcDbSavedByObjectVersion
1070
     0
1000
AcDbSavedByObjectVersion
1070
     0
  0
VISUALSTYLE
  5
2F02B9
102
{ACAD_REACTORS
330
2F02B0
102
}
330
2F02B0
100
AcDbVisualStyle
  2
Conceptual
 70
     9
 71
     3
 72
     2
 73
     0
 90
        0
 40
-0.6
 41
-30.0
 62
     5
 63
     7
 74
     2
 91
        2
 64
     7
 65
   257
 75
     1
175
     1
 42
40.0
 92
        8
 66
     7
 43
1.0
 76
     1
 77
     6
 78
     2
 67
     7
 79
     3
170
     0
171
     0
290
     0
174
     0
 93
        1
 44
0.0
173
     0
291
     0
 45
0.0
1001
ACAD
1000
AcDbSavedByObjectVersion
1070
     0
1000
AcDbSavedByObjectVersion
1070
     0
  0
VISUALSTYLE
  5
2F02BB
102
{ACAD_REACTORS
330
2F02B0
102
}
330
2F02B0
100
AcDbVisualStyle
  2
Dim
 70
    11
 71
     2
 72
     2
 73
     0
 90
        0
 40
-0.6
 41
-30.0
 62
     5
 63
     7
 74
     1
 91
        4
 64
     7
 65
   257
 75
     1
175
     1
 42
1.0
 92
        8
 66
     7
 43
1.0
 76
     1
 77
     6
 78
     2
 67
     7
 79
     5
170
     0
171
     0
290
     0
174
     0
 93
        1
 44
-50.0
173
     0
291
     1
 45
0.0
1001
ACAD
1000
AcDbSavedByObjectVersion
1070
     0
1000
AcDbSavedByObjectVersion
1070
     0
  0
VISUALSTYLE
  5
2F02BF
102
{ACAD_REACTORS
330
2F02B0
102
}
330
2F02B0
100
AcDbVisualStyle
  2
Facepattern
 70
    15
 71
     2
 72
     2
 73
     0
 90
        0
 40
-0.6
 41
-30.0
 62
     5
 63
     7
 74
     1
 91
        4
 64
     7
 65
   257
 75
     1
175
     1
 42
1.0
 92
        8
 66
     7
 43
1.0
 76
     1
 77
     6
 78
     2
 67
     7
 79
     5
170
     0
171
     0
290
     0
174
     0
 93
        1
 44
0.0
173
     0
291
     1
 45
0.0
1001
ACAD
1000
AcDbSavedByObjectVersion
1070
     0
1000
AcDbSavedByObjectVersion
1070
     0
  0
VISUALSTYLE
  5
2F02B1
102
{ACAD_REACTORS
330
2F02B0
102
}
330
2F02B0
100
AcDbVisualStyle
  2
Flat
 70
     0
 71
     2
 72
     1
 73
     1
 90
        2
 40
-0.6
 41
30.0
 62
     5
 63
     7
 74
     0
 91
        4
 64
     7
 65
   257
 75
     1
175
     1
 42
1.0
 92
        8
 66
     7
 43
1.0
 76
     1
 77
     6
 78
     2
 67
     7
 79
     5
170
     0
171
     0
290
     0
174
     0
 93
       13
 44
0.0
173
     0
291
     1
 45
0.0
1001
ACAD
1000
AcDbSavedByObjectVersion
1070
     0
1000
AcDbSavedByObjectVersion
1070
     0
  0
VISUALSTYLE
  5
2F02B2
102
{ACAD_REACTORS
330
2F02B0
102
}
330
2F02B0
100
AcDbVisualStyle
  2
FlatWithEdges
 70
     1
 71
     2
 72
     1
 73
     1
 90
        2
 40
-0.6
 41
30.0
 62
     5
 63
     7
 74
     1
 91
        4
 64
     7
 65
   257
 75
     1
175
     1
 42
1.0
 92
        0
 66
   257
 43
1.0
 76
     1
 77
     6
 78
     2
 67
     7
 79
     5
170
     0
171
     0
290
     0
174
     0
 93
       13
 44
0.0
173
     0
291
     1
 45
0.0
1001
ACAD
1000
AcDbSavedByObjectVersion
1070
     0
1000
AcDbSavedByObjectVersion
1070
     0
  0
VISUALSTYLE
  5
2F02B3
102
{ACAD_REACTORS
330
2F02B0
102
}
330
2F02B0
100
AcDbVisualStyle
  2
Gouraud
 70
     2
 71
     2
 72
     2
 73
     1
 90
        2
 40
-0.6
 41
30.0
 62
     5
 63
     7
 74
     0
 91
        4
 64
     7
 65
   257
 75
     1
175
     1
 42
1.0
 92
        0
 66
     7
 43
1.0
 76
     1
 77
     6
 78
     2
 67
     7
 79
     5
170
     0
171
     0
290
     0
174
     0
 93
       13
 44
0.0
173
     0
291
     1
 45
0.0
1001
ACAD
1000
AcDbSavedByObjectVersion
1070
     0
1000
AcDbSavedByObjectVersion
1070
     0
  0
VISUALSTYLE
  5
2F02B4
102
{ACAD_REACTORS
330
2F02B0
102
}
330
2F02B0
100
AcDbVisualStyle
  2
GouraudWithEdges
 70
     3
 71
     2
 72
     2
 73
     1
 90
        2
 40
-0.6
 41
30.0
 62
     5
 63
     7
 74
     1
 91
        4
 64
     7
 65
   257
 75
     1
175
     1
 42
1.0
 92
        0
 66
   257
 43
1.0
 76
     1
 77
     6
 78
     2
 67
     7
 79
     5
170
     0
171
     0
290
     0
174
     0
 93
       13
 44
0.0
173
     0
291
     1
 45
0.0
1001
ACAD
1000
AcDbSavedByObjectVersion
1070
     0
1000
AcDbSavedByObjectVersion
1070
     0
  0
VISUALSTYLE
  5
2F02BE
102
{ACAD_REACTORS
330
2F02B0
102
}
330
2F02B0
100
AcDbVisualStyle
  2
Linepattern
 70
    14
 71
     2
 72
     2
 73
     0
 90
        0
 40
-0.6
 41
-30.0
 62
     5
 63
     7
 74
     1
 91
        4
 64
     7
 65
   257
 75
     7
175
     7
 42
1.0
 92
        8
 66
     7
 43
1.0
 76
     1
 77
     6
 78
     2
 67
     7
 79
     5
170
     0
171
     0
290
     0
174
     0
 93
        1
 44
0.0
173
     0
291
     1
 45
0.0
1001
ACAD
1000
AcDbSavedByObjectVersion
1070
     0
1000
AcDbSavedByObjectVersion
1070
     0
  0
VISUALSTYLE
  5
2F02BA
102
{ACAD_REACTORS
330
2F02B0
102
}
330
2F02B0
100
AcDbVisualStyle
  2
Realistic
 70
     8
 71
     2
 72
     2
 73
     0
 90
        0
 40
-0.6
 41
-30.0
 62
     5
 63
     7
 74
     1
 91
        0
 64
     7
 65
   257
 75
     1
175
     1
 42
1.0
 92
        8
 66
     8
 43
1.0
 76
     1
 77
     6
 78
     2
 67
     7
 79
     5
170
     0
171
     0
290
     0
174
     0
 93
       13
 44
0.0
173
     0
291
     0
 45
0.0
1001
ACAD
1000
AcDbSavedByObjectVersion
1070
     0
1000
AcDbSavedByObjectVersion
1070
     0
  0
VISUALSTYLE
  5
2F02BD
102
{ACAD_REACTORS
330
2F02B0
102
}
330
2F02B0
100
AcDbVisualStyle
  2
Thicken
 70
    13
 71
     2
 72
     2
 73
     0
 90
        0
 40
-0.6
 41
-30.0
 62
     5
 63
     7
 74
     1
 91
        4
 64
     7
 65
   257
 75
     1
175
     1
 42
1.0
 92
       12
 66
     7
 43
1.0
 76
     1
 77
     6
 78
     2
 67
     7
 79
     5
170
     0
171
     0
290
     0
174
     0
 93
        1
 44
0.0
173
     0
291
     1
 45
0.0
1001
ACAD
1000
AcDbSavedByObjectVersion
1070
     0
1000
AcDbSavedByObjectVersion
1070
     0
  0
DICTIONARYVAR
  5
2F02E4
102
{ACAD_REACTORS
330
6DE
102
}
330
6DE
100
DictionaryVariables
280
     0
  1
1:1
  0
DICTIONARYVAR
  5
2F02E3
102
{ACAD_REACTORS
330
6DE
102
}
330
6DE
100
DictionaryVariables
280
     0
  1
STANDARD
  0
DICTIONARYVAR
  5
2F02E2
102
{ACAD_REACTORS
330
6DE
102
}
330
6DE
100
DictionaryVariables
280
     0
  1
STANDARD
  0
DICTIONARYVAR
  5
6DF
102
{ACAD_REACTORS
330
6DE
102
}
330
6DE
100
DictionaryVariables
280
     0
  1
1
  0
DICTIONARYVAR
  5
66CB9
102
{ACAD_REACTORS
330
6DE
102
}
330
6DE
100
DictionaryVariables
280
     0
  1
0
  0
DICTIONARYVAR
  5
2F2B7D
102
{ACAD_REACTORS
330
6DE
102
}
330
6DE
100
DictionaryVariables
280
     0
  1
1
  0
DICTIONARYVAR
  5
2F2B7E
102
{ACAD_REACTORS
330
6DE
102
}
330
6DE
100
DictionaryVariables
280
     0
  1
15
  0
DICTIONARYVAR
  5
2F2B7C
102
{ACAD_REACTORS
330
6DE
102
}
330
6DE
100
DictionaryVariables
280
     0
  1
0
  0
DICTIONARYVAR
  5
2F2B7B
102
{ACAD_REACTORS
330
6DE
102
}
330
6DE
100
DictionaryVariables
280
     0
  1
0
  0
DICTIONARYVAR
  5
6E0
102
{ACAD_REACTORS
330
6DE
102
}
330
6DE
100
DictionaryVariables
280
     0
  1

  0
DICTIONARYVAR
  5
66CB8
102
{ACAD_REACTORS
330
6DE
102
}
330
6DE
100
DictionaryVariables
280
     0
  1
127
  0
ACAD_PROXY_OBJECT
  5
2ED1C1
102
{ACAD_REACTORS
330
2ED1C0
102
}
330
2ED1C0
100
AcDbProxyObject
 90
      499
 91
      517
 95
       23
 70
     0
 93
       90
310
51B4D14694680051946C51BF
340
2ED1C3
 94
        0
1001
ACAD
1000
AcRTDxfName
1000
AEC_DISP_REP_2D_SECTION
1000
AcRTDxfName
1000
AEC_DISP_REP_2D_SECTION
1000
AcRTDxfName
1000
AEC_DISP_REP_2D_SECTION
1000
AcRTDxfName
1000
AEC_DISP_REP_2D_SECTION
1000
AcRTDxfName
1000
AEC_DISP_REP_2D_SECTION
1000
AcRTDxfName
1000
AEC_DISP_REP_2D_SECTION
1000
AcRTDxfName
1000
AEC_DISP_REP_2D_SECTION
1000
AcRTDxfName
1000
AEC_DISP_REP_2D_SECTION
1000
AcRTDxfName
1000
AEC_DISP_REP_2D_SECTION
1000
AcRTDxfName
1000
AEC_DISP_REP_2D_SECTION
1000
AcRTDxfName
1000
AEC_DISP_REP_2D_SECTION
1000
AcRTDxfName
1000
AEC_DISP_REP_2D_SECTION
1000
AcRTDxfName
1000
AEC_DISP_REP_2D_SECTION
  0
ACAD_PROXY_OBJECT
  5
2ED1F7
102
{ACAD_REACTORS
330
2ED1C0
102
}
330
2ED1C0
100
AcDbProxyObject
 90
      499
 91
      562
 95
       23
 70
     0
 93
       90
310
51B4D14694680051946C51BF
340
0
 94
        0
1001
ACAD
1000
AcRTDxfName
1000
AEC_DISP_REP_ANCHOR
1000
AcRTDxfName
1000
AEC_DISP_REP_ANCHOR
1000
AcRTDxfName
1000
AEC_DISP_REP_ANCHOR
1000
AcRTDxfName
1000
AEC_DISP_REP_ANCHOR
1000
AcRTDxfName
1000
AEC_DISP_REP_ANCHOR
1000
AcRTDxfName
1000
AEC_DISP_REP_ANCHOR
1000
AcRTDxfName
1000
AEC_DISP_REP_ANCHOR
1000
AcRTDxfName
1000
AEC_DISP_REP_ANCHOR
1000
AcRTDxfName
1000
AEC_DISP_REP_ANCHOR
1000
AcRTDxfName
1000
AEC_DISP_REP_ANCHOR
1000
AcRTDxfName
1000
AEC_DISP_REP_ANCHOR
1000
AcRTDxfName
1000
AEC_DISP_REP_ANCHOR
1000
AcRTDxfName
1000
AEC_DISP_REP_ANCHOR
  0
ACAD_PROXY_OBJECT
  5
2ED1F8
102
{ACAD_REACTORS
330
2ED1C0
102
}
330
2ED1C0
100
AcDbProxyObject
 90
      499
 91
      563
 95
       23
 70
     0
 93
       90
310
51B4D14694680051946C51BF
340
2ED1F9
 94
        0
1001
ACAD
1000
AcRTDxfName
1000
AEC_DISP_REP_ANCHOR_ENT_TO_NODE
1000
AcRTDxfName
1000
AEC_DISP_REP_ANCHOR_ENT_TO_NODE
1000
AcRTDxfName
1000
AEC_DISP_REP_ANCHOR_ENT_TO_NODE
1000
AcRTDxfName
1000
AEC_DISP_REP_ANCHOR_ENT_TO_NODE
1000
AcRTDxfName
1000
AEC_DISP_REP_ANCHOR_ENT_TO_NODE
1000
AcRTDxfName
1000
AEC_DISP_REP_ANCHOR_ENT_TO_NODE
1000
AcRTDxfName
1000
AEC_DISP_REP_ANCHOR_ENT_TO_NODE
1000
AcRTDxfName
1000
AEC_DISP_REP_ANCHOR_ENT_TO_NODE
1000
AcRTDxfName
1000
AEC_DISP_REP_ANCHOR_ENT_TO_NODE
1000
AcRTDxfName
1000
AEC_DISP_REP_ANCHOR_ENT_TO_NODE
1000
AcRTDxfName
1000
AEC_DISP_REP_ANCHOR_ENT_TO_NODE
1000
AcRTDxfName
1000
AEC_DISP_REP_ANCHOR_ENT_TO_NODE
1000
AcRTDxfName
1000
AEC_DISP_REP_ANCHOR_ENT_TO_NODE
  0
ACAD_PROXY_OBJECT
  5
2ED1C4
102
{ACAD_REACTORS
330
2ED1C0
102
}
330
2ED1C0
100
AcDbProxyObject
 90
      499
 91
      519
 95
       23
 70
     0
 93
      100
310
51B4D14694680051946C51946F
340
2ED1C5
 94
        0
1001
ACAD
1000
AcRTDxfName
1000
AEC_DISP_REP_CLIP_VOLUME_MODEL
1000
AcRTDxfName
1000
AEC_DISP_REP_CLIP_VOLUME_MODEL
1000
AcRTDxfName
1000
AEC_DISP_REP_CLIP_VOLUME_MODEL
1000
AcRTDxfName
1000
AEC_DISP_REP_CLIP_VOLUME_MODEL
1000
AcRTDxfName
1000
AEC_DISP_REP_CLIP_VOLUME_MODEL
1000
AcRTDxfName
1000
AEC_DISP_REP_CLIP_VOLUME_MODEL
1000
AcRTDxfName
1000
AEC_DISP_REP_CLIP_VOLUME_MODEL
1000
AcRTDxfName
1000
AEC_DISP_REP_CLIP_VOLUME_MODEL
1000
AcRTDxfName
1000
AEC_DISP_REP_CLIP_VOLUME_MODEL
1000
AcRTDxfName
1000
AEC_DISP_REP_CLIP_VOLUME_MODEL
1000
AcRTDxfName
1000
AEC_DISP_REP_CLIP_VOLUME_MODEL
1000
AcRTDxfName
1000
AEC_DISP_REP_CLIP_VOLUME_MODEL
1000
AcRTDxfName
1000
AEC_DISP_REP_CLIP_VOLUME_MODEL
  0
ACAD_PROXY_OBJECT
  5
2ED1C6
102
{ACAD_REACTORS
330
2ED1C0
102
}
330
2ED1C0
100
AcDbProxyObject
 90
      499
 91
      521
 95
       23
 70
     0
 93
      100
310
51B4D14694680051946C51946F
340
2ED1C7
 94
        0
1001
ACAD
1000
AcRTDxfName
1000
AEC_DISP_REP_CLIP_VOLUME_PLAN
1000
AcRTDxfName
1000
AEC_DISP_REP_CLIP_VOLUME_PLAN
1000
AcRTDxfName
1000
AEC_DISP_REP_CLIP_VOLUME_PLAN
1000
AcRTDxfName
1000
AEC_DISP_REP_CLIP_VOLUME_PLAN
1000
AcRTDxfName
1000
AEC_DISP_REP_CLIP_VOLUME_PLAN
1000
AcRTDxfName
1000
AEC_DISP_REP_CLIP_VOLUME_PLAN
1000
AcRTDxfName
1000
AEC_DISP_REP_CLIP_VOLUME_PLAN
1000
AcRTDxfName
1000
AEC_DISP_REP_CLIP_VOLUME_PLAN
1000
AcRTDxfName
1000
AEC_DISP_REP_CLIP_VOLUME_PLAN
1000
AcRTDxfName
1000
AEC_DISP_REP_CLIP_VOLUME_PLAN
1000
AcRTDxfName
1000
AEC_DISP_REP_CLIP_VOLUME_PLAN
1000
AcRTDxfName
1000
AEC_DISP_REP_CLIP_VOLUME_PLAN
1000
AcRTDxfName
1000
AEC_DISP_REP_CLIP_VOLUME_PLAN
  0
ACAD_PROXY_OBJECT
  5
2ED1C9
102
{ACAD_REACTORS
330
2ED1C0
102
}
330
2ED1C0
100
AcDbProxyObject
 90
      499
 91
      523
 95
       23
 70
     0
 93
      100
310
51B4D14694680051946C51946F
340
2ED1CA
 94
        0
1001
ACAD
1000
AcRTDxfName
1000
AEC_DISP_REP_CLIP_VOLUME_RESULT_SUBDIV
1000
AcRTDxfName
1000
AEC_DISP_REP_CLIP_VOLUME_RESULT_SUBDIV
1000
AcRTDxfName
1000
AEC_DISP_REP_CLIP_VOLUME_RESULT_SUBDIV
1000
AcRTDxfName
1000
AEC_DISP_REP_CLIP_VOLUME_RESULT_SUBDIV
1000
AcRTDxfName
1000
AEC_DISP_REP_CLIP_VOLUME_RESULT_SUBDIV
1000
AcRTDxfName
1000
AEC_DISP_REP_CLIP_VOLUME_RESULT_SUBDIV
1000
AcRTDxfName
1000
AEC_DISP_REP_CLIP_VOLUME_RESULT_SUBDIV
1000
AcRTDxfName
1000
AEC_DISP_REP_CLIP_VOLUME_RESULT_SUBDIV
1000
AcRTDxfName
1000
AEC_DISP_REP_CLIP_VOLUME_RESULT_SUBDIV
1000
AcRTDxfName
1000
AEC_DISP_REP_CLIP_VOLUME_RESULT_SUBDIV
1000
AcRTDxfName
1000
AEC_DISP_REP_CLIP_VOLUME_RESULT_SUBDIV
1000
AcRTDxfName
1000
AEC_DISP_REP_CLIP_VOLUME_RESULT_SUBDIV
1000
AcRTDxfName
1000
AEC_DISP_REP_CLIP_VOLUME_RESULT_SUBDIV
  0
ACAD_PROXY_OBJECT
  5
2ED1C8
102
{ACAD_REACTORS
330
2ED1C0
102
}
330
2ED1C0
100
AcDbProxyObject
 90
      499
 91
      522
 95
       23
 70
     0
 93
       90
310
51B4D14694680051946C51BF
340
0
 94
        0
1001
ACAD
1000
AcRTDxfName
1000
AEC_DISP_REP_CLIP_VOLUME_RESULT
1000
AcRTDxfName
1000
AEC_DISP_REP_CLIP_VOLUME_RESULT
1000
AcRTDxfName
1000
AEC_DISP_REP_CLIP_VOLUME_RESULT
1000
AcRTDxfName
1000
AEC_DISP_REP_CLIP_VOLUME_RESULT
1000
AcRTDxfName
1000
AEC_DISP_REP_CLIP_VOLUME_RESULT
1000
AcRTDxfName
1000
AEC_DISP_REP_CLIP_VOLUME_RESULT
1000
AcRTDxfName
1000
AEC_DISP_REP_CLIP_VOLUME_RESULT
1000
AcRTDxfName
1000
AEC_DISP_REP_CLIP_VOLUME_RESULT
1000
AcRTDxfName
1000
AEC_DISP_REP_CLIP_VOLUME_RESULT
1000
AcRTDxfName
1000
AEC_DISP_REP_CLIP_VOLUME_RESULT
1000
AcRTDxfName
1000
AEC_DISP_REP_CLIP_VOLUME_RESULT
1000
AcRTDxfName
1000
AEC_DISP_REP_CLIP_VOLUME_RESULT
1000
AcRTDxfName
1000
AEC_DISP_REP_CLIP_VOLUME_RESULT
  0
ACAD_PROXY_OBJECT
  5
2ED1CB
102
{ACAD_REACTORS
330
2ED1C0
102
}
330
2ED1C0
100
AcDbProxyObject
 90
      499
 91
      525
 95
       23
 70
     0
 93
       90
310
51B4D14694680051946C51BF
340
2ED1CC
 94
        0
1001
ACAD
1000
AcRTDxfName
1000
AEC_DISP_REP_DISPLAYTHEME
1000
AcRTDxfName
1000
AEC_DISP_REP_DISPLAYTHEME
1000
AcRTDxfName
1000
AEC_DISP_REP_DISPLAYTHEME
1000
AcRTDxfName
1000
AEC_DISP_REP_DISPLAYTHEME
1000
AcRTDxfName
1000
AEC_DISP_REP_DISPLAYTHEME
1000
AcRTDxfName
1000
AEC_DISP_REP_DISPLAYTHEME
1000
AcRTDxfName
1000
AEC_DISP_REP_DISPLAYTHEME
1000
AcRTDxfName
1000
AEC_DISP_REP_DISPLAYTHEME
1000
AcRTDxfName
1000
AEC_DISP_REP_DISPLAYTHEME
1000
AcRTDxfName
1000
AEC_DISP_REP_DISPLAYTHEME
1000
AcRTDxfName
1000
AEC_DISP_REP_DISPLAYTHEME
1000
AcRTDxfName
1000
AEC_DISP_REP_DISPLAYTHEME
1000
AcRTDxfName
1000
AEC_DISP_REP_DISPLAYTHEME
  0
ACAD_PROXY_OBJECT
  5
2ED1FC
102
{ACAD_REACTORS
330
2ED1C0
102
}
330
2ED1C0
100
AcDbProxyObject
 90
      499
 91
      567
 95
       23
 70
     0
 93
       90
310
51B4D14694680051946C51BF
340
2ED1FD
 94
        0
1001
ACAD
1000
AcRTDxfName
1000
AEC_DISP_REP_EDITINPLACEPROFILE
1000
AcRTDxfName
1000
AEC_DISP_REP_EDITINPLACEPROFILE
1000
AcRTDxfName
1000
AEC_DISP_REP_EDITINPLACEPROFILE
1000
AcRTDxfName
1000
AEC_DISP_REP_EDITINPLACEPROFILE
1000
AcRTDxfName
1000
AEC_DISP_REP_EDITINPLACEPROFILE
1000
AcRTDxfName
1000
AEC_DISP_REP_EDITINPLACEPROFILE
1000
AcRTDxfName
1000
AEC_DISP_REP_EDITINPLACEPROFILE
1000
AcRTDxfName
1000
AEC_DISP_REP_EDITINPLACEPROFILE
1000
AcRTDxfName
1000
AEC_DISP_REP_EDITINPLACEPROFILE
1000
AcRTDxfName
1000
AEC_DISP_REP_EDITINPLACEPROFILE
1000
AcRTDxfName
1000
AEC_DISP_REP_EDITINPLACEPROFILE
1000
AcRTDxfName
1000
AEC_DISP_REP_EDITINPLACEPROFILE
1000
AcRTDxfName
1000
AEC_DISP_REP_EDITINPLACEPROFILE
  0
ACAD_PROXY_OBJECT
  5
2ED1CD
102
{ACAD_REACTORS
330
2ED1C0
102
}
330
2ED1C0
100
AcDbProxyObject
 90
      499
 91
      527
 95
       23
 70
     0
 93
       90
310
51B4D14694680051946C51BF
340
2ED1CE
 94
        0
1001
ACAD
1000
AcRTDxfName
1000
AEC_DISP_REP_ENT_REF
1000
AcRTDxfName
1000
AEC_DISP_REP_ENT_REF
1000
AcRTDxfName
1000
AEC_DISP_REP_ENT_REF
1000
AcRTDxfName
1000
AEC_DISP_REP_ENT_REF
1000
AcRTDxfName
1000
AEC_DISP_REP_ENT_REF
1000
AcRTDxfName
1000
AEC_DISP_REP_ENT_REF
1000
AcRTDxfName
1000
AEC_DISP_REP_ENT_REF
1000
AcRTDxfName
1000
AEC_DISP_REP_ENT_REF
1000
AcRTDxfName
1000
AEC_DISP_REP_ENT_REF
1000
AcRTDxfName
1000
AEC_DISP_REP_ENT_REF
1000
AcRTDxfName
1000
AEC_DISP_REP_ENT_REF
1000
AcRTDxfName
1000
AEC_DISP_REP_ENT_REF
1000
AcRTDxfName
1000
AEC_DISP_REP_ENT_REF
  0
ACAD_PROXY_OBJECT
  5
2ED1CF
102
{ACAD_REACTORS
330
2ED1C0
102
}
330
2ED1C0
100
AcDbProxyObject
 90
      499
 91
      529
 95
       23
 70
     0
 93
       90
310
51B4D14694680051946C51BF
340
2ED1D0
 94
        0
1001
ACAD
1000
AcRTDxfName
1000
AEC_DISP_REP_LAYOUT_CURVE
1000
AcRTDxfName
1000
AEC_DISP_REP_LAYOUT_CURVE
1000
AcRTDxfName
1000
AEC_DISP_REP_LAYOUT_CURVE
1000
AcRTDxfName
1000
AEC_DISP_REP_LAYOUT_CURVE
1000
AcRTDxfName
1000
AEC_DISP_REP_LAYOUT_CURVE
1000
AcRTDxfName
1000
AEC_DISP_REP_LAYOUT_CURVE
1000
AcRTDxfName
1000
AEC_DISP_REP_LAYOUT_CURVE
1000
AcRTDxfName
1000
AEC_DISP_REP_LAYOUT_CURVE
1000
AcRTDxfName
1000
AEC_DISP_REP_LAYOUT_CURVE
1000
AcRTDxfName
1000
AEC_DISP_REP_LAYOUT_CURVE
1000
AcRTDxfName
1000
AEC_DISP_REP_LAYOUT_CURVE
1000
AcRTDxfName
1000
AEC_DISP_REP_LAYOUT_CURVE
1000
AcRTDxfName
1000
AEC_DISP_REP_LAYOUT_CURVE
  0
ACAD_PROXY_OBJECT
  5
2ED1D1
102
{ACAD_REACTORS
330
2ED1C0
102
}
330
2ED1C0
100
AcDbProxyObject
 90
      499
 91
      531
 95
       23
 70
     0
 93
       90
310
51B4D14694680051946C51BF
340
2ED1D2
 94
        0
1001
ACAD
1000
AcRTDxfName
1000
AEC_DISP_REP_LAYOUT_GRID2D
1000
AcRTDxfName
1000
AEC_DISP_REP_LAYOUT_GRID2D
1000
AcRTDxfName
1000
AEC_DISP_REP_LAYOUT_GRID2D
1000
AcRTDxfName
1000
AEC_DISP_REP_LAYOUT_GRID2D
1000
AcRTDxfName
1000
AEC_DISP_REP_LAYOUT_GRID2D
1000
AcRTDxfName
1000
AEC_DISP_REP_LAYOUT_GRID2D
1000
AcRTDxfName
1000
AEC_DISP_REP_LAYOUT_GRID2D
1000
AcRTDxfName
1000
AEC_DISP_REP_LAYOUT_GRID2D
1000
AcRTDxfName
1000
AEC_DISP_REP_LAYOUT_GRID2D
1000
AcRTDxfName
1000
AEC_DISP_REP_LAYOUT_GRID2D
1000
AcRTDxfName
1000
AEC_DISP_REP_LAYOUT_GRID2D
1000
AcRTDxfName
1000
AEC_DISP_REP_LAYOUT_GRID2D
1000
AcRTDxfName
1000
AEC_DISP_REP_LAYOUT_GRID2D
  0
ACAD_PROXY_OBJECT
  5
2ED1D3
102
{ACAD_REACTORS
330
2ED1C0
102
}
330
2ED1C0
100
AcDbProxyObject
 90
      499
 91
      533
 95
       23
 70
     0
 93
       90
310
51B4D14694680051946C51BF
340
2ED1D4
 94
        0
1001
ACAD
1000
AcRTDxfName
1000
AEC_DISP_REP_LAYOUT_GRID3D
1000
AcRTDxfName
1000
AEC_DISP_REP_LAYOUT_GRID3D
1000
AcRTDxfName
1000
AEC_DISP_REP_LAYOUT_GRID3D
1000
AcRTDxfName
1000
AEC_DISP_REP_LAYOUT_GRID3D
1000
AcRTDxfName
1000
AEC_DISP_REP_LAYOUT_GRID3D
1000
AcRTDxfName
1000
AEC_DISP_REP_LAYOUT_GRID3D
1000
AcRTDxfName
1000
AEC_DISP_REP_LAYOUT_GRID3D
1000
AcRTDxfName
1000
AEC_DISP_REP_LAYOUT_GRID3D
1000
AcRTDxfName
1000
AEC_DISP_REP_LAYOUT_GRID3D
1000
AcRTDxfName
1000
AEC_DISP_REP_LAYOUT_GRID3D
1000
AcRTDxfName
1000
AEC_DISP_REP_LAYOUT_GRID3D
1000
AcRTDxfName
1000
AEC_DISP_REP_LAYOUT_GRID3D
1000
AcRTDxfName
1000
AEC_DISP_REP_LAYOUT_GRID3D
  0
ACAD_PROXY_OBJECT
  5
2ED1D5
102
{ACAD_REACTORS
330
2ED1C0
102
}
330
2ED1C0
100
AcDbProxyObject
 90
      499
 91
      535
 95
       23
 70
     0
 93
       90
310
51B4D14694680051946C51BF
340
2ED1D6
 94
        0
1001
ACAD
1000
AcRTDxfName
1000
AEC_DISP_REP_MASKBLOCK_REF
1000
AcRTDxfName
1000
AEC_DISP_REP_MASKBLOCK_REF
1000
AcRTDxfName
1000
AEC_DISP_REP_MASKBLOCK_REF
1000
AcRTDxfName
1000
AEC_DISP_REP_MASKBLOCK_REF
1000
AcRTDxfName
1000
AEC_DISP_REP_MASKBLOCK_REF
1000
AcRTDxfName
1000
AEC_DISP_REP_MASKBLOCK_REF
1000
AcRTDxfName
1000
AEC_DISP_REP_MASKBLOCK_REF
1000
AcRTDxfName
1000
AEC_DISP_REP_MASKBLOCK_REF
1000
AcRTDxfName
1000
AEC_DISP_REP_MASKBLOCK_REF
1000
AcRTDxfName
1000
AEC_DISP_REP_MASKBLOCK_REF
1000
AcRTDxfName
1000
AEC_DISP_REP_MASKBLOCK_REF
1000
AcRTDxfName
1000
AEC_DISP_REP_MASKBLOCK_REF
1000
AcRTDxfName
1000
AEC_DISP_REP_MASKBLOCK_REF
  0
ACAD_PROXY_OBJECT
  5
2ED1D7
102
{ACAD_REACTORS
330
2ED1C0
102
}
330
2ED1C0
100
AcDbProxyObject
 90
      499
 91
      537
 95
       23
 70
     0
 93
      100
310
51B4D14694680051946C51946F
340
2ED1D8
 94
        0
1001
ACAD
1000
AcRTDxfName
1000
AEC_DISP_REP_MASKBLOCK_REF_RCP
1000
AcRTDxfName
1000
AEC_DISP_REP_MASKBLOCK_REF_RCP
1000
AcRTDxfName
1000
AEC_DISP_REP_MASKBLOCK_REF_RCP
1000
AcRTDxfName
1000
AEC_DISP_REP_MASKBLOCK_REF_RCP
1000
AcRTDxfName
1000
AEC_DISP_REP_MASKBLOCK_REF_RCP
1000
AcRTDxfName
1000
AEC_DISP_REP_MASKBLOCK_REF_RCP
1000
AcRTDxfName
1000
AEC_DISP_REP_MASKBLOCK_REF_RCP
1000
AcRTDxfName
1000
AEC_DISP_REP_MASKBLOCK_REF_RCP
1000
AcRTDxfName
1000
AEC_DISP_REP_MASKBLOCK_REF_RCP
1000
AcRTDxfName
1000
AEC_DISP_REP_MASKBLOCK_REF_RCP
1000
AcRTDxfName
1000
AEC_DISP_REP_MASKBLOCK_REF_RCP
1000
AcRTDxfName
1000
AEC_DISP_REP_MASKBLOCK_REF_RCP
1000
AcRTDxfName
1000
AEC_DISP_REP_MASKBLOCK_REF_RCP
  0
ACAD_PROXY_OBJECT
  5
2ED1D9
102
{ACAD_REACTORS
330
2ED1C0
102
}
330
2ED1C0
100
AcDbProxyObject
 90
      499
 91
      538
 95
       23
 70
     0
 93
      100
310
51B4D14694680051946C51946F
340
2ED1DA
 94
        0
1001
ACAD
1000
AcRTDxfName
1000
AEC_DISP_REP_MASS_ELEM_MODEL
1000
AcRTDxfName
1000
AEC_DISP_REP_MASS_ELEM_MODEL
1000
AcRTDxfName
1000
AEC_DISP_REP_MASS_ELEM_MODEL
1000
AcRTDxfName
1000
AEC_DISP_REP_MASS_ELEM_MODEL
1000
AcRTDxfName
1000
AEC_DISP_REP_MASS_ELEM_MODEL
1000
AcRTDxfName
1000
AEC_DISP_REP_MASS_ELEM_MODEL
1000
AcRTDxfName
1000
AEC_DISP_REP_MASS_ELEM_MODEL
1000
AcRTDxfName
1000
AEC_DISP_REP_MASS_ELEM_MODEL
1000
AcRTDxfName
1000
AEC_DISP_REP_MASS_ELEM_MODEL
1000
AcRTDxfName
1000
AEC_DISP_REP_MASS_ELEM_MODEL
1000
AcRTDxfName
1000
AEC_DISP_REP_MASS_ELEM_MODEL
1000
AcRTDxfName
1000
AEC_DISP_REP_MASS_ELEM_MODEL
1000
AcRTDxfName
1000
AEC_DISP_REP_MASS_ELEM_MODEL
  0
ACAD_PROXY_OBJECT
  5
2ED1DF
102
{ACAD_REACTORS
330
2ED1C0
102
}
330
2ED1C0
100
AcDbProxyObject
 90
      499
 91
      543
 95
       23
 70
     0
 93
      110
310
51B4D14694680051946C5194651B
340
2ED1E0
 94
        0
1001
ACAD
1000
AcRTDxfName
1000
AEC_DISPREPAECDBDISPREPMASSELEMPLAN100
1000
AcRTDxfName
1000
AEC_DISPREPAECDBDISPREPMASSELEMPLAN100
1000
AcRTDxfName
1000
AEC_DISPREPAECDBDISPREPMASSELEMPLAN100
1000
AcRTDxfName
1000
AEC_DISPREPAECDBDISPREPMASSELEMPLAN100
1000
AcRTDxfName
1000
AEC_DISPREPAECDBDISPREPMASSELEMPLAN100
1000
AcRTDxfName
1000
AEC_DISPREPAECDBDISPREPMASSELEMPLAN100
1000
AcRTDxfName
1000
AEC_DISPREPAECDBDISPREPMASSELEMPLAN100
1000
AcRTDxfName
1000
AEC_DISPREPAECDBDISPREPMASSELEMPLAN100
1000
AcRTDxfName
1000
AEC_DISPREPAECDBDISPREPMASSELEMPLAN100
1000
AcRTDxfName
1000
AEC_DISPREPAECDBDISPREPMASSELEMPLAN100
1000
AcRTDxfName
1000
AEC_DISPREPAECDBDISPREPMASSELEMPLAN100
1000
AcRTDxfName
1000
AEC_DISPREPAECDBDISPREPMASSELEMPLAN100
1000
AcRTDxfName
1000
AEC_DISPREPAECDBDISPREPMASSELEMPLAN100
  0
ACAD_PROXY_OBJECT
  5
2ED1DD
102
{ACAD_REACTORS
330
2ED1C0
102
}
330
2ED1C0
100
AcDbProxyObject
 90
      499
 91
      541
 95
       23
 70
     0
 93
      110
310
51B4D14694680051946C5194651B
340
2ED1DE
 94
        0
1001
ACAD
1000
AcRTDxfName
1000
AEC_DISPREPAECDBDISPREPMASSELEMPLAN50
1000
AcRTDxfName
1000
AEC_DISPREPAECDBDISPREPMASSELEMPLAN50
1000
AcRTDxfName
1000
AEC_DISPREPAECDBDISPREPMASSELEMPLAN50
1000
AcRTDxfName
1000
AEC_DISPREPAECDBDISPREPMASSELEMPLAN50
1000
AcRTDxfName
1000
AEC_DISPREPAECDBDISPREPMASSELEMPLAN50
1000
AcRTDxfName
1000
AEC_DISPREPAECDBDISPREPMASSELEMPLAN50
1000
AcRTDxfName
1000
AEC_DISPREPAECDBDISPREPMASSELEMPLAN50
1000
AcRTDxfName
1000
AEC_DISPREPAECDBDISPREPMASSELEMPLAN50
1000
AcRTDxfName
1000
AEC_DISPREPAECDBDISPREPMASSELEMPLAN50
1000
AcRTDxfName
1000
AEC_DISPREPAECDBDISPREPMASSELEMPLAN50
1000
AcRTDxfName
1000
AEC_DISPREPAECDBDISPREPMASSELEMPLAN50
1000
AcRTDxfName
1000
AEC_DISPREPAECDBDISPREPMASSELEMPLAN50
1000
AcRTDxfName
1000
AEC_DISPREPAECDBDISPREPMASSELEMPLAN50
  0
ACAD_PROXY_OBJECT
  5
2ED1E1
102
{ACAD_REACTORS
330
2ED1C0
102
}
330
2ED1C0
100
AcDbProxyObject
 90
      499
 91
      544
 95
       23
 70
     0
 93
      110
310
51B4D14694680051946C5194651B
340
2ED1E2
 94
        0
1001
ACAD
1000
AcRTDxfName
1000
AEC_DISP_REP_MASS_ELEM_RCP
1000
AcRTDxfName
1000
AEC_DISP_REP_MASS_ELEM_RCP
1000
AcRTDxfName
1000
AEC_DISP_REP_MASS_ELEM_RCP
1000
AcRTDxfName
1000
AEC_DISP_REP_MASS_ELEM_RCP
1000
AcRTDxfName
1000
AEC_DISP_REP_MASS_ELEM_RCP
1000
AcRTDxfName
1000
AEC_DISP_REP_MASS_ELEM_RCP
1000
AcRTDxfName
1000
AEC_DISP_REP_MASS_ELEM_RCP
1000
AcRTDxfName
1000
AEC_DISP_REP_MASS_ELEM_RCP
1000
AcRTDxfName
1000
AEC_DISP_REP_MASS_ELEM_RCP
1000
AcRTDxfName
1000
AEC_DISP_REP_MASS_ELEM_RCP
1000
AcRTDxfName
1000
AEC_DISP_REP_MASS_ELEM_RCP
1000
AcRTDxfName
1000
AEC_DISP_REP_MASS_ELEM_RCP
1000
AcRTDxfName
1000
AEC_DISP_REP_MASS_ELEM_RCP
  0
ACAD_PROXY_OBJECT
  5
2ED1DB
102
{ACAD_REACTORS
330
2ED1C0
102
}
330
2ED1C0
100
AcDbProxyObject
 90
      499
 91
      540
 95
       23
 70
     0
 93
      100
310
51B4D14694680051946C51946F
340
2ED1DC
 94
        0
1001
ACAD
1000
AcRTDxfName
1000
AEC_DISP_REP_MASS_ELEM_SCHEM
1000
AcRTDxfName
1000
AEC_DISP_REP_MASS_ELEM_SCHEM
1000
AcRTDxfName
1000
AEC_DISP_REP_MASS_ELEM_SCHEM
1000
AcRTDxfName
1000
AEC_DISP_REP_MASS_ELEM_SCHEM
1000
AcRTDxfName
1000
AEC_DISP_REP_MASS_ELEM_SCHEM
1000
AcRTDxfName
1000
AEC_DISP_REP_MASS_ELEM_SCHEM
1000
AcRTDxfName
1000
AEC_DISP_REP_MASS_ELEM_SCHEM
1000
AcRTDxfName
1000
AEC_DISP_REP_MASS_ELEM_SCHEM
1000
AcRTDxfName
1000
AEC_DISP_REP_MASS_ELEM_SCHEM
1000
AcRTDxfName
1000
AEC_DISP_REP_MASS_ELEM_SCHEM
1000
AcRTDxfName
1000
AEC_DISP_REP_MASS_ELEM_SCHEM
1000
AcRTDxfName
1000
AEC_DISP_REP_MASS_ELEM_SCHEM
1000
AcRTDxfName
1000
AEC_DISP_REP_MASS_ELEM_SCHEM
  0
ACAD_PROXY_OBJECT
  5
2ED1E3
102
{ACAD_REACTORS
330
2ED1C0
102
}
330
2ED1C0
100
AcDbProxyObject
 90
      499
 91
      545
 95
       23
 70
     0
 93
      100
310
51B4D14694680051946C51946F
340
2ED1E4
 94
        0
1001
ACAD
1000
AcRTDxfName
1000
AEC_DISP_REP_MASS_GROUP_MODEL
1000
AcRTDxfName
1000
AEC_DISP_REP_MASS_GROUP_MODEL
1000
AcRTDxfName
1000
AEC_DISP_REP_MASS_GROUP_MODEL
1000
AcRTDxfName
1000
AEC_DISP_REP_MASS_GROUP_MODEL
1000
AcRTDxfName
1000
AEC_DISP_REP_MASS_GROUP_MODEL
1000
AcRTDxfName
1000
AEC_DISP_REP_MASS_GROUP_MODEL
1000
AcRTDxfName
1000
AEC_DISP_REP_MASS_GROUP_MODEL
1000
AcRTDxfName
1000
AEC_DISP_REP_MASS_GROUP_MODEL
1000
AcRTDxfName
1000
AEC_DISP_REP_MASS_GROUP_MODEL
1000
AcRTDxfName
1000
AEC_DISP_REP_MASS_GROUP_MODEL
1000
AcRTDxfName
1000
AEC_DISP_REP_MASS_GROUP_MODEL
1000
AcRTDxfName
1000
AEC_DISP_REP_MASS_GROUP_MODEL
1000
AcRTDxfName
1000
AEC_DISP_REP_MASS_GROUP_MODEL
  0
ACAD_PROXY_OBJECT
  5
2ED1E5
102
{ACAD_REACTORS
330
2ED1C0
102
}
330
2ED1C0
100
AcDbProxyObject
 90
      499
 91
      547
 95
       23
 70
     0
 93
      100
310
51B4D14694680051946C51946F
340
2ED1E6
 94
        0
1001
ACAD
1000
AcRTDxfName
1000
AEC_DISP_REP_MASS_GROUP_PLAN
1000
AcRTDxfName
1000
AEC_DISP_REP_MASS_GROUP_PLAN
1000
AcRTDxfName
1000
AEC_DISP_REP_MASS_GROUP_PLAN
1000
AcRTDxfName
1000
AEC_DISP_REP_MASS_GROUP_PLAN
1000
AcRTDxfName
1000
AEC_DISP_REP_MASS_GROUP_PLAN
1000
AcRTDxfName
1000
AEC_DISP_REP_MASS_GROUP_PLAN
1000
AcRTDxfName
1000
AEC_DISP_REP_MASS_GROUP_PLAN
1000
AcRTDxfName
1000
AEC_DISP_REP_MASS_GROUP_PLAN
1000
AcRTDxfName
1000
AEC_DISP_REP_MASS_GROUP_PLAN
1000
AcRTDxfName
1000
AEC_DISP_REP_MASS_GROUP_PLAN
1000
AcRTDxfName
1000
AEC_DISP_REP_MASS_GROUP_PLAN
1000
AcRTDxfName
1000
AEC_DISP_REP_MASS_GROUP_PLAN
1000
AcRTDxfName
1000
AEC_DISP_REP_MASS_GROUP_PLAN
  0
ACAD_PROXY_OBJECT
  5
2ED1E9
102
{ACAD_REACTORS
330
2ED1C0
102
}
330
2ED1C0
100
AcDbProxyObject
 90
      499
 91
      550
 95
       23
 70
     0
 93
      110
310
51B4D14694680051946C5194651B
340
2ED1EA
 94
        0
1001
ACAD
1000
AcRTDxfName
1000
AEC_DISPREPAECDBDISPREPMASSGROUPPLAN100
1000
AcRTDxfName
1000
AEC_DISPREPAECDBDISPREPMASSGROUPPLAN100
1000
AcRTDxfName
1000
AEC_DISPREPAECDBDISPREPMASSGROUPPLAN100
1000
AcRTDxfName
1000
AEC_DISPREPAECDBDISPREPMASSGROUPPLAN100
1000
AcRTDxfName
1000
AEC_DISPREPAECDBDISPREPMASSGROUPPLAN100
1000
AcRTDxfName
1000
AEC_DISPREPAECDBDISPREPMASSGROUPPLAN100
1000
AcRTDxfName
1000
AEC_DISPREPAECDBDISPREPMASSGROUPPLAN100
1000
AcRTDxfName
1000
AEC_DISPREPAECDBDISPREPMASSGROUPPLAN100
1000
AcRTDxfName
1000
AEC_DISPREPAECDBDISPREPMASSGROUPPLAN100
1000
AcRTDxfName
1000
AEC_DISPREPAECDBDISPREPMASSGROUPPLAN100
1000
AcRTDxfName
1000
AEC_DISPREPAECDBDISPREPMASSGROUPPLAN100
1000
AcRTDxfName
1000
AEC_DISPREPAECDBDISPREPMASSGROUPPLAN100
1000
AcRTDxfName
1000
AEC_DISPREPAECDBDISPREPMASSGROUPPLAN100
  0
ACAD_PROXY_OBJECT
  5
2ED1E7
102
{ACAD_REACTORS
330
2ED1C0
102
}
330
2ED1C0
100
AcDbProxyObject
 90
      499
 91
      548
 95
       23
 70
     0
 93
      110
310
51B4D14694680051946C5194651B
340
2ED1E8
 94
        0
1001
ACAD
1000
AcRTDxfName
1000
AEC_DISPREPAECDBDISPREPMASSGROUPPLAN50
1000
AcRTDxfName
1000
AEC_DISPREPAECDBDISPREPMASSGROUPPLAN50
1000
AcRTDxfName
1000
AEC_DISPREPAECDBDISPREPMASSGROUPPLAN50
1000
AcRTDxfName
1000
AEC_DISPREPAECDBDISPREPMASSGROUPPLAN50
1000
AcRTDxfName
1000
AEC_DISPREPAECDBDISPREPMASSGROUPPLAN50
1000
AcRTDxfName
1000
AEC_DISPREPAECDBDISPREPMASSGROUPPLAN50
1000
AcRTDxfName
1000
AEC_DISPREPAECDBDISPREPMASSGROUPPLAN50
1000
AcRTDxfName
1000
AEC_DISPREPAECDBDISPREPMASSGROUPPLAN50
1000
AcRTDxfName
1000
AEC_DISPREPAECDBDISPREPMASSGROUPPLAN50
1000
AcRTDxfName
1000
AEC_DISPREPAECDBDISPREPMASSGROUPPLAN50
1000
AcRTDxfName
1000
AEC_DISPREPAECDBDISPREPMASSGROUPPLAN50
1000
AcRTDxfName
1000
AEC_DISPREPAECDBDISPREPMASSGROUPPLAN50
1000
AcRTDxfName
1000
AEC_DISPREPAECDBDISPREPMASSGROUPPLAN50
  0
ACAD_PROXY_OBJECT
  5
2ED1EB
102
{ACAD_REACTORS
330
2ED1C0
102
}
330
2ED1C0
100
AcDbProxyObject
 90
      499
 91
      551
 95
       23
 70
     0
 93
      110
310
51B4D14694680051946C5194651B
340
2ED1EC
 94
        0
1001
ACAD
1000
AcRTDxfName
1000
AEC_DISP_REP_MASS_GROUP_RCP
1000
AcRTDxfName
1000
AEC_DISP_REP_MASS_GROUP_RCP
1000
AcRTDxfName
1000
AEC_DISP_REP_MASS_GROUP_RCP
1000
AcRTDxfName
1000
AEC_DISP_REP_MASS_GROUP_RCP
1000
AcRTDxfName
1000
AEC_DISP_REP_MASS_GROUP_RCP
1000
AcRTDxfName
1000
AEC_DISP_REP_MASS_GROUP_RCP
1000
AcRTDxfName
1000
AEC_DISP_REP_MASS_GROUP_RCP
1000
AcRTDxfName
1000
AEC_DISP_REP_MASS_GROUP_RCP
1000
AcRTDxfName
1000
AEC_DISP_REP_MASS_GROUP_RCP
1000
AcRTDxfName
1000
AEC_DISP_REP_MASS_GROUP_RCP
1000
AcRTDxfName
1000
AEC_DISP_REP_MASS_GROUP_RCP
1000
AcRTDxfName
1000
AEC_DISP_REP_MASS_GROUP_RCP
1000
AcRTDxfName
1000
AEC_DISP_REP_MASS_GROUP_RCP
  0
ACAD_PROXY_OBJECT
  5
2ED1FA
102
{ACAD_REACTORS
330
2ED1C0
102
}
330
2ED1C0
100
AcDbProxyObject
 90
      499
 91
      565
 95
       23
 70
     0
 93
       90
310
51B4D14694680051946C51BF
340
2ED1FB
 94
        0
1001
ACAD
1000
AcRTDxfName
1000
AEC_DISP_REP_MATERIAL
1000
AcRTDxfName
1000
AEC_DISP_REP_MATERIAL
1000
AcRTDxfName
1000
AEC_DISP_REP_MATERIAL
1000
AcRTDxfName
1000
AEC_DISP_REP_MATERIAL
1000
AcRTDxfName
1000
AEC_DISP_REP_MATERIAL
1000
AcRTDxfName
1000
AEC_DISP_REP_MATERIAL
1000
AcRTDxfName
1000
AEC_DISP_REP_MATERIAL
1000
AcRTDxfName
1000
AEC_DISP_REP_MATERIAL
1000
AcRTDxfName
1000
AEC_DISP_REP_MATERIAL
1000
AcRTDxfName
1000
AEC_DISP_REP_MATERIAL
1000
AcRTDxfName
1000
AEC_DISP_REP_MATERIAL
1000
AcRTDxfName
1000
AEC_DISP_REP_MATERIAL
1000
AcRTDxfName
1000
AEC_DISP_REP_MATERIAL
  0
ACAD_PROXY_OBJECT
  5
2ED1ED
102
{ACAD_REACTORS
330
2ED1C0
102
}
330
2ED1C0
100
AcDbProxyObject
 90
      499
 91
      552
 95
       23
 70
     0
 93
       90
310
51B4D14694680051946C51BF
340
0
 94
        0
1001
ACAD
1000
AcRTDxfName
1000
AEC_DISP_REP_MVBLOCK_REF
1000
AcRTDxfName
1000
AEC_DISP_REP_MVBLOCK_REF
1000
AcRTDxfName
1000
AEC_DISP_REP_MVBLOCK_REF
1000
AcRTDxfName
1000
AEC_DISP_REP_MVBLOCK_REF
1000
AcRTDxfName
1000
AEC_DISP_REP_MVBLOCK_REF
1000
AcRTDxfName
1000
AEC_DISP_REP_MVBLOCK_REF
1000
AcRTDxfName
1000
AEC_DISP_REP_MVBLOCK_REF
1000
AcRTDxfName
1000
AEC_DISP_REP_MVBLOCK_REF
1000
AcRTDxfName
1000
AEC_DISP_REP_MVBLOCK_REF
1000
AcRTDxfName
1000
AEC_DISP_REP_MVBLOCK_REF
1000
AcRTDxfName
1000
AEC_DISP_REP_MVBLOCK_REF
1000
AcRTDxfName
1000
AEC_DISP_REP_MVBLOCK_REF
1000
AcRTDxfName
1000
AEC_DISP_REP_MVBLOCK_REF
  0
ACAD_PROXY_OBJECT
  5
2ED1EE
102
{ACAD_REACTORS
330
2ED1C0
102
}
330
2ED1C0
100
AcDbProxyObject
 90
      499
 91
      553
 95
       23
 70
     0
 93
      100
310
51B4D14694680051946C51946F
340
0
 94
        0
1001
ACAD
1000
AcRTDxfName
1000
AEC_DISP_REP_MVBLOCK_REF_MODEL
1000
AcRTDxfName
1000
AEC_DISP_REP_MVBLOCK_REF_MODEL
1000
AcRTDxfName
1000
AEC_DISP_REP_MVBLOCK_REF_MODEL
1000
AcRTDxfName
1000
AEC_DISP_REP_MVBLOCK_REF_MODEL
1000
AcRTDxfName
1000
AEC_DISP_REP_MVBLOCK_REF_MODEL
1000
AcRTDxfName
1000
AEC_DISP_REP_MVBLOCK_REF_MODEL
1000
AcRTDxfName
1000
AEC_DISP_REP_MVBLOCK_REF_MODEL
1000
AcRTDxfName
1000
AEC_DISP_REP_MVBLOCK_REF_MODEL
1000
AcRTDxfName
1000
AEC_DISP_REP_MVBLOCK_REF_MODEL
1000
AcRTDxfName
1000
AEC_DISP_REP_MVBLOCK_REF_MODEL
1000
AcRTDxfName
1000
AEC_DISP_REP_MVBLOCK_REF_MODEL
1000
AcRTDxfName
1000
AEC_DISP_REP_MVBLOCK_REF_MODEL
1000
AcRTDxfName
1000
AEC_DISP_REP_MVBLOCK_REF_MODEL
  0
ACAD_PROXY_OBJECT
  5
2ED1EF
102
{ACAD_REACTORS
330
2ED1C0
102
}
330
2ED1C0
100
AcDbProxyObject
 90
      499
 91
      554
 95
       23
 70
     0
 93
      100
310
51B4D14694680051946C51946F
340
0
 94
        0
1001
ACAD
1000
AcRTDxfName
1000
AEC_AECDBDISPREPMVBLOCKREFPLAN100
1000
AcRTDxfName
1000
AEC_AECDBDISPREPMVBLOCKREFPLAN100
1000
AcRTDxfName
1000
AEC_AECDBDISPREPMVBLOCKREFPLAN100
1000
AcRTDxfName
1000
AEC_AECDBDISPREPMVBLOCKREFPLAN100
1000
AcRTDxfName
1000
AEC_AECDBDISPREPMVBLOCKREFPLAN100
1000
AcRTDxfName
1000
AEC_AECDBDISPREPMVBLOCKREFPLAN100
1000
AcRTDxfName
1000
AEC_AECDBDISPREPMVBLOCKREFPLAN100
1000
AcRTDxfName
1000
AEC_AECDBDISPREPMVBLOCKREFPLAN100
1000
AcRTDxfName
1000
AEC_AECDBDISPREPMVBLOCKREFPLAN100
1000
AcRTDxfName
1000
AEC_AECDBDISPREPMVBLOCKREFPLAN100
1000
AcRTDxfName
1000
AEC_AECDBDISPREPMVBLOCKREFPLAN100
1000
AcRTDxfName
1000
AEC_AECDBDISPREPMVBLOCKREFPLAN100
1000
AcRTDxfName
1000
AEC_AECDBDISPREPMVBLOCKREFPLAN100
  0
ACAD_PROXY_OBJECT
  5
2ED1F0
102
{ACAD_REACTORS
330
2ED1C0
102
}
330
2ED1C0
100
AcDbProxyObject
 90
      499
 91
      555
 95
       23
 70
     0
 93
      100
310
51B4D14694680051946C51946F
340
0
 94
        0
1001
ACAD
1000
AcRTDxfName
1000
AEC_AECDBDISPREPMVBLOCKREFPLAN50
1000
AcRTDxfName
1000
AEC_AECDBDISPREPMVBLOCKREFPLAN50
1000
AcRTDxfName
1000
AEC_AECDBDISPREPMVBLOCKREFPLAN50
1000
AcRTDxfName
1000
AEC_AECDBDISPREPMVBLOCKREFPLAN50
1000
AcRTDxfName
1000
AEC_AECDBDISPREPMVBLOCKREFPLAN50
1000
AcRTDxfName
1000
AEC_AECDBDISPREPMVBLOCKREFPLAN50
1000
AcRTDxfName
1000
AEC_AECDBDISPREPMVBLOCKREFPLAN50
1000
AcRTDxfName
1000
AEC_AECDBDISPREPMVBLOCKREFPLAN50
1000
AcRTDxfName
1000
AEC_AECDBDISPREPMVBLOCKREFPLAN50
1000
AcRTDxfName
1000
AEC_AECDBDISPREPMVBLOCKREFPLAN50
1000
AcRTDxfName
1000
AEC_AECDBDISPREPMVBLOCKREFPLAN50
1000
AcRTDxfName
1000
AEC_AECDBDISPREPMVBLOCKREFPLAN50
1000
AcRTDxfName
1000
AEC_AECDBDISPREPMVBLOCKREFPLAN50
  0
ACAD_PROXY_OBJECT
  5
2ED1F1
102
{ACAD_REACTORS
330
2ED1C0
102
}
330
2ED1C0
100
AcDbProxyObject
 90
      499
 91
      556
 95
       23
 70
     0
 93
      100
310
51B4D14694680051946C51946F
340
2ED1F2
 94
        0
1001
ACAD
1000
AcRTDxfName
1000
AEC_DISP_REP_POLYGON_MODEL
1000
AcRTDxfName
1000
AEC_DISP_REP_POLYGON_MODEL
1000
AcRTDxfName
1000
AEC_DISP_REP_POLYGON_MODEL
1000
AcRTDxfName
1000
AEC_DISP_REP_POLYGON_MODEL
1000
AcRTDxfName
1000
AEC_DISP_REP_POLYGON_MODEL
1000
AcRTDxfName
1000
AEC_DISP_REP_POLYGON_MODEL
1000
AcRTDxfName
1000
AEC_DISP_REP_POLYGON_MODEL
1000
AcRTDxfName
1000
AEC_DISP_REP_POLYGON_MODEL
1000
AcRTDxfName
1000
AEC_DISP_REP_POLYGON_MODEL
1000
AcRTDxfName
1000
AEC_DISP_REP_POLYGON_MODEL
1000
AcRTDxfName
1000
AEC_DISP_REP_POLYGON_MODEL
1000
AcRTDxfName
1000
AEC_DISP_REP_POLYGON_MODEL
1000
AcRTDxfName
1000
AEC_DISP_REP_POLYGON_MODEL
  0
ACAD_PROXY_OBJECT
  5
2ED1F3
102
{ACAD_REACTORS
330
2ED1C0
102
}
330
2ED1C0
100
AcDbProxyObject
 90
      499
 91
      558
 95
       23
 70
     0
 93
      100
310
51B4D14694680051946C51946F
340
2ED1F4
 94
        0
1001
ACAD
1000
AcRTDxfName
1000
AEC_DISP_REP_POLYGON_TRUECOLOUR
1000
AcRTDxfName
1000
AEC_DISP_REP_POLYGON_TRUECOLOUR
1000
AcRTDxfName
1000
AEC_DISP_REP_POLYGON_TRUECOLOUR
1000
AcRTDxfName
1000
AEC_DISP_REP_POLYGON_TRUECOLOUR
1000
AcRTDxfName
1000
AEC_DISP_REP_POLYGON_TRUECOLOUR
1000
AcRTDxfName
1000
AEC_DISP_REP_POLYGON_TRUECOLOUR
1000
AcRTDxfName
1000
AEC_DISP_REP_POLYGON_TRUECOLOUR
1000
AcRTDxfName
1000
AEC_DISP_REP_POLYGON_TRUECOLOUR
1000
AcRTDxfName
1000
AEC_DISP_REP_POLYGON_TRUECOLOUR
1000
AcRTDxfName
1000
AEC_DISP_REP_POLYGON_TRUECOLOUR
1000
AcRTDxfName
1000
AEC_DISP_REP_POLYGON_TRUECOLOUR
1000
AcRTDxfName
1000
AEC_DISP_REP_POLYGON_TRUECOLOUR
1000
AcRTDxfName
1000
AEC_DISP_REP_POLYGON_TRUECOLOUR
  0
ACAD_PROXY_OBJECT
  5
2ED1F5
102
{ACAD_REACTORS
330
2ED1C0
102
}
330
2ED1C0
100
AcDbProxyObject
 90
      499
 91
      560
 95
       23
 70
     0
 93
       90
310
51B4D14694680051946C51BF
340
2ED1F6
 94
        0
1001
ACAD
1000
AcRTDxfName
1000
AEC_DISP_REP_SLICE
1000
AcRTDxfName
1000
AEC_DISP_REP_SLICE
1000
AcRTDxfName
1000
AEC_DISP_REP_SLICE
1000
AcRTDxfName
1000
AEC_DISP_REP_SLICE
1000
AcRTDxfName
1000
AEC_DISP_REP_SLICE
1000
AcRTDxfName
1000
AEC_DISP_REP_SLICE
1000
AcRTDxfName
1000
AEC_DISP_REP_SLICE
1000
AcRTDxfName
1000
AEC_DISP_REP_SLICE
1000
AcRTDxfName
1000
AEC_DISP_REP_SLICE
1000
AcRTDxfName
1000
AEC_DISP_REP_SLICE
1000
AcRTDxfName
1000
AEC_DISP_REP_SLICE
1000
AcRTDxfName
1000
AEC_DISP_REP_SLICE
1000
AcRTDxfName
1000
AEC_DISP_REP_SLICE
  0
ACAD_PROXY_OBJECT
  5
2ED1C3
102
{ACAD_REACTORS
330
2ED1C2
102
}
330
2ED1C2
100
AcDbProxyObject
 90
      499
 91
      518
 95
       23
 70
     0
 93
     2323
310
51B4D146946800519465194694644F42546946946C7F7FA80D5684A8D28D28D8FEFF501406AD0951A51A51B1FDFEA0355A12A34A34A363FBFD40501AB42546946946C7F7FA80A035684A8D28D28D8FEFF501406AD0951A51A51B1FDFEA0280D5A12A34A34A363FBFD40501AB42546946946C7F7FA80A035684A8D28D28D8FE
310
FF501406AD0951A51A51B1FDFEA0280D5A12A34A34A363FBFD40501AB42546946946C7F7FA80A035684A8D28D28D8FEFF501406AD0951A51A51B1FDFEA0355A12A34A34A363FBFD406AB42546946946C7F7FA80A035684A8D28D28D8FEFF501406AD0951A51A51B1FDFEA0280D4A34A34A34A3203A14A34A34A323FBFD406A
310
946907414E53493133310000000000000E100182D4454FB21E93F00000000000005080A55F
340
F
340
12
340
0
340
F
340
12
340
0
340
F
340
12
340
0
340
F
340
12
340
0
340
F
340
12
340
0
340
F
340
12
340
0
340
F
340
12
340
0
340
F
340
12
340
0
340
F
340
12
340
0
340
F
340
12
340
0
340
F
340
12
340
0
340
F
340
12
340
0
340
F
340
12
340
0
340
F
340
12
340
0
340
F
340
12
340
0
340
F
340
12
340
0
340
F
340
12
340
0
340
F
340
12
340
0
340
F
340
12
340
0
340
F
340
12
340
0
 94
        0
1001
ACAD
1000
AcRTDxfName
1000
AEC_DISP_PROPS_2D_SECTION
1000
AcRTDxfName
1000
AEC_DISP_PROPS_2D_SECTION
1000
AcRTDxfName
1000
AEC_DISP_PROPS_2D_SECTION
1000
AcRTDxfName
1000
AEC_DISP_PROPS_2D_SECTION
1000
AcRTDxfName
1000
AEC_DISP_PROPS_2D_SECTION
1000
AcRTDxfName
1000
AEC_DISP_PROPS_2D_SECTION
1000
AcRTDxfName
1000
AEC_DISP_PROPS_2D_SECTION
1000
AcRTDxfName
1000
AEC_DISP_PROPS_2D_SECTION
1000
AcRTDxfName
1000
AEC_DISP_PROPS_2D_SECTION
1000
AcRTDxfName
1000
AEC_DISP_PROPS_2D_SECTION
1000
AcRTDxfName
1000
AEC_DISP_PROPS_2D_SECTION
1000
AcRTDxfName
1000
AEC_DISP_PROPS_2D_SECTION
1000
AcRTDxfName
1000
AEC_DISP_PROPS_2D_SECTION
  0
ACAD_PROXY_OBJECT
  5
2ED1F2
102
{ACAD_REACTORS
330
2ED1C2
102
}
330
2ED1C2
100
AcDbProxyObject
 90
      499
 91
      557
 95
       23
 70
     0
 93
     1214
310
51B4D146946800519465194694641B42546946946C7F7FA80D5684A8D28D28D8FEFF501AAD0951A51A51B1FDFEA0355A12A34A34A363FBFD406AB4294694694647F7FA80D528D20E829CA6926266620000000000001C200305A88A9F643D27E0000000000000A1014AD0A51A51A5191FDFEA0354A3483A0A729A4989998800
310
000000000070800C16A22A7D90F49F8000000000000284052B
340
F
340
12
340
0
340
F
340
12
340
0
340
F
340
12
340
0
340
F
340
12
340
0
340
F
340
12
340
0
340
F
340
12
340
0
 94
        0
1001
ACAD
1000
AcRTDxfName
1000
AEC_DISP_PROPS_POLYGON_MODEL
1000
AcRTDxfName
1000
AEC_DISP_PROPS_POLYGON_MODEL
1000
AcRTDxfName
1000
AEC_DISP_PROPS_POLYGON_MODEL
1000
AcRTDxfName
1000
AEC_DISP_PROPS_POLYGON_MODEL
1000
AcRTDxfName
1000
AEC_DISP_PROPS_POLYGON_MODEL
1000
AcRTDxfName
1000
AEC_DISP_PROPS_POLYGON_MODEL
1000
AcRTDxfName
1000
AEC_DISP_PROPS_POLYGON_MODEL
1000
AcRTDxfName
1000
AEC_DISP_PROPS_POLYGON_MODEL
1000
AcRTDxfName
1000
AEC_DISP_PROPS_POLYGON_MODEL
1000
AcRTDxfName
1000
AEC_DISP_PROPS_POLYGON_MODEL
1000
AcRTDxfName
1000
AEC_DISP_PROPS_POLYGON_MODEL
1000
AcRTDxfName
1000
AEC_DISP_PROPS_POLYGON_MODEL
1000
AcRTDxfName
1000
AEC_DISP_PROPS_POLYGON_MODEL
  0
ACAD_PROXY_OBJECT
  5
2ED1DE
102
{ACAD_REACTORS
330
2ED1C2
102
}
330
2ED1C2
100
AcDbProxyObject
 90
      499
 91
      542
 95
       23
 70
     0
 93
      908
310
51B4D146946800519465194694640F42546946946C7F7FA80D5684A8D28D28C8FEFF501AAD0A51A51A5191FDFEA0280D4A3483A0A729A4989998800000000000070800C16A22A7D90F49F800000000000028405294651A51902D0951A51A51B1FDFEA0280D5A12A34A34A363FBFD406AA00F
340
F
340
12
340
0
340
F
340
12
340
0
340
F
340
12
340
0
340
F
340
12
340
0
340
F
340
12
340
0
 94
        0
1001
ACAD
1000
AcRTDxfName
1000
AEC_DISPROPSMASSELEMPLANCOMMON
1000
AcRTDxfName
1000
AEC_DISPROPSMASSELEMPLANCOMMON
1000
AcRTDxfName
1000
AEC_DISPROPSMASSELEMPLANCOMMON
1000
AcRTDxfName
1000
AEC_DISPROPSMASSELEMPLANCOMMON
1000
AcRTDxfName
1000
AEC_DISPROPSMASSELEMPLANCOMMON
1000
AcRTDxfName
1000
AEC_DISPROPSMASSELEMPLANCOMMON
1000
AcRTDxfName
1000
AEC_DISPROPSMASSELEMPLANCOMMON
1000
AcRTDxfName
1000
AEC_DISPROPSMASSELEMPLANCOMMON
1000
AcRTDxfName
1000
AEC_DISPROPSMASSELEMPLANCOMMON
1000
AcRTDxfName
1000
AEC_DISPROPSMASSELEMPLANCOMMON
1000
AcRTDxfName
1000
AEC_DISPROPSMASSELEMPLANCOMMON
1000
AcRTDxfName
1000
AEC_DISPROPSMASSELEMPLANCOMMON
1000
AcRTDxfName
1000
AEC_DISPROPSMASSELEMPLANCOMMON
  0
ACAD_PROXY_OBJECT
  5
2ED1D0
102
{ACAD_REACTORS
330
2ED1C2
102
}
330
2ED1C2
100
AcDbProxyObject
 90
      499
 91
      530
 95
       23
 70
     0
 93
      207
310
51B4D146946800519465194694640742546946946C7F7FA80D53
340
F
340
12
340
0
 94
        0
1001
ACAD
1000
AcRTDxfName
1000
AEC_DISP_PROPS_LAYOUT_CURVE
1000
AcRTDxfName
1000
AEC_DISP_PROPS_LAYOUT_CURVE
1000
AcRTDxfName
1000
AEC_DISP_PROPS_LAYOUT_CURVE
1000
AcRTDxfName
1000
AEC_DISP_PROPS_LAYOUT_CURVE
1000
AcRTDxfName
1000
AEC_DISP_PROPS_LAYOUT_CURVE
1000
AcRTDxfName
1000
AEC_DISP_PROPS_LAYOUT_CURVE
1000
AcRTDxfName
1000
AEC_DISP_PROPS_LAYOUT_CURVE
1000
AcRTDxfName
1000
AEC_DISP_PROPS_LAYOUT_CURVE
1000
AcRTDxfName
1000
AEC_DISP_PROPS_LAYOUT_CURVE
1000
AcRTDxfName
1000
AEC_DISP_PROPS_LAYOUT_CURVE
1000
AcRTDxfName
1000
AEC_DISP_PROPS_LAYOUT_CURVE
1000
AcRTDxfName
1000
AEC_DISP_PROPS_LAYOUT_CURVE
1000
AcRTDxfName
1000
AEC_DISP_PROPS_LAYOUT_CURVE
  0
ACAD_PROXY_OBJECT
  5
2ED1E2
102
{ACAD_REACTORS
330
2ED1C2
102
}
330
2ED1C2
100
AcDbProxyObject
 90
      499
 91
      539
 95
       23
 70
     0
 93
      682
310
51B4D146946800519465194694640F42546946946C7F7FA80A035684A8D28D28C8FEFF501AAD0A51A51A5191FDFEA0280D4A3483A0A729A4989998800000000000070800C16A22A7D90F49F8000000000000284052BF
340
F
340
12
340
0
340
F
340
12
340
0
340
F
340
12
340
0
 94
        0
1001
ACAD
1000
AcRTDxfName
1000
AEC_DISP_PROPS_MASS_ELEM_MODEL
1000
AcRTDxfName
1000
AEC_DISP_PROPS_MASS_ELEM_MODEL
1000
AcRTDxfName
1000
AEC_DISP_PROPS_MASS_ELEM_MODEL
1000
AcRTDxfName
1000
AEC_DISP_PROPS_MASS_ELEM_MODEL
1000
AcRTDxfName
1000
AEC_DISP_PROPS_MASS_ELEM_MODEL
1000
AcRTDxfName
1000
AEC_DISP_PROPS_MASS_ELEM_MODEL
1000
AcRTDxfName
1000
AEC_DISP_PROPS_MASS_ELEM_MODEL
1000
AcRTDxfName
1000
AEC_DISP_PROPS_MASS_ELEM_MODEL
1000
AcRTDxfName
1000
AEC_DISP_PROPS_MASS_ELEM_MODEL
1000
AcRTDxfName
1000
AEC_DISP_PROPS_MASS_ELEM_MODEL
1000
AcRTDxfName
1000
AEC_DISP_PROPS_MASS_ELEM_MODEL
1000
AcRTDxfName
1000
AEC_DISP_PROPS_MASS_ELEM_MODEL
1000
AcRTDxfName
1000
AEC_DISP_PROPS_MASS_ELEM_MODEL
  0
ACAD_PROXY_OBJECT
  5
2ED1E4
102
{ACAD_REACTORS
330
2ED1C2
102
}
330
2ED1C2
100
AcDbProxyObject
 90
      499
 91
      546
 95
       23
 70
     0
 93
      302
310
51B4D1469468005194651A51A51902D0951A51A51B1FDFEA0280D5A12A34A34A363FBFD406AB
340
F
340
12
340
0
340
F
340
12
340
0
 94
        0
1001
ACAD
1000
AcRTDxfName
1000
AEC_DISP_PROPS_MASS_GROUP
1000
AcRTDxfName
1000
AEC_DISP_PROPS_MASS_GROUP
1000
AcRTDxfName
1000
AEC_DISP_PROPS_MASS_GROUP
1000
AcRTDxfName
1000
AEC_DISP_PROPS_MASS_GROUP
1000
AcRTDxfName
1000
AEC_DISP_PROPS_MASS_GROUP
1000
AcRTDxfName
1000
AEC_DISP_PROPS_MASS_GROUP
1000
AcRTDxfName
1000
AEC_DISP_PROPS_MASS_GROUP
1000
AcRTDxfName
1000
AEC_DISP_PROPS_MASS_GROUP
1000
AcRTDxfName
1000
AEC_DISP_PROPS_MASS_GROUP
1000
AcRTDxfName
1000
AEC_DISP_PROPS_MASS_GROUP
1000
AcRTDxfName
1000
AEC_DISP_PROPS_MASS_GROUP
1000
AcRTDxfName
1000
AEC_DISP_PROPS_MASS_GROUP
1000
AcRTDxfName
1000
AEC_DISP_PROPS_MASS_GROUP
  0
ACAD_PROXY_OBJECT
  5
2ED1D6
102
{ACAD_REACTORS
330
2ED1C2
102
}
330
2ED1C2
100
AcDbProxyObject
 90
      499
 91
      536
 95
       23
 70
     0
 93
      292
310
51B4D146946800519465194694640B42546946946C7F7FA80D5684A8D28D28D8FEFF501AAF
340
F
340
12
340
0
340
F
340
12
340
0
 94
        0
1001
ACAD
1000
AcRTDxfName
1000
AEC_DISP_PROPS_MASKBLOCK
1000
AcRTDxfName
1000
AEC_DISP_PROPS_MASKBLOCK
1000
AcRTDxfName
1000
AEC_DISP_PROPS_MASKBLOCK
1000
AcRTDxfName
1000
AEC_DISP_PROPS_MASKBLOCK
1000
AcRTDxfName
1000
AEC_DISP_PROPS_MASKBLOCK
1000
AcRTDxfName
1000
AEC_DISP_PROPS_MASKBLOCK
1000
AcRTDxfName
1000
AEC_DISP_PROPS_MASKBLOCK
1000
AcRTDxfName
1000
AEC_DISP_PROPS_MASKBLOCK
1000
AcRTDxfName
1000
AEC_DISP_PROPS_MASKBLOCK
1000
AcRTDxfName
1000
AEC_DISP_PROPS_MASKBLOCK
1000
AcRTDxfName
1000
AEC_DISP_PROPS_MASKBLOCK
1000
AcRTDxfName
1000
AEC_DISP_PROPS_MASKBLOCK
1000
AcRTDxfName
1000
AEC_DISP_PROPS_MASKBLOCK
  0
ACAD_PROXY_OBJECT
  5
2ED1E8
102
{ACAD_REACTORS
330
2ED1C2
102
}
330
2ED1C2
100
AcDbProxyObject
 90
      499
 91
      549
 95
       23
 70
     0
 93
      910
310
51B4D1469468005194651A51A51902D0951A51A51B1FDFEA0355A12A34A34A363FBFD406A94651A51903D0951A51A51B1FDFEA0280D5A14A34A34A323FBFD40501A946907414E53493133310000000000000E100182D4454FB21E93F00000000000005080A5684A8D28D28D8FEFF501AA803
340
F
340
12
340
0
340
F
340
12
340
0
340
F
340
12
340
0
340
F
340
12
340
0
340
F
340
12
340
0
 94
        0
1001
ACAD
1000
AcRTDxfName
1000
AEC_DISPROPSMASSGROUPPLANCOMMON
1000
AcRTDxfName
1000
AEC_DISPROPSMASSGROUPPLANCOMMON
1000
AcRTDxfName
1000
AEC_DISPROPSMASSGROUPPLANCOMMON
1000
AcRTDxfName
1000
AEC_DISPROPSMASSGROUPPLANCOMMON
1000
AcRTDxfName
1000
AEC_DISPROPSMASSGROUPPLANCOMMON
1000
AcRTDxfName
1000
AEC_DISPROPSMASSGROUPPLANCOMMON
1000
AcRTDxfName
1000
AEC_DISPROPSMASSGROUPPLANCOMMON
1000
AcRTDxfName
1000
AEC_DISPROPSMASSGROUPPLANCOMMON
1000
AcRTDxfName
1000
AEC_DISPROPSMASSGROUPPLANCOMMON
1000
AcRTDxfName
1000
AEC_DISPROPSMASSGROUPPLANCOMMON
1000
AcRTDxfName
1000
AEC_DISPROPSMASSGROUPPLANCOMMON
1000
AcRTDxfName
1000
AEC_DISPROPSMASSGROUPPLANCOMMON
1000
AcRTDxfName
1000
AEC_DISPROPSMASSGROUPPLANCOMMON
  0
ACAD_PROXY_OBJECT
  5
2ED1EA
102
{ACAD_REACTORS
330
2ED1C2
102
}
330
2ED1C2
100
AcDbProxyObject
 90
      499
 91
      549
 95
       23
 70
     0
 93
      910
310
51B4D1469468005194651A51A51902D0951A51A51B1FDFEA0355A12A34A34A363FBFD406A94651A51903D0951A51A51B1FDFEA0280D5A14A34A34A323FBFD40501A946907414E53493133310000000000000E100182D4454FB21E93F00000000000005080A5684A8D28D28D8FEFF501AA803
340
F
340
12
340
0
340
F
340
12
340
0
340
F
340
12
340
0
340
F
340
12
340
0
340
F
340
12
340
0
 94
        0
1001
ACAD
1000
AcRTDxfName
1000
AEC_DISPROPSMASSGROUPPLANCOMMON
1000
AcRTDxfName
1000
AEC_DISPROPSMASSGROUPPLANCOMMON
1000
AcRTDxfName
1000
AEC_DISPROPSMASSGROUPPLANCOMMON
1000
AcRTDxfName
1000
AEC_DISPROPSMASSGROUPPLANCOMMON
1000
AcRTDxfName
1000
AEC_DISPROPSMASSGROUPPLANCOMMON
1000
AcRTDxfName
1000
AEC_DISPROPSMASSGROUPPLANCOMMON
1000
AcRTDxfName
1000
AEC_DISPROPSMASSGROUPPLANCOMMON
1000
AcRTDxfName
1000
AEC_DISPROPSMASSGROUPPLANCOMMON
1000
AcRTDxfName
1000
AEC_DISPROPSMASSGROUPPLANCOMMON
1000
AcRTDxfName
1000
AEC_DISPROPSMASSGROUPPLANCOMMON
1000
AcRTDxfName
1000
AEC_DISPROPSMASSGROUPPLANCOMMON
1000
AcRTDxfName
1000
AEC_DISPROPSMASSGROUPPLANCOMMON
1000
AcRTDxfName
1000
AEC_DISPROPSMASSGROUPPLANCOMMON
  0
ACAD_PROXY_OBJECT
  5
2ED1CA
102
{ACAD_REACTORS
330
2ED1C2
102
}
330
2ED1C2
100
AcDbProxyObject
 90
      499
 91
      524
 95
       23
 70
     0
 93
     1107
310
51B4D146946800519465194694642B42546946946C7F7FA80D5684A8D28D28D8FEFF501AAD0951A51A51B1FDFEA0355A12A34A34A363FBFD406AB42546946946C7F7FA80D5684A8D28D28D8FEFF501AAD0951A51A51B1FDFEA0355A12A34A34A363FBFD406AB42546946946C7F7FA80D5684A8D28D28D8FEFF501AA51A5190
310
1D0951A51A51B1FDFEA0355F
340
F
340
12
340
0
340
F
340
12
340
0
340
F
340
12
340
0
340
F
340
12
340
0
340
F
340
12
340
0
340
F
340
12
340
0
340
F
340
12
340
0
340
F
340
12
340
0
340
F
340
12
340
0
340
F
340
12
340
0
340
F
340
12
340
0
 94
        0
1001
ACAD
1000
AcRTDxfName
1000
AEC_DISP_PROPS_CLIP_VOLUME_RESULT
1000
AcRTDxfName
1000
AEC_DISP_PROPS_CLIP_VOLUME_RESULT
1000
AcRTDxfName
1000
AEC_DISP_PROPS_CLIP_VOLUME_RESULT
1000
AcRTDxfName
1000
AEC_DISP_PROPS_CLIP_VOLUME_RESULT
1000
AcRTDxfName
1000
AEC_DISP_PROPS_CLIP_VOLUME_RESULT
1000
AcRTDxfName
1000
AEC_DISP_PROPS_CLIP_VOLUME_RESULT
1000
AcRTDxfName
1000
AEC_DISP_PROPS_CLIP_VOLUME_RESULT
1000
AcRTDxfName
1000
AEC_DISP_PROPS_CLIP_VOLUME_RESULT
1000
AcRTDxfName
1000
AEC_DISP_PROPS_CLIP_VOLUME_RESULT
1000
AcRTDxfName
1000
AEC_DISP_PROPS_CLIP_VOLUME_RESULT
1000
AcRTDxfName
1000
AEC_DISP_PROPS_CLIP_VOLUME_RESULT
1000
AcRTDxfName
1000
AEC_DISP_PROPS_CLIP_VOLUME_RESULT
1000
AcRTDxfName
1000
AEC_DISP_PROPS_CLIP_VOLUME_RESULT
  0
ACAD_PROXY_OBJECT
  5
2ED1EC
102
{ACAD_REACTORS
330
2ED1C2
102
}
330
2ED1C2
100
AcDbProxyObject
 90
      499
 91
      546
 95
       23
 70
     0
 93
      302
310
51B4D1469468005194651A51A51902D0951A51A51B1FDFEA0280D5A12A34A34A363FBFD406AB
340
F
340
12
340
0
340
F
340
12
340
0
 94
        0
1001
ACAD
1000
AcRTDxfName
1000
AEC_DISP_PROPS_MASS_GROUP
1000
AcRTDxfName
1000
AEC_DISP_PROPS_MASS_GROUP
1000
AcRTDxfName
1000
AEC_DISP_PROPS_MASS_GROUP
1000
AcRTDxfName
1000
AEC_DISP_PROPS_MASS_GROUP
1000
AcRTDxfName
1000
AEC_DISP_PROPS_MASS_GROUP
1000
AcRTDxfName
1000
AEC_DISP_PROPS_MASS_GROUP
1000
AcRTDxfName
1000
AEC_DISP_PROPS_MASS_GROUP
1000
AcRTDxfName
1000
AEC_DISP_PROPS_MASS_GROUP
1000
AcRTDxfName
1000
AEC_DISP_PROPS_MASS_GROUP
1000
AcRTDxfName
1000
AEC_DISP_PROPS_MASS_GROUP
1000
AcRTDxfName
1000
AEC_DISP_PROPS_MASS_GROUP
1000
AcRTDxfName
1000
AEC_DISP_PROPS_MASS_GROUP
1000
AcRTDxfName
1000
AEC_DISP_PROPS_MASS_GROUP
  0
ACAD_PROXY_OBJECT
  5
2ED1E0
102
{ACAD_REACTORS
330
2ED1C2
102
}
330
2ED1C2
100
AcDbProxyObject
 90
      499
 91
      542
 95
       23
 70
     0
 93
      908
310
51B4D146946800519465194694640F42546946946C7F7FA80D5684A8D28D28C8FEFF501AAD0A51A51A5191FDFEA0280D4A3483A0A729A4989998800000000000070800C16A22A7D90F49F800000000000028405294651A51902D0951A51A51B1FDFEA0280D5A12A34A34A363FBFD406AA00F
340
F
340
12
340
0
340
F
340
12
340
0
340
F
340
12
340
0
340
F
340
12
340
0
340
F
340
12
340
0
 94
        0
1001
ACAD
1000
AcRTDxfName
1000
AEC_DISPROPSMASSELEMPLANCOMMON
1000
AcRTDxfName
1000
AEC_DISPROPSMASSELEMPLANCOMMON
1000
AcRTDxfName
1000
AEC_DISPROPSMASSELEMPLANCOMMON
1000
AcRTDxfName
1000
AEC_DISPROPSMASSELEMPLANCOMMON
1000
AcRTDxfName
1000
AEC_DISPROPSMASSELEMPLANCOMMON
1000
AcRTDxfName
1000
AEC_DISPROPSMASSELEMPLANCOMMON
1000
AcRTDxfName
1000
AEC_DISPROPSMASSELEMPLANCOMMON
1000
AcRTDxfName
1000
AEC_DISPROPSMASSELEMPLANCOMMON
1000
AcRTDxfName
1000
AEC_DISPROPSMASSELEMPLANCOMMON
1000
AcRTDxfName
1000
AEC_DISPROPSMASSELEMPLANCOMMON
1000
AcRTDxfName
1000
AEC_DISPROPSMASSELEMPLANCOMMON
1000
AcRTDxfName
1000
AEC_DISPROPSMASSELEMPLANCOMMON
1000
AcRTDxfName
1000
AEC_DISPROPSMASSELEMPLANCOMMON
  0
ACAD_PROXY_OBJECT
  5
2ED1F4
102
{ACAD_REACTORS
330
2ED1C2
102
}
330
2ED1C2
100
AcDbProxyObject
 90
      499
 91
      559
 95
       23
 70
     0
 93
      154
310
51B4D1469468005194651BFFFFFFFFFFFD0240BF
 94
        0
1001
ACAD
1000
AcRTDxfName
1000
AEC_DISP_PROPS_POLYGON_TRUECOLOUR
1000
AcRTDxfName
1000
AEC_DISP_PROPS_POLYGON_TRUECOLOUR
1000
AcRTDxfName
1000
AEC_DISP_PROPS_POLYGON_TRUECOLOUR
1000
AcRTDxfName
1000
AEC_DISP_PROPS_POLYGON_TRUECOLOUR
1000
AcRTDxfName
1000
AEC_DISP_PROPS_POLYGON_TRUECOLOUR
1000
AcRTDxfName
1000
AEC_DISP_PROPS_POLYGON_TRUECOLOUR
1000
AcRTDxfName
1000
AEC_DISP_PROPS_POLYGON_TRUECOLOUR
1000
AcRTDxfName
1000
AEC_DISP_PROPS_POLYGON_TRUECOLOUR
1000
AcRTDxfName
1000
AEC_DISP_PROPS_POLYGON_TRUECOLOUR
1000
AcRTDxfName
1000
AEC_DISP_PROPS_POLYGON_TRUECOLOUR
1000
AcRTDxfName
1000
AEC_DISP_PROPS_POLYGON_TRUECOLOUR
1000
AcRTDxfName
1000
AEC_DISP_PROPS_POLYGON_TRUECOLOUR
1000
AcRTDxfName
1000
AEC_DISP_PROPS_POLYGON_TRUECOLOUR
  0
ACAD_PROXY_OBJECT
  5
2ED1F6
102
{ACAD_REACTORS
330
2ED1C2
102
}
330
2ED1C2
100
AcDbProxyObject
 90
      499
 91
      561
 95
       23
 70
     0
 93
      379
310
51B4D146946800519465194694640F42546946946C7F7FA80D5684A8D28D28D8FEFF501AAD0951A51A51B1FDFEA0355F
340
F
340
12
340
0
340
F
340
12
340
0
340
F
340
12
340
0
 94
        0
1001
ACAD
1000
AcRTDxfName
1000
AEC_DISP_PROPS_SLICE
1000
AcRTDxfName
1000
AEC_DISP_PROPS_SLICE
1000
AcRTDxfName
1000
AEC_DISP_PROPS_SLICE
1000
AcRTDxfName
1000
AEC_DISP_PROPS_SLICE
1000
AcRTDxfName
1000
AEC_DISP_PROPS_SLICE
1000
AcRTDxfName
1000
AEC_DISP_PROPS_SLICE
1000
AcRTDxfName
1000
AEC_DISP_PROPS_SLICE
1000
AcRTDxfName
1000
AEC_DISP_PROPS_SLICE
1000
AcRTDxfName
1000
AEC_DISP_PROPS_SLICE
1000
AcRTDxfName
1000
AEC_DISP_PROPS_SLICE
1000
AcRTDxfName
1000
AEC_DISP_PROPS_SLICE
1000
AcRTDxfName
1000
AEC_DISP_PROPS_SLICE
1000
AcRTDxfName
1000
AEC_DISP_PROPS_SLICE
  0
ACAD_PROXY_OBJECT
  5
2ED1E6
102
{ACAD_REACTORS
330
2ED1C2
102
}
330
2ED1C2
100
AcDbProxyObject
 90
      499
 91
      546
 95
       23
 70
     0
 93
      302
310
51B4D1469468005194651A51A51902D0951A51A51B1FDFEA0280D5A12A34A34A363FBFD406AB
340
F
340
12
340
0
340
F
340
12
340
0
 94
        0
1001
ACAD
1000
AcRTDxfName
1000
AEC_DISP_PROPS_MASS_GROUP
1000
AcRTDxfName
1000
AEC_DISP_PROPS_MASS_GROUP
1000
AcRTDxfName
1000
AEC_DISP_PROPS_MASS_GROUP
1000
AcRTDxfName
1000
AEC_DISP_PROPS_MASS_GROUP
1000
AcRTDxfName
1000
AEC_DISP_PROPS_MASS_GROUP
1000
AcRTDxfName
1000
AEC_DISP_PROPS_MASS_GROUP
1000
AcRTDxfName
1000
AEC_DISP_PROPS_MASS_GROUP
1000
AcRTDxfName
1000
AEC_DISP_PROPS_MASS_GROUP
1000
AcRTDxfName
1000
AEC_DISP_PROPS_MASS_GROUP
1000
AcRTDxfName
1000
AEC_DISP_PROPS_MASS_GROUP
1000
AcRTDxfName
1000
AEC_DISP_PROPS_MASS_GROUP
1000
AcRTDxfName
1000
AEC_DISP_PROPS_MASS_GROUP
1000
AcRTDxfName
1000
AEC_DISP_PROPS_MASS_GROUP
  0
ACAD_PROXY_OBJECT
  5
2ED1FB
102
{ACAD_REACTORS
330
2ED1C2
102
}
330
2ED1C2
100
AcDbProxyObject
 90
      499
 91
      566
 95
       23
 70
     0
 93
     1709
310
51B4D146946800519465194694641742546946946C7F7FA80D5684A8D28D28D8FEFF501AAD0951A51A51B1FDFEA0355A12A34A34A363FBFD406AB42546946946C7F7FA80D528D28C81E8528D28D28C8FEFF501AA51A41D05394D24C4CCC40000000000003840060B51153EC87A4FC0000000000001420295A14A34A34A323F
310
BFD406A946907414E53493133310000000000000E100182D4454FB21E93F00000000000005080A568528D28D28C8FEFF501AA51A41D05394D24C4CCC40000000000003840060B51153EC87A4FC00000000000014202957
340
F
340
12
340
0
340
F
340
12
340
0
340
F
340
12
340
0
340
F
340
12
340
0
340
F
340
12
340
0
340
F
340
12
340
0
340
F
340
12
340
0
340
F
340
12
340
0
340
0
340
0
340
0
 94
        0
1001
ACAD
1000
AcRTDxfName
1000
AEC_DISP_PROPS_MATERIAL
1000
AcRTDxfName
1000
AEC_DISP_PROPS_MATERIAL
1000
AcRTDxfName
1000
AEC_DISP_PROPS_MATERIAL
1000
AcRTDxfName
1000
AEC_DISP_PROPS_MATERIAL
1000
AcRTDxfName
1000
AEC_DISP_PROPS_MATERIAL
1000
AcRTDxfName
1000
AEC_DISP_PROPS_MATERIAL
1000
AcRTDxfName
1000
AEC_DISP_PROPS_MATERIAL
1000
AcRTDxfName
1000
AEC_DISP_PROPS_MATERIAL
1000
AcRTDxfName
1000
AEC_DISP_PROPS_MATERIAL
1000
AcRTDxfName
1000
AEC_DISP_PROPS_MATERIAL
1000
AcRTDxfName
1000
AEC_DISP_PROPS_MATERIAL
1000
AcRTDxfName
1000
AEC_DISP_PROPS_MATERIAL
1000
AcRTDxfName
1000
AEC_DISP_PROPS_MATERIAL
  0
ACAD_PROXY_OBJECT
  5
2ED1FD
102
{ACAD_REACTORS
330
2ED1C2
102
}
330
2ED1C2
100
AcDbProxyObject
 90
      499
 91
      568
 95
       23
 70
     0
 93
      753
310
51B4D146946800519465194694641342546946946C7F7FA80D568528D28D28C8FEFF501AA51A41D05394D24C4CCC40000000000003840060B51153EC87A4FC0000000000001420295A12A34A34A363FBFD406AB42546946946C7F7FA80D57F
340
F
340
12
340
0
340
F
340
12
340
0
340
F
340
12
340
0
340
F
340
12
340
0
 94
        0
1001
ACAD
1000
AcRTDxfName
1000
AEC_DISP_PROPS_EDITINPLACEPROFILE_MODEL
1000
AcRTDxfName
1000
AEC_DISP_PROPS_EDITINPLACEPROFILE_MODEL
1000
AcRTDxfName
1000
AEC_DISP_PROPS_EDITINPLACEPROFILE_MODEL
1000
AcRTDxfName
1000
AEC_DISP_PROPS_EDITINPLACEPROFILE_MODEL
1000
AcRTDxfName
1000
AEC_DISP_PROPS_EDITINPLACEPROFILE_MODEL
1000
AcRTDxfName
1000
AEC_DISP_PROPS_EDITINPLACEPROFILE_MODEL
1000
AcRTDxfName
1000
AEC_DISP_PROPS_EDITINPLACEPROFILE_MODEL
1000
AcRTDxfName
1000
AEC_DISP_PROPS_EDITINPLACEPROFILE_MODEL
1000
AcRTDxfName
1000
AEC_DISP_PROPS_EDITINPLACEPROFILE_MODEL
1000
AcRTDxfName
1000
AEC_DISP_PROPS_EDITINPLACEPROFILE_MODEL
1000
AcRTDxfName
1000
AEC_DISP_PROPS_EDITINPLACEPROFILE_MODEL
1000
AcRTDxfName
1000
AEC_DISP_PROPS_EDITINPLACEPROFILE_MODEL
1000
AcRTDxfName
1000
AEC_DISP_PROPS_EDITINPLACEPROFILE_MODEL
  0
ACAD_PROXY_OBJECT
  5
2ED1DA
102
{ACAD_REACTORS
330
2ED1C2
102
}
330
2ED1C2
100
AcDbProxyObject
 90
      499
 91
      539
 95
       23
 70
     0
 93
      682
310
51B4D146946800519465194694640F42546946946C7F7FA80A035684A8D28D28C8FEFF501AAD0A51A51A5191FDFEA0280D4A3483A0A729A4989998800000000000070800C16A22A7D90F49F8000000000000284052BF
340
F
340
12
340
0
340
F
340
12
340
0
340
F
340
12
340
0
 94
        0
1001
ACAD
1000
AcRTDxfName
1000
AEC_DISP_PROPS_MASS_ELEM_MODEL
1000
AcRTDxfName
1000
AEC_DISP_PROPS_MASS_ELEM_MODEL
1000
AcRTDxfName
1000
AEC_DISP_PROPS_MASS_ELEM_MODEL
1000
AcRTDxfName
1000
AEC_DISP_PROPS_MASS_ELEM_MODEL
1000
AcRTDxfName
1000
AEC_DISP_PROPS_MASS_ELEM_MODEL
1000
AcRTDxfName
1000
AEC_DISP_PROPS_MASS_ELEM_MODEL
1000
AcRTDxfName
1000
AEC_DISP_PROPS_MASS_ELEM_MODEL
1000
AcRTDxfName
1000
AEC_DISP_PROPS_MASS_ELEM_MODEL
1000
AcRTDxfName
1000
AEC_DISP_PROPS_MASS_ELEM_MODEL
1000
AcRTDxfName
1000
AEC_DISP_PROPS_MASS_ELEM_MODEL
1000
AcRTDxfName
1000
AEC_DISP_PROPS_MASS_ELEM_MODEL
1000
AcRTDxfName
1000
AEC_DISP_PROPS_MASS_ELEM_MODEL
1000
AcRTDxfName
1000
AEC_DISP_PROPS_MASS_ELEM_MODEL
  0
ACAD_PROXY_OBJECT
  5
2ED1C7
102
{ACAD_REACTORS
330
2ED1C2
102
}
330
2ED1C2
100
AcDbProxyObject
 90
      499
 91
      520
 95
       23
 70
     0
 93
      379
310
51B4D146946800519465194694640F42546946946C7F7FA80D5684A8D28D28D8FEFF501AAD0951A51A51B1FDFEA0355F
340
F
340
12
340
0
340
F
340
12
340
0
340
F
340
12
340
0
 94
        0
1001
ACAD
1000
AcRTDxfName
1000
AEC_DISP_PROPS_CLIP_VOLUME
1000
AcRTDxfName
1000
AEC_DISP_PROPS_CLIP_VOLUME
1000
AcRTDxfName
1000
AEC_DISP_PROPS_CLIP_VOLUME
1000
AcRTDxfName
1000
AEC_DISP_PROPS_CLIP_VOLUME
1000
AcRTDxfName
1000
AEC_DISP_PROPS_CLIP_VOLUME
1000
AcRTDxfName
1000
AEC_DISP_PROPS_CLIP_VOLUME
1000
AcRTDxfName
1000
AEC_DISP_PROPS_CLIP_VOLUME
1000
AcRTDxfName
1000
AEC_DISP_PROPS_CLIP_VOLUME
1000
AcRTDxfName
1000
AEC_DISP_PROPS_CLIP_VOLUME
1000
AcRTDxfName
1000
AEC_DISP_PROPS_CLIP_VOLUME
1000
AcRTDxfName
1000
AEC_DISP_PROPS_CLIP_VOLUME
1000
AcRTDxfName
1000
AEC_DISP_PROPS_CLIP_VOLUME
1000
AcRTDxfName
1000
AEC_DISP_PROPS_CLIP_VOLUME
  0
ACAD_PROXY_OBJECT
  5
2ED1CC
102
{ACAD_REACTORS
330
2ED1C2
102
}
330
2ED1C2
100
AcDbProxyObject
 90
      499
 91
      526
 95
       23
 70
     0
 93
      840
310
51B4D146946800519465194694641742546946946C7F7FA80D568528D28D28C8FEFF501AA51A41D05394D24C4CCC40000000000003840060B51153EC87A4FC0000000000001420295A12A34A34A363FBFD406AB42546946946C7F7FA80D5684A8D28D28D8FEFF501AA00
340
F
340
12
340
0
340
F
340
12
340
0
340
F
340
12
340
0
340
F
340
12
340
0
340
F
340
12
340
0
 94
        0
1001
ACAD
1000
AcRTDxfName
1000
AEC_DISP_PROPS_DISPLAYTHEME
1000
AcRTDxfName
1000
AEC_DISP_PROPS_DISPLAYTHEME
1000
AcRTDxfName
1000
AEC_DISP_PROPS_DISPLAYTHEME
1000
AcRTDxfName
1000
AEC_DISP_PROPS_DISPLAYTHEME
1000
AcRTDxfName
1000
AEC_DISP_PROPS_DISPLAYTHEME
1000
AcRTDxfName
1000
AEC_DISP_PROPS_DISPLAYTHEME
1000
AcRTDxfName
1000
AEC_DISP_PROPS_DISPLAYTHEME
1000
AcRTDxfName
1000
AEC_DISP_PROPS_DISPLAYTHEME
1000
AcRTDxfName
1000
AEC_DISP_PROPS_DISPLAYTHEME
1000
AcRTDxfName
1000
AEC_DISP_PROPS_DISPLAYTHEME
1000
AcRTDxfName
1000
AEC_DISP_PROPS_DISPLAYTHEME
1000
AcRTDxfName
1000
AEC_DISP_PROPS_DISPLAYTHEME
1000
AcRTDxfName
1000
AEC_DISP_PROPS_DISPLAYTHEME
  0
ACAD_PROXY_OBJECT
  5
2ED1CE
102
{ACAD_REACTORS
330
2ED1C2
102
}
330
2ED1C2
100
AcDbProxyObject
 90
      499
 91
      528
 95
       23
 70
     0
 93
      294
310
51B4D1469468005194651A51A51902D0951A51A51B1FDFEA0355A12A34A34A363FBFD406AB
340
F
340
12
340
0
340
F
340
12
340
0
 94
        0
1001
ACAD
1000
AcRTDxfName
1000
AEC_DISP_PROPS_ENT_REF
1000
AcRTDxfName
1000
AEC_DISP_PROPS_ENT_REF
1000
AcRTDxfName
1000
AEC_DISP_PROPS_ENT_REF
1000
AcRTDxfName
1000
AEC_DISP_PROPS_ENT_REF
1000
AcRTDxfName
1000
AEC_DISP_PROPS_ENT_REF
1000
AcRTDxfName
1000
AEC_DISP_PROPS_ENT_REF
1000
AcRTDxfName
1000
AEC_DISP_PROPS_ENT_REF
1000
AcRTDxfName
1000
AEC_DISP_PROPS_ENT_REF
1000
AcRTDxfName
1000
AEC_DISP_PROPS_ENT_REF
1000
AcRTDxfName
1000
AEC_DISP_PROPS_ENT_REF
1000
AcRTDxfName
1000
AEC_DISP_PROPS_ENT_REF
1000
AcRTDxfName
1000
AEC_DISP_PROPS_ENT_REF
1000
AcRTDxfName
1000
AEC_DISP_PROPS_ENT_REF
  0
ACAD_PROXY_OBJECT
  5
2ED1F9
102
{ACAD_REACTORS
330
2ED1C2
102
}
330
2ED1C2
100
AcDbProxyObject
 90
      499
 91
      564
 95
       23
 70
     0
 93
      173
310
51B4D1469468005194651B42546946946C7F7FA80D57
340
F
340
12
340
0
 94
        0
1001
ACAD
1000
AcRTDxfName
1000
AEC_DISP_PROPS_ENT
1000
AcRTDxfName
1000
AEC_DISP_PROPS_ENT
1000
AcRTDxfName
1000
AEC_DISP_PROPS_ENT
1000
AcRTDxfName
1000
AEC_DISP_PROPS_ENT
1000
AcRTDxfName
1000
AEC_DISP_PROPS_ENT
1000
AcRTDxfName
1000
AEC_DISP_PROPS_ENT
1000
AcRTDxfName
1000
AEC_DISP_PROPS_ENT
1000
AcRTDxfName
1000
AEC_DISP_PROPS_ENT
1000
AcRTDxfName
1000
AEC_DISP_PROPS_ENT
1000
AcRTDxfName
1000
AEC_DISP_PROPS_ENT
1000
AcRTDxfName
1000
AEC_DISP_PROPS_ENT
1000
AcRTDxfName
1000
AEC_DISP_PROPS_ENT
1000
AcRTDxfName
1000
AEC_DISP_PROPS_ENT
  0
ACAD_PROXY_OBJECT
  5
2ED1D2
102
{ACAD_REACTORS
330
2ED1C2
102
}
330
2ED1C2
100
AcDbProxyObject
 90
      499
 91
      532
 95
       23
 70
     0
 93
      468
310
51B4D14694680051946519469464134254694694647F7FA80D5684A8D28D28C8FEFF501AAD0951A51A51B1FDFEA0355A12A34A34A363FBFD406A9F
340
F
340
12
340
0
340
F
340
12
340
0
340
F
340
12
340
0
340
F
340
12
340
0
 94
        0
1001
ACAD
1000
AcRTDxfName
1000
AEC_DISP_PROPS_LAYOUT_GRID2D
1000
AcRTDxfName
1000
AEC_DISP_PROPS_LAYOUT_GRID2D
1000
AcRTDxfName
1000
AEC_DISP_PROPS_LAYOUT_GRID2D
1000
AcRTDxfName
1000
AEC_DISP_PROPS_LAYOUT_GRID2D
1000
AcRTDxfName
1000
AEC_DISP_PROPS_LAYOUT_GRID2D
1000
AcRTDxfName
1000
AEC_DISP_PROPS_LAYOUT_GRID2D
1000
AcRTDxfName
1000
AEC_DISP_PROPS_LAYOUT_GRID2D
1000
AcRTDxfName
1000
AEC_DISP_PROPS_LAYOUT_GRID2D
1000
AcRTDxfName
1000
AEC_DISP_PROPS_LAYOUT_GRID2D
1000
AcRTDxfName
1000
AEC_DISP_PROPS_LAYOUT_GRID2D
1000
AcRTDxfName
1000
AEC_DISP_PROPS_LAYOUT_GRID2D
1000
AcRTDxfName
1000
AEC_DISP_PROPS_LAYOUT_GRID2D
1000
AcRTDxfName
1000
AEC_DISP_PROPS_LAYOUT_GRID2D
  0
ACAD_PROXY_OBJECT
  5
2ED1D4
102
{ACAD_REACTORS
330
2ED1C2
102
}
330
2ED1C2
100
AcDbProxyObject
 90
      499
 91
      534
 95
       23
 70
     0
 93
      597
310
51B4D14694680051946519469464134254694694647F7FA80D5684A8D28D28C8FEFF501AAD0951A51A51B1FDFEA0355A12A34A34A363FBFD406A95194694640742546946946C7F7FA80D57
340
F
340
12
340
0
340
F
340
12
340
0
340
F
340
12
340
0
340
F
340
12
340
0
340
F
340
12
340
0
 94
        0
1001
ACAD
1000
AcRTDxfName
1000
AEC_DISP_PROPS_LAYOUT_GRID3D
1000
AcRTDxfName
1000
AEC_DISP_PROPS_LAYOUT_GRID3D
1000
AcRTDxfName
1000
AEC_DISP_PROPS_LAYOUT_GRID3D
1000
AcRTDxfName
1000
AEC_DISP_PROPS_LAYOUT_GRID3D
1000
AcRTDxfName
1000
AEC_DISP_PROPS_LAYOUT_GRID3D
1000
AcRTDxfName
1000
AEC_DISP_PROPS_LAYOUT_GRID3D
1000
AcRTDxfName
1000
AEC_DISP_PROPS_LAYOUT_GRID3D
1000
AcRTDxfName
1000
AEC_DISP_PROPS_LAYOUT_GRID3D
1000
AcRTDxfName
1000
AEC_DISP_PROPS_LAYOUT_GRID3D
1000
AcRTDxfName
1000
AEC_DISP_PROPS_LAYOUT_GRID3D
1000
AcRTDxfName
1000
AEC_DISP_PROPS_LAYOUT_GRID3D
1000
AcRTDxfName
1000
AEC_DISP_PROPS_LAYOUT_GRID3D
1000
AcRTDxfName
1000
AEC_DISP_PROPS_LAYOUT_GRID3D
  0
ACAD_PROXY_OBJECT
  5
2ED1C5
102
{ACAD_REACTORS
330
2ED1C2
102
}
330
2ED1C2
100
AcDbProxyObject
 90
      499
 91
      520
 95
       23
 70
     0
 93
      379
310
51B4D146946800519465194694640F42546946946C7F7FA80D5684A8D28D28D8FEFF501AAD0951A51A51B1FDFEA0355F
340
F
340
12
340
0
340
F
340
12
340
0
340
F
340
12
340
0
 94
        0
1001
ACAD
1000
AcRTDxfName
1000
AEC_DISP_PROPS_CLIP_VOLUME
1000
AcRTDxfName
1000
AEC_DISP_PROPS_CLIP_VOLUME
1000
AcRTDxfName
1000
AEC_DISP_PROPS_CLIP_VOLUME
1000
AcRTDxfName
1000
AEC_DISP_PROPS_CLIP_VOLUME
1000
AcRTDxfName
1000
AEC_DISP_PROPS_CLIP_VOLUME
1000
AcRTDxfName
1000
AEC_DISP_PROPS_CLIP_VOLUME
1000
AcRTDxfName
1000
AEC_DISP_PROPS_CLIP_VOLUME
1000
AcRTDxfName
1000
AEC_DISP_PROPS_CLIP_VOLUME
1000
AcRTDxfName
1000
AEC_DISP_PROPS_CLIP_VOLUME
1000
AcRTDxfName
1000
AEC_DISP_PROPS_CLIP_VOLUME
1000
AcRTDxfName
1000
AEC_DISP_PROPS_CLIP_VOLUME
1000
AcRTDxfName
1000
AEC_DISP_PROPS_CLIP_VOLUME
1000
AcRTDxfName
1000
AEC_DISP_PROPS_CLIP_VOLUME
  0
ACAD_PROXY_OBJECT
  5
2ED1D8
102
{ACAD_REACTORS
330
2ED1C2
102
}
330
2ED1C2
100
AcDbProxyObject
 90
      499
 91
      536
 95
       23
 70
     0
 93
      292
310
51B4D146946800519465194694640B42546946946C7F7FA80D5684A8D28D28D8FEFF501AAF
340
F
340
12
340
0
340
F
340
12
340
0
 94
        0
1001
ACAD
1000
AcRTDxfName
1000
AEC_DISP_PROPS_MASKBLOCK
1000
AcRTDxfName
1000
AEC_DISP_PROPS_MASKBLOCK
1000
AcRTDxfName
1000
AEC_DISP_PROPS_MASKBLOCK
1000
AcRTDxfName
1000
AEC_DISP_PROPS_MASKBLOCK
1000
AcRTDxfName
1000
AEC_DISP_PROPS_MASKBLOCK
1000
AcRTDxfName
1000
AEC_DISP_PROPS_MASKBLOCK
1000
AcRTDxfName
1000
AEC_DISP_PROPS_MASKBLOCK
1000
AcRTDxfName
1000
AEC_DISP_PROPS_MASKBLOCK
1000
AcRTDxfName
1000
AEC_DISP_PROPS_MASKBLOCK
1000
AcRTDxfName
1000
AEC_DISP_PROPS_MASKBLOCK
1000
AcRTDxfName
1000
AEC_DISP_PROPS_MASKBLOCK
1000
AcRTDxfName
1000
AEC_DISP_PROPS_MASKBLOCK
1000
AcRTDxfName
1000
AEC_DISP_PROPS_MASKBLOCK
  0
ACAD_PROXY_OBJECT
  5
2ED1DC
102
{ACAD_REACTORS
330
2ED1C2
102
}
330
2ED1C2
100
AcDbProxyObject
 90
      499
 91
      539
 95
       23
 70
     0
 93
      682
310
51B4D146946800519465194694640F42546946946C7F7FA80A035684A8D28D28C8FEFF501AAD0A51A51A5191FDFEA0280D4A3483A0A729A4989998800000000000070800C16A22A7D90F49F8000000000000284052BF
340
F
340
12
340
0
340
F
340
12
340
0
340
F
340
12
340
0
 94
        0
1001
ACAD
1000
AcRTDxfName
1000
AEC_DISP_PROPS_MASS_ELEM_MODEL
1000
AcRTDxfName
1000
AEC_DISP_PROPS_MASS_ELEM_MODEL
1000
AcRTDxfName
1000
AEC_DISP_PROPS_MASS_ELEM_MODEL
1000
AcRTDxfName
1000
AEC_DISP_PROPS_MASS_ELEM_MODEL
1000
AcRTDxfName
1000
AEC_DISP_PROPS_MASS_ELEM_MODEL
1000
AcRTDxfName
1000
AEC_DISP_PROPS_MASS_ELEM_MODEL
1000
AcRTDxfName
1000
AEC_DISP_PROPS_MASS_ELEM_MODEL
1000
AcRTDxfName
1000
AEC_DISP_PROPS_MASS_ELEM_MODEL
1000
AcRTDxfName
1000
AEC_DISP_PROPS_MASS_ELEM_MODEL
1000
AcRTDxfName
1000
AEC_DISP_PROPS_MASS_ELEM_MODEL
1000
AcRTDxfName
1000
AEC_DISP_PROPS_MASS_ELEM_MODEL
1000
AcRTDxfName
1000
AEC_DISP_PROPS_MASS_ELEM_MODEL
1000
AcRTDxfName
1000
AEC_DISP_PROPS_MASS_ELEM_MODEL
  0
ACAD_PROXY_OBJECT
  5
2ED1BF
102
{ACAD_REACTORS
330
2ED1BE
102
}
330
2ED1BE
100
AcDbProxyObject
 90
      499
 91
      516
 95
       23
 70
     0
 93
     1359
310
51B4D1469468005194651A8FC812095550000000000000B08000000000000008200000000000001807E8F2048329B897233A1723C8120C86EA5C8CE85D0002000012048226189918480B68000000000001607E0000000000002C201FB0FE9B7AF03A67E8C20A4A09014191A9B1021B7B637B9149010101020A2191A9B21082
310
86828882A48690000000000000701FA1E82CAC698C2F2CAE4A6E8C85CC8EECFE8FCC02846002E0041A4E29
330
0
 94
        0
1001
ACAD
1000
AcRTDxfName
1000
AEC_VARS_DWG_SETUP
1000
AcRTDxfName
1000
AEC_VARS_DWG_SETUP
1000
AcRTDxfName
1000
AEC_VARS_DWG_SETUP
1000
AcRTDxfName
1000
AEC_VARS_DWG_SETUP
1000
AcRTDxfName
1000
AEC_VARS_DWG_SETUP
1000
AcRTDxfName
1000
AEC_VARS_DWG_SETUP
1000
AcRTDxfName
1000
AEC_VARS_DWG_SETUP
1000
AcRTDxfName
1000
AEC_VARS_DWG_SETUP
1000
AcRTDxfName
1000
AEC_VARS_DWG_SETUP
1000
AcRTDxfName
1000
AEC_VARS_DWG_SETUP
1000
AcRTDxfName
1000
AEC_VARS_DWG_SETUP
1000
AcRTDxfName
1000
AEC_VARS_DWG_SETUP
1000
AcRTDxfName
1000
AEC_VARS_DWG_SETUP
  0
DICTIONARY
  5
2F6E91
330
619
100
AcDbDictionary
280
     1
281
     1
  3
ACAD_XREC_ROUNDTRIP
360
2F6E92
  0
DICTIONARY
  5
1B39E4
330
61A
100
AcDbDictionary
280
     1
281
     1
  3
ACAD_XREC_ROUNDTRIP
360
2F6E93
  3
ADSK_XREC_LAYOUTTHUMBNAIL
360
1B39E5
  0
DICTIONARY
  5
2F02A1
330
2F02A0
100
AcDbDictionary
280
     1
281
     1
  3
ACAD_XREC_ROUNDTRIP
360
2F6E83
  3
BUMPTILE
360
2F02A3
  3
DIFFUSETILE
360
2F02A2
  3
OPACITYTILE
360
2F02A6
  3
REFLECTIONTILE
360
2F02A5
  3
REFRACTIONTILE
360
2F02A7
  3
SPECULARTILE
360
2F02A4
  0
DICTIONARY
  5
2F0299
330
2F0298
100
AcDbDictionary
280
     1
281
     1
  3
ACAD_XREC_ROUNDTRIP
360
2F6E82
  3
BUMPTILE
360
2F029B
  3
DIFFUSETILE
360
2F029A
  3
OPACITYTILE
360
2F029E
  3
REFLECTIONTILE
360
2F029D
  3
REFRACTIONTILE
360
2F029F
  3
SPECULARTILE
360
2F029C
  0
DICTIONARY
  5
2F02A9
330
2F02A8
100
AcDbDictionary
280
     1
281
     1
  3
ACAD_XREC_ROUNDTRIP
360
2F6E84
  3
BUMPTILE
360
2F02AB
  3
DIFFUSETILE
360
2F02AA
  3
OPACITYTILE
360
2F02AE
  3
REFLECTIONTILE
360
2F02AD
  3
REFRACTIONTILE
360
2F02AF
  3
SPECULARTILE
360
2F02AC
  0
DICTIONARY
  5
2F02D3
330
2F02C3
100
AcDbDictionary
280
     1
281
     1
  3
ACAD_ROUNDTRIP_2008_TABLESTYLE_CELLSTYLEMAP
360
2F6E8F
  3
ACAD_XREC_ROUNDTRIP
360
2F6E96
  0
XRECORD
  5
2F6E92
102
{ACAD_REACTORS
330
2F6E91
102
}
330
2F6E91
100
AcDbXrecord
280
     1
102
SHADEPLOT
 70
     1
102
SHADEPLOTRESLEVEL
 70
     2
102
SHADEPLOTCUSTOMDPI
 70
   300
  0
XRECORD
  5
2F6E93
102
{ACAD_REACTORS
330
1B39E4
102
}
330
1B39E4
100
AcDbXrecord
280
     1
102
SHADEPLOT
 70
     0
102
SHADEPLOTRESLEVEL
 70
     2
102
SHADEPLOTCUSTOMDPI
 70
   300
  0
XRECORD
  5
1B39E5
102
{ACAD_REACTORS
330
1B39E4
102
}
330
1B39E4
100
AcDbXrecord
280
     1
310
28000000B40000008B0000000100080000000000BC61000000000000000000000001000000000000FFFFFF0000000000FFFFFF000000000000000000000000000000000000000000000000000000000000000000330000006600000099000000CC000000FF00000000330000333300006633000099330000CC330000FF3300
310
0000660000336600006666000099660000CC660000FF66000000990000339900006699000099990000CC990000FF99000000CC000033CC000066CC000099CC0000CCCC0000FFCC000000FF000033FF000066FF000099FF0000CCFF0000FFFF000000003300330033006600330099003300CC003300FF003300003333003333
310
33006633330099333300CC333300FF33330000663300336633006666330099663300CC663300FF66330000993300339933006699330099993300CC993300FF99330000CC330033CC330066CC330099CC3300CCCC3300FFCC330000FF330033FF330066FF330099FF3300CCFF3300FFFF330000006600330066006600660099
310
006600CC006600FF00660000336600333366006633660099336600CC336600FF33660000666600336666006666660099666600CC666600FF66660000996600339966006699660099996600CC996600FF99660000CC660033CC660066CC660099CC6600CCCC6600FFCC660000FF660033FF660066FF660099FF6600CCFF6600
310
FFFF660000009900330099006600990099009900CC009900FF00990000339900333399006633990099339900CC339900FF33990000669900336699006666990099669900CC669900FF66990000999900339999006699990099999900CC999900FF99990000CC990033CC990066CC990099CC9900CCCC9900FFCC990000FF99
310
0033FF990066FF990099FF9900CCFF9900FFFF99000000CC003300CC006600CC009900CC00CC00CC00FF00CC000033CC003333CC006633CC009933CC00CC33CC00FF33CC000066CC003366CC006666CC009966CC00CC66CC00FF66CC000099CC003399CC006699CC009999CC00CC99CC00FF99CC0000CCCC0033CCCC0066CC
310
CC0099CCCC00CCCCCC00FFCCCC0000FFCC0033FFCC0066FFCC0099FFCC00CCFFCC00FFFFCC000000FF003300FF006600FF009900FF00CC00FF00FF00FF000033FF003333FF006633FF009933FF00CC33FF00FF33FF000066FF003366FF006666FF009966FF00CC66FF00FF66FF000099FF003399FF006699FF009999FF00CC
310
99FF00FF99FF0000CCFF0033CCFF0066CCFF0099CCFF00CCCCFF00FFCCFF0000FFFF0033FFFF0066FFFF0099FFFF00CCFFFF00FFFFFF00000000000D0D0D001A1A1A00282828003535350043434300505050005D5D5D006B6B6B00787878008686860093939300A1A1A100AEAEAE00BBBBBB00C9C9C900D6D6D600E4E4E400
310
F1F1F100FFFFFF0000000000000000000000000000000000000000000000000000000000000000000000000000000000E2E2E2E2E2E2E2E2E2E2E2E2E2E2E2E2E2E2E2E2E2E2E2E2E2E2E2E2E2E2E2E2E2E2E2E2E2E2E2E2E2E2E2E2E2E2E2E2E2E2E2E2E2E2E2E2E2E2E2E2E2E2E2E2E2E2E2E2E2E2E2E2E2E2E2E2E2E2E2
310
E2E2E2E2E2E2E2E2E2E2E2E2E2E2E2E2E2E2E2E2E2E2E2E2E2E2E2E2E2E2E2E2E2E2E2E2E2E2E2E2E2E2E2E2E2E2E2E2E2E2E2E2E2E2E2E2E2E2E2E2E2E2E2E2E2E2E2E2E2E2E2E2E2E2E2E2E2E2E2E2E2E2E2E2E2E2E2E2E2E2E2E2E2E2E2E2E2E2E2E2EFE2F5F5F5F5F5F5F5F5F5F5F5F5F5F5F5F5F5F5F5F5F5F5F5F5F5
310
F5F5F5F5F5F5F5F5F5F5F5F5F5F5F5F5F5F5F5F5F5F5F5F5F5F5F5F5F5F5F5F5F5F5F5F5F5F5F5F5F5F5F5F5F5F5F5F5F5F5F5F5F5F5F5F5F5F5F5F5F5F5F5F5F5F5F5F5F5F5F5F5F5F5F5F5F5F5F5F5F5F5F5F5F5F5F5F5F5F5F5F5F5F5F5F5F5F5F5F5F5F5F5F5F5F5F5F5F5F5F5F5F5F5F5F5F5F5F5F5F5F5F5F5F5F5F5
310
F5F5F5F5F5F5F5F5F5F5F5F5F5F5F5F5F5F5F5F5F5F5F5F5E2E2EFE2F5F5F5F5F5F5F5F5F5F5F5F5F5F5F5F5F5F5F5F5F5F5F5F5F5F5F5F5F5F5F5F5F5F5F5F5F5F5F5F5F5F5F5F5F5F5F5F5F5F5F5F5F5F5F5F5F5F5F5F5F5F5F5F5F5F5F5F5F5F5F5F5F5F5F5F5F5F5F5F5F5F5F5F5F5F5F5F5F5F5F5F5F5F5F5F5F5F5F5
310
F5F5F5F5F5F5F5F5F5F5F5F5F5F5F5F5F5F5F5F5F5F5F5F5F5F5F5F5F5F5F5F5F5F5F5F5F5F5F5F5F5F5F5F5F5F5F5F5F5F5F5F5F5F5F5F5F5F5F5F5F5F5F5F5F5F5F5F5F5F5F5F5F5F5F5F5F5E2E2EFE2F5F5F5F5F5F5F5F5F5F5F5F5F5F5F5F5F5F5F5F5F5F5F5F5F5F5F5F5F5F5F5F5F5F5F5F5F5F5F5F5F5F5F5F5F5F5
310
F5F5F5F5F5F5F5F5F5F5F5F5F5F5F5F5F5F5F5F5F5F5F5F5F5F5F5F5F5F5F5F5F5F5F5F5F5F5F5F5F5F5F5F5F5F5F5F5F5F5F5F5F5F5F5F5F5F5F5F5F5F5F5F5F5F5F5F5F5F5F5F5F5F5F5F5F5F5F5F5F5F5F5F5F5F5F5F5F5F5F5F5F5F5F5F5F5F5F5F5F5F5F5F5F5F5F5F5F5F5F5F5F5F5F5F5F5F5F5F5F5F5F5F5F5F5F5
310
F5F5F5E2E2EFE2F5F5F5E2E2E2E2E2E2E2E2F5F5F5F5F5F5F5F5F5E2E2E2E2E2E2E2E2E2E2E2E2E2E2E2F5F5F5F5F5F5F5F5F5E2E2E2E2E2E2E2E2E2E2E2E2E2E2E2E2F5F5F5F5F5F5F5F5E2E2E2E2E2E2E2E2E2E2E2E2E2E2E2E2F5F5F5F5F5F5F5F5E2E2E2E2E2E2E2E2E2E2E2E2E2E2E2E2F5F5F5F5F5F5F5F5E2E2E2E2
310
E2E2E2E2E2E2E2E2E2E2E2E2F5F5F5F5F5F5F5F5F5E2E2E2E2E2E2E2E2E2E2E2E2E2E2E2F5F5F5F5F5F5F5F5F5E2E2E2E2E2E2E2E2F5F5F5E2E2EFE2F5F5F5E2F5F5F5F5F5F5F5F5F5F5F5F5F5F5F5F5F5F5F5F5F5F5F5F5F5F5F5F5F5F5F5F5F5F5F5F5F5F5F5F5F5F5F5F5F5F5F5F5F5F5F5F5F5F5F5F5F5F5F5F5F5F5F5
310
F5F5F5F5F5F5F5F5F5F5F5F5F5F5F5F5F5F5F5F5F5F5F5F5F5F5F5F5F5F5F5F5F5F5F5F5F5F5F5F5F5F5F5F5F5F5F5F5F5F5F5F5F5F5F5F5F5F5F5F5F5F5F5F5F5F5F5F5F5F5F5F5F5F5F5F5F5F5F5F5F5F5F5F5F5F5F5F5F5F5F5F5F5F5F5F5F5F5F5F5F5F5F5F5F5E2F5F5F5E2E2EFE2F5F5F5E2F5F5F5F5F5F5F5F5F5F5
310
F5F5F5F5F5F5F5F5F5F5F5F5F5F5F5F5F5F5F5F5F5F5F5F5F5F5F5F5F5F5F5F5F5F5F5F5F5F5F5F5F5F5F5F5F5F5F5F5F5F5F5F5F5F5F5F5F5F5F5F5F5F5F5F5F5F5F5F5F5F5F5F5F5F5F5F5F5F5F5F5F5F5F5F5F5F5F5F5F5F5F5F5F5F5F5F5F5F5F5F5F5F5F5F5F5F5F5F5F5F5F5F5F5F5F5F5F5F5F5F5F5F5F5F5F5F5F5
310
F5F5F5F5F5F5F5F5F5F5F5F5F5F5F5F5F5F5F5F5F5F5F5F5F5F5F5F5F5F5F5E2F5F5F5E2E2EFE2F5F5F5E2F5F5F5F5F5F5F5F5F5F5F5F5F5F5F5F5F5F5F5F5F5F5F5F5F5F5F5F5F5F5F5F5F5F5F5F5F5F5F5F5F5F5F5F5F5F5F5F5F5F5F5F5F5F5F5F5F5F5F5F5F5F5F5F5F5F5F5F5F5F5F5F5F5F5F5F5F5F5F5F5F5F5F5F5
310
F5F5F5F5F5F5F5F5F5F5F5F5F5F5F5F5F5F5F5F5F5F5F5F5F5F5F5F5F5F5F5F5F5F5F5F5F5F5F5F5F5F5F5F5F5F5F5F5F5F5F5F5F5F5F5F5F5F5F5F5F5F5F5F5F5F5F5F5F5F5F5F5F5F5F5F5F5F5F5F5F5F5F5F5E2F5F5F5E2E2EFE2F5F5F5E2F5F5F5F5F5F5F5F5F5F5F5F5F5F5F5F5F5F5F5F5F5F5F5F5F5F5F5F5F5F5F5
310
F5F5F5F5F5F5F5F5F5F5F5F5F5F5F5F5F5F5F5F5F5F5F5F5F5F5F5F5F5F5F5F5F5F5F5F5F5F5F5F5F5F5F5F5F5F5F5F5F5F5F5F5F5F5F5F5F5F5F5F5F5F5F5F5F5F5F5F5F5F5F5F5F5F5F5F5F5F5F5F5F5F5F5F5F5F5F5F5F5F5F5F5F5F5F5F5F5F5F5F5F5F5F5F5F5F5F5F5F5F5F5F5F5F5F5F5F5F5F5F5F5F5F5F5F5F5F5
310
F5F5F5F5F5F5F5F5F5F5E2F5F5F5E2E2EFE2F5F5F5E2F5F5F5F5F5F5F5F5F5F5F5F5F5F5F5F5F5F5F5F5F5F5F5F5F5F5F5F5F5F5F5F5F5F5F5F5F5F5F5F5F5F5F5F5F5F5F5F5F5F5F5F5F5F5F5F5F5F5F5F5F5F5F5F5F5F5F5F5F5F5F5F5F5F5F5F5F5F5F5F5F5F5F5F5F5F5F5F5F5F5F5F5F5F5F5F5F5F5F5F5F5F5F5F5F5
310
F5F5F5F5F5F5F5F5F5F5F5F5F5F5F5F5F5F5F5F5F5F5F5F5F5F5F5F5F5F5F5F5F5F5F5F5F5F5F5F5F5F5F5F5F5F5F5F5F5F5F5F5F5F5F5F5F5F5F5F5F5F5F5E2F5F5F5E2E2EFE2F5F5F5E2F5F5F5F5F5F5F5F5F5F5F5F5F5F5F5F5F5F5F5F5F5F5F5F5F5F5F5F5F5F5F5F5F5F5F5F5F5F5F5F5F5F5F5F5F5F5F5F5F5F5F5F5
310
F5F5F5F5F5F5F5F5F5F5F5F5F5F5F5F5F5F5F5F5F5F5F5F5F5F5F5F5F5F5F5F5F5F5F5F5F5F5F5F5F5F5F5F5F5F5F5F5F5F5F5F5F5F5F5F5F5F5F5F5F5F5F5F5F5F5F5F5F5F5F5F5F5F5F5F5F5F5F5F5F5F5F5F5F5F5F5F5F5F5F5F5F5F5F5F5F5F5F5F5F5F5F5F5F5F5F5F5F5F5F5F5F5F5F5F5E2F5F5F5E2E2EFE2F5F5F5
310
E2F5F5F5F5F5F5F5F5F5F5F5F5F5F5F5F5F5F5F5F5F5F5F5F5F5F5F5F5F5F5F5F5F5F5F5F5F5F5F5F5F5F5F5F5F5F5F5F5F5F5F5F5F5F5F5F5F5F5F5F5F5F5F5F5F5F5F5F5F5F5F5F5F5F5F5F5F5F5F5F5F5F5F5F5F5F5F5F5F5F5F5F5F5F5F5F5F5F5F5F5F5F5F5F5F5F5F5F5F5F5F5F5F5F5F5F5F5F5F5F5F5F5F5F5F5F5
310
F5F5F5F5F5F5F5F5F5F5F5F5F5F5F5F5F5F5F5F5F5F5F5F5F5F5F5F5F5F5F5F5F5F5F5F5F5F5F5F5F5F5E2F5F5F5E2E2EFE2F5F5F5E2F5F5F5F5F5F5F5F5F5F5F5F5F5F5F5F5F5F5F5F5F5F5F5F5F5F5F5F5F5F5F5F5F5F5F5F5F5F5F5F5F5F5F5F5F5F5F5F5F5F5F5F5F5F5F5F5F5F5F5F5F5F5F5F5F5F5F5F5F5F5F5F5F5
310
F5F5F5F5F5F5F5F5F5F5F5F5F5F5F5F5F5F5F5F5F5F5F5F5F5F5F5F5F5F5F5F5F5F5F5F5F5F5F5F5F5F5F5F5F5F5F5F5F5F5F5F5F5F5F5F5F5F5F5F5F5F5F5F5F5F5F5F5F5F5F5F5F5F5F5F5F5F5F5F5F5F5F5F5F5F5F5F5F5F5F5F5F5F5F5E2F5F5F5E2E2EFE2F5F5F5F5F5F5F5F5F5F5F5F5F5F5F5F5F5F5F5F5F5F5F5F5
310
F5F5F5F5F5F5F5F5F5F5F5F5F5F5F5F5F5F5F5F5F5F5F5F5F5F5F5F5F5F5F5F5F5F5F5F5F5F5F5F5F5F5F5F5F5F5F5F5F5F5F5F5F5F5F5F5F5F5F5F5F5F5F5F5F5F5F5F5F5F5F5F5F5F5F5F5F5F5F5F5F5F5F5F5F5F5F5F5F5F5F5F5F5F5F5F5F5F5F5F5F5F5F5F5F5F5F5F5F5F5F5F5F5F5F5F5F5F5F5F5F5F5F5F5F5F5F5
310
F5F5F5F5F5F5F5F5F5F5F5F5F5F5F5F5F5F5F5F5F5F5F5F5F5E2E2EFE2F5F5F5F5F5F5F5F5F5F5F5F5F5F5F5F5F5F5F5F5F5F5F5F5F5F5F5F5F5F5F5F5F5F5F5F5F5F5F5F5F5F5F5F5F5F5F5F5F5F5F5F5F5F5F5F5F5F5F5F5F5F5F5F5F5F5F5F5F5F5F5F5F5F5F5F5F5F5F5F5F5F5F5F5F5F5F5F5F5F5F5F5F5F5F5F5F5F5
310
F5F5F5F5F5F5F5F5F5F5F5F5F5F5F5F5F5F5F5F5F5F5F5F5F5F5F5F5F5F5F5F5F5F5F5F5F5F5F5F5F5F5F5F5F5F5F5F5F5F5F5F5F5F5F5F5F5F5F5F5F5F5F5F5F5F5F5F5F5F5F5F5F5F5F5F5F5F5E2E2EFE2F5F5F5F5F5F5F5F5F5F5F5F5F5F5F5F5F5F5F5F5F5F5F5F5F5F5F5F5F5F5F5F5F5F5F5F5F5F5F5F5F5F5F5F5F5
310
F5F5F5F5F5F5F5F5F5F5F5F5F5F5F5F5F5F5F5F5F5F5F5F5F5F5F5F5F5F5F5F5F5F5F5F5F5F5F5F5F5F5F5F5F5F5F5F5F5F5F5F5F5F5F5F5F5F5F5F5F5F5F5F5F5F5F5F5F5F5F5F5F5F5F5F5F5F5F5F5F5F5F5F5F5F5F5F5F5F5F5F5F5F5F5F5F5F5F5F5F5F5F5F5F5F5F5F5F5F5F5F5F5F5F5F5F5F5F5F5F5F5F5F5F5F5F5
310
F5F5F5F5E2E2EFE2F5F5F5F5F5F5F5F5F5F5F5F5F5F5F5F5F5F5F5F5F5F5F5F5F5F5F5F5F5F5F5F5F5F5F5F5F5F5F5F5F5F5F5F5F5F5F5F5F5F5F5F5F5F5F5F5F5F5F5F5F5F5F5F5F5F5F5F5F5F5F5F5F5F5F5F5F5F5F5F5F5F5F5F5F5F5F5F5F5F5F5F5F5F5F5F5F5F5F5F5F5F5F5F5F5F5F5F5F5F5F5F5F5F5F5F5F5F5F5
310
F5F5F5F5F5F5F5F5F5F5F5F5F5F5F5F5F5F5F5F5F5F5F5F5F5F5F5F5F5F5F5F5F5F5F5F5F5F5F5F5F5F5F5F5F5F5F5F5F5F5F5F5F5F5F5F5F5E2E2EFE2F5F5F5F5F5F5F5F5F5F5F5F5F5F5F5F5F5F5F5F52D2D2D2D2D2D2D2D2D2D2D2D2D2D2D2D2D2D2D2D2D2D2D2D2D2D2D2D2D2D2D2D2D2D2D2D2D2D2D2D2D2D2D2D2D2D
310
2D2D2D2D2D2D2D2D2D2D2D2D2D2D2D2D2D2D2D2D2D2D2D2D2D2D2D2D2D2D2D2D2D2D2D2D2D2D2D2D2D2D2D2D2D2D2D2D2D2D2D2D2D2D2D2D2D2D2D2D2D2D2D2D2D2D2D2D2D2D2D2D2D2D2D2D2D2D2D2D2D2D2D2D2D2D2D2D2D2DF5F5F5F5F5F5F5F5F5F5F5F5F5F5F5F5F5F5F5F5E2E2EFE2F5F5F5F5F5F5F5F5F5F5F5F5F5
310
F5F5F5F5F5F5F52DF5F5F5F5F5F5F5F5F5F5F5F5F5F5F5F5F5F5F5F5F5F5F5F5F5F5F5F5F5F5F5F5F5F5F5F5F5F5F5F5F5F5F5F5F5F5F5F5F5F5F5F5F5F5F5F5F5F5F5F5F5F5F5F5F5F5F5F5F5F5F5F5F5F5F5F5F5F5F5F5F5F5F5F5F5F5F5F5F5F5F5F5F5F5F5F5F5F5F5F5F5F5F5F5F5F5F5F5F5F5F5F5F5F5F5F5F5F5F5
310
F5F5F5F5F5F5F5F5F5F5F5F5F5F5F52DF5F5F5F5F5F5F5F5F5F5F5F5F5F5F5F5F5F5F5F5E2E2EFE2F5F5F5F5F5F5F5F5F5F5F5F5F5F5F5F5F5F5F5F52DF5F5F5F5F5F5F5F5F5F5F5F5F5F5F5F5F5F5F5F5F5F5F5F5F5F5F5F5F5F5F5F5F5F5F5F5F5F5F5F5F5F5F5F5F5F5F5F5F5F5F5F5F5F5F5F5F5F5F5F5F5F5F5F5F5F5
310
F5F5F5F5F5F5F5F5F5F5F5F5F5F5F5F5F5F5F5F5F5F5F5F5F5F5F5F5F5F5F5F5F5F5F5F5F5F5F5F5F5F5F5F5F5F5F5F5F5F5F5F5F5F5F5F5F5F5F5F5F5F5F5F5F5F5F5F52DF5F5F5F5F5F5F5F5F5F5F5F5F5F5F5F5F5F5F5F5E2E2EFE2F5F5F5F5F5F5F5F5F5F5F5F5F5F5F5F5F5F5F5F52DF5F5F5F5F5F5F5F5F5F5F5F5F5
310
F5F5F5F5F5F5F5F5F5F5F5F5F5F5F5F5F5F5F5F5F5F5F5F5F5F5F5F5F5F5F5F5F5F5F5F5F5F5F5F5F5F5F5F5F5F5F5F5F5F5F5F5F5F5F5F5F5F5F5F5F5F5F5F5F5F5F5F5F5F5F5F5F5F5F5F5F5F5F5F5F5F5F5F5F5F5F5F5F5F5F5F5F5F5F5F5F5F5F5F5F5F5F5F5F5F5F5F5F5F5F5F5F5F5F5F5F5F5F5F5F52DF5F5F5F5F5
310
F5F5F5F5F5F5F5F5F5F5F5F5F5F5F5E2E2EFE2F5F5F5F5F5F5F5F5F5F5F5F5F5F5F5F5F5F5F5F52DF5F5F5F5F5F5F5F5F5F5F5F5F5F5F5F5F5F5F5F5F5F5F5F5F5F5F5F5F5F5F5F5F5F5F5F5F5F5F5F5F5F5F5F5F5F5F5F5F5F5F5F5F5F5F5F5F5F5F5F5F5F5F5F5F5F5F5F5F5F5F5F5F5F5F5F5F5F5F5F5F5F5F5F5F5F5F5
310
F5F5F5F5F5F5F5F5F5F5F5F5F5F5F5F5F5F5F5F5F5F5F5F5F5F5F5F5F5F5F5F5F5F5F5F5F5F5F5F5F5F5F5F5F5F5F52DF5F5F5F5F5F5F5F5F5F5F5F5F5F5F5F5F5F5F5F5E2E2EFE2F5F5F5E2F5F5F5F5F5F5F5F5F5F5F5F5F5F5F5F52DF5F5F5F5F5F5F5F5F5F5F5F5F5F5F5F5F5F5F5F5F5F5F5F5F5F5F5F5F5F5F5F5F5F5
310
F5F5F5F5F5F5F5F5F5F5F5F5F5F5F5F5F5F5F5F5F5F5F5F5F5F5F5F5F5F5F5F5F5F5F5F5F5F5F5F5F5F5F5F5F5F5F5F5F5F5F5F5F5F5F5F5F5F5F5F5F5F5F5F5F5F5F5F5F5F5F5F5F5F5F5F5F5F5F5F5F5F5F5F5F5F5F5F5F5F5F5F5F5F5F5F5F5F5F5F52DF5F5F5F5F5F5F5F5F5F5F5F5F5F5F5F5E2F5F5F5E2E2EFE2F5F5
310
F5E2F5F5F5F5F5F5F5F5F5F5F5F5F5F5F5F52DF5F5F5F5F5F5F5F5F5F5F5F5F5F5F5F5F5F5F5F5F5F5F5F5F5F5F5F5F5F5F5F5F5F5F5F5F5F5F5F5F5F5F5F5F5F5F5F5F5F5F5F5F5F5F5F5F5F5F5F5F5F5F5F5F5F5F5F5F5F5F5F5F5F5F5F5F5F5F5F5F5F5F5F5F5F5F5F5F5F5F5F5F5F5F5F5F5F5F5F5F5F5F5F5F5F5F5F5
310
F5F5F5F5F5F5F5F5F5F5F5F5F5F5F5F5F5F5F5F5F5F5F5F5F5F52DF5F5F5F5F5F5F5F5F5F5F5F5F5F5F5F5E2F5F5F5E2E2EFE2F5F5F5E2F5F5F5F5F5F5F5F5F5F5F5F5F5F5F5F52DF5F5F5F5F5F5F5F5F5F5F5F5F5F5F5F5F5F5F5F5F5F5F5F5F5F5F5F5F5F5F5F5F5F5F5F5F5F5F5F5F5F5F5F5F5F5F5F5F5F5F5F5F5F5F5
310
F5F5F5F5F5F5F5F5F5F5F5F5F5F5F5F5F5F5F5F5F5F5F5F5F5F5F5F5F5F5F5F5F5F5F5F5F5F5F5F5F5F5F5F5F5F5F5F5F5F5F5F5F5F5F5F5F5F5F5F5F5F5F5F5F5F5F5F5F5F5F5F5F5F5F5F5F5F5F52DF5F5F5F5F5F5F5F5F5F5F5F5F5F5F5F5E2F5F5F5E2E2EFE2F5F5F5E2F5F5F5F5F5F5F5F5F5F5F5F5F5F5F5F52DF5F5
310
F5F5F5F5F5F5F5F5F5F5F5F5F5F5F5F5F5F5F5F5F5F5F5F5F5F5F5F5F5F5F5F5F5F5F5F5F5F5F5F5F5F5F5F5F5F5F5F5F5F5F5F5F5F5F5F5F5F5F5F5F5F5F5F5F5F5F5F5F5F5F5F5F5F5F5F5F5F5F5F5F5F5F5F5F5F5F5F5F5F5F5F5F5F5F5F5F5F5F5F5F5F5F5F5F5F5F5F5F5F5F5F5F5F5F5F5F5F5F5F5F5F5F5F5F5F5F5
310
F5F5F5F5F52DF5F5F5F5F5F5F5F5F5F5F5F5F5F5F5F5E2F5F5F5E2E2EFE2F5F5F5E2F5F5F5F5F5F5F5F5F5F5F5F5F5F5F5F52DF5F5F5F5F5F5F5F5F5F5F5F5F5F5F5F5F5F5F5F5F5F5F5F5F5F5F5F5F5F5F5F5F5F5F5F5F5F5F5F5F5F5F5F5F5F5F5F5F5F5F5F5F5F5F5F5F5F5F5F5F5F5F5F5F5F5F5F5F5F5F5F5F5F5F5F5
310
F5F5F5F5F5F5F5F5F5F5F5F5F5F5F5F5F5F5F5F5F5F5F5F5F5F5F5F5F5F5F5F5F5F5F5F5F5F5F5F5F5F5F5F5F5F5F5F5F5F5F5F5F5F5F5F5F5F52DF5F5F5F5F5F5F5F5F5F5F5F5F5F5F5F5E2F5F5F5E2E2EFE2F5F5F5E2F5F5F5F5F5F5F5F5F5F5F5F5F5F5F5F52DF5F5F5F5F5F5F5F5F5F5F5F5F5F5F5F5F5F5F5F5F5F5F5
310
F5F5F5F5F5F5F5F5F5F5F5F5F5F5F5F5F5F5F5F5F5F5F5F5F5F5F5F5F5F5F5F5F5F5F5F5F5F5F5F5F5F5F5F5F5F5F5F5F5F5F5F5F5F5F5F5F5F5F5F5F5F5F5F5F5F5F5F5F5F5F5F5F5F5F5F5F5F5F5F5F5F5F5F5F5F5F5F5F5F5F5F5F5F5F5F5F5F5F5F5F5F5F5F5F5F5F5F5F5F5F52DF5F5F5F5F5F5F5F5F5F5F5F5F5F5F5
310
F5E2F5F5F5E2E2EFE2F5F5F5E2F5F5F5F5F5F5F5F5F5F5F5F5F5F5F5F52DF5F5F5F5F5F5F5F5F5F5F5F5F5F5F5F5F5F5F5F5F5F5F5F5F5F5F5F5F5F5F5F5F5F5F5F5F5F5F5F5F5F5F5F5F5F5F5F5F5F5F5F5F5F5F5F5F5F5F5F5F5F5F5F5F5F5F5F5F5F5F5F5F5F5F5F5F5F5F5F5F5F5F5F5F5F5F5F5F5F5F5F5F5F5F5F5F5
310
F5F5F5F5F5F5F5F5F5F5F5F5F5F5F5F5F5F5F5F5F5F5F5F5F5F5F5F5F5F5F5F5F5F5F5F5F52DF5F5F5F5F5F5F5F5F5F5F5F5F5F5F5F5E2F5F5F5E2E2EFE2F5F5F5E2F5F5F5F5F5F5F5F5F5F5F5F5F5F5F5F52DF5F5F5F5F5F5F5F5F5F5F5F5F5F5F5F5F5F5F5F5F5F5F5F5F5F5F5F5F5F5F5F5F5F5F5F5F5F5F5F5F5F5F5F5
310
F5F5F5F5F5F5F5F5F5F5F5F5F5F5F5F5F5F5F5F5F5F5F5F5F5F5F5F5F5F5F5F5F5F5F5F5F5F5F5F5F5F5F5F5F5F5F5F5F5F5F5F5F5F5F5F5F5F5F5F5F5F5F5F5F5F5F5F5F5F5F5F5F5F5F5F5F5F5F5F5F5F5F5F5F5F5F5F5F5F52DF5F5F5F5F5F5F5F5F5F5F5F5F5F5F5F5E2F5F5F5E2E2EFE2F5F5F5E2F5F5F5F5F5F5F5F5
310
F5F5F5F5F5F5F5F52DF5F5F5F5F5F5F5F5F5F5F5F5F5F5F5F5F5F5F5F5F5F5F5F5F5F5F5F5F5F5F5F5F5F5F5F5F5F5F5F5F5F5F5F5F5F5F5F5F5F5F5F5F5F5F5F5F5F5F5F5F5F5F5F5F5F5F5F5F5F5F5F5F5F5F5F5F5F5F5F5F5F5F5F5F5F5F5F5F5F5F5F5F5F5F5F5F5F5F5F5F5F5F5F5F5F5F5F5F5F5F5F5F5F5F5F5F5F5
310
F5F5F5F5F5F5F5F5F5F5F5F5F5F5F5F52DF5F5F5F5F5F5F5F5F5F5F5F5F5F5F5F5E2F5F5F5E2E2EFE2F5F5F5E2F5F5F5F5F5F5F5F5F5F5F5F5F5F5F5F52DF5F5F5F5F5F5F5F5F5F5F5F5F5F5F5F5F5F5F5F5F5F5F5F5F5F5F5F5F5F5F5F5F5F5F5F5F5F5F5F5F5F5F5F5F5F5F5F5F5F5F5F5F5F5F5F5F5F5F5F5F5F5F5F5F5
310
F5F5F5F5F5F5F5F5F5F5E2E2E2C3E2ECE2F5F5F5C3C3E2E2E2F5F5F5F5F5F5F5F5F5F5F5F5F5F5F5F5F5F5F5F5F5F5F5F5F5F5F5F5F5F5F5F5F5F5F5F5F5F5F5F5F5F5F5F52DF5F5F5F5F5F5F5F5F5F5F5F5F5F5F5F5E2F5F5F5E2E2EFE2F5F5F5E2F5F5F5F5F5F5F5F5F5F5F5F5F5F5F5F52DF5F5F5F5F5F5F5F5F5F5F5F5
310
F5F5F5F5F5F5F5F5F5F5F5F5F5F5F5F5F5F5F5F5F5F5F5F5F5F5F5F5F5F5F5F5F5F5F5F5F5F5F5F5F5F5F5F5F5F5F5F5F5F5F5F5F5F5F5F5F5F5F5F5F5F5F5C3E2ECC3E2ECE2F5F5F5C3C3E2E2E2F5F5F5F5F5F5F5F5F5F5F5F5F5F5F5F5F5F5F5F5F5F5F5F5F5F5F5F5F5F5F5F5F5F5F5F5F5F5F5F5F5F5F5F52DF5F5F5F5
310
F5F5F5F5F5F5F5F5F5F5F5F5E2F5F5F5E2E2EFE2F5F5F5E2F5F5F5F5F5F5F5F5F5F5F5F5F5F5F5F52DF5F5F5F5F5F5F5F5F5F5F5F5F5F5F5F5F5F5F5F5F5F5F5F5F5F5F5F5F5F5F5F5F5F5F5F5F5F5F5F5F5F5F5F5F5F5F5F5F5F5F5F5F5F5F5F5F5F5F5F5F5F5F5F5F5F5F5F5F5F5F5F5F5F5F5C3C3C3C3E2E2C3F5F5F5C3
310
E2E22DC3F5F5F5F5F5F5F5F5F5F5F5F5F5F5F5F5F5F5F5F5F5F5F5F5F5F5F5F5F5F5F5F5F5F5F5F5F5F5F5F5F5F5F5F52DF5F5F5F5F5F5F5F5F5F5F5F5F5F5F5F5E2F5F5F5E2E2EFE2F5F5F5E2F5F5F5F5F5F5F5F5F5F5F5F5F5F5F5F52DF5F5F5F5F5F5F5F5F5F5F5F5F5F5F5F5F5F5F5F5F5F5F5F5F5F5F5F5F5F5F5F5F5
310
F5F5F5F5F5F5F5F5F5F5F5F5F5F5F5F5F5F5F5F5F5F5F5F5F5F5F5F5F5F5F5F5F5F5F5F5F5F5F5F5F5F5C3E2E2C30F0FC3F5F5F5C3C3E2C3C3F5F5F5F5F5F5C3E2E2F5F5F5F5F5F5F5F5F5F5F5F5F5F5F5F5F5F5F5F5F5F5F5F5F5F5F5F5F5F5F5F5F5F5F52DF5F5F5F5F5F5F5F5F5F5F5F5F5F5F5F5E2F5F5F5E2E2EFE2F5
310
F5F5E2F5F5F5F5F5F5F5F5F5F5F5F5F5F5F5F52DF5F5F5F5F5F5F5F5F5F5F5F5F5F5F5F5F5F5F5F5F5F5F5F5F5F5F5F5F5F5F5F5F5F5F5F5F5F5F5F5F5F5F5F5F5F5F5F5F5F5F5F5F5F5F5F5F5F5F5F5F5F5F5F5F5F5F5F5F5F5F5F5F5F5F5C3E2E2C3ECE2ECF5F5F5F5F5F5F5F5F5F5F5F5F5C3C3E2E2F5F5F5F5F5F5F5F5
310
F5F5F5F5F5F5F5F5F5F5F5F5F5F5F5F5F5F5F5F5F5F5F5F5F5F5F52DF5F5F5F5F5F5F5F5F5F5F5F5F5F5F5F5E2F5F5F5E2E2EFE2F5F5F5E2F5F5F5F5F5F5F5F5F5F5F5F5F5F5F5F52DF5F5F5F5F5F5F5F5F5F5F5F5F5F5F5F5F5F5F5F5F5F5F5F5F5F5F5F5F5F5F5F5F5F5F5F5F5F5F5F5F5F5F5F5F5F5F5F5F5F5F5F5F5F5
310
F5F5F5F5F5F5F5F5F5F5F5F5F5F5F5F5F5F5F5F5F5E2ECECC3E2ECE2F5F5F5F5BE2DECF52D2DF5E2F5F5C3C3C3F5F5F5F5F5F5F5F5F5F5F5F5F5F5F5F5F5F5F5F5F5F5F5F5F5F5F5F5F5F5F5F5F5F5F52DF5F5F5F5F5F5F5F5F5F5F5F5F5F5F5F5E2F5F5F5E2E2EFE2F5F5F5E2F5F5F5F5F5F5F5F5F5F5F5F5F5F5F5F52DF5
310
F5F5F5F5F5F5F5F5F5F5F5F5F5F5F5F5F5F5F5F5F5F5F5F5F5F5F5F5F5F5F5F5F5F5F5F5F5F5F5F5F5F5F5F5F5F5F5F5F5F5F5F5F5F5F5F5F5F5F5F5F5F5F5F5F5F5F5F5F5F5F5F5F5F5E2E2E2E2E2E2C3F5F5F5C32DE22D2D2DEC2DE2F5F5ECDCF5F5F5F5F5F5F5F5F5F5F5F5F5F5F5F5F5F5F5F5F5F5F5F5F5F5F5F5F5F5
310
F5F5F5F5F5F52DF5F5F5F5F5F5F5F5F5F5F5F5F5F5F5F5E2F5F5F5E2E2EFE2F5F5F5E2F5F5F5F5F5F5F5F5F5F5F5F5F5F5F5F52DF5F5F5F5F5F5F5F5F5F5F5F5F5F5F5F5F5F5F5F5F5F5F5F5F5F5F5F5F5F5F5F5F5F5F5F5F5F5F5F5F5F5F5F5F5F5F5F5F5F5F5F5F5F5F5F5F5F5F5F5F5F5F5F5F5F5F5F5F5F5F5F5F5F5F5
310
E2E2E2E2E2E2C3F5F5F5E2BE2DF5F5F5F5F5E2F5F5C3E2E2F5F5F5F5F5F5F5F5F5F5F5F5F5F5F5F5F5F5F5F5F5F5F5F5F5F5F5F5F5F5F5F5F5F5F52DF5F5F5F5F5F5F5F5F5F5F5F5F5F5F5F5E2F5F5F5E2E2EFE2F5F5F5F5F5F5F5F5F5F5F5F5F5F5F5F5F5F5F5F52DF5F5F5F5F5F5F5F5F5F5F5F5F5F5F5F5F5F5F5F5F5F5
310
F5F5F5F5F5F5F5F5F5F5F5F5F5F5F5F5F5F5F5F5F5F5F5F5F5F5F5F5F5F5F5F5F5F5F5F5F5F5F5F5F5F5F5F5E22DE2E2ECE2E2F5F5E22D2DC32D2DC3F5F5F5F5F52DF5F5F5F52D2D2D2DC3E2E2F5F5F5F5F5F5F5F5F5F5F5F5F5F5F5F5F5F5F5F5F5F5F5F5F5F5F5F5F5F5F5F5F5F5F52DF5F5F5F5F5F5F5F5F5F5F5F5F5F5
310
F5F5F5F5F5F5E2E2EFE2F5F5F5F5F5F5F5F5F5F5F5F5F5F5F5F5F5F5F5F52DF5F5F5F5F5F5F5F5F5F5F5F5F5F5F5F5F5F5F5F5F5F5F5F5F5F5F5F5F5F5F5F5F5F5F5F5F5F5F5F5F5F5F5F5F5F5F5F5F5F5F5F5F5F5F5F5F5F5F5F5F5F5F5F5F5F52DBEC3C3E22DE2F5F5E2E2E2E2F5F5E2F5F5F5F5F5F5F5E2E2E2BE2DE2BE
310
C3E2E2F5F5F5F5F5F5F5F5F5F5F5F5F5F5F5F5F5F5F5F5F5F5F5F5F5F5F5F5F5F5F5F5F5F5F52DF5F5F5F5F5F5F5F5F5F5F5F5F5F5F5F5F5F5F5F5E2E2EFE2F5F5F5F5F5F5F5F5F5F5F5F5F5F5F5F5F5F5F5F52DF5F5F5F5F5F5F5F5F5F5F5F5F5F5F5F5F5F5F5F5F5F5F5F5F5F5F5F5F5F5F5F5F5F5F5F5F5F5F5F5F5F5F5
310
F5F5F5F5F5F5F5F5F5F5F5F5F5F5F5F5F5F5F5F5F5F5F5F5F5F5F5F5F5F5F5F5F5F5F5F5F5F5F5F5F5F5F5F5F5F52DE2E2F5F5F5F5C3E22DF5F5F5F5F5F5F5F5F5F5F5F5F5F5F5F5F5F5F5F5F5F5F5F5F5F5F5F5F5F5F5F5F5F5F52DF5F5F5F5F5F5F5F5F5F5F5F5F5F5F5F5F5F5F5F5E2E2EFE2F5F5F5F5F5F5F5F5F5F5F5
310
F5F5F5F5F5F5F5F5F52DF5F5F5F5F5F5F5F5F5F5F5F5F5F5F5F5F5F5F5F5F5F5F5F5F5F5F5F5F5F5F5F5F5F5F5F5F5F5F5F5F5F5F5F5F5F5F5F5F5F5F5F5F5F5F5F5F5F5F5F5F5F5F5F5F5F5F5F5F5F5F5F5F5F5F5F5F5F5F5F5F5F5F5F5F5F5F5F5F5F5F5BE28F5F5F5F5F5F5F5F5F5F5F5F5F5F5F5F5F5F5F5F5F5F5F5F5
310
F5F5F5F5F5F5F5F5F5F5F5F5F5F5F5F5F52DF5F5F5F5F5F5F5F5F5F5F5F5F5F5F5F5F5F5F5F5E2E2EFE2F5F5F5F5F5F5F5F5F5F5F5F5F5F5F5F5F5F5F5F52DF5F5F5F5F5F5F5F5F5F5F5F5F5F5F5F5F5F5F5F5F5F5F5F5F5F5F5F5F5F5F5F5F5F5F5F5F5F5F5F5F5F5F5F5F5F5F5F5F5F5F5F5F5F5F5F5F5F5F5F5F5F5F5F5
310
F5F5F5BEE2E2E2F5F5F5ECC3C3C3C3C3C3F5F5F5F5F5F5F5F5F5F52D2DF5F5F5F5F5F5F5F5F5F5F5F5F5F5F5F5F5F5F5F5F5F5F5F5F5F5F5F5F5F5F5F5F5F5F5F5F5F5F5F5F52DF5F5F5F5F5F5F5F5F5F5F5F5F5F5F5F5F5F5F5F5E2E2EFE2F5F5F5F5F5F5F5F5F5F5F5F5F5F5F5F5F5F5F5F52DF5F5F5F5F5F5F5F5F5F5F5
310
F5F5F5F5F5F5F5F5F5F5F5F5F5F5F5F5F5F5F5F5F5F5F5F5F5F5F5F5F5F5F5F5F5F5F5F5F5F5F5F5F5F5F5F5F5F5F5F5F5F5F5F5F5F5F5E2ECE2E2E22D2D2DECE2E2E2E2E2C3F5F5F5F5F5F5F5F5F5F5E2E2F5F5F5F5F5F5F5F5F5F5F5F5F5F5F5F5F5F5F5F5F5F5F5F5F5F5F5F5F5F5F5F5F5F5F5F5F5F5F5F5F52DF5F5F5
310
F5F5F5F5F5F5F5F5F5F5F5F5F5F5F5F5F5E2E2EFE2F5F5F5F5F5F5F5F5F5F5F5F5F5F5F5F5F5F5F5F52DF5F5F5F5F5F5F5F5F5F5F5F5F5F5F5F5F5F5F5F5F5F5F5F5F5F5F5F5F5F5F5F5F5F5F5F5F5F5F5F5F5F5F5F5F5F5F5F5F5F5F5F5F5F5F5F5F5F5F5F5F5F5F5F5F5F5E2ECE2E2ECE22D2DECE2E2ECE2E2C3F5F5F5F5
310
F5F5F5F5F5F5E2E2F5F5F5F5F5F5F5F5F5F5F5F5F5F5F5F5F5F5F5F5F5F5F5F5F5F5F5F5F5F5F5F5F5F5F5F5F5F5F5F5F52DF5F5F5F5F5F5F5F5F5F5F5F5F5F5F5F5F5F5F5F5E2E2EFE2F5F5F5F5F5F5F5F5F5F5F5F5F5F5F5F5F5F5F5F52DF5F5F5F5F5F5F5F5F5F5F5F5F5F5F5F5F5F5F5F5F5F5F5F5F5F5F5F5F5F5F5F5
310
F5F5F5F5F5F5F5F5F5F5F5F5F5F5F5F5F5F5F5F5F5F5F5F5F5F5F5F5F5F5F5F5F5F52D2DE2ECECF5C3ECECE2E2E2E2E2C3F5F5F5F5F5F5F5F5F5F5BE28F5F5F5F5F5F5F5F5F5F5F5F5F5F5F5F5F5F5F5F5F5F5F5F5F5F5F5F5F5F5F5F5F5F5F5F5F5F5F5F5F52DF5F5F5F5F5F5F5F5F5F5F5F5F5F5F5F5F5F5F5F5E2E2EFE2
310
F5F5F5F5F5F5F5F5F5F5F5F5F5F5F5F5F5F5F5F52DF5F5F5F5F5F5F5F5F5F5F5F5F5F5F5F5F5F5F5F5F5F5F5F5F5F5F5F5F5F5F5F5F5F5F5F5F5F5F5F5F5F5F5F5F5F5F5F5F5F5F5F5F5F5F5F5F5F5F5F5F5F5F5F5F5F52D2DE22D2DF5F5F5ECE2E2E2C3E2E2F5F5F5F5F5F5F5F5F5F5F5F5F5F5F5F5F5F5F5F5F5F5F5F5F5
310
F5F5F5F5F5F5F5F5F5F5F5F5F5F5F5F5F5F5F5F5F5F5F5F5F5F5F5F52DF5F5F5F5F5F5F5F5F5F5F5F5F5F5F5F5F5F5F5F5E2E2EFE2F5F5F5E2F5F5F5F5F5F5F5F5F5F5F5F5F5F5F5F52DF5F5F5F5F5F5F5F5F5F5F5F5F5F5F5F5F5F5F5F5F5F5F5F5F5F5F5F5F5F5F5F5F5F5F5F5F5F5F5F5F5F5F5F5F5F5F5F5F5F5F5F5F5
310
F5F5F5F5F5F5F5F5F5F5F5F5E22DE2E2E2F5BE362DECECECECECECECE2E2ECF5F5F5F5F5F5F5F5F5F5F5F5F5F5F5F5F5F5F5F5F5F5F5F5F5F5F5F5F5F5F5F5F5F5F5F5F5F5F5F5F5F5F5F5F5F5F5F5F5F52DF5F5F5F5F5F5F5F5F5F5F5F5F5F5F5F5E2F5F5F5E2E2EFE2F5F5F5E2F5F5F5F5F5F5F5F5F5F5F5F5F5F5F5F52D
310
F5F5F5F5F5F5F5F5F5F5F5F5F5F5F5F5F5F5F5F5F5F5F5F5F5F5F5F5F5F5F5F5F5F5F5F5F5F5F5F5F5F5F5F5F5F5F5F5F5F5F5F5F5F5F5F5F5F5F5F5F5F5F5F5F5E22DE2E2ECE2BE2DE22DE2C3ECEC28ECECECECF5F5F5F5F5F5F5F5F5F5F5F5F5F5F5F5F5F5F5F5F5F5F5F5F5F5F5F5F5F5F5F5F5F5F5F5F5F5F5F5F5F5F5
310
F5F5F5F5F5F5F52DF5F5F5F5F5F5F5F5F5F5F5F5F5F5F5F5E2F5F5F5E2E2EFE2F5F5F5E2F5F5F5F5F5F5F5F5F5F5F5F5F5F5F5F52DF5F5F5F5F5F5F5F5F5F5F5F5F5F5F5F5F5F5F5F5F5F5F5F5F5F5F5F5F5F5F5F5F5F5F5F5F5F5F5F5F5F5F5F5F5F5F5F5F5F5F5F5F5F5F5F5F5F5F5F5F5F5F5F5F5E2E2E22DE2E22D2DE2
310
E2E2C3ECECEC2DE2E2C3F5F5F5F5F5F5F5F5F5F5F5F5F5F5F5F5F5F5F5F5F5F5F5F5F5F5F5F5F5F5F5F5F5F5F5F5F5F5F5F5F5F5F5F5F5F5F5F5F5F52DF5F5F5F5F5F5F5F5F5F5F5F5F5F5F5F5E2F5F5F5E2E2EFE2F5F5F5E2F5F5F5F5F5F5F5F5F5F5F5F5F5F5F5F52DF5F5F5F5F5F5F5F5F5F5F5F5F5F5F5F5F5F5F5F5F5
310
F5F5F5F5F5F5F5F5F5F5F5F5F5F5F5F5F5F5F5F5F5F5F5F5F5F5F5F5F5F5F5F5F5F5F5F5F5F5F5F5F5F5F5F5E2E22DECE2F5F5F5ECE22DC3E2ECE2E2282DE2F5F5F5F5F5F5F5F5F5F5F5F5F5F5F5F5F5F5F5F5F5F5F5F5F5F5F5F5F5F5F5F5F5F5F5F5F5F5F5F5F5F5F5F5F5F5F5F5F5F52DF5F5F5F5F5F5F5F5F5F5F5F5F5
310
F5F5F5E2F5F5F5E2E2EFE2F5F5F5E2F5F5F5F5F5F5F5F5F5F5F5F5F5F5F5F52DF5F5F5F5F5F5F5F5F5F5F5F5F5F5F5F5F5F5F5F5F5F5F5F5F5F5F5F5F5F5F5F5F5F5F5F5F5F5F5F5F5F5F5F5F5F5F5F5F5F5F5F5F5F5F5F5F5F5F5F5F5F5F5F5F5E2E2E2F5F5F5F5F5F5F5F5F5F5ECECECE22DE2F5F5F5F5F5F5F5F5F5F5F5
310
F5F5F5F5F5F5F5F5F5F5F5F5F5F5F5F5F5F5F5F5F5F5F5F5F5F5F5F5F5F5F5F5F5F5F5F5F5F5F52DF5F5F5F5F5F5F5F5F5F5F5F5F5F5F5F5E2F5F5F5E2E2EFE2F5F5F5E2F5F5F5F5F5F5F5F5F5F5F5F5F5F5F5F52DF5F5F5F5F5F5F5F5F5F5F5F5F5F5F5F5F5F5F5F5F5F5F5F5F5F5F5F5F5F5F5F5F5F5F5F5F5F5F5F5F5F5
310
F5F5F5F5F5F5F5F5F5F5F5F5F5F5F5F5F5F5F5F5F5F5F5F5F5F5F5F5F5F5F5F5F5F5F5F5F5F5F5F5F5F5F5F5F5F5F5F5F5F5F5F5F5F5F5F5F5F5F5F5F5F5F5F5F5F5F5F5F5F5F5F5F5F5F5F5F5F5F5F5F5F5F5F5F5F5F5F5F5F5F5F52DF5F5F5F5F5F5F5F5F5F5F5F5F5F5F5F5E2F5F5F5E2E2EFE2F5F5F5E2F5F5F5F5F5F5
310
F5F5F5F5F5F5F5F5F5F52DF5F5F5F5F5F5F5F5F5F5F5F5F5F5F5F5F5F5F5F5F5F5F5F5F5F5F5F5F5F5F5F5F5F5F5F5F5F5F5F5F5F5F5F5F5F5F5F5F5F5F5F5F5F5F5F5F5F5F5F5F5F5F5F5F5F5F5F5F5F5F5F5F5F5F5F5F5F5F5F5F5F5F5F5F5F5F5F5F5F5F5F5F5F5F5F5F5F5F5F5F5F5F5F5F5F5F5F5F5F5F5F5F5F5F5F5
310
F5F5F5F5F5F5F5F5F5F5F5F5F5F5F5F5F5F52DF5F5F5F5F5F5F5F5F5F5F5F5F5F5F5F5E2F5F5F5E2E2EFE2F5F5F5E2F5F5F5F5F5F5F5F5F5F5F5F5F5F5F5F52DF5F5F5F5F5F5F5F5F5F5F5F5F5F5F5F5F5F5F5F5F5F5F5F5F5F5F5F5F5F5F5F5F5F5F5F5F5F5F5F5F5F5F5F5F5F5F5F5F5F5F5F5F5F5F5F5F5F5F5F5F5F5F5
310
F5F5F5F5F5F5F5F5F5F5F5F5F5F5F5F5F5F5F5F5F5F5F5F5F5F5F5F5F5F5F5F5F5F5F5F5F5F5F5F5F5F5F5F5F5F5F5F5F5F5F5F5F5F5F5F5F5F5F5F5F5F5F5F5F5F5F5F5F5F5F52DF5F5F5F5F5F5F5F5F5F5F5F5F5F5F5F5E2F5F5F5E2E2EFE2F5F5F5E2F5F5F5F5F5F5F5F5F5F5F5F5F5F5F5F52DF5F5F5F5F5F5F5F5F5F5
310
F5F5F5F5F5F5F5F5F5F5F5F5F5F5F5F5F5F5F5F5F5F5F5F5F5F5F5F5F5F5F5F5F5F5F5F5F5F5F5F5F5F5F5F5F5F5F5F5F5F5F5F5F5F5F5F5F5F5F5F5F5F5F5F5F5F5F5F5F5F5F5F5F5F5F5F5F5F5F5F5F5F5F5F5F5F5F5F5F5F5F5F5F5F5F5F5F5F5F5F5F5F5F5F5F5F5F5F5F5F5F5F5F5F5F5F5F5F5F5F5F5F5F5F52DF5F5
310
F5F5F5F5F5F5F5F5F5F5F5F5F5F5E2F5F5F5E2E2EFE2F5F5F5E2F5F5F5F5F5F5F5F5F5F5F5F5F5F5F5F52DF5F5F5F5F5F5F5F5F5F5F5F5F5F5F5F5F5F5F5F5F5F5F5F5F5F5F5F5F5F5F5F5F5F5F5F5F5F5F5F5F5F5F5F5F5F5F5F5F5F5F5F5F5F5F5F5F5F5F5F5F5F5F5F5F5F5F5F5F5F5F5F5F5F5F5F5F5F5F5F5F5F5F5F5
310
F5F5F5F5F5F5F5F5F5F5F5F5F5F5F5F5F5F5F5F5F5F5F5F5F5F5F5F5F5F5F5F5F5F5F5F5F5F5F5F5F5F5F5F5F5F5F5F5F5F52DF5F5F5F5F5F5F5F5F5F5F5F5F5F5F5F5E2F5F5F5E2E2EFE2F5F5F5E2F5F5F5F5F5F5F5F5F5F5F5F5F5F5F5F52DF5F5F5F5F5F5F5F5F5F5F5F5F5F5F5F5F5F5F5F5F5F5F5F5F5F5F5F5F5F5F5
310
F5F5F5F5F5F5F5F5F5F5F5F5F5F5F5F5F5F5F5F5F5F5F5F5F5F5F5F5F5F5F5F5F5F5F5F5F5F5F5F5F5F5F5F5F5F5F5F5F5F5F5F5F5F5F5F5F5F5F5F5F5F5F5F5F5F5F5F5F5F5F5F5F5F5F5F5F5F5F5F5F5F5F5F5F5F5F5F5F5F5F5F5F5F5F5F5F5F5F5F5F5F5F52DF5F5F5F5F5F5F5F5F5F5F5F5F5F5F5F5E2F5F5F5E2E2EF
310
E2F5F5F5E2F5F5F5F5F5F5F5F5F5F5F5F5F5F5F5F52DF5F5F5F5F5F5F5F5F5F5F5F5F5F5F5F5F5F5F5F5F5F5F5F5F5F5F5F5F5F5F5F5F5F5F5F5F5F5F5F5F5F5F5F5F5F5F5F5F5F5F5F5F5F5F5F5F5F5F5F5F5F5F5F5F5F5F5F5F5F5F5F5F5F5F5F5F5F5F5F5F5F5F5F5F5F5F5F5F5F5F5F5F5F5F5F5F5F5F5F5F5F5F5F5F5
310
F5F5F5F5F5F5F5F5F5F5F5F5F5F5F5F5F5F5F5F5F5F5F5F5F5F5F5F5F52DF5F5F5F5F5F5F5F5F5F5F5F5F5F5F5F5E2F5F5F5E2E2EFE2F5F5F5E2F5F5F5F5F5F5F5F5F5F5F5F5F5F5F5F52DF5F5F5F5F5F5F5F5F5F5F5F5F5F5F5F5F5F5F5F5F5F5F5F5F5F5F5F5F5F5F5F5F5F5F5F5F5F5F5F5F5F5F5F5F5F5F5F5F5F5F5F5
310
F5F5F5F5F5F5F5F5F5F5F5F5F5F5F5F5F5F5F5F5F5F5F5F5F5F5F5F5F5F5F5F5F5F5F5F5F5F5F5F5F5F5F5F5F5F5F5F5F5F5F5F5F5F5F5F5F5F5F5F5F5F5F5F5F5F5F5F5F5F5F5F5F5F5F5F5F5F5F5F5F5F52DF5F5F5F5F5F5F5F5F5F5F5F5F5F5F5F5E2F5F5F5E2E2EFE2F5F5F5E2F5F5F5F5F5F5F5F5F5F5F5F5F5F5F5F5
310
2DF5F5F5F5F5F5F5F5F5F5F5F5F5F5F5F5F5F5F5F5F5F5F5F5F5F5F5F5F5F5F5F5F5F5F5F5F5F5F5F5F5F5F5F5F5F5F5F5F5F5F5F5F5F5F5F5F5F5F5F5F5F5F5F5F5F5F5F5F5F5F5F5F5F5F5F5F5F5F5F5F5F5F5F5F5F5F5F5F5F5F5F5F5F5F5F5F5F5F5F5F5F5F5F5F5F5F5F5F5F5F5F5F5F5F5F5F5F5F5F5F5F5F5F5F5F5
310
F5F5F5F5F5F5F5F52DF5F5F5F5F5F5F5F5F5F5F5F5F5F5F5F5E2F5F5F5E2E2EFE2F5F5F5E2F5F5F5F5F5F5F5F5F5F5F5F5F5F5F5F52DF5F5F5F5F5F5F5F5F5F5F5F5F5F5F5F5F5F5F5F5F5F5F5F5F5F5F5F5F5F5F5F5F5F5F5F5F5F5F5F5F5F5F5F5F5F5F5F5F5F5F5F5F5F5F5F5F5F5F5F5F5F5F5F5F5F5F5F5F5F5F5F5F5
310
F5F5F5F5F5F5F5F5F5F5F5F5F5F5F5F5F5F5F5F5F5F5F5F5F5F5F5F5F5F5F5F5F5F5F5F5F5F5F5F5F5F5F5F5F5F5F5F5F5F5F5F5F5F5F5F5F5F5F5F5F52DF5F5F5F5F5F5F5F5F5F5F5F5F5F5F5F5E2F5F5F5E2E2EFE2F5F5F5E2F5F5F5F5F5F5F5F5F5F5F5F5F5F5F5F52DF5F5F5F5F5F5F5F5F5F5F5F5F5F5F5F5F5F5F5F5
310
F5F5F5F5F5F5F5F5F5F5F5F5F5F5F5F5F5F5F5F5F5F5F5F5F5F5F5F5F5F5F5F5F5F5F5F5F5F5F5F5F5F5F5F5F5F5F5F5F5F5F5F5F5F5F5F5F5F5F5F5F5F5F5F5F5F5F5F5F5F5F5F5F5F5F5F5F5F5F5F5F5F5F5F5F5F5F5F5F5F5F5F5F5F5F5F5F5F5F5F5F5F5F5F5F5F5F5F5F5F5F5F5F5F52DF5F5F5F5F5F5F5F5F5F5F5F5
310
F5F5F5F5E2F5F5F5E2E2EFE2F5F5F5E2F5F5F5F5F5F5F5F5F5F5F5F5F5F5F5F52DF5F5F5F5F5F5F5F5F5F5F5F5F5F5F5F5F5F5F5F5F5F5F5F5F5F5F5F5F5F5F5F5F5F5F5F5F5F5F5F5F5F5F5F5F5F5F5F5F5F5F5F5F5F5F5F5F5F5F5F5F5F5F5F5F5F5F5F5F5F5F5F5F5F5F5F5F5F5F5F5F5F5F5F5F5F5F5F5F5F5F5F5F5F5
310
F5F5F5F5F5F5F5F5F5F5F5F5F5F5F5F5F5F5F5F5F5F5F5F5F5F5F5F5F5F5F5F5F5F5F5F5F5F5F5F52DF5F5F5F5F5F5F5F5F5F5F5F5F5F5F5F5E2F5F5F5E2E2EFE2F5F5F5F5F5F5F5F5F5F5F5F5F5F5F5F5F5F5F5F52DF5F5F5F5F5F5F5F5F5F5F5F5F5F5F5F5F5F5F5F5F5F5F5F5F5F5F5F5F5F5F5F5F5F5F5F5F5F5F5F5F5
310
F5F5F5F5F5F5F5F5F5F5F5F5F5F5F5F5F5F5F5F5F5F5F5F5F5F5F5F5F5F5F5F5F5F5F5F5F5F5F5F5F5F5F5F5F5F5F5F5F5F5F5F5F5F5F5F5F5F5F5F5F5F5F5F5F5F5F5F5F5F5F5F5F5F5F5F5F5F5F5F5F5F5F5F5F5F5F5F5F5F5F5F5F52DF5F5F5F5F5F5F5F5F5F5F5F5F5F5F5F5F5F5F5F5E2E2EFE2F5F5F5F5F5F5F5F5F5
310
F5F5F5F5F5F5F5F5F5F5F52DF5F5F5F5F5F5F5F5F5F5F5F5F5F5F5F5F5F5F5F5F5F5F5F5F5F5F5F5F5F5F5F5F5F5F5F5F5F5F5F5F5F5F5F5F5F5F5F5F5F5F5F5F5F5F5F5F5F5F5F5F5F5F5F5F5F5F5F5F5F5F5F5F5F5F5F5F5F5F5F5F5F5F5F5F5F5F5F5F5F5F5F5F5F5F5F5F5F5F5F5F5F5F5F5F5F5F5F5F5F5F5F5F5F5F5
310
F5F5F5F5F5F5F5F5F5F5F5F5F5F5F5F5F5F5F52DF5F5F5F5F5F5F5F5F5F5F5F5F5F5F5F5F5F5F5F5E2E2EFE2F5F5F5F5F5F5F5F5F5F5F5F5F5F5F5F5F5F5F5F52DF5F5F5F5F5F5F5F5F5F5F5F5F5F5F5F5F5F5F5F5F5F5F5F5F5F5F5F5F5F5F5F5F5F5F5F5F5F5F5F5F5F5F5F5F5F5F5F5F5F5F5F5F5F5F5F5F5F5F5F5F5F5
310
F5F5F5F5F5F5F5F5F5F5F5F5F5F5F5F5F5F5F5F5F5F5F5F5F5F5F5F5F5F5F5F5F5F5F5F5F5F5F5F5F5F5F5F5F5F5F5F5F5F5F5F5F5F5F5F5F5F5F5F5F5F5F5F5F5F5F5F5F5F5F5F52DF5F5F5F5F5F5F5F5F5F5F5F5F5F5F5F5F5F5F5F5E2E2EFE2F5F5F5F5F5F5F5F5F5F5F5F5F5F5F5F5F5F5F5F52DF5F5F5F5F5F5F5F5F5
310
F5F5F5F5F5F5F5F5F5F5F5F5F5F5F5F5F5F5F5F5F5F5F5F5F5F5F5F5F5F5F5F5F5F5F5F5F5F5F5F5F5F5F5F5F5F5F5F5F5F5F5F5E2BEBEBEF5F5F5F5F5F5F5F5F5F5F5F5F5F5F5F5F5F5F5F5F5F5F5F5F5F5F5F5F5F5F5F5F5F5F5F5F5F5F5F5F5F5F5F5F5F5F5F5F5F5F5F5F5F5F5F5F5F5F5F5F5F5F5F5F5F5F5F5F52DF5
310
F5F5F5F5F5F5F5F5F5F5F5F5F5F5F5F5F5F5F5E2E2EFE2F5F5F5F5F5F5F5F5F5F5F5F5F5F5F5F5F5F5F5F52DF5F5F5F5F5F5F5F5F5F5F5F5F5F5F5F5F5F5F5F5F5F5F5F5F5F5F5F5F5F5F5F5F5F5F5F5F5F5F5F5F5F5F5F5F5F5F5F5F5F5F5F5F5F5F5F5F5F5F5F5F5F5E2E2E2F5F5F5F5F5F5F5F5F5F5F5F5F5F5F5F5F5F5
310
F5F5F5F5F5F5F5F5F5F5F5F5F5F5F5F5F5F5F5F5F5F5F5F5F5F5F5F5F5F5F5F5F5F5F5F5F5F5F5F5F5F5F5F5F5F5F5F5F5F5F52DF5F5F5F5F5F5F5F5F5F5F5F5F5F5F5F5F5F5F5F5E2E2EFE2F5F5F5F5F5F5F5F5F5F5F5F5F5F5F5F5F5F5F5F52DF5F5F5F5F5F5F5F5F5F5F5F5F5F5F5F5F5F5F5F5F5F5F5F5F5F5F5F5F5F5
310
F5F5F5F5F5F5F5F5F5F5F5F5F5F5F5F5F5F5F5F5F5F5F5F5F5F5F5F5F5F5F5F5F5F5F5F5F5F5F5F5F5F5F5F5F5F5F5F5F5F5F5F5F5F5F5F5F5F5F5F5F5F5F5F5F5F5F5F5F5F5F5F5F5F5F5F5F5F5F5F5F5F5F5F5F5F5F5F5F5F5F5F5F5F5F5F5F5F5F5F5F5F5F5F52DF5F5F5F5F5F5F5F5F5F5F5F5F5F5F5F5F5F5F5F5E2E2
310
EFE2F5F5F5F5F5F5F5F5F5F5F5F5F5F5F5F5F5F5F5F52DF5F5F5F5F5F5F5F5F5F5F5F5F5F5F5F5F5F5F5F5F5F5F5F5F5F5F5F5F5F5F5F5F5F5F5F5F5F5F5F5F5F5F5F5F5F5F5F5F5F5F5F5F5F5F5F5F5F5F5F5F5F5F5F5F5F5F5F5F5F5F5F5F5F5F5F5F5F5F5F5F5F5F5F5F5F5F5F5F5F5F5F5F5F5F5F5F5F5F5F5F5F5F5F5
310
F5F5F5F5F5F5F5F5F5F5F5F5F5F5F5F5F5F5F5F5F5F5F5F5F5F5F5F5F5F52DF5F5F5F5F5F5F5F5F5F5F5F5F5F5F5F5F5F5F5F5E2E2EFE2F5F5F5F5F5F5F5F5F5F5F5F5F5F5F5F5F5F5F5F52DF5F5F5F5F5F5F5F5F5F5F5F5F5F5F5F5F5F5F5F5F5F5F5F5F5F5F5F5F5F5F5F5F5F5F5F5F5F5F5F5F5F5F5F5F5F5F5F5F5F5F5
310
F5F5F5F5F5F5F5F5F5F5F5F5F5F5F5F5F5F5F5F5F5F5F5F5F5F5F5F5F5F5F5F5F5F5F5F5F5F5F5F5F5F5F5F5F5F5F5F5F5F5F5F5F5F5F5F5F5F5F5F5F5F5F5F5F5F5F5F5F5F5F5F5F5F5F5F5F5F5F5F5F5F5F52DF5F5F5F5F5F5F5F5F5F5F5F5F5F5F5F5F5F5F5F5E2E2EFE2F5F5F5F5F5F5F5F5F5F5F5F5F5F5F5F5F5F5F5
310
F52DF5F5F5F5F5F5F5F5F5F5F5F5F5F5F5F5F5F5F5F5F5F5F5F5F5F5F5F5F5F5F5F5F5F5F5F5F5F5F5F5F5F5F5F5F5F5F5F5F5F5F5F5F5F5F5F5F5F5F5F5F5F5F5F5F5F5F5F5F5F5F5F5F5F5F5F5F5F5F5F5F5F5F5F5F5F5F5F5F5F5F5F5F5F5F5F5F5F5F5F5F5F5F5F5F5F5F5F5F5F5F5F5F5F5F5F5F5F5F5F5F5F5F5F5F5
310
F5F5F5F5F5F5F5F5F52DF5F5F5F5F5F5F5F5F5F5F5F5F5F5F5F5F5F5F5F5E2E2EFE2F5F5F5E2F5F5F5F5F5F5F5F5F5F5F5F5F5F5F5F52DF5F5F5F5F5F5F5F5F5F5F5F5F5F5F5F5F5F5F5F5F5F5F5F5F5F5F5F5F5F5F5F5F5F5F5F5F5F5F5F5F5F5F5F5F5F5F5F5F5F5F5F5F5F5F5F5F5F5F5F5F5F5F5F5F5F5F5F5F5F5F5F5
310
F5F5F5F5F5F5F5F5F5F5F5F5F5F5F5F5F5F5F5F5F5F5F5F5F5F5F5F5F5F5F5F5F5F5F5F5F5F5F5F5F5F5F5F5F5F5F5F5F5F5F5F5F5F5F5F5F5F5F5F5F5F52DF5F5F5F5F5F5F5F5F5F5F5F5F5F5F5F5E2F5F5F5E2E2EFE2F5F5F5E2F5F5F5F5F5F5F5F5F5F5F5F5F5F5F5F52DF5F5F5F5F5F5F5F5F5F5F5F5F5F5F5F5F5F5F5
310
F5F5F5F5F5F5F5F5F5F5F5F5F5F5F5F5F5F5F5F5F5F5F5F5F5F5F5F5F5F5F5F5F5F5F5F5F5F5F5F5F5F5F5F5F5F5F5F5F5F5F5F5F5F5F5F5F5F5F5F5F5F5F5F5F5F5F5F5F5F5F5F5F5F5F5F5F5F5F5F5F5F5F5F5F5F5F5F5F5F5F5F5F5F5F5F5F5F5F5F5F5F5F5F5F5F5F5F5F5F5F5F5F5F5F52DF5F5F5F5F5F5F5F5F5F5F5
310
F5F5F5F5F5E2F5F5F5E2E2EFE2F5F5F5E2F5F5F5F5F5F5F5F5F5F5F5F5F5F5F5F52DF5F5F5F5F5F5F5F5F5F5F5F5F5F5F5F5F5F5F5F5F5F5F5F5F5F5F5F5F5F5F5F5F5F5F5F5F5F5F5F5F5F5F5F5F5F5F5F5F5F5F5F5F5F5F5F5F5F5F5F5F5F5F5F5F5F5F5F5F5F5F5F5F5F5F5F5F5F5F5F5F5F5F5F5F5F5F5F5F5F5F5F5F5
310
F5F5F5F5F5F5F5F5F5F5F5F5F5F5F5F5F5F5F5F5F5F5F5F5F5F5F5F5F5F5F5F5F5F5F5F5F5F5F5F5F52DF5F5F5F5F5F5F5F5F5F5F5F5F5F5F5F5E2F5F5F5E2E2EFE2F5F5F5E2F5F5F5F5F5F5F5F5F5F5F5F5F5F5F5F52DF5F5F5F5F5F5F5F5F5F5F5F5F5F5F5F5F5F5F5F5F5F5F5F5F5F5F5F5F5F5F5F5F5F5F5F5F5F5F5F5
310
F5F5F5F5F5F5F5F5F5F5F5F5F5F5F5F5F5F5F5F5F5F5F5F5F5F5F5F5F5F5F5F5F5F5F5F5F5F5F5F5F5F5F5F5F5F5F5F5F5F5F5F5F5F5F5F5F5F5F5F5F5F5F5F5F5F5F5F5F5F5F5F5F5F5F5F5F5F5F5F5F5F5F5F5F5F5F5F5F5F5F5F5F5F52DF5F5F5F5F5F5F5F5F5F5F5F5F5F5F5F5E2F5F5F5E2E2EFE2F5F5F5E2F5F5F5F5
310
F5F5F5F5F5F5F5F5F5F5F5F52DF5F5F5F5F5F5F5F5F5F5F5F5F5F5F5F5F5F5F5F5F5F5F5F5F5F5F5F5F5F5F5F5F5F5F5F5F5F5F5F5F5F5F5F5F5F5F5F5F5F5F5F5F5F5F5F5F5F5F5F5F5F5F5F5F5F5F5F5F5F5F5F5F5F5F5F5F5F5F5F5F5F5F5F5F5F5F5F5F5F5F5F5F5F5F5F5F5F5F5F5F5F5F5F5F5F5F5F5F5F5F5F5F5F5
310
F5F5F5F5F5F5F5F5F5F5F5F5F5F5F5F5F5F5F5F52DF5F5F5F5F5F5F5F5F5F5F5F5F5F5F5F5E2F5F5F5E2E2EFE2F5F5F5E2F5F5F5F5F5F5F5F5F5F5F5F5F5F5F5F52DF5F5F5F5F5F5F5F5F5F5F5F5F5F5F5F5F5F5F5F5F5F5F5F5F5F5F5F5F5F5F5F5F5F5F5F5F5F5F5F5F5F5F5F5F5F5F5F5F5F5F5F5F5F5F5F5F5F5F5F5F5
310
F5F5F5F5F5F5F5F5F5F5F5F5F5F5F5F5F5F5F5F5F5F5F5F5F5F5F5F5F5F5F5F5F5F5F5F5F5F5F5F5F5F5F5F5F5F5F5F5F5F5F5F5F5F5F5F5F5F5F5F5F5F5F5F5F5F5F5F5F5F5F5F5F52DF5F5F5F5F5F5F5F5F5F5F5F5F5F5F5F5E2F5F5F5E2E2EFE2F5F5F5E2F5F5F5F5F5F5F5F5F5F5F5F5F5F5F5F52DF5F5F5F5F5F5F5F5
310
F5F5F5F5F5F5F5F5F5F5F5F5F5F5F5F5F5F5F5F5F5F5F5F5F5F5F5F5F5F5F5F5F5F5F5F5F5F5F5F5F5F5F5F5F5F5F5F5F5F5F5F5F5F5F5F5F5F5F5F5F5F5F5F5F5F5F5F5F5F5F5F5F5F5F5F5F5F5F5F5F5F5F5F5F5F5F5F5F5F5F5F5F5F5F5F5F5F5F5F5F5F5F5F5F5F5F5F5F5F5F5F5F5F5F5F5F5F5F5F5F5F5F5F5F5F52D
310
F5F5F5F5F5F5F5F5F5F5F5F5F5F5F5F5E2F5F5F5E2E2EFE2F5F5F5E2F5F5F5F5F5F5F5F5F5F5F5F5F5F5F5F52DF5F5F5F5F5F5F5F5F5F5F5F5F5F5F5F5F5F5F5F5F5F5F5F5F5F5F5F5F5F5F5F5F5F5F5F5F5F5F5F5F5F5F5F5F5F5F5F5F5F5F5F5F5F5F5F5F5F5F5F5F5F5F5F5F5F5F5F5F5F5F5F5F5F5F5F5F5F5F5F5F5F5
310
F5F5F5F5F5F5F5F5F5F5F5F5F5F5F5F5F5F5F5F5F5F5F5F5F5F5F5F5F5F5F5F5F5F5F5F5F5F5F5F5F5F5F5F5F5F5F5F5F5F5F5F52DF5F5F5F5F5F5F5F5F5F5F5F5F5F5F5F5E2F5F5F5E2E2EFE2F5F5F5E2F5F5F5F5F5F5F5F5F5F5F5F5F5F5F5F52DF5F5F5F5F5F5F5F5F5F5F5F5F5F5F5F5F5F5F5F5F5F5F5F5F5F5F5F5F5
310
F5F5F5F5F5F5F5F5F5F5F5F5F5F5F5F5F5F5F5F5F5F5F5F5F5F5F5F5F5F5F5F5F5F5F5F5F5F5F5F5F5F5F5F5F5F5F5F5F5F5F5F5F5F5F5F5F5F5F5F5F5F5F5F5F5F5F5F5F5F5F5F5F5F5F5F5F5F5F5F5F5F5F5F5F5F5F5F5F5F5F5F5F5F5F5F5F5F5F5F5F5F5F5F5F52DF5F5F5F5F5F5F5F5F5F5F5F5F5F5F5F5E2F5F5F5E2
310
E2EFE2F5F5F5E2F5F5F5F5F5F5F5F5F5F5F5F5F5F5F5F52DF5F5F5F5F5F5F5F5F5F5F5F5F5F5F5F5F5F5F5F5F5F5F5F5F5F5F5F5F5F5F5F5F5F5F5F5F5F5F5F5F5F5F5F5F5F5F5F5F5F5F5F5F5F5F5F5F5F5F5F5F5F5F5F5F5F5F5F5F5F5F5F5F5F5F5F5F5F5F5F5F5F5F5F5F5F5F5F5F5F5F5F5F5F5F5F5F5F5F5F5F5F5F5
310
F5F5F5F5F5F5F5F5F5F5F5F5F5F5F5F5F5F5F5F5F5F5F5F5F5F5F5F5F5F5F52DF5F5F5F5F5F5F5F5F5F5F5F5F5F5F5F5E2F5F5F5E2E2EFE2F5F5F5E2F5F5F5F5F5F5F5F5F5F5F5F5F5F5F5F52DF5F5F5F5F5F5F5F5F5F5F5F5F5F5F5F5F5F5F5F5F5F5F5F5F5F5F5F5F5F5F5F5F5F5F5F5F5F5F5F5F5F5F5F5F5F5F5F5F5F5
310
F5F5F5F5F5F5F5F5F5F5F5F5F5F5F5F5F5F5F5F5F5F5F5F5F5F5F5F5F5F5F5F5F5F5F5F5F5F5F5F5F5F5F5F5F5F5F5F5F5F5F5F5F5F5F5F5F5F5F5F5F5F5F5F5F5F5F5F5F5F5F5F5F5F5F5F5F5F5F5F5F5F5F5F52DF5F5F5F5F5F5F5F5F5F5F5F5F5F5F5F5E2F5F5F5E2E2EFE2F5F5F5E2F5F5F5F5F5F5F5F5F5F5F5F5F5F5
310
F5F52DF5F5F5F5F5F5F5F5F5F5F5F5F5F5F5F5F5F5F5F5F5F5F5F5F5F5F5F5F5F5F5F5F5F5F5F5F5F5F5F5F5F5F5F5F5F5F5F5F5F5F5F5F5F5F5F5F5F5F5F5F5F5F5F5F5F5F5F5F5F5F5F5F5F5F5F5F5F5F5F5F5F5F5F5F5F5F5F5F5F5F5F5F5F5F5F5F5F5F5F5F5F5F5F5F5F5F5F5F5F5F5F5F5F5F5F5F5F5F5F5F5F5F5F5
310
F5F5F5F5F5F5F5F5F5F52DF5F5F5F5F5F5F5F5F5F5F5F5F5F5F5F5E2F5F5F5E2E2EFE2F5F5F5E2F5F5F5F5F5F5F5F5F5F5F5F5F5F5F5F52DF5F5F5F5F5F5F5F5F5F5F5F5F5F5F5F5F5F5F5F5F5F5F5F5F5F5F5F5F5F5F5F5F5F5F5F5F5F5F5F5F5F5F5F5F5F5F5F5F5F5F5F5F5F5F5F5F5F5F5F5F5F5F5F5F5F5F5F5F5F5F5
310
F5F5F5F5F5F5F5F5F5F5F5F5F5F5F5F5F5F5F5F5F5F5F5F5F5F5F5F5F5F5F5F5F5F5F5F5F5F5F5F5F5F5F5F5F5F5F5F5F5F5F5F5F5F5F5F5F5F5F5F5F5F5F52DF5F5F5F5F5F5F5F5F5F5F5F5F5F5F5F5E2F5F5F5E2E2EFE2F5F5F5E2F5F5F5F5F5F5F5F5F5F5F5F5F5F5F5F52DF5F5F5F5F5F5F5F5F5F5F5F5F5F5F5F5F5F5
310
F5F5F5F5F5F5F5F5F5F5F5F5F5F5F5F5F5F5F5F5F5F5F5F5F5F5F5F5F5F5F5F5F5F5F5F5F5F5F5F5F5F5F5F5F5F5F5F5F5F5F5F5F5F5F5F5F5F5F5F5F5F5F5F5F5F5F5F5F5F5F5F5F5F5F5F5F5F5F5F5F5F5F5F5F5F5F5F5F5F5F5F5F5F5F5F5F5F5F5F5F5F5F5F5F5F5F5F5F5F5F5F5F5F5F5F52DF5F5F5F5F5F5F5F5F5F5
310
F5F5F5F5F5F5E2F5F5F5E2E2EFE2F5F5F5E2F5F5F5F5F5F5F5F5F5F5F5F5F5F5F5F52DF5F5F5F5F5F5F5F5F5F5F5F5F5F5F5F5F5F5F5F5F5F5F5F5F5F5F5F5F5F5F5F5F5F5F5F5F5F5F5F5F5F5F5F5F5F5F5F5F5F5F5F5F5F5F5F5F5F5F5F5F5F5F5F5F5F5F5F5F5F5F5F5F5F5F5F5F5F5F5F5F5F5F5F5F5F5F5F5F5F5F5F5
310
F5F5F5F5F5F5F5F5F5F5F5F5F5F5F5F5F5F5F5F5F5F5F5F5F5F5F5F5F5F5F5F5F5F5F5F5F5F5F5F5F5F52DF5F5F5F5F5F5F5F5F5F5F5F5F5F5F5F5E2F5F5F5E2E2EFE2F5F5F5E2F5F5F5F5F5F5F5F5F5F5F5F5F5F5F5F52DF5F5F5F5F5F5F5F5F5F5F5F5F5F5F5F5F5F5F5F5F5F5F5F5F5F5F5F5F5F5F5F5F5F5F5F5F5F5F5
310
F5F5F5F5F5F5F5F5F5F5F5F5F5F5F5F5F5F5F5F5F5F5F5F5F5F5F5F5F5F5F5F5F5F5F5F5F5F5F5F5F5F5F5F5F5F5F5F5F5F5F5F5F5F5F5F5F5F5F5F5F5F5F5F5F5F5F5F5F5F5F5F5F5F5F5F5F5F5F5F5F5F5F5F5F5F5F5F5F5F5F5F5F5F5F52DF5F5F5F5F5F5F5F5F5F5F5F5F5F5F5F5E2F5F5F5E2E2EFE2F5F5F5E2F5F5F5
310
F5F5F5F5F5F5F5F5F5F5F5F5F52DF5F5F5F5F5F5F5F5F5F5F5F5F5F5F5F5F5F5F5F5F5F5F5F5F5F5F5F5F5F5F5F5F5F5F5F5F5F5F5F5F5F5F5F5F5F5F5F5F5F5F5F5F5F5F5F5F5F5F5F5F5F5F5F5F5F5F5F5F5F5F5F5F5F5F5F5F5F5F5F5F5F5F5F5F5F5F5F5F5F5F5F5F5F5F5F5F5F5F5F5F5F5F5F5F5F5F5F5F5F5F5F5F5
310
F5F5F5F5F5F5F5F5F5F5F5F5F5F5F5F5F5F5F5F5F52DF5F5F5F5F5F5F5F5F5F5F5F5F5F5F5F5E2F5F5F5E2E2EFE2F5F5F5F5F5F5F5F5F5F5F5F5F5F5F5F5F5F5F5F52DF5F5F5F5F5F5F5F5F5F5F5F5F5F5F5F5F5F5F5F5F5F5F5F5F5F5F5F5F5F5F5F5F5F5F5F5F5F5F5F5F5F5F5F5F5F5F5F5F5F5F5F5F5F5F5F5F5F5F5F5
310
F5F5F5F5F5F5F5F5F5F5F5F5F5F5F5F5F5F5F5F5F5F5F5F5F5F5F5F5F5F5F5F5F5F5F5F5F5F5F5F5F5F5F5F5F5F5F5F5F5F5F5F5F5F5F5F5F5F5F5F5F5F5F5F5F5F5F5F5F5F5F5F5F5F52DF5F5F5F5F5F5F5F5F5F5F5F5F5F5F5F5F5F5F5F5E2E2EFE2F5F5F5F5F5F5F5F5F5F5F5F5F5F5F5F5F5F5F5F52DF5F5F5F5F5F5F5
310
F5F5F5F5F5F5F5F5F5F5F5F5F5F5F5F5F5F5F5F5F5F5F5F5F5F5F5F5F5F5F5F5F5F5F5F5F5F5F5F5F5F5F5F5F5F5F5F5F5F5F5F5F5F5F5F5F5F5F5F5F5F5F5F5F5F5F5F5F5F5F5F5F5F5F5F5F5F5F5F5F5F5F5F5F5F5F5F5F5F5F5F5F5F5F5F5F5F5F5F5F5F5F5F5F5F5F5F5F5F5F5F5F5F5F5F5F5F5F5F5F5F5F5F5F5F5F5
310
2DF5F5F5F5F5F5F5F5F5F5F5F5F5F5F5F5F5F5F5F5E2E2EFE2F5F5F5F5F5F5F5F5F5F5F5F5F5F5F5F5F5F5F5F52DF5F5F5F5F5F5F5F5F5F5F5F5F5F5F5F5F5F5F5F5F5F5F5F5F5F5F5F5F5F5F5F5F5F5F5F5F5F5F5F5F5F5F5F5F5F5F5F5F5F5F5F5F5F5F5F5F5F5F5F5F5F5F5F5F5F5F5F5F5F5F5F5F5F5F5F5F5F5F5F5F5
310
F5F5F5F5F5F5F5F5F5F5F5F5F5F5F5F5F5F5F5F5F5F5F5F5F5F5F5F5F5F5F5F5F5F5F5F5F5F5F5F5F5F5F5F5F5F5F5F5F5F5F5F5F52DF5F5F5F5F5F5F5F5F5F5F5F5F5F5F5F5F5F5F5F5E2E2EFE2F5F5F5F5F5F5F5F5F5F5F5F5F5F5F5F5F5F5F5F52DF5F5F5F5F5F5F5F5F5F5F5F5F5F5F5F5F5F5F5F5F5F5F5F5F5F5F5F5
310
F5F5F5F5F5F5F5F5F5F5F5F5F5F5F5F5F5F5F5F5F5F5F5F5F5F5F5F5F5F5F5F5F5F5F5F5F5F5F5F5F5F5F5F5F5F5F5F5F5F5F5F5F5F5F5F5F5F5F5F5F5F5F5F5F5F5F5F5F5F5F5F5F5F5F5F5F5F5F5F5F5F5F5F5F5F5F5F5F5F5F5F5F5F5F5F5F5F5F5F5F5F5F5F5F5F52DF5F5F5F5F5F5F5F5F5F5F5F5F5F5F5F5F5F5F5F5
310
E2E2EFE2F5F5F5F5F5F5F5F5F5F5F5F5F5F5F5F5F5F5F5F52DF5F5F5F5F5F5F5F5F5F5F5F5F5F5F5F5F5F5F5F5F5F5F5F5F5F5F5F5F5F5F5F5F5F5F5F5F5F5F5F5F5F5F5F5F5F5F5F5F5F5F5F5F5F5F5F5F5F5F5F5F5F5F5F5F5F5F5F5F5F5F5F5F5F5F5F5F5F5F5F5F5F5F5F5F5F5F5F5F5F5F5F5F5F5F5F5F5F5F5F5F5F5
310
F5F5F5F5F5F5F5F5F5F5F5F5F5F5F5F5F5F5F5F5F5F5F5F5F5F5F5F5F5F5F5F52DF5F5F5F5F5F5F5F5F5F5F5F5F5F5F5F5F5F5F5F5E2E2EFE2F5F5F5F5F5F5F5F5F5F5F5F5F5F5F5F5F5F5F5F52DF5F5F5F5F5F5F5F5F5F5F5F5F5F5F5F5F5F5F5F5F5F5F5F5F5F5F5F5F5F5F5F5F5F5F5F5F5F5F5F5F5F5F5F5F5F5F5F5F5
310
F5F5F5F5F5F5F5F5F5F5F5F5F5F5F5F5F5F5F5F5F5F5F5F5F5F5F5F5F5F5F5F5F5F5F5F5F5F5F5F5F5F5F5F5F5F5F5F5F5F5F5F5F5F5F5F5F5F5F5F5F5F5F5F5F5F5F5F5F5F5F5F5F5F5F5F5F5F5F5F5F5F5F5F5F52DF5F5F5F5F5F5F5F5F5F5F5F5F5F5F5F5F5F5F5F5E2E2EFE2F5F5F5F5F5F5F5F5F5F5F5F5F5F5F5F5F5
310
F5F5F52DF5F5F5F5F5F5F5F5F5F5F5F5F5F5F5F5F5F5F5F5F5F5F5F5F5F5F5F5F5F5F5F5F5F5F5F5F5F5F5F5F5F5F5F5F5F5F5F5F5F5F5F5F5F5F5F5F5F5F5F5F5F5F5F5F5F5F5F5F5F5F5F5F5F5F5F5F5F5F5F5F5F5F5F5F5F5F5F5F5F5F5F5F5F5F5F5F5F5F5F5F5F5F5F5F5F5F5F5F5F5F5F5F5F5F5F5F5F5F5F5F5F5F5
310
F5F5F5F5F5F5F5F5F5F5F52DF5F5F5F5F5F5F5F5F5F5F5F5F5F5F5F5F5F5F5F5E2E2EFE2F5F5F5F5F5F5F5F5F5F5F5F5F5F5F5F5F5F5F5F52DF5F5F5F5F5F5F5F5F5F5F5F5F5F5F5F5F5F5F5F5F5F5F5F5F5F5F5F5F5F5F5F5F5F5F5F5F5F5F5F5F5F5F5F5F5F5F5F5F5F5F5F5F5F5F5F5F5F5F5F5F5F5F5F5F5F5F5F5F5F5
310
F5F5F5F5F5F5F5F5F5F5F5F5F5F5F5F5F5F5F5F5F5F5F5F5F5F5F5F5F5F5F5F5F5F5F5F5F5F5F5F5F5F5F5F5F5F5F5F5F5F5F5F5F5F5F5F5F5F5F5F5F5F5F5F52DF5F5F5F5F5F5F5F5F5F5F5F5F5F5F5F5F5F5F5F5E2E2EFE2F5F5F5F5F5F5F5F5F5F5F5F5F5F5F5F5F5F5F5F52DF5F5F5F5F5F5F5F5F5F5F5F5F5F5F5F5F5
310
F5F5F5F5F5F5F5F5F5F5F5F5F5F5F5F5F5F5F5F5F5F5F5F5F5F5F5F5F5F5F5F5F5F5F5F5F5F5F5F5F5F5F5F5F5F5F5F5F5F5F5F5F5F5F5F5F5F5F5F5F5F5F5F5F5F5F5F5F5F5F5F5F5F5F5F5F5F5F5F5F5F5F5F5F5F5F5F5F5F5F5F5F5F5F5F5F5F5F5F5F5F5F5F5F5F5F5F5F5F5F5F5F5F5F5F5F52DF5F5F5F5F5F5F5F5F5
310
F5F5F5F5F5F5F5F5F5F5F5E2E2EFE2F5F5F5E2F5F5F5F5F5F5F5F5F5F5F5F5F5F5F5F52DF5F5F5F5F5F5F5F5F5F5F5F5F5F5F5F5F5F5F5F5F5F5F5F5F5F5F5F5F5F5F5F5F5F5F5F5F5F5F5F5F5F5F5F5F5F5F5F5F5F5F5F5F5F5F5F5F5F5F5F5F5F5F5F5F5F5F5F5F5F5F5F5F5F5F5F5F5F5F5F5F5F5F5F5F5F5F5F5F5F5F5
310
F5F5F5F5F5F5F5F5F5F5F5F5F5F5F5F5F5F5F5F5F5F5F5F5F5F5F5F5F5F5F5F5F5F5F5F5F5F5F5F5F5F5F52DF5F5F5F5F5F5F5F5F5F5F5F5F5F5F5F5E2F5F5F5E2E2EFE2F5F5F5E2F5F5F5F5F5F5F5F5F5F5F5F5F5F5F5F52DF5F5F5F5F5F5F5F5F5F5F5F5F5F5F5F5F5F5F5F5F5F5F5F5F5F5F5F5F5F5F5F5F5F5F5F5F5F5
310
F5F5F5F5F5F5F5F5F5F5F5F5F5F5F5F5F5F5F5F5F5F5F5F5F5F5F5F5F5F5F5F5F5F5F5F5F5F5F5F5F5F5F5F5F5F5F5F5F5F5F5F5F5F5F5F5F5F5F5F5F5F5F5F5F5F5F5F5F5F5F5F5F5F5F5F5F5F5F5F5F5F5F5F5F5F5F5F5F5F5F5F5F5F5F5F52DF5F5F5F5F5F5F5F5F5F5F5F5F5F5F5F5E2F5F5F5E2E2EFE2F5F5F5E2F5F5
310
F5F5F5F5F5F5F5F5F5F5F5F5F5F52DF5F5F5F5F5F5F5F5F5F5F5F5F5F5F5F5F5F5F5F5F5F5F5F5F5F5F5F5F5F5F5F5F5F5F5F5F5F5F5F5F5F5F5F5F5F5F5F5F5F5F5F5F5F5F5F5F5F5F5F5F5F5F5F5F5F5F5F5F5F5F5F5F5F5F5F5F5F5F5F5F5F5F5F5F5F5F5F5F5F5F5F5F5F5F5F5F5F5F5F5F5F5F5F5F5F5F5F5F5F5F5F5
310
F5F5F5F5F5F5F5F5F5F5F5F5F5F5F5F5F5F5F5F5F5F52DF5F5F5F5F5F5F5F5F5F5F5F5F5F5F5F5E2F5F5F5E2E2EFE2F5F5F5E2F5F5F5F5F5F5F5F5F5F5F5F5F5F5F5F52DF5F5F5F5F5F5F5F5F5F5F5F5F5F5F5F5F5F5F5F5F5F5F5F5F5F5F5F5F5F5F5F5F5F5F5F5F5F5F5F5F5F5F5F5F5F5F5F5F5F5F5F5F5F5F5F5F5F5F5
310
F5F5F5F5F5F5F5F5F5F5F5F5F5F5F5F5F5F5F5F5F5F5F5F5F5F5F5F5F5F5F5F5F5F5F5F5F5F5F5F5F5F5F5F5F5F5F5F5F5F5F5F5F5F5F5F5F5F5F5F5F5F5F5F5F5F5F5F5F5F5F5F5F5F5F52DF5F5F5F5F5F5F5F5F5F5F5F5F5F5F5F5E2F5F5F5E2E2EFE2F5F5F5E2F5F5F5F5F5F5F5F5F5F5F5F5F5F5F5F52DF5F5F5F5F5F5
310
F5F5F5F5F5F5F5F5F5F5F5F5F5F5F5F5F5F5F5F5F5F5F5F5F5F5F5F5F5F5F5F5F5F5F5F5F5F5F5F5F5F5F5F5F5F5F5F5F5F5F5F5F5F5F5F5F5F5F5F5F5F5F5F5F5F5F5F5F5F5F5F5F5F5F5F5F5F5F5F5F5F5F5F5F5F5F5F5F5F5F5F5F5F5F5F5F5F5F5F5F5F5F5F5F5F5F5F5F5F5F5F5F5F5F5F5F5F5F5F5F5F5F5F5F5F5F5
310
F52DF5F5F5F5F5F5F5F5F5F5F5F5F5F5F5F5E2F5F5F5E2E2EFE2F5F5F5E2F5F5F5F5F5F5F5F5F5F5F5F5F5F5F5F52DF5F5F5F5F5F5F5F5F5F5F5F5F5F5F5F5F5F5F5F5F5F5F5F5F5F5F5F5F5F5F5F5F5F5F5F5F5F5F5F5F5F5F5F5F5F5F5F5F5F5F5F5F5F5F5F5F5F5F5F5F5F5F5F5F5F5F5F5F5F5F5F5F5F5F5F5F5F5F5F5
310
F5F5F5F5F5F5F5F5F5F5F5F5F5F5F5F5F5F5F5F5F5F5F5F5F5F5F5F5F5F5F5F5F5F5F5F5F5F5F5F5F5F5F5F5F5F5F5F5F5F5F5F5F5F52DF5F5F5F5F5F5F5F5F5F5F5F5F5F5F5F5E2F5F5F5E2E2EFE2F5F5F5E2F5F5F5F5F5F5F5F5F5F5F5F5F5F5F5F52DF5F5F5F5F5F5F5F5F5F5F5F5F5F5F5F5F5F5F5F5F5F5F5F5F5F5F5
310
F5F5F5F5F5F5F5F5F5F5F5F5F5F5F5F5F5F5F5F5F5F5F5F5F5F5F5F5F5F5F5F5F5F5F5F5F5F5F5F5F5F5F5F5F5F5F5F5F5F5F5F5F5F5F5F5F5F5F5F5F5F5F5F5F5F5F5F5F5F5F5F5F5F5F5F5F5F5F5F5F5F5F5F5F5F5F5F5F5F5F5F5F5F5F5F5F5F5F5F5F5F5F5F5F5F5F52DF5F5F5F5F5F5F5F5F5F5F5F5F5F5F5F5E2F5F5
310
F5E2E2EFE2F5F5F5E2F5F5F5F5F5F5F5F5F5F5F5F5F5F5F5F52DF5F5F5F5F5F5F5F5F5F5F5F5F5F5F5F5F5F5F5F5F5F5F5F5F5F5F5F5F5F5F5F5F5F5F5F5F5F5F5F5F5F5F5F5F5F5F5F5F5F5F5F5F5F5F5F5F5F5F5F5F5F5F5F5F5F5F5F5F5F5F5F5F5F5F5F5F5F5F5F5F5F5F5F5F5F5F5F5F5F5F5F5F5F5F5F5F5F5F5F5F5
310
F5F5F5F5F5F5F5F5F5F5F5F5F5F5F5F5F5F5F5F5F5F5F5F5F5F5F5F5F5F5F5F5F52DF5F5F5F5F5F5F5F5F5F5F5F5F5F5F5F5E2F5F5F5E2E2EFE2F5F5F5E2F5F5F5F5F5F5F5F5F5F5F5F5F5F5F5F52DF5F5F5F5F5F5F5F5F5F5F5F5F5F5F5F5F5F5F5F5F5F5F5F5F5F5F5F5F5F5F5F5F5F5F5F5F5F5F5F5F5F5F5F5F5F5F5F5
310
F5F5F5F5F5F5F5F5F5F5F5F5F5F5F5F5F5F5F5F5F5F5F5F5F5F5F5F5F5F5F5F5F5F5F5F5F5F5F5F5F5F5F5F5F5F5F5F5F5F5F5F5F5F5F5F5F5F5F5F5F5F5F5F5F5F5F5F5F5F5F5F5F5F5F5F5F5F5F5F5F5F5F5F5F5F52DF5F5F5F5F5F5F5F5F5F5F5F5F5F5F5F5E2F5F5F5E2E2EFE2F5F5F5E2F5F5F5F5F5F5F5F5F5F5F5F5
310
F5F5F5F52DF5F5F5F5F5F5F5F5F5F5F5F5F5F5F5F5F5F5F5F5F5F5F5F5F5F5F5F5F5F5F5F5F5F5F5F5F5F5F5F5F5F5F5F5F5F5F5F5F5F5F5F5F5F5F5F5F5F5F5F5F5F5F5F5F5F5F5F5F5F5F5F5F5F5F5F5F5F5F5F5F5F5F5F5F5F5F5F5F5F5F5F5F5F5F5F5F5F5F5F5F5F5F5F5F5F5F5F5F5F5F5F5F5F5F5F5F5F5F5F5F5F5
310
F5F5F5F5F5F5F5F5F5F5F5F52DF5F5F5F5F5F5F5F5F5F5F5F5F5F5F5F5E2F5F5F5E2E2EFE2F5F5F5E2F5F5F5F5F5F5F5F5F5F5F5F5F5F5F5F52DF5F5F5F5F5F5F5F5F5F5F5F5F5F5F5F5F5F5F5F5F5F5F5F5F5F5F5F5F5F5F5F5F5F5F5F5F5F5F5F5F5F5F5F5F5F5F5F5F5F5F5F5F5F5F5F5F5F5F5F5F5F5F5F5F5F5F5F5F5
310
F5F5F5F5F5F5F5F5F5F5F5F5F5F5F5F5F5F5F5F5F5F5F5F5F5F5F5F5F5F5F5F5F5F5F5F5F5F5F5F5F5F5F5F5F5F5F5F5F5F5F5F5F5F5F5F5F5F5F5F5F5F5F5F5F52DF5F5F5F5F5F5F5F5F5F5F5F5F5F5F5F5E2F5F5F5E2E2EFE2F5F5F5E2F5F5F5F5F5F5F5F5F5F5F5F5F5F5F5F52DF5F5F5F5F5F5F5F5F5F5F5F5F5F5F5F5
310
F5F5F5F5F5F5F5F5F5F5F5F5F5F5F5F5F5F5F5F5F5F5F5F5F5F5F5F5F5F5F5F5F5F5F5F5F5F5F5F5F5F5F5F5F5F5F5F5F5F5F5F5F5F5F5F5F5F5F5F5F5F5F5F5F5F5F5F5F5F5F5F5F5F5F5F5F5F5F5F5F5F5F5F5F5F5F5F5F5F5F5F5F5F5F5F5F5F5F5F5F5F5F5F5F5F5F5F5F5F5F5F5F5F5F5F5F5F52DF5F5F5F5F5F5F5F5
310
F5F5F5F5F5F5F5F5E2F5F5F5E2E2EFE2F5F5F5E2F5F5F5F5F5F5F5F5F5F5F5F5F5F5F5F52DF5F5F5F5F5F5F5F5F5F5F5F5F5F5F5F5F5F5F5F5F5F5F5F5F5F5F5F5F5F5F5F5F5F5F5F5F5F5F5F5F5F5F5F5F5F5F5F5F5F5F5F5F5F5F5F5F5F5F5F5F5F5F5F5F5F5F5F5F5F5F5F5F5F5F5F5F5F5F5F5F5F5F5F5F5F5F5F5F5F5
310
F5F5F5F5F5F5F5F5F5F5F5F5F5F5F5F5F5F5F5F5F5F5F5F5F5F5F5F5F5F5F5F5F5F5F5F5F5F5F5F5F5F5F5F52DF5F5F5F5F5F5F5F5F5F5F5F5F5F5F5F5E2F5F5F5E2E2EFE2F5F5F5E2F5F5F5F5F5F5F5F5F5F5F5F5F5F5F5F52DF5F5F5F5F5F5F5F5F5F5F5F5F5F5F5F5F5F5F5F5F5F5F5F5F5F5F5F5F5F5F5F5F5F5F5F5F5
310
F5F5F5F5F5F5F5F5F5F5F5F5F5F5F5F5F5F5F5F5F5F5F5F5F5F5F5F5F5F5F5F5F5F5F5F5F5F5F5F5F5F5F5F5F5F5F5F5F5F5F5F5F5F5F5F5F5F5F5F5F5F5F5F5F5F5F5F5F5F5F5F5F5F5F5F5F5F5F5F5F5F5F5F5F5F5F5F5F5F5F5F5F5F5F5F5F52DF5F5F5F5F5F5F5F5F5F5F5F5F5F5F5F5E2F5F5F5E2E2EFE2F5F5F5E2F5
310
F5F5F5F5F5F5F5F5F5F5F5F5F5F5F52DF5F5F5F5F5F5F5F5F5F5F5F5F5F5F5F5F5F5F5F5F5F5F5F5F5F5F5F5F5F5F5F5F5F5F5F5F5F5F5F5F5F5F5F5F5F5F5F5F5F5F5F5F5F5F5F5F5F5F5F5F5F5F5F5F5F5F5F5F5F5F5F5F5F5F5F5F5F5F5F5F5F5F5F5F5F5F5F5F5F5F5F5F5F5F5F5F5F5F5F5F5F5F5F5F5F5F5F5F5F5F5
310
F5F5F5F5F5F5F5F5F5F5F5F5F5F5F5F5F5F5F5F5F5F5F52DF5F5F5F5F5F5F5F5F5F5F5F5F5F5F5F5E2F5F5F5E2E2EFE2F5F5F5E2F5F5F5F5F5F5F5F5F5F5F5F5F5F5F5F52DF5F5F5F5F5F5F5F5F5F5F5F5F5F5F5F5F5F5F5F5F5F5F5F5F5F5F5F5F5F5F5F5F5F5F5F5F5F5F5F5F5F5F5F5F5F5F5F5F5F5F5F5F5F5F5F5F5F5
310
F5F5F5F5F5F5F5F5F5F5F5F5F5F5F5F5F5F5F5F5F5F5F5F5F5F5F5F5F5F5F5F5F5F5F5F5F5F5F5F5F5F5F5F5F5F5F5F5F5F5F5F5F5F5F5F5F5F5F5F5F5F5F5F5F5F5F5F5F5F5F5F5F5F5F5F52DF5F5F5F5F5F5F5F5F5F5F5F5F5F5F5F5E2F5F5F5E2E2EFE2F5F5F5E2F5F5F5F5F5F5F5F5F5F5F5F5F5F5F5F52DF5F5F5F5F5
310
F5F5F5F5F5F5F5F5F5F5F5F5F5F5F5F5F5F5F5F5F5F5F5F5F5F5F5F5F5F5F5F5F5F5F5F5F5F5F5F5F5F5F5F5F5F5F5F5F5F5F5F5F5F5F5F5F5F5F5F5F5F5F5F5F5F5F5F5F5F5F5F5F5F5F5F5F5F5F5F5F5F5F5F5F5F5F5F5F5F5F5F5F5F5F5F5F5F5F5F5F5F5F5F5F5F5F5F5F5F5F5F5F5F5F5F5F5F5F5F5F5F5F5F5F5F5F5
310
F5F52DF5F5F5F5F5F5F5F5F5F5F5F5F5F5F5F5E2F5F5F5E2E2EFE2F5F5F5F5F5F5F5F5F5F5F5F5F5F5F5F5F5F5F5F52DF5F5F5F5F5F5F5F5F5F5F5F5F5F5F5F5F5F5F5F5F5F5F5F5F5F5F5F5F5F5F5F5F5F5F5F5F5F5F5F5F5F5F5F5F5F5F5F5F5F5F5F5F5F5F5F5F5F5F5F5F5F5F5F5F5F5F5F5F5F5F5F5F5F5F5F5F5F5F5
310
F5F5F5F5F5F5F5F5F5F5F5F5F5F5F5F5F5F5F5F5F5F5F5F5F5F5F5F5F5F5F5F5F5F5F5F5F5F5F5F5F5F5F5F5F5F5F5F5F5F5F5F5F5F5F52DF5F5F5F5F5F5F5F5F5F5F5F5F5F5F5F5F5F5F5F5E2E2EFE2F5F5F5F5F5F5F5F5F5F5F5F5F5F5F5F5F5F5F5F52DF5F5F5F5F5F5F5F5F5F5F5F5F5F5F5F5F5F5F5F5F5F5F5F5F5F5
310
F5F5F5F5F5F5F5F5F5F5F5F5F5F5F5F5F5F5F5F5F5F5F5F5F5F5F5F5F5F5F5F5F5F5F5F5F5F5F5F5F5F5F5F5F5F5F5F5F5F5F5F5F5F5F5F5F5F5F5F5F5F5F5F5F5F5F5F5F5F5F5F5F5F5F5F5F5F5F5F5F5F5F5F5F5F5F5F5F5F5F5F5F5F5F5F5F5F5F5F5F5F5F5F5F5F5F5F52DF5F5F5F5F5F5F5F5F5F5F5F5F5F5F5F5F5F5
310
F5F5E2E2EFE2F5F5F5F5F5F5F5F5F5F5F5F5F5F5F5F5F5F5F5F52DF5F5F5F5F5F5F5F5F5F5F5F5F5F5F5F5F5F5F5F5F5F5F5F5F5F5F5F5F5F5F5F5F5F5F5F5F5F5F5F5F5F5F5F5F5F5F5F5F5F5F5F5F5F5F5F5F5F5F5F5F5F5F5F5F5F5F5F5F5F5F5F5F5F5F5F5F5F5F5F5F5F5F5F5F5F5F5F5F5F5F5F5F5F5F5F5F5F5F5F5
310
F5F5F5F5F5F5F5F5F5F5F5F5F5F5F5F5F5F5F5F5F5F5F5F5F5F5F5F5F5F5F5F5F5F52DF5F5F5F5F5F5F5F5F5F5F5F5F5F5F5F5F5F5F5F5E2E2EFE2F5F5F5F5F5F5F5F5F5F5F5F5F5F5F5F5F5F5F5F52DF5F5F5F5F5F5F5F5F5F5F5F5F5F5F5F5F5F5F5F5F5F5F5F5F5F5F5F5F5F5F5F5F5F5F5F5F5F5F5F5F5F5F5F5F5F5F5
310
F5F5F5F5F5F5F5F5F5F5F5F5F5F5F5F5F5F5F5F5F5F5F5F5F5F5F5F5F5F5F5F5F5F5F5F5F5F5F5F5F5F5F5F5F5F5F5F5F5F5F5F5F5F5F5F5F5F5F5F5F5F5F5F5F5F5F5F5F5F5F5F5F5F5F5F5F5F5F5F5F5F5F5F5F5F5F52DF5F5F5F5F5F5F5F5F5F5F5F5F5F5F5F5F5F5F5F5E2E2EFE2F5F5F5F5F5F5F5F5F5F5F5F5F5F5F5
310
F5F5F5F5F52D2D2D2D2D2D2D2D2D2D2D2D2D2D2D2D2D2D2D2D2D2D2D2D2D2D2D2D2D2D2D2D2D2D2D2D2D2D2D2D2D2D2D2D2D2D2D2D2D2D2D2D2D2D2D2D2D2D2D2D2D2D2D2D2D2D2D2D2D2D2D2D2D2D2D2D2D2D2D2D2D2D2D2D2D2D2D2D2D2D2D2D2D2D2D2D2D2D2D2D2D2D2D2D2D2D2D2D2D2D2D2D2D2D2D2D2D2D2D2D2D2D
310
2D2D2D2D2D2D2D2D2D2D2D2D2D2DF5F5F5F5F5F5F5F5F5F5F5F5F5F5F5F5F5F5F5F5E2E2EFE2F5F5F5F5F5F5F5F5F5F5F5F5F5F5F5F5F5F5F5F5F5F5F5F5F5F5F5F5F5F5F5F5F5F5F5F5F5F5F5F5F5F5F5F5F5F5F5F5F5F5F5F5F5F5F5F5F5F5F5F5F5F5F5F5F5F5F5F5F5F5F5F5F5F5F5F5F5F5F5F5F5F5F5F5F5F5F5F5F5
310
F5F5F5F5F5F5F5F5F5F5F5F5F5F5F5F5F5F5F5F5F5F5F5F5F5F5F5F5F5F5F5F5F5F5F5F5F5F5F5F5F5F5F5F5F5F5F5F5F5F5F5F5F5F5F5F5F5F5F5F5F5F5F5F5F5F5F5F5F5F5F5F5F5F5F5F5F5F5F5F5F5F5F5F5F5F5F5E2E2EFE2F5F5F5F5F5F5F5F5F5F5F5F5F5F5F5F5F5F5F5F5F5F5F5F5F5F5F5F5F5F5F5F5F5F5F5F5
310
F5F5F5F5F5F5F5F5F5F5F5F5F5F5F5F5F5F5F5F5F5F5F5F5F5F5F5F5F5F5F5F5F5F5F5F5F5F5F5F5F5F5F5F5F5F5F5F5F5F5F5F5F5F5F5F5F5F5F5F5F5F5F5F5F5F5F5F5F5F5F5F5F5F5F5F5F5F5F5F5F5F5F5F5F5F5F5F5F5F5F5F5F5F5F5F5F5F5F5F5F5F5F5F5F5F5F5F5F5F5F5F5F5F5F5F5F5F5F5F5F5F5F5F5F5F5F5
310
F5F5F5F5F5F5F5F5F5F5F5F5F5E2E2EFE2F5F5F5F5F5F5F5F5F5F5F5F5F5F5F5F5F5F5F5F5F5F5F5F5F5F5F5F5F5F5F5F5F5F5F5F5F5F5F5F5F5F5F5F5F5F5F5F5F5F5F5F5F5F5F5F5F5F5F5F5F5F5F5F5F5F5F5F5F5F5F5F5F5F5F5F5F5F5F5F5F5F5F5F5F5F5F5F5F5F5F5F5F5F5F5F5F5F5F5F5F5F5F5F5F5F5F5F5F5F5
310
F5F5F5F5F5F5F5F5F5F5F5F5F5F5F5F5F5F5F5F5F5F5F5F5F5F5F5F5F5F5F5F5F5F5F5F5F5F5F5F5F5F5F5F5F5F5F5F5F5F5F5F5F5F5F5F5F5F5F5F5F5F5F5F5F5F5E2E2EFE2F5F5F5F5F5F5F5F5F5F5F5F5F5F5F5F5F5F5F5F5F5F5F5F5F5F5F5F5F5F5F5F5F5F5F5F5F5F5F5F5F5F5F5F5F5F5F5F5F5F5F5F5F5F5F5F5F5
310
F5F5F5F5F5F5F5F5F5F5F5F5F5F5F5F5F5F5F5F5F5F5F5F5F5F5F5F5F5F5F5F5F5F5F5F5F5F5F5F5F5F5F5F5F5F5F5F5F5F5F5F5F5F5F5F5F5F5F5F5F5F5F5F5F5F5F5F5F5F5F5F5F5F5F5F5F5F5F5F5F5F5F5F5F5F5F5F5F5F5F5F5F5F5F5F5F5F5F5F5F5F5F5F5F5F5F5F5F5F5F5F5F5F5F5F5F5F5F5E2E2EFE2F5F5F5E2
310
F5F5F5F5F5F5F5F5F5F5F5F5F5F5F5F5F5F5F5F5F5F5F5F5F5F5F5F5F5F5F5F5F5F5F5F5F5F5F5F5F5F5F5F5F5F5F5F5F5F5F5F5F5F5F5F5F5F5F5F5F5F5F5F5F5F5F5F5F5F5F5F5F5F5F5F5F5F5F5F5F5F5F5F5F5F5F5F5F5F5F5F5F5F5F5F5F5F5F5F5F5F5F5F5F5F5F5F5F5F5F5F5F5F5F5F5F5F5F5F5F5F5F5F5F5F5F5
310
F5F5F5F5F5F5F5F5F5F5F5F5F5F5F5F5F5F5F5F5F5F5F5F5F5F5F5F5F5F5F5F5F5F5F5F5F5F5F5F5F5E2F5F5F5E2E2EFE2F5F5F5E2F5F5F5F5F5F5F5F5F5F5F5F5F5F5F5F5F5F5F5F5F5F5F5F5F5F5F5F5F5F5F5F5F5F5F5F5F5F5F5F5F5F5F5F5F5F5F5F5F5F5F5F5F5F5F5F5F5F5F5F5F5F5F5F5F5F5F5F5F5F5F5F5F5F5
310
F5F5F5F5F5F5F5F5F5F5F5F5F5F5F5F5F5F5F5F5F5F5F5F5F5F5F5F5F5F5F5F5F5F5F5F5F5F5F5F5F5F5F5F5F5F5F5F5F5F5F5F5F5F5F5F5F5F5F5F5F5F5F5F5F5F5F5F5F5F5F5F5F5F5F5F5F5F5F5F5F5F5F5F5F5F5F5F5F5F5F5F5F5F5E2F5F5F5E2E2EFE2F5F5F5E2F5F5F5F5F5F5F5F5F5F5F5F5F5F5F5F5F5F5F5F5F5
310
F5F5F5F5F5F5F5F5F5F5F5F5F5F5F5F5F5F5F5F5F5F5F5F5F5F5F5F5F5F5F5F5F5F5F5F5F5F5F5F5F5F5F5F5F5F5F5F5F5F5F5F5F5F5F5F5F5F5F5F5F5F5F5F5F5F5F5F5F5F5F5F5F5F5F5F5F5F5F5F5F5F5F5F5F5F5F5F5F5F5F5F5F5F5F5F5F5F5F5F5F5F5F5F5F5F5F5F5F5F5F5F5F5F5F5F5F5F5F5F5F5F5F5F5F5F5F5
310
F5F5F5F5F5F5F5F5F5F5F5F5F5F5F5F5F5F5F5F5E2F5F5F5E2E2EFE2F5F5F5E2F5F5F5F5F5F5F5F5F5F5F5F5F5F5F5F5F5F5F5F5F5F5F5F5F5F5F5F5F5F5F5F5F5F5F5F5F5F5F5F5F5F5F5F5F5F5F5F5F5F5F5F5F5F5F5F5F5F5F5F5F5F5F5F5F5F5F5F5F5F5F5F5F5F5F5F5F5F5F5F5F5F5F5F5F5F5F5F5F5F5F5F5F5F5F5
310
F5F5F5F5F5F5F5F5F5F5F5F5F5F5F5F5F5F5F5F5F5F5F5F5F5F5F5F5F5F5F5F5F5F5F5F5F5F5F5F5F5F5F5F5F5F5F5F5F5F5F5F5F5F5F5F5F5F5F5F5F5F5F5F5F5F5F5F5F5F5F5F5F5E2F5F5F5E2E2EFE2F5F5F5E2F5F5F5F5F5F5F5F5F5F5F5F5F5F5F5F5F5F5F5F5F5F5F5F5F5F5F5F5F5F5F5F5F5F5F5F5F5F5F5F5F5F5
310
F5F5F5F5F5F5F5F5F5F5F5F5F5F5F5F5F5F5F5F5F5F5F5F5F5F5F5F5F5F5F5F5F5F5F5F5F5F5F5F5F5F5F5F5F5F5F5F5F5F5F5F5F5F5F5F5F5F5F5F5F5F5F5F5F5F5F5F5F5F5F5F5F5F5F5F5F5F5F5F5F5F5F5F5F5F5F5F5F5F5F5F5F5F5F5F5F5F5F5F5F5F5F5F5F5F5F5F5F5F5F5F5F5F5F5F5F5F5F5F5F5F5F5F5F5F5E2
310
F5F5F5E2E2EFE2F5F5F5E2F5F5F5F5F5F5F5F5F5F5F5F5F5F5F5F5F5F5F5F5F5F5F5F5F5F5F5F5F5F5F5F5F5F5F5F5F5F5F5F5F5F5F5F5F5F5F5F5F5F5F5F5F5F5F5F5F5F5F5F5F5F5F5F5F5F5F5F5F5F5F5F5F5F5F5F5F5F5F5F5F5F5F5F5F5F5F5F5F5F5F5F5F5F5F5F5F5F5F5F5F5F5F5F5F5F5F5F5F5F5F5F5F5F5F5F5
310
F5F5F5F5F5F5F5F5F5F5F5F5F5F5F5F5F5F5F5F5F5F5F5F5F5F5F5F5F5F5F5F5F5F5F5F5F5F5F5F5F5F5F5F5F5F5F5F5F5F5F5F5E2F5F5F5E2E2EFE2F5F5F5E2F5F5F5F5F5F5F5F5F5F5F5F5F5F5F5F5F5F5F5F5F5F5F5F5F5F5F5F5F5F5F5F5F5F5F5F5F5F5F5F5F5F5F5F5F5F5F5F5F5F5F5F5F5F5F5F5F5F5F5F5F5F5F5
310
F5F5F5F5F5F5F5F5F5F5F5F5F5F5F5F5F5F5F5F5F5F5F5F5F5F5F5F5F5F5F5F5F5F5F5F5F5F5F5F5F5F5F5F5F5F5F5F5F5F5F5F5F5F5F5F5F5F5F5F5F5F5F5F5F5F5F5F5F5F5F5F5F5F5F5F5F5F5F5F5F5F5F5F5F5F5F5F5F5F5F5F5F5F5F5F5F5F5F5F5F5F5F5F5F5E2F5F5F5E2E2EFE2F5F5F5E2F5F5F5F5F5F5F5F5F5F5
310
F5F5F5F5F5F5F5F5F5F5F5F5F5F5F5F5F5F5F5F5F5F5F5F5F5F5F5F5F5F5F5F5F5F5F5F5F5F5F5F5F5F5F5F5F5F5F5F5F5F5F5F5F5F5F5F5F5F5F5F5F5F5F5F5F5F5F5F5F5F5F5F5F5F5F5F5F5F5F5F5F5F5F5F5F5F5F5F5F5F5F5F5F5F5F5F5F5F5F5F5F5F5F5F5F5F5F5F5F5F5F5F5F5F5F5F5F5F5F5F5F5F5F5F5F5F5F5
310
F5F5F5F5F5F5F5F5F5F5F5F5F5F5F5F5F5F5F5F5F5F5F5F5F5F5F5F5F5F5F5E2F5F5F5E2E2EFE2F5F5F5E2E2E2E2E2E2E2E2F5F5F5F5F5F5F5F5F5E2E2E2E2E2E2E2E2E2E2E2E2E2E2E2F5F5F5F5F5F5F5F5F5E2E2E2E2E2E2E2E2E2E2E2E2E2E2E2E2F5F5F5F5F5F5F5F5E2E2E2E2E2E2E2E2E2E2E2E2E2E2E2E2F5F5F5F5
310
F5F5F5F5E2E2E2E2E2E2E2E2E2E2E2E2E2E2E2E2F5F5F5F5F5F5F5F5E2E2E2E2E2E2E2E2E2E2E2E2E2E2E2E2F5F5F5F5F5F5F5F5F5E2E2E2E2E2E2E2E2E2E2E2E2E2E2E2F5F5F5F5F5F5F5F5F5E2E2E2E2E2E2E2E2F5F5F5E2E2EFE2F5F5F5F5F5F5F5F5F5F5F5F5F5F5F5F5F5F5F5F5F5F5F5F5F5F5F5F5F5F5F5F5F5F5F5
310
F5F5F5F5F5F5F5F5F5F5F5F5F5F5F5F5F5F5F5F5F5F5F5F5F5F5F5F5F5F5F5F5F5F5F5F5F5F5F5F5F5F5F5F5F5F5F5F5F5F5F5F5F5F5F5F5F5F5F5F5F5F5F5F5F5F5F5F5F5F5F5F5F5F5F5F5F5F5F5F5F5F5F5F5F5F5F5F5F5F5F5F5F5F5F5F5F5F5F5F5F5F5F5F5F5F5F5F5F5F5F5F5F5F5F5F5F5F5F5F5F5F5F5F5F5F5F5
310
F5F5F5F5F5F5F5F5F5F5F5F5F5F5E2E2EFE2F5F5F5F5F5F5F5F5F5F5F5F5F5F5F5F5F5F5F5F5F5F5F5F5F5F5F5F5F5F5F5F5F5F5F5F5F5F5F5F5F5F5F5F5F5F5F5F5F5F5F5F5F5F5F5F5F5F5F5F5F5F5F5F5F5F5F5F5F5F5F5F5F5F5F5F5F5F5F5F5F5F5F5F5F5F5F5F5F5F5F5F5F5F5F5F5F5F5F5F5F5F5F5F5F5F5F5F5F5
310
F5F5F5F5F5F5F5F5F5F5F5F5F5F5F5F5F5F5F5F5F5F5F5F5F5F5F5F5F5F5F5F5F5F5F5F5F5F5F5F5F5F5F5F5F5F5F5F5F5F5F5F5F5F5F5F5F5F5F5F5F5F5F5F5F5F5F5E2EFEFE2F5F5F5F5F5F5F5F5F5F5F5F5F5F5F5F5F5F5F5F5F5F5F5F5F5F5F5F5F5F5F5F5F5F5F5F5F5F5F5F5F5F5F5F5F5F5F5F5F5F5F5F5F5F5F5F5
310
F5F5F5F5F5F5F5F5F5F5F5F5F5F5F5F5F5F5F5F5F5F5F5F5F5F5F5F5F5F5F5F5F5F5F5F5F5F5F5F5F5F5F5F5F5F5F5F5F5F5F5F5F5F5F5F5F5F5F5F5F5F5F5F5F5F5F5F5F5F5F5F5F5F5F5F5F5F5F5F5F5F5F5F5F5F5F5F5F5F5F5F5F5F5F5F5F5F5F5F5F5F5F5F5F5F5F5F5F5F5F5F5F5F5F5F5F5F5F5F5E2EFEFE2E2E2E2
310
E2E2E2E2E2E2E2E2E2E2E2E2E2E2E2E2E2E2E2E2E2E2E2E2E2E2E2E2E2E2E2E2E2E2E2E2E2E2E2E2E2E2E2E2E2E2E2E2E2E2E2E2E2E2E2E2E2E2E2E2E2E2E2E2E2E2E2E2E2E2E2E2E2E2E2E2E2E2E2E2E2E2E2E2E2E2E2E2E2E2E2E2E2E2E2E2E2E2E2E2E2E2E2E2E2E2E2E2E2E2E2E2E2E2E2E2E2E2E2E2E2E2E2E2E2E2E2
310
E2E2E2E2E2E2E2E2E2E2E2E2E2E2E2E2E2E2E2E2E2E2E2E2E2E2E2E2E2E2E2E2E2E2E2E2E2E2E2E2E2E2E2E2E2E2E2EFEF
  0
XRECORD
  5
2F6E83
102
{ACAD_REACTORS
330
2F02A1
102
}
330
2F02A1
100
AcDbXrecord
280
     1
102
MATERIAL
148
0.0
149
0.0
149
0.0
 93
        0
 94
      127
282
     0
 72
     0
 77
     0
171
     0
175
     0
179
     0
273
     0
  0
XRECORD
  5
2F02A3
102
{ACAD_REACTORS
330
2F02A1
102
}
330
2F02A1
100
AcDbXrecord
280
     1
270
     1
271
     1
  0
XRECORD
  5
2F02A2
102
{ACAD_REACTORS
330
2F02A1
102
}
330
2F02A1
100
AcDbXrecord
280
     1
270
     1
271
     1
  0
XRECORD
  5
2F02A6
102
{ACAD_REACTORS
330
2F02A1
102
}
330
2F02A1
100
AcDbXrecord
280
     1
270
     1
271
     1
  0
XRECORD
  5
2F02A5
102
{ACAD_REACTORS
330
2F02A1
102
}
330
2F02A1
100
AcDbXrecord
280
     1
270
     1
271
     1
  0
XRECORD
  5
2F02A7
102
{ACAD_REACTORS
330
2F02A1
102
}
330
2F02A1
100
AcDbXrecord
280
     1
270
     1
271
     1
  0
XRECORD
  5
2F02A4
102
{ACAD_REACTORS
330
2F02A1
102
}
330
2F02A1
100
AcDbXrecord
280
     1
270
     1
271
     1
  0
XRECORD
  5
2F6E82
102
{ACAD_REACTORS
330
2F0299
102
}
330
2F0299
100
AcDbXrecord
280
     1
102
MATERIAL
148
0.0
149
0.0
149
0.0
 93
        0
 94
      127
282
     0
 72
     0
 77
     0
171
     0
175
     0
179
     0
273
     0
  0
XRECORD
  5
2F029B
102
{ACAD_REACTORS
330
2F0299
102
}
330
2F0299
100
AcDbXrecord
280
     1
270
     1
271
     1
  0
XRECORD
  5
2F029A
102
{ACAD_REACTORS
330
2F0299
102
}
330
2F0299
100
AcDbXrecord
280
     1
270
     1
271
     1
  0
XRECORD
  5
2F029E
102
{ACAD_REACTORS
330
2F0299
102
}
330
2F0299
100
AcDbXrecord
280
     1
270
     1
271
     1
  0
XRECORD
  5
2F029D
102
{ACAD_REACTORS
330
2F0299
102
}
330
2F0299
100
AcDbXrecord
280
     1
270
     1
271
     1
  0
XRECORD
  5
2F029F
102
{ACAD_REACTORS
330
2F0299
102
}
330
2F0299
100
AcDbXrecord
280
     1
270
     1
271
     1
  0
XRECORD
  5
2F029C
102
{ACAD_REACTORS
330
2F0299
102
}
330
2F0299
100
AcDbXrecord
280
     1
270
     1
271
     1
  0
XRECORD
  5
2F6E84
102
{ACAD_REACTORS
330
2F02A9
102
}
330
2F02A9
100
AcDbXrecord
280
     1
102
MATERIAL
148
0.0
149
0.0
149
0.0
 93
        0
 94
      127
282
     0
 72
     0
 77
     0
171
     0
175
     0
179
     0
273
     0
  0
XRECORD
  5
2F02AB
102
{ACAD_REACTORS
330
2F02A9
102
}
330
2F02A9
100
AcDbXrecord
280
     1
270
     1
271
     1
  0
XRECORD
  5
2F02AA
102
{ACAD_REACTORS
330
2F02A9
102
}
330
2F02A9
100
AcDbXrecord
280
     1
270
     1
271
     1
  0
XRECORD
  5
2F02AE
102
{ACAD_REACTORS
330
2F02A9
102
}
330
2F02A9
100
AcDbXrecord
280
     1
270
     1
271
     1
  0
XRECORD
  5
2F02AD
102
{ACAD_REACTORS
330
2F02A9
102
}
330
2F02A9
100
AcDbXrecord
280
     1
270
     1
271
     1
  0
XRECORD
  5
2F02AF
102
{ACAD_REACTORS
330
2F02A9
102
}
330
2F02A9
100
AcDbXrecord
280
     1
270
     1
271
     1
  0
XRECORD
  5
2F02AC
102
{ACAD_REACTORS
330
2F02A9
102
}
330
2F02A9
100
AcDbXrecord
280
     1
270
     1
271
     1
  0
CELLSTYLEMAP
  5
2F6E8F
102
{ACAD_REACTORS
330
2F02D3
102
}
330
2F02D3
100
AcDbCellStyleMap
 90
        3
300
CELLSTYLE
  1
TABLEFORMAT_BEGIN
 90
        5
170
     1
 91
        0
 92
    32768
 62
   257
 93
        1
300
CONTENTFORMAT
  1
CONTENTFORMAT_BEGIN
 90
        0
 91
        0
 92
      512
 93
        0
300

 40
0.0
140
1.0
 94
        5
 62
     0
340
10
144
0.25
309
CONTENTFORMAT_END
171
     1
301
MARGIN
  1
CELLMARGIN_BEGIN
 40
0.06
 40
0.06
 40
0.06
 40
0.06
 40
0.18
 40
0.18
309
CELLMARGIN_END
 94
        6
 95
        1
302
GRIDFORMAT
  1
GRIDFORMAT_BEGIN
 90
        0
 91
        1
 62
     0
 92
       -2
340
0
 93
        0
 40
0.045
309
GRIDFORMAT_END
 95
        2
302
GRIDFORMAT
  1
GRIDFORMAT_BEGIN
 90
        0
 91
        1
 62
     0
 92
       -2
340
0
 93
        0
 40
0.045
309
GRIDFORMAT_END
 95
        4
302
GRIDFORMAT
  1
GRIDFORMAT_BEGIN
 90
        0
 91
        1
 62
     0
 92
       -2
340
0
 93
        0
 40
0.045
309
GRIDFORMAT_END
 95
        8
302
GRIDFORMAT
  1
GRIDFORMAT_BEGIN
 90
        0
 91
        1
 62
     0
 92
       -2
340
0
 93
        0
 40
0.045
309
GRIDFORMAT_END
 95
       16
302
GRIDFORMAT
  1
GRIDFORMAT_BEGIN
 90
        0
 91
        1
 62
     0
 92
       -2
340
0
 93
        0
 40
0.045
309
GRIDFORMAT_END
 95
       32
302
GRIDFORMAT
  1
GRIDFORMAT_BEGIN
 90
        0
 91
        1
 62
     0
 92
       -2
340
0
 93
        0
 40
0.045
309
GRIDFORMAT_END
309
TABLEFORMAT_END
  1
CELLSTYLE_BEGIN
 90
        1
 91
        1
300
_TITLE
309
CELLSTYLE_END
300
CELLSTYLE
  1
TABLEFORMAT_BEGIN
 90
        5
170
     1
 91
        0
 92
        0
 62
   257
 93
        1
300
CONTENTFORMAT
  1
CONTENTFORMAT_BEGIN
 90
        0
 91
        0
 92
      512
 93
        0
300

 40
0.0
140
1.0
 94
        5
 62
     0
340
10
144
0.18
309
CONTENTFORMAT_END
171
     1
301
MARGIN
  1
CELLMARGIN_BEGIN
 40
0.06
 40
0.06
 40
0.06
 40
0.06
 40
0.18
 40
0.18
309
CELLMARGIN_END
 94
        6
 95
        1
302
GRIDFORMAT
  1
GRIDFORMAT_BEGIN
 90
        0
 91
        1
 62
     0
 92
       -2
340
0
 93
        0
 40
0.045
309
GRIDFORMAT_END
 95
        2
302
GRIDFORMAT
  1
GRIDFORMAT_BEGIN
 90
        0
 91
        1
 62
     0
 92
       -2
340
0
 93
        0
 40
0.045
309
GRIDFORMAT_END
 95
        4
302
GRIDFORMAT
  1
GRIDFORMAT_BEGIN
 90
        0
 91
        1
 62
     0
 92
       -2
340
0
 93
        0
 40
0.045
309
GRIDFORMAT_END
 95
        8
302
GRIDFORMAT
  1
GRIDFORMAT_BEGIN
 90
        0
 91
        1
 62
     0
 92
       -2
340
0
 93
        0
 40
0.045
309
GRIDFORMAT_END
 95
       16
302
GRIDFORMAT
  1
GRIDFORMAT_BEGIN
 90
        0
 91
        1
 62
     0
 92
       -2
340
0
 93
        0
 40
0.045
309
GRIDFORMAT_END
 95
       32
302
GRIDFORMAT
  1
GRIDFORMAT_BEGIN
 90
        0
 91
        1
 62
     0
 92
       -2
340
0
 93
        0
 40
0.045
309
GRIDFORMAT_END
309
TABLEFORMAT_END
  1
CELLSTYLE_BEGIN
 90
        2
 91
        1
300
_HEADER
309
CELLSTYLE_END
300
CELLSTYLE
  1
TABLEFORMAT_BEGIN
 90
        5
170
     1
 91
        0
 92
        0
 62
   257
 93
        1
300
CONTENTFORMAT
  1
CONTENTFORMAT_BEGIN
 90
        0
 91
        0
 92
      512
 93
        0
300

 40
0.0
140
1.0
 94
        2
 62
     0
340
10
144
0.18
309
CONTENTFORMAT_END
171
     1
301
MARGIN
  1
CELLMARGIN_BEGIN
 40
0.06
 40
0.06
 40
0.06
 40
0.06
 40
0.18
 40
0.18
309
CELLMARGIN_END
 94
        6
 95
        1
302
GRIDFORMAT
  1
GRIDFORMAT_BEGIN
 90
        0
 91
        1
 62
     0
 92
       -2
340
0
 93
        0
 40
0.045
309
GRIDFORMAT_END
 95
        2
302
GRIDFORMAT
  1
GRIDFORMAT_BEGIN
 90
        0
 91
        1
 62
     0
 92
       -2
340
0
 93
        0
 40
0.045
309
GRIDFORMAT_END
 95
        4
302
GRIDFORMAT
  1
GRIDFORMAT_BEGIN
 90
        0
 91
        1
 62
     0
 92
       -2
340
0
 93
        0
 40
0.045
309
GRIDFORMAT_END
 95
        8
302
GRIDFORMAT
  1
GRIDFORMAT_BEGIN
 90
        0
 91
        1
 62
     0
 92
       -2
340
0
 93
        0
 40
0.045
309
GRIDFORMAT_END
 95
       16
302
GRIDFORMAT
  1
GRIDFORMAT_BEGIN
 90
        0
 91
        1
 62
     0
 92
       -2
340
0
 93
        0
 40
0.045
309
GRIDFORMAT_END
 95
       32
302
GRIDFORMAT
  1
GRIDFORMAT_BEGIN
 90
        0
 91
        1
 62
     0
 92
       -2
340
0
 93
        0
 40
0.045
309
GRIDFORMAT_END
309
TABLEFORMAT_END
  1
CELLSTYLE_BEGIN
 90
        3
 91
        2
300
_DATA
309
CELLSTYLE_END
  0
XRECORD
  5
2F6E96
102
{ACAD_REACTORS
330
2F02D3
102
}
330
2F02D3
100
AcDbXrecord
280
     1
102
ACAD_ROUNDTRIP_PRE2007_TABLESTYLE
 90
      512
 91
        0
  1

 92
      512
 93
        0
  2

 94
      512
 95
        0
  3

  0
ENDSEC
  0
EOF
