  0
SECTION
  2
HEADER
  9
$ACADVER
  1
AC1015
  9
$ACADMAINTVER
 70
    20
  9
$DWGCODEPAGE
  3
ANSI_932
  9
$INSBASE
 10
0.0
 20
0.0
 30
0.0
  9
$EXTMIN
 10
3083.095156156402
 20
-17430.39725475983
 30
-0.0000000000000082
  9
$EXTMAX
 10
3252.114028039688
 20
-17305.86782282232
 30
0.0000000000000074
  9
$LIMMIN
 10
0.0
 20
0.0
  9
$LIMMAX
 10
420.0
 20
297.0
  9
$ORTHOMODE
 70
     0
  9
$REGENMODE
 70
     1
  9
$FILLMODE
 70
     1
  9
$QTEXTMODE
 70
     0
  9
$MIRRTEXT
 70
     1
  9
$LTSCALE
 40
5.0
  9
$ATTMODE
 70
     0
  9
$TEXTSIZE
 40
3.5
  9
$TRACEWID
 40
1.0
  9
$TEXTSTYLE
  7
STANDARD
  9
$CLAYER
  8
0
  9
$CELTYPE
  6
BYLAYER
  9
$CECOLOR
 62
   256
  9
$CELTSCALE
 40
1.0
  9
$DISPSILH
 70
     0
  9
$DIMSCALE
 40
1.0
  9
$DIMASZ
 40
3.5
  9
$DIMEXO
 40
1.0
  9
$DIMDLI
 40
3.0
  9
$DIMRND
 40
0.0
  9
$DIMDLE
 40
0.0
  9
$DIMEXE
 40
1.0
  9
$DIMTP
 40
0.0
  9
$DIMTM
 40
0.0
  9
$DIMTXT
 40
2.5
  9
$DIMCEN
 40
0.0
  9
$DIMTSZ
 40
0.0
  9
$DIMTOL
 70
     0
  9
$DIMLIM
 70
     0
  9
$DIMTIH
 70
     0
  9
$DIMTOH
 70
     0
  9
$DIMSE1
 70
     0
  9
$DIMSE2
 70
     0
  9
$DIMTAD
 70
     3
  9
$DIMZIN
 70
     8
  9
$DIMBLK
  1

  9
$DIMASO
 70
     1
  9
$DIMSHO
 70
     0
  9
$DIMPOST
  1

  9
$DIMAPOST
  1

  9
$DIMALT
 70
     0
  9
$DIMALTD
 70
     0
  9
$DIMALTF
 40
25.4
  9
$DIMLFAC
 40
1.0
  9
$DIMTOFL
 70
     0
  9
$DIMTVP
 40
0.0
  9
$DIMTIX
 70
     0
  9
$DIMSOXD
 70
     0
  9
$DIMSAH
 70
     1
  9
$DIMBLK1
  1
OPEN
  9
$DIMBLK2
  1
OPEN
  9
$DIMSTYLE
  2
ｺﾋﾟｰ - STANDARD
  9
$DIMCLRD
 70
     8
  9
$DIMCLRE
 70
     8
  9
$DIMCLRT
 70
   256
  9
$DIMTFAC
 40
1.0
  9
$DIMGAP
 40
1.0
  9
$DIMJUST
 70
     0
  9
$DIMSD1
 70
     0
  9
$DIMSD2
 70
     0
  9
$DIMTOLJ
 70
     1
  9
$DIMTZIN
 70
     0
  9
$DIMALTZ
 70
     0
  9
$DIMALTTZ
 70
     0
  9
$DIMUPT
 70
     0
  9
$DIMDEC
 70
     2
  9
$DIMTDEC
 70
     2
  9
$DIMALTU
 70
     2
  9
$DIMALTTD
 70
     0
  9
$DIMTXSTY
  7
STANDARD
  9
$DIMAUNIT
 70
     0
  9
$DIMADEC
 70
     2
  9
$DIMALTRND
 40
0.0
  9
$DIMAZIN
 70
     2
  9
$DIMDSEP
 70
    46
  9
$DIMATFIT
 70
     3
  9
$DIMFRAC
 70
     0
  9
$DIMLDRBLK
  1
OPEN
  9
$DIMLUNIT
 70
     2
  9
$DIMLWD
 70
    -2
  9
$DIMLWE
 70
    -2
  9
$DIMTMOVE
 70
     0
  9
$LUNITS
 70
     2
  9
$LUPREC
 70
     2
  9
$SKETCHINC
 40
0.1
  9
$FILLETRAD
 40
2.0
  9
$AUNITS
 70
     0
  9
$AUPREC
 70
     1
  9
$MENU
  1
FM
  9
$ELEVATION
 40
0.0
  9
$PELEVATION
 40
0.0
  9
$THICKNESS
 40
0.0
  9
$LIMCHECK
 70
     0
  9
$CHAMFERA
 40
0.0
  9
$CHAMFERB
 40
0.0
  9
$CHAMFERC
 40
0.0
  9
$CHAMFERD
 40
0.0
  9
$SKPOLY
 70
     0
  9
$TDCREATE
 40
2448636.619629630
  9
$TDUCREATE
 40
2448636.244629629
  9
$TDUPDATE
 40
2457242.683584213
  9
$TDUUPDATE
 40
2457242.308584213
  9
$TDINDWG
 40
96.6277683681
  9
$TDUSRTIMER
 40
2456807.710110185
  9
$USRTIMER
 70
     1
  9
$ANGBASE
 50
0.0
  9
$ANGDIR
 70
     0
  9
$PDMODE
 70
     3
  9
$PDSIZE
 40
0.0
  9
$PLINEWID
 40
0.0
  9
$SPLFRAME
 70
     0
  9
$SPLINETYPE
 70
     6
  9
$SPLINESEGS
 70
     8
  9
$HANDSEED
  5
2F3F64
  9
$SURFTAB1
 70
     6
  9
$SURFTAB2
 70
     6
  9
$SURFTYPE
 70
     6
  9
$SURFU
 70
     6
  9
$SURFV
 70
     6
  9
$UCSBASE
  2

  9
$UCSNAME
  2

  9
$UCSORG
 10
0.0
 20
0.0
 30
0.0
  9
$UCSXDIR
 10
1.0
 20
0.0
 30
0.0
  9
$UCSYDIR
 10
0.0
 20
1.0
 30
0.0
  9
$UCSORTHOREF
  2

  9
$UCSORTHOVIEW
 70
     0
  9
$UCSORGTOP
 10
0.0
 20
0.0
 30
0.0
  9
$UCSORGBOTTOM
 10
0.0
 20
0.0
 30
0.0
  9
$UCSORGLEFT
 10
0.0
 20
0.0
 30
0.0
  9
$UCSORGRIGHT
 10
0.0
 20
0.0
 30
0.0
  9
$UCSORGFRONT
 10
0.0
 20
0.0
 30
0.0
  9
$UCSORGBACK
 10
0.0
 20
0.0
 30
0.0
  9
$PUCSBASE
  2

  9
$PUCSNAME
  2

  9
$PUCSORG
 10
0.0
 20
0.0
 30
0.0
  9
$PUCSXDIR
 10
1.0
 20
0.0
 30
0.0
  9
$PUCSYDIR
 10
0.0
 20
1.0
 30
0.0
  9
$PUCSORTHOREF
  2

  9
$PUCSORTHOVIEW
 70
     0
  9
$PUCSORGTOP
 10
0.0
 20
0.0
 30
0.0
  9
$PUCSORGBOTTOM
 10
0.0
 20
0.0
 30
0.0
  9
$PUCSORGLEFT
 10
0.0
 20
0.0
 30
0.0
  9
$PUCSORGRIGHT
 10
0.0
 20
0.0
 30
0.0
  9
$PUCSORGFRONT
 10
0.0
 20
0.0
 30
0.0
  9
$PUCSORGBACK
 10
0.0
 20
0.0
 30
0.0
  9
$USERI1
 70
     0
  9
$USERI2
 70
     0
  9
$USERI3
 70
     0
  9
$USERI4
 70
     0
  9
$USERI5
 70
     0
  9
$USERR1
 40
0.0
  9
$USERR2
 40
0.0
  9
$USERR3
 40
0.0
  9
$USERR4
 40
0.0
  9
$USERR5
 40
0.0
  9
$WORLDVIEW
 70
     0
  9
$SHADEDGE
 70
     3
  9
$SHADEDIF
 70
    70
  9
$TILEMODE
 70
     1
  9
$MAXACTVP
 70
    16
  9
$PINSBASE
 10
0.0
 20
0.0
 30
0.0
  9
$PLIMCHECK
 70
     0
  9
$PEXTMIN
 10
1.049999952316284
 20
0.7999999523162842
 30
0.0
  9
$PEXTMAX
 10
9.449999570846559
 20
7.199999570846558
 30
0.0
  9
$PLIMMIN
 10
-0.2500002402958907
 20
-0.2499999962453767
  9
$PLIMMAX
 10
10.74999951940822
 20
8.249999763458733
  9
$UNITMODE
 70
     0
  9
$VISRETAIN
 70
     0
  9
$PLINEGEN
 70
     0
  9
$PSLTSCALE
 70
     0
  9
$TREEDEPTH
 70
  3020
  9
$CMLSTYLE
  2
STANDARD
  9
$CMLJUST
 70
     0
  9
$CMLSCALE
 40
1.0
  9
$PROXYGRAPHICS
 70
     1
  9
$MEASUREMENT
 70
     0
  9
$CELWEIGHT
370
    -1
  9
$ENDCAPS
280
     0
  9
$JOINSTYLE
280
     0
  9
$LWDISPLAY
290
     0
  9
$INSUNITS
 70
     0
  9
$HYPERLINKBASE
  1

  9
$STYLESHEET
  1
spax form.ctb
  9
$XEDIT
290
     1
  9
$CEPSNTYPE
380
     0
  9
$PSTYLEMODE
290
     1
  9
$FINGERPRINTGUID
  2
{BBAEEBA6-8B94-11D3-9160-00E0294F7E09}
  9
$VERSIONGUID
  2
{7BC44DC5-0DA4-486D-8B10-20FBAB884AE8}
  9
$EXTNAMES
290
     1
  9
$PSVPSCALE
 40
0.0
  9
$OLESTARTUP
290
     0
  0
ENDSEC
  0
SECTION
  2
CLASSES
  0
CLASS
  1
LWPOLYLINE
  2
AcDbPolyline
  3
ObjectDBX Classes
 90
        0
280
     0
281
     1
  0
CLASS
  1
ACDBDICTIONARYWDFLT
  2
AcDbDictionaryWithDefault
  3
ObjectDBX Classes
 90
        0
280
     0
281
     0
  0
CLASS
  1
ACDBPLACEHOLDER
  2
AcDbPlaceHolder
  3
ObjectDBX Classes
 90
        0
280
     0
281
     0
  0
CLASS
  1
LAYOUT
  2
AcDbLayout
  3
ObjectDBX Classes
 90
        0
280
     0
281
     0
  0
CLASS
  1
DICTIONARYVAR
  2
AcDbDictionaryVar
  3
ObjectDBX Classes
 90
        0
280
     0
281
     0
  0
CLASS
  1
MATERIAL
  2
AcDbMaterial
  3
ObjectDBX Classes
 90
     1153
280
     0
281
     0
  0
CLASS
  1
VISUALSTYLE
  2
AcDbVisualStyle
  3
ObjectDBX Classes
 90
     4095
280
     0
281
     0
  0
CLASS
  1
TABLESTYLE
  2
AcDbTableStyle
  3
ObjectDBX Classes
 90
     4095
280
     0
281
     0
  0
CLASS
  1
SCALE
  2
AcDbScale
  3
ObjectDBX Classes
 90
     1153
280
     0
281
     0
  0
CLASS
  1
MLEADERSTYLE
  2
AcDbMLeaderStyle
  3
ACDB_MLEADERSTYLE_CLASS
 90
     4095
280
     0
281
     0
  0
CLASS
  1
CELLSTYLEMAP
  2
AcDbCellStyleMap
  3
ObjectDBX Classes
 90
     1152
280
     0
281
     0
  0
CLASS
  1
SORTENTSTABLE
  2
AcDbSortentsTable
  3
ObjectDBX Classes
 90
        0
280
     0
281
     0
  0
CLASS
  1
DIMASSOC
  2
AcDbDimAssoc
  3
"AcDbDimAssoc|Product Desc:     AcDim ARX App For Dimension|Company:          Autodesk, Inc.|WEB Address:      www.autodesk.com"
 90
    32768
280
     0
281
     0
  0
CLASS
  1
ACDB_RADIMOBJECTCONTEXTDATA_CLASS
  2
AcDbRadialDimensionObjectContextData
  3
ObjectDBX Classes
 90
    33921
280
     0
281
     0
  0
CLASS
  1
ACDB_DMDIMOBJECTCONTEXTDATA_CLASS
  2
AcDbDiametricDimensionObjectContextData
  3
ObjectDBX Classes
 90
    33921
280
     0
281
     0
  0
CLASS
  1
MULTILEADER
  2
AcDbMLeader
  3
ACDB_MLEADER_CLASS
 90
    33793
280
     0
281
     1
  0
CLASS
  1
AEC_VARS_DWG_SETUP
  2
AecDbVarsDwgSetup
  3
AecBase60
 90
      129
280
     0
281
     0
  0
CLASS
  1
AEC_DISP_REP_2D_SECTION
  2
AecDbDispRep2dSection
  3
AecBase60
 90
      129
280
     0
281
     0
  0
CLASS
  1
AEC_DISP_PROPS_2D_SECTION
  2
AecDbDispProps2dSection
  3
AecBase60
 90
      129
280
     0
281
     0
  0
CLASS
  1
AEC_DISP_REP_CLIP_VOLUME_MODEL
  2
AecDbDispRepClipVolModel
  3
AecBase60
 90
      129
280
     0
281
     0
  0
CLASS
  1
AEC_DISP_PROPS_CLIP_VOLUME
  2
AecDbDispPropsClipVol
  3
AecBase60
 90
      129
280
     0
281
     0
  0
CLASS
  1
AEC_DISP_REP_CLIP_VOLUME_PLAN
  2
AecDbDispRepClipVolPlan
  3
AecBase60
 90
      129
280
     0
281
     0
  0
CLASS
  1
AEC_DISP_REP_CLIP_VOLUME_RESULT
  2
AecDbDispRepClipVolResult
  3
AecBase60
 90
      129
280
     0
281
     0
  0
CLASS
  1
AEC_DISP_REP_CLIP_VOLUME_RESULT_SUBDIV
  2
AecDbDispRepClipVolResSubDiv
  3
AecBase60
 90
      129
280
     0
281
     0
  0
CLASS
  1
AEC_DISP_PROPS_CLIP_VOLUME_RESULT
  2
AecDbDispPropsClipVolResSubDiv
  3
AecBase60
 90
      129
280
     0
281
     0
  0
CLASS
  1
AEC_DISP_REP_DISPLAYTHEME
  2
AecDbDispRepDisplayTheme
  3
AecBase60
 90
      129
280
     0
281
     0
  0
CLASS
  1
AEC_DISP_PROPS_DISPLAYTHEME
  2
AecDbDispPropsDisplayTheme
  3
AecBase60
 90
      129
280
     0
281
     0
  0
CLASS
  1
AEC_DISP_REP_ENT_REF
  2
AecDbDispRepEntRef
  3
AecBase60
 90
      129
280
     0
281
     0
  0
CLASS
  1
AEC_DISP_PROPS_ENT_REF
  2
AecDbDispPropsEntRef
  3
AecBase60
 90
      129
280
     0
281
     0
  0
CLASS
  1
AEC_DISP_REP_LAYOUT_CURVE
  2
AecDbDispRepLayoutCurve
  3
AecBase60
 90
      129
280
     0
281
     0
  0
CLASS
  1
AEC_DISP_PROPS_LAYOUT_CURVE
  2
AecDbDispPropsLayoutCurve
  3
AecBase60
 90
      129
280
     0
281
     0
  0
CLASS
  1
AEC_DISP_REP_LAYOUT_GRID2D
  2
AecDbDispRepLayoutGrid2d
  3
AecBase60
 90
      129
280
     0
281
     0
  0
CLASS
  1
AEC_DISP_PROPS_LAYOUT_GRID2D
  2
AecDbDispPropsLayoutGrid2d
  3
AecBase60
 90
      129
280
     0
281
     0
  0
CLASS
  1
AEC_DISP_REP_LAYOUT_GRID3D
  2
AecDbDispRepLayoutGrid3d
  3
AecBase60
 90
      129
280
     0
281
     0
  0
CLASS
  1
AEC_DISP_PROPS_LAYOUT_GRID3D
  2
AecDbDispPropsLayoutGrid3d
  3
AecBase60
 90
      129
280
     0
281
     0
  0
CLASS
  1
AEC_DISP_REP_MASKBLOCK_REF
  2
AecDbDispRepMaskBlockRef
  3
AecBase60
 90
      129
280
     0
281
     0
  0
CLASS
  1
AEC_DISP_PROPS_MASKBLOCK
  2
AecDbDispPropsMaskBlock
  3
AecBase60
 90
      129
280
     0
281
     0
  0
CLASS
  1
AEC_DISP_REP_MASKBLOCK_REF_RCP
  2
AecDbDispRepMaskBlockRefRcp
  3
AecArchBase60
 90
      129
280
     0
281
     0
  0
CLASS
  1
AEC_DISP_REP_MASS_ELEM_MODEL
  2
AecDbDispRepMassElemModel
  3
AecBase60
 90
      129
280
     0
281
     0
  0
CLASS
  1
AEC_DISP_PROPS_MASS_ELEM_MODEL
  2
AecDbDispPropsMassElem
  3
AecBase60
 90
      129
280
     0
281
     0
  0
CLASS
  1
AEC_DISP_REP_MASS_ELEM_SCHEM
  2
AecDbDispRepMassElemSchem
  3
AecBase60
 90
      129
280
     0
281
     0
  0
CLASS
  1
AEC_DISPREPAECDBDISPREPMASSELEMPLAN50
  2
AecDbDispRepMassElemPlan50
  3
AecArchDACHBase60
 90
      129
280
     0
281
     0
  0
CLASS
  1
AEC_DISPROPSMASSELEMPLANCOMMON
  2
AecDbDispPropsMassElemPlanCommon
  3
AecArchDACHBase60
 90
      129
280
     0
281
     0
  0
CLASS
  1
AEC_DISPREPAECDBDISPREPMASSELEMPLAN100
  2
AecDbDispRepMassElemPlan100
  3
AecArchDACHBase60
 90
      129
280
     0
281
     0
  0
CLASS
  1
AEC_DISP_REP_MASS_ELEM_RCP
  2
AecDbDispRepMassElemRcp
  3
AecArchBase60
 90
      129
280
     0
281
     0
  0
CLASS
  1
AEC_DISP_REP_MASS_GROUP_MODEL
  2
AecDbDispRepMassGroupModel
  3
AecBase60
 90
      129
280
     0
281
     0
  0
CLASS
  1
AEC_DISP_PROPS_MASS_GROUP
  2
AecDbDispPropsMassGroup
  3
AecBase60
 90
      129
280
     0
281
     0
  0
CLASS
  1
AEC_DISP_REP_MASS_GROUP_PLAN
  2
AecDbDispRepMassGroupPlan
  3
AecBase60
 90
      129
280
     0
281
     0
  0
CLASS
  1
AEC_DISPREPAECDBDISPREPMASSGROUPPLAN50
  2
AecDbDispRepMassGroupPlan50
  3
AecArchDACHBase60
 90
      129
280
     0
281
     0
  0
CLASS
  1
AEC_DISPROPSMASSGROUPPLANCOMMON
  2
AecDbDispPropsMassGroupPlanCommon
  3
AecArchDACHBase60
 90
      129
280
     0
281
     0
  0
CLASS
  1
AEC_DISPREPAECDBDISPREPMASSGROUPPLAN100
  2
AecDbDispRepMassGroupPlan100
  3
AecArchDACHBase60
 90
      129
280
     0
281
     0
  0
CLASS
  1
AEC_DISP_REP_MASS_GROUP_RCP
  2
AecDbDispRepMassGroupRcp
  3
AecArchBase60
 90
      129
280
     0
281
     0
  0
CLASS
  1
AEC_DISP_REP_MVBLOCK_REF
  2
AecDbDispRepMvBlockRef
  3
AecBase60
 90
      129
280
     0
281
     0
  0
CLASS
  1
AEC_DISP_REP_MVBLOCK_REF_MODEL
  2
AecDbDispRepMvBlockRefModel
  3
AecBase60
 90
      129
280
     0
281
     0
  0
CLASS
  1
AEC_AECDBDISPREPMVBLOCKREFPLAN100
  2
AecDbDispRepMvBlockRefPlan100
  3
AecBase60
 90
      129
280
     0
281
     0
  0
CLASS
  1
AEC_AECDBDISPREPMVBLOCKREFPLAN50
  2
AecDbDispRepMvBlockRefPlan50
  3
AecBase60
 90
      129
280
     0
281
     0
  0
CLASS
  1
AEC_DISP_REP_POLYGON_MODEL
  2
AecDbDispRepPolygonModel
  3
AecBase60
 90
      129
280
     0
281
     0
  0
CLASS
  1
AEC_DISP_PROPS_POLYGON_MODEL
  2
AecDbDispPropsPolygonModel
  3
AecBase60
 90
      129
280
     0
281
     0
  0
CLASS
  1
AEC_DISP_REP_POLYGON_TRUECOLOUR
  2
AecDbDispRepPolygonTrueColour
  3
AecBase60
 90
      129
280
     0
281
     0
  0
CLASS
  1
AEC_DISP_PROPS_POLYGON_TRUECOLOUR
  2
AecDbDispPropsPolygonTrueColour
  3
AecBase60
 90
      129
280
     0
281
     0
  0
CLASS
  1
AEC_DISP_REP_SLICE
  2
AecDbDispRepSlice
  3
AecBase60
 90
      129
280
     0
281
     0
  0
CLASS
  1
AEC_DISP_PROPS_SLICE
  2
AecDbDispPropsSlice
  3
AecBase60
 90
      129
280
     0
281
     0
  0
CLASS
  1
AEC_DISP_REP_ANCHOR
  2
AecDbDispRepAnchor
  3
AecBase60
 90
      129
280
     0
281
     0
  0
CLASS
  1
AEC_DISP_REP_ANCHOR_ENT_TO_NODE
  2
AecDbDispRepAnchorEntToNode
  3
AecBase60
 90
      129
280
     0
281
     0
  0
CLASS
  1
AEC_DISP_PROPS_ENT
  2
AecDbDispPropsEnt
  3
AecBase60
 90
      129
280
     0
281
     0
  0
CLASS
  1
AEC_DISP_REP_MATERIAL
  2
AecDbDispRepMaterial
  3
AecBase60
 90
      129
280
     0
281
     0
  0
CLASS
  1
AEC_DISP_PROPS_MATERIAL
  2
AecDbDispPropsMaterial
  3
AecBase60
 90
      129
280
     0
281
     0
  0
CLASS
  1
AEC_DISP_REP_EDITINPLACEPROFILE
  2
AecDbDispRepEditInPlaceProfile
  3
AecBase60
 90
      129
280
     0
281
     0
  0
CLASS
  1
AEC_DISP_PROPS_EDITINPLACEPROFILE_MODEL
  2
AecDbDispPropsEditInPlaceProfile
  3
AecBase60
 90
      129
280
     0
281
     0
  0
CLASS
  1
SUN
  2
AcDbSun
  3
SCENEOE
 90
    33921
280
     0
281
     0
  0
CLASS
  1
RASTERVARIABLES
  2
AcDbRasterVariables
  3
ISM
 90
        0
280
     0
281
     0
  0
ENDSEC
  0
SECTION
  2
TABLES
  0
TABLE
  2
VPORT
  5
8
102
{ACAD_XDICTIONARY
360
2EF147
102
}
330
0
100
AcDbSymbolTable
 70
     1
  0
VPORT
  5
163677
330
8
100
AcDbSymbolTableRecord
100
AcDbViewportTableRecord
  2
*Active
 70
     0
 10
0.0
 20
0.0
 11
1.0
 21
1.0
 12
3167.604592098045
 22
-17368.13253879107
 13
0.0
 23
0.0
 14
1.0
 24
1.0
 15
20.0
 25
20.0
 16
0.0
 26
0.0
 36
1.0
 17
0.0
 27
0.0
 37
0.0
 40
125.5035865550162
 41
1.761096605744125
 42
50.0
 43
0.0
 44
0.0
 50
0.0
 51
0.0
 71
    16
 72
   100
 73
     1
 74
     0
 75
     0
 76
     0
 77
     0
 78
     1
281
     0
 65
     1
110
0.0
120
0.0
130
0.0
111
1.0
121
0.0
131
0.0
112
0.0
122
1.0
132
0.0
 79
     0
146
0.0
  0
ENDTAB
  0
TABLE
  2
LTYPE
  5
5
330
0
100
AcDbSymbolTable
 70
     4
  0
LTYPE
  5
12
330
5
100
AcDbSymbolTableRecord
100
AcDbLinetypeTableRecord
  2
BYBLOCK
 70
     0
  3

 72
    65
 73
     0
 40
0.0
  0
LTYPE
  5
13
330
5
100
AcDbSymbolTableRecord
100
AcDbLinetypeTableRecord
  2
BYLAYER
 70
     0
  3

 72
    65
 73
     0
 40
0.0
  0
LTYPE
  5
14
330
5
100
AcDbSymbolTableRecord
100
AcDbLinetypeTableRecord
  2
CONTINUOUS
 70
     0
  3
Solid line
 72
    65
 73
     0
 40
0.0
  0
ENDTAB
  0
TABLE
  2
LAYER
  5
2
102
{ACAD_XDICTIONARY
360
67DE7
102
}
330
0
100
AcDbSymbolTable
 70
    23
  0
LAYER
  5
F
102
{ACAD_XDICTIONARY
360
66C5B
102
}
330
2
100
AcDbSymbolTableRecord
100
AcDbLayerTableRecord
  2
0
 70
     0
 62
     7
  6
CONTINUOUS
370
    -3
390
616
  0
LAYER
  5
36
330
2
100
AcDbSymbolTableRecord
100
AcDbLayerTableRecord
  2
DEFPOINTS
 70
     0
 62
     7
  6
CONTINUOUS
290
     0
370
    -3
390
616
  0
LAYER
  5
280
102
{ACAD_XDICTIONARY
360
66C61
102
}
330
2
100
AcDbSymbolTableRecord
100
AcDbLayerTableRecord
  2
実線
 70
     0
 62
     4
  6
CONTINUOUS
370
    -3
390
616
  0
LAYER
  5
2F4
102
{ACAD_XDICTIONARY
360
66C67
102
}
330
2
100
AcDbSymbolTableRecord
100
AcDbLayerTableRecord
  2
文字
 70
     0
 62
     7
  6
CONTINUOUS
370
    -3
390
616
  0
LAYER
  5
2EFE80
102
{ACAD_XDICTIONARY
360
2EFE81
102
}
330
2
100
AcDbSymbolTableRecord
100
AcDbLayerTableRecord
  2
姿図
 70
     0
 62
     8
  6
CONTINUOUS
370
    -3
390
616
  0
ENDTAB
  0
TABLE
  2
STYLE
  5
3
330
0
100
AcDbSymbolTable
 70
     2
  0
STYLE
  5
10
330
3
100
AcDbSymbolTableRecord
100
AcDbTextStyleTableRecord
  2
STANDARD
 70
     0
 40
0.0
 41
1.0
 50
0.0
 71
     0
 42
3.5
  3
MONOTXT
  4
BIGFONT
  0
ENDTAB
  0
TABLE
  2
VIEW
  5
6
330
0
100
AcDbSymbolTable
 70
     0
  0
ENDTAB
  0
TABLE
  2
UCS
  5
7
330
0
100
AcDbSymbolTable
 70
     0
  0
ENDTAB
  0
TABLE
  2
APPID
  5
9
330
0
100
AcDbSymbolTable
 70
    23
  0
APPID
  5
11
330
9
100
AcDbSymbolTableRecord
100
AcDbRegAppTableRecord
  2
ACAD
 70
     0
  0
APPID
  5
66C55
330
9
100
AcDbSymbolTableRecord
100
AcDbRegAppTableRecord
  2
ACAD_MLEADERVER
 70
     0
  0
APPID
  5
66CC8
330
9
100
AcDbSymbolTableRecord
100
AcDbRegAppTableRecord
  2
ACAD_PSEXT
 70
     0
  0
APPID
  5
67DE4
330
9
100
AcDbSymbolTableRecord
100
AcDbRegAppTableRecord
  2
ACAD_DSTYLE_DIMJAG
 70
     0
  0
APPID
  5
67DE5
330
9
100
AcDbSymbolTableRecord
100
AcDbRegAppTableRecord
  2
ACAD_DSTYLE_DIMBREAK
 70
     0
  0
APPID
  5
67DE6
330
9
100
AcDbSymbolTableRecord
100
AcDbRegAppTableRecord
  2
ACAD_DSTYLE_DIMTALN
 70
     0
  0
APPID
  5
68101
330
9
100
AcDbSymbolTableRecord
100
AcDbRegAppTableRecord
  2
ACAD_EXEMPT_FROM_CAD_STANDARDS
 70
     0
  0
APPID
  5
74C21
330
9
100
AcDbSymbolTableRecord
100
AcDbRegAppTableRecord
  2
ACAD_DSTYLE_DIMRADIAL_EXTENSION
 70
     0
  0
APPID
  5
86ADD
330
9
100
AcDbSymbolTableRecord
100
AcDbRegAppTableRecord
  2
AcAecLayerStandard
 70
     0
  0
APPID
  5
86ADE
330
9
100
AcDbSymbolTableRecord
100
AcDbRegAppTableRecord
  2
AcadAnnotative
 70
     0
  0
APPID
  5
86ADF
330
9
100
AcDbSymbolTableRecord
100
AcDbRegAppTableRecord
  2
AcadAnnotativeDecomposition
 70
     0
  0
APPID
  5
16E922
330
9
100
AcDbSymbolTableRecord
100
AcDbRegAppTableRecord
  2
ASK_MEN_XD
 70
     0
  0
APPID
  5
1A9AA5
330
9
100
AcDbSymbolTableRecord
100
AcDbRegAppTableRecord
  2
GENIUS_GENODEF_13
 70
     0
  0
APPID
  5
1A9AA6
330
9
100
AcDbSymbolTableRecord
100
AcDbRegAppTableRecord
  2
GENIUS_GENREC_14
 70
     0
  0
APPID
  5
1A9AA7
330
9
100
AcDbSymbolTableRecord
100
AcDbRegAppTableRecord
  2
GENIUS_GENOBJ-N-REC_13
 70
     0
  0
APPID
  5
25EB3A
330
9
100
AcDbSymbolTableRecord
100
AcDbRegAppTableRecord
  2
ACAD_NAV_VCDISPLAY
 70
     0
  0
APPID
  5
2DCF1B
330
9
100
AcDbSymbolTableRecord
100
AcDbRegAppTableRecord
  2
AcadStringInfo
 70
     0
  0
APPID
  5
2DCF1C
330
9
100
AcDbSymbolTableRecord
100
AcDbRegAppTableRecord
  2
RAK
 70
     0
  0
APPID
  5
2EC902
330
9
100
AcDbSymbolTableRecord
100
AcDbRegAppTableRecord
  2
AECBASE
 70
     0
  0
APPID
  5
2EC903
330
9
100
AcDbSymbolTableRecord
100
AcDbRegAppTableRecord
  2
AEC_2DSECTION_XDATA
 70
     0
  0
APPID
  5
2EC904
330
9
100
AcDbSymbolTableRecord
100
AcDbRegAppTableRecord
  2
AEC_MASSGROUP_XDADA
 70
     0
  0
APPID
  5
2EE391
330
9
100
AcDbSymbolTableRecord
100
AcDbRegAppTableRecord
  2
ACAD_SPLINE_DATA
 70
     0
  0
APPID
  5
2EE392
330
9
100
AcDbSymbolTableRecord
100
AcDbRegAppTableRecord
  2
ACAD_SPLINE_DATA2
 70
     0
  0
ENDTAB
  0
TABLE
  2
DIMSTYLE
  5
A
330
0
100
AcDbSymbolTable
 70
     5
100
AcDbDimStyleTable
 71
     1
340
1E3941
  0
DIMSTYLE
105
1CC
330
A
100
AcDbSymbolTableRecord
100
AcDbDimStyleTableRecord
  2
STANDARD
 70
     0
 41
1.5
 42
1.5
 44
1.0
 73
     0
 74
     0
 77
     3
 78
     8
 79
     2
140
2.500000000000002
141
0.0
147
1.0
171
     0
173
     1
176
     8
177
     8
179
     2
271
     2
272
     2
274
     0
340
10
341
608
343
608
344
608
1001
ACAD_DSTYLE_DIMJAG
1070
   388
1040
1.5
1001
ACAD_DSTYLE_DIMTALN
1070
   392
1070
     0
  0
DIMSTYLE
105
1E3941
330
A
100
AcDbSymbolTableRecord
100
AcDbDimStyleTableRecord
  2
ｺﾋﾟｰ - STANDARD
 70
     0
 41
3.5
 42
1.0
 43
3.0
 44
1.0
 73
     0
 74
     0
 77
     3
 78
     8
 79
     2
140
2.5
141
0.0
147
1.0
171
     0
173
     1
176
     8
177
     8
178
   256
179
     2
271
     2
272
     2
274
     0
340
10
341
608
343
608
344
608
1001
ACAD_DSTYLE_DIMJAG
1070
   388
1040
1.5
1001
ACAD_DSTYLE_DIMTALN
1070
   392
1070
     0
  0
ENDTAB
  0
TABLE
  2
BLOCK_RECORD
  5
1
330
0
100
AcDbSymbolTable
 70
    20
  0
BLOCK_RECORD
  5
18
102
{ACAD_XDICTIONARY
360
845D5
102
}
330
1
100
AcDbSymbolTableRecord
100
AcDbBlockTableRecord
  2
*MODEL_SPACE
340
619
  0
BLOCK_RECORD
  5
15
330
1
100
AcDbSymbolTableRecord
100
AcDbBlockTableRecord
  2
*PAPER_SPACE
340
61A
  0
BLOCK_RECORD
  5
608
330
1
100
AcDbSymbolTableRecord
100
AcDbBlockTableRecord
  2
_OPEN
340
0
  0
ENDTAB
  0
ENDSEC
  0
SECTION
  2
BLOCKS
  0
BLOCK
  5
39
330
18
100
AcDbEntity
  8
0
100
AcDbBlockBegin
  2
*MODEL_SPACE
 70
     0
 10
0.0
 20
0.0
 30
0.0
  3
*MODEL_SPACE
  1

  0
ENDBLK
  5
3A
330
18
100
AcDbEntity
  8
0
100
AcDbBlockEnd
  0
BLOCK
  5
37
330
15
100
AcDbEntity
 67
     1
  8
0
100
AcDbBlockBegin
  2
*PAPER_SPACE
 70
     0
 10
0.0
 20
0.0
 30
0.0
  3
*PAPER_SPACE
  1

  0
ENDBLK
  5
38
330
15
100
AcDbEntity
 67
     1
  8
0
100
AcDbBlockEnd
  0
BLOCK
  5
609
330
608
100
AcDbEntity
  8
0
100
AcDbBlockBegin
  2
_OPEN
 70
     0
 10
0.0
 20
0.0
 30
0.0
  3
_OPEN
  1

  0
LINE
  5
60A
330
608
100
AcDbEntity
  8
0
  6
ByBlock
 62
     0
100
AcDbLine
 10
-1.0
 20
0.1666666666666666
 30
0.0
 11
0.0
 21
0.0
 31
0.0
  0
LINE
  5
60B
330
608
100
AcDbEntity
  8
0
  6
ByBlock
 62
     0
100
AcDbLine
 10
0.0
 20
0.0
 30
0.0
 11
-1.0
 21
-0.1666666666666666
 31
0.0
  0
LINE
  5
60C
330
608
100
AcDbEntity
  8
0
  6
ByBlock
 62
     0
100
AcDbLine
 10
0.0
 20
0.0
 30
0.0
 11
-1.0
 21
0.0
 31
0.0
  0
ENDBLK
  5
60D
330
608
100
AcDbEntity
  8
0
100
AcDbBlockEnd
  0
ENDSEC
  0
SECTION
  2
ENTITIES
  0
TEXT
  5
11B04
330
18
100
AcDbEntity
  8
文字
100
AcDbText
 10
-1240.183388714458
 20
-1416.837204555437
 30
0.0
 40
6.75
  1

 41
1.022799999999999
100
AcDbText
  0
MTEXT
  5
12B3E
330
18
100
AcDbEntity
  8
0
100
AcDbMText
 10
-974.1891318600247
 20
-2072.131137572738
 30
0.0
 40
2.500000000000002
 41
0.0
 71
     9
 72
     1
  1
\A1;
 73
     1
 44
1.0
1001
ACAD
1000
MTEXTBEGIN
1070
    73
1070
     1
1070
    44
1040
1.0
1070
    74
1070
     0
1000
MTEXTEND
  0
TEXT
  5
2F3209
330
18
100
AcDbEntity
  8
文字
100
AcDbText
 10
3083.309133405372
 20
-17429.26017846063
 30
0.0000000000000047
 40
9.75
  1
MSP-100F/SWF・SMF/M/30A/T1
 41
0.7
100
AcDbText
  0
LINE
  5
2F381B
330
18
100
AcDbEntity
  8
0
 62
     8
100
AcDbLine
 10
3169.587873200099
 20
-17335.08040256382
 30
0.0000000000000047
 11
3168.997150779074
 21
-17307.44878573365
 31
0.0000000000000047
  0
LINE
  5
2F381C
330
18
100
AcDbEntity
  8
0
 62
     8
100
AcDbLine
 10
3158.208332777806
 20
-17307.55996198909
 30
0.0000000000000047
 11
3157.613024642686
 21
-17335.40614938364
 31
0.0000000000000047
  0
LINE
  5
2F381D
330
18
100
AcDbEntity
  8
0
 62
     8
100
AcDbLine
 10
3178.672157673617
 20
-17338.02231932424
 30
0.0000000000000047
 11
3178.062305706845
 21
-17309.49588737741
 31
0.0000000000000047
  0
LINE
  5
2F381E
330
18
100
AcDbEntity
  8
0
 62
     8
100
AcDbLine
 10
3149.290511091504
 20
-17309.81233827809
 30
0.0000000000000047
 11
3148.791963081382
 21
-17333.13247991241
 31
0.0000000000000047
  0
LINE
  5
2F381F
330
18
100
AcDbEntity
  8
0
 62
     8
100
AcDbLine
 10
3185.71567263391
 20
-17343.11428046928
 30
0.0000000000000047
 11
3185.080208988772
 21
-17313.38987030459
 31
0.0000000000000047
  0
LINE
  5
2F3820
330
18
100
AcDbEntity
  8
0
 62
     8
100
AcDbLine
 10
3142.544842657085
 20
-17313.86344478945
 30
0.0000000000000047
 11
3141.935307969154
 21
-17342.3750277976
 31
0.0000000000000047
  0
SPLINE
  5
2F3821
330
18
100
AcDbEntity
  8
0
 62
     8
100
AcDbSpline
210
0.0
220
0.0
230
1.0
 70
     8
 71
     3
 72
    12
 73
     8
 74
     0
 42
0.0000000001
 43
0.0000000001
 40
0.0
 40
0.0
 40
0.0
 40
0.0
 40
0.1393358169626586
 40
0.4034300491937877
 40
0.6675538917636237
 40
0.9316906825534662
 40
1.0
 40
1.0
 40
1.0
 40
1.0
 10
3166.382345535524
 20
-17329.0088249159
 30
0.0000000000000047
 10
3166.130287847636
 20
-17328.9947942909
 30
0.0000000000000047
 10
3165.400485219417
 20
-17328.95417030881
 30
0.0000000000000047
 10
3164.187042526884
 20
-17328.92925542711
 30
0.0000000000000047
 10
3162.747084573279
 20
-17328.95293564425
 30
0.0000000000000047
 10
3161.666755315729
 20
-17329.01187057773
 30
0.0000000000000047
 10
3161.068529334011
 20
-17329.06085085627
 30
0.0000000000000047
 10
3160.945608934351
 20
-17329.07091507214
 30
0.0000000000000047
  0
SPLINE
  5
2F3822
330
18
100
AcDbEntity
  8
0
 62
     8
100
AcDbSpline
210
0.0
220
0.0
230
1.0
 70
     8
 71
     3
 72
    13
 73
     9
 74
     0
 42
0.0000000001
 43
0.0000000001
 40
0.0
 40
0.0
 40
0.0
 40
0.0
 40
0.0818527768689337
 40
0.2104214568730226
 40
0.3603525534090881
 40
0.5731744649721112
 40
0.8292957034612587
 40
1.0
 40
1.0
 40
1.0
 40
1.0
 10
3166.881253818224
 20
-17328.72020930937
 30
0.0000000000000047
 10
3166.881599603521
 20
-17328.71953486301
 30
0.0000000000000047
 10
3166.882488524445
 20
-17328.71780104297
 30
0.0000000000000047
 10
3166.861046558568
 20
-17328.75737898158
 30
0.0000000000000047
 10
3166.799129967033
 20
-17328.83666951985
 30
0.0000000000000047
 10
3166.669868829137
 20
-17328.93809626457
 30
0.0000000000000047
 10
3166.498374735962
 20
-17329.00846016413
 30
0.0000000000000047
 10
3166.376670596973
 20
-17328.99917772256
 30
0.0000000000000047
 10
3166.327996331432
 20
-17328.99546530958
 30
0.0000000000000047
  0
SPLINE
  5
2F3823
330
18
100
AcDbEntity
  8
0
 62
     8
100
AcDbSpline
210
0.0
220
0.0
230
1.0
 70
     8
 71
     3
 72
    12
 73
     8
 74
     0
 42
0.0000000001
 43
0.0000000001
 40
0.0
 40
0.0
 40
0.0
 40
0.0
 40
0.092311391530236
 40
0.3707848482359671
 40
0.6493958171544555
 40
0.9281395617987378
 40
1.0
 40
1.0
 40
1.0
 40
1.0
 10
3157.739461221146
 20
-17329.49188828564
 30
0.0000000000000047
 10
3157.587103577447
 20
-17329.51894599566
 30
0.0000000000000047
 10
3156.975132455996
 20
-17329.62762802002
 30
0.0000000000000047
 10
3155.923910428902
 20
-17329.85597028442
 30
0.0000000000000047
 10
3154.604199150523
 20
-17330.19660964914
 30
0.0000000000000047
 10
3153.641171983416
 20
-17330.49112530911
 30
0.0000000000000047
 10
3153.118451922474
 20
-17330.66939100233
 30
0.0000000000000047
 10
3153.011314316953
 20
-17330.70592864636
 30
0.0000000000000047
  0
SPLINE
  5
2F3824
330
18
100
AcDbEntity
  8
0
 62
     8
100
AcDbSpline
210
0.0
220
0.0
230
1.0
 70
     8
 71
     3
 72
    13
 73
     9
 74
     0
 42
0.0000000001
 43
0.0000000001
 40
0.0
 40
0.0
 40
0.0
 40
0.0
 40
0.1742888164304354
 40
0.4218244838871168
 40
0.6238648662015669
 40
0.7876714029471691
 40
0.9258076507274854
 40
1.0
 40
1.0
 40
1.0
 40
1.0
 10
3160.998683048762
 20
-17329.05599638755
 30
0.0000000000000047
 10
3160.951797078846
 20
-17329.0609693381
 30
0.0000000000000047
 10
3160.838320778611
 20
-17329.07300517803
 30
0.0000000000000047
 10
3160.679361081843
 20
-17329.01421384728
 30
0.0000000000000047
 10
3160.556113581418
 20
-17328.92954716523
 30
0.0000000000000047
 10
3160.494628347287
 20
-17328.86117809574
 30
0.0000000000000047
 10
3160.473168803503
 20
-17328.82678736615
 30
0.0000000000000047
 10
3160.474341874123
 20
-17328.82891580608
 30
0.0000000000000047
 10
3160.474751771169
 20
-17328.8296595305
 30
0.0000000000000047
  0
SPLINE
  5
2F3825
330
18
100
AcDbEntity
  8
0
 62
     8
100
AcDbSpline
210
0.0
220
0.0
230
1.0
 70
     8
 71
     3
 72
    12
 73
     8
 74
     0
 42
0.0000000001
 43
0.0000000001
 40
0.0
 40
0.0
 40
0.0
 40
0.0
 40
0.1427548606754599
 40
0.4133798018582687
 40
0.6839222771607089
 40
0.954366720746397
 40
1.0
 40
1.0
 40
1.0
 40
1.0
 10
3174.418385311018
 20
-17330.46058371082
 30
0.0000000000000047
 10
3174.193812741141
 20
-17330.3916310882
 30
0.0000000000000047
 10
3173.543510789958
 20
-17330.19196278028
 30
0.0000000000000047
 10
3172.434871937472
 20
-17329.89974318837
 30
0.0000000000000047
 10
3171.084911930464
 20
-17329.60300198794
 30
0.0000000000000047
 10
3170.087450090556
 20
-17329.42504095612
 30
0.0000000000000047
 10
3169.543516322573
 20
-17329.34395473928
 30
0.0000000000000047
 10
3169.46498664542
 20
-17329.3322480301
 30
0.0000000000000047
  0
SPLINE
  5
2F3826
330
18
100
AcDbEntity
  8
0
 62
     8
100
AcDbSpline
210
0.0
220
0.0
230
1.0
 70
     8
 71
     3
 72
    10
 73
     6
 74
     0
 42
0.0000000001
 43
0.0000000001
 40
0.0
 40
0.0
 40
0.0
 40
0.0
 40
0.3119046897385446
 40
0.7123684765819501
 40
0.9999999999999998
 40
0.9999999999999998
 40
0.9999999999999998
 40
0.9999999999999998
 10
3174.606384653133
 20
-17330.44272243703
 30
0.0000000000000047
 10
3174.600545671182
 20
-17330.44559284999
 30
0.0000000000000047
 10
3174.587209845158
 20
-17330.45214867224
 30
0.0000000000000047
 10
3174.487565439971
 20
-17330.47751348511
 30
0.0000000000000047
 10
3174.40922064455
 20
-17330.44811482308
 30
0.0000000000000047
 10
3174.376471645214
 20
-17330.43582585407
 30
0.0000000000000047
  0
SPLINE
  5
2F3827
330
18
100
AcDbEntity
  8
0
 62
     8
100
AcDbSpline
210
0.0
220
0.0
230
1.0
 70
     8
 71
     3
 72
    10
 73
     6
 74
     0
 42
0.0000000001
 43
0.0000000001
 40
0.0
 40
0.0
 40
0.0
 40
0.0
 40
0.3103585273557112
 40
0.9531083577667649
 40
1.0
 40
1.0
 40
1.0
 40
1.0
 10
3185.977017797339
 20
-17342.70552867708
 30
0.0000000000000047
 10
3185.94742379861
 20
-17342.66053313474
 30
0.0000000000000047
 10
3185.856540884038
 20
-17342.52235221272
 30
0.0000000000000047
 10
3185.75831356709
 20
-17342.35906726163
 30
0.0000000000000047
 10
3185.700972591048
 20
-17342.2516624981
 30
0.0000000000000047
 10
3185.697073735425
 20
-17342.2443595937
 30
0.0000000000000047
  0
SPLINE
  5
2F3828
330
18
100
AcDbEntity
  8
0
 62
     8
100
AcDbSpline
210
0.0
220
0.0
230
1.0
 70
     8
 71
     3
 72
    11
 73
     7
 74
     0
 42
0.0000000001
 43
0.0000000001
 40
0.0
 40
0.0
 40
0.0
 40
0.0
 40
0.0327620359788093
 40
0.5171148474021199
 40
0.9456479219237968
 40
1.0
 40
1.0
 40
1.0
 40
1.0
 10
3153.053720863808
 20
-17330.68934210349
 30
0.0000000000000047
 10
3153.050835314153
 20
-17330.69101151403
 30
0.0000000000000047
 10
3153.0052898978
 20
-17330.71736143241
 30
0.0000000000000047
 10
3152.900942608134
 20
-17330.71569228055
 30
0.0000000000000047
 10
3152.842439911079
 20
-17330.69118883148
 30
0.0000000000000047
 10
3152.853293546785
 20
-17330.69788940061
 30
0.0000000000000047
 10
3152.854515198874
 20
-17330.69864359621
 30
0.0000000000000047
  0
LINE
  5
2F3829
330
18
100
AcDbEntity
  8
0
 62
     8
100
AcDbLine
 10
3148.803298172042
 20
-17332.60228181001
 30
0.0000000000000047
 11
3148.359818737642
 21
-17332.87349089671
 31
0.0000000000000047
  0
SPLINE
  5
2F382A
330
18
100
AcDbEntity
  8
0
 62
     8
100
AcDbSpline
210
0.0
220
0.0
230
1.0
 70
     8
 71
     3
 72
    10
 73
     6
 74
     0
 42
0.0000000001
 43
0.0000000001
 40
0.0
 40
0.0
 40
0.0
 40
0.0
 40
0.2220850507495484
 40
0.6423250591811012
 40
0.9999999999999998
 40
0.9999999999999998
 40
0.9999999999999998
 40
0.9999999999999998
 10
3180.939012365297
 20
-17333.60763036947
 30
0.0000000000000047
 10
3180.774707886363
 20
-17333.49270241064
 30
0.0000000000000047
 10
3180.299498574446
 20
-17333.16030224367
 30
0.0000000000000047
 10
3179.512835641346
 20
-17332.66727524604
 30
0.0000000000000047
 10
3178.851000581563
 20
-17332.31554299971
 30
0.0000000000000047
 10
3178.546697629074
 20
-17332.15382119384
 30
0.0000000000000047
  0
LINE
  5
2F382B
330
18
100
AcDbEntity
  8
0
 62
     8
100
AcDbLine
 10
3189.543737657966
 20
-17344.79266618989
 30
0.0000000000000047
 11
3188.982451544246
 21
-17318.53792198127
 31
0.0000000000000047
  0
LINE
  5
2F382C
330
18
100
AcDbEntity
  8
0
 62
     8
100
AcDbLine
 10
3138.998291659783
 20
-17319.0965160111
 30
0.0000000000000047
 11
3138.611670642101
 21
-17337.18110267093
 31
0.0000000000000047
  0
SPLINE
  5
2F382D
330
18
100
AcDbEntity
  8
0
 62
     8
100
AcDbSpline
210
0.0
220
0.0
230
1.0
 70
     8
 71
     3
 72
     9
 73
     5
 74
     0
 42
0.0000000001
 43
0.0000000001
 40
0.0
 40
0.0
 40
0.0
 40
0.0
 40
0.8426739100110175
 40
1.0
 40
1.0
 40
1.0
 40
1.0
 10
3180.920407065758
 20
-17333.5939077764
 30
0.0000000000000047
 10
3180.919703593849
 20
-17333.594215647
 30
0.0000000000000047
 10
3180.918868784678
 20
-17333.59458099661
 30
0.0000000000000047
 10
3180.9129904553
 20
-17333.5885920815
 30
0.0000000000000047
 10
3180.912065640723
 20
-17333.5876498689
 30
0.0000000000000047
  0
LINE
  5
2F382E
330
18
100
AcDbEntity
  8
0
 62
     8
100
AcDbLine
 10
3167.958543292501
 20
-17307.32500928704
 30
0.0000000000000047
 11
3165.121252395754
 21
-17317.90266043736
 31
0.0000000000000047
  0
LWPOLYLINE
  5
2F382F
330
18
100
AcDbEntity
  8
0
 62
     8
100
AcDbPolyline
 90
        3
 70
   128
 43
0.0
 10
3162.702932369775
 20
-17317.91337937447
 10
3161.872413502221
 20
-17315.39478848055
 10
3159.238454175556
 20
-17307.40717565109
  0
SPLINE
  5
2F3830
330
18
100
AcDbEntity
  8
0
 62
     8
100
AcDbSpline
210
0.0
220
0.0
230
1.0
 70
     8
 71
     3
 72
    17
 73
    13
 74
     0
 42
0.0000000001
 43
0.0000000001
 40
0.0
 40
0.0
 40
0.0
 40
0.0
 40
0.0184980070113884
 40
0.1475362238432065
 40
0.2604018157293702
 40
0.3650435658334144
 40
0.4694042285427856
 40
0.5841441212813391
 40
0.7090832395475096
 40
0.8291776909816642
 40
0.9519294560196494
 40
1.0
 40
1.0
 40
1.0
 40
1.0
 10
3168.992901333609
 20
-17307.4494238543
 30
0.0000000000000047
 10
3168.994083215909
 20
-17307.44023276092
 30
0.0000000000000047
 10
3169.003509661226
 20
-17307.36692652801
 30
0.0000000000000047
 10
3168.955716736864
 20
-17307.23729862975
 30
0.0000000000000047
 10
3168.859535825504
 20
-17307.09293664733
 30
0.0000000000000047
 10
3168.72864300195
 20
-17306.99389135863
 30
0.0000000000000047
 10
3168.574878460138
 20
-17306.93704106306
 30
0.0000000000000047
 10
3168.40019661647
 20
-17306.92936407154
 30
0.0000000000000047
 10
3168.223591576948
 20
-17306.98246556772
 30
0.0000000000000047
 10
3168.076811172202
 20
-17307.09567444406
 30
0.0000000000000047
 10
3167.986001551475
 20
-17307.21755219614
 30
0.0000000000000047
 10
3167.970711600701
 20
-17307.30202915284
 30
0.0000000000000047
 10
3167.966408905959
 20
-17307.32580153529
 30
0.0000000000000047
  0
SPLINE
  5
2F3831
330
18
100
AcDbEntity
  8
0
 62
     8
100
AcDbSpline
210
0.0
220
0.0
230
1.0
 70
     8
 71
     3
 72
    11
 73
     7
 74
     0
 42
0.0000000001
 43
0.0000000001
 40
0.0
 40
0.0
 40
0.0
 40
0.0
 40
0.0129833678936872
 40
0.4586118539784712
 40
0.8637164374099498
 40
1.0
 40
1.0
 40
1.0
 40
1.0
 10
3167.980393072243
 20
-17307.32180261756
 30
0.0000000000000047
 10
3167.980533468009
 20
-17307.32014055893
 30
0.0000000000000047
 10
3167.985492671447
 20
-17307.26143161709
 30
0.0000000000000047
 10
3168.049989508757
 20
-17307.1624466077
 30
0.0000000000000047
 10
3168.13450014705
 20
-17307.06832214772
 30
0.0000000000000047
 10
3168.193131489877
 20
-17307.03057782822
 30
0.0000000000000047
 10
3168.207890749641
 20
-17307.02107645593
 30
0.0000000000000047
  0
LINE
  5
2F3832
330
18
100
AcDbEntity
  8
0
 62
     8
100
AcDbLine
 10
3168.935773219209
 20
-17307.25790923763
 30
0.0000000000000047
 11
3168.955450908427
 21
-17307.34501329985
 31
0.0000000000000047
  0
SPLINE
  5
2F3833
330
18
100
AcDbEntity
  8
0
 62
     8
100
AcDbSpline
210
0.0
220
0.0
230
1.0
 70
     8
 71
     3
 72
    16
 73
    12
 74
     0
 42
0.0000000001
 43
0.0000000001
 40
0.0
 40
0.0
 40
0.0
 40
0.0
 40
0.0667653041130551
 40
0.1779742948225738
 40
0.2834909854488813
 40
0.3918696754733446
 40
0.5181943033383899
 40
0.6426011447106502
 40
0.7651427194440953
 40
0.8915685605082963
 40
1.0
 40
1.0
 40
1.0
 40
1.0
 10
3159.230499800836
 20
-17307.40897710885
 30
0.0000000000000047
 10
3159.221440147052
 20
-17307.37731993684
 30
0.0000000000000047
 10
3159.197290096139
 20
-17307.29293235052
 30
0.0000000000000047
 10
3159.103557237311
 20
-17307.18427276116
 30
0.0000000000000047
 10
3158.972247660653
 20
-17307.09232337376
 30
0.0000000000000047
 10
3158.810327229922
 20
-17307.04201051109
 30
0.0000000000000047
 10
3158.631065723652
 20
-17307.04578424015
 30
0.0000000000000047
 10
3158.456752488985
 20
-17307.11311023295
 30
0.0000000000000047
 10
3158.317325981442
 20
-17307.23537878242
 30
0.0000000000000047
 10
3158.225648982846
 20
-17307.39154273722
 30
0.0000000000000047
 10
3158.216771392865
 20
-17307.50734984458
 30
0.0000000000000047
 10
3158.212672691482
 20
-17307.56081691754
 30
0.0000000000000047
  0
SPLINE
  5
2F3834
330
18
100
AcDbEntity
  8
0
 62
     8
100
AcDbSpline
210
0.0
220
0.0
230
1.0
 70
     8
 71
     3
 72
     9
 73
     5
 74
     0
 42
0.0000000001
 43
0.0000000001
 40
0.0
 40
0.0
 40
0.0
 40
0.0
 40
0.6815920864972111
 40
0.9999999999999998
 40
0.9999999999999998
 40
0.9999999999999998
 40
0.9999999999999998
 10
3159.077433563276
 20
-17307.19166898206
 30
0.0000000000000047
 10
3159.120080178116
 20
-17307.23541397606
 30
0.0000000000000047
 10
3159.182649294874
 20
-17307.29959458329
 30
0.0000000000000047
 10
3159.204342434579
 20
-17307.38507270662
 30
0.0000000000000047
 10
3159.211249701931
 20
-17307.41228961752
 30
0.0000000000000047
  0
LINE
  5
2F3835
330
18
100
AcDbEntity
  8
0
 62
     8
100
AcDbLine
 10
3189.617976212753
 20
-17344.87923828131
 30
0.0000000000000047
 11
3189.174947412458
 21
-17324.15619730254
 31
0.0000000000000047
  0
LINE
  5
2F3836
330
18
100
AcDbEntity
  8
0
 62
     8
100
AcDbLine
 10
3177.148656155578
 20
-17309.14941378194
 30
0.0000000000000047
 11
3169.213642166549
 21
-17317.57535751037
 31
0.0000000000000047
  0
LWPOLYLINE
  5
2F3837
330
18
100
AcDbEntity
  8
0
 62
     8
100
AcDbPolyline
 90
        3
 70
   128
 43
0.0
 10
3158.00441476462
 20
-17317.09840267589
 10
3157.227250217555
 20
-17316.33782060755
 10
3150.189138652487
 20
-17309.44988417194
  0
SPLINE
  5
2F3838
330
18
100
AcDbEntity
  8
0
 62
     8
100
AcDbSpline
210
0.0
220
0.0
230
1.0
 70
     8
 71
     3
 72
    15
 73
    11
 74
     0
 42
0.0000000001
 43
0.0000000001
 40
0.0
 40
0.0
 40
0.0
 40
0.0
 40
0.1493942885127627
 40
0.2909424725462148
 40
0.4183165737639669
 40
0.5425927624368231
 40
0.6720239032093233
 40
0.830967842725049
 40
0.9755275859380272
 40
0.9999999999999998
 40
0.9999999999999998
 40
0.9999999999999998
 40
0.9999999999999998
 10
3178.058847644852
 20
-17309.49522524565
 30
0.0000000000000047
 10
3178.05236710222
 20
-17309.43297056379
 30
0.0000000000000047
 10
3178.039746371427
 20
-17309.31173078115
 30
0.0000000000000047
 10
3177.943004027225
 20
-17309.16162453694
 30
0.0000000000000047
 10
3177.817853923295
 20
-17309.05494907012
 30
0.0000000000000047
 10
3177.670697828239
 20
-17308.99228741417
 30
0.0000000000000047
 10
3177.497650659419
 20
-17308.97313979416
 30
0.0000000000000047
 10
3177.322700979085
 20
-17309.01806430987
 30
0.0000000000000047
 10
3177.197857404151
 20
-17309.08675689762
 30
0.0000000000000047
 10
3177.157220709043
 20
-17309.14389200196
 30
0.0000000000000047
 10
3177.151337343151
 20
-17309.15216400153
 30
0.0000000000000047
  0
SPLINE
  5
2F3839
330
18
100
AcDbEntity
  8
0
 62
     8
100
AcDbSpline
210
0.0
220
0.0
230
1.0
 70
     8
 71
     3
 72
    15
 73
    11
 74
     0
 42
0.0000000001
 43
0.0000000001
 40
0.0
 40
0.0
 40
0.0
 40
0.0
 40
0.0518954211113209
 40
0.1774539553568059
 40
0.3136497312882899
 40
0.4867687977285704
 40
0.6328742173127373
 40
0.7819673266828079
 40
0.9357003571003573
 40
1.0
 40
1.0
 40
1.0
 40
1.0
 10
3150.185040911969
 20
-17309.45372428992
 30
0.0000000000000047
 10
3150.170892840284
 20
-17309.43797439302
 30
0.0000000000000047
 10
3150.122514173582
 20
-17309.38411836022
 30
0.0000000000000047
 10
3150.004755229002
 20
-17309.3261261705
 30
0.0000000000000047
 10
3149.830843189618
 20
-17309.28744396999
 30
0.0000000000000047
 10
3149.64227941384
 20
-17309.31621311985
 30
0.0000000000000047
 10
3149.473146181019
 20
-17309.41215936246
 30
0.0000000000000047
 10
3149.355388108878
 20
-17309.55355012303
 30
0.0000000000000047
 10
3149.291828654413
 20
-17309.69650910175
 30
0.0000000000000047
 10
3149.29811324259
 20
-17309.7854858654
 30
0.0000000000000047
 10
3149.299966619746
 20
-17309.81172585063
 30
0.0000000000000047
  0
SPLINE
  5
2F383A
330
18
100
AcDbEntity
  8
0
 62
     8
100
AcDbSpline
210
0.0
220
0.0
230
1.0
 70
     8
 71
     3
 72
    10
 73
     6
 74
     0
 42
0.0000000001
 43
0.0000000001
 40
0.0
 40
0.0
 40
0.0
 40
0.0
 40
0.2314497026382067
 40
0.6685352757113598
 40
1.0
 40
1.0
 40
1.0
 40
1.0
 10
3164.975578093756
 20
-17327.01734694209
 30
0.0000000000000047
 10
3164.811697872264
 20
-17327.00948537895
 30
0.0000000000000047
 10
3164.338334943685
 20
-17326.98677749806
 30
0.0000000000000047
 10
3163.625816672499
 20
-17326.98946614722
 30
0.0000000000000047
 10
3163.083180925501
 20
-17327.02591599787
 30
0.0000000000000047
 10
3162.849149907772
 20
-17327.04163629587
 30
0.0000000000000047
  0
LINE
  5
2F383B
330
18
100
AcDbEntity
  8
0
 62
     8
100
AcDbLine
 10
3184.312220297293
 20
-17312.93525145811
 30
0.0000000000000047
 11
3178.202108323275
 21
-17316.03530184579
 31
0.0000000000000047
  0
LINE
  5
2F383C
330
18
100
AcDbEntity
  8
0
 62
     8
100
AcDbLine
 10
3162.92191814077
 20
-17327.07861818927
 30
0.0000000000000047
 11
3162.729245390138
 21
-17318.06616453422
 31
0.0000000000000047
  0
LINE
  5
2F383D
330
18
100
AcDbEntity
  8
0
 62
     8
100
AcDbLine
 10
3165.103397086213
 20
-17318.02693747616
 30
0.0000000000000047
 11
3164.910548946741
 21
-17327.04760749798
 31
0.0000000000000047
  0
LINE
  5
2F383E
330
18
100
AcDbEntity
  8
0
 62
     8
100
AcDbLine
 10
3149.154741991695
 20
-17316.16310107519
 30
0.0000000000000047
 11
3143.299119653752
 21
-17313.40146109691
 31
0.0000000000000047
  0
SPLINE
  5
2F383F
330
18
100
AcDbEntity
  8
0
 62
     8
100
AcDbSpline
210
0.0
220
0.0
230
1.0
 70
     8
 71
     3
 72
    14
 73
    10
 74
     0
 42
0.0000000001
 43
0.0000000001
 40
0.0
 40
0.0
 40
0.0
 40
0.0
 40
0.0381370988433433
 40
0.2245115408094248
 40
0.3863883835257214
 40
0.5314276166844795
 40
0.6731474689859968
 40
0.8255877953079126
 40
1.0
 40
1.0
 40
1.0
 40
1.0
 10
3185.074523147101
 20
-17313.38988508911
 30
0.0000000000000047
 10
3185.075988239117
 20
-17313.37645323803
 30
0.0000000000000047
 10
3185.084613175875
 20
-17313.29738048018
 30
0.0000000000000047
 10
3185.032014933821
 20
-17313.16274641663
 30
0.0000000000000047
 10
3184.929564112845
 20
-17313.02120149582
 30
0.0000000000000047
 10
3184.797333711432
 20
-17312.92813248826
 30
0.0000000000000047
 10
3184.649086011349
 20
-17312.87859972799
 30
0.0000000000000047
 10
3184.479422044158
 20
-17312.86943093945
 30
0.0000000000000047
 10
3184.371339644825
 20
-17312.91371105785
 30
0.0000000000000047
 10
3184.313665654973
 20
-17312.93733942949
 30
0.0000000000000047
  0
SPLINE
  5
2F3840
330
18
100
AcDbEntity
  8
0
 62
     8
100
AcDbSpline
210
0.0
220
0.0
230
1.0
 70
     8
 71
     3
 72
    13
 73
     9
 74
     0
 42
0.0000000001
 43
0.0000000001
 40
0.0
 40
0.0
 40
0.0
 40
0.0
 40
0.1426435918107225
 40
0.3299282676933295
 40
0.4989002119788195
 40
0.6713959979863436
 40
0.8495431681521695
 40
1.0
 40
1.0
 40
1.0
 40
1.0
 10
3143.298246976912
 20
-17313.40256804871
 30
0.0000000000000047
 10
3143.251651799627
 20
-17313.38462748828
 30
0.0000000000000047
 10
3143.143879232142
 20
-17313.34313177192
 30
0.0000000000000047
 10
3142.964860348763
 20
-17313.35100184796
 30
0.0000000000000047
 10
3142.790818933385
 20
-17313.41883813892
 30
0.0000000000000047
 10
3142.653085101363
 20
-17313.54007471517
 30
0.0000000000000047
 10
3142.562055283178
 20
-17313.69560423569
 30
0.0000000000000047
 10
3142.553394057876
 20
-17313.81063946888
 30
0.0000000000000047
 10
3142.549428371181
 20
-17313.86331027213
 30
0.0000000000000047
  0
LINE
  5
2F3841
330
18
100
AcDbEntity
  8
0
 62
     8
100
AcDbLine
 10
3188.343759634904
 20
-17318.03810629068
 30
0.0000000000000047
 11
3185.194046588735
 21
-17318.7147193899
 31
0.0000000000000047
  0
LINE
  5
2F3842
330
18
100
AcDbEntity
  8
0
 62
     8
100
AcDbLine
 10
3162.726976216986
 20
-17318.06673304915
 30
0.0000000000000047
 11
3162.698947287783
 21
-17317.9150764915
 31
0.0000000000000047
  0
LINE
  5
2F3843
330
18
100
AcDbEntity
  8
0
 62
     8
100
AcDbLine
 10
3165.113701927456
 20
-17317.99336080032
 30
0.0000000000000047
 11
3165.11106405367
 21
-17318.02710785148
 31
0.0000000000000047
  0
SPLINE
  5
2F3844
330
18
100
AcDbEntity
  8
0
 62
     8
100
AcDbSpline
210
0.0
220
0.0
230
1.0
 70
     8
 71
     3
 72
     9
 73
     5
 74
     0
 42
0.0000000001
 43
0.0000000001
 40
0.0
 40
0.0
 40
0.0
 40
0.0
 40
0.0682156686696426
 40
1.0
 40
1.0
 40
1.0
 40
1.0
 10
3165.123372637749
 20
-17317.89887122604
 30
0.0000000000000047
 10
3165.122431977735
 20
-17317.90083046065
 30
0.0000000000000047
 10
3165.108642476988
 20
-17317.92955164219
 30
0.0000000000000047
 10
3165.111261532536
 20
-17317.96258284402
 30
0.0000000000000047
 10
3165.113701927456
 20
-17317.99336080032
 30
0.0000000000000047
  0
LINE
  5
2F3845
330
18
100
AcDbEntity
  8
0
 62
     8
100
AcDbLine
 10
3142.432289961753
 20
-17319.12819690454
 30
0.0000000000000047
 11
3139.624762679466
 21
-17318.59359544609
 31
0.0000000000000047
  0
SPLINE
  5
2F3846
330
18
100
AcDbEntity
  8
0
 62
     8
100
AcDbSpline
210
0.0
220
0.0
230
1.0
 70
     8
 71
     3
 72
    14
 73
    10
 74
     0
 42
0.0000000001
 43
0.0000000001
 40
0.0
 40
0.0
 40
0.0
 40
0.0
 40
0.0078309838550525
 40
0.230301735046053
 40
0.415364306996908
 40
0.583130270536306
 40
0.7414808764103986
 40
0.9063847420575696
 40
1.0
 40
1.0
 40
1.0
 40
1.0
 10
3188.981212300459
 20
-17318.53805798181
 30
0.0000000000000047
 10
3188.981573422085
 20
-17318.53567432803
 30
0.0000000000000047
 10
3188.992193663241
 20
-17318.46557335315
 30
0.0000000000000047
 10
3188.945634539901
 20
-17318.33627188633
 30
0.0000000000000047
 10
3188.849988283951
 20
-17318.18785542031
 30
0.0000000000000047
 10
3188.722879927905
 20
-17318.08890015931
 30
0.0000000000000047
 10
3188.581310765581
 20
-17318.03481587949
 30
0.0000000000000047
 10
3188.450363648158
 20
-17318.01574935981
 30
0.0000000000000047
 10
3188.37332474378
 20
-17318.03753540148
 30
0.0000000000000047
 10
3188.345427322481
 20
-17318.04542458926
 30
0.0000000000000047
  0
SPLINE
  5
2F3847
330
18
100
AcDbEntity
  8
0
 62
     8
100
AcDbSpline
210
0.0
220
0.0
230
1.0
 70
     8
 71
     3
 72
    13
 73
     9
 74
     0
 42
0.0000000001
 43
0.0000000001
 40
0.0
 40
0.0
 40
0.0
 40
0.0
 40
0.0752806098857132
 40
0.2791344552947983
 40
0.4689181897627014
 40
0.665827155441211
 40
0.8708885916077772
 40
1.0
 40
1.0
 40
1.0
 40
1.0
 10
3139.623694130416
 20
-17318.59953605748
 30
0.0000000000000047
 10
3139.601481156941
 20
-17318.5938873465
 30
0.0000000000000047
 10
3139.519117235329
 20
-17318.57294237989
 30
0.0000000000000047
 10
3139.373394342871
 20
-17318.59748056076
 30
0.0000000000000047
 10
3139.209543504108
 20
-17318.67493915943
 30
0.0000000000000047
 10
3139.083148566637
 20
-17318.80585369185
 30
0.0000000000000047
 10
3139.006541557276
 20
-17318.9550110465
 30
0.0000000000000047
 10
3139.007706153755
 20
-17319.05728724654
 30
0.0000000000000047
 10
3139.008156108603
 20
-17319.09680279798
 30
0.0000000000000047
  0
SPLINE
  5
2F3848
330
18
100
AcDbEntity
  8
0
 62
     8
100
AcDbSpline
210
0.0
220
0.0
230
1.0
 70
     8
 71
     3
 72
     9
 73
     5
 74
     0
 42
0.0000000001
 43
0.0000000001
 40
0.0
 40
0.0
 40
0.0
 40
0.0
 40
0.4547070010379226
 40
1.0
 40
1.0
 40
1.0
 40
1.0
 10
3189.167254200683
 20
-17324.15635203176
 30
0.0000000000000047
 10
3189.167375010486
 20
-17324.1152814114
 30
0.0000000000000047
 10
3189.167640697629
 20
-17324.0249581477
 30
0.0000000000000047
 10
3189.122034712706
 20
-17323.94656046185
 30
0.0000000000000047
 10
3189.097166088417
 20
-17323.90381075261
 30
0.0000000000000047
  0
LINE
  5
2F3849
330
18
100
AcDbEntity
  8
0
 62
     8
100
AcDbLine
 10
3193.765019344321
 20
-17375.72036404406
 30
0.0000000000000047
 11
3193.765019344321
 21
-17374.9266867376
 31
0.0000000000000047
  0
LINE
  5
2F384A
330
18
100
AcDbEntity
  8
0
 62
     8
100
AcDbLine
 10
3134.408219727917
 20
-17374.9266862449
 30
0.0000000000000047
 11
3134.408219727917
 21
-17375.72036355136
 31
0.0000000000000047
  0
LINE
  5
2F384B
330
18
100
AcDbEntity
  8
0
 62
     8
100
AcDbLine
 10
3192.557605005066
 20
-17355.66370588375
 30
0.0000000000000047
 11
3192.533610445961
 21
-17352.0585826801
 31
0.0000000000000047
  0
LINE
  5
2F384C
330
18
100
AcDbEntity
  8
0
 62
     8
100
AcDbLine
 10
3192.577720526286
 20
-17358.68582334024
 30
0.0000000000000047
 11
3192.566055247994
 21
-17356.93329873834
 31
0.0000000000000047
  0
LINE
  5
2F384D
330
18
100
AcDbEntity
  8
0
 62
     8
100
AcDbLine
 10
3135.639629479753
 20
-17352.0585826801
 30
0.0000000000000047
 11
3135.595519399428
 21
-17358.68582334024
 31
0.0000000000000047
  0
LINE
  5
2F384E
330
18
100
AcDbEntity
  8
0
 62
     8
100
AcDbLine
 10
3153.638344788635
 20
-17337.59378414529
 30
0.0000000000000047
 11
3153.268351998706
 21
-17337.07230764731
 31
0.0000000000000047
  0
LINE
  5
2F384F
330
18
100
AcDbEntity
  8
0
 62
     8
100
AcDbLine
 10
3175.113586993076
 20
-17337.12055350193
 30
0.0000000000000047
 11
3174.736475379164
 21
-17337.64031491167
 31
0.0000000000000047
  0
LINE
  5
2F3850
330
18
100
AcDbEntity
  8
0
 62
     8
100
AcDbLine
 10
3142.290632106904
 20
-17342.53371678786
 30
0.0000000000000047
 11
3141.520230858693
 21
-17342.1896533833
 31
0.0000000000000047
  0
LINE
  5
2F3851
330
18
100
AcDbEntity
  8
0
 62
     8
100
AcDbLine
 10
3186.789619905249
 20
-17342.29270886537
 30
0.0000000000000047
 11
3186.014492333153
 21
-17342.63326535542
 31
0.0000000000000047
  0
LINE
  5
2F3852
330
18
100
AcDbEntity
  8
0
 62
     8
100
AcDbLine
 10
3136.844116404279
 20
-17350.11628994327
 30
0.0000000000000047
 11
3135.879430833754
 21
-17350.0407319548
 31
0.0000000000000047
  0
LINE
  5
2F3853
330
18
100
AcDbEntity
  8
0
 62
     8
100
AcDbLine
 10
3192.322100037581
 20
-17350.16946998413
 30
0.0000000000000047
 11
3191.356417609796
 21
-17350.24062323577
 31
0.0000000000000047
  0
LINE
  5
2F3854
330
18
100
AcDbEntity
  8
0
 62
     8
100
AcDbLine
 10
3199.726620923295
 20
-17375.29707049895
 30
0.0000000000000047
 11
3199.726620923295
 21
-17374.6621274711
 31
0.0000000000000047
  0
LINE
  5
2F3855
330
18
100
AcDbEntity
  8
0
 62
     8
100
AcDbLine
 10
3128.446619002418
 20
-17374.6621274711
 30
0.0000000000000047
 11
3128.446619002418
 21
-17375.29707049895
 31
0.0000000000000047
  0
LINE
  5
2F3856
330
18
100
AcDbEntity
  8
0
 62
     8
100
AcDbLine
 10
3149.178573110591
 20
-17333.36418023426
 30
0.0000000000000047
 11
3148.310898479643
 21
-17332.84417247459
 31
0.0000000000000047
  0
LINE
  5
2F3857
330
18
100
AcDbEntity
  8
0
 62
     8
100
AcDbLine
 10
3140.137280453504
 20
-17337.64579851353
 30
0.0000000000000047
 11
3139.247799143237
 21
-17337.11272164348
 31
0.0000000000000047
  0
LWPOLYLINE
  5
2F3858
330
18
100
AcDbEntity
  8
0
 62
     8
100
AcDbPolyline
 90
        3
 70
   128
 43
0.0
 10
3183.377057955035
 20
-17348.92232531347
 10
3184.539021966902
 20
-17349.63619650678
 10
3184.809125903997
 20
-17349.81554911324
  0
LWPOLYLINE
  5
2F3859
330
18
100
AcDbEntity
  8
0
 62
     8
100
AcDbPolyline
 90
        3
 70
   128
 43
0.0
 10
3143.364114021717
 20
-17349.81554911324
 10
3143.917460269771
 20
-17349.45383744572
 10
3145.00399467766
 20
-17348.80363466937
  0
ARC
  5
2F385A
330
18
100
AcDbEntity
  8
0
 62
     8
100
AcDbCircle
 10
3163.822065342274
 20
-17388.53425625805
 30
0.0000000000000047
 40
44.21292606227117
100
AcDbArc
 50
94.33814148424094
 51
103.178933287705
  0
ARC
  5
2F385B
330
18
100
AcDbEntity
  8
0
 62
     8
100
AcDbCircle
 10
3164.411863214259
 20
-17388.14143230402
 30
0.0000000000000047
 40
43.8162579716442
100
AcDbArc
 50
76.51332449648683
 51
85.40919774979863
  0
LWPOLYLINE
  5
2F385C
330
18
100
AcDbEntity
  8
0
 62
     8
100
AcDbPolyline
 90
        3
 70
   128
 43
0.0
 10
3181.529226649427
 20
-17347.94920404032
 10
3182.140462790486
 20
-17348.25153776753
 10
3183.377057955035
 20
-17348.92232531347
  0
ARC
  5
2F385D
330
18
100
AcDbEntity
  8
0
 62
     8
100
AcDbCircle
 10
3170.333835441733
 20
-17371.43909743592
 30
0.0000000000000047
 40
26.02137344626677
100
AcDbArc
 50
56.20075647807376
 51
64.5173164450906
  0
ARC
  5
2F385E
330
18
100
AcDbEntity
  8
0
 62
     8
100
AcDbCircle
 10
3164.374088488796
 20
-17388.37889330598
 30
0.0000000000000047
 40
44.0559845312194
100
AcDbArc
 50
76.53757587134581
 51
85.38494637497846
  0
ARC
  5
2F385F
330
18
100
AcDbEntity
  8
0
 62
     8
100
AcDbCircle
 10
3163.786210672018
 20
-17388.30153536547
 30
0.0000000000000047
 40
43.97816352174771
100
AcDbArc
 50
94.31449738987234
 51
103.2025773821247
  0
ARC
  5
2F3860
330
18
100
AcDbEntity
  8
0
 62
     8
100
AcDbCircle
 10
3157.058217482504
 20
-17370.17310580871
 30
0.0000000000000047
 40
24.53484428733829
100
AcDbArc
 50
119.4267431710147
 51
123.9278982793537
  0
ARC
  5
2F3861
330
18
100
AcDbEntity
  8
0
 62
     8
100
AcDbCircle
 10
3170.825266393502
 20
-17370.00182979165
 30
0.0000000000000047
 40
24.99021019647863
100
AcDbArc
 50
53.14468877008274
 51
64.64411144156426
  0
ARC
  5
2F3862
330
18
100
AcDbEntity
  8
0
 62
     8
100
AcDbCircle
 10
3164.374253046783
 20
-17387.84822785639
 30
0.0000000000000047
 40
44.05442993971652
100
AcDbArc
 50
76.53112395475414
 51
85.38561816203316
  0
ARC
  5
2F3863
330
18
100
AcDbEntity
  8
0
 62
     8
100
AcDbCircle
 10
3163.786058298681
 20
-17387.77104514873
 30
0.0000000000000047
 40
43.97678488264202
100
AcDbArc
 50
94.31384726327546
 51
103.2088711592648
  0
ARC
  5
2F3864
330
18
100
AcDbEntity
  8
0
 62
     8
100
AcDbCircle
 10
3156.520736106701
 20
-17368.76190942501
 30
0.0000000000000047
 40
23.50252962325881
100
AcDbArc
 50
119.3342133364059
 51
126.6536565922852
  0
ARC
  5
2F3865
330
18
100
AcDbEntity
  8
0
 62
     8
100
AcDbCircle
 10
3171.737756356439
 20
-17362.55877991547
 30
0.0000000000000047
 40
21.57529966578039
100
AcDbArc
 50
49.03638469742969
 51
63.06675983256097
  0
ARC
  5
2F3866
330
18
100
AcDbEntity
  8
0
 62
     8
100
AcDbCircle
 10
3164.468057240459
 20
-17380.85504940337
 30
0.0000000000000047
 40
41.37100689006954
100
AcDbArc
 50
75.72027015219801
 51
85.22136116266217
  0
ARC
  5
2F3867
330
18
100
AcDbEntity
  8
0
 62
     8
100
AcDbCircle
 10
3163.743826549105
 20
-17381.08775160777
 30
0.0000000000000047
 40
41.60653736848612
100
AcDbArc
 50
94.49673212044373
 51
103.9680853706272
  0
ARC
  5
2F3868
330
18
100
AcDbEntity
  8
0
 62
     8
100
AcDbCircle
 10
3170.977085993735
 20
-17364.61075945913
 30
0.0000000000000047
 40
24.5079921352405
100
AcDbArc
 50
52.48428846586485
 51
64.55480163667646
  0
ARC
  5
2F3869
330
18
100
AcDbEntity
  8
0
 62
     8
100
AcDbCircle
 10
3164.417566694132
 20
-17382.39954662815
 30
0.0000000000000047
 40
43.55494013575351
100
AcDbArc
 50
76.37378608798458
 51
85.39561868564488
  0
ARC
  5
2F386A
330
18
100
AcDbEntity
  8
0
 62
     8
100
AcDbCircle
 10
3163.747248749015
 20
-17382.34447554886
 30
0.0000000000000047
 40
43.49979326421299
100
AcDbArc
 50
94.30444472250568
 51
103.3612878574127
  0
ARC
  5
2F386B
330
18
100
AcDbEntity
  8
0
 62
     8
100
AcDbCircle
 10
3170.96266794202
 20
-17362.8329425942
 30
0.0000000000000047
 40
24.62518079890253
100
AcDbArc
 50
52.58290553591724
 51
64.66738042066167
  0
ARC
  5
2F386C
330
18
100
AcDbEntity
  8
0
 62
     8
100
AcDbCircle
 10
3164.376309563093
 20
-17380.87666960225
 30
0.0000000000000047
 40
43.92389408032232
100
AcDbArc
 50
76.41285864722887
 51
85.38260824450862
  0
ARC
  5
2F386D
330
18
100
AcDbEntity
  8
0
 62
     8
100
AcDbCircle
 10
3163.766993433338
 20
-17380.69115247101
 30
0.0000000000000047
 40
43.73694509412574
100
AcDbArc
 50
94.30490096784906
 51
103.3359474264894
  0
SPLINE
  5
2F386E
330
18
100
AcDbEntity
  8
0
 62
     8
100
AcDbSpline
210
0.0
220
0.0
230
1.0
 70
     8
 71
     3
 72
    15
 73
    11
 74
     0
 42
0.0000000001
 43
0.0000000001
 40
0.0
 40
0.0
 40
0.0
 40
0.0
 40
0.1013429151229971
 40
0.527680693265816
 40
0.7423534631989992
 40
0.8076391023021722
 40
0.8580960829977033
 40
0.9088095986631211
 40
0.965682573214887
 40
1.0
 40
1.0
 40
1.0
 40
1.0
 10
3173.061010098193
 20
-17334.78856329414
 30
0.0000000000000047
 10
3173.043386266739
 20
-17334.73973181305
 30
0.0000000000000047
 10
3172.951621039851
 20
-17334.48547200848
 30
0.0000000000000047
 10
3172.731867725748
 20
-17334.11705965939
 30
0.0000000000000047
 10
3172.431620888573
 20
-17333.76672385642
 30
0.0000000000000047
 10
3172.229288656441
 20
-17333.63171257324
 30
0.0000000000000047
 10
3172.113136656086
 20
-17333.58198813359
 30
0.0000000000000047
 10
3172.003065536527
 20
-17333.56270993701
 30
0.0000000000000047
 10
3171.913603160531
 20
-17333.5678851054
 30
0.0000000000000047
 10
3171.873819341687
 20
-17333.58820238243
 30
0.0000000000000047
 10
3171.858847609243
 20
-17333.59584832605
 30
0.0000000000000047
  0
LWPOLYLINE
  5
2F386F
330
18
100
AcDbEntity
  8
0
 62
     8
100
AcDbPolyline
 90
        4
 70
   128
 43
0.0
 10
3166.680849662873
 20
-17334.57711822271
 10
3166.636299190127
 20
-17333.78353716831
 10
3166.458130584623
 20
-17330.60922083413
 10
3166.375839505644
 20
-17329.14274025743
  0
LWPOLYLINE
  5
2F3870
330
18
100
AcDbEntity
  8
0
 62
     8
100
AcDbPolyline
 90
        4
 70
   128
 43
0.0
 10
3160.942563740252
 20
-17329.20477954689
 10
3160.883132100382
 20
-17329.99954172583
 10
3160.64536798806
 20
-17333.17860448408
 10
3160.535506295248
 20
-17334.64728853811
  0
ARC
  5
2F3871
330
18
100
AcDbEntity
  8
0
 62
     8
100
AcDbCircle
 10
3164.08744329464
 20
-17366.678301249
 30
0.0000000000000047
 40
37.6052535714094
100
AcDbArc
 50
86.51121878750986
 51
94.79717604950513
  0
LINE
  5
2F3872
330
18
100
AcDbEntity
  8
0
 62
     8
100
AcDbLine
 10
3145.001119431507
 20
-17347.53538624995
 30
0.0000000000000047
 11
3144.954795333768
 21
-17346.92719809522
 31
0.0000000000000047
  0
LINE
  5
2F3873
330
18
100
AcDbEntity
  8
0
 62
     8
100
AcDbLine
 10
3145.014000483059
 20
-17346.89236538461
 30
0.0000000000000047
 11
3144.954795333768
 21
-17346.92719809522
 31
0.0000000000000047
  0
LINE
  5
2F3874
330
18
100
AcDbEntity
  8
0
 62
     8
100
AcDbLine
 10
3145.010606218224
 20
-17347.54074312928
 30
0.0000000000000047
 11
3145.001119431507
 21
-17347.53538624995
 31
0.0000000000000047
  0
LINE
  5
2F3875
330
18
100
AcDbEntity
  8
0
 62
     8
100
AcDbLine
 10
3144.954795333768
 20
-17346.92719809522
 30
0.0000000000000047
 11
3145.014806909005
 21
-17346.73830830632
 31
0.0000000000000047
  0
LWPOLYLINE
  5
2F3876
330
18
100
AcDbEntity
  8
0
 62
     8
100
AcDbPolyline
 90
        4
 70
   128
 43
0.0
 10
3152.932897155019
 20
-17330.84658878706
 10
3152.734223417557
 20
-17331.67098957301
 10
3151.939500089715
 20
-17334.9686123021
 10
3151.572334644728
 20
-17336.49207189458
  0
SPLINE
  5
2F3877
330
18
100
AcDbEntity
  8
0
 62
     8
100
AcDbSpline
210
0.0
220
0.0
230
1.0
 70
     8
 71
     3
 72
    11
 73
     7
 74
     0
 42
0.0000000001
 43
0.0000000001
 40
0.0
 40
0.0
 40
0.0
 40
0.0
 40
0.2499998898653563
 40
0.5000000598087987
 40
0.7500008795649529
 40
1.0
 40
1.0
 40
1.0
 40
1.0
 10
3166.680849662873
 20
-17334.57711822271
 30
0.0000000000000047
 10
3166.762343281799
 20
-17334.57494341254
 30
0.0000000000000047
 10
3166.925330610955
 20
-17334.57059378976
 30
0.0000000000000047
 10
3167.145872433845
 20
-17334.47481244665
 30
0.0000000000000047
 10
3167.316645951194
 20
-17334.32808449595
 30
0.0000000000000047
 10
3167.362000019582
 20
-17334.20331471309
 30
0.0000000000000047
 10
3167.384676976702
 20
-17334.14093003369
 30
0.0000000000000047
  0
LINE
  5
2F3878
330
18
100
AcDbEntity
  8
0
 62
     8
100
AcDbLine
 10
3167.384695753123
 20
-17334.13863951325
 30
0.0000000000000047
 11
3167.384676976702
 21
-17334.14093003369
 31
0.0000000000000047
  0
LINE
  5
2F3879
330
18
100
AcDbEntity
  8
0
 62
     8
100
AcDbLine
 10
3167.384695753123
 20
-17334.13863957484
 30
0.0000000000000047
 11
3167.948821373785
 21
-17307.39925515172
 31
0.0000000000000047
  0
LINE
  5
2F387A
330
18
100
AcDbEntity
  8
0
 62
     8
100
AcDbLine
 10
3169.558032346269
 20
-17335.1193903813
 30
0.0000000000000047
 11
3169.557783985427
 21
-17335.08193783535
 31
0.0000000000000047
  0
LINE
  5
2F387B
330
18
100
AcDbEntity
  8
0
 62
     8
100
AcDbLine
 10
3159.812153210513
 20
-17334.22754758713
 30
0.0000000000000047
 11
3159.25258428584
 21
-17307.4985405805
 31
0.0000000000000047
  0
LINE
  5
2F387C
330
18
100
AcDbEntity
  8
0
 62
     8
100
AcDbLine
 10
3159.81234950946
 20
-17334.22739294837
 30
0.0000000000000047
 11
3159.812153210513
 21
-17334.22754758713
 31
0.0000000000000047
  0
SPLINE
  5
2F387D
330
18
100
AcDbEntity
  8
0
 62
     8
100
AcDbSpline
210
0.0
220
0.0
230
1.0
 70
     8
 71
     3
 72
    11
 73
     7
 74
     0
 42
0.0000000001
 43
0.0000000001
 40
0.0
 40
0.0
 40
0.0
 40
0.0
 40
0.2499998411944516
 40
0.5000005615218656
 40
0.7499996655553549
 40
1.0
 40
1.0
 40
1.0
 40
1.0
 10
3159.812349509459
 20
-17334.22739294837
 30
0.0000000000000047
 10
3159.83796243655
 20
-17334.28922628388
 30
0.0000000000000047
 10
3159.889188380796
 20
-17334.41289317234
 30
0.0000000000000047
 10
3160.066607679034
 20
-17334.55564625577
 30
0.0000000000000047
 10
3160.291249977734
 20
-17334.64634320821
 30
0.0000000000000047
 10
3160.454087389171
 20
-17334.64697342762
 30
0.0000000000000047
 10
3160.535506295248
 20
-17334.64728853811
 30
0.0000000000000047
  0
SPLINE
  5
2F387E
330
18
100
AcDbEntity
  8
0
 62
     8
100
AcDbSpline
210
0.0
220
0.0
230
1.0
 70
     8
 71
     3
 72
    10
 73
     6
 74
     0
 42
0.0000000001
 43
0.0000000001
 40
0.0
 40
0.0
 40
0.0
 40
0.0
 40
0.3924888477169623
 40
0.7849776970229354
 40
1.0
 40
1.0
 40
1.0
 40
1.0
 10
3157.203377758529
 20
-17335.06962495376
 30
0.0000000000000047
 10
3157.27790345915
 20
-17335.04919485732
 30
0.0000000000000047
 10
3157.426954860691
 20
-17335.00833466433
 30
0.0000000000000047
 10
3157.575987084564
 20
-17334.89269124326
 30
0.0000000000000047
 10
3157.613415685192
 20
-17334.80071744165
 30
0.0000000000000047
 10
3157.62666315213
 20
-17334.76816426372
 30
0.0000000000000047
  0
SPLINE
  5
2F387F
330
18
100
AcDbEntity
  8
0
 62
     8
100
AcDbSpline
210
0.0
220
0.0
230
1.0
 70
    11
 71
     3
 72
    35
 73
    31
 74
     0
 42
0.0000000001
 43
0.0000000001
 40
0.0
 40
0.0
 40
0.0
 40
0.0
 40
0.0081660594718685
 40
0.018488047476773
 40
0.0369164865620194
 40
0.0646511159681206
 40
0.0925138717299753
 40
0.1831245765569347
 40
0.2740308210213894
 40
0.3714372250229896
 40
0.4444208056053419
 40
0.473339621674074
 40
0.4878735323529594
 40
0.4949664535518485
 40
0.5021097491104735
 40
0.5085594610537521
 40
0.5187032631330945
 40
0.5380705605492187
 40
0.5696423458180889
 40
0.6013607017358243
 40
0.7065635906152288
 40
0.8120065422745836
 40
0.8686283215201699
 40
0.9082687195871951
 40
0.9362780093439662
 40
0.9668974875951427
 40
0.9788909050133389
 40
0.9909959655746735
 40
0.9983736784388501
 40
1.0
 40
1.0
 40
1.0
 40
1.0
 10
3172.850275924127
 20
-17334.79478889955
 30
0.0000000000000047
 10
3172.809212852841
 20
-17334.78176991572
 30
0.0000000000000047
 10
3172.716245612751
 20
-17334.75229479471
 30
0.0000000000000047
 10
3172.549960554417
 20
-17334.64600191564
 30
0.0000000000000047
 10
3172.351664864759
 20
-17334.46082193237
 30
0.0000000000000047
 10
3172.154424356285
 20
-17334.205590472
 30
0.0000000000000047
 10
3171.85981443119
 20
-17333.70100679171
 30
0.0000000000000047
 10
3171.57670119171
 20
-17332.98204137422
 30
0.0000000000000047
 10
3171.4034783529
 20
-17332.05723264267
 30
0.0000000000000047
 10
3171.381112401202
 20
-17331.22018962242
 30
0.0000000000000047
 10
3171.511744596612
 20
-17330.6225207845
 30
0.0000000000000047
 10
3171.723417594411
 20
-17330.33392150221
 30
0.0000000000000047
 10
3171.885254161483
 20
-17330.25313672794
 30
0.0000000000000047
 10
3172.011262596265
 20
-17330.24385608306
 30
0.0000000000000047
 10
3172.115392675392
 20
-17330.26400048805
 30
0.0000000000000047
 10
3172.232723787622
 20
-17330.31448369891
 30
0.0000000000000047
 10
3172.389147719886
 20
-17330.42081236713
 30
0.0000000000000047
 10
3172.591984593514
 20
-17330.6302003917
 30
0.0000000000000047
 10
3172.797114947978
 20
-17330.92198103872
 30
0.0000000000000047
 10
3173.108445627782
 20
-17331.51530272334
 30
0.0000000000000047
 10
3173.409506114606
 20
-17332.3554621351
 30
0.0000000000000047
 10
3173.539575439297
 20
-17333.23534722441
 30
0.0000000000000047
 10
3173.539844359568
 20
-17333.86749642158
 30
0.0000000000000047
 10
3173.480870581646
 20
-17334.23648936678
 30
0.0000000000000047
 10
3173.385246226559
 20
-17334.50750638763
 30
0.0000000000000047
 10
3173.269565256669
 20
-17334.6824885367
 30
0.0000000000000047
 10
3173.121106433198
 20
-17334.78088873169
 30
0.0000000000000047
 10
3173.003170091961
 20
-17334.81286399197
 30
0.0000000000000047
 10
3172.902789026201
 20
-17334.80660883891
 30
0.0000000000000047
 10
3172.858309821606
 20
-17334.79659721361
 30
0.0000000000000047
 10
3172.850275924127
 20
-17334.79478889955
 30
0.0000000000000047
1001
ACAD_SPLINE_DATA
1070
   100
1070
     1
1070
   101
1070
     0
1070
   102
1070
    15
1001
ACAD_SPLINE_DATA2
1070
   103
1070
     1
1070
   104
1070
    15
  0
LWPOLYLINE
  5
2F3880
330
18
100
AcDbEntity
  8
0
 62
     8
100
AcDbPolyline
 90
        4
 70
   128
 43
0.0
 10
3175.763374913763
 20
-17336.21585079855
 10
3175.577665868274
 20
-17335.39582900565
 10
3174.834853583581
 20
-17332.11575710802
 10
3174.491702540962
 20
-17330.60042287577
  0
ARC
  5
2F3881
330
18
100
AcDbEntity
  8
0
 62
     8
100
AcDbCircle
 10
3164.770929594306
 20
-17361.86559047857
 30
0.0000000000000047
 40
32.7414741866126
100
AcDbArc
 50
72.72880817097858
 51
81.81755031037081
  0
SPLINE
  5
2F3882
330
18
100
AcDbEntity
  8
0
 62
     8
100
AcDbSpline
210
0.0
220
0.0
230
1.0
 70
     8
 71
     3
 72
    10
 73
     6
 74
     0
 42
0.0000000001
 43
0.0000000001
 40
0.0
 40
0.0
 40
0.0
 40
0.0
 40
0.2843586086438574
 40
0.6421783485161753
 40
1.0
 40
1.0
 40
1.0
 40
1.0
 10
3169.577371206438
 20
-17334.58916740923
 30
0.0000000000000047
 10
3169.598170213936
 20
-17334.63625115124
 30
0.0000000000000047
 10
3169.645141439282
 20
-17334.74258223729
 30
0.0000000000000047
 10
3169.81140034868
 20
-17334.86726870936
 30
0.0000000000000047
 10
3169.963335142178
 20
-17334.90446257188
 30
0.0000000000000047
 10
3170.039302741848
 20
-17334.92305955281
 30
0.0000000000000047
  0
LINE
  5
2F3883
330
18
100
AcDbEntity
  8
0
 62
     8
100
AcDbLine
 10
3144.09895443548
 20
-17348.81081189819
 30
0.0000000000000047
 11
3143.709827619066
 21
-17344.14407547818
 31
0.0000000000000047
  0
ARC
  5
2F3884
330
18
100
AcDbEntity
  8
0
 62
     8
100
AcDbCircle
 10
3156.963755962159
 20
-17364.37599665933
 30
0.0000000000000047
 40
24.18671642046619
100
AcDbArc
 50
120.5308506106615
 51
123.2288016630228
  0
LINE
  5
2F3885
330
18
100
AcDbEntity
  8
0
 62
     8
100
AcDbLine
 10
3144.676850107217
 20
-17343.54262929551
 30
0.0000000000000047
 11
3145.009553565121
 21
-17347.74179221115
 31
0.0000000000000047
  0
LINE
  5
2F3886
330
18
100
AcDbEntity
  8
0
 62
     8
100
AcDbLine
 10
3144.676850107217
 20
-17343.54262929551
 30
0.0000000000000047
 11
3144.630525902791
 21
-17341.66455662501
 31
0.0000000000000047
  0
LINE
  5
2F3887
330
18
100
AcDbEntity
  8
0
 62
     8
100
AcDbLine
 10
3145.040157317739
 20
-17341.89586252349
 30
0.0000000000000047
 11
3144.630525902791
 21
-17341.66455662501
 31
0.0000000000000047
  0
ARC
  5
2F3888
330
18
100
AcDbEntity
  8
0
 62
     8
100
AcDbCircle
 10
3154.937907246361
 20
-17360.65530860861
 30
0.0000000000000047
 40
19.1567414291364
100
AcDbArc
 50
125.5949572559062
 51
130.7915727096331
  0
SPLINE
  5
2F3889
330
18
100
AcDbEntity
  8
0
 62
     8
100
AcDbSpline
210
0.0
220
0.0
230
1.0
 70
     8
 71
     3
 72
    11
 73
     7
 74
     0
 42
0.0000000001
 43
0.0000000001
 40
0.0
 40
0.0
 40
0.0
 40
0.0
 40
0.2500007019669994
 40
0.4999997756803644
 40
0.7500007819014303
 40
1.0
 40
1.0
 40
1.0
 40
1.0
 10
3175.763374913763
 20
-17336.21585079855
 30
0.0000000000000047
 10
3175.838558487958
 20
-17336.23166683055
 30
0.0000000000000047
 10
3175.988925146677
 20
-17336.26329879153
 30
0.0000000000000047
 10
3176.23402527567
 20
-17336.22098819862
 30
0.0000000000000047
 10
3176.457420318804
 20
-17336.1195218932
 30
0.0000000000000047
 10
3176.556486421223
 20
-17336.01133598271
 30
0.0000000000000047
 10
3176.606019295289
 20
-17335.95724322091
 30
0.0000000000000047
  0
LINE
  5
2F388A
330
18
100
AcDbEntity
  8
0
 62
     8
100
AcDbLine
 10
3176.605964672974
 20
-17335.95494875887
 30
0.0000000000000047
 11
3176.60601929529
 21
-17335.95724322091
 31
0.0000000000000047
  0
LINE
  5
2F388B
330
18
100
AcDbEntity
  8
0
 62
     8
100
AcDbLine
 10
3176.605965099711
 20
-17335.95494906682
 30
0.0000000000000047
 11
3177.089074731076
 21
-17309.33581839352
 31
0.0000000000000047
  0
SPLINE
  5
2F388C
330
18
100
AcDbEntity
  8
0
 62
     8
100
AcDbSpline
210
0.0
220
0.0
230
1.0
 70
     8
 71
     3
 72
    11
 73
     7
 74
     0
 42
0.0000000001
 43
0.0000000001
 40
0.0
 40
0.0
 40
0.0
 40
0.0
 40
0.2499992928718516
 40
0.5000004037303617
 40
0.750000479615416
 40
0.9999999999999998
 40
0.9999999999999998
 40
0.9999999999999998
 40
0.9999999999999998
 10
3150.722633316058
 20
-17336.25278825217
 30
0.0000000000000047
 10
3150.774512953078
 20
-17336.30572308286
 30
0.0000000000000047
 10
3150.878272604381
 20
-17336.41159312918
 30
0.0000000000000047
 10
3151.105173657317
 20
-17336.50791778521
 30
0.0000000000000047
 10
3151.350692210805
 20
-17336.5446273959
 30
0.0000000000000047
 10
3151.498453888141
 20
-17336.50959038205
 30
0.0000000000000047
 10
3151.572334644728
 20
-17336.49207189458
 30
0.0000000000000047
  0
LINE
  5
2F388D
330
18
100
AcDbEntity
  8
0
 62
     8
100
AcDbLine
 10
3150.722082185427
 20
-17336.25302849754
 30
0.0000000000000047
 11
3150.25212159635
 21
-17309.64224162203
 31
0.0000000000000047
  0
LINE
  5
2F388E
330
18
100
AcDbEntity
  8
0
 62
     8
100
AcDbLine
 10
3150.722633316058
 20
-17336.25278825217
 30
0.0000000000000047
 11
3150.722082185427
 21
-17336.25302849754
 31
0.0000000000000047
  0
LWPOLYLINE
  5
2F388F
330
18
100
AcDbEntity
  8
0
 62
     8
100
AcDbPolyline
 90
        4
 70
   128
 43
0.0
 10
3183.068219248222
 20
-17339.73633954494
 10
3182.769622732348
 20
-17338.86070560922
 10
3181.575256725484
 20
-17335.35818686469
 10
3181.023486416584
 20
-17333.74008948162
  0
LWPOLYLINE
  5
2F3890
330
18
100
AcDbEntity
  8
0
 62
     8
100
AcDbPolyline
 90
        3
 70
   128
 43
0.0
 10
3143.709827619066
 20
-17344.14407547818
 10
3142.631641357317
 20
-17344.89696017145
 10
3142.403130606658
 20
-17345.06951056351
  0
ARC
  5
2F3891
330
18
100
AcDbEntity
  8
0
 62
     8
100
AcDbCircle
 10
3146.404076885659
 20
-17354.54659787307
 30
0.0000000000000047
 40
9.470544186508883
100
AcDbArc
 50
158.6714849063329
 51
176.4970951218569
  0
LWPOLYLINE
  5
2F3892
330
18
100
AcDbEntity
  8
0
 62
     8
100
AcDbPolyline
 90
        3
 70
   128
 43
0.0
 10
3136.984844826288
 20
-17355.44802908847
 10
3137.041302110374
 20
-17355.88561062348
 10
3137.044836344892
 20
-17355.90845465293
  0
LWPOLYLINE
  5
2F3893
330
18
100
AcDbEntity
  8
0
 62
     8
100
AcDbPolyline
 90
        3
 70
   128
 43
0.0
 10
3144.630525902791
 20
-17341.66455662501
 10
3143.456861646882
 20
-17342.40294701193
 10
3142.369115413048
 20
-17343.18150986747
  0
ARC
  5
2F3894
330
18
100
AcDbEntity
  8
0
 62
     8
100
AcDbCircle
 10
3146.503499632733
 20
-17352.72718126557
 30
0.0000000000000047
 40
9.637428208945218
100
AcDbArc
 50
157.7735861393929
 51
174.9342832460824
  0
ARC
  5
2F3895
330
18
100
AcDbEntity
  8
0
 62
     8
100
AcDbCircle
 10
3166.460598183059
 20
-17328.49477726116
 30
0.0000000000000047
 40
0.6534830356914361
100
AcDbArc
 50
262.5475727314684
 51
341.1391557663281
  0
LINE
  5
2F3896
330
18
100
AcDbEntity
  8
0
 62
     8
100
AcDbLine
 10
3167.078993428739
 20
-17328.7060292388
 30
0.0000000000000047
 11
3167.384695753123
 21
-17334.13863957484
 31
0.0000000000000047
  0
ELLIPSE
  5
2F3897
330
18
100
AcDbEntity
  8
0
 62
     8
100
AcDbEllipse
 10
3154.292166561748
 20
-17763.51099198167
 30
0.0000000000000047
 11
14.97707185809524
 21
709.094294810553
 31
0.0
210
0.0
220
0.0
230
1.0
 40
0.0026167580303734
 41
5.372098144539952
 42
5.375069681787354
  0
SPLINE
  5
2F3898
330
18
100
AcDbEntity
  8
0
 62
     8
100
AcDbSpline
210
0.0
220
0.0
230
1.0
 70
     8
 71
     3
 72
    11
 73
     7
 74
     0
 42
0.0000000001
 43
0.0000000001
 40
0.0
 40
0.0
 40
0.0
 40
0.0
 40
0.3197332924236886
 40
0.639494902139966
 40
0.9586500401471386
 40
1.0
 40
1.0
 40
1.0
 40
1.0
 10
3164.920853787982
 20
-17327.01835010264
 30
0.0000000000000047
 10
3164.930622496161
 20
-17327.01781992706
 30
0.0000000000000047
 10
3164.950160777687
 20
-17327.01675952891
 30
0.0000000000000047
 10
3164.966931317187
 20
-17327.10690303759
 30
0.0000000000000047
 10
3164.970532347364
 20
-17327.21112640488
 30
0.0000000000000047
 10
3164.96946618423
 20
-17327.27660661901
 30
0.0000000000000047
 10
3164.969343895245
 20
-17327.28411720414
 30
0.0000000000000047
  0
LINE
  5
2F3899
330
18
100
AcDbEntity
  8
0
 62
     8
100
AcDbLine
 10
3164.920853787982
 20
-17327.01835010264
 30
0.0000000000000047
 11
3165.111529410196
 21
-17317.97738566521
 31
0.0000000000000047
  0
LINE
  5
2F389A
330
18
100
AcDbEntity
  8
0
 62
     8
100
AcDbLine
 10
3165.111523009143
 20
-17317.9773272665
 30
0.0000000000000047
 11
3165.111529410196
 21
-17317.97738566521
 31
0.0000000000000047
  0
SPLINE
  5
2F389B
330
18
100
AcDbEntity
  8
0
 62
     8
100
AcDbSpline
210
0.0
220
0.0
230
1.0
 70
     8
 71
     3
 72
    10
 73
     6
 74
     0
 42
0.0000000001
 43
0.0000000001
 40
0.0
 40
0.0
 40
0.0
 40
0.0
 40
0.4966948467433567
 40
0.9999971576506851
 40
1.0
 40
1.0
 40
1.0
 40
1.0
 10
3167.948823080733
 20
-17307.39916645133
 30
0.0000000000000047
 10
3167.478706726678
 20
-17309.15044414242
 30
0.0000000000000047
 10
3166.532220124486
 20
-17312.67629653412
 30
0.0000000000000047
 10
3165.590096756728
 20
-17316.2033148131
 30
0.0000000000000047
 10
3165.11152571181
 20
-17317.97731724806
 30
0.0000000000000047
 10
3165.111523009143
 20
-17317.9773272665
 30
0.0000000000000047
  0
LINE
  5
2F389C
330
18
100
AcDbEntity
  8
0
 62
     8
100
AcDbLine
 10
3167.948821373785
 20
-17307.39925515172
 30
0.0000000000000047
 11
3167.948823080733
 21
-17307.39916645133
 31
0.0000000000000047
  0
SPLINE
  5
2F389D
330
18
100
AcDbEntity
  8
0
 62
     8
100
AcDbSpline
210
0.0
220
0.0
230
1.0
 70
     8
 71
     3
 72
    11
 73
     7
 74
     0
 42
0.0000000001
 43
0.0000000001
 40
0.0
 40
0.0
 40
0.0
 40
0.0
 40
0.2038730288003444
 40
0.4689216382187156
 40
0.7344706716631176
 40
1.0
 40
1.0
 40
1.0
 40
1.0
 10
3167.07899342874
 20
-17328.7060292388
 30
0.0000000000000047
 10
3167.07366524357
 20
-17328.64407246176
 30
0.0000000000000047
 10
3167.061410060362
 20
-17328.50156771969
 30
0.0000000000000047
 10
3167.018119058147
 20
-17328.41355206359
 30
0.0000000000000047
 10
3166.95472975844
 20
-17328.45079639933
 30
0.0000000000000047
 10
3166.904379048685
 20
-17328.59388688835
 30
0.0000000000000047
 10
3166.879204627912
 20
-17328.66542947826
 30
0.0000000000000047
  0
LINE
  5
2F389E
330
18
100
AcDbEntity
  8
0
 62
     8
100
AcDbLine
 10
3159.81215491746
 20
-17334.22754752554
 30
0.0000000000000047
 11
3160.220050473621
 21
-17328.78434683924
 31
0.0000000000000047
  0
LINE
  5
2F389F
330
18
100
AcDbEntity
  8
0
 62
     8
100
AcDbLine
 10
3159.252585139314
 20
-17307.49846124141
 30
0.0000000000000047
 11
3159.25258428584
 21
-17307.4985405805
 31
0.0000000000000047
  0
LWPOLYLINE
  5
2F38A0
330
18
100
AcDbEntity
  8
0
 62
     8
100
AcDbPolyline
 90
        3
 70
   128
 43
0.0
 10
3162.717063333534
 20
-17318.00466792131
 10
3160.834846826804
 20
-17312.29674866701
 10
3159.252585139314
 20
-17307.49846124141
  0
LINE
  5
2F38A1
330
18
100
AcDbEntity
  8
0
 62
     8
100
AcDbLine
 10
3162.717072081638
 20
-17318.00477127888
 30
0.0000000000000047
 11
3162.717063333534
 21
-17318.00466792131
 31
0.0000000000000047
  0
LINE
  5
2F38A2
330
18
100
AcDbEntity
  8
0
 62
     8
100
AcDbLine
 10
3162.906331791014
 20
-17327.04140682098
 30
0.0000000000000047
 11
3162.717072081638
 21
-17318.00477127888
 31
0.0000000000000047
  0
SPLINE
  5
2F38A3
330
18
100
AcDbEntity
  8
0
 62
     8
100
AcDbSpline
210
0.0
220
0.0
230
1.0
 70
     8
 71
     3
 72
    11
 73
     7
 74
     0
 42
0.0000000001
 43
0.0000000001
 40
0.0
 40
0.0
 40
0.0
 40
0.0
 40
0.3186080911830722
 40
0.6372137194023991
 40
0.9559998092876261
 40
1.0
 40
1.0
 40
1.0
 40
1.0
 10
3162.844687733991
 20
-17327.30837725301
 30
0.0000000000000047
 10
3162.845122881588
 20
-17327.25370526428
 30
0.0000000000000047
 10
3162.845993173418
 20
-17327.14436170944
 30
0.0000000000000047
 10
3162.86681628447
 20
-17327.05203262845
 30
0.0000000000000047
 10
3162.890065806805
 20
-17327.03338667351
 30
0.0000000000000047
 10
3162.904572375553
 20
-17327.04053931913
 30
0.0000000000000047
 10
3162.906331791014
 20
-17327.04140682098
 30
0.0000000000000047
  0
ELLIPSE
  5
2F38A4
330
18
100
AcDbEntity
  8
0
 62
     8
100
AcDbEllipse
 10
3173.805106181548
 20
-17763.28818665309
 30
0.0000000000000047
 11
-14.86505263785681
 21
708.7535495934945
 31
0.0
210
0.0
220
0.0
230
1.0
 40
0.0032492837666997
 41
0.9081697545345292
 42
0.9111087954596403
  0
SPLINE
  5
2F38A5
330
18
100
AcDbEntity
  8
0
 62
     8
100
AcDbSpline
210
0.0
220
0.0
230
1.0
 70
     8
 71
     3
 72
    11
 73
     7
 74
     0
 42
0.0000000001
 43
0.0000000001
 40
0.0
 40
0.0
 40
0.0
 40
0.0
 40
0.2072068750535175
 40
0.4716909086473743
 40
0.7358391199435616
 40
0.9999999999999998
 40
0.9999999999999998
 40
0.9999999999999998
 40
0.9999999999999998
 10
3160.468116013289
 20
-17328.73863334675
 30
0.0000000000000047
 10
3160.444049013563
 20
-17328.68148454345
 30
0.0000000000000047
 10
3160.389262293934
 20
-17328.55138957942
 30
0.0000000000000047
 10
3160.313313732423
 20
-17328.48739466532
 30
0.0000000000000047
 10
3160.249044441872
 20
-17328.54981222121
 30
0.0000000000000047
 10
3160.229715284208
 20
-17328.70616738344
 30
0.0000000000000047
 10
3160.220050473621
 20
-17328.78434683924
 30
0.0000000000000047
  0
ARC
  5
2F38A6
330
18
100
AcDbEntity
  8
0
 62
     8
100
AcDbCircle
 10
3160.845219712358
 20
-17328.54102959499
 30
0.0000000000000047
 40
0.6708501012976479
100
AcDbArc
 50
201.266097125899
 51
278.3433875153344
  0
LINE
  5
2F38A7
330
18
100
AcDbEntity
  8
0
 62
     8
100
AcDbLine
 10
3177.089074731076
 20
-17309.33581839352
 30
0.0000000000000047
 11
3177.089076011287
 21
-17309.33573043218
 31
0.0000000000000047
  0
LINE
  5
2F38A8
330
18
100
AcDbEntity
  8
0
 62
     8
100
AcDbLine
 10
3175.334016201439
 20
-17330.34117693039
 30
0.0000000000000047
 11
3176.605965099711
 21
-17335.95494906682
 31
0.0000000000000047
  0
SPLINE
  5
2F38A9
330
18
100
AcDbEntity
  8
0
 62
     8
100
AcDbSpline
210
0.0
220
0.0
230
1.0
 70
     8
 71
     3
 72
    11
 73
     7
 74
     0
 42
0.0000000001
 43
0.0000000001
 40
0.0
 40
0.0
 40
0.0
 40
0.0
 40
0.2038733175385106
 40
0.4689220808963815
 40
0.7344712683645333
 40
1.0
 40
1.0
 40
1.0
 40
1.0
 10
3175.334016201439
 20
-17330.34117693039
 30
0.0000000000000047
 10
3175.313506629557
 20
-17330.27625337351
 30
0.0000000000000047
 10
3175.266333261111
 20
-17330.12692490937
 30
0.0000000000000047
 10
3175.120760750539
 20
-17330.0172223199
 30
0.0000000000000047
 10
3174.916012517674
 20
-17330.02367601129
 30
0.0000000000000047
 10
3174.759142191046
 20
-17330.14297119397
 30
0.0000000000000047
 10
3174.680710048866
 20
-17330.20261648783
 30
0.0000000000000047
  0
ARC
  5
2F38AA
330
18
100
AcDbEntity
  8
0
 62
     8
100
AcDbCircle
 10
3174.719227245309
 20
-17329.84167151108
 30
0.0000000000000047
 40
0.7921307496224355
100
AcDbArc
 50
253.3077326868097
 51
320.9067365923597
  0
LINE
  5
2F38AB
330
18
100
AcDbEntity
  8
0
 62
     8
100
AcDbLine
 10
3150.722083038902
 20
-17336.25302794324
 30
0.0000000000000047
 11
3152.083487714347
 21
-17330.60665963277
 31
0.0000000000000047
  0
ARC
  5
2F38AC
330
18
100
AcDbEntity
  8
0
 62
     8
100
AcDbCircle
 10
3152.68939257959
 20
-17330.08513020645
 30
0.0000000000000047
 40
0.7994458382144004
100
AcDbArc
 50
220.720050935032
 51
287.7336019343678
  0
LINE
  5
2F38AD
330
18
100
AcDbEntity
  8
0
 62
     8
100
AcDbLine
 10
3150.252130344454
 20
-17309.64216166706
 30
0.0000000000000047
 11
3150.25212159635
 21
-17309.64224162203
 31
0.0000000000000047
  0
SPLINE
  5
2F38AE
330
18
100
AcDbEntity
  8
0
 62
     8
100
AcDbSpline
210
0.0
220
0.0
230
1.0
 70
     8
 71
     3
 72
    11
 73
     7
 74
     0
 42
0.0000000001
 43
0.0000000001
 40
0.0
 40
0.0
 40
0.0
 40
0.0
 40
0.2072075116920692
 40
0.4716900666165629
 40
0.7358390790778039
 40
1.0
 40
1.0
 40
1.0
 40
1.0
 10
3152.778006830831
 20
-17330.45270897075
 30
0.0000000000000047
 10
3152.713143367456
 20
-17330.40577163813
 30
0.0000000000000047
 10
3152.565487275697
 20
-17330.29892284021
 30
0.0000000000000047
 10
3152.356035493644
 20
-17330.26770301511
 30
0.0000000000000047
 10
3152.174033381685
 20
-17330.35839726196
 30
0.0000000000000047
 10
3152.113670057004
 20
-17330.52390426562
 30
0.0000000000000047
 10
3152.083487714347
 20
-17330.60665963277
 30
0.0000000000000047
  0
SPLINE
  5
2F38AF
330
18
100
AcDbEntity
  8
0
 62
     8
100
AcDbSpline
210
0.0
220
0.0
230
1.0
 70
     8
 71
     3
 72
    11
 73
     7
 74
     0
 42
0.0000000001
 43
0.0000000001
 40
0.0
 40
0.0
 40
0.0
 40
0.0
 40
0.2499998597029162
 40
0.4999994614561358
 40
0.7500005300630358
 40
1.0
 40
1.0
 40
1.0
 40
1.0
 10
3183.068219248223
 20
-17339.73633954494
 30
0.0000000000000047
 10
3183.125646342691
 20
-17339.76738331137
 30
0.0000000000000047
 10
3183.24050047238
 20
-17339.82947081218
 30
0.0000000000000047
 10
3183.472844740127
 20
-17339.84198473077
 30
0.0000000000000047
 10
3183.714853287076
 20
-17339.79395970284
 30
0.0000000000000047
 10
3183.852549661562
 20
-17339.71296113665
 30
0.0000000000000047
 10
3183.921397628674
 20
-17339.67246198304
 30
0.0000000000000047
  0
LINE
  5
2F38B0
330
18
100
AcDbEntity
  8
0
 62
     8
100
AcDbLine
 10
3183.921277715622
 20
-17339.67014756666
 30
0.0000000000000047
 11
3183.921397628674
 21
-17339.67246198304
 31
0.0000000000000047
  0
LINE
  5
2F38B1
330
18
100
AcDbEntity
  8
0
 62
     8
100
AcDbLine
 10
3183.921278142359
 20
-17339.6701478746
 30
0.0000000000000047
 11
3184.249823049746
 21
-17313.14421988068
 31
0.0000000000000047
  0
SPLINE
  5
2F38B2
330
18
100
AcDbEntity
  8
0
 62
     8
100
AcDbSpline
210
0.0
220
0.0
230
1.0
 70
     8
 71
     3
 72
    11
 73
     7
 74
     0
 42
0.0000000001
 43
0.0000000001
 40
0.0
 40
0.0
 40
0.0
 40
0.0
 40
0.2499992166361851
 40
0.499999942215788
 40
0.7499994448650286
 40
1.0
 40
1.0
 40
1.0
 40
1.0
 10
3143.667462679055
 20
-17340.13209540929
 30
0.0000000000000047
 10
3143.737711010174
 20
-17340.1710061109
 30
0.0000000000000047
 10
3143.878208096422
 20
-17340.24882774898
 30
0.0000000000000047
 10
3144.120046610338
 20
-17340.29132819562
 30
0.0000000000000047
 10
3144.349062818566
 20
-17340.27354575829
 30
0.0000000000000047
 10
3144.459254265534
 20
-17340.20888870056
 30
0.0000000000000047
 10
3144.514350104993
 20
-17340.17656010364
 30
0.0000000000000047
  0
LINE
  5
2F38B3
330
18
100
AcDbEntity
  8
0
 62
     8
100
AcDbLine
 10
3143.666641210634
 20
-17340.13249368814
 30
0.0000000000000047
 11
3143.357837362888
 21
-17313.61113159257
 31
0.0000000000000047
  0
LINE
  5
2F38B4
330
18
100
AcDbEntity
  8
0
 62
     8
100
AcDbLine
 10
3143.667462679054
 20
-17340.13209540929
 30
0.0000000000000047
 11
3143.666641210634
 21
-17340.13249368814
 31
0.0000000000000047
  0
LINE
  5
2F38B5
330
18
100
AcDbEntity
  8
0
 62
     8
100
AcDbLine
 10
3184.249823049746
 20
-17313.14421988068
 30
0.0000000000000047
 11
3184.249824329955
 21
-17313.14413191934
 31
0.0000000000000047
  0
LINE
  5
2F38B6
330
18
100
AcDbEntity
  8
0
 62
     8
100
AcDbLine
 10
3181.87672496693
 20
-17333.67554398999
 30
0.0000000000000047
 11
3183.921278142359
 21
-17339.6701478746
 31
0.0000000000000047
  0
SPLINE
  5
2F38B7
330
18
100
AcDbEntity
  8
0
 62
     8
100
AcDbSpline
210
0.0
220
0.0
230
1.0
 70
     8
 71
     3
 72
    11
 73
     7
 74
     0
 42
0.0000000001
 43
0.0000000001
 40
0.0
 40
0.0
 40
0.0
 40
0.0
 40
0.2038728546999635
 40
0.4689214160663738
 40
0.7344704956762241
 40
1.0
 40
1.0
 40
1.0
 40
1.0
 10
3181.87672496693
 20
-17333.67554398999
 30
0.0000000000000047
 10
3181.844156916428
 20
-17333.60452526847
 30
0.0000000000000047
 10
3181.769248187734
 20
-17333.44117738425
 30
0.0000000000000047
 10
3181.543553513502
 20
-17333.28884242564
 30
0.0000000000000047
 10
3181.228620056445
 20
-17333.23562131254
 30
0.0000000000000047
 10
3180.98911066147
 20
-17333.30940067066
 30
0.0000000000000047
 10
3180.869360378079
 20
-17333.34628898998
 30
0.0000000000000047
  0
ARC
  5
2F38B8
330
18
100
AcDbEntity
  8
0
 62
     8
100
AcDbCircle
 10
3181.400732450829
 20
-17333.05514291689
 30
0.0000000000000047
 40
0.781963149316182
100
AcDbArc
 50
241.1554730900906
 51
307.4966301448103
  0
LINE
  5
2F38B9
330
18
100
AcDbEntity
  8
0
 62
     8
100
AcDbLine
 10
3143.35785059173
 20
-17313.61104905093
 30
0.0000000000000047
 11
3143.357837362888
 21
-17313.61113159257
 31
0.0000000000000047
  0
LWPOLYLINE
  5
2F38BA
330
18
100
AcDbEntity
  8
0
 62
     8
100
AcDbPolyline
 90
        3
 70
   128
 43
0.0
 10
3191.128403580821
 20
-17355.90845465293
 10
3191.137033906696
 20
-17355.85198533549
 10
3191.157635907915
 20
-17355.70642849117
  0
LINE
  5
2F38BB
330
18
100
AcDbEntity
  8
0
 62
     8
100
AcDbLine
 10
3188.340905618912
 20
-17318.24466518787
 30
0.0000000000000047
 11
3188.340906472384
 21
-17318.24457796558
 31
0.0000000000000047
  0
LINE
  5
2F38BC
330
18
100
AcDbEntity
  8
0
 62
     8
100
AcDbLine
 10
3191.160862038433
 20
-17354.62557234496
 30
0.0000000000000047
 11
3191.031446410085
 21
-17355.74359657791
 31
0.0000000000000047
  0
LINE
  5
2F38BD
330
18
100
AcDbEntity
  8
0
 62
     8
100
AcDbLine
 10
3190.450193279565
 20
-17352.21687977113
 30
0.0000000000000047
 11
3191.167845160102
 21
-17352.20506778446
 31
0.0000000000000047
  0
LINE
  5
2F38BE
330
18
100
AcDbEntity
  8
0
 62
     8
100
AcDbLine
 10
3191.113256129907
 20
-17355.88231754549
 30
0.0000000000000047
 11
3191.158273452756
 21
-17355.49481992832
 31
0.0000000000000047
  0
LINE
  5
2F38BF
330
18
100
AcDbEntity
  8
0
 62
     8
100
AcDbLine
 10
3139.619337147268
 20
-17318.80089622753
 30
0.0000000000000047
 11
3139.619323491689
 21
-17318.80098295711
 31
0.0000000000000047
  0
ARC
  5
2F38C0
330
18
100
AcDbEntity
  8
0
 62
     8
100
AcDbCircle
 10
3164.086912601535
 20
-17343.05131923056
 30
0.0000000000000047
 40
15.79187590914422
100
AcDbArc
 50
86.79671131331859
 51
94.51167734028025
  0
LINE
  5
2F38C1
330
18
100
AcDbEntity
  8
0
 62
     8
100
AcDbLine
 10
3165.111523009143
 20
-17317.9773272665
 30
0.0000000000000047
 11
3165.13060689405
 21
-17317.90515007189
 31
0.0000000000000047
  0
LINE
  5
2F38C2
330
18
100
AcDbEntity
  8
0
 62
     8
100
AcDbLine
 10
3167.948823934206
 20
-17307.39916398784
 30
0.0000000000000047
 11
3167.967780438166
 21
-17307.32746861732
 31
0.0000000000000047
  0
LINE
  5
2F38C3
330
18
100
AcDbEntity
  8
0
 62
     8
100
AcDbLine
 10
3159.252585139314
 20
-17307.49846124141
 30
0.0000000000000047
 11
3159.229687293891
 21
-17307.409726119
 31
0.0000000000000047
  0
LINE
  5
2F38C4
330
18
100
AcDbEntity
  8
0
 62
     8
100
AcDbLine
 10
3162.717063333534
 20
-17318.00466792131
 30
0.0000000000000047
 11
3162.694165061373
 21
-17317.91593008873
 31
0.0000000000000047
  0
SPLINE
  5
2F38C5
330
18
100
AcDbEntity
  8
0
 62
     8
100
AcDbSpline
210
0.0
220
0.0
230
1.0
 70
     8
 71
     3
 72
    10
 73
     6
 74
     0
 42
0.0000000001
 43
0.0000000001
 40
0.0
 40
0.0
 40
0.0
 40
0.0
 40
0.2840121600420925
 40
0.929512474967769
 40
0.9999999999999998
 40
0.9999999999999998
 40
0.9999999999999998
 40
0.9999999999999998
 10
3189.167599857527
 20
-17324.156268761
 30
0.0000000000000047
 10
3189.168735171402
 20
-17324.14136564111
 30
0.0000000000000047
 10
3189.172450816573
 20
-17324.09259084268
 30
0.0000000000000047
 10
3189.144350134673
 20
-17324.03844019439
 30
0.0000000000000047
 10
3189.10338867322
 20
-17324.00914001804
 30
0.0000000000000047
 10
3189.099356101885
 20
-17324.00625547615
 30
0.0000000000000047
  0
SPLINE
  5
2F38C6
330
18
100
AcDbEntity
  8
0
 62
     8
100
AcDbSpline
210
0.0
220
0.0
230
1.0
 70
     8
 71
     3
 72
     9
 73
     5
 74
     0
 42
0.0000000001
 43
0.0000000001
 40
0.0
 40
0.0
 40
0.0
 40
0.0
 40
0.3290011678570499
 40
1.0
 40
1.0
 40
1.0
 40
1.0
 10
3177.155363605247
 20
-17309.1557481262
 30
0.0000000000000047
 10
3177.139701872047
 20
-17309.16930534995
 30
0.0000000000000047
 10
3177.092097988747
 20
-17309.21051257072
 30
0.0000000000000047
 10
3177.090291290716
 20
-17309.28544717983
 30
0.0000000000000047
 10
3177.089078998446
 20
-17309.33572821503
 30
0.0000000000000047
  0
SPLINE
  5
2F38C7
330
18
100
AcDbEntity
  8
0
 62
     8
100
AcDbSpline
210
0.0
220
0.0
230
1.0
 70
     8
 71
     3
 72
     9
 73
     5
 74
     0
 42
0.0000000001
 43
0.0000000001
 40
0.0
 40
0.0
 40
0.0
 40
0.0
 40
0.3631165893140102
 40
0.9999999999999998
 40
0.9999999999999998
 40
0.9999999999999998
 40
0.9999999999999998
 10
3150.182349482713
 20
-17309.45659681055
 30
0.0000000000000047
 10
3150.200129781943
 20
-17309.47180159363
 30
0.0000000000000047
 10
3150.249095595555
 20
-17309.51367459949
 30
0.0000000000000047
 10
3150.250949575428
 20
-17309.592169541
 30
0.0000000000000047
 10
3150.252130344454
 20
-17309.64216166706
 30
0.0000000000000047
  0
SPLINE
  5
2F38C8
330
18
100
AcDbEntity
  8
0
 62
     8
100
AcDbSpline
210
0.0
220
0.0
230
1.0
 70
     8
 71
     3
 72
    10
 73
     6
 74
     0
 42
0.0000000001
 43
0.0000000001
 40
0.0
 40
0.0
 40
0.0
 40
0.0
 40
0.0323917081597163
 40
0.516192707676458
 40
1.0
 40
1.0
 40
1.0
 40
1.0
 10
3184.312903929713
 20
-17312.93686228907
 30
0.0000000000000047
 10
3184.310966809845
 20
-17312.93696165296
 30
0.0000000000000047
 10
3184.280096960539
 20
-17312.93854511133
 30
0.0000000000000047
 10
3184.249399495762
 20
-17313.00492824916
 30
0.0000000000000047
 10
3184.249685420604
 20
-17313.09772942726
 30
0.0000000000000047
 10
3184.249828383956
 20
-17313.14413031807
 30
0.0000000000000047
  0
SPLINE
  5
2F38C9
330
18
100
AcDbEntity
  8
0
 62
     8
100
AcDbSpline
210
0.0
220
0.0
230
1.0
 70
     8
 71
     3
 72
     9
 73
     5
 74
     0
 42
0.0000000001
 43
0.0000000001
 40
0.0
 40
0.0
 40
0.0
 40
0.0
 40
0.0464324174283313
 40
1.0
 40
1.0
 40
1.0
 40
1.0
 10
3162.728435656982
 20
-17318.06610725978
 30
0.0000000000000047
 10
3162.72868713384
 20
-17318.06516131497
 30
0.0000000000000047
 10
3162.734103109819
 20
-17318.04478880665
 30
0.0000000000000047
 10
3162.725385526548
 20
-17318.02430453728
 30
0.0000000000000047
 10
3162.717072721744
 20
-17318.00477140205
 30
0.0000000000000047
  0
SPLINE
  5
2F38CA
330
18
100
AcDbEntity
  8
0
 62
     8
100
AcDbSpline
210
0.0
220
0.0
230
1.0
 70
     8
 71
     3
 72
    10
 73
     6
 74
     0
 42
0.0000000001
 43
0.0000000001
 40
0.0
 40
0.0
 40
0.0
 40
0.0
 40
0.051764408916568
 40
0.5258796227008804
 40
1.0
 40
1.0
 40
1.0
 40
1.0
 10
3143.297708435019
 20
-17313.40496042499
 30
0.0000000000000047
 10
3143.300674945171
 20
-17313.40501316241
 30
0.0000000000000047
 10
3143.330812007913
 20
-17313.40554892696
 30
0.0000000000000047
 10
3143.359825499793
 20
-17313.47150888802
 30
0.0000000000000047
 10
3143.358508896808
 20
-17313.56453549443
 30
0.0000000000000047
 10
3143.35785059173
 20
-17313.61104905093
 30
0.0000000000000047
  0
SPLINE
  5
2F38CB
330
18
100
AcDbEntity
  8
0
 62
     8
100
AcDbSpline
210
0.0
220
0.0
230
1.0
 70
     8
 71
     3
 72
    10
 73
     6
 74
     0
 42
0.0000000001
 43
0.0000000001
 40
0.0
 40
0.0
 40
0.0
 40
0.0
 40
0.1493174825773822
 40
0.5746564538715097
 40
1.0
 40
1.0
 40
1.0
 40
1.0
 10
3188.345416227322
 20
-17318.04606774005
 30
0.0000000000000047
 10
3188.342351363377
 20
-17318.04435080985
 30
0.0000000000000047
 10
3188.330556067771
 20
-17318.03774311057
 30
0.0000000000000047
 10
3188.32642161582
 20
-17318.10191232816
 30
0.0000000000000047
 10
3188.33608101446
 20
-17318.19702225415
 30
0.0000000000000047
 10
3188.340910739754
 20
-17318.24457747288
 30
0.0000000000000047
  0
SPLINE
  5
2F38CC
330
18
100
AcDbEntity
  8
0
 62
     8
100
AcDbSpline
210
0.0
220
0.0
230
1.0
 70
     8
 71
     3
 72
    10
 73
     6
 74
     0
 42
0.0000000001
 43
0.0000000001
 40
0.0
 40
0.0
 40
0.0
 40
0.0
 40
0.1562611876343123
 40
0.5781271196903896
 40
1.0
 40
1.0
 40
1.0
 40
1.0
 10
3139.623100966207
 20
-17318.60252269163
 30
0.0000000000000047
 10
3139.625507272637
 20
-17318.6006067192
 30
0.0000000000000047
 10
3139.634410001634
 20
-17318.59351810281
 30
0.0000000000000047
 10
3139.635092589928
 20
-17318.65779505235
 30
0.0000000000000047
 10
3139.62458899032
 20
-17318.75319557392
 30
0.0000000000000047
 10
3139.619337147268
 20
-17318.80089622753
 30
0.0000000000000047
  0
ARC
  5
2F38CD
330
18
100
AcDbEntity
  8
0
 62
     8
100
AcDbCircle
 10
3183.144233124213
 20
-17375.80355722578
 30
0.0000000000000047
 40
10.62056624030443
100
AcDbArc
 50
0.0836228828780278
 51
26.90925277712294
  0
LWPOLYLINE
  5
2F38CE
330
18
100
AcDbEntity
  8
0
 62
     8
100
AcDbPolyline
 90
       60
 70
   128
 43
0.0
 10
3135.558388173404
 20
-17370.99691493975
 10
3135.509162371828
 20
-17371.09714438148
 10
3135.081370637183
 20
-17372.09203351978
 10
3134.757408243365
 20
-17373.09991071933
 10
3134.538437621527
 20
-17374.1171684317
 10
3134.425243113986
 20
-17375.14016511215
 10
3134.418225853369
 20
-17376.16524000065
 10
3134.517415711257
 20
-17377.18872100507
 10
3134.722455935652
 20
-17378.20694539458
 10
3135.032610832237
 20
-17379.21627014635
 10
3135.446771738701
 20
-17380.21307933604
 10
3135.963457024729
 20
-17381.19380581659
 10
3136.580814652434
 20
-17382.15493860873
 10
3137.296637112132
 20
-17383.09303743564
 10
3138.108360568884
 20
-17384.00474405498
 10
3139.013079371539
 20
-17384.88679457649
 10
3140.007554160735
 20
-17385.73603202574
 10
3141.088225631163
 20
-17386.54941625979
 10
3142.251226320174
 20
-17387.32403471414
 10
3143.492392129672
 20
-17388.05711496663
 10
3144.807279768984
 20
-17388.74603283617
 10
3146.19118158396
 20
-17389.3883229142
 10
3147.639145987007
 20
-17389.9816844463
 10
3149.145986631924
 20
-17390.52399451191
 10
3150.706311912094
 20
-17391.01331125766
 10
3152.314534562054
 20
-17391.44788338188
 10
3153.964897475079
 20
-17391.82615518472
 10
3155.651494613289
 20
-17392.14677272693
 10
3157.368286796905
 20
-17392.40858703243
 10
3159.109129868891
 20
-17392.61066246417
 10
3160.867789203996
 20
-17392.75227524604
 10
3162.637972994232
 20
-17392.83291691176
 10
3164.413341637089
 20
-17392.85230169543
 10
3166.187541021003
 20
-17392.81035815555
 10
3167.954220448301
 20
-17392.70723656557
 10
3169.707053118576
 20
-17392.54330595772
 10
3171.439766853736
 20
-17392.31915412294
 10
3173.146158607061
 20
-17392.03558317661
 10
3174.820118360456
 20
-17391.69360758774
 10
3176.455656435619
 20
-17391.29445220824
 10
3178.046915442668
 20
-17390.83954537502
 10
3179.588202285405
 20
-17390.33051620019
 10
3181.073995842579
 20
-17389.76918619517
 10
3182.498978546414
 20
-17389.15756483639
 10
3183.858050038181
 20
-17388.49784168206
 10
3185.146346264682
 20
-17387.79237928963
 10
3186.359252887114
 20
-17387.04370153344
 10
3187.492429665082
 20
-17386.25448938209
 10
3188.54181951142
 20
-17385.42756778803
 10
3189.503664934898
 20
-17384.56589619534
 10
3190.374525156363
 20
-17383.67256062967
 10
3191.151282223086
 20
-17382.75075834366
 10
3191.831152957389
 20
-17381.80378894831
 10
3192.411708799911
 20
-17380.83504295778
 10
3192.890864287705
 20
-17379.84798676201
 10
3193.26690991299
 20
-17378.84615548255
 10
3193.538497187343
 20
-17377.83313400366
 10
3193.704656564664
 20
-17376.81255056717
 10
3193.764788052954
 20
-17375.78805657182
 10
3193.764788052954
 20
-17375.78805657182
  0
LWPOLYLINE
  5
2F38CF
330
18
100
AcDbEntity
  8
0
 62
     8
100
AcDbPolyline
 90
      102
 70
   128
 43
0.0
 10
3191.611612215133
 20
-17375.78314533952
 10
3191.565128624498
 20
-17374.795157941
 10
3191.412336351989
 20
-17373.81075049972
 10
3191.153826001396
 20
-17372.83373060028
 10
3190.790597843875
 20
-17371.86787922149
 10
3190.324056697104
 20
-17370.91693201374
 10
3189.756008511398
 20
-17369.98456845967
 10
3189.088651408225
 20
-17369.07439487597
 10
3188.324564585053
 20
-17368.18993406671
 10
3187.466706608401
 20
-17367.33460660071
 10
3186.518396637421
 20
-17366.51172194303
 10
3185.483300341577
 20
-17365.72446441289
 10
3184.365427126861
 20
-17364.97587778694
 10
3183.169097650449
 20
-17364.26886034135
 10
3181.89894056683
 20
-17363.60614720705
 10
3180.559872471177
 20
-17362.99030076213
 10
3179.157073041925
 20
-17362.42370416503
 10
3177.695968771434
 20
-17361.90854999177
 10
3176.182211575795
 20
-17361.44683182921
 10
3174.621658844889
 20
-17361.04033472895
 10
3173.020349758494
 20
-17360.690631389
 10
3171.384476268174
 20
-17360.39907525587
 10
3169.720369014968
 20
-17360.16679436595
 10
3168.034466604336
 20
-17359.99468740376
 10
3166.333290428684
 20
-17359.88342000685
 10
3164.623421623579
 20
-17359.83342230221
 10
3162.911476317003
 20
-17359.84488841357
 10
3161.204077464734
 20
-17359.91777399795
 10
3159.507831806546
 20
-17360.05179673833
 10
3157.829298287687
 20
-17360.24643683633
 10
3156.17497611025
 20
-17360.50094391007
 10
3154.551260779272
 20
-17360.81433182076
 10
3152.964435568001
 20
-17361.1853875413
 10
3151.420640792848
 20
-17361.61267706875
 10
3149.925846502219
 20
-17362.09454542423
 10
3148.485839034314
 20
-17362.62913032541
 10
3147.106187091539
 20
-17363.21436206331
 10
3145.792230512003
 20
-17363.8479778676
 10
3144.549050637969
 20
-17364.52752521691
 10
3143.381457247047
 20
-17365.25037529565
 10
3142.293969189002
 20
-17366.01373220148
 10
3141.290791955405
 20
-17366.81464195229
 10
3140.375807571298
 20
-17367.65000620497
 10
3139.552556245519
 20
-17368.51659284837
 10
3138.824222288373
 20
-17369.41105004529
 10
3138.193623016487
 20
-17370.32991657914
 10
3137.663198511122
 20
-17371.26963762036
 10
3137.235000523003
 20
-17372.22657704392
 10
3136.910688204976
 20
-17373.19703368839
 10
3136.691511895981
 20
-17374.17725268807
 10
3136.578324216228
 20
-17375.16344173208
 10
3136.571560437296
 20
-17376.15178535262
 10
3136.671246163393
 20
-17377.13846019868
 10
3136.876997331366
 20
-17378.11964784631
 10
3137.188017650265
 20
-17379.09155401381
 10
3137.603101161778
 20
-17380.05041792305
 10
3138.120646749279
 20
-17380.99252855864
 10
3138.738648749614
 20
-17381.91424289773
 10
3139.454715729522
 20
-17382.81199477868
 10
3140.266081580802
 20
-17383.68230918929
 10
3141.169602106405
 20
-17384.52182197488
 10
3142.161786172238
 20
-17385.32728205533
 10
3143.238790906359
 20
-17386.09557624495
 10
3144.396453477547
 20
-17386.82372986058
 10
3145.63029254887
 20
-17387.50892726872
 10
3146.935536522334
 20
-17388.14851636607
 10
3148.307133380494
 20
-17388.74002411491
 10
3149.739778997785
 20
-17389.28116106213
 10
3151.227930702744
 20
-17389.7698331101
 10
3152.765828401488
 20
-17390.20415174024
 10
3154.347523382455
 20
-17390.58243487517
 10
3155.966899226493
 20
-17390.90321894995
 10
3157.617688022887
 20
-17391.16526433168
 10
3159.293503228066
 20
-17391.36755655137
 10
3160.987862709417
 20
-17391.50931172349
 10
3162.694210935584
 20
-17391.58998344391
 10
3164.405945434159
 20
-17391.6092583555
 10
3166.116444956315
 20
-17391.56706255329
 10
3167.819089960175
 20
-17391.46355862822
 10
3169.507296749749
 20
-17391.299147638
 10
3171.174530277053
 20
-17391.07446467275
 10
3172.814343401891
 20
-17390.79037984045
 10
3174.42038969396
 20
-17390.4479928472
 10
3175.986457571802
 20
-17390.04862708486
 10
3177.506486945533
 20
-17389.59382790656
 10
3178.974598661692
 20
-17389.08535548258
 10
3180.385109865769
 20
-17388.52517593176
 10
3181.73256558072
 20
-17387.91545688717
 10
3183.011754282871
 20
-17387.25855850436
 10
3184.21772385121
 20
-17386.55702031243
 10
3185.345809571983
 20
-17385.81355687209
 10
3186.391648754435
 20
-17385.03104539663
 10
3187.351193426231
 20
-17384.21251251054
 10
3188.220732683805
 20
-17383.36112528858
 10
3188.996900426952
 20
-17382.48017693668
 10
3189.676696482309
 20
-17381.57307656841
 10
3190.257488310303
 20
-17380.6433324532
 10
3190.737032128624
 20
-17379.69454376358
 10
3191.113468644853
 20
-17378.73037938914
 10
3191.385344393312
 20
-17377.75456956059
 10
3191.551606187475
 20
-17376.77088934432
 10
3191.611612215133
 20
-17375.78314533952
  0
LINE
  5
2F38D0
330
18
100
AcDbEntity
  8
0
 62
     8
100
AcDbLine
 10
3193.765019344321
 20
-17374.9266867376
 30
0.0000000000000047
 11
3193.741303017636
 21
-17374.24187333511
 31
0.0000000000000047
  0
LWPOLYLINE
  5
2F38D1
330
18
100
AcDbEntity
  8
0
 62
     8
100
AcDbPolyline
 90
        3
 70
   128
 43
0.0
 10
3134.431936054602
 20
-17374.24187284242
 10
3134.425243113986
 20
-17374.34648780568
 10
3134.408219727917
 20
-17374.9266862449
  0
SPLINE
  5
2F38D2
330
18
100
AcDbEntity
  8
0
 62
     8
100
AcDbSpline
210
0.0
220
0.0
230
1.0
 70
     8
 71
     3
 72
    12
 73
     8
 74
     0
 42
0.0000000001
 43
0.0000000001
 40
0.0
 40
0.0
 40
0.0
 40
0.0
 40
0.2146944590293549
 40
0.4293890061523131
 40
0.6440836909930928
 40
0.8587775044373364
 40
0.9999999999999998
 40
0.9999999999999998
 40
0.9999999999999998
 40
0.9999999999999998
 10
3141.585143933288
 20
-17342.33700836581
 30
0.0000000000000047
 10
3141.583107174245
 20
-17342.30896967889
 30
0.0000000000000047
 10
3141.579033655319
 20
-17342.25289229357
 30
0.0000000000000047
 10
3141.545313329763
 20
-17342.19932221201
 30
0.0000000000000047
 10
3141.495551008049
 20
-17342.17727514729
 30
0.0000000000000047
 10
3141.440457041204
 20
-17342.18746023532
 30
0.0000000000000047
 10
3141.404148640673
 20
-17342.21194542046
 30
0.0000000000000047
 10
3141.389741987188
 20
-17342.22166079135
 30
0.0000000000000047
  0
LINE
  5
2F38D3
330
18
100
AcDbEntity
  8
0
 62
     8
100
AcDbLine
 10
3141.53918352202
 20
-17351.04693606354
 30
0.0000000000000047
 11
3141.585143933288
 21
-17342.33700836581
 31
0.0000000000000047
  0
ARC
  5
2F38D4
330
18
100
AcDbEntity
  8
0
 62
     8
100
AcDbCircle
 10
3156.686765018686
 20
-17371.52763815419
 30
0.0000000000000047
 40
25.47368020770454
100
AcDbArc
 50
117.2993323665041
 51
126.4867274182896
  0
ARC
  5
2F38D5
330
18
100
AcDbEntity
  8
0
 62
     8
100
AcDbCircle
 10
3162.311842720544
 20
-17375.29394982686
 30
0.0000000000000047
 40
39.41185140126896
100
AcDbArc
 50
103.658802989528
 51
108.8833765515871
  0
SPLINE
  5
2F38D6
330
18
100
AcDbEntity
  8
0
 62
     8
100
AcDbSpline
210
0.0
220
0.0
230
1.0
 70
     8
 71
     3
 72
    12
 73
     8
 74
     0
 42
0.0000000001
 43
0.0000000001
 40
0.0
 40
0.0
 40
0.0
 40
0.0
 40
0.2146947395967226
 40
0.429389121031086
 40
0.6440842332213351
 40
0.8587786773353105
 40
1.0
 40
1.0
 40
1.0
 40
1.0
 10
3153.303603448945
 20
-17337.18843687443
 30
0.0000000000000047
 10
3153.300363559093
 20
-17337.159582518
 30
0.0000000000000047
 10
3153.293883784796
 20
-17337.1018738533
 30
0.0000000000000047
 10
3153.242410670035
 20
-17337.03512437149
 30
0.0000000000000047
 10
3153.166590089897
 20
-17336.99365190057
 30
0.0000000000000047
 10
3153.082599928334
 20
-17336.98232383049
 30
0.0000000000000047
 10
3153.02714907256
 20
-17336.99261520596
 30
0.0000000000000047
 10
3153.005147116123
 20
-17336.9966986487
 30
0.0000000000000047
  0
LINE
  5
2F38D7
330
18
100
AcDbEntity
  8
0
 62
     8
100
AcDbLine
 10
3153.281578280362
 20
-17345.88784813978
 30
0.0000000000000047
 11
3153.303603448945
 21
-17337.18843687443
 31
0.0000000000000047
  0
ARC
  5
2F38D8
330
18
100
AcDbEntity
  8
0
 62
     8
100
AcDbCircle
 10
3163.789183730267
 20
-17390.72646698021
 30
0.0000000000000047
 40
46.05335505484329
100
AcDbArc
 50
94.12381024831624
 51
103.1888593753568
  0
LINE
  5
2F38D9
330
18
100
AcDbEntity
  8
0
 62
     8
100
AcDbLine
 10
3160.484753629253
 20
-17336.09516616526
 30
0.0000000000000047
 11
3160.477397539585
 21
-17344.79234476116
 31
0.0000000000000047
  0
SPLINE
  5
2F38DA
330
18
100
AcDbEntity
  8
0
 62
     8
100
AcDbSpline
210
0.0
220
0.0
230
1.0
 70
     8
 71
     3
 72
    12
 73
     8
 74
     0
 42
0.0000000001
 43
0.0000000001
 40
0.0
 40
0.0
 40
0.0
 40
0.0
 40
0.2147018251546787
 40
0.4294062171677889
 40
0.6441022852709275
 40
0.8587960694638542
 40
0.9999999999999998
 40
0.9999999999999998
 40
0.9999999999999998
 40
0.9999999999999998
 10
3160.806602822234
 20
-17335.80899067747
 30
0.0000000000000047
 10
3160.770420746632
 20
-17335.81435308496
 30
0.0000000000000047
 10
3160.69805616285
 20
-17335.82507796407
 30
0.0000000000000047
 10
3160.601635061814
 20
-17335.87731579129
 30
0.0000000000000047
 10
3160.528870023631
 20
-17335.94944081727
 30
0.0000000000000047
 10
3160.490297889991
 20
-17336.0263739485
 30
0.0000000000000047
 10
3160.486328501144
 20
-17336.0756254305
 30
0.0000000000000047
 10
3160.484753629253
 20
-17336.09516616526
 30
0.0000000000000047
  0
ARC
  5
2F38DB
330
18
100
AcDbEntity
  8
0
 62
     8
100
AcDbCircle
 10
3164.086397013614
 20
-17384.83952098463
 30
0.0000000000000047
 40
49.14010533301412
100
AcDbArc
 50
85.91165067730685
 51
93.82697930347616
  0
SPLINE
  5
2F38DC
330
18
100
AcDbEntity
  8
0
 62
     8
100
AcDbSpline
210
0.0
220
0.0
230
1.0
 70
     8
 71
     3
 72
    12
 73
     8
 74
     0
 42
0.0000000001
 43
0.0000000001
 40
0.0
 40
0.0
 40
0.0
 40
0.0
 40
0.2146954181104039
 40
0.4293900501990536
 40
0.6440850477434514
 40
0.858779859310504
 40
1.0
 40
1.0
 40
1.0
 40
1.0
 10
3167.911365827762
 20
-17336.11210518676
 30
0.0000000000000047
 10
3167.907789378023
 20
-17336.08219668751
 30
0.0000000000000047
 10
3167.900636491645
 20
-17336.02237979851
 30
0.0000000000000047
 10
3167.845204365928
 20
-17335.93909293342
 30
0.0000000000000047
 10
3167.763641494016
 20
-17335.87327672046
 30
0.0000000000000047
 10
3167.673259035082
 20
-17335.83497539988
 30
0.0000000000000047
 10
3167.61352391419
 20
-17335.82744883395
 30
0.0000000000000047
 10
3167.589822178359
 20
-17335.82446243876
 30
0.0000000000000047
  0
LINE
  5
2F38DD
330
18
100
AcDbEntity
  8
0
 62
     8
100
AcDbLine
 10
3167.919177672377
 20
-17344.80931827166
 30
0.0000000000000047
 11
3167.911365827762
 21
-17336.11210518676
 31
0.0000000000000047
  0
ARC
  5
2F38DE
330
18
100
AcDbEntity
  8
0
 62
     8
100
AcDbCircle
 10
3164.412632111918
 20
-17390.53861618611
 30
0.0000000000000047
 40
45.86354270568581
100
AcDbArc
 50
76.52503546414159
 51
85.61511161417266
  0
LINE
  5
2F38DF
330
18
100
AcDbEntity
  8
0
 62
     8
100
AcDbLine
 10
3175.077326310209
 20
-17337.23810028221
 30
0.0000000000000047
 11
3175.09977608195
 21
-17345.93761279739
 31
0.0000000000000047
  0
SPLINE
  5
2F38E0
330
18
100
AcDbEntity
  8
0
 62
     8
100
AcDbSpline
210
0.0
220
0.0
230
1.0
 70
     8
 71
     3
 72
    12
 73
     8
 74
     0
 42
0.0000000001
 43
0.0000000001
 40
0.0
 40
0.0
 40
0.0
 40
0.0
 40
0.2147023618620286
 40
0.4294058480976412
 40
0.6441021626057725
 40
0.8587962035114925
 40
0.9999999999999998
 40
0.9999999999999998
 40
0.9999999999999998
 40
0.9999999999999998
 10
3175.374777251033
 20
-17337.04772092273
 30
0.0000000000000047
 10
3175.341331594984
 20
-17337.04231240276
 30
0.0000000000000047
 10
3175.274440107733
 20
-17337.03149533449
 30
0.0000000000000047
 10
3175.185198404907
 20
-17337.05501684383
 30
0.0000000000000047
 10
3175.117860512589
 20
-17337.10546949933
 30
0.0000000000000047
 10
3175.082250524977
 20
-17337.17092645397
 30
0.0000000000000047
 10
3175.078725053993
 20
-17337.21901927558
 30
0.0000000000000047
 10
3175.077326310209
 20
-17337.23810028221
 30
0.0000000000000047
  0
ARC
  5
2F38E1
330
18
100
AcDbEntity
  8
0
 62
     8
100
AcDbCircle
 10
3166.475224344346
 20
-17373.20578271625
 30
0.0000000000000047
 40
37.23717866061446
100
AcDbArc
 50
66.64706132277619
 51
76.17268334414498
  0
SPLINE
  5
2F38E2
330
18
100
AcDbEntity
  8
0
 62
     8
100
AcDbSpline
210
0.0
220
0.0
230
1.0
 70
     8
 71
     3
 72
    12
 73
     8
 74
     0
 42
0.0000000001
 43
0.0000000001
 40
0.0
 40
0.0
 40
0.0
 40
0.0
 40
0.2146945293713869
 40
0.4293889875195808
 40
0.6440831752131596
 40
0.8587774778663423
 40
0.9999999999999998
 40
0.9999999999999998
 40
0.9999999999999998
 40
0.9999999999999998
 10
3181.494288103977
 20
-17339.39641566409
 30
0.0000000000000047
 10
3181.491334501583
 20
-17339.36549716678
 30
0.0000000000000047
 10
3181.485427297775
 20
-17339.30366018244
 30
0.0000000000000047
 10
3181.440889878662
 20
-17339.20490880906
 30
0.0000000000000047
 10
3181.375439120972
 20
-17339.11635187035
 30
0.0000000000000047
 10
3181.302883657421
 20
-17339.05284527498
 30
0.0000000000000047
 10
3181.254868043725
 20
-17339.02865326984
 30
0.0000000000000047
 10
3181.235816159701
 20
-17339.01905424067
 30
0.0000000000000047
  0
LINE
  5
2F38E3
330
18
100
AcDbEntity
  8
0
 62
     8
100
AcDbLine
 10
3181.529844457689
 20
-17348.10033722723
 30
0.0000000000000047
 11
3181.494288103977
 21
-17339.39641566409
 31
0.0000000000000047
  0
ARC
  5
2F38E4
330
18
100
AcDbEntity
  8
0
 62
     8
100
AcDbCircle
 10
3170.828570789179
 20
-17372.52037236871
 30
0.0000000000000047
 40
26.66187117288842
100
AcDbArc
 50
53.27637845925352
 51
66.33615190054283
  0
LINE
  5
2F38E5
330
18
100
AcDbEntity
  8
0
 62
     8
100
AcDbLine
 10
3186.724947296864
 20
-17342.43996600989
 30
0.0000000000000047
 11
3186.771187220762
 21
-17351.15010433682
 31
0.0000000000000047
  0
SPLINE
  5
2F38E6
330
18
100
AcDbEntity
  8
0
 62
     8
100
AcDbSpline
210
0.0
220
0.0
230
1.0
 70
     8
 71
     3
 72
    12
 73
     8
 74
     0
 42
0.0000000001
 43
0.0000000001
 40
0.0
 40
0.0
 40
0.0
 40
0.0
 40
0.2147026903490485
 40
0.4294052942891521
 40
0.6441021227273053
 40
0.8587963629294918
 40
0.9999999999999998
 40
0.9999999999999998
 40
0.9999999999999998
 40
0.9999999999999998
 10
3186.91829898581
 20
-17342.32550615742
 30
0.0000000000000047
 10
3186.896550849203
 20
-17342.311560443
 30
0.0000000000000047
 10
3186.853054584742
 20
-17342.28366901979
 30
0.0000000000000047
 10
3186.794908042028
 20
-17342.28438996496
 30
0.0000000000000047
 10
3186.751039149303
 20
-17342.31764094204
 30
0.0000000000000047
 10
3186.727933016878
 20
-17342.37401548094
 30
0.0000000000000047
 10
3186.725795402357
 20
-17342.42123250318
 30
0.0000000000000047
 10
3186.724947296864
 20
-17342.43996600989
 30
0.0000000000000047
  0
ARC
  5
2F38E7
330
18
100
AcDbEntity
  8
0
 62
     8
100
AcDbCircle
 10
3176.426571612313
 20
-17356.09138361098
 30
0.0000000000000047
 40
17.30825598800226
100
AcDbArc
 50
36.79522904133265
 51
52.68699430966467
  0
SPLINE
  5
2F38E8
330
18
100
AcDbEntity
  8
0
 62
     8
100
AcDbSpline
210
0.0
220
0.0
230
1.0
 70
     8
 71
     3
 72
    12
 73
     8
 74
     0
 42
0.0000000001
 43
0.0000000001
 40
0.0
 40
0.0
 40
0.0
 40
0.0
 40
0.2146947817762665
 40
0.4293892053901035
 40
0.6440851832477669
 40
0.8587786495905646
 40
1.0
 40
1.0
 40
1.0
 40
1.0
 10
3190.412841857331
 20
-17346.16133834705
 30
0.0000000000000047
 10
3190.411302099128
 20
-17346.1297247703
 30
0.0000000000000047
 10
3190.408222585288
 20
-17346.06649766956
 30
0.0000000000000047
 10
3190.386511576037
 20
-17345.95749959237
 30
0.0000000000000047
 10
3190.354710780307
 20
-17345.85389934202
 30
0.0000000000000047
 10
3190.319420999411
 20
-17345.77371181762
 30
0.0000000000000047
 10
3190.295993934583
 20
-17345.7384680677
 30
0.0000000000000047
 10
3190.286698447081
 20
-17345.7244839071
 30
0.0000000000000047
  0
LINE
  5
2F38E9
330
18
100
AcDbEntity
  8
0
 62
     8
100
AcDbLine
 10
3190.46661325974
 20
-17354.8790782939
 30
0.0000000000000047
 11
3190.412841857331
 21
-17346.16133834705
 31
0.0000000000000047
  0
ARC
  5
2F38EA
330
18
100
AcDbEntity
  8
0
 62
     8
100
AcDbCircle
 10
3180.946421082722
 20
-17361.76810336651
 30
0.0000000000000047
 40
11.75128612273406
100
AcDbArc
 50
18.10531096794343
 51
35.8903443894871
  0
LINE
  5
2F38EB
330
18
100
AcDbEntity
  8
0
 62
     8
100
AcDbLine
 10
3192.306647043088
 20
-17350.30692785843
 30
0.0000000000000047
 11
3192.360179472865
 21
-17358.41106663728
 31
0.0000000000000047
  0
SPLINE
  5
2F38EC
330
18
100
AcDbEntity
  8
0
 62
     8
100
AcDbSpline
210
0.0
220
0.0
230
1.0
 70
     8
 71
     3
 72
    12
 73
     8
 74
     0
 42
0.0000000001
 43
0.0000000001
 40
0.0
 40
0.0
 40
0.0
 40
0.0
 40
0.2147019094362253
 40
0.4294047493967304
 40
0.6441021455627075
 40
0.8587960140340245
 40
1.0
 40
1.0
 40
1.0
 40
1.0
 10
3192.344091493954
 20
-17350.22816817627
 30
0.0000000000000047
 10
3192.339868648697
 20
-17350.21020530661
 30
0.0000000000000047
 10
3192.33142293988
 20
-17350.17427948944
 30
0.0000000000000047
 10
3192.31995018215
 20
-17350.16423154795
 30
0.0000000000000047
 10
3192.311304486509
 20
-17350.18935889627
 30
0.0000000000000047
 10
3192.306893532216
 20
-17350.24147857536
 30
0.0000000000000047
 10
3192.306717059419
 20
-17350.28833669884
 30
0.0000000000000047
 10
3192.30664704309
 20
-17350.30692785843
 30
0.0000000000000047
  0
ARC
  5
2F38ED
330
18
100
AcDbEntity
  8
0
 62
     8
100
AcDbCircle
 10
3182.938882895171
 20
-17352.12699088242
 30
0.0000000000000047
 40
9.594971415071102
100
AcDbArc
 50
0.4084988181292934
 51
11.41404868776114
  0
ARC
  5
2F38EE
330
18
100
AcDbEntity
  8
0
 62
     8
100
AcDbCircle
 10
3145.234533468669
 20
-17352.12637723633
 30
0.0000000000000047
 40
9.595143493370056
100
AcDbArc
 50
167.8039141070247
 51
179.5951728842577
  0
SPLINE
  5
2F38EF
330
18
100
AcDbEntity
  8
0
 62
     8
100
AcDbSpline
210
0.0
220
0.0
230
1.0
 70
     8
 71
     3
 72
    12
 73
     8
 74
     0
 42
0.0000000001
 43
0.0000000001
 40
0.0
 40
0.0
 40
0.0
 40
0.0
 40
0.2146951743438257
 40
0.4293898730758862
 40
0.6440849372638082
 40
0.8587798154743271
 40
1.0
 40
1.0
 40
1.0
 40
1.0
 10
3135.89593445435
 20
-17350.17826273643
 30
0.0000000000000047
 10
3135.895648515413
 20
-17350.1505839404
 30
0.0000000000000047
 10
3135.89507663817
 20
-17350.09522640965
 30
0.0000000000000047
 10
3135.888140849415
 20
-17350.04794384361
 30
0.0000000000000047
 10
3135.877772169822
 20
-17350.03519857397
 30
0.0000000000000047
 10
3135.866338070959
 20
-17350.05567470397
 30
0.0000000000000047
 10
3135.85890035398
 20
-17350.08692619165
 30
0.0000000000000047
 10
3135.855949212334
 20
-17350.09932617501
 30
0.0000000000000047
  0
LINE
  5
2F38F0
330
18
100
AcDbEntity
  8
0
 62
     8
100
AcDbLine
 10
3135.841842999311
 20
-17358.37560744153
 30
0.0000000000000047
 11
3135.89593445435
 21
-17350.17826273643
 31
0.0000000000000047
  0
ARC
  5
2F38F1
330
18
100
AcDbEntity
  8
0
 62
     8
100
AcDbCircle
 10
3147.36180689062
 20
-17361.84203409466
 30
0.0000000000000047
 40
11.90259923881048
100
AcDbArc
 50
145.2492020508526
 51
161.7583610186064
  0
LWPOLYLINE
  5
2F38F2
330
18
100
AcDbEntity
  8
0
 62
     8
100
AcDbPolyline
 90
        3
 70
   128
 43
0.0
 10
3141.389741987188
 20
-17342.22166079135
 10
3140.887573435023
 20
-17342.61749488103
 10
3140.498397543873
 20
-17342.94228189589
  0
SPLINE
  5
2F38F3
330
18
100
AcDbEntity
  8
0
 62
     8
100
AcDbSpline
210
0.0
220
0.0
230
1.0
 70
     8
 71
     3
 72
    18
 73
    14
 74
     0
 42
0.0000000001
 43
0.0000000001
 40
0.0
 40
0.0
 40
0.0
 40
0.0
 40
0.0882423409040914
 40
0.1887125510928309
 40
0.2892283035606448
 40
0.3897363820950025
 40
0.4902010290963856
 40
0.590649769336035
 40
0.6911255432270025
 40
0.791623436964772
 40
0.8921068342589807
 40
0.9925698989016003
 40
1.0
 40
1.0
 40
1.0
 40
1.0
 10
3192.565938322101
 20
-17356.93329972382
 30
0.0000000000000047
 10
3192.565363113475
 20
-17356.86845204326
 30
0.0000000000000047
 10
3192.564132988728
 20
-17356.72977064493
 30
0.0000000000000047
 10
3192.559746308715
 20
-17356.46659427201
 30
0.0000000000000047
 10
3192.55546697919
 20
-17356.19224079567
 30
0.0000000000000047
 10
3192.552770799089
 20
-17355.94200822664
 30
0.0000000000000047
 10
3192.552494024805
 20
-17355.74601395169
 30
0.0000000000000047
 10
3192.55419610392
 20
-17355.62572350636
 30
0.0000000000000047
 10
3192.556555772751
 20
-17355.59512016555
 30
0.0000000000000047
 10
3192.557986443615
 20
-17355.65640411472
 30
0.0000000000000047
 10
3192.557328215412
 20
-17355.8073508096
 30
0.0000000000000047
 10
3192.555547209611
 20
-17355.94987361259
 30
0.0000000000000047
 10
3192.554279280217
 20
-17356.04228972294
 30
0.0000000000000047
 10
3192.55419196381
 20
-17356.04865399113
 30
0.0000000000000047
  0
SPLINE
  5
2F38F4
330
18
100
AcDbEntity
  8
0
 62
     8
100
AcDbSpline
210
0.0
220
0.0
230
1.0
 70
     8
 71
     3
 72
    10
 73
     6
 74
     0
 42
0.0000000001
 43
0.0000000001
 40
0.0
 40
0.0
 40
0.0
 40
0.0
 40
0.3781181783323143
 40
0.7562410625280024
 40
1.0
 40
1.0
 40
1.0
 40
1.0
 10
3150.257283191812
 20
-17342.57522925156
 30
0.0000000000000047
 10
3150.182749837256
 20
-17342.62503798916
 30
0.0000000000000047
 10
3150.033682200543
 20
-17342.72465608426
 30
0.0000000000000047
 10
3149.816881876203
 20
-17342.79071106898
 30
0.0000000000000047
 10
3149.700171068526
 20
-17342.77870031162
 30
0.0000000000000047
 10
3149.654423948288
 20
-17342.77399245662
 30
0.0000000000000047
  0
LWPOLYLINE
  5
2F38F5
330
18
100
AcDbEntity
  8
0
 62
     8
100
AcDbPolyline
 90
       12
 70
   128
 43
0.0
 10
3149.633228782859
 20
-17341.61164079553
 10
3149.790060973044
 20
-17341.49672595181
 10
3150.025528814424
 20
-17341.40557655759
 10
3150.253269305084
 20
-17341.392384324
 10
3150.447357328449
 20
-17341.45828627153
 10
3150.5853456732
 20
-17341.59531261051
 10
3150.651043090109
 20
-17341.78741081345
 10
3150.636736310773
 20
-17342.01251656944
 10
3150.544159593711
 20
-17342.24536953942
 10
3150.384115782061
 20
-17342.4602714382
 10
3150.257283191812
 20
-17342.57522925156
 10
3150.257283191812
 20
-17342.57522925156
  0
LINE
  5
2F38F6
330
18
100
AcDbEntity
  8
0
 62
     8
100
AcDbLine
 10
3153.674992095081
 20
-17337.71187850583
 30
0.0000000000000047
 11
3153.303603448945
 21
-17337.18843687443
 31
0.0000000000000047
  0
LINE
  5
2F38F7
330
18
100
AcDbEntity
  8
0
 62
     8
100
AcDbLine
 10
3153.674992095081
 20
-17337.71187850583
 30
0.0000000000000047
 11
3153.744371824191
 21
-17345.78113755326
 31
0.0000000000000047
  0
LINE
  5
2F38F8
330
18
100
AcDbEntity
  8
0
 62
     8
100
AcDbLine
 10
3174.628088915612
 20
-17345.82641111911
 30
0.0000000000000047
 11
3174.698784701142
 21
-17337.75983076697
 31
0.0000000000000047
  0
LINE
  5
2F38F9
330
18
100
AcDbEntity
  8
0
 62
     8
100
AcDbLine
 10
3175.077326310209
 20
-17337.23810028221
 30
0.0000000000000047
 11
3174.698784701142
 21
-17337.75983076697
 31
0.0000000000000047
  0
SPLINE
  5
2F38FA
330
18
100
AcDbEntity
  8
0
 62
     8
100
AcDbSpline
210
0.0
220
0.0
230
1.0
 70
     8
 71
     3
 72
    11
 73
     7
 74
     0
 42
0.0000000001
 43
0.0000000001
 40
0.0
 40
0.0
 40
0.0
 40
0.0
 40
0.2547417353720574
 40
0.5359215615244356
 40
0.8171526400686925
 40
1.0
 40
1.0
 40
1.0
 40
1.0
 10
3149.956475112258
 20
-17342.73336952385
 30
0.0000000000000047
 10
3149.986526697032
 20
-17342.66140080242
 30
0.0000000000000047
 10
3150.049748737247
 20
-17342.509994165
 30
0.0000000000000047
 10
3150.226844090808
 20
-17342.3071671062
 30
0.0000000000000047
 10
3150.420487525692
 20
-17342.15686861269
 30
0.0000000000000047
 10
3150.551431279437
 20
-17342.11414662635
 30
0.0000000000000047
 10
3150.603023246846
 20
-17342.09731412182
 30
0.0000000000000047
  0
SPLINE
  5
2F38FB
330
18
100
AcDbEntity
  8
0
 62
     8
100
AcDbSpline
210
0.0
220
0.0
230
1.0
 70
     8
 71
     3
 72
     9
 73
     5
 74
     0
 42
0.0000000001
 43
0.0000000001
 40
0.0
 40
0.0
 40
0.0
 40
0.0
 40
0.5487977330853637
 40
1.0
 40
1.0
 40
1.0
 40
1.0
 10
3153.635841550324
 20
-17337.59528505685
 30
0.0000000000000047
 10
3153.648261584947
 20
-17337.6141572069
 30
0.0000000000000047
 10
3153.670892936855
 20
-17337.64854537746
 30
0.0000000000000047
 10
3153.673717600459
 20
-17337.69218721142
 30
0.0000000000000047
 10
3153.674992095081
 20
-17337.71187850583
 30
0.0000000000000047
  0
SPLINE
  5
2F38FC
330
18
100
AcDbEntity
  8
0
 62
     8
100
AcDbSpline
210
0.0
220
0.0
230
1.0
 70
     8
 71
     3
 72
     9
 73
     5
 74
     0
 42
0.0000000001
 43
0.0000000001
 40
0.0
 40
0.0
 40
0.0
 40
0.0
 40
0.6747225068587836
 40
1.0
 40
1.0
 40
1.0
 40
1.0
 10
3174.698784701142
 20
-17337.75983076697
 30
0.0000000000000047
 10
3174.701096564183
 20
-17337.72964617672
 30
0.0000000000000047
 10
3174.704522955059
 20
-17337.6849098741
 30
0.0000000000000047
 10
3174.731429818334
 20
-17337.65330902765
 30
0.0000000000000047
 10
3174.740182015368
 20
-17337.64302998353
 30
0.0000000000000047
  0
LINE
  5
2F38FD
330
18
100
AcDbEntity
  8
0
 62
     8
100
AcDbLine
 10
3142.360136016437
 20
-17342.68312189452
 30
0.0000000000000047
 11
3141.585143933288
 21
-17342.33700836581
 31
0.0000000000000047
  0
LINE
  5
2F38FE
330
18
100
AcDbEntity
  8
0
 62
     8
100
AcDbLine
 10
3142.360136016437
 20
-17342.68312189452
 30
0.0000000000000047
 11
3142.498607000554
 21
-17350.36905079459
 31
0.0000000000000047
  0
LINE
  5
2F38FF
330
18
100
AcDbEntity
  8
0
 62
     8
100
AcDbLine
 10
3185.806112252871
 20
-17350.45769572138
 30
0.0000000000000047
 11
3185.945240838462
 21
-17342.78253419352
 31
0.0000000000000047
  0
LINE
  5
2F3900
330
18
100
AcDbEntity
  8
0
 62
     8
100
AcDbLine
 10
3186.724947296864
 20
-17342.43996600989
 30
0.0000000000000047
 11
3185.945240838462
 21
-17342.78253419352
 31
0.0000000000000047
  0
SPLINE
  5
2F3901
330
18
100
AcDbEntity
  8
0
 62
     8
100
AcDbSpline
210
0.0
220
0.0
230
1.0
 70
     8
 71
     3
 72
    10
 73
     6
 74
     0
 42
0.0000000001
 43
0.0000000001
 40
0.0
 40
0.0
 40
0.0
 40
0.0
 40
0.3354149358090179
 40
0.7358802330600084
 40
1.0
 40
1.0
 40
1.0
 40
1.0
 10
3142.289487171959
 20
-17342.53593169492
 30
0.0000000000000047
 10
3142.303045143834
 20
-17342.5436719417
 30
0.0000000000000047
 10
3142.332790520196
 20
-17342.56065357847
 30
0.0000000000000047
 10
3142.355342795851
 20
-17342.61668022969
 30
0.0000000000000047
 10
3142.358772844565
 20
-17342.66422616313
 30
0.0000000000000047
 10
3142.360136016437
 20
-17342.68312189452
 30
0.0000000000000047
  0
SPLINE
  5
2F3902
330
18
100
AcDbEntity
  8
0
 62
     8
100
AcDbSpline
210
0.0
220
0.0
230
1.0
 70
     8
 71
     3
 72
    10
 73
     6
 74
     0
 42
0.0000000001
 43
0.0000000001
 40
0.0
 40
0.0
 40
0.0
 40
0.0
 40
0.3996033830846688
 40
0.7992078187843857
 40
1.0
 40
1.0
 40
1.0
 40
1.0
 10
3185.945240838462
 20
-17342.78253419352
 30
0.0000000000000047
 10
3185.948090738869
 20
-17342.75452510237
 30
0.0000000000000047
 10
3185.953790547186
 20
-17342.69850684628
 30
0.0000000000000047
 10
3185.981485754742
 20
-17342.64912649241
 30
0.0000000000000047
 10
3186.007608500788
 20
-17342.64039540052
 30
0.0000000000000047
 10
3186.016344797781
 20
-17342.63747543906
 30
0.0000000000000047
  0
LINE
  5
2F3903
330
18
100
AcDbEntity
  8
0
 62
     8
100
AcDbLine
 10
3136.866875986966
 20
-17350.25431046857
 30
0.0000000000000047
 11
3135.89593445435
 21
-17350.17826273643
 31
0.0000000000000047
  0
LINE
  5
2F3904
330
18
100
AcDbEntity
  8
0
 62
     8
100
AcDbLine
 10
3136.866875986966
 20
-17350.25431046857
 30
0.0000000000000047
 11
3136.997192030049
 21
-17355.99163271524
 31
0.0000000000000047
  0
LINE
  5
2F3905
330
18
100
AcDbEntity
  8
0
 62
     8
100
AcDbLine
 10
3191.20585546402
 20
-17356.04443815631
 30
0.0000000000000047
 11
3191.334695851107
 21
-17350.37854375524
 31
0.0000000000000047
  0
LINE
  5
2F3906
330
18
100
AcDbEntity
  8
0
 62
     8
100
AcDbLine
 10
3192.306647043088
 20
-17350.30692785843
 30
0.0000000000000047
 11
3191.334695851107
 21
-17350.37854375524
 31
0.0000000000000047
  0
SPLINE
  5
2F3907
330
18
100
AcDbEntity
  8
0
 62
     8
100
AcDbSpline
210
0.0
220
0.0
230
1.0
 70
     8
 71
     3
 72
    11
 73
     7
 74
     0
 42
0.0000000001
 43
0.0000000001
 40
0.0
 40
0.0
 40
0.0
 40
0.0
 40
0.0572013650992412
 40
0.4116293742964338
 40
0.766170231088878
 40
1.0
 40
1.0
 40
1.0
 40
1.0
 10
3136.843953390806
 20
-17350.11876407907
 30
0.0000000000000047
 10
3136.844669598133
 20
-17350.11802949576
 30
0.0000000000000047
 10
3136.849823530619
 20
-17350.11274332705
 30
0.0000000000000047
 10
3136.857565473415
 20
-17350.13859726929
 30
0.0000000000000047
 10
3136.864577680352
 20
-17350.18827207783
 30
0.0000000000000047
 10
3136.866222359811
 20
-17350.23552947339
 30
0.0000000000000047
 10
3136.866875986964
 20
-17350.25431046857
 30
0.0000000000000047
  0
LINE
  5
2F3908
330
18
100
AcDbEntity
  8
0
 62
     8
100
AcDbLine
 10
3191.32001610377
 20
-17351.02413319119
 30
0.0000000000000047
 11
3191.171131887253
 21
-17351.02379372098
 31
0.0000000000000047
  0
ELLIPSE
  5
2F3909
330
18
100
AcDbEntity
  8
0
 62
     8
100
AcDbEllipse
 10
3164.086619815019
 20
-17299.63313203651
 30
0.0000000000000047
 11
-0.1098656389497209
 21
693.7680834939924
 31
0.0
210
0.0
220
0.0
230
1.0
 40
0.0391355243385078
 41
4.631106471022636
 42
4.63824017469073
  0
ELLIPSE
  5
2F390A
330
18
100
AcDbEntity
  8
0
 62
     8
100
AcDbEllipse
 10
3164.086619815019
 20
-17299.63313203651
 30
0.0000000000000047
 11
0.1051023424513623
 21
725.1159469574147
 31
0.0
210
0.0
220
0.0
230
1.0
 40
0.0374436621998016
 41
4.634661743695017
 42
4.634889803024194
  0
SPLINE
  5
2F390B
330
18
100
AcDbEntity
  8
0
 62
     8
100
AcDbSpline
210
0.0
220
0.0
230
1.0
 70
     8
 71
     3
 72
    10
 73
     6
 74
     0
 42
0.0000000001
 43
0.0000000001
 40
0.0
 40
0.0
 40
0.0
 40
0.0
 40
0.3544852672485776
 40
0.7089728444385706
 40
0.9999999999999998
 40
0.9999999999999998
 40
0.9999999999999998
 40
0.9999999999999998
 10
3191.334695851107
 20
-17350.37854375524
 30
0.0000000000000047
 10
3191.33583901959
 20
-17350.3509967179
 30
0.0000000000000047
 10
3191.33812536401
 20
-17350.29590246372
 30
0.0000000000000047
 10
3191.34627488445
 20
-17350.24851819291
 30
0.0000000000000047
 10
3191.353423446539
 20
-17350.24492720524
 30
0.0000000000000047
 10
3191.356646340743
 20
-17350.24330822604
 30
0.0000000000000047
  0
LWPOLYLINE
  5
2F390C
330
18
100
AcDbEntity
  8
0
 62
     8
100
AcDbPolyline
 90
      116
 70
   128
 43
0.0
 10
3138.418091129024
 20
-17389.57063366151
 10
3139.806619144753
 20
-17390.3585404161
 10
3141.26760648935
 20
-17391.10149880827
 10
3142.79669676643
 20
-17391.79728956385
 10
3144.389322611581
 20
-17392.44383767733
 10
3146.040734017025
 20
-17393.03921299697
 10
3147.746000892036
 20
-17393.58163958609
 10
3149.500035253256
 20
-17394.06949670848
 10
3151.29760018617
 20
-17394.50132991412
 10
3153.133335022581
 20
-17394.87584980746
 10
3155.001755340603
 20
-17395.19193993058
 10
3156.897291370987
 20
-17395.44865528513
 10
3158.814281169324
 20
-17395.64523021552
 10
3160.747008168892
 20
-17395.78107840891
 10
3162.689700327173
 20
-17395.85579437332
 10
3164.636562557866
 20
-17395.86915442297
 10
3166.581782705193
 20
-17395.82112012731
 10
3168.51955544117
 20
-17395.71183436927
 10
3170.44409933507
 20
-17395.54162134539
 10
3172.349668802064
 20
-17395.31099149272
 10
3174.230580560902
 20
-17395.02063212758
 10
3176.081218754752
 20
-17394.67141040174
 10
3177.896058848472
 20
-17394.26436739003
 10
3179.669686405017
 20
-17393.80071907572
 10
3181.396807327138
 20
-17393.28184846736
 10
3183.072268340739
 20
-17392.70930362792
 10
3184.691069370256
 20
-17392.0847944723
 10
3186.248376767484
 20
-17391.41018315965
 10
3187.739546142014
 20
-17390.68748470929
 10
3189.160127482068
 20
-17389.91885616121
 10
3190.50587772323
 20
-17389.10658932043
 10
3191.772782932098
 20
-17388.25310977534
 10
3192.957060773351
 20
-17387.36096364875
 10
3194.055179059478
 20
-17386.43281477254
 10
3195.063859491379
 20
-17385.47143267426
 10
3195.980089947062
 20
-17384.47968548303
 10
3196.801140164215
 20
-17383.46053481776
 10
3197.524555552528
 20
-17382.41701965125
 10
3198.148179384008
 20
-17381.35225729557
 10
3198.670150232552
 20
-17380.26942320139
 10
3199.088911362163
 20
-17379.17174947983
 10
3199.40321072695
 20
-17378.06251307774
 10
3199.612112066283
 20
-17376.94502346014
 10
3199.714991490899
 20
-17375.82261472705
 10
3199.711541750275
 20
-17374.69863723757
 10
3199.601771379148
 20
-17373.57644627781
 10
3199.386013232251
 20
-17372.45939122149
 10
3199.064904000952
 20
-17371.35080370513
 10
3198.639408963987
 20
-17370.25399417914
 10
3198.110792969352
 20
-17369.17223515607
 10
3197.480635796835
 20
-17368.10875431276
 10
3196.750818502429
 20
-17367.06672660715
 10
3195.923518297501
 20
-17366.04926146814
 10
3195.001203427937
 20
-17365.05939589771
 10
3193.986627626574
 20
-17364.10008338523
 10
3192.882819871514
 20
-17363.17418602425
 10
3191.693071584007
 20
-17362.28446909277
 10
3190.420935454945
 20
-17361.43358658025
 10
3189.070206815113
 20
-17360.62407831599
 10
3187.644917034116
 20
-17359.85836024613
 10
3186.149320691595
 20
-17359.13871702765
 10
3184.587879707953
 20
-17358.46729680889
 10
3182.965255969815
 20
-17357.84610303069
 10
3181.286290166537
 20
-17357.27699009219
 10
3179.555993468845
 20
-17356.76165657618
 10
3177.779530672725
 20
-17356.30163945992
 10
3175.962203556697
 20
-17355.89831239062
 10
3174.109434239061
 20
-17355.55287804868
 10
3172.22675322928
 20
-17355.26636913302
 10
3170.319777237658
 20
-17355.03963949252
 10
3168.39420234755
 20
-17354.87336609679
 10
3166.455769022943
 20
-17354.76804460191
 10
3164.510265522352
 20
-17354.72398935038
 10
3162.563500587659
 20
-17354.74133337119
 10
3160.621277839902
 20
-17354.82002345273
 10
3158.689398339703
 20
-17354.95982457718
 10
3156.773625594836
 20
-17355.16032041313
 10
3154.879677878974
 20
-17355.42091183756
 10
3153.01320860179
 20
-17355.74082235546
 10
3151.179785825585
 20
-17356.1190961291
 10
3149.384882023613
 20
-17356.55460389036
 10
3147.633853596703
 20
-17357.04604688241
 10
3145.931928071159
 20
-17357.59195833771
 10
3144.284181695074
 20
-17358.19070852828
 10
3142.695534957599
 20
-17358.84051129392
 10
3141.170727358113
 20
-17359.53942678286
 10
3139.714308498113
 20
-17360.28536856513
 10
3138.330627306082
 20
-17361.07611182366
 10
3137.023811447465
 20
-17361.90929538672
 10
3135.797762790565
 20
-17362.78243419933
 10
3134.656137616639
 20
-17363.6929208938
 10
3133.602346833257
 20
-17364.6380394621
 10
3132.639532077045
 20
-17365.61496919746
 10
3131.770566140418
 20
-17366.62079233125
 10
3130.998045290317
 20
-17367.65251029209
 10
3130.324273905684
 20
-17368.70704272038
 10
3129.751262770514
 20
-17369.78124224936
 10
3129.280722246068
 20
-17370.87190238827
 10
3128.914054589607
 20
-17371.97576983988
 10
3128.652357368284
 20
-17373.08954844207
 10
3128.496408950098
 20
-17374.20991542691
 10
3128.446677038628
 20
-17375.33352831848
 10
3128.503305017451
 20
-17376.45703084529
 10
3128.666132433517
 20
-17377.57707264821
 10
3128.934664272089
 20
-17378.69030928054
 10
3129.30810680264
 20
-17379.79341895976
 10
3129.785340267703
 20
-17380.88311045073
 10
3130.364941926647
 20
-17381.95613045621
 10
3131.045183495267
 20
-17383.00927790518
 10
3131.824034559669
 20
-17384.03940789433
 10
3132.699167270389
 20
-17385.04344819365
 10
3133.667973838587
 20
-17386.01840146348
 10
3134.727560988483
 20
-17386.9613578184
 10
3135.87476809366
 20
-17387.86950332626
 10
3137.106170270917
 20
-17388.74012770668
 10
3138.418091129024
 20
-17389.57063366151
  0
LWPOLYLINE
  5
2F390D
330
18
100
AcDbEntity
  8
0
 62
     8
100
AcDbPolyline
 90
      107
 70
   128
 43
0.0
 10
3142.366378793026
 20
-17388.06295315321
 10
3143.643959507421
 20
-17388.78454891626
 10
3144.99334577984
 20
-17389.46118547171
 10
3146.409796947378
 20
-17390.09048674943
 10
3147.88833896541
 20
-17390.67024151242
 10
3149.423778659948
 20
-17391.19841355527
 10
3151.010722930797
 20
-17391.67314687759
 10
3152.64359560765
 20
-17392.09277541476
 10
3154.316662627574
 20
-17392.45582377703
 10
3156.024046117317
 20
-17392.76101932064
 10
3157.759751277735
 20
-17393.00728598906
 10
3159.517678332419
 20
-17393.19376303564
 10
3161.291654959701
 20
-17393.31979221333
 10
3163.075449948224
 20
-17393.38493157037
 10
3164.862794533793
 20
-17393.3889539721
 10
3166.647413124419
 20
-17393.33184315944
 10
3168.423036955907
 20
-17393.21380064662
 10
3170.18342969606
 20
-17393.03524177966
 10
3171.922407074578
 20
-17392.79679228736
 10
3173.633861633784
 20
-17392.49929173031
 10
3175.311778944645
 20
-17392.14378216874
 10
3176.950269185275
 20
-17391.73151555301
 10
3178.543574822215
 20
-17391.26393746455
 10
3180.086100055265
 20
-17390.74269179646
 10
3181.572427460228
 20
-17390.16960917511
 10
3182.997333778167
 20
-17389.54670178677
 10
3184.355816159723
 20
-17388.87615808107
 10
3185.643101660016
 20
-17388.16033334817
 10
3186.854670002376
 20
-17387.40174248985
 10
3187.986264793529
 20
-17386.60304960362
 10
3189.033910673082
 20
-17385.76706005321
 10
3189.993929662879
 20
-17384.89671103043
 10
3190.862947234664
 20
-17383.99505819827
 10
3191.637910726445
 20
-17383.06526900102
 10
3192.316101824541
 20
-17382.1106115169
 10
3192.895134216539
 20
-17381.13443610505
 10
3193.372975354863
 20
-17380.14017269558
 10
3193.747948163727
 20
-17379.13131403788
 10
3194.018734026294
 20
-17378.11140412212
 10
3194.18438217288
 20
-17377.08402487633
 10
3194.244310534433
 20
-17376.05278384897
 10
3194.198310009902
 20
-17375.02130583297
 10
3194.046540198866
 20
-17373.99321167967
 10
3193.789533668901
 20
-17372.97211386452
 10
3193.428196809058
 20
-17371.96159825717
 10
3192.963797027757
 20
-17370.96521476017
 10
3192.397963606257
 20
-17369.98646400609
 10
3191.732685138237
 20
-17369.02878208383
 10
3190.97029971485
 20
-17368.09553487255
 10
3190.113484683038
 20
-17367.18999833366
 10
3189.165249817742
 20
-17366.31535456929
 10
3188.128923666321
 20
-17365.47467605582
 10
3187.008148641087
 20
-17364.67091492769
 10
3185.806862136186
 20
-17363.90689404721
 10
3184.529281431792
 20
-17363.18529828994
 10
3183.17989510603
 20
-17362.5086617037
 10
3181.763442124862
 20
-17361.87936134979
 10
3180.28490010683
 20
-17361.2996065868
 10
3178.749460839028
 20
-17360.7714347903
 10
3177.162516568179
 20
-17360.29670146798
 10
3175.52964346459
 20
-17359.87707268446
 10
3173.856578151614
 20
-17359.51402333678
 10
3172.149193808398
 20
-17359.20882927128
 10
3170.413487794506
 20
-17358.96256211015
 10
3168.655561593295
 20
-17358.77608555628
 10
3166.881584966013
 20
-17358.65005637859
 10
3165.097790830963
 20
-17358.58491652885
 10
3163.31044539192
 20
-17358.58089461981
 10
3161.525826801294
 20
-17358.63800543247
 10
3159.750201262859
 20
-17358.75604695989
 10
3157.989808522705
 20
-17358.93460582686
 10
3156.250831997662
 20
-17359.17305482646
 10
3154.539379145402
 20
-17359.4705563689
 10
3152.861459700859
 20
-17359.82606519142
 10
3151.222971167176
 20
-17360.23833279255
 10
3149.629663823289
 20
-17360.70590989561
 10
3148.08713837687
 20
-17361.22715568689
 10
3146.600812892222
 20
-17361.80023917046
 10
3145.175906360915
 20
-17362.42314668198
 10
3143.817424166054
 20
-17363.09369027989
 10
3142.530136985486
 20
-17363.809514012
 10
3141.318568683133
 20
-17364.56810484722
 10
3140.18697395866
 20
-17365.36679769496
 10
3139.139327759052
 20
-17366.20278743013
 10
3138.179310689572
 20
-17367.07313731514
 10
3137.310293117787
 20
-17367.9747901473
 10
3136.535327919059
 20
-17368.90457835915
 10
3135.857138101172
 20
-17369.85923707501
 10
3135.278105709175
 20
-17370.83541248687
 10
3134.800262863903
 20
-17371.82967491093
 10
3134.425292615459
 20
-17372.83853406133
 10
3134.154505899419
 20
-17373.8584444698
 10
3133.988858606308
 20
-17374.88582322288
 10
3133.928927684332
 20
-17375.91706375754
 10
3133.974929915811
 20
-17376.94854275894
 10
3134.126699726848
 20
-17377.97663691224
 10
3134.383705403339
 20
-17378.99773423469
 10
3134.745042263182
 20
-17380.00824984205
 10
3135.209443751429
 20
-17381.00463235365
 10
3135.775276319457
 20
-17381.98338458582
 10
3136.440553934004
 20
-17382.94106601539
 10
3137.202939784127
 20
-17383.87431347302
 10
3138.059754389201
 20
-17384.77984976555
 10
3139.007991388182
 20
-17385.65449279087
 10
3140.044315619286
 20
-17386.49517216657
 10
3141.165090537837
 20
-17387.29893323312
 10
3142.366378793026
 20
-17388.06295315321
  0
LWPOLYLINE
  5
2F390E
330
18
100
AcDbEntity
  8
0
 62
     8
100
AcDbPolyline
 90
       59
 70
   128
 43
0.0
 10
3199.726620923295
 20
-17374.6621274711
 10
3199.711541750275
 20
-17374.06369420972
 10
3199.601771379148
 20
-17372.94150324997
 10
3199.386013232251
 20
-17371.82444819365
 10
3199.064904000952
 20
-17370.71586067729
 10
3198.639408963987
 20
-17369.6190511513
 10
3198.110792969352
 20
-17368.53729212823
 10
3197.480635796835
 20
-17367.47381128491
 10
3196.750818502429
 20
-17366.43178357931
 10
3195.923518297501
 20
-17365.4143184403
 10
3195.001203427937
 20
-17364.42445286987
 10
3193.986627626574
 20
-17363.46514035739
 10
3192.882819871514
 20
-17362.5392429964
 10
3191.693071584007
 20
-17361.64952606493
 10
3190.420935454945
 20
-17360.7986435524
 10
3189.070206815113
 20
-17359.98913528814
 10
3187.644917034116
 20
-17359.22341721829
 10
3186.149320691595
 20
-17358.50377399981
 10
3184.587879707953
 20
-17357.83235378105
 10
3182.965255969815
 20
-17357.21116000285
 10
3181.286290166537
 20
-17356.64204706435
 10
3179.555993468845
 20
-17356.12671354834
 10
3177.779530672725
 20
-17355.66669643207
 10
3175.962203556697
 20
-17355.26336936277
 10
3174.109434239061
 20
-17354.91793502083
 10
3172.22675322928
 20
-17354.63142610517
 10
3170.319777237658
 20
-17354.40469646467
 10
3168.39420234755
 20
-17354.23842306894
 10
3166.455769022943
 20
-17354.13310157406
 10
3164.510265522352
 20
-17354.08904632254
 10
3162.563500587659
 20
-17354.10639034334
 10
3160.621277839902
 20
-17354.18508042488
 10
3158.689398339703
 20
-17354.32488154932
 10
3156.773625594836
 20
-17354.52537738529
 10
3154.879677878974
 20
-17354.78596880971
 10
3153.01320860179
 20
-17355.10587932761
 10
3151.179785825585
 20
-17355.48415310125
 10
3149.384882023613
 20
-17355.91966086252
 10
3147.633853596703
 20
-17356.41110385456
 10
3145.931928071159
 20
-17356.95701530986
 10
3144.284181695074
 20
-17357.55576550044
 10
3142.695534957599
 20
-17358.20556826607
 10
3141.170727358113
 20
-17358.90448375501
 10
3139.714308498113
 20
-17359.65042553728
 10
3138.330627306082
 20
-17360.44116879581
 10
3137.023811447465
 20
-17361.27435235887
 10
3135.797762790565
 20
-17362.14749117149
 10
3134.656137616639
 20
-17363.05797786596
 10
3133.602346833257
 20
-17364.00309643425
 10
3132.639532077045
 20
-17364.9800261696
 10
3131.770566140418
 20
-17365.98584930341
 10
3130.998045290317
 20
-17367.01756726424
 10
3130.324273905684
 20
-17368.07209969254
 10
3129.751262770514
 20
-17369.14629922151
 10
3129.280722246068
 20
-17370.23695936042
 10
3128.914054589607
 20
-17371.34082681204
 10
3128.652357368284
 20
-17372.45460541422
 10
3128.496408950098
 20
-17373.57497239906
 10
3128.446619002418
 20
-17374.6621274711
  0
LINE
  5
2F390F
330
18
100
AcDbEntity
  8
0
 62
     8
100
AcDbLine
 10
3148.320364782991
 20
-17356.24418951116
 30
0.0000000000000047
 11
3148.609504170359
 21
-17350.39333795932
 31
0.0000000000000047
  0
LWPOLYLINE
  5
2F3910
330
18
100
AcDbEntity
  8
0
 62
     8
100
AcDbPolyline
 90
       36
 70
   128
 43
0.0
 10
3195.198287570664
 20
-17364.62539125026
 10
3195.166685147154
 20
-17364.40990600618
 10
3194.947280960687
 20
-17363.35830514211
 10
3194.621204512556
 20
-17362.3159640794
 10
3194.189582388026
 20
-17361.28648741027
 10
3193.653906459092
 20
-17360.27343242778
 10
3193.016026203222
 20
-17359.28030272072
 10
3192.278149556834
 20
-17358.31052895826
 10
3191.442827126028
 20
-17357.36746371668
 10
3190.512943225114
 20
-17356.45436842275
 10
3189.491714169661
 20
-17355.57439857279
 10
3188.382669713452
 20
-17354.73059498722
 10
3187.189644193689
 20
-17353.92587475721
 10
3185.916760141636
 20
-17353.16301981248
 10
3184.568417734209
 20
-17352.44466689027
 10
3183.149278978044
 20
-17351.773298405
 10
3181.664247146132
 20
-17351.15123648963
 10
3180.11845694951
 20
-17350.58062943878
 10
3178.517250706693
 20
-17350.06345174716
 10
3176.866163621249
 20
-17349.60148969816
 10
3175.170902018215
 20
-17349.19634062474
 10
3173.437325421162
 20
-17348.8494045336
 10
3171.67142862923
 20
-17348.56188164162
 10
3169.879313979252
 20
-17348.33476424631
 10
3168.067176836685
 20
-17348.16883820399
 10
3166.241279137939
 20
-17348.06467751
 10
3164.407934027839
 20
-17348.02264134254
 10
3162.573478548479
 20
-17348.04287504808
 10
3160.744254862792
 20
-17348.12531014133
 10
3158.926582943395
 20
-17348.26966036366
 10
3157.126746063539
 20
-17348.47542611743
 10
3155.350968606787
 20
-17348.7418974221
 10
3153.605386195443
 20
-17349.06815342162
 10
3151.896033741915
 20
-17349.45306534059
 10
3150.228819417769
 20
-17349.89530362843
 10
3148.609504170359
 20
-17350.39333795932
  0
LWPOLYLINE
  5
2F3911
330
18
100
AcDbEntity
  8
0
 62
     8
100
AcDbPolyline
 90
      106
 70
   128
 43
0.0
 10
3142.618395775821
 20
-17387.92281346313
 10
3143.89352790756
 20
-17388.64261926678
 10
3145.240945322879
 20
-17389.31711411749
 10
3146.655826098839
 20
-17389.94388291789
 10
3148.133103695612
 20
-17390.52068271341
 10
3149.667491910574
 20
-17391.04544724396
 10
3151.253495226688
 20
-17391.51630080116
 10
3152.885439324175
 20
-17391.93155416349
 10
3154.557480468733
 20
-17392.28972381166
 10
3156.263633249424
 20
-17392.5895262625
 10
3157.997789355108
 20
-17392.82988890839
 10
3159.753742325167
 20
-17393.00995050996
 10
3161.525207179401
 20
-17393.12906661579
 10
3163.305838340983
 20
-17393.18681202588
 10
3165.089267189298
 20
-17393.1829788209
 10
3166.869106327303
 20
-17393.11758079643
 10
3168.638985427435
 20
-17392.99085247762
 10
3170.392567447603
 20
-17392.80324764104
 10
3172.1235742354
 20
-17392.55543635853
 10
3173.825812985785
 20
-17392.24830746063
 10
3175.493186482774
 20
-17391.88296065348
 10
3177.119729798799
 20
-17391.4607030698
 10
3178.699616695768
 20
-17390.98304557375
 10
3180.227191203588
 20
-17390.45169832659
 10
3181.696988530271
 20
-17389.8685646279
 10
3183.103745516986
 20
-17389.23573093846
 10
3184.44242517543
 20
-17388.5554625691
 10
3185.70823589098
 20
-17387.83019456574
 10
3186.896647852068
 20
-17387.06252419574
 10
3188.003406492386
 20
-17386.25519924627
 10
3189.024546573206
 20
-17385.41110792399
 10
3189.956417360855
 20
-17384.53327417431
 10
3190.7956819866
 20
-17383.62484031385
 10
3191.539332809186
 20
-17382.68905619093
 10
3192.184711258092
 20
-17381.72927364278
 10
3192.729505699848
 20
-17380.74892801923
 10
3193.171765520355
 20
-17379.75152808239
 10
3193.50990923288
 20
-17378.74064541363
 10
3193.742724051318
 20
-17377.71989692269
 10
3193.869377838832
 20
-17376.6929379499
 10
3193.889417400893
 20
-17375.66344551437
 10
3193.80277019224
 20
-17374.63510254764
 10
3193.609746877294
 20
-17373.61159247392
 10
3193.311038769734
 20
-17372.59657802406
 10
3192.907716125564
 20
-17371.59369236688
 10
3192.401220461829
 20
-17370.60652679174
 10
3191.79336455663
 20
-17369.63861494209
 10
3191.086327328281
 20
-17368.69342000532
 10
3190.282638046037
 20
-17367.77432756858
 10
3189.385174196418
 20
-17366.88462664986
 10
3188.39714654742
 20
-17366.02750304649
 10
3187.322093387558
 20
-17365.2060241847
 10
3186.163865163352
 20
-17364.42313025096
 10
3184.92660518948
 20
-17363.68162502702
 10
3183.614743467765
 20
-17362.98416246765
 10
3182.232974696889
 20
-17362.33323991838
 10
3180.78624804405
 20
-17361.73118629836
 10
3179.27974153408
 20
-17361.18015716952
 10
3177.718847840438
 20
-17360.68212456307
 10
3176.109153801848
 20
-17360.23887303796
 10
3174.456420792408
 20
-17359.8519883487
 10
3172.766567652101
 20
-17359.52285547464
 10
3171.045643802387
 20
-17359.25265098306
 10
3169.299806202412
 20
-17359.04234549271
 10
3167.535308253847
 20
-17358.89268938547
 10
3165.758465661941
 20
-17358.80421871882
 10
3163.975635952152
 20
-17358.77725128417
 10
3162.193204814572
 20
-17358.81188167989
 10
3160.417551964979
 20
-17358.90798820912
 10
3158.65503236841
 20
-17359.06522499654
 10
3156.911957462745
 20
-17359.28303085701
 10
3155.194565287129
 20
-17359.56062486123
 10
3153.509005119444
 20
-17359.89701323357
 10
3151.861309311675
 20
-17360.29099181554
 10
3150.257377500655
 20
-17360.74115123918
 10
3148.702949723629
 20
-17361.24587865145
 10
3147.203593189431
 20
-17361.80336929272
 10
3145.764673046997
 20
-17362.41162563458
 10
3144.391339881643
 20
-17363.06847051038
 10
3143.088510086844
 20
-17363.77155253404
 10
3141.860850711739
 20
-17364.51835681822
 10
3140.712751726562
 20
-17365.30620718947
 10
3139.648324954151
 20
-17366.13228454232
 10
3138.671381367865
 20
-17366.99363206166
 10
3137.785418502854
 20
-17367.88716643173
 10
3136.993605733636
 20
-17368.8096883059
 10
3136.298780860208
 20
-17369.75789610237
 10
3135.703428344456
 20
-17370.72839462634
 10
3135.20968016364
 20
-17371.71771034371
 10
3134.819303008282
 20
-17372.72230074244
 10
3134.533695721749
 20
-17373.73857157697
 10
3134.35388076551
 20
-17374.76288376607
 10
3134.280502512196
 20
-17375.79157014461
 10
3134.313819564333
 20
-17376.82094876646
 10
3134.453718409924
 20
-17377.84733374391
 10
3134.69969293907
 20
-17378.86705298483
 10
3135.050865780829
 20
-17379.87645459778
 10
3135.505979768466
 20
-17380.87192561463
 10
3136.063404767248
 20
-17381.84990184451
 10
3136.721145355705
 20
-17382.80688413295
 10
3137.476847653422
 20
-17383.73944427427
 10
3138.327805295352
 20
-17384.64424619765
 10
3139.270973087397
 20
-17385.51804990874
 10
3140.302974047563
 20
-17386.35772737925
 10
3141.420116048701
 20
-17387.16027215458
 10
3142.618395775821
 20
-17387.92281346313
  0
ARC
  5
2F3912
330
18
100
AcDbEntity
  8
0
 62
     8
100
AcDbCircle
 10
3183.788552167193
 20
-17374.9139372258
 30
0.0000000000000047
 40
10.10650966144988
100
AcDbArc
 50
348.4233310056366
 51
356.9265718667813
  0
ARC
  5
2F3913
330
18
100
AcDbEntity
  8
0
 62
     8
100
AcDbCircle
 10
3144.396328477657
 20
-17374.91245357216
 30
0.0000000000000047
 40
10.11821322055775
100
AcDbArc
 50
183.078283245548
 51
191.5716748105332
  0
LINE
  5
2F3914
330
18
100
AcDbEntity
  8
0
 62
     8
100
AcDbLine
 10
3146.950480206406
 20
-17332.54411917933
 30
0.0000000000000047
 11
3146.950480206406
 21
-17356.62188877974
 31
0.0000000000000047
  0
LINE
  5
2F3915
330
18
100
AcDbEntity
  8
0
 62
     8
100
AcDbLine
 10
3146.950480206406
 20
-17332.54411917933
 30
0.0000000000000047
 11
3147.133730820953
 21
-17332.54610007915
 31
0.0000000000000047
  0
ELLIPSE
  5
2F3916
330
18
100
AcDbEntity
  8
0
 62
     8
100
AcDbEllipse
 10
3147.133730394414
 20
-17333.49851284259
 30
0.0000000000000047
 11
1.649177535951329
 21
-0.0267356987507897
 31
0.0
210
0.0
220
0.0
230
0.9999999999999998
 40
0.5773815439202642
 41
0.0093599675508011
 42
1.58015629434569
  0
LINE
  5
2F3917
330
18
100
AcDbEntity
  8
0
 62
     8
100
AcDbLine
 10
3148.78298037756
 20
-17333.51633491291
 30
0.0000000000000047
 11
3148.78298037756
 21
-17350.33656792561
 31
0.0000000000000047
  0
LINE
  5
2F3918
330
18
100
AcDbEntity
  8
0
 62
     8
100
AcDbLine
 10
3137.616470827012
 20
-17337.73450610864
 30
0.0000000000000047
 11
3137.616470827012
 21
-17360.88512599549
 31
0.0000000000000047
  0
LINE
  5
2F3919
330
18
100
AcDbEntity
  8
0
 62
     8
100
AcDbLine
 10
3137.616470827012
 20
-17337.73450610864
 30
0.0000000000000047
 11
3138.648196755285
 21
-17337.160791107
 31
0.0000000000000047
  0
ARC
  5
2F391A
330
18
100
AcDbEntity
  8
0
 62
     8
100
AcDbCircle
 10
3138.971778555151
 20
-17337.56951583299
 30
0.0000000000000047
 40
0.521307090722311
100
AcDbArc
 50
352.1840677284693
 51
128.368179805307
  0
LINE
  5
2F391B
330
18
100
AcDbEntity
  8
0
 62
     8
100
AcDbLine
 10
3139.488242736185
 20
-17337.64040893946
 30
0.0000000000000047
 11
3139.599946651942
 21
-17358.85452384956
 31
0.0000000000000047
  0
LINE
  5
2F391C
330
18
100
AcDbEntity
  8
0
 62
     8
100
AcDbLine
 10
3139.599946651942
 20
-17358.85452384956
 30
0.0000000000000047
 11
3144.967004061424
 21
-17355.87005246763
 31
0.0000000000000047
  0
LINE
  5
2F391D
330
18
100
AcDbEntity
  8
0
 62
     8
100
AcDbLine
 10
3144.967004061424
 20
-17355.87005246763
 30
0.0000000000000047
 11
3145.078707657126
 21
-17334.53170494832
 31
0.0000000000000047
  0
ARC
  5
2F391E
330
18
100
AcDbEntity
  8
0
 62
     8
100
AcDbCircle
 10
3146.842046552161
 20
-17334.62289604987
 30
0.0000000000000047
 40
1.765695295270885
100
AcDbArc
 50
121.5273761528461
 51
177.0395850424904
  0
LINE
  5
2F391F
330
18
100
AcDbEntity
  8
0
 62
     8
100
AcDbLine
 10
3145.918754064767
 20
-17333.11783430414
 30
0.0000000000000047
 11
3146.950480206406
 21
-17332.54411917933
 31
0.0000000000000047
  0
LINE
  5
2F3920
330
18
100
AcDbEntity
  8
0
 62
     8
100
AcDbLine
 10
3149.493382425903
 20
-17333.94208795581
 30
0.0000000000000047
 11
3148.78298037756
 21
-17333.51633491291
 31
0.0000000000000047
  0
LINE
  5
2F3921
330
18
100
AcDbEntity
  8
0
 62
     8
100
AcDbLine
 10
3149.493382425903
 20
-17333.94208795581
 30
0.0000000000000047
 11
3149.786985907366
 21
-17350.04405277326
 31
0.0000000000000047
  0
LINE
  5
2F3922
330
18
100
AcDbEntity
  8
0
 62
     8
100
AcDbLine
 10
3137.58541590687
 20
-17356.52353190597
 30
0.0000000000000047
 11
3137.589585979281
 21
-17360.90617510321
 31
0.0000000000000047
  0
LINE
  5
2F3923
330
18
100
AcDbEntity
  8
0
 62
     8
100
AcDbLine
 10
3137.582168439508
 20
-17339.74479883391
 30
0.0000000000000047
 11
3137.582168439508
 21
-17356.52654770337
 31
0.0000000000000047
  0
ELLIPSE
  5
2F3924
330
18
100
AcDbEntity
  8
0
 62
     8
100
AcDbEllipse
 10
3137.613040046029
 20
-17338.79270712484
 30
0.0000000000000047
 11
0.0218318833177173
 21
1.346688256425423
 31
0.0
210
0.0
220
0.0
230
1.0
 40
0.0162084898477639
 41
0.7854920804078854
 42
2.356288407202668
  0
LINE
  5
2F3925
330
18
100
AcDbEntity
  8
0
 62
     8
100
AcDbLine
 10
3137.613040716283
 20
-17337.8402941903
 30
0.0000000000000047
 11
3137.616470827012
 21
-17337.73450610864
 31
0.0000000000000047
  0
ARC
  5
2F3926
330
18
100
AcDbEntity
  8
0
 62
     8
100
AcDbCircle
 10
3146.381235883872
 20
-17366.89165277075
 30
0.0000000000000047
 40
13.59648407987804
100
AcDbArc
 50
130.3096868479783
 51
170.4051588978738
  0
LINE
  5
2F3927
330
18
100
AcDbEntity
  8
0
 62
     8
100
AcDbLine
 10
3140.389496008953
 20
-17338.18054077894
 30
0.0000000000000047
 11
3139.488242736185
 21
-17337.64040893946
 31
0.0000000000000047
  0
LINE
  5
2F3928
330
18
100
AcDbEntity
  8
0
 62
     8
100
AcDbLine
 10
3140.389496008953
 20
-17338.18054077894
 30
0.0000000000000047
 11
3140.846458193849
 21
-17358.1613732543
 31
0.0000000000000047
  0
SPLINE
  5
2F3929
330
18
100
AcDbEntity
  8
0
 62
     8
100
AcDbSpline
210
0.0
220
0.0
230
1.0
 70
     8
 71
     3
 72
    10
 73
     6
 74
     0
 42
0.0000000001
 43
0.0000000001
 40
0.0
 40
0.0
 40
0.0
 40
0.0
 40
0.3187677379394027
 40
0.7585737985626336
 40
1.0
 40
1.0
 40
1.0
 40
1.0
 10
3149.170559419449
 20
-17333.37635899759
 30
0.0000000000000047
 10
3149.230938326433
 20
-17333.41371754415
 30
0.0000000000000047
 10
3149.374622430475
 20
-17333.5026199367
 30
0.0000000000000047
 10
3149.473970879151
 20
-17333.71686773639
 30
0.0000000000000047
 10
3149.488303129303
 20
-17333.88315600621
 30
0.0000000000000047
 10
3149.493382425901
 20
-17333.94208795581
 30
0.0000000000000047
  0
ELLIPSE
  5
2F392A
330
18
100
AcDbEntity
  8
0
 62
     8
100
AcDbEllipse
 10
3139.549550927995
 20
-17338.65339693161
 30
0.0000000000000047
 11
0.5810124705516411
 21
1.011539836823913
 31
0.0
210
0.0
220
0.0
230
1.0
 40
0.6000468517353076
 41
5.50206624913728
 42
6.272058217318869
  0
SPLINE
  5
2F392B
330
18
100
AcDbEntity
  8
0
 62
     8
100
AcDbSpline
210
0.0
220
0.0
230
1.0
 70
     8
 71
     3
 72
     9
 73
     5
 74
     0
 42
0.0000000001
 43
0.0000000001
 40
0.0
 40
0.0
 40
0.0
 40
0.0
 40
0.0620375195868229
 40
1.0
 40
1.0
 40
1.0
 40
1.0
 10
3166.853253907128
 20
-17335.79781841815
 30
0.0000000000000047
 10
3166.845514700785
 20
-17335.77254235449
 30
0.0000000000000047
 10
3166.72076428534
 20
-17335.36511046768
 30
0.0000000000000047
 10
3166.700168106172
 20
-17334.95850185016
 30
0.0000000000000047
 10
3166.680849662873
 20
-17334.57711822271
 30
0.0000000000000047
  0
SPLINE
  5
2F392C
330
18
100
AcDbEntity
  8
0
 62
     8
100
AcDbSpline
210
0.0
220
0.0
230
1.0
 70
     8
 71
     3
 72
    11
 73
     7
 74
     0
 42
0.0000000001
 43
0.0000000001
 40
0.0
 40
0.0
 40
0.0
 40
0.0
 40
0.3411819924860867
 40
0.6841411261552353
 40
0.9122123409034335
 40
1.0
 40
1.0
 40
1.0
 40
1.0
 10
3160.535506295248
 20
-17334.64728853811
 30
0.0000000000000047
 10
3160.505967251285
 20
-17334.93101733993
 30
0.0000000000000047
 10
3160.446735301042
 20
-17335.49995282385
 30
0.0000000000000047
 10
3160.252824872829
 20
-17336.26414341217
 30
0.0000000000000047
 10
3160.06772507068
 20
-17336.81696923233
 30
0.0000000000000047
 10
3159.935595344914
 20
-17337.08047659503
 30
0.0000000000000047
 10
3159.898872110955
 20
-17337.15371403251
 30
0.0000000000000047
  0
SPLINE
  5
2F392D
330
18
100
AcDbEntity
  8
0
 62
     8
100
AcDbSpline
210
0.0
220
0.0
230
1.0
 70
     8
 71
     3
 72
    10
 73
     6
 74
     0
 42
0.0000000001
 43
0.0000000001
 40
0.0
 40
0.0
 40
0.0
 40
0.0
 40
0.0812827176422316
 40
0.5376445050064019
 40
1.0
 40
1.0
 40
1.0
 40
1.0
 10
3157.328913495517
 20
-17337.46240983689
 30
0.0000000000000047
 10
3157.305532658736
 20
-17337.40293419853
 30
0.0000000000000047
 10
3157.150880122718
 20
-17337.00953261118
 30
0.0000000000000047
 10
3157.114562753863
 20
-17336.2034016536
 30
0.0000000000000047
 10
3157.173644274446
 20
-17335.44919067678
 30
0.0000000000000047
 10
3157.203377758529
 20
-17335.06962495376
 30
0.0000000000000047
  0
SPLINE
  5
2F392E
330
18
100
AcDbEntity
  8
0
 62
     8
100
AcDbSpline
210
0.0
220
0.0
230
1.0
 70
     8
 71
     3
 72
     9
 73
     5
 74
     0
 42
0.0000000001
 43
0.0000000001
 40
0.0
 40
0.0
 40
0.0
 40
0.0
 40
0.8974355936668912
 40
1.0
 40
1.0
 40
1.0
 40
1.0
 10
3151.572334644728
 20
-17336.49207189458
 30
0.0000000000000047
 10
3151.500986443279
 20
-17336.78616748178
 30
0.0000000000000047
 10
3151.421484134755
 20
-17337.11387410415
 30
0.0000000000000047
 10
3151.294276472464
 20
-17337.45594764042
 30
0.0000000000000047
 10
3151.2812294941
 20
-17337.49103220959
 30
0.0000000000000047
  0
ARC
  5
2F392F
330
18
100
AcDbEntity
  8
0
 62
     8
100
AcDbCircle
 10
3163.151752047947
 20
-17360.82830654814
 30
0.0000000000000047
 40
31.67535943328337
100
AcDbArc
 50
99.84326190060812
 51
108.8209686704483
  0
LWPOLYLINE
  5
2F3930
330
18
100
AcDbEntity
  8
0
 62
     8
100
AcDbPolyline
 90
        3
 70
   128
 43
0.0
 10
3157.203377758529
 20
-17335.06962495376
 10
3157.306768413882
 20
-17334.26928701335
 10
3157.702873657858
 20
-17331.20333605032
  0
SPLINE
  5
2F3931
330
18
100
AcDbEntity
  8
0
 62
     8
100
AcDbSpline
210
0.0
220
0.0
230
1.0
 70
     8
 71
     3
 72
    10
 73
     6
 74
     0
 42
0.0000000001
 43
0.0000000001
 40
0.0
 40
0.0
 40
0.0
 40
0.0
 40
0.0452582522971969
 40
0.7625049217819193
 40
1.0
 40
1.0
 40
1.0
 40
1.0
 10
3167.384676976702
 20
-17334.14093003369
 30
0.0000000000000047
 10
3167.385334902697
 20
-17334.16629964801
 30
0.0000000000000047
 10
3167.396419550997
 20
-17334.59372348361
 30
0.0000000000000047
 10
3167.414883427311
 20
-17335.15481003834
 30
0.0000000000000047
 10
3167.5162267241
 20
-17335.689665364
 30
0.0000000000000047
 10
3167.541436194887
 20
-17335.82271234526
 30
0.0000000000000047
  0
SPLINE
  5
2F3932
330
18
100
AcDbEntity
  8
0
 62
     8
100
AcDbSpline
210
0.0
220
0.0
230
1.0
 70
     8
 71
     3
 72
    17
 73
    13
 74
     0
 42
0.0000000001
 43
0.0000000001
 40
0.0
 40
0.0
 40
0.0
 40
0.0
 40
0.052378291623049
 40
0.1674160541050814
 40
0.2823260324881651
 40
0.3968524102119033
 40
0.4681077167362821
 40
0.5820337969508785
 40
0.6957990596161827
 40
0.8096074890363563
 40
0.9237658578497043
 40
1.0
 40
1.0
 40
1.0
 40
1.0
 10
3168.989631675933
 20
-17307.44888133472
 30
0.0000000000000047
 10
3168.990949046043
 20
-17307.43311442501
 30
0.0000000000000047
 10
3168.995159739038
 20
-17307.38271885603
 30
0.0000000000000047
 10
3168.937583265354
 20
-17307.30135838743
 30
0.0000000000000047
 10
3168.82653456367
 20
-17307.21934347899
 30
0.0000000000000047
 10
3168.690795522895
 20
-17307.17095644977
 30
0.0000000000000047
 10
3168.540961639179
 20
-17307.1459336399
 30
0.0000000000000047
 10
3168.383047360341
 20
-17307.14518435162
 30
0.0000000000000047
 10
3168.212403740433
 20
-17307.17886654157
 30
0.0000000000000047
 10
3168.071183075533
 20
-17307.24328562639
 30
0.0000000000000047
 10
3167.982181710141
 20
-17307.32139745256
 30
0.0000000000000047
 10
3167.958359792372
 20
-17307.37699400553
 30
0.0000000000000047
 10
3167.948821373785
 20
-17307.39925515172
 30
0.0000000000000047
  0
SPLINE
  5
2F3933
330
18
100
AcDbEntity
  8
0
 62
     8
100
AcDbSpline
210
0.0
220
0.0
230
1.0
 70
     8
 71
     3
 72
    10
 73
     6
 74
     0
 42
0.0000000001
 43
0.0000000001
 40
0.0
 40
0.0
 40
0.0
 40
0.0
 40
0.2145540998741385
 40
0.4962425252317552
 40
1.0
 40
1.0
 40
1.0
 40
1.0
 10
3169.415643064477
 20
-17337.26003646209
 30
0.0000000000000047
 10
3169.446832164835
 20
-17337.11196516565
 30
0.0000000000000047
 10
3169.518969485591
 20
-17336.76949082417
 30
0.0000000000000047
 10
3169.591274165362
 20
-17336.06095034022
 30
0.0000000000000047
 10
3169.571021619466
 20
-17335.48730585258
 30
0.0000000000000047
 10
3169.558032346269
 20
-17335.1193903813
 30
0.0000000000000047
  0
SPLINE
  5
2F3934
330
18
100
AcDbEntity
  8
0
 62
     8
100
AcDbSpline
210
0.0
220
0.0
230
1.0
 70
     8
 71
     3
 72
    10
 73
     6
 74
     0
 42
0.0000000001
 43
0.0000000001
 40
0.0
 40
0.0
 40
0.0
 40
0.0
 40
0.1804746148570465
 40
0.768990004813225
 40
1.0
 40
1.0
 40
1.0
 40
1.0
 10
3157.623806575716
 20
-17335.40601473216
 30
0.0000000000000047
 10
3157.618350815143
 20
-17335.52930111359
 30
0.0000000000000047
 10
3157.595104192055
 20
-17336.05461596253
 30
0.0000000000000047
 10
3157.622287058106
 20
-17336.72524180925
 30
0.0000000000000047
 10
3157.743483686077
 20
-17337.24694714047
 30
0.0000000000000047
 10
3157.777646913907
 20
-17337.39400682678
 30
0.0000000000000047
  0
SPLINE
  5
2F3935
330
18
100
AcDbEntity
  8
0
 62
     8
100
AcDbSpline
210
0.0
220
0.0
230
1.0
 70
     8
 71
     3
 72
    17
 73
    13
 74
     0
 42
0.0000000001
 43
0.0000000001
 40
0.0
 40
0.0
 40
0.0
 40
0.0
 40
0.1080004513523282
 40
0.2246104353940689
 40
0.3411201077777158
 40
0.4572565081364158
 40
0.529566780297548
 40
0.6450367017825604
 40
0.7603568183310026
 40
0.875703428351567
 40
0.9913922555207982
 40
1.0
 40
1.0
 40
1.0
 40
1.0
 10
3159.25258428584
 20
-17307.4985405805
 30
0.0000000000000047
 10
3159.235736541718
 20
-17307.46785947221
 30
0.0000000000000047
 10
3159.200697992382
 20
-17307.40405143246
 30
0.0000000000000047
 10
3159.082998452447
 20
-17307.32580339441
 30
0.0000000000000047
 10
3158.927125096926
 20
-17307.27237448838
 30
0.0000000000000047
 10
3158.770855911384
 20
-17307.25488502646
 30
0.0000000000000047
 10
3158.615254006602
 20
-17307.26228777469
 30
0.0000000000000047
 10
3158.467396630071
 20
-17307.29402437968
 30
0.0000000000000047
 10
3158.32778480952
 20
-17307.36056235483
 30
0.0000000000000047
 10
3158.238463556655
 20
-17307.4497215226
 30
0.0000000000000047
 10
3158.20318166759
 20
-17307.52078550531
 30
0.0000000000000047
 10
3158.20940877479
 20
-17307.55737213951
 30
0.0000000000000047
 10
3158.209840012329
 20
-17307.55990582483
 30
0.0000000000000047
  0
SPLINE
  5
2F3936
330
18
100
AcDbEntity
  8
0
 62
     8
100
AcDbSpline
210
0.0
220
0.0
230
1.0
 70
     8
 71
     3
 72
    11
 73
     7
 74
     0
 42
0.0000000001
 43
0.0000000001
 40
0.0
 40
0.0
 40
0.0
 40
0.0
 40
0.1605292535223311
 40
0.3693716106475216
 40
0.9987833931395371
 40
1.0
 40
1.0
 40
1.0
 40
1.0
 10
3159.346534668793
 20
-17337.19659205308
 30
0.0000000000000047
 10
3159.396176761845
 20
-17337.03787386756
 30
0.0000000000000047
 10
3159.510401300143
 20
-17336.67266945439
 30
0.0000000000000047
 10
3159.709124544227
 20
-17335.68324541647
 30
0.0000000000000047
 10
3159.790951521957
 20
-17334.85138555647
 30
0.0000000000000047
 10
3159.812308307996
 20
-17334.22859443559
 30
0.0000000000000047
 10
3159.812349509459
 20
-17334.22739294837
 30
0.0000000000000047
  0
LINE
  5
2F3937
330
18
100
AcDbEntity
  8
0
 62
     8
100
AcDbLine
 10
3176.056821356069
 20
-17337.24607625282
 30
0.0000000000000047
 11
3175.763374913763
 21
-17336.21585079855
 31
0.0000000000000047
  0
SPLINE
  5
2F3938
330
18
100
AcDbEntity
  8
0
 62
     8
100
AcDbSpline
210
0.0
220
0.0
230
1.0
 70
     8
 71
     3
 72
    11
 73
     7
 74
     0
 42
0.0000000001
 43
0.0000000001
 40
0.0
 40
0.0
 40
0.0
 40
0.0
 40
0.3430202025687692
 40
0.6878271063725229
 40
0.9171271090963134
 40
1.0
 40
1.0
 40
1.0
 40
1.0
 10
3170.039302741848
 20
-17334.92305955281
 30
0.0000000000000047
 10
3170.062765298975
 20
-17335.20609324277
 30
0.0000000000000047
 10
3170.10981262346
 20
-17335.77363487009
 30
0.0000000000000047
 10
3170.0584805284
 20
-17336.50962969081
 30
0.0000000000000047
 10
3169.977720506042
 20
-17337.02767809909
 30
0.0000000000000047
 10
3169.895679827375
 20
-17337.26240415396
 30
0.0000000000000047
 10
3169.873900395685
 20
-17337.32471714505
 30
0.0000000000000047
  0
LWPOLYLINE
  5
2F3939
330
18
100
AcDbEntity
  8
0
 62
     8
100
AcDbPolyline
 90
        4
 70
   128
 43
0.0
 10
3169.476402709395
 20
-17329.86628772049
 10
3169.519742956459
 20
-17330.25557025677
 10
3169.875135372103
 20
-17333.44814038193
 10
3170.03930274185
 20
-17334.92305955281
  0
SPLINE
  5
2F393A
330
18
100
AcDbEntity
  8
0
 62
     8
100
AcDbSpline
210
0.0
220
0.0
230
1.0
 70
     8
 71
     3
 72
    10
 73
     6
 74
     0
 42
0.0000000001
 43
0.0000000001
 40
0.0
 40
0.0
 40
0.0
 40
0.0
 40
0.0513860117445032
 40
0.8657451265265299
 40
1.0
 40
1.0
 40
1.0
 40
1.0
 10
3176.606019295289
 20
-17335.95724322091
 30
0.0000000000000047
 10
3176.609287985606
 20
-17335.98306431878
 30
0.0000000000000047
 10
3176.664358472989
 20
-17336.41809496003
 30
0.0000000000000047
 10
3176.727101605
 20
-17336.92080987142
 30
0.0000000000000047
 10
3176.853603332384
 20
-17337.41330765765
 30
0.0000000000000047
 10
3176.871506793236
 20
-17337.48300958994
 30
0.0000000000000047
  0
SPLINE
  5
2F393B
330
18
100
AcDbEntity
  8
0
 62
     8
100
AcDbSpline
210
0.0
220
0.0
230
1.0
 70
     8
 71
     3
 72
    16
 73
    12
 74
     0
 42
0.0000000001
 43
0.0000000001
 40
0.0
 40
0.0
 40
0.0
 40
0.0
 40
0.0321412821698472
 40
0.164701684485324
 40
0.2968314811381258
 40
0.3790789234082081
 40
0.5104730503971381
 40
0.6416896844972332
 40
0.77294634624639
 40
0.9045948675446757
 40
1.0
 40
1.0
 40
1.0
 40
1.0
 10
3178.056726122647
 20
-17309.49572504562
 30
0.0000000000000047
 10
3178.058230596692
 20
-17309.48739403965
 30
0.0000000000000047
 10
3178.065939978296
 20
-17309.44470343666
 30
0.0000000000000047
 10
3178.019550440201
 20
-17309.36865992759
 30
0.0000000000000047
 10
3177.932829744337
 20
-17309.29314747472
 30
0.0000000000000047
 10
3177.812060981283
 20
-17309.23553065502
 30
0.0000000000000047
 10
3177.668146083756
 20
-17309.19837139804
 30
0.0000000000000047
 10
3177.48843711158
 20
-17309.18981261947
 30
0.0000000000000047
 10
3177.314584742319
 20
-17309.21623832512
 30
0.0000000000000047
 10
3177.176044714622
 20
-17309.26832186308
 30
0.0000000000000047
 10
3177.114806338199
 20
-17309.31584835176
 30
0.0000000000000047
 10
3177.089074731076
 20
-17309.33581839352
 30
0.0000000000000047
  0
SPLINE
  5
2F393C
330
18
100
AcDbEntity
  8
0
 62
     8
100
AcDbSpline
210
0.0
220
0.0
230
1.0
 70
     8
 71
     3
 72
    10
 73
     6
 74
     0
 42
0.0000000001
 43
0.0000000001
 40
0.0
 40
0.0
 40
0.0
 40
0.0
 40
0.4644852707121896
 40
0.9313902619573379
 40
1.0
 40
1.0
 40
1.0
 40
1.0
 10
3144.514350104993
 20
-17340.17656010364
 30
0.0000000000000047
 10
3144.398657971676
 20
-17340.49545087699
 30
0.0000000000000047
 10
3144.166671010735
 20
-17341.13489367456
 30
0.0000000000000047
 10
3143.877164209305
 20
-17341.85212017604
 30
0.0000000000000047
 10
3143.694775000519
 20
-17342.25445168822
 30
0.0000000000000047
 10
3143.671407434413
 20
-17342.30599809422
 30
0.0000000000000047
  0
LINE
  5
2F393D
330
18
100
AcDbEntity
  8
0
 62
     8
100
AcDbLine
 10
3145.057310431807
 20
-17338.61911113014
 30
0.0000000000000047
 11
3144.514350104993
 21
-17340.17656010364
 31
0.0000000000000047
  0
LINE
  5
2F393E
330
18
100
AcDbEntity
  8
0
 62
     8
100
AcDbLine
 10
3148.801451788413
 20
-17332.68863069988
 30
0.0000000000000047
 11
3148.421170053192
 21
-17332.9102596034
 31
0.0000000000000047
  0
SPLINE
  5
2F393F
330
18
100
AcDbEntity
  8
0
 62
     8
100
AcDbSpline
210
0.0
220
0.0
230
1.0
 70
     8
 71
     3
 72
     9
 73
     5
 74
     0
 42
0.0000000001
 43
0.0000000001
 40
0.0
 40
0.0
 40
0.0
 40
0.0
 40
0.9974734977909198
 40
0.9999999999999998
 40
0.9999999999999998
 40
0.9999999999999998
 40
0.9999999999999998
 10
3150.441956546988
 20
-17337.73169365691
 30
0.0000000000000047
 10
3150.549693424547
 20
-17337.23588501452
 30
0.0000000000000047
 10
3150.657703189014
 20
-17336.73882053765
 30
0.0000000000000047
 10
3150.722469683367
 20
-17336.25401311919
 30
0.0000000000000047
 10
3150.722633316058
 20
-17336.25278825217
 30
0.0000000000000047
  0
SPLINE
  5
2F3940
330
18
100
AcDbEntity
  8
0
 62
     8
100
AcDbSpline
210
0.0
220
0.0
230
1.0
 70
     8
 71
     3
 72
    16
 73
    12
 74
     0
 42
0.0000000001
 43
0.0000000001
 40
0.0
 40
0.0
 40
0.0
 40
0.0
 40
0.0026269898086428
 40
0.1371641186458036
 40
0.2719354259475842
 40
0.4065546738102873
 40
0.5407236719333348
 40
0.6241954387814853
 40
0.7576657067677033
 40
0.890946154045703
 40
0.9999999999999998
 40
0.9999999999999998
 40
0.9999999999999998
 40
0.9999999999999998
 10
3150.252121596349
 20
-17309.64224162203
 30
0.0000000000000047
 10
3150.251455786692
 20
-17309.64169074231
 30
0.0000000000000047
 10
3150.216691588302
 20
-17309.61292742877
 30
0.0000000000000047
 10
3150.129789053445
 20
-17309.56255828844
 30
0.0000000000000047
 10
3149.965764483094
 20
-17309.51704108418
 30
0.0000000000000047
 10
3149.785008204619
 20
-17309.50563910718
 30
0.0000000000000047
 10
3149.630516866765
 20
-17309.52672637799
 30
0.0000000000000047
 10
3149.49379360474
 20
-17309.57039053972
 30
0.0000000000000047
 10
3149.382657722837
 20
-17309.63450107939
 30
0.0000000000000047
 10
3149.303548769087
 20
-17309.72225590669
 30
0.0000000000000047
 10
3149.297602460317
 20
-17309.78463473656
 30
0.0000000000000047
 10
3149.294926537599
 20
-17309.81270608879
 30
0.0000000000000047
  0
LINE
  5
2F3941
330
18
100
AcDbEntity
  8
0
 62
     8
100
AcDbLine
 10
3178.658218954806
 20
-17337.37038024432
 30
0.0000000000000047
 11
3178.824661898758
 21
-17338.09476453179
 31
0.0000000000000047
  0
SPLINE
  5
2F3942
330
18
100
AcDbEntity
  8
0
 62
     8
100
AcDbSpline
210
0.0
220
0.0
230
1.0
 70
     8
 71
     3
 72
     9
 73
     5
 74
     0
 42
0.0000000001
 43
0.0000000001
 40
0.0
 40
0.0
 40
0.0
 40
0.0
 40
0.3950408300494606
 40
1.0
 40
1.0
 40
1.0
 40
1.0
 10
3183.942844995574
 20
-17341.92861055004
 30
0.0000000000000047
 10
3183.807148274326
 20
-17341.62659194041
 30
0.0000000000000047
 10
3183.463647777857
 20
-17340.86206689221
 30
0.0000000000000047
 10
3183.217268594486
 20
-17340.16066129365
 30
0.0000000000000047
 10
3183.068219248223
 20
-17339.73633954494
 30
0.0000000000000047
  0
ARC
  5
2F3943
330
18
100
AcDbEntity
  8
0
 62
     8
100
AcDbCircle
 10
3169.500949786618
 20
-17350.0090010052
 30
0.0000000000000047
 40
19.93605609319068
100
AcDbArc
 50
54.69177837619611
 51
63.00999447866295
  0
LINE
  5
2F3944
330
18
100
AcDbEntity
  8
0
 62
     8
100
AcDbLine
 10
3166.846483300405
 20
-17328.77253405396
 30
0.0000000000000047
 11
3166.879204627912
 21
-17328.66542947826
 31
0.0000000000000047
  0
LINE
  5
2F3945
330
18
100
AcDbEntity
  8
0
 62
     8
100
AcDbLine
 10
3160.468116013289
 20
-17328.73863334675
 30
0.0000000000000047
 11
3160.525667450637
 21
-17328.89141760545
 31
0.0000000000000047
  0
LWPOLYLINE
  5
2F3946
330
18
100
AcDbEntity
  8
0
 62
     8
100
AcDbPolyline
 90
        3
 70
   128
 43
0.0
 10
3177.089076011287
 20
-17309.33573043218
 10
3172.761678954849
 20
-17313.93110820049
 10
3169.216223817754
 20
-17317.69611885596
  0
LINE
  5
2F3947
330
18
100
AcDbEntity
  8
0
 62
     8
100
AcDbLine
 10
3174.411759368085
 20
-17330.44630941532
 30
0.0000000000000047
 11
3174.680710048866
 21
-17330.20261648783
 31
0.0000000000000047
  0
LWPOLYLINE
  5
2F3948
330
18
100
AcDbEntity
  8
0
 62
     8
100
AcDbPolyline
 90
        3
 70
   128
 43
0.0
 10
3158.001679541494
 20
-17317.22635712103
 10
3154.50304410364
 20
-17313.80237175344
 10
3150.252130344454
 20
-17309.64216166706
  0
LINE
  5
2F3949
330
18
100
AcDbEntity
  8
0
 62
     8
100
AcDbLine
 10
3152.778006830831
 20
-17330.45270897075
 30
0.0000000000000047
 11
3153.06190845021
 21
-17330.68879867702
 31
0.0000000000000047
  0
SPLINE
  5
2F394A
330
18
100
AcDbEntity
  8
0
 62
     8
100
AcDbSpline
210
0.0
220
0.0
230
1.0
 70
     8
 71
     3
 72
    10
 73
     6
 74
     0
 42
0.0000000001
 43
0.0000000001
 40
0.0
 40
0.0
 40
0.0
 40
0.0
 40
0.0308834798740525
 40
0.5203216249854571
 40
0.9999999999999998
 40
0.9999999999999998
 40
0.9999999999999998
 40
0.9999999999999998
 10
3183.921397628674
 20
-17339.67246198304
 30
0.0000000000000047
 10
3183.92676396225
 20
-17339.69926980728
 30
0.0000000000000047
 10
3184.017175386663
 20
-17340.15092521415
 30
0.0000000000000047
 10
3184.208086714193
 20
-17341.0293173639
 30
0.0000000000000047
 10
3184.467310920411
 20
-17341.92498705695
 30
0.0000000000000047
 10
3184.595617727095
 20
-17342.36831185226
 30
0.0000000000000047
  0
SPLINE
  5
2F394B
330
18
100
AcDbEntity
  8
0
 62
     8
100
AcDbSpline
210
0.0
220
0.0
230
1.0
 70
     8
 71
     3
 72
    15
 73
    11
 74
     0
 42
0.0000000001
 43
0.0000000001
 40
0.0
 40
0.0
 40
0.0
 40
0.0
 40
0.0232795299997066
 40
0.1792955958754496
 40
0.2763594158097933
 40
0.4315634643279979
 40
0.5865463929797951
 40
0.7415907599906308
 40
0.8971119945115571
 40
1.0
 40
1.0
 40
1.0
 40
1.0
 10
3185.076374758254
 20
-17313.38968875366
 30
0.0000000000000047
 10
3185.077493961941
 20
-17313.38460264048
 30
0.0000000000000047
 10
3185.086113907945
 20
-17313.34543012744
 30
0.0000000000000047
 10
3185.050624751783
 20
-17313.28477284135
 30
0.0000000000000047
 10
3184.977832848312
 20
-17313.20605608039
 30
0.0000000000000047
 10
3184.865913643966
 20
-17313.14119309818
 30
0.0000000000000047
 10
3184.704304402033
 20
-17313.09559610592
 30
0.0000000000000047
 10
3184.525675106882
 20
-17313.08377654252
 30
0.0000000000000047
 10
3184.367823789514
 20
-17313.10290187292
 30
0.0000000000000047
 10
3184.283426574025
 20
-17313.13245359278
 30
0.0000000000000047
 10
3184.249823049746
 20
-17313.14421988068
 30
0.0000000000000047
  0
SPLINE
  5
2F394C
330
18
100
AcDbEntity
  8
0
 62
     8
100
AcDbSpline
210
0.0
220
0.0
230
1.0
 70
     8
 71
     3
 72
    10
 73
     6
 74
     0
 42
0.0000000001
 43
0.0000000001
 40
0.0
 40
0.0
 40
0.0
 40
0.0
 40
0.2151446928751545
 40
0.9984858511494834
 40
1.0
 40
1.0
 40
1.0
 40
1.0
 10
3143.011936001329
 20
-17342.74704143901
 30
0.0000000000000047
 10
3143.069129358428
 20
-17342.55303308285
 30
0.0000000000000047
 10
3143.334563551021
 20
-17341.65264090471
 30
0.0000000000000047
 10
3143.532062775954
 20
-17340.79356391081
 30
0.0000000000000047
 10
3143.667201967493
 20
-17340.13336906222
 30
0.0000000000000047
 10
3143.667462679055
 20
-17340.13209540929
 30
0.0000000000000047
  0
SPLINE
  5
2F394D
330
18
100
AcDbEntity
  8
0
 62
     8
100
AcDbSpline
210
0.0
220
0.0
230
1.0
 70
     8
 71
     3
 72
    14
 73
    10
 74
     0
 42
0.0000000001
 43
0.0000000001
 40
0.0
 40
0.0
 40
0.0
 40
0.0
 40
0.152461139269296
 40
0.3120866573981317
 40
0.471560390687323
 40
0.6305164836059911
 40
0.7294628388281046
 40
0.8875330079385125
 40
1.0
 40
1.0
 40
1.0
 40
1.0
 10
3143.357837362887
 20
-17313.61113159257
 30
0.0000000000000047
 10
3143.306809975587
 20
-17313.59589582041
 30
0.0000000000000047
 10
3143.202357347103
 20
-17313.56470832418
 30
0.0000000000000047
 10
3143.021644125827
 20
-17313.55833662302
 30
0.0000000000000047
 10
3142.846820737919
 20
-17313.58512179098
 30
0.0000000000000047
 10
3142.71554037183
 20
-17313.63725942705
 30
0.0000000000000047
 10
3142.616914146334
 20
-17313.70657145296
 30
0.0000000000000047
 10
3142.554313790538
 20
-17313.78062199242
 30
0.0000000000000047
 10
3142.551918547634
 20
-17313.83939302842
 30
0.0000000000000047
 10
3142.550922803598
 20
-17313.86382516784
 30
0.0000000000000047
  0
SPLINE
  5
2F394E
330
18
100
AcDbEntity
  8
0
 62
     8
100
AcDbSpline
210
0.0
220
0.0
230
1.0
 70
     8
 71
     3
 72
    10
 73
     6
 74
     0
 42
0.0000000001
 43
0.0000000001
 40
0.0
 40
0.0
 40
0.0
 40
0.0
 40
0.1643342598990414
 40
0.6774202342847705
 40
1.0
 40
1.0
 40
1.0
 40
1.0
 10
3186.106281934109
 20
-17341.20202585913
 30
0.0000000000000047
 10
3186.135237999716
 20
-17341.27054214673
 30
0.0000000000000047
 10
3186.254600966142
 20
-17341.55298063293
 30
0.0000000000000047
 10
3186.418366249208
 20
-17341.95424239974
 30
0.0000000000000047
 10
3186.539452466474
 20
-17342.26292740658
 30
0.0000000000000047
 10
3186.586193599588
 20
-17342.38208454371
 30
0.0000000000000047
  0
SPLINE
  5
2F394F
330
18
100
AcDbEntity
  8
0
 62
     8
100
AcDbSpline
210
0.0
220
0.0
230
1.0
 70
     8
 71
     3
 72
     9
 73
     5
 74
     0
 42
0.0000000001
 43
0.0000000001
 40
0.0
 40
0.0
 40
0.0
 40
0.0
 40
0.6405815542127204
 40
1.0
 40
1.0
 40
1.0
 40
1.0
 10
3185.961787559479
 20
-17342.70091562907
 30
0.0000000000000047
 10
3185.901729890366
 20
-17342.61102923724
 30
0.0000000000000047
 10
3185.807974975452
 20
-17342.47070925579
 30
0.0000000000000047
 10
3185.726736910786
 20
-17342.3201476434
 30
0.0000000000000047
 10
3185.697538451846
 20
-17342.26603302268
 30
0.0000000000000047
  0
SPLINE
  5
2F3950
330
18
100
AcDbEntity
  8
0
 62
     8
100
AcDbSpline
210
0.0
220
0.0
230
1.0
 70
     8
 71
     3
 72
     9
 73
     5
 74
     0
 42
0.0000000001
 43
0.0000000001
 40
0.0
 40
0.0
 40
0.0
 40
0.0
 40
0.3969381720750261
 40
1.0
 40
1.0
 40
1.0
 40
1.0
 10
3185.653759092573
 20
-17340.21825927527
 30
0.0000000000000047
 10
3185.718670615437
 20
-17340.34798803548
 30
0.0000000000000047
 10
3185.882201178714
 20
-17340.67481163001
 30
0.0000000000000047
 10
3186.021984156196
 20
-17341.00369116536
 30
0.0000000000000047
 10
3186.106281934109
 20
-17341.20202585913
 30
0.0000000000000047
  0
LWPOLYLINE
  5
2F3951
330
18
100
AcDbEntity
  8
0
 62
     8
100
AcDbPolyline
 90
        3
 70
   128
 43
0.0
 10
3186.623236917822
 20
-17342.36581023099
 10
3185.653171902679
 20
-17339.84288149549
 10
3185.645296901012
 20
-17339.82240085906
  0
LINE
  5
2F3952
330
18
100
AcDbEntity
  8
0
 62
     8
100
AcDbLine
 10
3184.249824329955
 20
-17313.14413191934
 30
0.0000000000000047
 11
3178.205861047057
 21
-17316.21085069175
 31
0.0000000000000047
  0
LINE
  5
2F3953
330
18
100
AcDbEntity
  8
0
 62
     8
100
AcDbLine
 10
3180.674591069347
 20
-17333.42501269829
 30
0.0000000000000047
 11
3180.869360378079
 21
-17333.34628898998
 31
0.0000000000000047
  0
SPLINE
  5
2F3954
330
18
100
AcDbEntity
  8
0
 62
     8
100
AcDbSpline
210
0.0
220
0.0
230
1.0
 70
     8
 71
     3
 72
    10
 73
     6
 74
     0
 42
0.0000000001
 43
0.0000000001
 40
0.0
 40
0.0
 40
0.0
 40
0.0
 40
0.3954091164252024
 40
0.9101538507216826
 40
1.0
 40
1.0
 40
1.0
 40
1.0
 10
3166.375839505645
 20
-17329.14274025743
 30
0.0000000000000047
 10
3166.372562458926
 20
-17329.11261289332
 30
0.0000000000000047
 10
3166.36501934329
 20
-17329.04326563926
 30
0.0000000000000047
 10
3166.347117727279
 20
-17328.99897364251
 30
0.0000000000000047
 10
3166.33021092955
 20
-17329.00925507574
 30
0.0000000000000047
 10
3166.327698469117
 20
-17329.01078296379
 30
0.0000000000000047
  0
SPLINE
  5
2F3955
330
18
100
AcDbEntity
  8
0
 62
     8
100
AcDbSpline
210
0.0
220
0.0
230
1.0
 70
     8
 71
     3
 72
     9
 73
     5
 74
     0
 42
0.0000000001
 43
0.0000000001
 40
0.0
 40
0.0
 40
0.0
 40
0.0
 40
0.4850978919895425
 40
1.0
 40
1.0
 40
1.0
 40
1.0
 10
3160.999425570866
 20
-17329.06841971315
 30
0.0000000000000047
 10
3160.985987079635
 20
-17329.07429706761
 30
0.0000000000000047
 10
3160.95828444177
 20
-17329.08641287879
 30
0.0000000000000047
 10
3160.947907070564
 20
-17329.16454774141
 30
0.0000000000000047
 10
3160.942563740252
 20
-17329.20477954689
 30
0.0000000000000047
  0
LINE
  5
2F3956
330
18
100
AcDbEntity
  8
0
 62
     8
100
AcDbLine
 10
3141.960849022572
 20
-17341.18032152316
 30
0.0000000000000047
 11
3141.564539371649
 21
-17342.20944176361
 31
0.0000000000000047
  0
SPLINE
  5
2F3957
330
18
100
AcDbEntity
  8
0
 62
     8
100
AcDbSpline
210
0.0
220
0.0
230
1.0
 70
     8
 71
     3
 72
     9
 73
     5
 74
     0
 42
0.0000000001
 43
0.0000000001
 40
0.0
 40
0.0
 40
0.0
 40
0.0
 40
0.4252053560911583
 40
1.0
 40
1.0
 40
1.0
 40
1.0
 10
3153.057846982325
 20
-17330.69737032611
 30
0.0000000000000047
 10
3153.032756224567
 20
-17330.70656483823
 30
0.0000000000000047
 10
3152.973747659886
 20
-17330.72818853602
 30
0.0000000000000047
 10
3152.947807449188
 20
-17330.80337310151
 30
0.0000000000000047
 10
3152.932897155019
 20
-17330.84658878706
 30
0.0000000000000047
  0
LWPOLYLINE
  5
2F3958
330
18
100
AcDbEntity
  8
0
 62
     8
100
AcDbPolyline
 90
        3
 70
   128
 43
0.0
 10
3160.496201271755
 20
-17328.88197030332
 10
3160.482144560207
 20
-17328.83877588242
 10
3160.468116013289
 20
-17328.73863334675
  0
SPLINE
  5
2F3959
330
18
100
AcDbEntity
  8
0
 62
     8
100
AcDbSpline
210
0.0
220
0.0
230
1.0
 70
     8
 71
     3
 72
     9
 73
     5
 74
     0
 42
0.0000000001
 43
0.0000000001
 40
0.0
 40
0.0
 40
0.0
 40
0.0
 40
0.4349648084329853
 40
1.0
 40
1.0
 40
1.0
 40
1.0
 10
3174.491702540962
 20
-17330.60042287577
 30
0.0000000000000047
 10
3174.481270510502
 20
-17330.56725130092
 30
0.0000000000000047
 10
3174.457286891005
 20
-17330.49098863736
 30
0.0000000000000047
 10
3174.403742414667
 20
-17330.46260236681
 30
0.0000000000000047
 10
3174.373487901221
 20
-17330.44656312499
 30
0.0000000000000047
  0
LINE
  5
2F395A
330
18
100
AcDbEntity
  8
0
 62
     8
100
AcDbLine
 10
3143.666642064108
 20
-17340.13249313384
 30
0.0000000000000047
 11
3145.070465021672
 21
-17336.10634538743
 31
0.0000000000000047
  0
LINE
  5
2F395B
330
18
100
AcDbEntity
  8
0
 62
     8
100
AcDbLine
 10
3149.150891971914
 20
-17316.34317280532
 30
0.0000000000000047
 11
3143.35785059173
 21
-17313.61104905093
 31
0.0000000000000047
  0
ARC
  5
2F395C
330
18
100
AcDbEntity
  8
0
 62
     8
100
AcDbCircle
 10
3174.322180147642
 20
-17330.21270782021
 30
0.0000000000000047
 40
0.3586718905363076
100
AcDbArc
 50
313.4416153164896
 51
1.612245283254673
  0
SPLINE
  5
2F395D
330
18
100
AcDbEntity
  8
0
 62
     8
100
AcDbSpline
210
0.0
220
0.0
230
1.0
 70
     8
 71
     3
 72
    13
 73
     9
 74
     0
 42
0.0000000001
 43
0.0000000001
 40
0.0
 40
0.0
 40
0.0
 40
0.0
 40
0.0651599743035831
 40
0.605171589045063
 40
0.6889528091710093
 40
0.917420283561803
 40
0.9419664785354463
 40
1.0
 40
1.0
 40
1.0
 40
1.0
 10
3185.981704648066
 20
-17342.62785923057
 30
0.0000000000000047
 10
3185.980036099674
 20
-17342.58223965151
 30
0.0000000000000047
 10
3185.964539499298
 20
-17342.15854898187
 30
0.0000000000000047
 10
3185.945977769602
 20
-17341.67422203418
 30
0.0000000000000047
 10
3185.856506304898
 20
-17341.05100181247
 30
0.0000000000000047
 10
3185.790774945179
 20
-17340.78891491457
 30
0.0000000000000047
 10
3185.70665079244
 20
-17340.54112698854
 30
0.0000000000000047
 10
3185.678231401576
 20
-17340.4751344024
 30
0.0000000000000047
 10
3185.6582594593
 20
-17340.42875761245
 30
0.0000000000000047
  0
ARC
  5
2F395E
330
18
100
AcDbEntity
  8
0
 62
     8
100
AcDbCircle
 10
3153.128429447806
 20
-17330.46570408909
 30
0.0000000000000047
 40
0.3506634905265753
100
AcDbArc
 50
177.8762090011456
 51
229.3474340531829
  0
SPLINE
  5
2F395F
330
18
100
AcDbEntity
  8
0
 62
     8
100
AcDbSpline
210
0.0
220
0.0
230
1.0
 70
     8
 71
     3
 72
     9
 73
     5
 74
     0
 42
0.0000000001
 43
0.0000000001
 40
0.0
 40
0.0
 40
0.0
 40
0.0
 40
0.6029940234708669
 40
1.0
 40
1.0
 40
1.0
 40
1.0
 10
3181.023486416586
 20
-17333.74008948162
 30
0.0000000000000047
 10
3181.008264081156
 20
-17333.70288849051
 30
0.0000000000000047
 10
3180.983019493588
 20
-17333.64119469311
 30
0.0000000000000047
 10
3180.927487355388
 20
-17333.60810948357
 30
0.0000000000000047
 10
3180.905440764632
 20
-17333.59497445765
 30
0.0000000000000047
  0
LINE
  5
2F3960
330
18
100
AcDbEntity
  8
0
 62
     8
100
AcDbLine
 10
3188.340906472384
 20
-17318.24457796558
 30
0.0000000000000047
 11
3185.198430029567
 21
-17318.91973702099
 31
0.0000000000000047
  0
LINE
  5
2F3961
330
18
100
AcDbEntity
  8
0
 62
     8
100
AcDbLine
 10
3188.222976892853
 20
-17343.43010818362
 30
0.0000000000000047
 11
3188.340905618912
 21
-17318.24466518787
 31
0.0000000000000047
  0
LINE
  5
2F3962
330
18
100
AcDbEntity
  8
0
 62
     8
100
AcDbLine
 10
3185.711051927395
 20
-17338.20150223485
 30
0.0000000000000047
 11
3187.490355937402
 21
-17342.82897855524
 31
0.0000000000000047
  0
LINE
  5
2F3963
330
18
100
AcDbEntity
  8
0
 62
     8
100
AcDbLine
 10
3185.711051927395
 20
-17338.20150223485
 30
0.0000000000000047
 11
3185.606856446359
 21
-17338.0243324658
 31
0.0000000000000047
  0
SPLINE
  5
2F3964
330
18
100
AcDbEntity
  8
0
 62
     8
100
AcDbSpline
210
0.0
220
0.0
230
1.0
 70
     8
 71
     3
 72
    11
 73
     7
 74
     0
 42
0.0000000001
 43
0.0000000001
 40
0.0
 40
0.0
 40
0.0
 40
0.0
 40
0.0404798919325135
 40
0.116016181279318
 40
0.4329020858749317
 40
1.0
 40
1.0
 40
1.0
 40
1.0
 10
3185.667115955701
 20
-17340.84300470823
 30
0.0000000000000047
 10
3185.678645697207
 20
-17340.86887773062
 30
0.0000000000000047
 10
3185.711690167352
 20
-17340.94303033113
 30
0.0000000000000047
 10
3185.810413666377
 20
-17341.22263344515
 30
0.0000000000000047
 10
3185.948232230134
 20
-17341.8137464095
 30
0.0000000000000047
 10
3185.96217929889
 20
-17342.30936051347
 30
0.0000000000000047
 10
3185.971126695247
 20
-17342.62730946074
 30
0.0000000000000047
  0
SPLINE
  5
2F3965
330
18
100
AcDbEntity
  8
0
 62
     8
100
AcDbSpline
210
0.0
220
0.0
230
1.0
 70
     8
 71
     3
 72
    13
 73
     9
 74
     0
 42
0.0000000001
 43
0.0000000001
 40
0.0
 40
0.0
 40
0.0
 40
0.0
 40
0.0990561063683494
 40
0.2885327338921953
 40
0.4777617190842926
 40
0.6670370304962276
 40
0.8568709093325495
 40
0.9999999999999998
 40
0.9999999999999998
 40
0.9999999999999998
 40
0.9999999999999998
 10
3188.980849574145
 20
-17318.53802200319
 30
0.0000000000000047
 10
3188.979475242965
 20
-17318.52018315102
 30
0.0000000000000047
 10
3188.975472061871
 20
-17318.46822176291
 30
0.0000000000000047
 10
3188.91953696072
 20
-17318.38623848582
 30
0.0000000000000047
 10
3188.805534601503
 20
-17318.30621408784
 30
0.0000000000000047
 10
3188.651126562718
 20
-17318.25313068194
 30
0.0000000000000047
 10
3188.488347353296
 20
-17318.23230637227
 30
0.0000000000000047
 10
3188.385231502778
 20
-17318.2409497173
 30
0.0000000000000047
 10
3188.340905618912
 20
-17318.24466518787
 30
0.0000000000000047
  0
SPLINE
  5
2F3966
330
18
100
AcDbEntity
  8
0
 62
     8
100
AcDbSpline
210
0.0
220
0.0
230
1.0
 70
     8
 71
     3
 72
    14
 73
    10
 74
     0
 42
0.0000000001
 43
0.0000000001
 40
0.0
 40
0.0
 40
0.0
 40
0.0
 40
0.0026023547085645
 40
0.1980437896092304
 40
0.3938286946000127
 40
0.5893973121094835
 40
0.7843146581221225
 40
0.9055848482056047
 40
1.0
 40
1.0
 40
1.0
 40
1.0
 10
3139.619323491689
 20
-17318.80098295711
 30
0.0000000000000047
 10
3139.61854411968
 20
-17318.80090180871
 30
0.0000000000000047
 10
3139.559232533292
 20
-17318.79472627133
 30
0.0000000000000047
 10
3139.436657643219
 20
-17318.79438008838
 30
0.0000000000000047
 10
3139.265293960065
 20
-17318.82886738879
 30
0.0000000000000047
 10
3139.122835071756
 20
-17318.89434518824
 30
0.0000000000000047
 10
3139.041434479616
 20
-17318.97225203508
 30
0.0000000000000047
 10
3139.001467185901
 20
-17319.0418527339
 30
0.0000000000000047
 10
3139.004441394117
 20
-17319.07997056352
 30
0.0000000000000047
 10
3139.005743338503
 20
-17319.09665644787
 30
0.0000000000000047
  0
LINE
  5
2F3967
330
18
100
AcDbEntity
  8
0
 62
     8
100
AcDbLine
 10
3139.68993649027
 20
-17337.37769981425
 30
0.0000000000000047
 11
3139.619323491689
 21
-17318.80098295711
 31
0.0000000000000047
  0
ARC
  5
2F3968
330
18
100
AcDbEntity
  8
0
 62
     8
100
AcDbCircle
 10
3180.427816451935
 20
-17333.35950013489
 30
0.0000000000000047
 40
0.4417415229120651
100
AcDbArc
 50
336.4459472764349
 51
1.713797979702172
  0
LINE
  5
2F3969
330
18
100
AcDbEntity
  8
0
 62
     8
100
AcDbLine
 10
3140.647384603968
 20
-17342.86704190047
 30
0.0000000000000047
 11
3141.999871546275
 21
-17339.35498818959
 31
0.0000000000000047
  0
LINE
  5
2F396A
330
18
100
AcDbEntity
  8
0
 62
     8
100
AcDbLine
 10
3142.427853605552
 20
-17319.33568640413
 30
0.0000000000000047
 11
3139.619337147268
 21
-17318.80089622753
 31
0.0000000000000047
  0
LINE
  5
2F396B
330
18
100
AcDbEntity
  8
0
 62
     8
100
AcDbLine
 10
3185.611335476244
 20
-17338.2338392227
 30
0.0000000000000047
 11
3185.711051927395
 21
-17338.20150223485
 31
0.0000000000000047
  0
SPLINE
  5
2F396C
330
18
100
AcDbEntity
  8
0
 62
     8
100
AcDbSpline
210
0.0
220
0.0
230
1.0
 70
     8
 71
     3
 72
     9
 73
     5
 74
     0
 42
0.0000000001
 43
0.0000000001
 40
0.0
 40
0.0
 40
0.0
 40
0.0
 40
0.1964802645446951
 40
1.0
 40
1.0
 40
1.0
 40
1.0
 10
3165.111529410196
 20
-17317.97738566521
 30
0.0000000000000047
 10
3165.110527956175
 20
-17317.98059414725
 30
0.0000000000000047
 10
3165.105430986136
 20
-17317.99692394017
 30
0.0000000000000047
 10
3165.108274328731
 20
-17318.01356491188
 30
0.0000000000000047
 10
3165.110559010619
 20
-17318.02693626107
 30
0.0000000000000047
  0
ARC
  5
2F396D
330
18
100
AcDbEntity
  8
0
 62
     8
100
AcDbCircle
 10
3154.223306119383
 20
-17368.85863128353
 30
0.0000000000000047
 40
17.42059314969511
100
AcDbArc
 50
122.0601419200695
 51
140.2163647923543
  0
ARC
  5
2F396E
330
18
100
AcDbEntity
  8
0
 62
     8
100
AcDbCircle
 10
3155.634364270913
 20
-17369.96445026963
 30
0.0000000000000047
 40
22.36125269345606
100
AcDbArc
 50
118.4076514782518
 51
131.7821707376505
  0
LWPOLYLINE
  5
2F396F
330
18
100
AcDbEntity
  8
0
 62
     8
100
AcDbPolyline
 90
       30
 70
   128
 43
0.0
 10
3149.732756829695
 20
-17348.20228882169
 10
3150.596890611701
 20
-17347.91177413292
 10
3152.124832113204
 20
-17347.45460679269
 10
3153.699052371659
 20
-17347.0531618369
 10
3155.31346099887
 20
-17346.70899225552
 10
3156.961809714004
 20
-17346.42342883091
 10
3158.637723068657
 20
-17346.19757619618
 10
3160.33471807674
 20
-17346.03230938628
 10
3162.04622896521
 20
-17345.92826743296
 10
3163.765632778294
 20
-17345.8858513939
 10
3165.486277542113
 20
-17345.90522681627
 10
3167.201508722366
 20
-17345.98631831697
 10
3168.904688854224
 20
-17346.1288120462
 10
3170.589227413911
 20
-17346.33215716551
 10
3172.248611543758
 20
-17346.59556584779
 10
3173.876415440413
 20
-17346.91802066782
 10
3175.466345588938
 20
-17347.29827312413
 10
3177.012249724297
 20
-17347.73485275396
 10
3178.508147556397
 20
-17348.22606910406
 10
3179.948250613355
 20
-17348.77002318595
 10
3181.326989552658
 20
-17349.36460944676
 10
3182.639028563528
 20
-17350.00752802506
 10
3183.87928985095
 20
-17350.69629297288
 10
3185.042979186538
 20
-17351.42823715186
 10
3186.1255909227
 20
-17352.20053089425
 10
3187.122939357783
 20
-17353.0101843433
 10
3188.031164657062
 20
-17353.85406663767
 10
3188.846752215912
 20
-17354.72891314803
 10
3189.566549302549
 20
-17355.63133705549
 10
3189.573626306323
 20
-17355.64099791453
  0
LWPOLYLINE
  5
2F3970
330
18
100
AcDbEntity
  8
0
 62
     8
100
AcDbPolyline
 90
       31
 70
   128
 43
0.0
 10
3190.720193946344
 20
-17356.64752511645
 10
3190.348679412839
 20
-17356.05293442135
 10
3189.679883779775
 20
-17355.13063376941
 10
3188.914005088606
 20
-17354.23384979736
 10
3188.053948563749
 20
-17353.36598410509
 10
3187.102975328143
 20
-17352.53033039124
 10
3186.064691308096
 20
-17351.73005819405
 10
3184.943038485178
 20
-17350.96820192886
 10
3183.742270038802
 20
-17350.24765245056
 10
3182.466942024851
 20
-17349.5711423958
 10
3181.121888731632
 20
-17348.94123983948
 10
3179.712217559029
 20
-17348.36033154292
 10
3178.243271572344
 20
-17347.83062301553
 10
3176.720624168093
 20
-17347.35412361053
 10
3175.150051656155
 20
-17346.93264055104
 10
3173.537512989783
 20
-17346.56777117005
 10
3171.889123307913
 20
-17346.26090143229
 10
3170.211135158738
 20
-17346.01319509485
 10
3168.509916309402
 20
-17345.82559075097
 10
3166.791917313998
 20
-17345.69880183008
 10
3165.063656151038
 20
-17345.63330772914
 10
3163.331689205348
 20
-17345.62935676889
 10
3161.602585663863
 20
-17345.68696520842
 10
3159.882905325305
 20
-17345.80591428899
 10
3158.179170435555
 20
-17345.98575171212
 10
3156.497845204282
 20
-17346.2257965666
 10
3154.845305933366
 20
-17346.52513686495
 10
3153.227822667216
 20
-17346.88263816575
 10
3151.651530601396
 20
-17347.29694431258
 10
3150.122409599265
 20
-17347.76648334652
 10
3149.737506197369
 20
-17347.89594935216
  0
ARC
  5
2F3971
330
18
100
AcDbEntity
  8
0
 62
     8
100
AcDbCircle
 10
3155.869971497194
 20
-17370.64951032161
 30
0.0000000000000047
 40
23.39291026318161
100
AcDbArc
 50
117.6941839147799
 51
130.3492841325367
  0
LINE
  5
2F3972
330
18
100
AcDbEntity
  8
0
 62
     8
100
AcDbLine
 10
3137.582168866245
 20
-17356.43251532774
 30
0.0000000000000047
 11
3137.453045979369
 21
-17356.64752511645
 31
0.0000000000000047
  0
ARC
  5
2F3973
330
18
100
AcDbEntity
  8
0
 62
     8
100
AcDbCircle
 10
3147.619795192984
 20
-17362.41837890319
 30
0.0000000000000047
 40
12.20531246434416
100
AcDbArc
 50
145.3255898465777
 51
157.8737124818065
  0
ARC
  5
2F3974
330
18
100
AcDbEntity
  8
0
 62
     8
100
AcDbCircle
 10
3156.075420507284
 20
-17370.93766610249
 30
0.0000000000000047
 40
24.29646923079607
100
AcDbArc
 50
117.1157685998109
 51
129.2337461889351
  0
LWPOLYLINE
  5
2F3975
330
18
100
AcDbEntity
  8
0
 62
     8
100
AcDbPolyline
 90
       32
 70
   128
 43
0.0
 10
3149.711322051531
 20
-17347.32521381233
 10
3151.205069556687
 20
-17346.85563856494
 10
3152.779575728827
 20
-17346.42959852436
 10
3154.396146631609
 20
-17346.05976445314
 10
3156.048763568631
 20
-17345.74750999851
 10
3157.731282809586
 20
-17345.4939991639
 10
3159.437445831963
 20
-17345.30017448417
 10
3161.160901938091
 20
-17345.16675579384
 10
3162.895243247565
 20
-17345.09423973436
 10
3164.634016645872
 20
-17345.08289778336
 10
3166.370752802498
 20
-17345.13277034224
 10
3168.098993482089
 20
-17345.24367166315
 10
3169.812306053503
 20
-17345.41519132709
 10
3171.504320189175
 20
-17345.64668882423
 10
3173.168739813748
 20
-17345.9373043933
 10
3174.799372122186
 20
-17346.28595606539
 10
3176.390152757236
 20
-17346.69134828618
 10
3177.935162878912
 20
-17347.15197191599
 10
3179.428657329121
 20
-17347.66611260562
 10
3180.86507636693
 20
-17348.23185954179
 10
3182.239078954034
 20
-17348.84710692526
 10
3183.545553529863
 20
-17349.50956610356
 10
3184.779640201903
 20
-17350.21677246876
 10
3185.936747921849
 20
-17350.96609537308
 10
3187.012569421393
 20
-17351.75474872194
 10
3188.003107136492
 20
-17352.57979608571
 10
3188.904672780627
 20
-17353.43817016134
 10
3189.713914335912
 20
-17354.32667652923
 10
3190.427819466983
 20
-17355.24201139042
 10
3191.043734724163
 20
-17356.1807687107
 10
3191.559367677143
 20
-17357.13945524799
 10
3191.859908192696
 20
-17357.82125628347
  0
ARC
  5
2F3C6D
330
18
100
AcDbEntity
  8
姿図
100
AcDbCircle
 10
3164.065820145162
 20
-17343.39672725806
 30
0.0
 40
31.08040157860961
100
AcDbArc
 50
226.2031797556337
 51
313.8488732590068
  0
VIEWPORT
  5
1B39D6
102
{ACAD_XDICTIONARY
360
1B39D7
102
}
330
15
100
AcDbEntity
 67
     1
  8
0
100
AcDbViewport
 10
9.443112410971277
 20
5.64570822246414
 30
0.0
 40
25.68200028106094
 41
14.3866760833721
 68
     1
 69
     1
 12
9.443112410971277
 22
5.64570822246414
 13
0.0
 23
0.0
 14
10.0
 24
10.0
 15
10.0
 25
10.0
 16
0.0
 26
0.0
 36
1.0
 17
0.0
 27
0.0
 37
0.0
 42
50.0
 43
0.0
 44
0.0
 45
14.3866760833721
 50
0.0
 51
0.0
 72
   100
 90
   557088
  1

281
     0
 71
     1
 74
     0
110
0.0
120
0.0
130
0.0
111
1.0
121
0.0
131
0.0
112
0.0
122
1.0
132
0.0
 79
     0
146
0.0
  0
VIEWPORT
  5
1B39DA
102
{ACAD_XDICTIONARY
360
1B39DB
102
}
330
15
100
AcDbEntity
 67
     1
  8
実線
100
AcDbViewport
 10
5.249999761581421
 20
3.999999761581421
 30
0.0
 40
8.399999618530275
 41
6.399999618530274
 68
     2
 69
     2
 12
973.77522575311
 22
148.6828135753912
 13
0.0
 23
0.0
 14
1.0
 24
1.0
 15
20.0
 25
20.0
 16
0.0
 26
0.0
 36
1.0
 17
0.0
 27
0.0
 37
0.0
 42
50.0
 43
0.0
 44
0.0
 45
19878.02383915038
 50
0.0
 51
0.0
 72
   100
 90
   819200
  1

281
     0
 71
     1
 74
     0
110
0.0
120
0.0
130
0.0
111
1.0
121
0.0
131
0.0
112
0.0
122
1.0
132
0.0
 79
     0
146
0.0
  0
ENDSEC
  0
SECTION
  2
OBJECTS
  0
DICTIONARY
  5
C
330
0
100
AcDbDictionary
281
     1
  3
ACAD_COLOR
350
2EF131
  3
ACAD_GROUP
350
D
  3
ACAD_IMAGE_VARS
350
2EC951
  3
ACAD_LAYOUT
350
617
  3
ACAD_MATERIAL
350
2EF107
  3
ACAD_MLEADERSTYLE
350
2EF134
  3
ACAD_MLINESTYLE
350
E
  3
ACAD_PLOTSETTINGS
350
618
  3
ACAD_PLOTSTYLENAME
350
615
  3
ACAD_SCALELIST
350
66C31
  3
ACAD_TABLESTYLE
350
2EF132
  3
ACAD_VISUALSTYLE
350
2EF120
  3
AcadDim
350
12B3C
  3
ACDB_RECOMPOSE_DATA
350
2EF145
  3
AcDbVariableDictionary
350
6DE
  3
AEC_DISP_REPS
350
2EC907
  3
AEC_DISPLAY_PROPS_DEFAULTS
350
2EC909
  3
AEC_VARS
350
2EC905
  3
APPDATA
350
2EC94F
  3
DWGPROPS
350
2F3F5A
  0
DICTIONARY
  5
2EF147
330
8
100
AcDbDictionary
280
     1
281
     1
  0
DICTIONARY
  5
67DE7
330
2
100
AcDbDictionary
280
     1
281
     1
  3
ACAD_LAYERSTATES
360
67DE8
  0
DICTIONARY
  5
66C5B
330
F
100
AcDbDictionary
280
     1
281
     1
  3
ADSK_XREC_LAYER_RECONCILED
360
66C5C
  0
DICTIONARY
  5
66C61
330
280
100
AcDbDictionary
280
     1
281
     1
  3
ADSK_XREC_LAYER_RECONCILED
360
66C62
  0
DICTIONARY
  5
66C67
330
2F4
100
AcDbDictionary
280
     1
281
     1
  3
ADSK_XREC_LAYER_RECONCILED
360
66C68
  0
DICTIONARY
  5
2EFE81
330
2EFE80
100
AcDbDictionary
280
     1
281
     1
  0
DICTIONARY
  5
845D5
330
18
100
AcDbDictionary
280
     1
281
     1
  3
ACAD_SORTENTS
360
845D6
  0
DICTIONARY
  5
1B39D7
330
1B39D6
100
AcDbDictionary
280
     1
281
     1
  3
ACAD_XREC_ROUNDTRIP
360
2F3F5E
  3
ASDK_XREC_ANNOTATION_SCALE_INFO
360
1B39D8
  0
DICTIONARY
  5
1B39DB
330
1B39DA
100
AcDbDictionary
280
     1
281
     1
  3
ACAD_XREC_ROUNDTRIP
360
2F3F5F
  3
ASDK_XREC_ANNOTATION_SCALE_INFO
360
1B39DC
  0
DICTIONARY
  5
2EF131
102
{ACAD_REACTORS
330
C
102
}
330
C
100
AcDbDictionary
281
     1
  0
DICTIONARY
  5
D
102
{ACAD_REACTORS
330
C
102
}
330
C
100
AcDbDictionary
281
     1
  3
*A1
350
11444
  3
*A10
350
EE85E
  3
*A11
350
3AC40
  3
*A12
350
10FF7C
  3
*A13
350
EE28F
  3
*A14
350
1ADE11
  3
*A15
350
1ADE12
  3
*A16
350
CF3F2
  3
*A17
350
19F05D
  3
*A18
350
1ACF6
  3
*A19
350
1ACF7
  3
*A2
350
CC1E6
  3
*A20
350
3BCF2
  3
*A21
350
31E65
  3
*A22
350
18CA7
  3
*A23
350
31E63
  3
*A24
350
1C673
  3
*A25
350
33994
  3
*A26
350
100CC9
  3
*A27
350
3AC3D
  3
*A28
350
1AE43B
  3
*A29
350
1AE43C
  3
*A3
350
31E64
  3
*A30
350
1A00C4
  3
*A31
350
DCD6E
  3
*A32
350
F7F9E
  3
*A33
350
120900
  3
*A34
350
D1362
  3
*A35
350
31E62
  3
*A36
350
3610C
  3
*A37
350
16CDD
  3
*A38
350
3543B
  3
*A39
350
3AC3F
  3
*A4
350
1B2345
  3
*A40
350
1B2346
  3
*A41
350
E60AA
  3
*A42
350
3616A
  3
*A43
350
336CA
  3
*A44
350
19EFE3
  3
*A45
350
26F39
  3
*A46
350
EB499
  3
*A47
350
1928F
  3
*A48
350
1ACB62
  3
*A49
350
3FCA9
  3
*A5
350
169CA2
  3
*A50
350
DFCC4
  3
*A51
350
E83F5
  3
*A52
350
1ACBDB
  3
*A53
350
1ACB61
  3
*A54
350
26F38
  3
*A55
350
19F4B9
  3
*A56
350
1AD6BA
  3
*A57
350
1ACB9F
  3
*A58
350
EBAAA
  3
*A59
350
1C672
  3
*A6
350
1ADD31
  3
*A60
350
19FF1A
  3
*A61
350
1ACB9E
  3
*A62
350
352E7
  3
*A63
350
E3E76
  3
*A64
350
1ACBDC
  3
*A65
350
1A02C3
  3
*A66
350
1A04C0
  3
*A67
350
1AD6BB
  3
*A68
350
18076
  3
*A69
350
3AC3E
  3
*A7
350
1ADD32
  3
*A70
350
26F37
  3
*A71
350
33672
  3
*A72
350
26F3A
  3
*A73
350
3FCA8
  3
*A74
350
3393C
  3
*A75
350
33CE0
  3
*A76
350
DCD6D
  3
*A77
350
16971E
  3
*A78
350
16CAD
  3
*A79
350
10639A
  3
*A8
350
CCD2F
  3
*A9
350
D1E17
  0
RASTERVARIABLES
  5
2EC951
102
{ACAD_REACTORS
330
C
102
}
330
C
100
AcDbRasterVariables
 90
        0
 70
     1
 71
     1
 72
     0
  0
DICTIONARY
  5
617
102
{ACAD_REACTORS
330
C
102
}
330
C
100
AcDbDictionary
281
     1
  3
Model
350
619
  3
ﾚｲｱｳﾄ1
350
61A
  0
DICTIONARY
  5
2EF107
102
{ACAD_REACTORS
330
C
102
}
330
C
100
AcDbDictionary
281
     1
  3
ByBlock
350
2EF110
  3
ByLayer
350
2EF108
  3
Global
350
2EF118
  0
DICTIONARY
  5
2EF134
102
{ACAD_REACTORS
330
C
102
}
330
C
100
AcDbDictionary
281
     1
  3
Standard
350
2EF135
  0
DICTIONARY
  5
E
102
{ACAD_REACTORS
330
C
102
}
330
C
100
AcDbDictionary
281
     1
  3
STANDARD
350
1B
  0
DICTIONARY
  5
618
102
{ACAD_REACTORS
330
C
102
}
330
C
100
AcDbDictionary
281
     1
  0
ACDBDICTIONARYWDFLT
  5
615
102
{ACAD_REACTORS
330
C
102
}
330
C
100
AcDbDictionary
281
     1
  3
Normal
350
616
100
AcDbDictionaryWithDefault
340
616
  0
DICTIONARY
  5
66C31
102
{ACAD_REACTORS
330
C
102
}
330
C
100
AcDbDictionary
281
     1
  3
A0
350
66C32
  3
A1
350
66C33
  3
A2
350
66C34
  3
A3
350
66C35
  3
A4
350
66C36
  3
A5
350
66C37
  3
A6
350
66C38
  3
A7
350
66C39
  3
A8
350
66C3A
  3
A9
350
66C3B
  3
B0
350
66C3C
  3
B1
350
66C3D
  3
B2
350
66C3E
  3
B3
350
66C3F
  3
B4
350
66C40
  3
B5
350
66C41
  3
B6
350
66C42
  3
B7
350
66C43
  3
B8
350
66C44
  3
B9
350
66C45
  3
C0
350
66C46
  3
C1
350
66C47
  3
C2
350
66C48
  3
C3
350
66C49
  3
C4
350
66C4A
  3
C5
350
66C4B
  3
C6
350
66C4C
  3
C7
350
66C4D
  3
C8
350
66C4E
  3
C9
350
66C4F
  3
D0
350
66C50
  3
D1
350
66C51
  3
D2
350
66C52
  0
DICTIONARY
  5
2EF132
102
{ACAD_REACTORS
330
C
102
}
330
C
100
AcDbDictionary
281
     1
  3
Standard
350
2EF133
  0
DICTIONARY
  5
2EF120
102
{ACAD_REACTORS
330
C
102
}
330
C
100
AcDbDictionary
281
     1
  3
2dWireframe
350
2EF126
  3
3D Hidden
350
2EF128
  3
3dWireframe
350
2EF127
  3
Basic
350
2EF125
  3
Brighten
350
2EF12C
  3
ColorChange
350
2EF130
  3
Conceptual
350
2EF129
  3
Dim
350
2EF12B
  3
Facepattern
350
2EF12F
  3
Flat
350
2EF121
  3
FlatWithEdges
350
2EF122
  3
Gouraud
350
2EF123
  3
GouraudWithEdges
350
2EF124
  3
Linepattern
350
2EF12E
  3
Realistic
350
2EF12A
  3
Thicken
350
2EF12D
  0
XRECORD
  5
12B3C
102
{ACAD_REACTORS
330
C
102
}
330
C
100
AcDbXrecord
280
     1
 90
   990106
  3
OPEN
 60
     0
 61
     0
 62
     1
 63
     3
 64
     1
 65
     0
 66
     0
 67
     3
 68
     1
 69
     0
 70
     0
 71
     0
 72
     0
 40
0.0
170
     2
340
0
  0
XRECORD
  5
2EF145
102
{ACAD_REACTORS
330
C
102
}
330
C
100
AcDbXrecord
280
     1
 90
        1
330
2EF133
  0
DICTIONARY
  5
6DE
102
{ACAD_REACTORS
330
C
102
}
330
C
100
AcDbDictionary
281
     1
  3
CANNOSCALE
350
2EF15A
  3
CMLEADERSTYLE
350
2EF159
  3
CTABLESTYLE
350
2EF158
  3
DIMASSOC
350
6DF
  3
INDEXCTL
350
66CB9
  3
LAYEREVAL
350
2F2059
  3
LAYERNOTIFY
350
2F205A
  3
LIGHTINGUNITS
350
2F2058
  3
MSLTSCALE
350
2F2057
  3
PROJECTNAME
350
6E0
  3
SORTENTS
350
66CB8
  0
DICTIONARY
  5
2EC907
102
{ACAD_REACTORS
330
C
102
}
330
C
100
AcDbDictionary
281
     1
  3
AecDbDispRep2dSection
350
2EC908
  3
AecDbDispRepAnchor
350
2EC93E
  3
AecDbDispRepAnchorEntToNode
350
2EC93F
  3
AecDbDispRepClipVolModel
350
2EC90B
  3
AecDbDispRepClipVolPlan
350
2EC90D
  3
AecDbDispRepClipVolResSubDiv
350
2EC910
  3
AecDbDispRepClipVolResult
350
2EC90F
  3
AecDbDispRepDisplayTheme
350
2EC912
  3
AecDbDispRepEditInPlaceProfile
350
2EC943
  3
AecDbDispRepEntRef
350
2EC914
  3
AecDbDispRepLayoutCurve
350
2EC916
  3
AecDbDispRepLayoutGrid2d
350
2EC918
  3
AecDbDispRepLayoutGrid3d
350
2EC91A
  3
AecDbDispRepMaskBlockRef
350
2EC91C
  3
AecDbDispRepMaskBlockRefRcp
350
2EC91E
  3
AecDbDispRepMassElemModel
350
2EC920
  3
AecDbDispRepMassElemPlan100
350
2EC926
  3
AecDbDispRepMassElemPlan50
350
2EC924
  3
AecDbDispRepMassElemRcp
350
2EC928
  3
AecDbDispRepMassElemSchem
350
2EC922
  3
AecDbDispRepMassGroupModel
350
2EC92A
  3
AecDbDispRepMassGroupPlan
350
2EC92C
  3
AecDbDispRepMassGroupPlan100
350
2EC930
  3
AecDbDispRepMassGroupPlan50
350
2EC92E
  3
AecDbDispRepMassGroupRcp
350
2EC932
  3
AecDbDispRepMaterial
350
2EC941
  3
AecDbDispRepMvBlockRef
350
2EC934
  3
AecDbDispRepMvBlockRefModel
350
2EC935
  3
AecDbDispRepMvBlockRefPlan100
350
2EC936
  3
AecDbDispRepMvBlockRefPlan50
350
2EC937
  3
AecDbDispRepPolygonModel
350
2EC938
  3
AecDbDispRepPolygonTrueColour
350
2EC93A
  3
AecDbDispRepSlice
350
2EC93C
  0
DICTIONARY
  5
2EC909
102
{ACAD_REACTORS
330
C
102
}
330
C
100
AcDbDictionary
281
     1
  3
*A1
350
2EC90A
  3
*A10
350
2EC917
  3
*A11
350
2EC93D
  3
*A12
350
2EC92D
  3
*A13
350
2EC942
  3
*A14
350
2EC944
  3
*A15
350
2EC921
  3
*A16
350
2EC90E
  3
*A17
350
2EC913
  3
*A18
350
2EC927
  3
*A19
350
2EC915
  3
*A2
350
2EC940
  3
*A20
350
2EC919
  3
*A21
350
2EC91B
  3
*A22
350
2EC90C
  3
*A23
350
2EC91F
  3
*A24
350
2EC923
  3
*A25
350
2EC939
  3
*A26
350
2EC925
  3
*A27
350
2EC929
  3
*A3
350
2EC92B
  3
*A4
350
2EC91D
  3
*A5
350
2EC92F
  3
*A6
350
2EC931
  3
*A7
350
2EC911
  3
*A8
350
2EC933
  3
*A9
350
2EC93B
  0
DICTIONARY
  5
2EC905
102
{ACAD_REACTORS
330
C
102
}
330
C
100
AcDbDictionary
281
     1
  3
AEC_VARS_DWG_SETUP
350
2EC906
  0
DICTIONARY
  5
2EC94F
102
{ACAD_REACTORS
330
C
102
}
330
C
100
AcDbDictionary
281
     1
  0
XRECORD
  5
2F3F5A
102
{ACAD_REACTORS
330
C
102
}
330
C
100
AcDbXrecord
280
     1
  1
DWGPROPS COOKIE
  2

  3

  4

  6

  7

  8
SPAX
  9

300
=
301
=
302
=
303
=
304
=
305
=
306
=
307
=
308
=
309
=
 40
96.62776821759258
 41
2448636.61962963
 42
2457242.683584213
  1

 90
        0
  0
DICTIONARY
  5
67DE8
102
{ACAD_REACTORS
330
67DE7
102
}
330
67DE7
100
AcDbDictionary
281
     1
  0
XRECORD
  5
66C5C
102
{ACAD_REACTORS
330
66C5B
102
}
330
66C5B
100
AcDbXrecord
280
     1
290
     1
  0
XRECORD
  5
66C62
102
{ACAD_REACTORS
330
66C61
102
}
330
66C61
100
AcDbXrecord
280
     1
290
     1
  0
XRECORD
  5
66C68
102
{ACAD_REACTORS
330
66C67
102
}
330
66C67
100
AcDbXrecord
280
     1
290
     1
  0
SORTENTSTABLE
  5
845D6
102
{ACAD_REACTORS
330
845D5
102
}
330
845D5
100
AcDbSortentsTable
330
18
331
12B3E
  5
12B3E
331
11B04
  5
11B04
  0
XRECORD
  5
2F3F5E
102
{ACAD_REACTORS
330
1B39D7
102
}
330
1B39D7
100
AcDbXrecord
280
     1
102
SHADEPLOT
 70
     0
  0
XRECORD
  5
1B39D8
102
{ACAD_REACTORS
330
1B39D7
102
}
330
1B39D7
100
AcDbXrecord
280
     1
 90
        1
340
66C32
  0
XRECORD
  5
2F3F5F
102
{ACAD_REACTORS
330
1B39DB
102
}
330
1B39DB
100
AcDbXrecord
280
     1
102
SHADEPLOT
 70
     0
  0
XRECORD
  5
1B39DC
102
{ACAD_REACTORS
330
1B39DB
102
}
330
1B39DB
100
AcDbXrecord
280
     1
 90
        1
340
66C32
  0
GROUP
  5
11444
102
{ACAD_REACTORS
330
D
102
}
330
D
100
AcDbGroup
300

 70
     1
 71
     1
  0
GROUP
  5
EE85E
102
{ACAD_REACTORS
330
D
102
}
330
D
100
AcDbGroup
300

 70
     1
 71
     1
  0
GROUP
  5
3AC40
102
{ACAD_REACTORS
330
D
102
}
330
D
100
AcDbGroup
300

 70
     1
 71
     1
  0
GROUP
  5
10FF7C
102
{ACAD_REACTORS
330
D
102
}
330
D
100
AcDbGroup
300

 70
     1
 71
     1
  0
GROUP
  5
EE28F
102
{ACAD_REACTORS
330
D
102
}
330
D
100
AcDbGroup
300

 70
     1
 71
     1
  0
GROUP
  5
1ADE11
102
{ACAD_REACTORS
330
D
102
}
330
D
100
AcDbGroup
300

 70
     1
 71
     1
  0
GROUP
  5
1ADE12
102
{ACAD_REACTORS
330
D
102
}
330
D
100
AcDbGroup
300

 70
     1
 71
     1
  0
GROUP
  5
CF3F2
102
{ACAD_REACTORS
330
D
102
}
330
D
100
AcDbGroup
300

 70
     1
 71
     1
  0
GROUP
  5
19F05D
102
{ACAD_REACTORS
330
D
102
}
330
D
100
AcDbGroup
300

 70
     1
 71
     1
  0
GROUP
  5
1ACF6
102
{ACAD_REACTORS
330
D
102
}
330
D
100
AcDbGroup
300

 70
     1
 71
     1
  0
GROUP
  5
1ACF7
102
{ACAD_REACTORS
330
D
102
}
330
D
100
AcDbGroup
300

 70
     1
 71
     1
  0
GROUP
  5
CC1E6
102
{ACAD_REACTORS
330
D
102
}
330
D
100
AcDbGroup
300

 70
     1
 71
     1
  0
GROUP
  5
3BCF2
102
{ACAD_REACTORS
330
D
102
}
330
D
100
AcDbGroup
300

 70
     1
 71
     1
  0
GROUP
  5
31E65
102
{ACAD_REACTORS
330
D
102
}
330
D
100
AcDbGroup
300

 70
     1
 71
     1
  0
GROUP
  5
18CA7
102
{ACAD_REACTORS
330
D
102
}
330
D
100
AcDbGroup
300

 70
     1
 71
     1
  0
GROUP
  5
31E63
102
{ACAD_REACTORS
330
D
102
}
330
D
100
AcDbGroup
300

 70
     1
 71
     1
  0
GROUP
  5
1C673
102
{ACAD_REACTORS
330
D
102
}
330
D
100
AcDbGroup
300

 70
     1
 71
     1
  0
GROUP
  5
33994
102
{ACAD_REACTORS
330
D
102
}
330
D
100
AcDbGroup
300

 70
     1
 71
     1
  0
GROUP
  5
100CC9
102
{ACAD_REACTORS
330
D
102
}
330
D
100
AcDbGroup
300

 70
     1
 71
     1
  0
GROUP
  5
3AC3D
102
{ACAD_REACTORS
330
D
102
}
330
D
100
AcDbGroup
300

 70
     1
 71
     1
  0
GROUP
  5
1AE43B
102
{ACAD_REACTORS
330
D
102
}
330
D
100
AcDbGroup
300

 70
     1
 71
     1
  0
GROUP
  5
1AE43C
102
{ACAD_REACTORS
330
D
102
}
330
D
100
AcDbGroup
300

 70
     1
 71
     1
  0
GROUP
  5
31E64
102
{ACAD_REACTORS
330
D
102
}
330
D
100
AcDbGroup
300

 70
     1
 71
     1
  0
GROUP
  5
1A00C4
102
{ACAD_REACTORS
330
D
102
}
330
D
100
AcDbGroup
300

 70
     1
 71
     1
  0
GROUP
  5
DCD6E
102
{ACAD_REACTORS
330
D
102
}
330
D
100
AcDbGroup
300

 70
     1
 71
     1
  0
GROUP
  5
F7F9E
102
{ACAD_REACTORS
330
D
102
}
330
D
100
AcDbGroup
300

 70
     1
 71
     1
  0
GROUP
  5
120900
102
{ACAD_REACTORS
330
D
102
}
330
D
100
AcDbGroup
300

 70
     1
 71
     1
  0
GROUP
  5
D1362
102
{ACAD_REACTORS
330
D
102
}
330
D
100
AcDbGroup
300

 70
     1
 71
     1
  0
GROUP
  5
31E62
102
{ACAD_REACTORS
330
D
102
}
330
D
100
AcDbGroup
300

 70
     1
 71
     1
  0
GROUP
  5
3610C
102
{ACAD_REACTORS
330
D
102
}
330
D
100
AcDbGroup
300

 70
     1
 71
     1
  0
GROUP
  5
16CDD
102
{ACAD_REACTORS
330
D
102
}
330
D
100
AcDbGroup
300

 70
     1
 71
     1
  0
GROUP
  5
3543B
102
{ACAD_REACTORS
330
D
102
}
330
D
100
AcDbGroup
300

 70
     1
 71
     1
  0
GROUP
  5
3AC3F
102
{ACAD_REACTORS
330
D
102
}
330
D
100
AcDbGroup
300

 70
     1
 71
     1
  0
GROUP
  5
1B2345
102
{ACAD_REACTORS
330
D
102
}
330
D
100
AcDbGroup
300

 70
     1
 71
     1
  0
GROUP
  5
1B2346
102
{ACAD_REACTORS
330
D
102
}
330
D
100
AcDbGroup
300

 70
     1
 71
     1
  0
GROUP
  5
E60AA
102
{ACAD_REACTORS
330
D
102
}
330
D
100
AcDbGroup
300

 70
     1
 71
     1
  0
GROUP
  5
3616A
102
{ACAD_REACTORS
330
D
102
}
330
D
100
AcDbGroup
300

 70
     1
 71
     1
  0
GROUP
  5
336CA
102
{ACAD_REACTORS
330
D
102
}
330
D
100
AcDbGroup
300

 70
     1
 71
     1
  0
GROUP
  5
19EFE3
102
{ACAD_REACTORS
330
D
102
}
330
D
100
AcDbGroup
300

 70
     1
 71
     1
  0
GROUP
  5
26F39
102
{ACAD_REACTORS
330
D
102
}
330
D
100
AcDbGroup
300

 70
     1
 71
     1
  0
GROUP
  5
EB499
102
{ACAD_REACTORS
330
D
102
}
330
D
100
AcDbGroup
300

 70
     1
 71
     1
  0
GROUP
  5
1928F
102
{ACAD_REACTORS
330
D
102
}
330
D
100
AcDbGroup
300

 70
     1
 71
     1
  0
GROUP
  5
1ACB62
102
{ACAD_REACTORS
330
D
102
}
330
D
100
AcDbGroup
300

 70
     1
 71
     1
  0
GROUP
  5
3FCA9
102
{ACAD_REACTORS
330
D
102
}
330
D
100
AcDbGroup
300

 70
     1
 71
     1
  0
GROUP
  5
169CA2
102
{ACAD_REACTORS
330
D
102
}
330
D
100
AcDbGroup
300

 70
     1
 71
     1
  0
GROUP
  5
DFCC4
102
{ACAD_REACTORS
330
D
102
}
330
D
100
AcDbGroup
300

 70
     1
 71
     1
  0
GROUP
  5
E83F5
102
{ACAD_REACTORS
330
D
102
}
330
D
100
AcDbGroup
300

 70
     1
 71
     1
  0
GROUP
  5
1ACBDB
102
{ACAD_REACTORS
330
D
102
}
330
D
100
AcDbGroup
300

 70
     1
 71
     1
  0
GROUP
  5
1ACB61
102
{ACAD_REACTORS
330
D
102
}
330
D
100
AcDbGroup
300

 70
     1
 71
     1
  0
GROUP
  5
26F38
102
{ACAD_REACTORS
330
D
102
}
330
D
100
AcDbGroup
300

 70
     1
 71
     1
  0
GROUP
  5
19F4B9
102
{ACAD_REACTORS
330
D
102
}
330
D
100
AcDbGroup
300

 70
     1
 71
     1
  0
GROUP
  5
1AD6BA
102
{ACAD_REACTORS
330
D
102
}
330
D
100
AcDbGroup
300

 70
     1
 71
     1
  0
GROUP
  5
1ACB9F
102
{ACAD_REACTORS
330
D
102
}
330
D
100
AcDbGroup
300

 70
     1
 71
     1
  0
GROUP
  5
EBAAA
102
{ACAD_REACTORS
330
D
102
}
330
D
100
AcDbGroup
300

 70
     1
 71
     1
  0
GROUP
  5
1C672
102
{ACAD_REACTORS
330
D
102
}
330
D
100
AcDbGroup
300

 70
     1
 71
     1
  0
GROUP
  5
1ADD31
102
{ACAD_REACTORS
330
D
102
}
330
D
100
AcDbGroup
300

 70
     1
 71
     1
  0
GROUP
  5
19FF1A
102
{ACAD_REACTORS
330
D
102
}
330
D
100
AcDbGroup
300

 70
     1
 71
     1
  0
GROUP
  5
1ACB9E
102
{ACAD_REACTORS
330
D
102
}
330
D
100
AcDbGroup
300

 70
     1
 71
     1
  0
GROUP
  5
352E7
102
{ACAD_REACTORS
330
D
102
}
330
D
100
AcDbGroup
300

 70
     1
 71
     1
  0
GROUP
  5
E3E76
102
{ACAD_REACTORS
330
D
102
}
330
D
100
AcDbGroup
300

 70
     1
 71
     1
  0
GROUP
  5
1ACBDC
102
{ACAD_REACTORS
330
D
102
}
330
D
100
AcDbGroup
300

 70
     1
 71
     1
  0
GROUP
  5
1A02C3
102
{ACAD_REACTORS
330
D
102
}
330
D
100
AcDbGroup
300

 70
     1
 71
     1
  0
GROUP
  5
1A04C0
102
{ACAD_REACTORS
330
D
102
}
330
D
100
AcDbGroup
300

 70
     1
 71
     1
  0
GROUP
  5
1AD6BB
102
{ACAD_REACTORS
330
D
102
}
330
D
100
AcDbGroup
300

 70
     1
 71
     1
  0
GROUP
  5
18076
102
{ACAD_REACTORS
330
D
102
}
330
D
100
AcDbGroup
300

 70
     1
 71
     1
  0
GROUP
  5
3AC3E
102
{ACAD_REACTORS
330
D
102
}
330
D
100
AcDbGroup
300

 70
     1
 71
     1
  0
GROUP
  5
1ADD32
102
{ACAD_REACTORS
330
D
102
}
330
D
100
AcDbGroup
300

 70
     1
 71
     1
  0
GROUP
  5
26F37
102
{ACAD_REACTORS
330
D
102
}
330
D
100
AcDbGroup
300

 70
     1
 71
     1
  0
GROUP
  5
33672
102
{ACAD_REACTORS
330
D
102
}
330
D
100
AcDbGroup
300

 70
     1
 71
     1
  0
GROUP
  5
26F3A
102
{ACAD_REACTORS
330
D
102
}
330
D
100
AcDbGroup
300

 70
     1
 71
     1
  0
GROUP
  5
3FCA8
102
{ACAD_REACTORS
330
D
102
}
330
D
100
AcDbGroup
300

 70
     1
 71
     1
  0
GROUP
  5
3393C
102
{ACAD_REACTORS
330
D
102
}
330
D
100
AcDbGroup
300

 70
     1
 71
     1
  0
GROUP
  5
33CE0
102
{ACAD_REACTORS
330
D
102
}
330
D
100
AcDbGroup
300

 70
     1
 71
     1
  0
GROUP
  5
DCD6D
102
{ACAD_REACTORS
330
D
102
}
330
D
100
AcDbGroup
300

 70
     1
 71
     1
  0
GROUP
  5
16971E
102
{ACAD_REACTORS
330
D
102
}
330
D
100
AcDbGroup
300

 70
     1
 71
     1
  0
GROUP
  5
16CAD
102
{ACAD_REACTORS
330
D
102
}
330
D
100
AcDbGroup
300

 70
     1
 71
     1
  0
GROUP
  5
10639A
102
{ACAD_REACTORS
330
D
102
}
330
D
100
AcDbGroup
300

 70
     1
 71
     1
  0
GROUP
  5
CCD2F
102
{ACAD_REACTORS
330
D
102
}
330
D
100
AcDbGroup
300

 70
     1
 71
     1
  0
GROUP
  5
D1E17
102
{ACAD_REACTORS
330
D
102
}
330
D
100
AcDbGroup
300

 70
     1
 71
     1
  0
LAYOUT
  5
619
102
{ACAD_XDICTIONARY
360
2F3F5B
102
}
102
{ACAD_REACTORS
330
617
102
}
330
617
100
AcDbPlotSettings
  1

  2
JUST PDF 3
  4
A4
  6

 40
3.174999952316284
 41
3.174999952316284
 42
3.175003051757812
 43
3.17498779296875
 44
209.8886566162109
 45
297.0530090332031
 46
14.27171697985554
 47
9.855173026226111
 48
3100.584696980849
 49
-18042.1308064219
140
3625.570355938126
141
-17229.15278071551
142
1.0
143
3.0
 70
  3748
 72
     1
 73
     0
 74
     4
  7
spax form.ctb
 75
    16
147
1.0
148
-3100.584696980849
149
18042.1308064219
100
AcDbLayout
  1
Model
 70
     1
 71
     0
 10
0.0
 20
0.0
 11
12.0
 21
9.0
 12
0.0
 22
0.0
 32
0.0
 14
0.0
 24
0.0
 34
0.0
 15
0.0
 25
0.0
 35
0.0
146
0.0
 13
0.0
 23
0.0
 33
0.0
 16
1.0
 26
0.0
 36
0.0
 17
0.0
 27
1.0
 37
0.0
 76
     0
330
18
331
163677
1001
ACAD_PSEXT
1000
JUST PDF 3
1000
JUST PDF 3
1000
JUST PDF 3 Port:
1000

1070
     0
  0
LAYOUT
  5
61A
102
{ACAD_XDICTIONARY
360
1B39E4
102
}
102
{ACAD_REACTORS
330
617
102
}
330
617
100
AcDbPlotSettings
  1

  2
none_device
  4
Letter_(8.50_x_11.00_Inches)
  6

 40
6.349999904632568
 41
6.349999904632568
 42
6.350006103515625
 43
6.350006103515625
 44
215.8999938964844
 45
279.3999938964844
 46
0.0
 47
0.0
 48
0.0
 49
0.0
140
0.0
141
0.0
142
1.0
143
1.0
 70
   688
 72
     0
 73
     1
 74
     5
  7
spax form.ctb
 75
    16
147
1.0
148
0.0
149
0.0
100
AcDbLayout
  1
ﾚｲｱｳﾄ1
 70
     0
 71
     1
 10
-0.2500002402958907
 20
-0.2499999962453767
 11
10.74999951940822
 21
8.249999763458733
 12
0.0
 22
0.0
 32
0.0
 14
1.049999952316284
 24
0.7999999523162842
 34
0.0
 15
9.449999570846559
 25
7.199999570846558
 35
0.0
146
0.0
 13
0.0
 23
0.0
 33
0.0
 16
1.0
 26
0.0
 36
0.0
 17
0.0
 27
1.0
 37
0.0
 76
     0
330
15
331
1B39D6
1001
ACAD_PSEXT
1000
なし
1000
なし
1000
適切ではありません
1000
新しいプロッタ環境設定名を選択しない限り、レイアウトは印刷されません。
1070
     0
  0
MATERIAL
  5
2EF110
102
{ACAD_XDICTIONARY
360
2EF111
102
}
102
{ACAD_REACTORS
330
2EF107
102
}
330
2EF107
100
AcDbMaterial
  1
ByBlock
 72
     0
 43
0.0208333333333333
 43
0.0
 43
0.0
 43
0.0
 43
0.0
 43
0.0208333333333333
 43
0.0
 43
0.0
 43
0.0
 43
0.0
 43
1.0
 43
0.0
 43
0.0
 43
0.0
 43
0.0
 43
1.0
 77
     0
 47
0.0208333333333333
 47
0.0
 47
0.0
 47
0.0
 47
0.0
 47
0.0208333333333333
 47
0.0
 47
0.0
 47
0.0
 47
0.0
 47
1.0
 47
0.0
 47
0.0
 47
0.0
 47
0.0
 47
1.0
171
     0
 49
0.0208333333333333
 49
0.0
 49
0.0
 49
0.0
 49
0.0
 49
0.0208333333333333
 49
0.0
 49
0.0
 49
0.0
 49
0.0
 49
1.0
 49
0.0
 49
0.0
 49
0.0
 49
0.0
 49
1.0
175
     0
142
0.0208333333333333
142
0.0
142
0.0
142
0.0
142
0.0
142
0.0208333333333333
142
0.0
142
0.0
142
0.0
142
0.0
142
1.0
142
0.0
142
0.0
142
0.0
142
0.0
142
1.0
179
     0
144
0.0208333333333333
144
0.0
144
0.0
144
0.0
144
0.0
144
0.0208333333333333
144
0.0
144
0.0
144
0.0
144
0.0
144
1.0
144
0.0
144
0.0
144
0.0
144
0.0
144
1.0
147
0.0208333333333333
147
0.0
147
0.0
147
0.0
147
0.0
147
0.0208333333333333
147
0.0
147
0.0
147
0.0
147
0.0
147
1.0
147
0.0
147
0.0
147
0.0
147
0.0
147
1.0
  0
MATERIAL
  5
2EF108
102
{ACAD_XDICTIONARY
360
2EF109
102
}
102
{ACAD_REACTORS
330
2EF107
102
}
330
2EF107
100
AcDbMaterial
  1
ByLayer
 72
     0
 43
0.0208333333333333
 43
0.0
 43
0.0
 43
0.0
 43
0.0
 43
0.0208333333333333
 43
0.0
 43
0.0
 43
0.0
 43
0.0
 43
1.0
 43
0.0
 43
0.0
 43
0.0
 43
0.0
 43
1.0
 77
     0
 47
0.0208333333333333
 47
0.0
 47
0.0
 47
0.0
 47
0.0
 47
0.0208333333333333
 47
0.0
 47
0.0
 47
0.0
 47
0.0
 47
1.0
 47
0.0
 47
0.0
 47
0.0
 47
0.0
 47
1.0
171
     0
 49
0.0208333333333333
 49
0.0
 49
0.0
 49
0.0
 49
0.0
 49
0.0208333333333333
 49
0.0
 49
0.0
 49
0.0
 49
0.0
 49
1.0
 49
0.0
 49
0.0
 49
0.0
 49
0.0
 49
1.0
175
     0
142
0.0208333333333333
142
0.0
142
0.0
142
0.0
142
0.0
142
0.0208333333333333
142
0.0
142
0.0
142
0.0
142
0.0
142
1.0
142
0.0
142
0.0
142
0.0
142
0.0
142
1.0
179
     0
144
0.0208333333333333
144
0.0
144
0.0
144
0.0
144
0.0
144
0.0208333333333333
144
0.0
144
0.0
144
0.0
144
0.0
144
1.0
144
0.0
144
0.0
144
0.0
144
0.0
144
1.0
147
0.0208333333333333
147
0.0
147
0.0
147
0.0
147
0.0
147
0.0208333333333333
147
0.0
147
0.0
147
0.0
147
0.0
147
1.0
147
0.0
147
0.0
147
0.0
147
0.0
147
1.0
  0
MATERIAL
  5
2EF118
102
{ACAD_XDICTIONARY
360
2EF119
102
}
102
{ACAD_REACTORS
330
2EF107
102
}
330
2EF107
100
AcDbMaterial
  1
Global
 72
     0
 43
0.0208333333333333
 43
0.0
 43
0.0
 43
0.0
 43
0.0
 43
0.0208333333333333
 43
0.0
 43
0.0
 43
0.0
 43
0.0
 43
1.0
 43
0.0
 43
0.0
 43
0.0
 43
0.0
 43
1.0
 77
     0
 47
0.0208333333333333
 47
0.0
 47
0.0
 47
0.0
 47
0.0
 47
0.0208333333333333
 47
0.0
 47
0.0
 47
0.0
 47
0.0
 47
1.0
 47
0.0
 47
0.0
 47
0.0
 47
0.0
 47
1.0
171
     0
 49
0.0208333333333333
 49
0.0
 49
0.0
 49
0.0
 49
0.0
 49
0.0208333333333333
 49
0.0
 49
0.0
 49
0.0
 49
0.0
 49
1.0
 49
0.0
 49
0.0
 49
0.0
 49
0.0
 49
1.0
175
     0
142
0.0208333333333333
142
0.0
142
0.0
142
0.0
142
0.0
142
0.0208333333333333
142
0.0
142
0.0
142
0.0
142
0.0
142
1.0
142
0.0
142
0.0
142
0.0
142
0.0
142
1.0
179
     0
144
0.0208333333333333
144
0.0
144
0.0
144
0.0
144
0.0
144
0.0208333333333333
144
0.0
144
0.0
144
0.0
144
0.0
144
1.0
144
0.0
144
0.0
144
0.0
144
0.0
144
1.0
147
0.0208333333333333
147
0.0
147
0.0
147
0.0
147
0.0
147
0.0208333333333333
147
0.0
147
0.0
147
0.0
147
0.0
147
1.0
147
0.0
147
0.0
147
0.0
147
0.0
147
1.0
  0
MLEADERSTYLE
  5
2EF135
102
{ACAD_REACTORS
330
2EF134
102
}
330
2EF134
100
AcDbMLeaderStyle
170
     2
171
     1
172
     0
 90
        2
 40
0.0
 41
0.0
173
     1
 91
-1056964608
340
12
 92
       -2
290
     1
 42
0.09
291
     1
 43
0.36
  3
Standard
 44
0.18
300

342
10
174
     1
178
     6
175
     1
176
     0
 93
-1056964608
 45
0.18
292
     0
297
     0
 46
0.18
 94
-1056964608
 47
1.0
 49
1.0
140
1.0
293
     1
141
0.0
294
     1
177
     0
142
1.0
295
     0
296
     0
143
0.125
1001
ACAD_MLEADERVER
1070
     2
  0
MLINESTYLE
  5
1B
102
{ACAD_REACTORS
330
E
102
}
330
E
100
AcDbMlineStyle
  2
STANDARD
 70
     0
  3

 62
     0
 51
90.0
 52
90.0
 71
     2
 49
0.5
 62
   256
  6
BYLAYER
 49
-0.5
 62
   256
  6
BYLAYER
  0
ACDBPLACEHOLDER
  5
616
102
{ACAD_REACTORS
330
615
102
}
330
615
  0
SCALE
  5
66C32
102
{ACAD_REACTORS
330
66C31
102
}
330
66C31
100
AcDbScale
 70
     0
300
1:1
140
1.0
141
1.0
290
     1
1001
ACAD
1000
AcRTDxfName
1000
SCALE
  0
SCALE
  5
66C33
102
{ACAD_REACTORS
330
66C31
102
}
330
66C31
100
AcDbScale
 70
     0
300
1:2
140
1.0
141
2.0
290
     0
1001
ACAD
1000
AcRTDxfName
1000
SCALE
  0
SCALE
  5
66C34
102
{ACAD_REACTORS
330
66C31
102
}
330
66C31
100
AcDbScale
 70
     0
300
1:4
140
1.0
141
4.0
290
     0
1001
ACAD
1000
AcRTDxfName
1000
SCALE
  0
SCALE
  5
66C35
102
{ACAD_REACTORS
330
66C31
102
}
330
66C31
100
AcDbScale
 70
     0
300
1:5
140
1.0
141
5.0
290
     0
1001
ACAD
1000
AcRTDxfName
1000
SCALE
  0
SCALE
  5
66C36
102
{ACAD_REACTORS
330
66C31
102
}
330
66C31
100
AcDbScale
 70
     0
300
1:8
140
1.0
141
8.0
290
     0
1001
ACAD
1000
AcRTDxfName
1000
SCALE
  0
SCALE
  5
66C37
102
{ACAD_REACTORS
330
66C31
102
}
330
66C31
100
AcDbScale
 70
     0
300
1:10
140
1.0
141
10.0
290
     0
1001
ACAD
1000
AcRTDxfName
1000
SCALE
  0
SCALE
  5
66C38
102
{ACAD_REACTORS
330
66C31
102
}
330
66C31
100
AcDbScale
 70
     0
300
1:16
140
1.0
141
16.0
290
     0
1001
ACAD
1000
AcRTDxfName
1000
SCALE
  0
SCALE
  5
66C39
102
{ACAD_REACTORS
330
66C31
102
}
330
66C31
100
AcDbScale
 70
     0
300
1:20
140
1.0
141
20.0
290
     0
1001
ACAD
1000
AcRTDxfName
1000
SCALE
  0
SCALE
  5
66C3A
102
{ACAD_REACTORS
330
66C31
102
}
330
66C31
100
AcDbScale
 70
     0
300
1:30
140
1.0
141
30.0
290
     0
1001
ACAD
1000
AcRTDxfName
1000
SCALE
  0
SCALE
  5
66C3B
102
{ACAD_REACTORS
330
66C31
102
}
330
66C31
100
AcDbScale
 70
     0
300
1:40
140
1.0
141
40.0
290
     0
1001
ACAD
1000
AcRTDxfName
1000
SCALE
  0
SCALE
  5
66C3C
102
{ACAD_REACTORS
330
66C31
102
}
330
66C31
100
AcDbScale
 70
     0
300
1:50
140
1.0
141
50.0
290
     0
1001
ACAD
1000
AcRTDxfName
1000
SCALE
  0
SCALE
  5
66C3D
102
{ACAD_REACTORS
330
66C31
102
}
330
66C31
100
AcDbScale
 70
     0
300
1:100
140
1.0
141
100.0
290
     0
1001
ACAD
1000
AcRTDxfName
1000
SCALE
  0
SCALE
  5
66C3E
102
{ACAD_REACTORS
330
66C31
102
}
330
66C31
100
AcDbScale
 70
     0
300
2:1
140
2.0
141
1.0
290
     0
1001
ACAD
1000
AcRTDxfName
1000
SCALE
  0
SCALE
  5
66C3F
102
{ACAD_REACTORS
330
66C31
102
}
330
66C31
100
AcDbScale
 70
     0
300
4:1
140
4.0
141
1.0
290
     0
1001
ACAD
1000
AcRTDxfName
1000
SCALE
  0
SCALE
  5
66C40
102
{ACAD_REACTORS
330
66C31
102
}
330
66C31
100
AcDbScale
 70
     0
300
8:1
140
8.0
141
1.0
290
     0
1001
ACAD
1000
AcRTDxfName
1000
SCALE
  0
SCALE
  5
66C41
102
{ACAD_REACTORS
330
66C31
102
}
330
66C31
100
AcDbScale
 70
     0
300
10:1
140
10.0
141
1.0
290
     0
1001
ACAD
1000
AcRTDxfName
1000
SCALE
  0
SCALE
  5
66C42
102
{ACAD_REACTORS
330
66C31
102
}
330
66C31
100
AcDbScale
 70
     0
300
100:1
140
100.0
141
1.0
290
     0
1001
ACAD
1000
AcRTDxfName
1000
SCALE
  0
SCALE
  5
66C43
102
{ACAD_REACTORS
330
66C31
102
}
330
66C31
100
AcDbScale
 70
     0
300
1/128" = 1'-0"
140
0.0078125
141
12.0
290
     0
1001
ACAD
1000
AcRTDxfName
1000
SCALE
  0
SCALE
  5
66C44
102
{ACAD_REACTORS
330
66C31
102
}
330
66C31
100
AcDbScale
 70
     0
300
1/64" = 1'-0"
140
0.015625
141
12.0
290
     0
1001
ACAD
1000
AcRTDxfName
1000
SCALE
  0
SCALE
  5
66C45
102
{ACAD_REACTORS
330
66C31
102
}
330
66C31
100
AcDbScale
 70
     0
300
1/32" = 1'-0"
140
0.03125
141
12.0
290
     0
1001
ACAD
1000
AcRTDxfName
1000
SCALE
  0
SCALE
  5
66C46
102
{ACAD_REACTORS
330
66C31
102
}
330
66C31
100
AcDbScale
 70
     0
300
1/16" = 1'-0"
140
0.0625
141
12.0
290
     0
1001
ACAD
1000
AcRTDxfName
1000
SCALE
  0
SCALE
  5
66C47
102
{ACAD_REACTORS
330
66C31
102
}
330
66C31
100
AcDbScale
 70
     0
300
3/32" = 1'-0"
140
0.09375
141
12.0
290
     0
1001
ACAD
1000
AcRTDxfName
1000
SCALE
  0
SCALE
  5
66C48
102
{ACAD_REACTORS
330
66C31
102
}
330
66C31
100
AcDbScale
 70
     0
300
1/8" = 1'-0"
140
0.125
141
12.0
290
     0
1001
ACAD
1000
AcRTDxfName
1000
SCALE
  0
SCALE
  5
66C49
102
{ACAD_REACTORS
330
66C31
102
}
330
66C31
100
AcDbScale
 70
     0
300
3/16" = 1'-0"
140
0.1875
141
12.0
290
     0
1001
ACAD
1000
AcRTDxfName
1000
SCALE
  0
SCALE
  5
66C4A
102
{ACAD_REACTORS
330
66C31
102
}
330
66C31
100
AcDbScale
 70
     0
300
1/4" = 1'-0"
140
0.25
141
12.0
290
     0
1001
ACAD
1000
AcRTDxfName
1000
SCALE
  0
SCALE
  5
66C4B
102
{ACAD_REACTORS
330
66C31
102
}
330
66C31
100
AcDbScale
 70
     0
300
3/8" = 1'-0"
140
0.375
141
12.0
290
     0
1001
ACAD
1000
AcRTDxfName
1000
SCALE
  0
SCALE
  5
66C4C
102
{ACAD_REACTORS
330
66C31
102
}
330
66C31
100
AcDbScale
 70
     0
300
1/2" = 1'-0"
140
0.5
141
12.0
290
     0
1001
ACAD
1000
AcRTDxfName
1000
SCALE
  0
SCALE
  5
66C4D
102
{ACAD_REACTORS
330
66C31
102
}
330
66C31
100
AcDbScale
 70
     0
300
3/4" = 1'-0"
140
0.75
141
12.0
290
     0
1001
ACAD
1000
AcRTDxfName
1000
SCALE
  0
SCALE
  5
66C4E
102
{ACAD_REACTORS
330
66C31
102
}
330
66C31
100
AcDbScale
 70
     0
300
1" = 1'-0"
140
1.0
141
12.0
290
     0
1001
ACAD
1000
AcRTDxfName
1000
SCALE
  0
SCALE
  5
66C4F
102
{ACAD_REACTORS
330
66C31
102
}
330
66C31
100
AcDbScale
 70
     0
300
1-1/2" = 1'-0"
140
1.5
141
12.0
290
     0
1001
ACAD
1000
AcRTDxfName
1000
SCALE
  0
SCALE
  5
66C50
102
{ACAD_REACTORS
330
66C31
102
}
330
66C31
100
AcDbScale
 70
     0
300
3" = 1'-0"
140
3.0
141
12.0
290
     0
1001
ACAD
1000
AcRTDxfName
1000
SCALE
  0
SCALE
  5
66C51
102
{ACAD_REACTORS
330
66C31
102
}
330
66C31
100
AcDbScale
 70
     0
300
6" = 1'-0"
140
6.0
141
12.0
290
     0
1001
ACAD
1000
AcRTDxfName
1000
SCALE
  0
SCALE
  5
66C52
102
{ACAD_REACTORS
330
66C31
102
}
330
66C31
100
AcDbScale
 70
     0
300
1'-0" = 1'-0"
140
12.0
141
12.0
290
     0
1001
ACAD
1000
AcRTDxfName
1000
SCALE
  0
TABLESTYLE
  5
2EF133
102
{ACAD_XDICTIONARY
360
2EF143
102
}
102
{ACAD_REACTORS
330
2EF132
102
}
330
2EF132
100
AcDbTableStyle
  3
Standard
 70
     0
 71
     0
 40
0.06
 41
0.06
280
     0
281
     0
  7
STANDARD
140
0.18
170
     2
 62
     0
 63
     7
283
     0
274
    -2
284
     1
 64
     0
275
    -2
285
     1
 65
     0
276
    -2
286
     1
 66
     0
277
    -2
287
     1
 67
     0
278
    -2
288
     1
 68
     0
279
    -2
289
     1
 69
     0
  7
STANDARD
140
0.25
170
     5
 62
     0
 63
     7
283
     0
274
    -2
284
     1
 64
     0
275
    -2
285
     1
 65
     0
276
    -2
286
     1
 66
     0
277
    -2
287
     1
 67
     0
278
    -2
288
     1
 68
     0
279
    -2
289
     1
 69
     0
  7
STANDARD
140
0.18
170
     5
 62
     0
 63
     7
283
     0
274
    -2
284
     1
 64
     0
275
    -2
285
     1
 65
     0
276
    -2
286
     1
 66
     0
277
    -2
287
     1
 67
     0
278
    -2
288
     1
 68
     0
279
    -2
289
     1
 69
     0
  0
VISUALSTYLE
  5
2EF126
102
{ACAD_REACTORS
330
2EF120
102
}
330
2EF120
100
AcDbVisualStyle
  2
2dWireframe
 70
     4
 71
     0
 72
     2
 73
     0
 90
        0
 40
-0.6
 41
-30.0
 62
     5
 63
     7
 74
     1
 91
        4
 64
     7
 65
   257
 75
     1
175
     1
 42
1.0
 92
        0
 66
   257
 43
1.0
 76
     1
 77
     6
 78
     2
 67
     7
 79
     5
170
     0
171
     0
290
     0
174
     0
 93
        1
 44
0.0
173
     0
291
     0
 45
0.0
1001
ACAD
1000
AcDbSavedByObjectVersion
1070
     0
  0
VISUALSTYLE
  5
2EF128
102
{ACAD_REACTORS
330
2EF120
102
}
330
2EF120
100
AcDbVisualStyle
  2
3D Hidden
 70
     6
 71
     1
 72
     2
 73
     2
 90
        0
 40
-0.6
 41
-30.0
 62
     5
 63
     7
 74
     2
 91
        2
 64
     7
 65
   257
 75
     2
175
     1
 42
40.0
 92
        0
 66
   257
 43
1.0
 76
     1
 77
     6
 78
     2
 67
     7
 79
     3
170
     0
171
     0
290
     0
174
     0
 93
        1
 44
0.0
173
     0
291
     0
 45
0.0
1001
ACAD
1000
AcDbSavedByObjectVersion
1070
     0
  0
VISUALSTYLE
  5
2EF127
102
{ACAD_REACTORS
330
2EF120
102
}
330
2EF120
100
AcDbVisualStyle
  2
3dWireframe
 70
     5
 71
     0
 72
     2
 73
     0
 90
        0
 40
-0.6
 41
-30.0
 62
     5
 63
     7
 74
     1
 91
        4
 64
     7
 65
   257
 75
     1
175
     1
 42
1.0
 92
        0
 66
   257
 43
1.0
 76
     1
 77
     6
 78
     2
 67
     7
 79
     5
170
     0
171
     0
290
     0
174
     0
 93
        1
 44
0.0
173
     0
291
     0
 45
0.0
1001
ACAD
1000
AcDbSavedByObjectVersion
1070
     0
  0
VISUALSTYLE
  5
2EF125
102
{ACAD_REACTORS
330
2EF120
102
}
330
2EF120
100
AcDbVisualStyle
  2
Basic
 70
     7
 71
     1
 72
     0
 73
     1
 90
        0
 40
-0.6
 41
-30.0
 62
     5
 63
     7
 74
     0
 91
        4
 64
     7
 65
   257
 75
     1
175
     1
 42
1.0
 92
        8
 66
     7
 43
1.0
 76
     1
 77
     6
 78
     2
 67
     7
 79
     5
170
     0
171
     0
290
     0
174
     0
 93
        1
 44
0.0
173
     0
291
     1
 45
0.0
1001
ACAD
1000
AcDbSavedByObjectVersion
1070
     0
  0
VISUALSTYLE
  5
2EF12C
102
{ACAD_REACTORS
330
2EF120
102
}
330
2EF120
100
AcDbVisualStyle
  2
Brighten
 70
    12
 71
     2
 72
     2
 73
     0
 90
        0
 40
-0.6
 41
-30.0
 62
     5
 63
     7
 74
     1
 91
        4
 64
     7
 65
   257
 75
     1
175
     1
 42
1.0
 92
        8
 66
     7
 43
1.0
 76
     1
 77
     6
 78
     2
 67
     7
 79
     5
170
     0
171
     0
290
     0
174
     0
 93
        1
 44
50.0
173
     0
291
     1
 45
0.0
1001
ACAD
1000
AcDbSavedByObjectVersion
1070
     0
  0
VISUALSTYLE
  5
2EF130
102
{ACAD_REACTORS
330
2EF120
102
}
330
2EF120
100
AcDbVisualStyle
  2
ColorChange
 70
    16
 71
     2
 72
     2
 73
     3
 90
        0
 40
-0.6
 41
-30.0
 62
     5
 63
     8
 74
     1
 91
        4
 64
     7
 65
   257
 75
     1
175
     1
 42
1.0
 92
        8
 66
     8
 43
1.0
 76
     1
 77
     6
 78
     2
 67
     7
 79
     5
170
     0
171
     0
290
     0
174
     0
 93
        1
 44
0.0
173
     0
291
     1
 45
0.0
1001
ACAD
1000
AcDbSavedByObjectVersion
1070
     0
  0
VISUALSTYLE
  5
2EF129
102
{ACAD_REACTORS
330
2EF120
102
}
330
2EF120
100
AcDbVisualStyle
  2
Conceptual
 70
     9
 71
     3
 72
     2
 73
     0
 90
        0
 40
-0.6
 41
-30.0
 62
     5
 63
     7
 74
     2
 91
        2
 64
     7
 65
   257
 75
     1
175
     1
 42
40.0
 92
        8
 66
     7
 43
1.0
 76
     1
 77
     6
 78
     2
 67
     7
 79
     3
170
     0
171
     0
290
     0
174
     0
 93
        1
 44
0.0
173
     0
291
     0
 45
0.0
1001
ACAD
1000
AcDbSavedByObjectVersion
1070
     0
  0
VISUALSTYLE
  5
2EF12B
102
{ACAD_REACTORS
330
2EF120
102
}
330
2EF120
100
AcDbVisualStyle
  2
Dim
 70
    11
 71
     2
 72
     2
 73
     0
 90
        0
 40
-0.6
 41
-30.0
 62
     5
 63
     7
 74
     1
 91
        4
 64
     7
 65
   257
 75
     1
175
     1
 42
1.0
 92
        8
 66
     7
 43
1.0
 76
     1
 77
     6
 78
     2
 67
     7
 79
     5
170
     0
171
     0
290
     0
174
     0
 93
        1
 44
-50.0
173
     0
291
     1
 45
0.0
1001
ACAD
1000
AcDbSavedByObjectVersion
1070
     0
  0
VISUALSTYLE
  5
2EF12F
102
{ACAD_REACTORS
330
2EF120
102
}
330
2EF120
100
AcDbVisualStyle
  2
Facepattern
 70
    15
 71
     2
 72
     2
 73
     0
 90
        0
 40
-0.6
 41
-30.0
 62
     5
 63
     7
 74
     1
 91
        4
 64
     7
 65
   257
 75
     1
175
     1
 42
1.0
 92
        8
 66
     7
 43
1.0
 76
     1
 77
     6
 78
     2
 67
     7
 79
     5
170
     0
171
     0
290
     0
174
     0
 93
        1
 44
0.0
173
     0
291
     1
 45
0.0
1001
ACAD
1000
AcDbSavedByObjectVersion
1070
     0
  0
VISUALSTYLE
  5
2EF121
102
{ACAD_REACTORS
330
2EF120
102
}
330
2EF120
100
AcDbVisualStyle
  2
Flat
 70
     0
 71
     2
 72
     1
 73
     1
 90
        2
 40
-0.6
 41
30.0
 62
     5
 63
     7
 74
     0
 91
        4
 64
     7
 65
   257
 75
     1
175
     1
 42
1.0
 92
        8
 66
     7
 43
1.0
 76
     1
 77
     6
 78
     2
 67
     7
 79
     5
170
     0
171
     0
290
     0
174
     0
 93
       13
 44
0.0
173
     0
291
     1
 45
0.0
1001
ACAD
1000
AcDbSavedByObjectVersion
1070
     0
  0
VISUALSTYLE
  5
2EF122
102
{ACAD_REACTORS
330
2EF120
102
}
330
2EF120
100
AcDbVisualStyle
  2
FlatWithEdges
 70
     1
 71
     2
 72
     1
 73
     1
 90
        2
 40
-0.6
 41
30.0
 62
     5
 63
     7
 74
     1
 91
        4
 64
     7
 65
   257
 75
     1
175
     1
 42
1.0
 92
        0
 66
   257
 43
1.0
 76
     1
 77
     6
 78
     2
 67
     7
 79
     5
170
     0
171
     0
290
     0
174
     0
 93
       13
 44
0.0
173
     0
291
     1
 45
0.0
1001
ACAD
1000
AcDbSavedByObjectVersion
1070
     0
  0
VISUALSTYLE
  5
2EF123
102
{ACAD_REACTORS
330
2EF120
102
}
330
2EF120
100
AcDbVisualStyle
  2
Gouraud
 70
     2
 71
     2
 72
     2
 73
     1
 90
        2
 40
-0.6
 41
30.0
 62
     5
 63
     7
 74
     0
 91
        4
 64
     7
 65
   257
 75
     1
175
     1
 42
1.0
 92
        0
 66
     7
 43
1.0
 76
     1
 77
     6
 78
     2
 67
     7
 79
     5
170
     0
171
     0
290
     0
174
     0
 93
       13
 44
0.0
173
     0
291
     1
 45
0.0
1001
ACAD
1000
AcDbSavedByObjectVersion
1070
     0
  0
VISUALSTYLE
  5
2EF124
102
{ACAD_REACTORS
330
2EF120
102
}
330
2EF120
100
AcDbVisualStyle
  2
GouraudWithEdges
 70
     3
 71
     2
 72
     2
 73
     1
 90
        2
 40
-0.6
 41
30.0
 62
     5
 63
     7
 74
     1
 91
        4
 64
     7
 65
   257
 75
     1
175
     1
 42
1.0
 92
        0
 66
   257
 43
1.0
 76
     1
 77
     6
 78
     2
 67
     7
 79
     5
170
     0
171
     0
290
     0
174
     0
 93
       13
 44
0.0
173
     0
291
     1
 45
0.0
1001
ACAD
1000
AcDbSavedByObjectVersion
1070
     0
  0
VISUALSTYLE
  5
2EF12E
102
{ACAD_REACTORS
330
2EF120
102
}
330
2EF120
100
AcDbVisualStyle
  2
Linepattern
 70
    14
 71
     2
 72
     2
 73
     0
 90
        0
 40
-0.6
 41
-30.0
 62
     5
 63
     7
 74
     1
 91
        4
 64
     7
 65
   257
 75
     7
175
     7
 42
1.0
 92
        8
 66
     7
 43
1.0
 76
     1
 77
     6
 78
     2
 67
     7
 79
     5
170
     0
171
     0
290
     0
174
     0
 93
        1
 44
0.0
173
     0
291
     1
 45
0.0
1001
ACAD
1000
AcDbSavedByObjectVersion
1070
     0
  0
VISUALSTYLE
  5
2EF12A
102
{ACAD_REACTORS
330
2EF120
102
}
330
2EF120
100
AcDbVisualStyle
  2
Realistic
 70
     8
 71
     2
 72
     2
 73
     0
 90
        0
 40
-0.6
 41
-30.0
 62
     5
 63
     7
 74
     1
 91
        0
 64
     7
 65
   257
 75
     1
175
     1
 42
1.0
 92
        8
 66
     8
 43
1.0
 76
     1
 77
     6
 78
     2
 67
     7
 79
     5
170
     0
171
     0
290
     0
174
     0
 93
       13
 44
0.0
173
     0
291
     0
 45
0.0
1001
ACAD
1000
AcDbSavedByObjectVersion
1070
     0
  0
VISUALSTYLE
  5
2EF12D
102
{ACAD_REACTORS
330
2EF120
102
}
330
2EF120
100
AcDbVisualStyle
  2
Thicken
 70
    13
 71
     2
 72
     2
 73
     0
 90
        0
 40
-0.6
 41
-30.0
 62
     5
 63
     7
 74
     1
 91
        4
 64
     7
 65
   257
 75
     1
175
     1
 42
1.0
 92
       12
 66
     7
 43
1.0
 76
     1
 77
     6
 78
     2
 67
     7
 79
     5
170
     0
171
     0
290
     0
174
     0
 93
        1
 44
0.0
173
     0
291
     1
 45
0.0
1001
ACAD
1000
AcDbSavedByObjectVersion
1070
     0
  0
DICTIONARYVAR
  5
2EF15A
102
{ACAD_REACTORS
330
6DE
102
}
330
6DE
100
DictionaryVariables
280
     0
  1
1:1
  0
DICTIONARYVAR
  5
2EF159
102
{ACAD_REACTORS
330
6DE
102
}
330
6DE
100
DictionaryVariables
280
     0
  1
STANDARD
  0
DICTIONARYVAR
  5
2EF158
102
{ACAD_REACTORS
330
6DE
102
}
330
6DE
100
DictionaryVariables
280
     0
  1
STANDARD
  0
DICTIONARYVAR
  5
6DF
102
{ACAD_REACTORS
330
6DE
102
}
330
6DE
100
DictionaryVariables
280
     0
  1
1
  0
DICTIONARYVAR
  5
66CB9
102
{ACAD_REACTORS
330
6DE
102
}
330
6DE
100
DictionaryVariables
280
     0
  1
0
  0
DICTIONARYVAR
  5
2F2059
102
{ACAD_REACTORS
330
6DE
102
}
330
6DE
100
DictionaryVariables
280
     0
  1
1
  0
DICTIONARYVAR
  5
2F205A
102
{ACAD_REACTORS
330
6DE
102
}
330
6DE
100
DictionaryVariables
280
     0
  1
15
  0
DICTIONARYVAR
  5
2F2058
102
{ACAD_REACTORS
330
6DE
102
}
330
6DE
100
DictionaryVariables
280
     0
  1
0
  0
DICTIONARYVAR
  5
2F2057
102
{ACAD_REACTORS
330
6DE
102
}
330
6DE
100
DictionaryVariables
280
     0
  1
0
  0
DICTIONARYVAR
  5
6E0
102
{ACAD_REACTORS
330
6DE
102
}
330
6DE
100
DictionaryVariables
280
     0
  1

  0
DICTIONARYVAR
  5
66CB8
102
{ACAD_REACTORS
330
6DE
102
}
330
6DE
100
DictionaryVariables
280
     0
  1
127
  0
ACAD_PROXY_OBJECT
  5
2EC908
102
{ACAD_REACTORS
330
2EC907
102
}
330
2EC907
100
AcDbProxyObject
 90
      499
 91
      517
 95
       23
 70
     0
 93
       90
310
51B4D14694680051946C51BF
340
2EC90A
 94
        0
1001
ACAD
1000
AcRTDxfName
1000
AEC_DISP_REP_2D_SECTION
1000
AcRTDxfName
1000
AEC_DISP_REP_2D_SECTION
1000
AcRTDxfName
1000
AEC_DISP_REP_2D_SECTION
1000
AcRTDxfName
1000
AEC_DISP_REP_2D_SECTION
1000
AcRTDxfName
1000
AEC_DISP_REP_2D_SECTION
1000
AcRTDxfName
1000
AEC_DISP_REP_2D_SECTION
1000
AcRTDxfName
1000
AEC_DISP_REP_2D_SECTION
1000
AcRTDxfName
1000
AEC_DISP_REP_2D_SECTION
1000
AcRTDxfName
1000
AEC_DISP_REP_2D_SECTION
1000
AcRTDxfName
1000
AEC_DISP_REP_2D_SECTION
1000
AcRTDxfName
1000
AEC_DISP_REP_2D_SECTION
  0
ACAD_PROXY_OBJECT
  5
2EC93E
102
{ACAD_REACTORS
330
2EC907
102
}
330
2EC907
100
AcDbProxyObject
 90
      499
 91
      562
 95
       23
 70
     0
 93
       90
310
51B4D14694680051946C51BF
340
0
 94
        0
1001
ACAD
1000
AcRTDxfName
1000
AEC_DISP_REP_ANCHOR
1000
AcRTDxfName
1000
AEC_DISP_REP_ANCHOR
1000
AcRTDxfName
1000
AEC_DISP_REP_ANCHOR
1000
AcRTDxfName
1000
AEC_DISP_REP_ANCHOR
1000
AcRTDxfName
1000
AEC_DISP_REP_ANCHOR
1000
AcRTDxfName
1000
AEC_DISP_REP_ANCHOR
1000
AcRTDxfName
1000
AEC_DISP_REP_ANCHOR
1000
AcRTDxfName
1000
AEC_DISP_REP_ANCHOR
1000
AcRTDxfName
1000
AEC_DISP_REP_ANCHOR
1000
AcRTDxfName
1000
AEC_DISP_REP_ANCHOR
1000
AcRTDxfName
1000
AEC_DISP_REP_ANCHOR
  0
ACAD_PROXY_OBJECT
  5
2EC93F
102
{ACAD_REACTORS
330
2EC907
102
}
330
2EC907
100
AcDbProxyObject
 90
      499
 91
      563
 95
       23
 70
     0
 93
       90
310
51B4D14694680051946C51BF
340
2EC940
 94
        0
1001
ACAD
1000
AcRTDxfName
1000
AEC_DISP_REP_ANCHOR_ENT_TO_NODE
1000
AcRTDxfName
1000
AEC_DISP_REP_ANCHOR_ENT_TO_NODE
1000
AcRTDxfName
1000
AEC_DISP_REP_ANCHOR_ENT_TO_NODE
1000
AcRTDxfName
1000
AEC_DISP_REP_ANCHOR_ENT_TO_NODE
1000
AcRTDxfName
1000
AEC_DISP_REP_ANCHOR_ENT_TO_NODE
1000
AcRTDxfName
1000
AEC_DISP_REP_ANCHOR_ENT_TO_NODE
1000
AcRTDxfName
1000
AEC_DISP_REP_ANCHOR_ENT_TO_NODE
1000
AcRTDxfName
1000
AEC_DISP_REP_ANCHOR_ENT_TO_NODE
1000
AcRTDxfName
1000
AEC_DISP_REP_ANCHOR_ENT_TO_NODE
1000
AcRTDxfName
1000
AEC_DISP_REP_ANCHOR_ENT_TO_NODE
1000
AcRTDxfName
1000
AEC_DISP_REP_ANCHOR_ENT_TO_NODE
  0
ACAD_PROXY_OBJECT
  5
2EC90B
102
{ACAD_REACTORS
330
2EC907
102
}
330
2EC907
100
AcDbProxyObject
 90
      499
 91
      519
 95
       23
 70
     0
 93
      100
310
51B4D14694680051946C51946F
340
2EC90C
 94
        0
1001
ACAD
1000
AcRTDxfName
1000
AEC_DISP_REP_CLIP_VOLUME_MODEL
1000
AcRTDxfName
1000
AEC_DISP_REP_CLIP_VOLUME_MODEL
1000
AcRTDxfName
1000
AEC_DISP_REP_CLIP_VOLUME_MODEL
1000
AcRTDxfName
1000
AEC_DISP_REP_CLIP_VOLUME_MODEL
1000
AcRTDxfName
1000
AEC_DISP_REP_CLIP_VOLUME_MODEL
1000
AcRTDxfName
1000
AEC_DISP_REP_CLIP_VOLUME_MODEL
1000
AcRTDxfName
1000
AEC_DISP_REP_CLIP_VOLUME_MODEL
1000
AcRTDxfName
1000
AEC_DISP_REP_CLIP_VOLUME_MODEL
1000
AcRTDxfName
1000
AEC_DISP_REP_CLIP_VOLUME_MODEL
1000
AcRTDxfName
1000
AEC_DISP_REP_CLIP_VOLUME_MODEL
1000
AcRTDxfName
1000
AEC_DISP_REP_CLIP_VOLUME_MODEL
  0
ACAD_PROXY_OBJECT
  5
2EC90D
102
{ACAD_REACTORS
330
2EC907
102
}
330
2EC907
100
AcDbProxyObject
 90
      499
 91
      521
 95
       23
 70
     0
 93
      100
310
51B4D14694680051946C51946F
340
2EC90E
 94
        0
1001
ACAD
1000
AcRTDxfName
1000
AEC_DISP_REP_CLIP_VOLUME_PLAN
1000
AcRTDxfName
1000
AEC_DISP_REP_CLIP_VOLUME_PLAN
1000
AcRTDxfName
1000
AEC_DISP_REP_CLIP_VOLUME_PLAN
1000
AcRTDxfName
1000
AEC_DISP_REP_CLIP_VOLUME_PLAN
1000
AcRTDxfName
1000
AEC_DISP_REP_CLIP_VOLUME_PLAN
1000
AcRTDxfName
1000
AEC_DISP_REP_CLIP_VOLUME_PLAN
1000
AcRTDxfName
1000
AEC_DISP_REP_CLIP_VOLUME_PLAN
1000
AcRTDxfName
1000
AEC_DISP_REP_CLIP_VOLUME_PLAN
1000
AcRTDxfName
1000
AEC_DISP_REP_CLIP_VOLUME_PLAN
1000
AcRTDxfName
1000
AEC_DISP_REP_CLIP_VOLUME_PLAN
1000
AcRTDxfName
1000
AEC_DISP_REP_CLIP_VOLUME_PLAN
  0
ACAD_PROXY_OBJECT
  5
2EC910
102
{ACAD_REACTORS
330
2EC907
102
}
330
2EC907
100
AcDbProxyObject
 90
      499
 91
      523
 95
       23
 70
     0
 93
      100
310
51B4D14694680051946C51946F
340
2EC911
 94
        0
1001
ACAD
1000
AcRTDxfName
1000
AEC_DISP_REP_CLIP_VOLUME_RESULT_SUBDIV
1000
AcRTDxfName
1000
AEC_DISP_REP_CLIP_VOLUME_RESULT_SUBDIV
1000
AcRTDxfName
1000
AEC_DISP_REP_CLIP_VOLUME_RESULT_SUBDIV
1000
AcRTDxfName
1000
AEC_DISP_REP_CLIP_VOLUME_RESULT_SUBDIV
1000
AcRTDxfName
1000
AEC_DISP_REP_CLIP_VOLUME_RESULT_SUBDIV
1000
AcRTDxfName
1000
AEC_DISP_REP_CLIP_VOLUME_RESULT_SUBDIV
1000
AcRTDxfName
1000
AEC_DISP_REP_CLIP_VOLUME_RESULT_SUBDIV
1000
AcRTDxfName
1000
AEC_DISP_REP_CLIP_VOLUME_RESULT_SUBDIV
1000
AcRTDxfName
1000
AEC_DISP_REP_CLIP_VOLUME_RESULT_SUBDIV
1000
AcRTDxfName
1000
AEC_DISP_REP_CLIP_VOLUME_RESULT_SUBDIV
1000
AcRTDxfName
1000
AEC_DISP_REP_CLIP_VOLUME_RESULT_SUBDIV
  0
ACAD_PROXY_OBJECT
  5
2EC90F
102
{ACAD_REACTORS
330
2EC907
102
}
330
2EC907
100
AcDbProxyObject
 90
      499
 91
      522
 95
       23
 70
     0
 93
       90
310
51B4D14694680051946C51BF
340
0
 94
        0
1001
ACAD
1000
AcRTDxfName
1000
AEC_DISP_REP_CLIP_VOLUME_RESULT
1000
AcRTDxfName
1000
AEC_DISP_REP_CLIP_VOLUME_RESULT
1000
AcRTDxfName
1000
AEC_DISP_REP_CLIP_VOLUME_RESULT
1000
AcRTDxfName
1000
AEC_DISP_REP_CLIP_VOLUME_RESULT
1000
AcRTDxfName
1000
AEC_DISP_REP_CLIP_VOLUME_RESULT
1000
AcRTDxfName
1000
AEC_DISP_REP_CLIP_VOLUME_RESULT
1000
AcRTDxfName
1000
AEC_DISP_REP_CLIP_VOLUME_RESULT
1000
AcRTDxfName
1000
AEC_DISP_REP_CLIP_VOLUME_RESULT
1000
AcRTDxfName
1000
AEC_DISP_REP_CLIP_VOLUME_RESULT
1000
AcRTDxfName
1000
AEC_DISP_REP_CLIP_VOLUME_RESULT
1000
AcRTDxfName
1000
AEC_DISP_REP_CLIP_VOLUME_RESULT
  0
ACAD_PROXY_OBJECT
  5
2EC912
102
{ACAD_REACTORS
330
2EC907
102
}
330
2EC907
100
AcDbProxyObject
 90
      499
 91
      525
 95
       23
 70
     0
 93
       90
310
51B4D14694680051946C51BF
340
2EC913
 94
        0
1001
ACAD
1000
AcRTDxfName
1000
AEC_DISP_REP_DISPLAYTHEME
1000
AcRTDxfName
1000
AEC_DISP_REP_DISPLAYTHEME
1000
AcRTDxfName
1000
AEC_DISP_REP_DISPLAYTHEME
1000
AcRTDxfName
1000
AEC_DISP_REP_DISPLAYTHEME
1000
AcRTDxfName
1000
AEC_DISP_REP_DISPLAYTHEME
1000
AcRTDxfName
1000
AEC_DISP_REP_DISPLAYTHEME
1000
AcRTDxfName
1000
AEC_DISP_REP_DISPLAYTHEME
1000
AcRTDxfName
1000
AEC_DISP_REP_DISPLAYTHEME
1000
AcRTDxfName
1000
AEC_DISP_REP_DISPLAYTHEME
1000
AcRTDxfName
1000
AEC_DISP_REP_DISPLAYTHEME
1000
AcRTDxfName
1000
AEC_DISP_REP_DISPLAYTHEME
  0
ACAD_PROXY_OBJECT
  5
2EC943
102
{ACAD_REACTORS
330
2EC907
102
}
330
2EC907
100
AcDbProxyObject
 90
      499
 91
      567
 95
       23
 70
     0
 93
       90
310
51B4D14694680051946C51BF
340
2EC944
 94
        0
1001
ACAD
1000
AcRTDxfName
1000
AEC_DISP_REP_EDITINPLACEPROFILE
1000
AcRTDxfName
1000
AEC_DISP_REP_EDITINPLACEPROFILE
1000
AcRTDxfName
1000
AEC_DISP_REP_EDITINPLACEPROFILE
1000
AcRTDxfName
1000
AEC_DISP_REP_EDITINPLACEPROFILE
1000
AcRTDxfName
1000
AEC_DISP_REP_EDITINPLACEPROFILE
1000
AcRTDxfName
1000
AEC_DISP_REP_EDITINPLACEPROFILE
1000
AcRTDxfName
1000
AEC_DISP_REP_EDITINPLACEPROFILE
1000
AcRTDxfName
1000
AEC_DISP_REP_EDITINPLACEPROFILE
1000
AcRTDxfName
1000
AEC_DISP_REP_EDITINPLACEPROFILE
1000
AcRTDxfName
1000
AEC_DISP_REP_EDITINPLACEPROFILE
1000
AcRTDxfName
1000
AEC_DISP_REP_EDITINPLACEPROFILE
  0
ACAD_PROXY_OBJECT
  5
2EC914
102
{ACAD_REACTORS
330
2EC907
102
}
330
2EC907
100
AcDbProxyObject
 90
      499
 91
      527
 95
       23
 70
     0
 93
       90
310
51B4D14694680051946C51BF
340
2EC915
 94
        0
1001
ACAD
1000
AcRTDxfName
1000
AEC_DISP_REP_ENT_REF
1000
AcRTDxfName
1000
AEC_DISP_REP_ENT_REF
1000
AcRTDxfName
1000
AEC_DISP_REP_ENT_REF
1000
AcRTDxfName
1000
AEC_DISP_REP_ENT_REF
1000
AcRTDxfName
1000
AEC_DISP_REP_ENT_REF
1000
AcRTDxfName
1000
AEC_DISP_REP_ENT_REF
1000
AcRTDxfName
1000
AEC_DISP_REP_ENT_REF
1000
AcRTDxfName
1000
AEC_DISP_REP_ENT_REF
1000
AcRTDxfName
1000
AEC_DISP_REP_ENT_REF
1000
AcRTDxfName
1000
AEC_DISP_REP_ENT_REF
1000
AcRTDxfName
1000
AEC_DISP_REP_ENT_REF
  0
ACAD_PROXY_OBJECT
  5
2EC916
102
{ACAD_REACTORS
330
2EC907
102
}
330
2EC907
100
AcDbProxyObject
 90
      499
 91
      529
 95
       23
 70
     0
 93
       90
310
51B4D14694680051946C51BF
340
2EC917
 94
        0
1001
ACAD
1000
AcRTDxfName
1000
AEC_DISP_REP_LAYOUT_CURVE
1000
AcRTDxfName
1000
AEC_DISP_REP_LAYOUT_CURVE
1000
AcRTDxfName
1000
AEC_DISP_REP_LAYOUT_CURVE
1000
AcRTDxfName
1000
AEC_DISP_REP_LAYOUT_CURVE
1000
AcRTDxfName
1000
AEC_DISP_REP_LAYOUT_CURVE
1000
AcRTDxfName
1000
AEC_DISP_REP_LAYOUT_CURVE
1000
AcRTDxfName
1000
AEC_DISP_REP_LAYOUT_CURVE
1000
AcRTDxfName
1000
AEC_DISP_REP_LAYOUT_CURVE
1000
AcRTDxfName
1000
AEC_DISP_REP_LAYOUT_CURVE
1000
AcRTDxfName
1000
AEC_DISP_REP_LAYOUT_CURVE
1000
AcRTDxfName
1000
AEC_DISP_REP_LAYOUT_CURVE
  0
ACAD_PROXY_OBJECT
  5
2EC918
102
{ACAD_REACTORS
330
2EC907
102
}
330
2EC907
100
AcDbProxyObject
 90
      499
 91
      531
 95
       23
 70
     0
 93
       90
310
51B4D14694680051946C51BF
340
2EC919
 94
        0
1001
ACAD
1000
AcRTDxfName
1000
AEC_DISP_REP_LAYOUT_GRID2D
1000
AcRTDxfName
1000
AEC_DISP_REP_LAYOUT_GRID2D
1000
AcRTDxfName
1000
AEC_DISP_REP_LAYOUT_GRID2D
1000
AcRTDxfName
1000
AEC_DISP_REP_LAYOUT_GRID2D
1000
AcRTDxfName
1000
AEC_DISP_REP_LAYOUT_GRID2D
1000
AcRTDxfName
1000
AEC_DISP_REP_LAYOUT_GRID2D
1000
AcRTDxfName
1000
AEC_DISP_REP_LAYOUT_GRID2D
1000
AcRTDxfName
1000
AEC_DISP_REP_LAYOUT_GRID2D
1000
AcRTDxfName
1000
AEC_DISP_REP_LAYOUT_GRID2D
1000
AcRTDxfName
1000
AEC_DISP_REP_LAYOUT_GRID2D
1000
AcRTDxfName
1000
AEC_DISP_REP_LAYOUT_GRID2D
  0
ACAD_PROXY_OBJECT
  5
2EC91A
102
{ACAD_REACTORS
330
2EC907
102
}
330
2EC907
100
AcDbProxyObject
 90
      499
 91
      533
 95
       23
 70
     0
 93
       90
310
51B4D14694680051946C51BF
340
2EC91B
 94
        0
1001
ACAD
1000
AcRTDxfName
1000
AEC_DISP_REP_LAYOUT_GRID3D
1000
AcRTDxfName
1000
AEC_DISP_REP_LAYOUT_GRID3D
1000
AcRTDxfName
1000
AEC_DISP_REP_LAYOUT_GRID3D
1000
AcRTDxfName
1000
AEC_DISP_REP_LAYOUT_GRID3D
1000
AcRTDxfName
1000
AEC_DISP_REP_LAYOUT_GRID3D
1000
AcRTDxfName
1000
AEC_DISP_REP_LAYOUT_GRID3D
1000
AcRTDxfName
1000
AEC_DISP_REP_LAYOUT_GRID3D
1000
AcRTDxfName
1000
AEC_DISP_REP_LAYOUT_GRID3D
1000
AcRTDxfName
1000
AEC_DISP_REP_LAYOUT_GRID3D
1000
AcRTDxfName
1000
AEC_DISP_REP_LAYOUT_GRID3D
1000
AcRTDxfName
1000
AEC_DISP_REP_LAYOUT_GRID3D
  0
ACAD_PROXY_OBJECT
  5
2EC91C
102
{ACAD_REACTORS
330
2EC907
102
}
330
2EC907
100
AcDbProxyObject
 90
      499
 91
      535
 95
       23
 70
     0
 93
       90
310
51B4D14694680051946C51BF
340
2EC91D
 94
        0
1001
ACAD
1000
AcRTDxfName
1000
AEC_DISP_REP_MASKBLOCK_REF
1000
AcRTDxfName
1000
AEC_DISP_REP_MASKBLOCK_REF
1000
AcRTDxfName
1000
AEC_DISP_REP_MASKBLOCK_REF
1000
AcRTDxfName
1000
AEC_DISP_REP_MASKBLOCK_REF
1000
AcRTDxfName
1000
AEC_DISP_REP_MASKBLOCK_REF
1000
AcRTDxfName
1000
AEC_DISP_REP_MASKBLOCK_REF
1000
AcRTDxfName
1000
AEC_DISP_REP_MASKBLOCK_REF
1000
AcRTDxfName
1000
AEC_DISP_REP_MASKBLOCK_REF
1000
AcRTDxfName
1000
AEC_DISP_REP_MASKBLOCK_REF
1000
AcRTDxfName
1000
AEC_DISP_REP_MASKBLOCK_REF
1000
AcRTDxfName
1000
AEC_DISP_REP_MASKBLOCK_REF
  0
ACAD_PROXY_OBJECT
  5
2EC91E
102
{ACAD_REACTORS
330
2EC907
102
}
330
2EC907
100
AcDbProxyObject
 90
      499
 91
      537
 95
       23
 70
     0
 93
      100
310
51B4D14694680051946C51946F
340
2EC91F
 94
        0
1001
ACAD
1000
AcRTDxfName
1000
AEC_DISP_REP_MASKBLOCK_REF_RCP
1000
AcRTDxfName
1000
AEC_DISP_REP_MASKBLOCK_REF_RCP
1000
AcRTDxfName
1000
AEC_DISP_REP_MASKBLOCK_REF_RCP
1000
AcRTDxfName
1000
AEC_DISP_REP_MASKBLOCK_REF_RCP
1000
AcRTDxfName
1000
AEC_DISP_REP_MASKBLOCK_REF_RCP
1000
AcRTDxfName
1000
AEC_DISP_REP_MASKBLOCK_REF_RCP
1000
AcRTDxfName
1000
AEC_DISP_REP_MASKBLOCK_REF_RCP
1000
AcRTDxfName
1000
AEC_DISP_REP_MASKBLOCK_REF_RCP
1000
AcRTDxfName
1000
AEC_DISP_REP_MASKBLOCK_REF_RCP
1000
AcRTDxfName
1000
AEC_DISP_REP_MASKBLOCK_REF_RCP
1000
AcRTDxfName
1000
AEC_DISP_REP_MASKBLOCK_REF_RCP
  0
ACAD_PROXY_OBJECT
  5
2EC920
102
{ACAD_REACTORS
330
2EC907
102
}
330
2EC907
100
AcDbProxyObject
 90
      499
 91
      538
 95
       23
 70
     0
 93
      100
310
51B4D14694680051946C51946F
340
2EC921
 94
        0
1001
ACAD
1000
AcRTDxfName
1000
AEC_DISP_REP_MASS_ELEM_MODEL
1000
AcRTDxfName
1000
AEC_DISP_REP_MASS_ELEM_MODEL
1000
AcRTDxfName
1000
AEC_DISP_REP_MASS_ELEM_MODEL
1000
AcRTDxfName
1000
AEC_DISP_REP_MASS_ELEM_MODEL
1000
AcRTDxfName
1000
AEC_DISP_REP_MASS_ELEM_MODEL
1000
AcRTDxfName
1000
AEC_DISP_REP_MASS_ELEM_MODEL
1000
AcRTDxfName
1000
AEC_DISP_REP_MASS_ELEM_MODEL
1000
AcRTDxfName
1000
AEC_DISP_REP_MASS_ELEM_MODEL
1000
AcRTDxfName
1000
AEC_DISP_REP_MASS_ELEM_MODEL
1000
AcRTDxfName
1000
AEC_DISP_REP_MASS_ELEM_MODEL
1000
AcRTDxfName
1000
AEC_DISP_REP_MASS_ELEM_MODEL
  0
ACAD_PROXY_OBJECT
  5
2EC926
102
{ACAD_REACTORS
330
2EC907
102
}
330
2EC907
100
AcDbProxyObject
 90
      499
 91
      543
 95
       23
 70
     0
 93
      110
310
51B4D14694680051946C5194651B
340
2EC927
 94
        0
1001
ACAD
1000
AcRTDxfName
1000
AEC_DISPREPAECDBDISPREPMASSELEMPLAN100
1000
AcRTDxfName
1000
AEC_DISPREPAECDBDISPREPMASSELEMPLAN100
1000
AcRTDxfName
1000
AEC_DISPREPAECDBDISPREPMASSELEMPLAN100
1000
AcRTDxfName
1000
AEC_DISPREPAECDBDISPREPMASSELEMPLAN100
1000
AcRTDxfName
1000
AEC_DISPREPAECDBDISPREPMASSELEMPLAN100
1000
AcRTDxfName
1000
AEC_DISPREPAECDBDISPREPMASSELEMPLAN100
1000
AcRTDxfName
1000
AEC_DISPREPAECDBDISPREPMASSELEMPLAN100
1000
AcRTDxfName
1000
AEC_DISPREPAECDBDISPREPMASSELEMPLAN100
1000
AcRTDxfName
1000
AEC_DISPREPAECDBDISPREPMASSELEMPLAN100
1000
AcRTDxfName
1000
AEC_DISPREPAECDBDISPREPMASSELEMPLAN100
1000
AcRTDxfName
1000
AEC_DISPREPAECDBDISPREPMASSELEMPLAN100
  0
ACAD_PROXY_OBJECT
  5
2EC924
102
{ACAD_REACTORS
330
2EC907
102
}
330
2EC907
100
AcDbProxyObject
 90
      499
 91
      541
 95
       23
 70
     0
 93
      110
310
51B4D14694680051946C5194651B
340
2EC925
 94
        0
1001
ACAD
1000
AcRTDxfName
1000
AEC_DISPREPAECDBDISPREPMASSELEMPLAN50
1000
AcRTDxfName
1000
AEC_DISPREPAECDBDISPREPMASSELEMPLAN50
1000
AcRTDxfName
1000
AEC_DISPREPAECDBDISPREPMASSELEMPLAN50
1000
AcRTDxfName
1000
AEC_DISPREPAECDBDISPREPMASSELEMPLAN50
1000
AcRTDxfName
1000
AEC_DISPREPAECDBDISPREPMASSELEMPLAN50
1000
AcRTDxfName
1000
AEC_DISPREPAECDBDISPREPMASSELEMPLAN50
1000
AcRTDxfName
1000
AEC_DISPREPAECDBDISPREPMASSELEMPLAN50
1000
AcRTDxfName
1000
AEC_DISPREPAECDBDISPREPMASSELEMPLAN50
1000
AcRTDxfName
1000
AEC_DISPREPAECDBDISPREPMASSELEMPLAN50
1000
AcRTDxfName
1000
AEC_DISPREPAECDBDISPREPMASSELEMPLAN50
1000
AcRTDxfName
1000
AEC_DISPREPAECDBDISPREPMASSELEMPLAN50
  0
ACAD_PROXY_OBJECT
  5
2EC928
102
{ACAD_REACTORS
330
2EC907
102
}
330
2EC907
100
AcDbProxyObject
 90
      499
 91
      544
 95
       23
 70
     0
 93
      110
310
51B4D14694680051946C5194651B
340
2EC929
 94
        0
1001
ACAD
1000
AcRTDxfName
1000
AEC_DISP_REP_MASS_ELEM_RCP
1000
AcRTDxfName
1000
AEC_DISP_REP_MASS_ELEM_RCP
1000
AcRTDxfName
1000
AEC_DISP_REP_MASS_ELEM_RCP
1000
AcRTDxfName
1000
AEC_DISP_REP_MASS_ELEM_RCP
1000
AcRTDxfName
1000
AEC_DISP_REP_MASS_ELEM_RCP
1000
AcRTDxfName
1000
AEC_DISP_REP_MASS_ELEM_RCP
1000
AcRTDxfName
1000
AEC_DISP_REP_MASS_ELEM_RCP
1000
AcRTDxfName
1000
AEC_DISP_REP_MASS_ELEM_RCP
1000
AcRTDxfName
1000
AEC_DISP_REP_MASS_ELEM_RCP
1000
AcRTDxfName
1000
AEC_DISP_REP_MASS_ELEM_RCP
1000
AcRTDxfName
1000
AEC_DISP_REP_MASS_ELEM_RCP
  0
ACAD_PROXY_OBJECT
  5
2EC922
102
{ACAD_REACTORS
330
2EC907
102
}
330
2EC907
100
AcDbProxyObject
 90
      499
 91
      540
 95
       23
 70
     0
 93
      100
310
51B4D14694680051946C51946F
340
2EC923
 94
        0
1001
ACAD
1000
AcRTDxfName
1000
AEC_DISP_REP_MASS_ELEM_SCHEM
1000
AcRTDxfName
1000
AEC_DISP_REP_MASS_ELEM_SCHEM
1000
AcRTDxfName
1000
AEC_DISP_REP_MASS_ELEM_SCHEM
1000
AcRTDxfName
1000
AEC_DISP_REP_MASS_ELEM_SCHEM
1000
AcRTDxfName
1000
AEC_DISP_REP_MASS_ELEM_SCHEM
1000
AcRTDxfName
1000
AEC_DISP_REP_MASS_ELEM_SCHEM
1000
AcRTDxfName
1000
AEC_DISP_REP_MASS_ELEM_SCHEM
1000
AcRTDxfName
1000
AEC_DISP_REP_MASS_ELEM_SCHEM
1000
AcRTDxfName
1000
AEC_DISP_REP_MASS_ELEM_SCHEM
1000
AcRTDxfName
1000
AEC_DISP_REP_MASS_ELEM_SCHEM
1000
AcRTDxfName
1000
AEC_DISP_REP_MASS_ELEM_SCHEM
  0
ACAD_PROXY_OBJECT
  5
2EC92A
102
{ACAD_REACTORS
330
2EC907
102
}
330
2EC907
100
AcDbProxyObject
 90
      499
 91
      545
 95
       23
 70
     0
 93
      100
310
51B4D14694680051946C51946F
340
2EC92B
 94
        0
1001
ACAD
1000
AcRTDxfName
1000
AEC_DISP_REP_MASS_GROUP_MODEL
1000
AcRTDxfName
1000
AEC_DISP_REP_MASS_GROUP_MODEL
1000
AcRTDxfName
1000
AEC_DISP_REP_MASS_GROUP_MODEL
1000
AcRTDxfName
1000
AEC_DISP_REP_MASS_GROUP_MODEL
1000
AcRTDxfName
1000
AEC_DISP_REP_MASS_GROUP_MODEL
1000
AcRTDxfName
1000
AEC_DISP_REP_MASS_GROUP_MODEL
1000
AcRTDxfName
1000
AEC_DISP_REP_MASS_GROUP_MODEL
1000
AcRTDxfName
1000
AEC_DISP_REP_MASS_GROUP_MODEL
1000
AcRTDxfName
1000
AEC_DISP_REP_MASS_GROUP_MODEL
1000
AcRTDxfName
1000
AEC_DISP_REP_MASS_GROUP_MODEL
1000
AcRTDxfName
1000
AEC_DISP_REP_MASS_GROUP_MODEL
  0
ACAD_PROXY_OBJECT
  5
2EC92C
102
{ACAD_REACTORS
330
2EC907
102
}
330
2EC907
100
AcDbProxyObject
 90
      499
 91
      547
 95
       23
 70
     0
 93
      100
310
51B4D14694680051946C51946F
340
2EC92D
 94
        0
1001
ACAD
1000
AcRTDxfName
1000
AEC_DISP_REP_MASS_GROUP_PLAN
1000
AcRTDxfName
1000
AEC_DISP_REP_MASS_GROUP_PLAN
1000
AcRTDxfName
1000
AEC_DISP_REP_MASS_GROUP_PLAN
1000
AcRTDxfName
1000
AEC_DISP_REP_MASS_GROUP_PLAN
1000
AcRTDxfName
1000
AEC_DISP_REP_MASS_GROUP_PLAN
1000
AcRTDxfName
1000
AEC_DISP_REP_MASS_GROUP_PLAN
1000
AcRTDxfName
1000
AEC_DISP_REP_MASS_GROUP_PLAN
1000
AcRTDxfName
1000
AEC_DISP_REP_MASS_GROUP_PLAN
1000
AcRTDxfName
1000
AEC_DISP_REP_MASS_GROUP_PLAN
1000
AcRTDxfName
1000
AEC_DISP_REP_MASS_GROUP_PLAN
1000
AcRTDxfName
1000
AEC_DISP_REP_MASS_GROUP_PLAN
  0
ACAD_PROXY_OBJECT
  5
2EC930
102
{ACAD_REACTORS
330
2EC907
102
}
330
2EC907
100
AcDbProxyObject
 90
      499
 91
      550
 95
       23
 70
     0
 93
      110
310
51B4D14694680051946C5194651B
340
2EC931
 94
        0
1001
ACAD
1000
AcRTDxfName
1000
AEC_DISPREPAECDBDISPREPMASSGROUPPLAN100
1000
AcRTDxfName
1000
AEC_DISPREPAECDBDISPREPMASSGROUPPLAN100
1000
AcRTDxfName
1000
AEC_DISPREPAECDBDISPREPMASSGROUPPLAN100
1000
AcRTDxfName
1000
AEC_DISPREPAECDBDISPREPMASSGROUPPLAN100
1000
AcRTDxfName
1000
AEC_DISPREPAECDBDISPREPMASSGROUPPLAN100
1000
AcRTDxfName
1000
AEC_DISPREPAECDBDISPREPMASSGROUPPLAN100
1000
AcRTDxfName
1000
AEC_DISPREPAECDBDISPREPMASSGROUPPLAN100
1000
AcRTDxfName
1000
AEC_DISPREPAECDBDISPREPMASSGROUPPLAN100
1000
AcRTDxfName
1000
AEC_DISPREPAECDBDISPREPMASSGROUPPLAN100
1000
AcRTDxfName
1000
AEC_DISPREPAECDBDISPREPMASSGROUPPLAN100
1000
AcRTDxfName
1000
AEC_DISPREPAECDBDISPREPMASSGROUPPLAN100
  0
ACAD_PROXY_OBJECT
  5
2EC92E
102
{ACAD_REACTORS
330
2EC907
102
}
330
2EC907
100
AcDbProxyObject
 90
      499
 91
      548
 95
       23
 70
     0
 93
      110
310
51B4D14694680051946C5194651B
340
2EC92F
 94
        0
1001
ACAD
1000
AcRTDxfName
1000
AEC_DISPREPAECDBDISPREPMASSGROUPPLAN50
1000
AcRTDxfName
1000
AEC_DISPREPAECDBDISPREPMASSGROUPPLAN50
1000
AcRTDxfName
1000
AEC_DISPREPAECDBDISPREPMASSGROUPPLAN50
1000
AcRTDxfName
1000
AEC_DISPREPAECDBDISPREPMASSGROUPPLAN50
1000
AcRTDxfName
1000
AEC_DISPREPAECDBDISPREPMASSGROUPPLAN50
1000
AcRTDxfName
1000
AEC_DISPREPAECDBDISPREPMASSGROUPPLAN50
1000
AcRTDxfName
1000
AEC_DISPREPAECDBDISPREPMASSGROUPPLAN50
1000
AcRTDxfName
1000
AEC_DISPREPAECDBDISPREPMASSGROUPPLAN50
1000
AcRTDxfName
1000
AEC_DISPREPAECDBDISPREPMASSGROUPPLAN50
1000
AcRTDxfName
1000
AEC_DISPREPAECDBDISPREPMASSGROUPPLAN50
1000
AcRTDxfName
1000
AEC_DISPREPAECDBDISPREPMASSGROUPPLAN50
  0
ACAD_PROXY_OBJECT
  5
2EC932
102
{ACAD_REACTORS
330
2EC907
102
}
330
2EC907
100
AcDbProxyObject
 90
      499
 91
      551
 95
       23
 70
     0
 93
      110
310
51B4D14694680051946C5194651B
340
2EC933
 94
        0
1001
ACAD
1000
AcRTDxfName
1000
AEC_DISP_REP_MASS_GROUP_RCP
1000
AcRTDxfName
1000
AEC_DISP_REP_MASS_GROUP_RCP
1000
AcRTDxfName
1000
AEC_DISP_REP_MASS_GROUP_RCP
1000
AcRTDxfName
1000
AEC_DISP_REP_MASS_GROUP_RCP
1000
AcRTDxfName
1000
AEC_DISP_REP_MASS_GROUP_RCP
1000
AcRTDxfName
1000
AEC_DISP_REP_MASS_GROUP_RCP
1000
AcRTDxfName
1000
AEC_DISP_REP_MASS_GROUP_RCP
1000
AcRTDxfName
1000
AEC_DISP_REP_MASS_GROUP_RCP
1000
AcRTDxfName
1000
AEC_DISP_REP_MASS_GROUP_RCP
1000
AcRTDxfName
1000
AEC_DISP_REP_MASS_GROUP_RCP
1000
AcRTDxfName
1000
AEC_DISP_REP_MASS_GROUP_RCP
  0
ACAD_PROXY_OBJECT
  5
2EC941
102
{ACAD_REACTORS
330
2EC907
102
}
330
2EC907
100
AcDbProxyObject
 90
      499
 91
      565
 95
       23
 70
     0
 93
       90
310
51B4D14694680051946C51BF
340
2EC942
 94
        0
1001
ACAD
1000
AcRTDxfName
1000
AEC_DISP_REP_MATERIAL
1000
AcRTDxfName
1000
AEC_DISP_REP_MATERIAL
1000
AcRTDxfName
1000
AEC_DISP_REP_MATERIAL
1000
AcRTDxfName
1000
AEC_DISP_REP_MATERIAL
1000
AcRTDxfName
1000
AEC_DISP_REP_MATERIAL
1000
AcRTDxfName
1000
AEC_DISP_REP_MATERIAL
1000
AcRTDxfName
1000
AEC_DISP_REP_MATERIAL
1000
AcRTDxfName
1000
AEC_DISP_REP_MATERIAL
1000
AcRTDxfName
1000
AEC_DISP_REP_MATERIAL
1000
AcRTDxfName
1000
AEC_DISP_REP_MATERIAL
1000
AcRTDxfName
1000
AEC_DISP_REP_MATERIAL
  0
ACAD_PROXY_OBJECT
  5
2EC934
102
{ACAD_REACTORS
330
2EC907
102
}
330
2EC907
100
AcDbProxyObject
 90
      499
 91
      552
 95
       23
 70
     0
 93
       90
310
51B4D14694680051946C51BF
340
0
 94
        0
1001
ACAD
1000
AcRTDxfName
1000
AEC_DISP_REP_MVBLOCK_REF
1000
AcRTDxfName
1000
AEC_DISP_REP_MVBLOCK_REF
1000
AcRTDxfName
1000
AEC_DISP_REP_MVBLOCK_REF
1000
AcRTDxfName
1000
AEC_DISP_REP_MVBLOCK_REF
1000
AcRTDxfName
1000
AEC_DISP_REP_MVBLOCK_REF
1000
AcRTDxfName
1000
AEC_DISP_REP_MVBLOCK_REF
1000
AcRTDxfName
1000
AEC_DISP_REP_MVBLOCK_REF
1000
AcRTDxfName
1000
AEC_DISP_REP_MVBLOCK_REF
1000
AcRTDxfName
1000
AEC_DISP_REP_MVBLOCK_REF
1000
AcRTDxfName
1000
AEC_DISP_REP_MVBLOCK_REF
1000
AcRTDxfName
1000
AEC_DISP_REP_MVBLOCK_REF
  0
ACAD_PROXY_OBJECT
  5
2EC935
102
{ACAD_REACTORS
330
2EC907
102
}
330
2EC907
100
AcDbProxyObject
 90
      499
 91
      553
 95
       23
 70
     0
 93
      100
310
51B4D14694680051946C51946F
340
0
 94
        0
1001
ACAD
1000
AcRTDxfName
1000
AEC_DISP_REP_MVBLOCK_REF_MODEL
1000
AcRTDxfName
1000
AEC_DISP_REP_MVBLOCK_REF_MODEL
1000
AcRTDxfName
1000
AEC_DISP_REP_MVBLOCK_REF_MODEL
1000
AcRTDxfName
1000
AEC_DISP_REP_MVBLOCK_REF_MODEL
1000
AcRTDxfName
1000
AEC_DISP_REP_MVBLOCK_REF_MODEL
1000
AcRTDxfName
1000
AEC_DISP_REP_MVBLOCK_REF_MODEL
1000
AcRTDxfName
1000
AEC_DISP_REP_MVBLOCK_REF_MODEL
1000
AcRTDxfName
1000
AEC_DISP_REP_MVBLOCK_REF_MODEL
1000
AcRTDxfName
1000
AEC_DISP_REP_MVBLOCK_REF_MODEL
1000
AcRTDxfName
1000
AEC_DISP_REP_MVBLOCK_REF_MODEL
1000
AcRTDxfName
1000
AEC_DISP_REP_MVBLOCK_REF_MODEL
  0
ACAD_PROXY_OBJECT
  5
2EC936
102
{ACAD_REACTORS
330
2EC907
102
}
330
2EC907
100
AcDbProxyObject
 90
      499
 91
      554
 95
       23
 70
     0
 93
      100
310
51B4D14694680051946C51946F
340
0
 94
        0
1001
ACAD
1000
AcRTDxfName
1000
AEC_AECDBDISPREPMVBLOCKREFPLAN100
1000
AcRTDxfName
1000
AEC_AECDBDISPREPMVBLOCKREFPLAN100
1000
AcRTDxfName
1000
AEC_AECDBDISPREPMVBLOCKREFPLAN100
1000
AcRTDxfName
1000
AEC_AECDBDISPREPMVBLOCKREFPLAN100
1000
AcRTDxfName
1000
AEC_AECDBDISPREPMVBLOCKREFPLAN100
1000
AcRTDxfName
1000
AEC_AECDBDISPREPMVBLOCKREFPLAN100
1000
AcRTDxfName
1000
AEC_AECDBDISPREPMVBLOCKREFPLAN100
1000
AcRTDxfName
1000
AEC_AECDBDISPREPMVBLOCKREFPLAN100
1000
AcRTDxfName
1000
AEC_AECDBDISPREPMVBLOCKREFPLAN100
1000
AcRTDxfName
1000
AEC_AECDBDISPREPMVBLOCKREFPLAN100
1000
AcRTDxfName
1000
AEC_AECDBDISPREPMVBLOCKREFPLAN100
  0
ACAD_PROXY_OBJECT
  5
2EC937
102
{ACAD_REACTORS
330
2EC907
102
}
330
2EC907
100
AcDbProxyObject
 90
      499
 91
      555
 95
       23
 70
     0
 93
      100
310
51B4D14694680051946C51946F
340
0
 94
        0
1001
ACAD
1000
AcRTDxfName
1000
AEC_AECDBDISPREPMVBLOCKREFPLAN50
1000
AcRTDxfName
1000
AEC_AECDBDISPREPMVBLOCKREFPLAN50
1000
AcRTDxfName
1000
AEC_AECDBDISPREPMVBLOCKREFPLAN50
1000
AcRTDxfName
1000
AEC_AECDBDISPREPMVBLOCKREFPLAN50
1000
AcRTDxfName
1000
AEC_AECDBDISPREPMVBLOCKREFPLAN50
1000
AcRTDxfName
1000
AEC_AECDBDISPREPMVBLOCKREFPLAN50
1000
AcRTDxfName
1000
AEC_AECDBDISPREPMVBLOCKREFPLAN50
1000
AcRTDxfName
1000
AEC_AECDBDISPREPMVBLOCKREFPLAN50
1000
AcRTDxfName
1000
AEC_AECDBDISPREPMVBLOCKREFPLAN50
1000
AcRTDxfName
1000
AEC_AECDBDISPREPMVBLOCKREFPLAN50
1000
AcRTDxfName
1000
AEC_AECDBDISPREPMVBLOCKREFPLAN50
  0
ACAD_PROXY_OBJECT
  5
2EC938
102
{ACAD_REACTORS
330
2EC907
102
}
330
2EC907
100
AcDbProxyObject
 90
      499
 91
      556
 95
       23
 70
     0
 93
      100
310
51B4D14694680051946C51946F
340
2EC939
 94
        0
1001
ACAD
1000
AcRTDxfName
1000
AEC_DISP_REP_POLYGON_MODEL
1000
AcRTDxfName
1000
AEC_DISP_REP_POLYGON_MODEL
1000
AcRTDxfName
1000
AEC_DISP_REP_POLYGON_MODEL
1000
AcRTDxfName
1000
AEC_DISP_REP_POLYGON_MODEL
1000
AcRTDxfName
1000
AEC_DISP_REP_POLYGON_MODEL
1000
AcRTDxfName
1000
AEC_DISP_REP_POLYGON_MODEL
1000
AcRTDxfName
1000
AEC_DISP_REP_POLYGON_MODEL
1000
AcRTDxfName
1000
AEC_DISP_REP_POLYGON_MODEL
1000
AcRTDxfName
1000
AEC_DISP_REP_POLYGON_MODEL
1000
AcRTDxfName
1000
AEC_DISP_REP_POLYGON_MODEL
1000
AcRTDxfName
1000
AEC_DISP_REP_POLYGON_MODEL
  0
ACAD_PROXY_OBJECT
  5
2EC93A
102
{ACAD_REACTORS
330
2EC907
102
}
330
2EC907
100
AcDbProxyObject
 90
      499
 91
      558
 95
       23
 70
     0
 93
      100
310
51B4D14694680051946C51946F
340
2EC93B
 94
        0
1001
ACAD
1000
AcRTDxfName
1000
AEC_DISP_REP_POLYGON_TRUECOLOUR
1000
AcRTDxfName
1000
AEC_DISP_REP_POLYGON_TRUECOLOUR
1000
AcRTDxfName
1000
AEC_DISP_REP_POLYGON_TRUECOLOUR
1000
AcRTDxfName
1000
AEC_DISP_REP_POLYGON_TRUECOLOUR
1000
AcRTDxfName
1000
AEC_DISP_REP_POLYGON_TRUECOLOUR
1000
AcRTDxfName
1000
AEC_DISP_REP_POLYGON_TRUECOLOUR
1000
AcRTDxfName
1000
AEC_DISP_REP_POLYGON_TRUECOLOUR
1000
AcRTDxfName
1000
AEC_DISP_REP_POLYGON_TRUECOLOUR
1000
AcRTDxfName
1000
AEC_DISP_REP_POLYGON_TRUECOLOUR
1000
AcRTDxfName
1000
AEC_DISP_REP_POLYGON_TRUECOLOUR
1000
AcRTDxfName
1000
AEC_DISP_REP_POLYGON_TRUECOLOUR
  0
ACAD_PROXY_OBJECT
  5
2EC93C
102
{ACAD_REACTORS
330
2EC907
102
}
330
2EC907
100
AcDbProxyObject
 90
      499
 91
      560
 95
       23
 70
     0
 93
       90
310
51B4D14694680051946C51BF
340
2EC93D
 94
        0
1001
ACAD
1000
AcRTDxfName
1000
AEC_DISP_REP_SLICE
1000
AcRTDxfName
1000
AEC_DISP_REP_SLICE
1000
AcRTDxfName
1000
AEC_DISP_REP_SLICE
1000
AcRTDxfName
1000
AEC_DISP_REP_SLICE
1000
AcRTDxfName
1000
AEC_DISP_REP_SLICE
1000
AcRTDxfName
1000
AEC_DISP_REP_SLICE
1000
AcRTDxfName
1000
AEC_DISP_REP_SLICE
1000
AcRTDxfName
1000
AEC_DISP_REP_SLICE
1000
AcRTDxfName
1000
AEC_DISP_REP_SLICE
1000
AcRTDxfName
1000
AEC_DISP_REP_SLICE
1000
AcRTDxfName
1000
AEC_DISP_REP_SLICE
  0
ACAD_PROXY_OBJECT
  5
2EC90A
102
{ACAD_REACTORS
330
2EC909
102
}
330
2EC909
100
AcDbProxyObject
 90
      499
 91
      518
 95
       23
 70
     0
 93
     2323
310
51B4D146946800519465194694644F42546946946C7F7FA80D5684A8D28D28D8FEFF501406AD0951A51A51B1FDFEA0355A12A34A34A363FBFD40501AB42546946946C7F7FA80A035684A8D28D28D8FEFF501406AD0951A51A51B1FDFEA0280D5A12A34A34A363FBFD40501AB42546946946C7F7FA80A035684A8D28D28D8FE
310
FF501406AD0951A51A51B1FDFEA0280D5A12A34A34A363FBFD40501AB42546946946C7F7FA80A035684A8D28D28D8FEFF501406AD0951A51A51B1FDFEA0355A12A34A34A363FBFD406AB42546946946C7F7FA80A035684A8D28D28D8FEFF501406AD0951A51A51B1FDFEA0280D4A34A34A34A3203A14A34A34A323FBFD406A
310
946907414E53493133310000000000000E100182D4454FB21E93F00000000000005080A55F
340
F
340
12
340
0
340
F
340
12
340
0
340
F
340
12
340
0
340
F
340
12
340
0
340
F
340
12
340
0
340
F
340
12
340
0
340
F
340
12
340
0
340
F
340
12
340
0
340
F
340
12
340
0
340
F
340
12
340
0
340
F
340
12
340
0
340
F
340
12
340
0
340
F
340
12
340
0
340
F
340
12
340
0
340
F
340
12
340
0
340
F
340
12
340
0
340
F
340
12
340
0
340
F
340
12
340
0
340
F
340
12
340
0
340
F
340
12
340
0
 94
        0
1001
ACAD
1000
AcRTDxfName
1000
AEC_DISP_PROPS_2D_SECTION
1000
AcRTDxfName
1000
AEC_DISP_PROPS_2D_SECTION
1000
AcRTDxfName
1000
AEC_DISP_PROPS_2D_SECTION
1000
AcRTDxfName
1000
AEC_DISP_PROPS_2D_SECTION
1000
AcRTDxfName
1000
AEC_DISP_PROPS_2D_SECTION
1000
AcRTDxfName
1000
AEC_DISP_PROPS_2D_SECTION
1000
AcRTDxfName
1000
AEC_DISP_PROPS_2D_SECTION
1000
AcRTDxfName
1000
AEC_DISP_PROPS_2D_SECTION
1000
AcRTDxfName
1000
AEC_DISP_PROPS_2D_SECTION
1000
AcRTDxfName
1000
AEC_DISP_PROPS_2D_SECTION
1000
AcRTDxfName
1000
AEC_DISP_PROPS_2D_SECTION
  0
ACAD_PROXY_OBJECT
  5
2EC917
102
{ACAD_REACTORS
330
2EC909
102
}
330
2EC909
100
AcDbProxyObject
 90
      499
 91
      530
 95
       23
 70
     0
 93
      207
310
51B4D146946800519465194694640742546946946C7F7FA80D53
340
F
340
12
340
0
 94
        0
1001
ACAD
1000
AcRTDxfName
1000
AEC_DISP_PROPS_LAYOUT_CURVE
1000
AcRTDxfName
1000
AEC_DISP_PROPS_LAYOUT_CURVE
1000
AcRTDxfName
1000
AEC_DISP_PROPS_LAYOUT_CURVE
1000
AcRTDxfName
1000
AEC_DISP_PROPS_LAYOUT_CURVE
1000
AcRTDxfName
1000
AEC_DISP_PROPS_LAYOUT_CURVE
1000
AcRTDxfName
1000
AEC_DISP_PROPS_LAYOUT_CURVE
1000
AcRTDxfName
1000
AEC_DISP_PROPS_LAYOUT_CURVE
1000
AcRTDxfName
1000
AEC_DISP_PROPS_LAYOUT_CURVE
1000
AcRTDxfName
1000
AEC_DISP_PROPS_LAYOUT_CURVE
1000
AcRTDxfName
1000
AEC_DISP_PROPS_LAYOUT_CURVE
1000
AcRTDxfName
1000
AEC_DISP_PROPS_LAYOUT_CURVE
  0
ACAD_PROXY_OBJECT
  5
2EC93D
102
{ACAD_REACTORS
330
2EC909
102
}
330
2EC909
100
AcDbProxyObject
 90
      499
 91
      561
 95
       23
 70
     0
 93
      379
310
51B4D146946800519465194694640F42546946946C7F7FA80D5684A8D28D28D8FEFF501AAD0951A51A51B1FDFEA0355F
340
F
340
12
340
0
340
F
340
12
340
0
340
F
340
12
340
0
 94
        0
1001
ACAD
1000
AcRTDxfName
1000
AEC_DISP_PROPS_SLICE
1000
AcRTDxfName
1000
AEC_DISP_PROPS_SLICE
1000
AcRTDxfName
1000
AEC_DISP_PROPS_SLICE
1000
AcRTDxfName
1000
AEC_DISP_PROPS_SLICE
1000
AcRTDxfName
1000
AEC_DISP_PROPS_SLICE
1000
AcRTDxfName
1000
AEC_DISP_PROPS_SLICE
1000
AcRTDxfName
1000
AEC_DISP_PROPS_SLICE
1000
AcRTDxfName
1000
AEC_DISP_PROPS_SLICE
1000
AcRTDxfName
1000
AEC_DISP_PROPS_SLICE
1000
AcRTDxfName
1000
AEC_DISP_PROPS_SLICE
1000
AcRTDxfName
1000
AEC_DISP_PROPS_SLICE
  0
ACAD_PROXY_OBJECT
  5
2EC92D
102
{ACAD_REACTORS
330
2EC909
102
}
330
2EC909
100
AcDbProxyObject
 90
      499
 91
      546
 95
       23
 70
     0
 93
      302
310
51B4D1469468005194651A51A51902D0951A51A51B1FDFEA0280D5A12A34A34A363FBFD406AB
340
F
340
12
340
0
340
F
340
12
340
0
 94
        0
1001
ACAD
1000
AcRTDxfName
1000
AEC_DISP_PROPS_MASS_GROUP
1000
AcRTDxfName
1000
AEC_DISP_PROPS_MASS_GROUP
1000
AcRTDxfName
1000
AEC_DISP_PROPS_MASS_GROUP
1000
AcRTDxfName
1000
AEC_DISP_PROPS_MASS_GROUP
1000
AcRTDxfName
1000
AEC_DISP_PROPS_MASS_GROUP
1000
AcRTDxfName
1000
AEC_DISP_PROPS_MASS_GROUP
1000
AcRTDxfName
1000
AEC_DISP_PROPS_MASS_GROUP
1000
AcRTDxfName
1000
AEC_DISP_PROPS_MASS_GROUP
1000
AcRTDxfName
1000
AEC_DISP_PROPS_MASS_GROUP
1000
AcRTDxfName
1000
AEC_DISP_PROPS_MASS_GROUP
1000
AcRTDxfName
1000
AEC_DISP_PROPS_MASS_GROUP
  0
ACAD_PROXY_OBJECT
  5
2EC942
102
{ACAD_REACTORS
330
2EC909
102
}
330
2EC909
100
AcDbProxyObject
 90
      499
 91
      566
 95
       23
 70
     0
 93
     1709
310
51B4D146946800519465194694641742546946946C7F7FA80D5684A8D28D28D8FEFF501AAD0951A51A51B1FDFEA0355A12A34A34A363FBFD406AB42546946946C7F7FA80D528D28C81E8528D28D28C8FEFF501AA51A41D05394D24C4CCC40000000000003840060B51153EC87A4FC0000000000001420295A14A34A34A323F
310
BFD406A946907414E53493133310000000000000E100182D4454FB21E93F00000000000005080A568528D28D28C8FEFF501AA51A41D05394D24C4CCC40000000000003840060B51153EC87A4FC00000000000014202957
340
F
340
12
340
0
340
F
340
12
340
0
340
F
340
12
340
0
340
F
340
12
340
0
340
F
340
12
340
0
340
F
340
12
340
0
340
F
340
12
340
0
340
F
340
12
340
0
340
0
340
0
340
0
 94
        0
1001
ACAD
1000
AcRTDxfName
1000
AEC_DISP_PROPS_MATERIAL
1000
AcRTDxfName
1000
AEC_DISP_PROPS_MATERIAL
1000
AcRTDxfName
1000
AEC_DISP_PROPS_MATERIAL
1000
AcRTDxfName
1000
AEC_DISP_PROPS_MATERIAL
1000
AcRTDxfName
1000
AEC_DISP_PROPS_MATERIAL
1000
AcRTDxfName
1000
AEC_DISP_PROPS_MATERIAL
1000
AcRTDxfName
1000
AEC_DISP_PROPS_MATERIAL
1000
AcRTDxfName
1000
AEC_DISP_PROPS_MATERIAL
1000
AcRTDxfName
1000
AEC_DISP_PROPS_MATERIAL
1000
AcRTDxfName
1000
AEC_DISP_PROPS_MATERIAL
1000
AcRTDxfName
1000
AEC_DISP_PROPS_MATERIAL
  0
ACAD_PROXY_OBJECT
  5
2EC944
102
{ACAD_REACTORS
330
2EC909
102
}
330
2EC909
100
AcDbProxyObject
 90
      499
 91
      568
 95
       23
 70
     0
 93
      753
310
51B4D146946800519465194694641342546946946C7F7FA80D568528D28D28C8FEFF501AA51A41D05394D24C4CCC40000000000003840060B51153EC87A4FC0000000000001420295A12A34A34A363FBFD406AB42546946946C7F7FA80D57F
340
F
340
12
340
0
340
F
340
12
340
0
340
F
340
12
340
0
340
F
340
12
340
0
 94
        0
1001
ACAD
1000
AcRTDxfName
1000
AEC_DISP_PROPS_EDITINPLACEPROFILE_MODEL
1000
AcRTDxfName
1000
AEC_DISP_PROPS_EDITINPLACEPROFILE_MODEL
1000
AcRTDxfName
1000
AEC_DISP_PROPS_EDITINPLACEPROFILE_MODEL
1000
AcRTDxfName
1000
AEC_DISP_PROPS_EDITINPLACEPROFILE_MODEL
1000
AcRTDxfName
1000
AEC_DISP_PROPS_EDITINPLACEPROFILE_MODEL
1000
AcRTDxfName
1000
AEC_DISP_PROPS_EDITINPLACEPROFILE_MODEL
1000
AcRTDxfName
1000
AEC_DISP_PROPS_EDITINPLACEPROFILE_MODEL
1000
AcRTDxfName
1000
AEC_DISP_PROPS_EDITINPLACEPROFILE_MODEL
1000
AcRTDxfName
1000
AEC_DISP_PROPS_EDITINPLACEPROFILE_MODEL
1000
AcRTDxfName
1000
AEC_DISP_PROPS_EDITINPLACEPROFILE_MODEL
1000
AcRTDxfName
1000
AEC_DISP_PROPS_EDITINPLACEPROFILE_MODEL
  0
ACAD_PROXY_OBJECT
  5
2EC921
102
{ACAD_REACTORS
330
2EC909
102
}
330
2EC909
100
AcDbProxyObject
 90
      499
 91
      539
 95
       23
 70
     0
 93
      682
310
51B4D146946800519465194694640F42546946946C7F7FA80A035684A8D28D28C8FEFF501AAD0A51A51A5191FDFEA0280D4A3483A0A729A4989998800000000000070800C16A22A7D90F49F8000000000000284052BF
340
F
340
12
340
0
340
F
340
12
340
0
340
F
340
12
340
0
 94
        0
1001
ACAD
1000
AcRTDxfName
1000
AEC_DISP_PROPS_MASS_ELEM_MODEL
1000
AcRTDxfName
1000
AEC_DISP_PROPS_MASS_ELEM_MODEL
1000
AcRTDxfName
1000
AEC_DISP_PROPS_MASS_ELEM_MODEL
1000
AcRTDxfName
1000
AEC_DISP_PROPS_MASS_ELEM_MODEL
1000
AcRTDxfName
1000
AEC_DISP_PROPS_MASS_ELEM_MODEL
1000
AcRTDxfName
1000
AEC_DISP_PROPS_MASS_ELEM_MODEL
1000
AcRTDxfName
1000
AEC_DISP_PROPS_MASS_ELEM_MODEL
1000
AcRTDxfName
1000
AEC_DISP_PROPS_MASS_ELEM_MODEL
1000
AcRTDxfName
1000
AEC_DISP_PROPS_MASS_ELEM_MODEL
1000
AcRTDxfName
1000
AEC_DISP_PROPS_MASS_ELEM_MODEL
1000
AcRTDxfName
1000
AEC_DISP_PROPS_MASS_ELEM_MODEL
  0
ACAD_PROXY_OBJECT
  5
2EC90E
102
{ACAD_REACTORS
330
2EC909
102
}
330
2EC909
100
AcDbProxyObject
 90
      499
 91
      520
 95
       23
 70
     0
 93
      379
310
51B4D146946800519465194694640F42546946946C7F7FA80D5684A8D28D28D8FEFF501AAD0951A51A51B1FDFEA0355F
340
F
340
12
340
0
340
F
340
12
340
0
340
F
340
12
340
0
 94
        0
1001
ACAD
1000
AcRTDxfName
1000
AEC_DISP_PROPS_CLIP_VOLUME
1000
AcRTDxfName
1000
AEC_DISP_PROPS_CLIP_VOLUME
1000
AcRTDxfName
1000
AEC_DISP_PROPS_CLIP_VOLUME
1000
AcRTDxfName
1000
AEC_DISP_PROPS_CLIP_VOLUME
1000
AcRTDxfName
1000
AEC_DISP_PROPS_CLIP_VOLUME
1000
AcRTDxfName
1000
AEC_DISP_PROPS_CLIP_VOLUME
1000
AcRTDxfName
1000
AEC_DISP_PROPS_CLIP_VOLUME
1000
AcRTDxfName
1000
AEC_DISP_PROPS_CLIP_VOLUME
1000
AcRTDxfName
1000
AEC_DISP_PROPS_CLIP_VOLUME
1000
AcRTDxfName
1000
AEC_DISP_PROPS_CLIP_VOLUME
1000
AcRTDxfName
1000
AEC_DISP_PROPS_CLIP_VOLUME
  0
ACAD_PROXY_OBJECT
  5
2EC913
102
{ACAD_REACTORS
330
2EC909
102
}
330
2EC909
100
AcDbProxyObject
 90
      499
 91
      526
 95
       23
 70
     0
 93
      840
310
51B4D146946800519465194694641742546946946C7F7FA80D568528D28D28C8FEFF501AA51A41D05394D24C4CCC40000000000003840060B51153EC87A4FC0000000000001420295A12A34A34A363FBFD406AB42546946946C7F7FA80D5684A8D28D28D8FEFF501AA00
340
F
340
12
340
0
340
F
340
12
340
0
340
F
340
12
340
0
340
F
340
12
340
0
340
F
340
12
340
0
 94
        0
1001
ACAD
1000
AcRTDxfName
1000
AEC_DISP_PROPS_DISPLAYTHEME
1000
AcRTDxfName
1000
AEC_DISP_PROPS_DISPLAYTHEME
1000
AcRTDxfName
1000
AEC_DISP_PROPS_DISPLAYTHEME
1000
AcRTDxfName
1000
AEC_DISP_PROPS_DISPLAYTHEME
1000
AcRTDxfName
1000
AEC_DISP_PROPS_DISPLAYTHEME
1000
AcRTDxfName
1000
AEC_DISP_PROPS_DISPLAYTHEME
1000
AcRTDxfName
1000
AEC_DISP_PROPS_DISPLAYTHEME
1000
AcRTDxfName
1000
AEC_DISP_PROPS_DISPLAYTHEME
1000
AcRTDxfName
1000
AEC_DISP_PROPS_DISPLAYTHEME
1000
AcRTDxfName
1000
AEC_DISP_PROPS_DISPLAYTHEME
1000
AcRTDxfName
1000
AEC_DISP_PROPS_DISPLAYTHEME
  0
ACAD_PROXY_OBJECT
  5
2EC927
102
{ACAD_REACTORS
330
2EC909
102
}
330
2EC909
100
AcDbProxyObject
 90
      499
 91
      542
 95
       23
 70
     0
 93
      908
310
51B4D146946800519465194694640F42546946946C7F7FA80D5684A8D28D28C8FEFF501AAD0A51A51A5191FDFEA0280D4A3483A0A729A4989998800000000000070800C16A22A7D90F49F800000000000028405294651A51902D0951A51A51B1FDFEA0280D5A12A34A34A363FBFD406AA00F
340
F
340
12
340
0
340
F
340
12
340
0
340
F
340
12
340
0
340
F
340
12
340
0
340
F
340
12
340
0
 94
        0
1001
ACAD
1000
AcRTDxfName
1000
AEC_DISPROPSMASSELEMPLANCOMMON
1000
AcRTDxfName
1000
AEC_DISPROPSMASSELEMPLANCOMMON
1000
AcRTDxfName
1000
AEC_DISPROPSMASSELEMPLANCOMMON
1000
AcRTDxfName
1000
AEC_DISPROPSMASSELEMPLANCOMMON
1000
AcRTDxfName
1000
AEC_DISPROPSMASSELEMPLANCOMMON
1000
AcRTDxfName
1000
AEC_DISPROPSMASSELEMPLANCOMMON
1000
AcRTDxfName
1000
AEC_DISPROPSMASSELEMPLANCOMMON
1000
AcRTDxfName
1000
AEC_DISPROPSMASSELEMPLANCOMMON
1000
AcRTDxfName
1000
AEC_DISPROPSMASSELEMPLANCOMMON
1000
AcRTDxfName
1000
AEC_DISPROPSMASSELEMPLANCOMMON
1000
AcRTDxfName
1000
AEC_DISPROPSMASSELEMPLANCOMMON
  0
ACAD_PROXY_OBJECT
  5
2EC915
102
{ACAD_REACTORS
330
2EC909
102
}
330
2EC909
100
AcDbProxyObject
 90
      499
 91
      528
 95
       23
 70
     0
 93
      294
310
51B4D1469468005194651A51A51902D0951A51A51B1FDFEA0355A12A34A34A363FBFD406AB
340
F
340
12
340
0
340
F
340
12
340
0
 94
        0
1001
ACAD
1000
AcRTDxfName
1000
AEC_DISP_PROPS_ENT_REF
1000
AcRTDxfName
1000
AEC_DISP_PROPS_ENT_REF
1000
AcRTDxfName
1000
AEC_DISP_PROPS_ENT_REF
1000
AcRTDxfName
1000
AEC_DISP_PROPS_ENT_REF
1000
AcRTDxfName
1000
AEC_DISP_PROPS_ENT_REF
1000
AcRTDxfName
1000
AEC_DISP_PROPS_ENT_REF
1000
AcRTDxfName
1000
AEC_DISP_PROPS_ENT_REF
1000
AcRTDxfName
1000
AEC_DISP_PROPS_ENT_REF
1000
AcRTDxfName
1000
AEC_DISP_PROPS_ENT_REF
1000
AcRTDxfName
1000
AEC_DISP_PROPS_ENT_REF
1000
AcRTDxfName
1000
AEC_DISP_PROPS_ENT_REF
  0
ACAD_PROXY_OBJECT
  5
2EC940
102
{ACAD_REACTORS
330
2EC909
102
}
330
2EC909
100
AcDbProxyObject
 90
      499
 91
      564
 95
       23
 70
     0
 93
      173
310
51B4D1469468005194651B42546946946C7F7FA80D57
340
F
340
12
340
0
 94
        0
1001
ACAD
1000
AcRTDxfName
1000
AEC_DISP_PROPS_ENT
1000
AcRTDxfName
1000
AEC_DISP_PROPS_ENT
1000
AcRTDxfName
1000
AEC_DISP_PROPS_ENT
1000
AcRTDxfName
1000
AEC_DISP_PROPS_ENT
1000
AcRTDxfName
1000
AEC_DISP_PROPS_ENT
1000
AcRTDxfName
1000
AEC_DISP_PROPS_ENT
1000
AcRTDxfName
1000
AEC_DISP_PROPS_ENT
1000
AcRTDxfName
1000
AEC_DISP_PROPS_ENT
1000
AcRTDxfName
1000
AEC_DISP_PROPS_ENT
1000
AcRTDxfName
1000
AEC_DISP_PROPS_ENT
1000
AcRTDxfName
1000
AEC_DISP_PROPS_ENT
  0
ACAD_PROXY_OBJECT
  5
2EC919
102
{ACAD_REACTORS
330
2EC909
102
}
330
2EC909
100
AcDbProxyObject
 90
      499
 91
      532
 95
       23
 70
     0
 93
      468
310
51B4D14694680051946519469464134254694694647F7FA80D5684A8D28D28C8FEFF501AAD0951A51A51B1FDFEA0355A12A34A34A363FBFD406A9F
340
F
340
12
340
0
340
F
340
12
340
0
340
F
340
12
340
0
340
F
340
12
340
0
 94
        0
1001
ACAD
1000
AcRTDxfName
1000
AEC_DISP_PROPS_LAYOUT_GRID2D
1000
AcRTDxfName
1000
AEC_DISP_PROPS_LAYOUT_GRID2D
1000
AcRTDxfName
1000
AEC_DISP_PROPS_LAYOUT_GRID2D
1000
AcRTDxfName
1000
AEC_DISP_PROPS_LAYOUT_GRID2D
1000
AcRTDxfName
1000
AEC_DISP_PROPS_LAYOUT_GRID2D
1000
AcRTDxfName
1000
AEC_DISP_PROPS_LAYOUT_GRID2D
1000
AcRTDxfName
1000
AEC_DISP_PROPS_LAYOUT_GRID2D
1000
AcRTDxfName
1000
AEC_DISP_PROPS_LAYOUT_GRID2D
1000
AcRTDxfName
1000
AEC_DISP_PROPS_LAYOUT_GRID2D
1000
AcRTDxfName
1000
AEC_DISP_PROPS_LAYOUT_GRID2D
1000
AcRTDxfName
1000
AEC_DISP_PROPS_LAYOUT_GRID2D
  0
ACAD_PROXY_OBJECT
  5
2EC91B
102
{ACAD_REACTORS
330
2EC909
102
}
330
2EC909
100
AcDbProxyObject
 90
      499
 91
      534
 95
       23
 70
     0
 93
      597
310
51B4D14694680051946519469464134254694694647F7FA80D5684A8D28D28C8FEFF501AAD0951A51A51B1FDFEA0355A12A34A34A363FBFD406A95194694640742546946946C7F7FA80D57
340
F
340
12
340
0
340
F
340
12
340
0
340
F
340
12
340
0
340
F
340
12
340
0
340
F
340
12
340
0
 94
        0
1001
ACAD
1000
AcRTDxfName
1000
AEC_DISP_PROPS_LAYOUT_GRID3D
1000
AcRTDxfName
1000
AEC_DISP_PROPS_LAYOUT_GRID3D
1000
AcRTDxfName
1000
AEC_DISP_PROPS_LAYOUT_GRID3D
1000
AcRTDxfName
1000
AEC_DISP_PROPS_LAYOUT_GRID3D
1000
AcRTDxfName
1000
AEC_DISP_PROPS_LAYOUT_GRID3D
1000
AcRTDxfName
1000
AEC_DISP_PROPS_LAYOUT_GRID3D
1000
AcRTDxfName
1000
AEC_DISP_PROPS_LAYOUT_GRID3D
1000
AcRTDxfName
1000
AEC_DISP_PROPS_LAYOUT_GRID3D
1000
AcRTDxfName
1000
AEC_DISP_PROPS_LAYOUT_GRID3D
1000
AcRTDxfName
1000
AEC_DISP_PROPS_LAYOUT_GRID3D
1000
AcRTDxfName
1000
AEC_DISP_PROPS_LAYOUT_GRID3D
  0
ACAD_PROXY_OBJECT
  5
2EC90C
102
{ACAD_REACTORS
330
2EC909
102
}
330
2EC909
100
AcDbProxyObject
 90
      499
 91
      520
 95
       23
 70
     0
 93
      379
310
51B4D146946800519465194694640F42546946946C7F7FA80D5684A8D28D28D8FEFF501AAD0951A51A51B1FDFEA0355F
340
F
340
12
340
0
340
F
340
12
340
0
340
F
340
12
340
0
 94
        0
1001
ACAD
1000
AcRTDxfName
1000
AEC_DISP_PROPS_CLIP_VOLUME
1000
AcRTDxfName
1000
AEC_DISP_PROPS_CLIP_VOLUME
1000
AcRTDxfName
1000
AEC_DISP_PROPS_CLIP_VOLUME
1000
AcRTDxfName
1000
AEC_DISP_PROPS_CLIP_VOLUME
1000
AcRTDxfName
1000
AEC_DISP_PROPS_CLIP_VOLUME
1000
AcRTDxfName
1000
AEC_DISP_PROPS_CLIP_VOLUME
1000
AcRTDxfName
1000
AEC_DISP_PROPS_CLIP_VOLUME
1000
AcRTDxfName
1000
AEC_DISP_PROPS_CLIP_VOLUME
1000
AcRTDxfName
1000
AEC_DISP_PROPS_CLIP_VOLUME
1000
AcRTDxfName
1000
AEC_DISP_PROPS_CLIP_VOLUME
1000
AcRTDxfName
1000
AEC_DISP_PROPS_CLIP_VOLUME
  0
ACAD_PROXY_OBJECT
  5
2EC91F
102
{ACAD_REACTORS
330
2EC909
102
}
330
2EC909
100
AcDbProxyObject
 90
      499
 91
      536
 95
       23
 70
     0
 93
      292
310
51B4D146946800519465194694640B42546946946C7F7FA80D5684A8D28D28D8FEFF501AAF
340
F
340
12
340
0
340
F
340
12
340
0
 94
        0
1001
ACAD
1000
AcRTDxfName
1000
AEC_DISP_PROPS_MASKBLOCK
1000
AcRTDxfName
1000
AEC_DISP_PROPS_MASKBLOCK
1000
AcRTDxfName
1000
AEC_DISP_PROPS_MASKBLOCK
1000
AcRTDxfName
1000
AEC_DISP_PROPS_MASKBLOCK
1000
AcRTDxfName
1000
AEC_DISP_PROPS_MASKBLOCK
1000
AcRTDxfName
1000
AEC_DISP_PROPS_MASKBLOCK
1000
AcRTDxfName
1000
AEC_DISP_PROPS_MASKBLOCK
1000
AcRTDxfName
1000
AEC_DISP_PROPS_MASKBLOCK
1000
AcRTDxfName
1000
AEC_DISP_PROPS_MASKBLOCK
1000
AcRTDxfName
1000
AEC_DISP_PROPS_MASKBLOCK
1000
AcRTDxfName
1000
AEC_DISP_PROPS_MASKBLOCK
  0
ACAD_PROXY_OBJECT
  5
2EC923
102
{ACAD_REACTORS
330
2EC909
102
}
330
2EC909
100
AcDbProxyObject
 90
      499
 91
      539
 95
       23
 70
     0
 93
      682
310
51B4D146946800519465194694640F42546946946C7F7FA80A035684A8D28D28C8FEFF501AAD0A51A51A5191FDFEA0280D4A3483A0A729A4989998800000000000070800C16A22A7D90F49F8000000000000284052BF
340
F
340
12
340
0
340
F
340
12
340
0
340
F
340
12
340
0
 94
        0
1001
ACAD
1000
AcRTDxfName
1000
AEC_DISP_PROPS_MASS_ELEM_MODEL
1000
AcRTDxfName
1000
AEC_DISP_PROPS_MASS_ELEM_MODEL
1000
AcRTDxfName
1000
AEC_DISP_PROPS_MASS_ELEM_MODEL
1000
AcRTDxfName
1000
AEC_DISP_PROPS_MASS_ELEM_MODEL
1000
AcRTDxfName
1000
AEC_DISP_PROPS_MASS_ELEM_MODEL
1000
AcRTDxfName
1000
AEC_DISP_PROPS_MASS_ELEM_MODEL
1000
AcRTDxfName
1000
AEC_DISP_PROPS_MASS_ELEM_MODEL
1000
AcRTDxfName
1000
AEC_DISP_PROPS_MASS_ELEM_MODEL
1000
AcRTDxfName
1000
AEC_DISP_PROPS_MASS_ELEM_MODEL
1000
AcRTDxfName
1000
AEC_DISP_PROPS_MASS_ELEM_MODEL
1000
AcRTDxfName
1000
AEC_DISP_PROPS_MASS_ELEM_MODEL
  0
ACAD_PROXY_OBJECT
  5
2EC939
102
{ACAD_REACTORS
330
2EC909
102
}
330
2EC909
100
AcDbProxyObject
 90
      499
 91
      557
 95
       23
 70
     0
 93
     1214
310
51B4D146946800519465194694641B42546946946C7F7FA80D5684A8D28D28D8FEFF501AAD0951A51A51B1FDFEA0355A12A34A34A363FBFD406AB4294694694647F7FA80D528D20E829CA6926266620000000000001C200305A88A9F643D27E0000000000000A1014AD0A51A51A5191FDFEA0354A3483A0A729A4989998800
310
000000000070800C16A22A7D90F49F8000000000000284052B
340
F
340
12
340
0
340
F
340
12
340
0
340
F
340
12
340
0
340
F
340
12
340
0
340
F
340
12
340
0
340
F
340
12
340
0
 94
        0
1001
ACAD
1000
AcRTDxfName
1000
AEC_DISP_PROPS_POLYGON_MODEL
1000
AcRTDxfName
1000
AEC_DISP_PROPS_POLYGON_MODEL
1000
AcRTDxfName
1000
AEC_DISP_PROPS_POLYGON_MODEL
1000
AcRTDxfName
1000
AEC_DISP_PROPS_POLYGON_MODEL
1000
AcRTDxfName
1000
AEC_DISP_PROPS_POLYGON_MODEL
1000
AcRTDxfName
1000
AEC_DISP_PROPS_POLYGON_MODEL
1000
AcRTDxfName
1000
AEC_DISP_PROPS_POLYGON_MODEL
1000
AcRTDxfName
1000
AEC_DISP_PROPS_POLYGON_MODEL
1000
AcRTDxfName
1000
AEC_DISP_PROPS_POLYGON_MODEL
1000
AcRTDxfName
1000
AEC_DISP_PROPS_POLYGON_MODEL
1000
AcRTDxfName
1000
AEC_DISP_PROPS_POLYGON_MODEL
  0
ACAD_PROXY_OBJECT
  5
2EC925
102
{ACAD_REACTORS
330
2EC909
102
}
330
2EC909
100
AcDbProxyObject
 90
      499
 91
      542
 95
       23
 70
     0
 93
      908
310
51B4D146946800519465194694640F42546946946C7F7FA80D5684A8D28D28C8FEFF501AAD0A51A51A5191FDFEA0280D4A3483A0A729A4989998800000000000070800C16A22A7D90F49F800000000000028405294651A51902D0951A51A51B1FDFEA0280D5A12A34A34A363FBFD406AA00F
340
F
340
12
340
0
340
F
340
12
340
0
340
F
340
12
340
0
340
F
340
12
340
0
340
F
340
12
340
0
 94
        0
1001
ACAD
1000
AcRTDxfName
1000
AEC_DISPROPSMASSELEMPLANCOMMON
1000
AcRTDxfName
1000
AEC_DISPROPSMASSELEMPLANCOMMON
1000
AcRTDxfName
1000
AEC_DISPROPSMASSELEMPLANCOMMON
1000
AcRTDxfName
1000
AEC_DISPROPSMASSELEMPLANCOMMON
1000
AcRTDxfName
1000
AEC_DISPROPSMASSELEMPLANCOMMON
1000
AcRTDxfName
1000
AEC_DISPROPSMASSELEMPLANCOMMON
1000
AcRTDxfName
1000
AEC_DISPROPSMASSELEMPLANCOMMON
1000
AcRTDxfName
1000
AEC_DISPROPSMASSELEMPLANCOMMON
1000
AcRTDxfName
1000
AEC_DISPROPSMASSELEMPLANCOMMON
1000
AcRTDxfName
1000
AEC_DISPROPSMASSELEMPLANCOMMON
1000
AcRTDxfName
1000
AEC_DISPROPSMASSELEMPLANCOMMON
  0
ACAD_PROXY_OBJECT
  5
2EC929
102
{ACAD_REACTORS
330
2EC909
102
}
330
2EC909
100
AcDbProxyObject
 90
      499
 91
      539
 95
       23
 70
     0
 93
      682
310
51B4D146946800519465194694640F42546946946C7F7FA80A035684A8D28D28C8FEFF501AAD0A51A51A5191FDFEA0280D4A3483A0A729A4989998800000000000070800C16A22A7D90F49F8000000000000284052BF
340
F
340
12
340
0
340
F
340
12
340
0
340
F
340
12
340
0
 94
        0
1001
ACAD
1000
AcRTDxfName
1000
AEC_DISP_PROPS_MASS_ELEM_MODEL
1000
AcRTDxfName
1000
AEC_DISP_PROPS_MASS_ELEM_MODEL
1000
AcRTDxfName
1000
AEC_DISP_PROPS_MASS_ELEM_MODEL
1000
AcRTDxfName
1000
AEC_DISP_PROPS_MASS_ELEM_MODEL
1000
AcRTDxfName
1000
AEC_DISP_PROPS_MASS_ELEM_MODEL
1000
AcRTDxfName
1000
AEC_DISP_PROPS_MASS_ELEM_MODEL
1000
AcRTDxfName
1000
AEC_DISP_PROPS_MASS_ELEM_MODEL
1000
AcRTDxfName
1000
AEC_DISP_PROPS_MASS_ELEM_MODEL
1000
AcRTDxfName
1000
AEC_DISP_PROPS_MASS_ELEM_MODEL
1000
AcRTDxfName
1000
AEC_DISP_PROPS_MASS_ELEM_MODEL
1000
AcRTDxfName
1000
AEC_DISP_PROPS_MASS_ELEM_MODEL
  0
ACAD_PROXY_OBJECT
  5
2EC92B
102
{ACAD_REACTORS
330
2EC909
102
}
330
2EC909
100
AcDbProxyObject
 90
      499
 91
      546
 95
       23
 70
     0
 93
      302
310
51B4D1469468005194651A51A51902D0951A51A51B1FDFEA0280D5A12A34A34A363FBFD406AB
340
F
340
12
340
0
340
F
340
12
340
0
 94
        0
1001
ACAD
1000
AcRTDxfName
1000
AEC_DISP_PROPS_MASS_GROUP
1000
AcRTDxfName
1000
AEC_DISP_PROPS_MASS_GROUP
1000
AcRTDxfName
1000
AEC_DISP_PROPS_MASS_GROUP
1000
AcRTDxfName
1000
AEC_DISP_PROPS_MASS_GROUP
1000
AcRTDxfName
1000
AEC_DISP_PROPS_MASS_GROUP
1000
AcRTDxfName
1000
AEC_DISP_PROPS_MASS_GROUP
1000
AcRTDxfName
1000
AEC_DISP_PROPS_MASS_GROUP
1000
AcRTDxfName
1000
AEC_DISP_PROPS_MASS_GROUP
1000
AcRTDxfName
1000
AEC_DISP_PROPS_MASS_GROUP
1000
AcRTDxfName
1000
AEC_DISP_PROPS_MASS_GROUP
1000
AcRTDxfName
1000
AEC_DISP_PROPS_MASS_GROUP
  0
ACAD_PROXY_OBJECT
  5
2EC91D
102
{ACAD_REACTORS
330
2EC909
102
}
330
2EC909
100
AcDbProxyObject
 90
      499
 91
      536
 95
       23
 70
     0
 93
      292
310
51B4D146946800519465194694640B42546946946C7F7FA80D5684A8D28D28D8FEFF501AAF
340
F
340
12
340
0
340
F
340
12
340
0
 94
        0
1001
ACAD
1000
AcRTDxfName
1000
AEC_DISP_PROPS_MASKBLOCK
1000
AcRTDxfName
1000
AEC_DISP_PROPS_MASKBLOCK
1000
AcRTDxfName
1000
AEC_DISP_PROPS_MASKBLOCK
1000
AcRTDxfName
1000
AEC_DISP_PROPS_MASKBLOCK
1000
AcRTDxfName
1000
AEC_DISP_PROPS_MASKBLOCK
1000
AcRTDxfName
1000
AEC_DISP_PROPS_MASKBLOCK
1000
AcRTDxfName
1000
AEC_DISP_PROPS_MASKBLOCK
1000
AcRTDxfName
1000
AEC_DISP_PROPS_MASKBLOCK
1000
AcRTDxfName
1000
AEC_DISP_PROPS_MASKBLOCK
1000
AcRTDxfName
1000
AEC_DISP_PROPS_MASKBLOCK
1000
AcRTDxfName
1000
AEC_DISP_PROPS_MASKBLOCK
  0
ACAD_PROXY_OBJECT
  5
2EC92F
102
{ACAD_REACTORS
330
2EC909
102
}
330
2EC909
100
AcDbProxyObject
 90
      499
 91
      549
 95
       23
 70
     0
 93
      910
310
51B4D1469468005194651A51A51902D0951A51A51B1FDFEA0355A12A34A34A363FBFD406A94651A51903D0951A51A51B1FDFEA0280D5A14A34A34A323FBFD40501A946907414E53493133310000000000000E100182D4454FB21E93F00000000000005080A5684A8D28D28D8FEFF501AA803
340
F
340
12
340
0
340
F
340
12
340
0
340
F
340
12
340
0
340
F
340
12
340
0
340
F
340
12
340
0
 94
        0
1001
ACAD
1000
AcRTDxfName
1000
AEC_DISPROPSMASSGROUPPLANCOMMON
1000
AcRTDxfName
1000
AEC_DISPROPSMASSGROUPPLANCOMMON
1000
AcRTDxfName
1000
AEC_DISPROPSMASSGROUPPLANCOMMON
1000
AcRTDxfName
1000
AEC_DISPROPSMASSGROUPPLANCOMMON
1000
AcRTDxfName
1000
AEC_DISPROPSMASSGROUPPLANCOMMON
1000
AcRTDxfName
1000
AEC_DISPROPSMASSGROUPPLANCOMMON
1000
AcRTDxfName
1000
AEC_DISPROPSMASSGROUPPLANCOMMON
1000
AcRTDxfName
1000
AEC_DISPROPSMASSGROUPPLANCOMMON
1000
AcRTDxfName
1000
AEC_DISPROPSMASSGROUPPLANCOMMON
1000
AcRTDxfName
1000
AEC_DISPROPSMASSGROUPPLANCOMMON
1000
AcRTDxfName
1000
AEC_DISPROPSMASSGROUPPLANCOMMON
  0
ACAD_PROXY_OBJECT
  5
2EC931
102
{ACAD_REACTORS
330
2EC909
102
}
330
2EC909
100
AcDbProxyObject
 90
      499
 91
      549
 95
       23
 70
     0
 93
      910
310
51B4D1469468005194651A51A51902D0951A51A51B1FDFEA0355A12A34A34A363FBFD406A94651A51903D0951A51A51B1FDFEA0280D5A14A34A34A323FBFD40501A946907414E53493133310000000000000E100182D4454FB21E93F00000000000005080A5684A8D28D28D8FEFF501AA803
340
F
340
12
340
0
340
F
340
12
340
0
340
F
340
12
340
0
340
F
340
12
340
0
340
F
340
12
340
0
 94
        0
1001
ACAD
1000
AcRTDxfName
1000
AEC_DISPROPSMASSGROUPPLANCOMMON
1000
AcRTDxfName
1000
AEC_DISPROPSMASSGROUPPLANCOMMON
1000
AcRTDxfName
1000
AEC_DISPROPSMASSGROUPPLANCOMMON
1000
AcRTDxfName
1000
AEC_DISPROPSMASSGROUPPLANCOMMON
1000
AcRTDxfName
1000
AEC_DISPROPSMASSGROUPPLANCOMMON
1000
AcRTDxfName
1000
AEC_DISPROPSMASSGROUPPLANCOMMON
1000
AcRTDxfName
1000
AEC_DISPROPSMASSGROUPPLANCOMMON
1000
AcRTDxfName
1000
AEC_DISPROPSMASSGROUPPLANCOMMON
1000
AcRTDxfName
1000
AEC_DISPROPSMASSGROUPPLANCOMMON
1000
AcRTDxfName
1000
AEC_DISPROPSMASSGROUPPLANCOMMON
1000
AcRTDxfName
1000
AEC_DISPROPSMASSGROUPPLANCOMMON
  0
ACAD_PROXY_OBJECT
  5
2EC911
102
{ACAD_REACTORS
330
2EC909
102
}
330
2EC909
100
AcDbProxyObject
 90
      499
 91
      524
 95
       23
 70
     0
 93
     1107
310
51B4D146946800519465194694642B42546946946C7F7FA80D5684A8D28D28D8FEFF501AAD0951A51A51B1FDFEA0355A12A34A34A363FBFD406AB42546946946C7F7FA80D5684A8D28D28D8FEFF501AAD0951A51A51B1FDFEA0355A12A34A34A363FBFD406AB42546946946C7F7FA80D5684A8D28D28D8FEFF501AA51A5190
310
1D0951A51A51B1FDFEA0355F
340
F
340
12
340
0
340
F
340
12
340
0
340
F
340
12
340
0
340
F
340
12
340
0
340
F
340
12
340
0
340
F
340
12
340
0
340
F
340
12
340
0
340
F
340
12
340
0
340
F
340
12
340
0
340
F
340
12
340
0
340
F
340
12
340
0
 94
        0
1001
ACAD
1000
AcRTDxfName
1000
AEC_DISP_PROPS_CLIP_VOLUME_RESULT
1000
AcRTDxfName
1000
AEC_DISP_PROPS_CLIP_VOLUME_RESULT
1000
AcRTDxfName
1000
AEC_DISP_PROPS_CLIP_VOLUME_RESULT
1000
AcRTDxfName
1000
AEC_DISP_PROPS_CLIP_VOLUME_RESULT
1000
AcRTDxfName
1000
AEC_DISP_PROPS_CLIP_VOLUME_RESULT
1000
AcRTDxfName
1000
AEC_DISP_PROPS_CLIP_VOLUME_RESULT
1000
AcRTDxfName
1000
AEC_DISP_PROPS_CLIP_VOLUME_RESULT
1000
AcRTDxfName
1000
AEC_DISP_PROPS_CLIP_VOLUME_RESULT
1000
AcRTDxfName
1000
AEC_DISP_PROPS_CLIP_VOLUME_RESULT
1000
AcRTDxfName
1000
AEC_DISP_PROPS_CLIP_VOLUME_RESULT
1000
AcRTDxfName
1000
AEC_DISP_PROPS_CLIP_VOLUME_RESULT
  0
ACAD_PROXY_OBJECT
  5
2EC933
102
{ACAD_REACTORS
330
2EC909
102
}
330
2EC909
100
AcDbProxyObject
 90
      499
 91
      546
 95
       23
 70
     0
 93
      302
310
51B4D1469468005194651A51A51902D0951A51A51B1FDFEA0280D5A12A34A34A363FBFD406AB
340
F
340
12
340
0
340
F
340
12
340
0
 94
        0
1001
ACAD
1000
AcRTDxfName
1000
AEC_DISP_PROPS_MASS_GROUP
1000
AcRTDxfName
1000
AEC_DISP_PROPS_MASS_GROUP
1000
AcRTDxfName
1000
AEC_DISP_PROPS_MASS_GROUP
1000
AcRTDxfName
1000
AEC_DISP_PROPS_MASS_GROUP
1000
AcRTDxfName
1000
AEC_DISP_PROPS_MASS_GROUP
1000
AcRTDxfName
1000
AEC_DISP_PROPS_MASS_GROUP
1000
AcRTDxfName
1000
AEC_DISP_PROPS_MASS_GROUP
1000
AcRTDxfName
1000
AEC_DISP_PROPS_MASS_GROUP
1000
AcRTDxfName
1000
AEC_DISP_PROPS_MASS_GROUP
1000
AcRTDxfName
1000
AEC_DISP_PROPS_MASS_GROUP
1000
AcRTDxfName
1000
AEC_DISP_PROPS_MASS_GROUP
  0
ACAD_PROXY_OBJECT
  5
2EC93B
102
{ACAD_REACTORS
330
2EC909
102
}
330
2EC909
100
AcDbProxyObject
 90
      499
 91
      559
 95
       23
 70
     0
 93
      154
310
51B4D1469468005194651BFFFFFFFFFFFD0240BF
 94
        0
1001
ACAD
1000
AcRTDxfName
1000
AEC_DISP_PROPS_POLYGON_TRUECOLOUR
1000
AcRTDxfName
1000
AEC_DISP_PROPS_POLYGON_TRUECOLOUR
1000
AcRTDxfName
1000
AEC_DISP_PROPS_POLYGON_TRUECOLOUR
1000
AcRTDxfName
1000
AEC_DISP_PROPS_POLYGON_TRUECOLOUR
1000
AcRTDxfName
1000
AEC_DISP_PROPS_POLYGON_TRUECOLOUR
1000
AcRTDxfName
1000
AEC_DISP_PROPS_POLYGON_TRUECOLOUR
1000
AcRTDxfName
1000
AEC_DISP_PROPS_POLYGON_TRUECOLOUR
1000
AcRTDxfName
1000
AEC_DISP_PROPS_POLYGON_TRUECOLOUR
1000
AcRTDxfName
1000
AEC_DISP_PROPS_POLYGON_TRUECOLOUR
1000
AcRTDxfName
1000
AEC_DISP_PROPS_POLYGON_TRUECOLOUR
1000
AcRTDxfName
1000
AEC_DISP_PROPS_POLYGON_TRUECOLOUR
  0
ACAD_PROXY_OBJECT
  5
2EC906
102
{ACAD_REACTORS
330
2EC905
102
}
330
2EC905
100
AcDbProxyObject
 90
      499
 91
      516
 95
       23
 70
     0
 93
     1359
310
51B4D1469468005194651A8FC812095550000000000000B08000000000000008200000000000001807E8F2048329B897233A1723C8120C86EA5C8CE85D0002000012048226189918480B68000000000001607E0000000000002C201FB0FE9B7AF03A67E8C20A4A09014191A9B1021B7B637B9149010101020A2191A9B21082
310
86828882A48690000000000000701FA1E82CAC698C2F2CAE4A6E8C85CC8EECFE8FCC02846002E0041A4E29
330
0
 94
        0
1001
ACAD
1000
AcRTDxfName
1000
AEC_VARS_DWG_SETUP
1000
AcRTDxfName
1000
AEC_VARS_DWG_SETUP
1000
AcRTDxfName
1000
AEC_VARS_DWG_SETUP
1000
AcRTDxfName
1000
AEC_VARS_DWG_SETUP
1000
AcRTDxfName
1000
AEC_VARS_DWG_SETUP
1000
AcRTDxfName
1000
AEC_VARS_DWG_SETUP
1000
AcRTDxfName
1000
AEC_VARS_DWG_SETUP
1000
AcRTDxfName
1000
AEC_VARS_DWG_SETUP
1000
AcRTDxfName
1000
AEC_VARS_DWG_SETUP
1000
AcRTDxfName
1000
AEC_VARS_DWG_SETUP
1000
AcRTDxfName
1000
AEC_VARS_DWG_SETUP
  0
DICTIONARY
  5
2F3F5B
330
619
100
AcDbDictionary
280
     1
281
     1
  3
ACAD_XREC_ROUNDTRIP
360
2F3F5C
  0
DICTIONARY
  5
1B39E4
330
61A
100
AcDbDictionary
280
     1
281
     1
  3
ACAD_XREC_ROUNDTRIP
360
2F3F5D
  3
ADSK_XREC_LAYOUTTHUMBNAIL
360
1B39E5
  0
DICTIONARY
  5
2EF111
330
2EF110
100
AcDbDictionary
280
     1
281
     1
  3
ACAD_XREC_ROUNDTRIP
360
2F3F61
  3
BUMPTILE
360
2EF113
  3
DIFFUSETILE
360
2EF112
  3
OPACITYTILE
360
2EF116
  3
REFLECTIONTILE
360
2EF115
  3
REFRACTIONTILE
360
2EF117
  3
SPECULARTILE
360
2EF114
  0
DICTIONARY
  5
2EF109
330
2EF108
100
AcDbDictionary
280
     1
281
     1
  3
ACAD_XREC_ROUNDTRIP
360
2F3F60
  3
BUMPTILE
360
2EF10B
  3
DIFFUSETILE
360
2EF10A
  3
OPACITYTILE
360
2EF10E
  3
REFLECTIONTILE
360
2EF10D
  3
REFRACTIONTILE
360
2EF10F
  3
SPECULARTILE
360
2EF10C
  0
DICTIONARY
  5
2EF119
330
2EF118
100
AcDbDictionary
280
     1
281
     1
  3
ACAD_XREC_ROUNDTRIP
360
2F3F62
  3
BUMPTILE
360
2EF11B
  3
DIFFUSETILE
360
2EF11A
  3
OPACITYTILE
360
2EF11E
  3
REFLECTIONTILE
360
2EF11D
  3
REFRACTIONTILE
360
2EF11F
  3
SPECULARTILE
360
2EF11C
  0
DICTIONARY
  5
2EF143
330
2EF133
100
AcDbDictionary
280
     1
281
     1
  3
ACAD_ROUNDTRIP_2008_TABLESTYLE_CELLSTYLEMAP
360
2F3F59
  3
ACAD_XREC_ROUNDTRIP
360
2F3F63
  0
XRECORD
  5
2F3F5C
102
{ACAD_REACTORS
330
2F3F5B
102
}
330
2F3F5B
100
AcDbXrecord
280
     1
102
SHADEPLOT
 70
     1
102
SHADEPLOTRESLEVEL
 70
     2
102
SHADEPLOTCUSTOMDPI
 70
   300
  0
XRECORD
  5
2F3F5D
102
{ACAD_REACTORS
330
1B39E4
102
}
330
1B39E4
100
AcDbXrecord
280
     1
102
SHADEPLOT
 70
     0
102
SHADEPLOTRESLEVEL
 70
     2
102
SHADEPLOTCUSTOMDPI
 70
   300
  0
XRECORD
  5
1B39E5
102
{ACAD_REACTORS
330
1B39E4
102
}
330
1B39E4
100
AcDbXrecord
280
     1
310
28000000B40000008B0000000100080000000000BC61000000000000000000000001000000000000FFFFFF0000000000FFFFFF000000000000000000000000000000000000000000000000000000000000000000330000006600000099000000CC000000FF00000000330000333300006633000099330000CC330000FF3300
310
0000660000336600006666000099660000CC660000FF66000000990000339900006699000099990000CC990000FF99000000CC000033CC000066CC000099CC0000CCCC0000FFCC000000FF000033FF000066FF000099FF0000CCFF0000FFFF000000003300330033006600330099003300CC003300FF003300003333003333
310
33006633330099333300CC333300FF33330000663300336633006666330099663300CC663300FF66330000993300339933006699330099993300CC993300FF99330000CC330033CC330066CC330099CC3300CCCC3300FFCC330000FF330033FF330066FF330099FF3300CCFF3300FFFF330000006600330066006600660099
310
006600CC006600FF00660000336600333366006633660099336600CC336600FF33660000666600336666006666660099666600CC666600FF66660000996600339966006699660099996600CC996600FF99660000CC660033CC660066CC660099CC6600CCCC6600FFCC660000FF660033FF660066FF660099FF6600CCFF6600
310
FFFF660000009900330099006600990099009900CC009900FF00990000339900333399006633990099339900CC339900FF33990000669900336699006666990099669900CC669900FF66990000999900339999006699990099999900CC999900FF99990000CC990033CC990066CC990099CC9900CCCC9900FFCC990000FF99
310
0033FF990066FF990099FF9900CCFF9900FFFF99000000CC003300CC006600CC009900CC00CC00CC00FF00CC000033CC003333CC006633CC009933CC00CC33CC00FF33CC000066CC003366CC006666CC009966CC00CC66CC00FF66CC000099CC003399CC006699CC009999CC00CC99CC00FF99CC0000CCCC0033CCCC0066CC
310
CC0099CCCC00CCCCCC00FFCCCC0000FFCC0033FFCC0066FFCC0099FFCC00CCFFCC00FFFFCC000000FF003300FF006600FF009900FF00CC00FF00FF00FF000033FF003333FF006633FF009933FF00CC33FF00FF33FF000066FF003366FF006666FF009966FF00CC66FF00FF66FF000099FF003399FF006699FF009999FF00CC
310
99FF00FF99FF0000CCFF0033CCFF0066CCFF0099CCFF00CCCCFF00FFCCFF0000FFFF0033FFFF0066FFFF0099FFFF00CCFFFF00FFFFFF00000000000D0D0D001A1A1A00282828003535350043434300505050005D5D5D006B6B6B00787878008686860093939300A1A1A100AEAEAE00BBBBBB00C9C9C900D6D6D600E4E4E400
310
F1F1F100FFFFFF0000000000000000000000000000000000000000000000000000000000000000000000000000000000E2E2E2E2E2E2E2E2E2E2E2E2E2E2E2E2E2E2E2E2E2E2E2E2E2E2E2E2E2E2E2E2E2E2E2E2E2E2E2E2E2E2E2E2E2E2E2E2E2E2E2E2E2E2E2E2E2E2E2E2E2E2E2E2E2E2E2E2E2E2E2E2E2E2E2E2E2E2E2
310
E2E2E2E2E2E2E2E2E2E2E2E2E2E2E2E2E2E2E2E2E2E2E2E2E2E2E2E2E2E2E2E2E2E2E2E2E2E2E2E2E2E2E2E2E2E2E2E2E2E2E2E2E2E2E2E2E2E2E2E2E2E2E2E2E2E2E2E2E2E2E2E2E2E2E2E2E2E2E2E2E2E2E2E2E2E2E2E2E2E2E2E2E2E2E2E2E2E2E2E2EFE2F5F5F5F5F5F5F5F5F5F5F5F5F5F5F5F5F5F5F5F5F5F5F5F5F5
310
F5F5F5F5F5F5F5F5F5F5F5F5F5F5F5F5F5F5F5F5F5F5F5F5F5F5F5F5F5F5F5F5F5F5F5F5F5F5F5F5F5F5F5F5F5F5F5F5F5F5F5F5F5F5F5F5F5F5F5F5F5F5F5F5F5F5F5F5F5F5F5F5F5F5F5F5F5F5F5F5F5F5F5F5F5F5F5F5F5F5F5F5F5F5F5F5F5F5F5F5F5F5F5F5F5F5F5F5F5F5F5F5F5F5F5F5F5F5F5F5F5F5F5F5F5F5F5
310
F5F5F5F5F5F5F5F5F5F5F5F5F5F5F5F5F5F5F5F5F5F5F5F5E2E2EFE2F5F5F5F5F5F5F5F5F5F5F5F5F5F5F5F5F5F5F5F5F5F5F5F5F5F5F5F5F5F5F5F5F5F5F5F5F5F5F5F5F5F5F5F5F5F5F5F5F5F5F5F5F5F5F5F5F5F5F5F5F5F5F5F5F5F5F5F5F5F5F5F5F5F5F5F5F5F5F5F5F5F5F5F5F5F5F5F5F5F5F5F5F5F5F5F5F5F5F5
310
F5F5F5F5F5F5F5F5F5F5F5F5F5F5F5F5F5F5F5F5F5F5F5F5F5F5F5F5F5F5F5F5F5F5F5F5F5F5F5F5F5F5F5F5F5F5F5F5F5F5F5F5F5F5F5F5F5F5F5F5F5F5F5F5F5F5F5F5F5F5F5F5F5F5F5F5F5E2E2EFE2F5F5F5F5F5F5F5F5F5F5F5F5F5F5F5F5F5F5F5F5F5F5F5F5F5F5F5F5F5F5F5F5F5F5F5F5F5F5F5F5F5F5F5F5F5F5
310
F5F5F5F5F5F5F5F5F5F5F5F5F5F5F5F5F5F5F5F5F5F5F5F5F5F5F5F5F5F5F5F5F5F5F5F5F5F5F5F5F5F5F5F5F5F5F5F5F5F5F5F5F5F5F5F5F5F5F5F5F5F5F5F5F5F5F5F5F5F5F5F5F5F5F5F5F5F5F5F5F5F5F5F5F5F5F5F5F5F5F5F5F5F5F5F5F5F5F5F5F5F5F5F5F5F5F5F5F5F5F5F5F5F5F5F5F5F5F5F5F5F5F5F5F5F5F5
310
F5F5F5E2E2EFE2F5F5F5E2E2E2E2E2E2E2E2F5F5F5F5F5F5F5F5F5E2E2E2E2E2E2E2E2E2E2E2E2E2E2E2F5F5F5F5F5F5F5F5F5E2E2E2E2E2E2E2E2E2E2E2E2E2E2E2E2F5F5F5F5F5F5F5F5E2E2E2E2E2E2E2E2E2E2E2E2E2E2E2E2F5F5F5F5F5F5F5F5E2E2E2E2E2E2E2E2E2E2E2E2E2E2E2E2F5F5F5F5F5F5F5F5E2E2E2E2
310
E2E2E2E2E2E2E2E2E2E2E2E2F5F5F5F5F5F5F5F5F5E2E2E2E2E2E2E2E2E2E2E2E2E2E2E2F5F5F5F5F5F5F5F5F5E2E2E2E2E2E2E2E2F5F5F5E2E2EFE2F5F5F5E2F5F5F5F5F5F5F5F5F5F5F5F5F5F5F5F5F5F5F5F5F5F5F5F5F5F5F5F5F5F5F5F5F5F5F5F5F5F5F5F5F5F5F5F5F5F5F5F5F5F5F5F5F5F5F5F5F5F5F5F5F5F5F5
310
F5F5F5F5F5F5F5F5F5F5F5F5F5F5F5F5F5F5F5F5F5F5F5F5F5F5F5F5F5F5F5F5F5F5F5F5F5F5F5F5F5F5F5F5F5F5F5F5F5F5F5F5F5F5F5F5F5F5F5F5F5F5F5F5F5F5F5F5F5F5F5F5F5F5F5F5F5F5F5F5F5F5F5F5F5F5F5F5F5F5F5F5F5F5F5F5F5F5F5F5F5F5F5F5F5E2F5F5F5E2E2EFE2F5F5F5E2F5F5F5F5F5F5F5F5F5F5
310
F5F5F5F5F5F5F5F5F5F5F5F5F5F5F5F5F5F5F5F5F5F5F5F5F5F5F5F5F5F5F5F5F5F5F5F5F5F5F5F5F5F5F5F5F5F5F5F5F5F5F5F5F5F5F5F5F5F5F5F5F5F5F5F5F5F5F5F5F5F5F5F5F5F5F5F5F5F5F5F5F5F5F5F5F5F5F5F5F5F5F5F5F5F5F5F5F5F5F5F5F5F5F5F5F5F5F5F5F5F5F5F5F5F5F5F5F5F5F5F5F5F5F5F5F5F5F5
310
F5F5F5F5F5F5F5F5F5F5F5F5F5F5F5F5F5F5F5F5F5F5F5F5F5F5F5F5F5F5F5E2F5F5F5E2E2EFE2F5F5F5E2F5F5F5F5F5F5F5F5F5F5F5F5F5F5F5F5F5F5F5F5F5F5F5F5F5F5F5F5F5F5F5F5F5F5F5F5F5F5F5F5F5F5F5F5F5F5F5F5F5F5F5F5F5F5F5F5F5F5F5F5F5F5F5F5F5F5F5F5F5F5F5F5F5F5F5F5F5F5F5F5F5F5F5F5
310
F5F5F5F5F5F5F5F5F5F5F5F5F5F5F5F5F5F5F5F5F5F5F5F5F5F5F5F5F5F5F5F5F5F5F5F5F5F5F5F5F5F5F5F5F5F5F5F5F5F5F5F5F5F5F5F5F5F5F5F5F5F5F5F5F5F5F5F5F5F5F5F5F5F5F5F5F5F5F5F5F5F5F5F5E2F5F5F5E2E2EFE2F5F5F5E2F5F5F5F5F5F5F5F5F5F5F5F5F5F5F5F5F5F5F5F5F5F5F5F5F5F5F5F5F5F5F5
310
F5F5F5F5F5F5F5F5F5F5F5F5F5F5F5F5F5F5F5F5F5F5F5F5F5F5F5F5F5F5F5F5F5F5F5F5F5F5F5F5F5F5F5F5F5F5F5F5F5F5F5F5F5F5F5F5F5F5F5F5F5F5F5F5F5F5F5F5F5F5F5F5F5F5F5F5F5F5F5F5F5F5F5F5F5F5F5F5F5F5F5F5F5F5F5F5F5F5F5F5F5F5F5F5F5F5F5F5F5F5F5F5F5F5F5F5F5F5F5F5F5F5F5F5F5F5F5
310
F5F5F5F5F5F5F5F5F5F5E2F5F5F5E2E2EFE2F5F5F5E2F5F5F5F5F5F5F5F5F5F5F5F5F5F5F5F5F5F5F5F5F5F5F5F5F5F5F5F5F5F5F5F5F5F5F5F5F5F5F5F5F5F5F5F5F5F5F5F5F5F5F5F5F5F5F5F5F5F5F5F5F5F5F5F5F5F5F5F5F5F5F5F5F5F5F5F5F5F5F5F5F5F5F5F5F5F5F5F5F5F5F5F5F5F5F5F5F5F5F5F5F5F5F5F5F5
310
F5F5F5F5F5F5F5F5F5F5F5F5F5F5F5F5F5F5F5F5F5F5F5F5F5F5F5F5F5F5F5F5F5F5F5F5F5F5F5F5F5F5F5F5F5F5F5F5F5F5F5F5F5F5F5F5F5F5F5F5F5F5F5E2F5F5F5E2E2EFE2F5F5F5E2F5F5F5F5F5F5F5F5F5F5F5F5F5F5F5F5F5F5F5F5F5F5F5F5F5F5F5F5F5F5F5F5F5F5F5F5F5F5F5F5F5F5F5F5F5F5F5F5F5F5F5F5
310
F5F5F5F5F5F5F5F5F5F5F5F5F5F5F5F5F5F5F5F5F5F5F5F5F5F5F5F5F5F5F5F5F5F5F5F5F5F5F5F5F5F5F5F5F5F5F5F5F5F5F5F5F5F5F5F5F5F5F5F5F5F5F5F5F5F5F5F5F5F5F5F5F5F5F5F5F5F5F5F5F5F5F5F5F5F5F5F5F5F5F5F5F5F5F5F5F5F5F5F5F5F5F5F5F5F5F5F5F5F5F5F5F5F5F5F5E2F5F5F5E2E2EFE2F5F5F5
310
E2F5F5F5F5F5F5F5F5F5F5F5F5F5F5F5F5F5F5F5F5F5F5F5F5F5F5F5F5F5F5F5F5F5F5F5F5F5F5F5F5F5F5F5F5F5F5F5F5F5F5F5F5F5F5F5F5F5F5F5F5F5F5F5F5F5F5F5F5F5F5F5F5F5F5F5F5F5F5F5F5F5F5F5F5F5F5F5F5F5F5F5F5F5F5F5F5F5F5F5F5F5F5F5F5F5F5F5F5F5F5F5F5F5F5F5F5F5F5F5F5F5F5F5F5F5F5
310
F5F5F5F5F5F5F5F5F5F5F5F5F5F5F5F5F5F5F5F5F5F5F5F5F5F5F5F5F5F5F5F5F5F5F5F5F5F5F5F5F5F5E2F5F5F5E2E2EFE2F5F5F5E2F5F5F5F5F5F5F5F5F5F5F5F5F5F5F5F5F5F5F5F5F5F5F5F5F5F5F5F5F5F5F5F5F5F5F5F5F5F5F5F5F5F5F5F5F5F5F5F5F5F5F5F5F5F5F5F5F5F5F5F5F5F5F5F5F5F5F5F5F5F5F5F5F5
310
F5F5F5F5F5F5F5F5F5F5F5F5F5F5F5F5F5F5F5F5F5F5F5F5F5F5F5F5F5F5F5F5F5F5F5F5F5F5F5F5F5F5F5F5F5F5F5F5F5F5F5F5F5F5F5F5F5F5F5F5F5F5F5F5F5F5F5F5F5F5F5F5F5F5F5F5F5F5F5F5F5F5F5F5F5F5F5F5F5F5F5F5F5F5F5E2F5F5F5E2E2EFE2F5F5F5F5F5F5F5F5F5F5F5F5F5F5F5F5F5F5F5F5F5F5F5F5
310
F5F5F5F5F5F5F5F5F5F5F5F5F5F5F5F5F5F5F5F5F5F5F5F5F5F5F5F5F5F5F5F5F5F5F5F5F5F5F5F5F5F5F5F5F5F5F5F5F5F5F5F5F5F5F5F5F5F5F5F5F5F5F5F5F5F5F5F5F5F5F5F5F5F5F5F5F5F5F5F5F5F5F5F5F5F5F5F5F5F5F5F5F5F5F5F5F5F5F5F5F5F5F5F5F5F5F5F5F5F5F5F5F5F5F5F5F5F5F5F5F5F5F5F5F5F5F5
310
F5F5F5F5F5F5F5F5F5F5F5F5F5F5F5F5F5F5F5F5F5F5F5F5F5E2E2EFE2F5F5F5F5F5F5F5F5F5F5F5F5F5F5F5F5F5F5F5F5F5F5F5F5F5F5F5F5F5F5F5F5F5F5F5F5F5F5F5F5F5F5F5F5F5F5F5F5F5F5F5F5F5F5F5F5F5F5F5F5F5F5F5F5F5F5F5F5F5F5F5F5F5F5F5F5F5F5F5F5F5F5F5F5F5F5F5F5F5F5F5F5F5F5F5F5F5F5
310
F5F5F5F5F5F5F5F5F5F5F5F5F5F5F5F5F5F5F5F5F5F5F5F5F5F5F5F5F5F5F5F5F5F5F5F5F5F5F5F5F5F5F5F5F5F5F5F5F5F5F5F5F5F5F5F5F5F5F5F5F5F5F5F5F5F5F5F5F5F5F5F5F5F5F5F5F5F5E2E2EFE2F5F5F5F5F5F5F5F5F5F5F5F5F5F5F5F5F5F5F5F5F5F5F5F5F5F5F5F5F5F5F5F5F5F5F5F5F5F5F5F5F5F5F5F5F5
310
F5F5F5F5F5F5F5F5F5F5F5F5F5F5F5F5F5F5F5F5F5F5F5F5F5F5F5F5F5F5F5F5F5F5F5F5F5F5F5F5F5F5F5F5F5F5F5F5F5F5F5F5F5F5F5F5F5F5F5F5F5F5F5F5F5F5F5F5F5F5F5F5F5F5F5F5F5F5F5F5F5F5F5F5F5F5F5F5F5F5F5F5F5F5F5F5F5F5F5F5F5F5F5F5F5F5F5F5F5F5F5F5F5F5F5F5F5F5F5F5F5F5F5F5F5F5F5
310
F5F5F5F5E2E2EFE2F5F5F5F5F5F5F5F5F5F5F5F5F5F5F5F5F5F5F5F5F5F5F5F5F5F5F5F5F5F5F5F5F5F5F5F5F5F5F5F5F5F5F5F5F5F5F5F5F5F5F5F5F5F5F5F5F5F5F5F5F5F5F5F5F5F5F5F5F5F5F5F5F5F5F5F5F5F5F5F5F5F5F5F5F5F5F5F5F5F5F5F5F5F5F5F5F5F5F5F5F5F5F5F5F5F5F5F5F5F5F5F5F5F5F5F5F5F5F5
310
F5F5F5F5F5F5F5F5F5F5F5F5F5F5F5F5F5F5F5F5F5F5F5F5F5F5F5F5F5F5F5F5F5F5F5F5F5F5F5F5F5F5F5F5F5F5F5F5F5F5F5F5F5F5F5F5F5E2E2EFE2F5F5F5F5F5F5F5F5F5F5F5F5F5F5F5F5F5F5F5F52D2D2D2D2D2D2D2D2D2D2D2D2D2D2D2D2D2D2D2D2D2D2D2D2D2D2D2D2D2D2D2D2D2D2D2D2D2D2D2D2D2D2D2D2D2D
310
2D2D2D2D2D2D2D2D2D2D2D2D2D2D2D2D2D2D2D2D2D2D2D2D2D2D2D2D2D2D2D2D2D2D2D2D2D2D2D2D2D2D2D2D2D2D2D2D2D2D2D2D2D2D2D2D2D2D2D2D2D2D2D2D2D2D2D2D2D2D2D2D2D2D2D2D2D2D2D2D2D2D2D2D2D2D2D2D2D2DF5F5F5F5F5F5F5F5F5F5F5F5F5F5F5F5F5F5F5F5E2E2EFE2F5F5F5F5F5F5F5F5F5F5F5F5F5
310
F5F5F5F5F5F5F52DF5F5F5F5F5F5F5F5F5F5F5F5F5F5F5F5F5F5F5F5F5F5F5F5F5F5F5F5F5F5F5F5F5F5F5F5F5F5F5F5F5F5F5F5F5F5F5F5F5F5F5F5F5F5F5F5F5F5F5F5F5F5F5F5F5F5F5F5F5F5F5F5F5F5F5F5F5F5F5F5F5F5F5F5F5F5F5F5F5F5F5F5F5F5F5F5F5F5F5F5F5F5F5F5F5F5F5F5F5F5F5F5F5F5F5F5F5F5F5
310
F5F5F5F5F5F5F5F5F5F5F5F5F5F5F52DF5F5F5F5F5F5F5F5F5F5F5F5F5F5F5F5F5F5F5F5E2E2EFE2F5F5F5F5F5F5F5F5F5F5F5F5F5F5F5F5F5F5F5F52DF5F5F5F5F5F5F5F5F5F5F5F5F5F5F5F5F5F5F5F5F5F5F5F5F5F5F5F5F5F5F5F5F5F5F5F5F5F5F5F5F5F5F5F5F5F5F5F5F5F5F5F5F5F5F5F5F5F5F5F5F5F5F5F5F5F5
310
F5F5F5F5F5F5F5F5F5F5F5F5F5F5F5F5F5F5F5F5F5F5F5F5F5F5F5F5F5F5F5F5F5F5F5F5F5F5F5F5F5F5F5F5F5F5F5F5F5F5F5F5F5F5F5F5F5F5F5F5F5F5F5F5F5F5F5F52DF5F5F5F5F5F5F5F5F5F5F5F5F5F5F5F5F5F5F5F5E2E2EFE2F5F5F5F5F5F5F5F5F5F5F5F5F5F5F5F5F5F5F5F52DF5F5F5F5F5F5F5F5F5F5F5F5F5
310
F5F5F5F5F5F5F5F5F5F5F5F5F5F5F5F5F5F5F5F5F5F5F5F5F5F5F5F5F5F5F5F5F5F5F5F5F5F5F5F5F5F5F5F5F5F5F5F5F5F5F5F5F5F5F5F5F5F5F5F5F5F5F5F5F5F5F5F5F5F5F5F5F5F5F5F5F5F5F5F5F5F5F5F5F5F5F5F5F5F5F5F5F5F5F5F5F5F5F5F5F5F5F5F5F5F5F5F5F5F5F5F5F5F5F5F5F5F5F5F5F52DF5F5F5F5F5
310
F5F5F5F5F5F5F5F5F5F5F5F5F5F5F5E2E2EFE2F5F5F5F5F5F5F5F5F5F5F5F5F5F5F5F5F5F5F5F52DF5F5F5F5F5F5F5F5F5F5F5F5F5F5F5F5F5F5F5F5F5F5F5F5F5F5F5F5F5F5F5F5F5F5F5F5F5F5F5F5F5F5F5F5F5F5F5F5F5F5F5F5F5F5F5F5F5F5F5F5F5F5F5F5F5F5F5F5F5F5F5F5F5F5F5F5F5F5F5F5F5F5F5F5F5F5F5
310
F5F5F5F5F5F5F5F5F5F5F5F5F5F5F5F5F5F5F5F5F5F5F5F5F5F5F5F5F5F5F5F5F5F5F5F5F5F5F5F5F5F5F5F5F5F5F52DF5F5F5F5F5F5F5F5F5F5F5F5F5F5F5F5F5F5F5F5E2E2EFE2F5F5F5E2F5F5F5F5F5F5F5F5F5F5F5F5F5F5F5F52DF5F5F5F5F5F5F5F5F5F5F5F5F5F5F5F5F5F5F5F5F5F5F5F5F5F5F5F5F5F5F5F5F5F5
310
F5F5F5F5F5F5F5F5F5F5F5F5F5F5F5F5F5F5F5F5F5F5F5F5F5F5F5F5F5F5F5F5F5F5F5F5F5F5F5F5F5F5F5F5F5F5F5F5F5F5F5F5F5F5F5F5F5F5F5F5F5F5F5F5F5F5F5F5F5F5F5F5F5F5F5F5F5F5F5F5F5F5F5F5F5F5F5F5F5F5F5F5F5F5F5F5F5F5F5F52DF5F5F5F5F5F5F5F5F5F5F5F5F5F5F5F5E2F5F5F5E2E2EFE2F5F5
310
F5E2F5F5F5F5F5F5F5F5F5F5F5F5F5F5F5F52DF5F5F5F5F5F5F5F5F5F5F5F5F5F5F5F5F5F5F5F5F5F5F5F5F5F5F5F5F5F5F5F5F5F5F5F5F5F5F5F5F5F5F5F5F5F5F5F5F5F5F5F5F5F5F5F5F5F5F5F5F5F5F5F5F5F5F5F5F5F5F5F5F5F5F5F5F5F5F5F5F5F5F5F5F5F5F5F5F5F5F5F5F5F5F5F5F5F5F5F5F5F5F5F5F5F5F5F5
310
F5F5F5F5F5F5F5F5F5F5F5F5F5F5F5F5F5F5F5F5F5F5F5F5F5F52DF5F5F5F5F5F5F5F5F5F5F5F5F5F5F5F5E2F5F5F5E2E2EFE2F5F5F5E2F5F5F5F5F5F5F5F5F5F5F5F5F5F5F5F52DF5F5F5F5F5F5F5F5F5F5F5F5F5F5F5F5F5F5F5F5F5F5F5F5F5F5F5F5F5F5F5F5F5F5F5F5F5F5F5F5F5F5F5F5F5F5F5F5F5F5F5F5F5F5F5
310
F5F5F5F5F5F5F5F5F5F5F5F5F5F5F5F5F5F5F5F5F5F5F5F5F5F5F5F5F5F5F5F5F5F5F5F5F5F5F5F5F5F5F5F5F5F5F5F5F5F5F5F5F5F5F5F5F5F5F5F5F5F5F5F5F5F5F5F5F5F5F5F5F5F5F5F5F5F5F52DF5F5F5F5F5F5F5F5F5F5F5F5F5F5F5F5E2F5F5F5E2E2EFE2F5F5F5E2F5F5F5F5F5F5F5F5F5F5F5F5F5F5F5F52DF5F5
310
F5F5F5F5F5F5F5F5F5F5F5F5F5F5F5F5F5F5F5F5F5F5F5F5F5F5F5F5F5F5F5F5F5F5F5F5F5F5F5F5F5F5F5F5F5F5F5F5F5F5F5F5F5F5F5F5F5F5F5F5F5F5F5F5F5F5F5F5F5F5F5F5F5F5F5F5F5F5F5F5F5F5F5F5F5F5F5F5F5F5F5F5F5F5F5F5F5F5F5F5F5F5F5F5F5F5F5F5F5F5F5F5F5F5F5F5F5F5F5F5F5F5F5F5F5F5F5
310
F5F5F5F5F52DF5F5F5F5F5F5F5F5F5F5F5F5F5F5F5F5E2F5F5F5E2E2EFE2F5F5F5E2F5F5F5F5F5F5F5F5F5F5F5F5F5F5F5F52DF5F5F5F5F5F5F5F5F5F5F5F5F5F5F5F5F5F5F5F5F5F5F5F5F5F5F5F5F5F5F5F5F5F5F5F5F5F5F5F5F5F5F5F5F5F5F5F5F5F5F5F5F5F5F5F5F5F5F5F5F5F5F5F5F5F5F5F5F5F5F5F5F5F5F5F5
310
F5F5F5F5F5F5F5F5F5F5F5F5F5F5F5F5F5F5F5F5F5F5F5F5F5F5F5F5F5F5F5F5F5F5F5F5F5F5F5F5F5F5F5F5F5F5F5F5F5F5F5F5F5F5F5F5F5F52DF5F5F5F5F5F5F5F5F5F5F5F5F5F5F5F5E2F5F5F5E2E2EFE2F5F5F5E2F5F5F5F5F5F5F5F5F5F5F5F5F5F5F5F52DF5F5F5F5F5F5F5F5F5F5F5F5F5F5F5F5F5F5F5F5F5F5F5
310
F5F5F5F5F5F5F5F5F5F5F5F5F5F5F5F5F5F5F5F5F5F5F5F5F5F5F5F5F5F5F5F5F5F5F5F5F5F5F5F5F5F5F5F5F5F5F5F5F5F5F5F5F5F5F5F5F5F5F5F5F5F5F5F5F5F5F5F5F5F5F5F5F5F5F5F5F5F5F5F5F5F5F5F5F5F5F5F5F5F5F5F5F5F5F5F5F5F5F5F5F5F5F5F5F5F5F5F5F5F5F52DF5F5F5F5F5F5F5F5F5F5F5F5F5F5F5
310
F5E2F5F5F5E2E2EFE2F5F5F5E2F5F5F5F5F5F5F5F5F5F5F5F5F5F5F5F52DF5F5F5F5F5F5F5F5F5F5F5F5F5F5F5F5F5F5F5F5F5F5F5F5F5F5F5F5F5F5F5F5F5F5F5F5F5F5F5F5F5F5F5F5F5F5F5F5F5F5F5F5F5F5F5F5F5F5F5F5F5F5F5F5F5F5F5F5F5F5F5F5F5F5F5F5F5F5F5F5F5F5F5F5F5F5F5F5F5F5F5F5F5F5F5F5F5
310
F5F5F5F5F5F5F5F5F5F5F5F5F5F5F5F5F5F5F5F5F5F5F5F5F5F5F5F5F5F5F5F5F5F5F5F5F52DF5F5F5F5F5F5F5F5F5F5F5F5F5F5F5F5E2F5F5F5E2E2EFE2F5F5F5E2F5F5F5F5F5F5F5F5F5F5F5F5F5F5F5F52DF5F5F5F5F5F5F5F5F5F5F5F5F5F5F5F5F5F5F5F5F5F5F5F5F5F5F5F5F5F5F5F5F5F5F5F5F5F5F5F5F5F5F5F5
310
F5F5F5F5F5F5F5F5F5F5F5F5F5F5F5F5F5F5F5F5F5F5F5F5F5F5F5F5F5F5F5F5F5F5F5F5F5F5F5F5F5F5F5F5F5F5F5F5F5F5F5F5F5F5F5F5F5F5F5F5F5F5F5F5F5F5F5F5F5F5F5F5F5F5F5F5F5F5F5F5F5F5F5F5F5F5F5F5F5F52DF5F5F5F5F5F5F5F5F5F5F5F5F5F5F5F5E2F5F5F5E2E2EFE2F5F5F5E2F5F5F5F5F5F5F5F5
310
F5F5F5F5F5F5F5F52DF5F5F5F5F5F5F5F5F5F5F5F5F5F5F5F5F5F5F5F5F5F5F5F5F5F5F5F5F5F5F5F5F5F5F5F5F5F5F5F5F5F5F5F5F5F5F5F5F5F5F5F5F5F5F5F5F5F5F5F5F5F5F5F5F5F5F5F5F5F5F5F5F5F5F5F5F5F5F5F5F5F5F5F5F5F5F5F5F5F5F5F5F5F5F5F5F5F5F5F5F5F5F5F5F5F5F5F5F5F5F5F5F5F5F5F5F5F5
310
F5F5F5F5F5F5F5F5F5F5F5F5F5F5F5F52DF5F5F5F5F5F5F5F5F5F5F5F5F5F5F5F5E2F5F5F5E2E2EFE2F5F5F5E2F5F5F5F5F5F5F5F5F5F5F5F5F5F5F5F52DF5F5F5F5F5F5F5F5F5F5F5F5F5F5F5F5F5F5F5F5F5F5F5F5F5F5F5F5F5F5F5F5F5F5F5F5F5F5F5F5F5F5F5F5F5F5F5F5F5F5F5F5F5F5F5F5F5F5F5F5F5F5F5F5F5
310
F5F5F5F5F5F5F5F5F5F5E2E2E2C3E2ECE2F5F5F5C3C3E2E2E2F5F5F5F5F5F5F5F5F5F5F5F5F5F5F5F5F5F5F5F5F5F5F5F5F5F5F5F5F5F5F5F5F5F5F5F5F5F5F5F5F5F5F5F52DF5F5F5F5F5F5F5F5F5F5F5F5F5F5F5F5E2F5F5F5E2E2EFE2F5F5F5E2F5F5F5F5F5F5F5F5F5F5F5F5F5F5F5F52DF5F5F5F5F5F5F5F5F5F5F5F5
310
F5F5F5F5F5F5F5F5F5F5F5F5F5F5F5F5F5F5F5F5F5F5F5F5F5F5F5F5F5F5F5F5F5F5F5F5F5F5F5F5F5F5F5F5F5F5F5F5F5F5F5F5F5F5F5F5F5F5F5F5F5F5F5C3E2ECC3E2ECE2F5F5F5C3C3E2E2E2F5F5F5F5F5F5F5F5F5F5F5F5F5F5F5F5F5F5F5F5F5F5F5F5F5F5F5F5F5F5F5F5F5F5F5F5F5F5F5F5F5F5F5F52DF5F5F5F5
310
F5F5F5F5F5F5F5F5F5F5F5F5E2F5F5F5E2E2EFE2F5F5F5E2F5F5F5F5F5F5F5F5F5F5F5F5F5F5F5F52DF5F5F5F5F5F5F5F5F5F5F5F5F5F5F5F5F5F5F5F5F5F5F5F5F5F5F5F5F5F5F5F5F5F5F5F5F5F5F5F5F5F5F5F5F5F5F5F5F5F5F5F5F5F5F5F5F5F5F5F5F5F5F5F5F5F5F5F5F5F5F5F5F5F5F5C3C3C3C3E2E2C3F5F5F5C3
310
E2E22DC3F5F5F5F5F5F5F5F5F5F5F5F5F5F5F5F5F5F5F5F5F5F5F5F5F5F5F5F5F5F5F5F5F5F5F5F5F5F5F5F5F5F5F5F52DF5F5F5F5F5F5F5F5F5F5F5F5F5F5F5F5E2F5F5F5E2E2EFE2F5F5F5E2F5F5F5F5F5F5F5F5F5F5F5F5F5F5F5F52DF5F5F5F5F5F5F5F5F5F5F5F5F5F5F5F5F5F5F5F5F5F5F5F5F5F5F5F5F5F5F5F5F5
310
F5F5F5F5F5F5F5F5F5F5F5F5F5F5F5F5F5F5F5F5F5F5F5F5F5F5F5F5F5F5F5F5F5F5F5F5F5F5F5F5F5F5C3E2E2C30F0FC3F5F5F5C3C3E2C3C3F5F5F5F5F5F5C3E2E2F5F5F5F5F5F5F5F5F5F5F5F5F5F5F5F5F5F5F5F5F5F5F5F5F5F5F5F5F5F5F5F5F5F5F52DF5F5F5F5F5F5F5F5F5F5F5F5F5F5F5F5E2F5F5F5E2E2EFE2F5
310
F5F5E2F5F5F5F5F5F5F5F5F5F5F5F5F5F5F5F52DF5F5F5F5F5F5F5F5F5F5F5F5F5F5F5F5F5F5F5F5F5F5F5F5F5F5F5F5F5F5F5F5F5F5F5F5F5F5F5F5F5F5F5F5F5F5F5F5F5F5F5F5F5F5F5F5F5F5F5F5F5F5F5F5F5F5F5F5F5F5F5F5F5F5F5C3E2E2C3ECE2ECF5F5F5F5F5F5F5F5F5F5F5F5F5C3C3E2E2F5F5F5F5F5F5F5F5
310
F5F5F5F5F5F5F5F5F5F5F5F5F5F5F5F5F5F5F5F5F5F5F5F5F5F5F52DF5F5F5F5F5F5F5F5F5F5F5F5F5F5F5F5E2F5F5F5E2E2EFE2F5F5F5E2F5F5F5F5F5F5F5F5F5F5F5F5F5F5F5F52DF5F5F5F5F5F5F5F5F5F5F5F5F5F5F5F5F5F5F5F5F5F5F5F5F5F5F5F5F5F5F5F5F5F5F5F5F5F5F5F5F5F5F5F5F5F5F5F5F5F5F5F5F5F5
310
F5F5F5F5F5F5F5F5F5F5F5F5F5F5F5F5F5F5F5F5F5E2ECECC3E2ECE2F5F5F5F5BE2DECF52D2DF5E2F5F5C3C3C3F5F5F5F5F5F5F5F5F5F5F5F5F5F5F5F5F5F5F5F5F5F5F5F5F5F5F5F5F5F5F5F5F5F5F52DF5F5F5F5F5F5F5F5F5F5F5F5F5F5F5F5E2F5F5F5E2E2EFE2F5F5F5E2F5F5F5F5F5F5F5F5F5F5F5F5F5F5F5F52DF5
310
F5F5F5F5F5F5F5F5F5F5F5F5F5F5F5F5F5F5F5F5F5F5F5F5F5F5F5F5F5F5F5F5F5F5F5F5F5F5F5F5F5F5F5F5F5F5F5F5F5F5F5F5F5F5F5F5F5F5F5F5F5F5F5F5F5F5F5F5F5F5F5F5F5F5E2E2E2E2E2E2C3F5F5F5C32DE22D2D2DEC2DE2F5F5ECDCF5F5F5F5F5F5F5F5F5F5F5F5F5F5F5F5F5F5F5F5F5F5F5F5F5F5F5F5F5F5
310
F5F5F5F5F5F52DF5F5F5F5F5F5F5F5F5F5F5F5F5F5F5F5E2F5F5F5E2E2EFE2F5F5F5E2F5F5F5F5F5F5F5F5F5F5F5F5F5F5F5F52DF5F5F5F5F5F5F5F5F5F5F5F5F5F5F5F5F5F5F5F5F5F5F5F5F5F5F5F5F5F5F5F5F5F5F5F5F5F5F5F5F5F5F5F5F5F5F5F5F5F5F5F5F5F5F5F5F5F5F5F5F5F5F5F5F5F5F5F5F5F5F5F5F5F5F5
310
E2E2E2E2E2E2C3F5F5F5E2BE2DF5F5F5F5F5E2F5F5C3E2E2F5F5F5F5F5F5F5F5F5F5F5F5F5F5F5F5F5F5F5F5F5F5F5F5F5F5F5F5F5F5F5F5F5F5F52DF5F5F5F5F5F5F5F5F5F5F5F5F5F5F5F5E2F5F5F5E2E2EFE2F5F5F5F5F5F5F5F5F5F5F5F5F5F5F5F5F5F5F5F52DF5F5F5F5F5F5F5F5F5F5F5F5F5F5F5F5F5F5F5F5F5F5
310
F5F5F5F5F5F5F5F5F5F5F5F5F5F5F5F5F5F5F5F5F5F5F5F5F5F5F5F5F5F5F5F5F5F5F5F5F5F5F5F5F5F5F5F5E22DE2E2ECE2E2F5F5E22D2DC32D2DC3F5F5F5F5F52DF5F5F5F52D2D2D2DC3E2E2F5F5F5F5F5F5F5F5F5F5F5F5F5F5F5F5F5F5F5F5F5F5F5F5F5F5F5F5F5F5F5F5F5F5F52DF5F5F5F5F5F5F5F5F5F5F5F5F5F5
310
F5F5F5F5F5F5E2E2EFE2F5F5F5F5F5F5F5F5F5F5F5F5F5F5F5F5F5F5F5F52DF5F5F5F5F5F5F5F5F5F5F5F5F5F5F5F5F5F5F5F5F5F5F5F5F5F5F5F5F5F5F5F5F5F5F5F5F5F5F5F5F5F5F5F5F5F5F5F5F5F5F5F5F5F5F5F5F5F5F5F5F5F5F5F5F5F52DBEC3C3E22DE2F5F5E2E2E2E2F5F5E2F5F5F5F5F5F5F5E2E2E2BE2DE2BE
310
C3E2E2F5F5F5F5F5F5F5F5F5F5F5F5F5F5F5F5F5F5F5F5F5F5F5F5F5F5F5F5F5F5F5F5F5F5F52DF5F5F5F5F5F5F5F5F5F5F5F5F5F5F5F5F5F5F5F5E2E2EFE2F5F5F5F5F5F5F5F5F5F5F5F5F5F5F5F5F5F5F5F52DF5F5F5F5F5F5F5F5F5F5F5F5F5F5F5F5F5F5F5F5F5F5F5F5F5F5F5F5F5F5F5F5F5F5F5F5F5F5F5F5F5F5F5
310
F5F5F5F5F5F5F5F5F5F5F5F5F5F5F5F5F5F5F5F5F5F5F5F5F5F5F5F5F5F5F5F5F5F5F5F5F5F5F5F5F5F5F5F5F5F52DE2E2F5F5F5F5C3E22DF5F5F5F5F5F5F5F5F5F5F5F5F5F5F5F5F5F5F5F5F5F5F5F5F5F5F5F5F5F5F5F5F5F5F52DF5F5F5F5F5F5F5F5F5F5F5F5F5F5F5F5F5F5F5F5E2E2EFE2F5F5F5F5F5F5F5F5F5F5F5
310
F5F5F5F5F5F5F5F5F52DF5F5F5F5F5F5F5F5F5F5F5F5F5F5F5F5F5F5F5F5F5F5F5F5F5F5F5F5F5F5F5F5F5F5F5F5F5F5F5F5F5F5F5F5F5F5F5F5F5F5F5F5F5F5F5F5F5F5F5F5F5F5F5F5F5F5F5F5F5F5F5F5F5F5F5F5F5F5F5F5F5F5F5F5F5F5F5F5F5F5F5BE28F5F5F5F5F5F5F5F5F5F5F5F5F5F5F5F5F5F5F5F5F5F5F5F5
310
F5F5F5F5F5F5F5F5F5F5F5F5F5F5F5F5F52DF5F5F5F5F5F5F5F5F5F5F5F5F5F5F5F5F5F5F5F5E2E2EFE2F5F5F5F5F5F5F5F5F5F5F5F5F5F5F5F5F5F5F5F52DF5F5F5F5F5F5F5F5F5F5F5F5F5F5F5F5F5F5F5F5F5F5F5F5F5F5F5F5F5F5F5F5F5F5F5F5F5F5F5F5F5F5F5F5F5F5F5F5F5F5F5F5F5F5F5F5F5F5F5F5F5F5F5F5
310
F5F5F5BEE2E2E2F5F5F5ECC3C3C3C3C3C3F5F5F5F5F5F5F5F5F5F52D2DF5F5F5F5F5F5F5F5F5F5F5F5F5F5F5F5F5F5F5F5F5F5F5F5F5F5F5F5F5F5F5F5F5F5F5F5F5F5F5F5F52DF5F5F5F5F5F5F5F5F5F5F5F5F5F5F5F5F5F5F5F5E2E2EFE2F5F5F5F5F5F5F5F5F5F5F5F5F5F5F5F5F5F5F5F52DF5F5F5F5F5F5F5F5F5F5F5
310
F5F5F5F5F5F5F5F5F5F5F5F5F5F5F5F5F5F5F5F5F5F5F5F5F5F5F5F5F5F5F5F5F5F5F5F5F5F5F5F5F5F5F5F5F5F5F5F5F5F5F5F5F5F5F5E2ECE2E2E22D2D2DECE2E2E2E2E2C3F5F5F5F5F5F5F5F5F5F5E2E2F5F5F5F5F5F5F5F5F5F5F5F5F5F5F5F5F5F5F5F5F5F5F5F5F5F5F5F5F5F5F5F5F5F5F5F5F5F5F5F5F52DF5F5F5
310
F5F5F5F5F5F5F5F5F5F5F5F5F5F5F5F5F5E2E2EFE2F5F5F5F5F5F5F5F5F5F5F5F5F5F5F5F5F5F5F5F52DF5F5F5F5F5F5F5F5F5F5F5F5F5F5F5F5F5F5F5F5F5F5F5F5F5F5F5F5F5F5F5F5F5F5F5F5F5F5F5F5F5F5F5F5F5F5F5F5F5F5F5F5F5F5F5F5F5F5F5F5F5F5F5F5F5F5E2ECE2E2ECE22D2DECE2E2ECE2E2C3F5F5F5F5
310
F5F5F5F5F5F5E2E2F5F5F5F5F5F5F5F5F5F5F5F5F5F5F5F5F5F5F5F5F5F5F5F5F5F5F5F5F5F5F5F5F5F5F5F5F5F5F5F5F52DF5F5F5F5F5F5F5F5F5F5F5F5F5F5F5F5F5F5F5F5E2E2EFE2F5F5F5F5F5F5F5F5F5F5F5F5F5F5F5F5F5F5F5F52DF5F5F5F5F5F5F5F5F5F5F5F5F5F5F5F5F5F5F5F5F5F5F5F5F5F5F5F5F5F5F5F5
310
F5F5F5F5F5F5F5F5F5F5F5F5F5F5F5F5F5F5F5F5F5F5F5F5F5F5F5F5F5F5F5F5F5F52D2DE2ECECF5C3ECECE2E2E2E2E2C3F5F5F5F5F5F5F5F5F5F5BE28F5F5F5F5F5F5F5F5F5F5F5F5F5F5F5F5F5F5F5F5F5F5F5F5F5F5F5F5F5F5F5F5F5F5F5F5F5F5F5F5F52DF5F5F5F5F5F5F5F5F5F5F5F5F5F5F5F5F5F5F5F5E2E2EFE2
310
F5F5F5F5F5F5F5F5F5F5F5F5F5F5F5F5F5F5F5F52DF5F5F5F5F5F5F5F5F5F5F5F5F5F5F5F5F5F5F5F5F5F5F5F5F5F5F5F5F5F5F5F5F5F5F5F5F5F5F5F5F5F5F5F5F5F5F5F5F5F5F5F5F5F5F5F5F5F5F5F5F5F5F5F5F5F52D2DE22D2DF5F5F5ECE2E2E2C3E2E2F5F5F5F5F5F5F5F5F5F5F5F5F5F5F5F5F5F5F5F5F5F5F5F5F5
310
F5F5F5F5F5F5F5F5F5F5F5F5F5F5F5F5F5F5F5F5F5F5F5F5F5F5F5F52DF5F5F5F5F5F5F5F5F5F5F5F5F5F5F5F5F5F5F5F5E2E2EFE2F5F5F5E2F5F5F5F5F5F5F5F5F5F5F5F5F5F5F5F52DF5F5F5F5F5F5F5F5F5F5F5F5F5F5F5F5F5F5F5F5F5F5F5F5F5F5F5F5F5F5F5F5F5F5F5F5F5F5F5F5F5F5F5F5F5F5F5F5F5F5F5F5F5
310
F5F5F5F5F5F5F5F5F5F5F5F5E22DE2E2E2F5BE362DECECECECECECECE2E2ECF5F5F5F5F5F5F5F5F5F5F5F5F5F5F5F5F5F5F5F5F5F5F5F5F5F5F5F5F5F5F5F5F5F5F5F5F5F5F5F5F5F5F5F5F5F5F5F5F5F52DF5F5F5F5F5F5F5F5F5F5F5F5F5F5F5F5E2F5F5F5E2E2EFE2F5F5F5E2F5F5F5F5F5F5F5F5F5F5F5F5F5F5F5F52D
310
F5F5F5F5F5F5F5F5F5F5F5F5F5F5F5F5F5F5F5F5F5F5F5F5F5F5F5F5F5F5F5F5F5F5F5F5F5F5F5F5F5F5F5F5F5F5F5F5F5F5F5F5F5F5F5F5F5F5F5F5F5F5F5F5F5E22DE2E2ECE2BE2DE22DE2C3ECEC28ECECECECF5F5F5F5F5F5F5F5F5F5F5F5F5F5F5F5F5F5F5F5F5F5F5F5F5F5F5F5F5F5F5F5F5F5F5F5F5F5F5F5F5F5F5
310
F5F5F5F5F5F5F52DF5F5F5F5F5F5F5F5F5F5F5F5F5F5F5F5E2F5F5F5E2E2EFE2F5F5F5E2F5F5F5F5F5F5F5F5F5F5F5F5F5F5F5F52DF5F5F5F5F5F5F5F5F5F5F5F5F5F5F5F5F5F5F5F5F5F5F5F5F5F5F5F5F5F5F5F5F5F5F5F5F5F5F5F5F5F5F5F5F5F5F5F5F5F5F5F5F5F5F5F5F5F5F5F5F5F5F5F5F5E2E2E22DE2E22D2DE2
310
E2E2C3ECECEC2DE2E2C3F5F5F5F5F5F5F5F5F5F5F5F5F5F5F5F5F5F5F5F5F5F5F5F5F5F5F5F5F5F5F5F5F5F5F5F5F5F5F5F5F5F5F5F5F5F5F5F5F5F52DF5F5F5F5F5F5F5F5F5F5F5F5F5F5F5F5E2F5F5F5E2E2EFE2F5F5F5E2F5F5F5F5F5F5F5F5F5F5F5F5F5F5F5F52DF5F5F5F5F5F5F5F5F5F5F5F5F5F5F5F5F5F5F5F5F5
310
F5F5F5F5F5F5F5F5F5F5F5F5F5F5F5F5F5F5F5F5F5F5F5F5F5F5F5F5F5F5F5F5F5F5F5F5F5F5F5F5F5F5F5F5E2E22DECE2F5F5F5ECE22DC3E2ECE2E2282DE2F5F5F5F5F5F5F5F5F5F5F5F5F5F5F5F5F5F5F5F5F5F5F5F5F5F5F5F5F5F5F5F5F5F5F5F5F5F5F5F5F5F5F5F5F5F5F5F5F5F52DF5F5F5F5F5F5F5F5F5F5F5F5F5
310
F5F5F5E2F5F5F5E2E2EFE2F5F5F5E2F5F5F5F5F5F5F5F5F5F5F5F5F5F5F5F52DF5F5F5F5F5F5F5F5F5F5F5F5F5F5F5F5F5F5F5F5F5F5F5F5F5F5F5F5F5F5F5F5F5F5F5F5F5F5F5F5F5F5F5F5F5F5F5F5F5F5F5F5F5F5F5F5F5F5F5F5F5F5F5F5F5E2E2E2F5F5F5F5F5F5F5F5F5F5ECECECE22DE2F5F5F5F5F5F5F5F5F5F5F5
310
F5F5F5F5F5F5F5F5F5F5F5F5F5F5F5F5F5F5F5F5F5F5F5F5F5F5F5F5F5F5F5F5F5F5F5F5F5F5F52DF5F5F5F5F5F5F5F5F5F5F5F5F5F5F5F5E2F5F5F5E2E2EFE2F5F5F5E2F5F5F5F5F5F5F5F5F5F5F5F5F5F5F5F52DF5F5F5F5F5F5F5F5F5F5F5F5F5F5F5F5F5F5F5F5F5F5F5F5F5F5F5F5F5F5F5F5F5F5F5F5F5F5F5F5F5F5
310
F5F5F5F5F5F5F5F5F5F5F5F5F5F5F5F5F5F5F5F5F5F5F5F5F5F5F5F5F5F5F5F5F5F5F5F5F5F5F5F5F5F5F5F5F5F5F5F5F5F5F5F5F5F5F5F5F5F5F5F5F5F5F5F5F5F5F5F5F5F5F5F5F5F5F5F5F5F5F5F5F5F5F5F5F5F5F5F5F5F5F5F52DF5F5F5F5F5F5F5F5F5F5F5F5F5F5F5F5E2F5F5F5E2E2EFE2F5F5F5E2F5F5F5F5F5F5
310
F5F5F5F5F5F5F5F5F5F52DF5F5F5F5F5F5F5F5F5F5F5F5F5F5F5F5F5F5F5F5F5F5F5F5F5F5F5F5F5F5F5F5F5F5F5F5F5F5F5F5F5F5F5F5F5F5F5F5F5F5F5F5F5F5F5F5F5F5F5F5F5F5F5F5F5F5F5F5F5F5F5F5F5F5F5F5F5F5F5F5F5F5F5F5F5F5F5F5F5F5F5F5F5F5F5F5F5F5F5F5F5F5F5F5F5F5F5F5F5F5F5F5F5F5F5F5
310
F5F5F5F5F5F5F5F5F5F5F5F5F5F5F5F5F5F52DF5F5F5F5F5F5F5F5F5F5F5F5F5F5F5F5E2F5F5F5E2E2EFE2F5F5F5E2F5F5F5F5F5F5F5F5F5F5F5F5F5F5F5F52DF5F5F5F5F5F5F5F5F5F5F5F5F5F5F5F5F5F5F5F5F5F5F5F5F5F5F5F5F5F5F5F5F5F5F5F5F5F5F5F5F5F5F5F5F5F5F5F5F5F5F5F5F5F5F5F5F5F5F5F5F5F5F5
310
F5F5F5F5F5F5F5F5F5F5F5F5F5F5F5F5F5F5F5F5F5F5F5F5F5F5F5F5F5F5F5F5F5F5F5F5F5F5F5F5F5F5F5F5F5F5F5F5F5F5F5F5F5F5F5F5F5F5F5F5F5F5F5F5F5F5F5F5F5F5F52DF5F5F5F5F5F5F5F5F5F5F5F5F5F5F5F5E2F5F5F5E2E2EFE2F5F5F5E2F5F5F5F5F5F5F5F5F5F5F5F5F5F5F5F52DF5F5F5F5F5F5F5F5F5F5
310
F5F5F5F5F5F5F5F5F5F5F5F5F5F5F5F5F5F5F5F5F5F5F5F5F5F5F5F5F5F5F5F5F5F5F5F5F5F5F5F5F5F5F5F5F5F5F5F5F5F5F5F5F5F5F5F5F5F5F5F5F5F5F5F5F5F5F5F5F5F5F5F5F5F5F5F5F5F5F5F5F5F5F5F5F5F5F5F5F5F5F5F5F5F5F5F5F5F5F5F5F5F5F5F5F5F5F5F5F5F5F5F5F5F5F5F5F5F5F5F5F5F5F5F52DF5F5
310
F5F5F5F5F5F5F5F5F5F5F5F5F5F5E2F5F5F5E2E2EFE2F5F5F5E2F5F5F5F5F5F5F5F5F5F5F5F5F5F5F5F52DF5F5F5F5F5F5F5F5F5F5F5F5F5F5F5F5F5F5F5F5F5F5F5F5F5F5F5F5F5F5F5F5F5F5F5F5F5F5F5F5F5F5F5F5F5F5F5F5F5F5F5F5F5F5F5F5F5F5F5F5F5F5F5F5F5F5F5F5F5F5F5F5F5F5F5F5F5F5F5F5F5F5F5F5
310
F5F5F5F5F5F5F5F5F5F5F5F5F5F5F5F5F5F5F5F5F5F5F5F5F5F5F5F5F5F5F5F5F5F5F5F5F5F5F5F5F5F5F5F5F5F5F5F5F5F52DF5F5F5F5F5F5F5F5F5F5F5F5F5F5F5F5E2F5F5F5E2E2EFE2F5F5F5E2F5F5F5F5F5F5F5F5F5F5F5F5F5F5F5F52DF5F5F5F5F5F5F5F5F5F5F5F5F5F5F5F5F5F5F5F5F5F5F5F5F5F5F5F5F5F5F5
310
F5F5F5F5F5F5F5F5F5F5F5F5F5F5F5F5F5F5F5F5F5F5F5F5F5F5F5F5F5F5F5F5F5F5F5F5F5F5F5F5F5F5F5F5F5F5F5F5F5F5F5F5F5F5F5F5F5F5F5F5F5F5F5F5F5F5F5F5F5F5F5F5F5F5F5F5F5F5F5F5F5F5F5F5F5F5F5F5F5F5F5F5F5F5F5F5F5F5F5F5F5F5F52DF5F5F5F5F5F5F5F5F5F5F5F5F5F5F5F5E2F5F5F5E2E2EF
310
E2F5F5F5E2F5F5F5F5F5F5F5F5F5F5F5F5F5F5F5F52DF5F5F5F5F5F5F5F5F5F5F5F5F5F5F5F5F5F5F5F5F5F5F5F5F5F5F5F5F5F5F5F5F5F5F5F5F5F5F5F5F5F5F5F5F5F5F5F5F5F5F5F5F5F5F5F5F5F5F5F5F5F5F5F5F5F5F5F5F5F5F5F5F5F5F5F5F5F5F5F5F5F5F5F5F5F5F5F5F5F5F5F5F5F5F5F5F5F5F5F5F5F5F5F5F5
310
F5F5F5F5F5F5F5F5F5F5F5F5F5F5F5F5F5F5F5F5F5F5F5F5F5F5F5F5F52DF5F5F5F5F5F5F5F5F5F5F5F5F5F5F5F5E2F5F5F5E2E2EFE2F5F5F5E2F5F5F5F5F5F5F5F5F5F5F5F5F5F5F5F52DF5F5F5F5F5F5F5F5F5F5F5F5F5F5F5F5F5F5F5F5F5F5F5F5F5F5F5F5F5F5F5F5F5F5F5F5F5F5F5F5F5F5F5F5F5F5F5F5F5F5F5F5
310
F5F5F5F5F5F5F5F5F5F5F5F5F5F5F5F5F5F5F5F5F5F5F5F5F5F5F5F5F5F5F5F5F5F5F5F5F5F5F5F5F5F5F5F5F5F5F5F5F5F5F5F5F5F5F5F5F5F5F5F5F5F5F5F5F5F5F5F5F5F5F5F5F5F5F5F5F5F5F5F5F5F52DF5F5F5F5F5F5F5F5F5F5F5F5F5F5F5F5E2F5F5F5E2E2EFE2F5F5F5E2F5F5F5F5F5F5F5F5F5F5F5F5F5F5F5F5
310
2DF5F5F5F5F5F5F5F5F5F5F5F5F5F5F5F5F5F5F5F5F5F5F5F5F5F5F5F5F5F5F5F5F5F5F5F5F5F5F5F5F5F5F5F5F5F5F5F5F5F5F5F5F5F5F5F5F5F5F5F5F5F5F5F5F5F5F5F5F5F5F5F5F5F5F5F5F5F5F5F5F5F5F5F5F5F5F5F5F5F5F5F5F5F5F5F5F5F5F5F5F5F5F5F5F5F5F5F5F5F5F5F5F5F5F5F5F5F5F5F5F5F5F5F5F5F5
310
F5F5F5F5F5F5F5F52DF5F5F5F5F5F5F5F5F5F5F5F5F5F5F5F5E2F5F5F5E2E2EFE2F5F5F5E2F5F5F5F5F5F5F5F5F5F5F5F5F5F5F5F52DF5F5F5F5F5F5F5F5F5F5F5F5F5F5F5F5F5F5F5F5F5F5F5F5F5F5F5F5F5F5F5F5F5F5F5F5F5F5F5F5F5F5F5F5F5F5F5F5F5F5F5F5F5F5F5F5F5F5F5F5F5F5F5F5F5F5F5F5F5F5F5F5F5
310
F5F5F5F5F5F5F5F5F5F5F5F5F5F5F5F5F5F5F5F5F5F5F5F5F5F5F5F5F5F5F5F5F5F5F5F5F5F5F5F5F5F5F5F5F5F5F5F5F5F5F5F5F5F5F5F5F5F5F5F5F52DF5F5F5F5F5F5F5F5F5F5F5F5F5F5F5F5E2F5F5F5E2E2EFE2F5F5F5E2F5F5F5F5F5F5F5F5F5F5F5F5F5F5F5F52DF5F5F5F5F5F5F5F5F5F5F5F5F5F5F5F5F5F5F5F5
310
F5F5F5F5F5F5F5F5F5F5F5F5F5F5F5F5F5F5F5F5F5F5F5F5F5F5F5F5F5F5F5F5F5F5F5F5F5F5F5F5F5F5F5F5F5F5F5F5F5F5F5F5F5F5F5F5F5F5F5F5F5F5F5F5F5F5F5F5F5F5F5F5F5F5F5F5F5F5F5F5F5F5F5F5F5F5F5F5F5F5F5F5F5F5F5F5F5F5F5F5F5F5F5F5F5F5F5F5F5F5F5F5F5F52DF5F5F5F5F5F5F5F5F5F5F5F5
310
F5F5F5F5E2F5F5F5E2E2EFE2F5F5F5E2F5F5F5F5F5F5F5F5F5F5F5F5F5F5F5F52DF5F5F5F5F5F5F5F5F5F5F5F5F5F5F5F5F5F5F5F5F5F5F5F5F5F5F5F5F5F5F5F5F5F5F5F5F5F5F5F5F5F5F5F5F5F5F5F5F5F5F5F5F5F5F5F5F5F5F5F5F5F5F5F5F5F5F5F5F5F5F5F5F5F5F5F5F5F5F5F5F5F5F5F5F5F5F5F5F5F5F5F5F5F5
310
F5F5F5F5F5F5F5F5F5F5F5F5F5F5F5F5F5F5F5F5F5F5F5F5F5F5F5F5F5F5F5F5F5F5F5F5F5F5F5F52DF5F5F5F5F5F5F5F5F5F5F5F5F5F5F5F5E2F5F5F5E2E2EFE2F5F5F5F5F5F5F5F5F5F5F5F5F5F5F5F5F5F5F5F52DF5F5F5F5F5F5F5F5F5F5F5F5F5F5F5F5F5F5F5F5F5F5F5F5F5F5F5F5F5F5F5F5F5F5F5F5F5F5F5F5F5
310
F5F5F5F5F5F5F5F5F5F5F5F5F5F5F5F5F5F5F5F5F5F5F5F5F5F5F5F5F5F5F5F5F5F5F5F5F5F5F5F5F5F5F5F5F5F5F5F5F5F5F5F5F5F5F5F5F5F5F5F5F5F5F5F5F5F5F5F5F5F5F5F5F5F5F5F5F5F5F5F5F5F5F5F5F5F5F5F5F5F5F5F5F52DF5F5F5F5F5F5F5F5F5F5F5F5F5F5F5F5F5F5F5F5E2E2EFE2F5F5F5F5F5F5F5F5F5
310
F5F5F5F5F5F5F5F5F5F5F52DF5F5F5F5F5F5F5F5F5F5F5F5F5F5F5F5F5F5F5F5F5F5F5F5F5F5F5F5F5F5F5F5F5F5F5F5F5F5F5F5F5F5F5F5F5F5F5F5F5F5F5F5F5F5F5F5F5F5F5F5F5F5F5F5F5F5F5F5F5F5F5F5F5F5F5F5F5F5F5F5F5F5F5F5F5F5F5F5F5F5F5F5F5F5F5F5F5F5F5F5F5F5F5F5F5F5F5F5F5F5F5F5F5F5F5
310
F5F5F5F5F5F5F5F5F5F5F5F5F5F5F5F5F5F5F52DF5F5F5F5F5F5F5F5F5F5F5F5F5F5F5F5F5F5F5F5E2E2EFE2F5F5F5F5F5F5F5F5F5F5F5F5F5F5F5F5F5F5F5F52DF5F5F5F5F5F5F5F5F5F5F5F5F5F5F5F5F5F5F5F5F5F5F5F5F5F5F5F5F5F5F5F5F5F5F5F5F5F5F5F5F5F5F5F5F5F5F5F5F5F5F5F5F5F5F5F5F5F5F5F5F5F5
310
F5F5F5F5F5F5F5F5F5F5F5F5F5F5F5F5F5F5F5F5F5F5F5F5F5F5F5F5F5F5F5F5F5F5F5F5F5F5F5F5F5F5F5F5F5F5F5F5F5F5F5F5F5F5F5F5F5F5F5F5F5F5F5F5F5F5F5F5F5F5F5F52DF5F5F5F5F5F5F5F5F5F5F5F5F5F5F5F5F5F5F5F5E2E2EFE2F5F5F5F5F5F5F5F5F5F5F5F5F5F5F5F5F5F5F5F52DF5F5F5F5F5F5F5F5F5
310
F5F5F5F5F5F5F5F5F5F5F5F5F5F5F5F5F5F5F5F5F5F5F5F5F5F5F5F5F5F5F5F5F5F5F5F5F5F5F5F5F5F5F5F5F5F5F5F5F5F5F5F5E2BEBEBEF5F5F5F5F5F5F5F5F5F5F5F5F5F5F5F5F5F5F5F5F5F5F5F5F5F5F5F5F5F5F5F5F5F5F5F5F5F5F5F5F5F5F5F5F5F5F5F5F5F5F5F5F5F5F5F5F5F5F5F5F5F5F5F5F5F5F5F5F52DF5
310
F5F5F5F5F5F5F5F5F5F5F5F5F5F5F5F5F5F5F5E2E2EFE2F5F5F5F5F5F5F5F5F5F5F5F5F5F5F5F5F5F5F5F52DF5F5F5F5F5F5F5F5F5F5F5F5F5F5F5F5F5F5F5F5F5F5F5F5F5F5F5F5F5F5F5F5F5F5F5F5F5F5F5F5F5F5F5F5F5F5F5F5F5F5F5F5F5F5F5F5F5F5F5F5F5F5E2E2E2F5F5F5F5F5F5F5F5F5F5F5F5F5F5F5F5F5F5
310
F5F5F5F5F5F5F5F5F5F5F5F5F5F5F5F5F5F5F5F5F5F5F5F5F5F5F5F5F5F5F5F5F5F5F5F5F5F5F5F5F5F5F5F5F5F5F5F5F5F5F52DF5F5F5F5F5F5F5F5F5F5F5F5F5F5F5F5F5F5F5F5E2E2EFE2F5F5F5F5F5F5F5F5F5F5F5F5F5F5F5F5F5F5F5F52DF5F5F5F5F5F5F5F5F5F5F5F5F5F5F5F5F5F5F5F5F5F5F5F5F5F5F5F5F5F5
310
F5F5F5F5F5F5F5F5F5F5F5F5F5F5F5F5F5F5F5F5F5F5F5F5F5F5F5F5F5F5F5F5F5F5F5F5F5F5F5F5F5F5F5F5F5F5F5F5F5F5F5F5F5F5F5F5F5F5F5F5F5F5F5F5F5F5F5F5F5F5F5F5F5F5F5F5F5F5F5F5F5F5F5F5F5F5F5F5F5F5F5F5F5F5F5F5F5F5F5F5F5F5F5F52DF5F5F5F5F5F5F5F5F5F5F5F5F5F5F5F5F5F5F5F5E2E2
310
EFE2F5F5F5F5F5F5F5F5F5F5F5F5F5F5F5F5F5F5F5F52DF5F5F5F5F5F5F5F5F5F5F5F5F5F5F5F5F5F5F5F5F5F5F5F5F5F5F5F5F5F5F5F5F5F5F5F5F5F5F5F5F5F5F5F5F5F5F5F5F5F5F5F5F5F5F5F5F5F5F5F5F5F5F5F5F5F5F5F5F5F5F5F5F5F5F5F5F5F5F5F5F5F5F5F5F5F5F5F5F5F5F5F5F5F5F5F5F5F5F5F5F5F5F5F5
310
F5F5F5F5F5F5F5F5F5F5F5F5F5F5F5F5F5F5F5F5F5F5F5F5F5F5F5F5F5F52DF5F5F5F5F5F5F5F5F5F5F5F5F5F5F5F5F5F5F5F5E2E2EFE2F5F5F5F5F5F5F5F5F5F5F5F5F5F5F5F5F5F5F5F52DF5F5F5F5F5F5F5F5F5F5F5F5F5F5F5F5F5F5F5F5F5F5F5F5F5F5F5F5F5F5F5F5F5F5F5F5F5F5F5F5F5F5F5F5F5F5F5F5F5F5F5
310
F5F5F5F5F5F5F5F5F5F5F5F5F5F5F5F5F5F5F5F5F5F5F5F5F5F5F5F5F5F5F5F5F5F5F5F5F5F5F5F5F5F5F5F5F5F5F5F5F5F5F5F5F5F5F5F5F5F5F5F5F5F5F5F5F5F5F5F5F5F5F5F5F5F5F5F5F5F5F5F5F5F5F52DF5F5F5F5F5F5F5F5F5F5F5F5F5F5F5F5F5F5F5F5E2E2EFE2F5F5F5F5F5F5F5F5F5F5F5F5F5F5F5F5F5F5F5
310
F52DF5F5F5F5F5F5F5F5F5F5F5F5F5F5F5F5F5F5F5F5F5F5F5F5F5F5F5F5F5F5F5F5F5F5F5F5F5F5F5F5F5F5F5F5F5F5F5F5F5F5F5F5F5F5F5F5F5F5F5F5F5F5F5F5F5F5F5F5F5F5F5F5F5F5F5F5F5F5F5F5F5F5F5F5F5F5F5F5F5F5F5F5F5F5F5F5F5F5F5F5F5F5F5F5F5F5F5F5F5F5F5F5F5F5F5F5F5F5F5F5F5F5F5F5F5
310
F5F5F5F5F5F5F5F5F52DF5F5F5F5F5F5F5F5F5F5F5F5F5F5F5F5F5F5F5F5E2E2EFE2F5F5F5E2F5F5F5F5F5F5F5F5F5F5F5F5F5F5F5F52DF5F5F5F5F5F5F5F5F5F5F5F5F5F5F5F5F5F5F5F5F5F5F5F5F5F5F5F5F5F5F5F5F5F5F5F5F5F5F5F5F5F5F5F5F5F5F5F5F5F5F5F5F5F5F5F5F5F5F5F5F5F5F5F5F5F5F5F5F5F5F5F5
310
F5F5F5F5F5F5F5F5F5F5F5F5F5F5F5F5F5F5F5F5F5F5F5F5F5F5F5F5F5F5F5F5F5F5F5F5F5F5F5F5F5F5F5F5F5F5F5F5F5F5F5F5F5F5F5F5F5F5F5F5F5F52DF5F5F5F5F5F5F5F5F5F5F5F5F5F5F5F5E2F5F5F5E2E2EFE2F5F5F5E2F5F5F5F5F5F5F5F5F5F5F5F5F5F5F5F52DF5F5F5F5F5F5F5F5F5F5F5F5F5F5F5F5F5F5F5
310
F5F5F5F5F5F5F5F5F5F5F5F5F5F5F5F5F5F5F5F5F5F5F5F5F5F5F5F5F5F5F5F5F5F5F5F5F5F5F5F5F5F5F5F5F5F5F5F5F5F5F5F5F5F5F5F5F5F5F5F5F5F5F5F5F5F5F5F5F5F5F5F5F5F5F5F5F5F5F5F5F5F5F5F5F5F5F5F5F5F5F5F5F5F5F5F5F5F5F5F5F5F5F5F5F5F5F5F5F5F5F5F5F5F5F52DF5F5F5F5F5F5F5F5F5F5F5
310
F5F5F5F5F5E2F5F5F5E2E2EFE2F5F5F5E2F5F5F5F5F5F5F5F5F5F5F5F5F5F5F5F52DF5F5F5F5F5F5F5F5F5F5F5F5F5F5F5F5F5F5F5F5F5F5F5F5F5F5F5F5F5F5F5F5F5F5F5F5F5F5F5F5F5F5F5F5F5F5F5F5F5F5F5F5F5F5F5F5F5F5F5F5F5F5F5F5F5F5F5F5F5F5F5F5F5F5F5F5F5F5F5F5F5F5F5F5F5F5F5F5F5F5F5F5F5
310
F5F5F5F5F5F5F5F5F5F5F5F5F5F5F5F5F5F5F5F5F5F5F5F5F5F5F5F5F5F5F5F5F5F5F5F5F5F5F5F5F52DF5F5F5F5F5F5F5F5F5F5F5F5F5F5F5F5E2F5F5F5E2E2EFE2F5F5F5E2F5F5F5F5F5F5F5F5F5F5F5F5F5F5F5F52DF5F5F5F5F5F5F5F5F5F5F5F5F5F5F5F5F5F5F5F5F5F5F5F5F5F5F5F5F5F5F5F5F5F5F5F5F5F5F5F5
310
F5F5F5F5F5F5F5F5F5F5F5F5F5F5F5F5F5F5F5F5F5F5F5F5F5F5F5F5F5F5F5F5F5F5F5F5F5F5F5F5F5F5F5F5F5F5F5F5F5F5F5F5F5F5F5F5F5F5F5F5F5F5F5F5F5F5F5F5F5F5F5F5F5F5F5F5F5F5F5F5F5F5F5F5F5F5F5F5F5F5F5F5F5F52DF5F5F5F5F5F5F5F5F5F5F5F5F5F5F5F5E2F5F5F5E2E2EFE2F5F5F5E2F5F5F5F5
310
F5F5F5F5F5F5F5F5F5F5F5F52DF5F5F5F5F5F5F5F5F5F5F5F5F5F5F5F5F5F5F5F5F5F5F5F5F5F5F5F5F5F5F5F5F5F5F5F5F5F5F5F5F5F5F5F5F5F5F5F5F5F5F5F5F5F5F5F5F5F5F5F5F5F5F5F5F5F5F5F5F5F5F5F5F5F5F5F5F5F5F5F5F5F5F5F5F5F5F5F5F5F5F5F5F5F5F5F5F5F5F5F5F5F5F5F5F5F5F5F5F5F5F5F5F5F5
310
F5F5F5F5F5F5F5F5F5F5F5F5F5F5F5F5F5F5F5F52DF5F5F5F5F5F5F5F5F5F5F5F5F5F5F5F5E2F5F5F5E2E2EFE2F5F5F5E2F5F5F5F5F5F5F5F5F5F5F5F5F5F5F5F52DF5F5F5F5F5F5F5F5F5F5F5F5F5F5F5F5F5F5F5F5F5F5F5F5F5F5F5F5F5F5F5F5F5F5F5F5F5F5F5F5F5F5F5F5F5F5F5F5F5F5F5F5F5F5F5F5F5F5F5F5F5
310
F5F5F5F5F5F5F5F5F5F5F5F5F5F5F5F5F5F5F5F5F5F5F5F5F5F5F5F5F5F5F5F5F5F5F5F5F5F5F5F5F5F5F5F5F5F5F5F5F5F5F5F5F5F5F5F5F5F5F5F5F5F5F5F5F5F5F5F5F5F5F5F5F52DF5F5F5F5F5F5F5F5F5F5F5F5F5F5F5F5E2F5F5F5E2E2EFE2F5F5F5E2F5F5F5F5F5F5F5F5F5F5F5F5F5F5F5F52DF5F5F5F5F5F5F5F5
310
F5F5F5F5F5F5F5F5F5F5F5F5F5F5F5F5F5F5F5F5F5F5F5F5F5F5F5F5F5F5F5F5F5F5F5F5F5F5F5F5F5F5F5F5F5F5F5F5F5F5F5F5F5F5F5F5F5F5F5F5F5F5F5F5F5F5F5F5F5F5F5F5F5F5F5F5F5F5F5F5F5F5F5F5F5F5F5F5F5F5F5F5F5F5F5F5F5F5F5F5F5F5F5F5F5F5F5F5F5F5F5F5F5F5F5F5F5F5F5F5F5F5F5F5F5F52D
310
F5F5F5F5F5F5F5F5F5F5F5F5F5F5F5F5E2F5F5F5E2E2EFE2F5F5F5E2F5F5F5F5F5F5F5F5F5F5F5F5F5F5F5F52DF5F5F5F5F5F5F5F5F5F5F5F5F5F5F5F5F5F5F5F5F5F5F5F5F5F5F5F5F5F5F5F5F5F5F5F5F5F5F5F5F5F5F5F5F5F5F5F5F5F5F5F5F5F5F5F5F5F5F5F5F5F5F5F5F5F5F5F5F5F5F5F5F5F5F5F5F5F5F5F5F5F5
310
F5F5F5F5F5F5F5F5F5F5F5F5F5F5F5F5F5F5F5F5F5F5F5F5F5F5F5F5F5F5F5F5F5F5F5F5F5F5F5F5F5F5F5F5F5F5F5F5F5F5F5F52DF5F5F5F5F5F5F5F5F5F5F5F5F5F5F5F5E2F5F5F5E2E2EFE2F5F5F5E2F5F5F5F5F5F5F5F5F5F5F5F5F5F5F5F52DF5F5F5F5F5F5F5F5F5F5F5F5F5F5F5F5F5F5F5F5F5F5F5F5F5F5F5F5F5
310
F5F5F5F5F5F5F5F5F5F5F5F5F5F5F5F5F5F5F5F5F5F5F5F5F5F5F5F5F5F5F5F5F5F5F5F5F5F5F5F5F5F5F5F5F5F5F5F5F5F5F5F5F5F5F5F5F5F5F5F5F5F5F5F5F5F5F5F5F5F5F5F5F5F5F5F5F5F5F5F5F5F5F5F5F5F5F5F5F5F5F5F5F5F5F5F5F5F5F5F5F5F5F5F5F52DF5F5F5F5F5F5F5F5F5F5F5F5F5F5F5F5E2F5F5F5E2
310
E2EFE2F5F5F5E2F5F5F5F5F5F5F5F5F5F5F5F5F5F5F5F52DF5F5F5F5F5F5F5F5F5F5F5F5F5F5F5F5F5F5F5F5F5F5F5F5F5F5F5F5F5F5F5F5F5F5F5F5F5F5F5F5F5F5F5F5F5F5F5F5F5F5F5F5F5F5F5F5F5F5F5F5F5F5F5F5F5F5F5F5F5F5F5F5F5F5F5F5F5F5F5F5F5F5F5F5F5F5F5F5F5F5F5F5F5F5F5F5F5F5F5F5F5F5F5
310
F5F5F5F5F5F5F5F5F5F5F5F5F5F5F5F5F5F5F5F5F5F5F5F5F5F5F5F5F5F5F52DF5F5F5F5F5F5F5F5F5F5F5F5F5F5F5F5E2F5F5F5E2E2EFE2F5F5F5E2F5F5F5F5F5F5F5F5F5F5F5F5F5F5F5F52DF5F5F5F5F5F5F5F5F5F5F5F5F5F5F5F5F5F5F5F5F5F5F5F5F5F5F5F5F5F5F5F5F5F5F5F5F5F5F5F5F5F5F5F5F5F5F5F5F5F5
310
F5F5F5F5F5F5F5F5F5F5F5F5F5F5F5F5F5F5F5F5F5F5F5F5F5F5F5F5F5F5F5F5F5F5F5F5F5F5F5F5F5F5F5F5F5F5F5F5F5F5F5F5F5F5F5F5F5F5F5F5F5F5F5F5F5F5F5F5F5F5F5F5F5F5F5F5F5F5F5F5F5F5F5F52DF5F5F5F5F5F5F5F5F5F5F5F5F5F5F5F5E2F5F5F5E2E2EFE2F5F5F5E2F5F5F5F5F5F5F5F5F5F5F5F5F5F5
310
F5F52DF5F5F5F5F5F5F5F5F5F5F5F5F5F5F5F5F5F5F5F5F5F5F5F5F5F5F5F5F5F5F5F5F5F5F5F5F5F5F5F5F5F5F5F5F5F5F5F5F5F5F5F5F5F5F5F5F5F5F5F5F5F5F5F5F5F5F5F5F5F5F5F5F5F5F5F5F5F5F5F5F5F5F5F5F5F5F5F5F5F5F5F5F5F5F5F5F5F5F5F5F5F5F5F5F5F5F5F5F5F5F5F5F5F5F5F5F5F5F5F5F5F5F5F5
310
F5F5F5F5F5F5F5F5F5F52DF5F5F5F5F5F5F5F5F5F5F5F5F5F5F5F5E2F5F5F5E2E2EFE2F5F5F5E2F5F5F5F5F5F5F5F5F5F5F5F5F5F5F5F52DF5F5F5F5F5F5F5F5F5F5F5F5F5F5F5F5F5F5F5F5F5F5F5F5F5F5F5F5F5F5F5F5F5F5F5F5F5F5F5F5F5F5F5F5F5F5F5F5F5F5F5F5F5F5F5F5F5F5F5F5F5F5F5F5F5F5F5F5F5F5F5
310
F5F5F5F5F5F5F5F5F5F5F5F5F5F5F5F5F5F5F5F5F5F5F5F5F5F5F5F5F5F5F5F5F5F5F5F5F5F5F5F5F5F5F5F5F5F5F5F5F5F5F5F5F5F5F5F5F5F5F5F5F5F5F52DF5F5F5F5F5F5F5F5F5F5F5F5F5F5F5F5E2F5F5F5E2E2EFE2F5F5F5E2F5F5F5F5F5F5F5F5F5F5F5F5F5F5F5F52DF5F5F5F5F5F5F5F5F5F5F5F5F5F5F5F5F5F5
310
F5F5F5F5F5F5F5F5F5F5F5F5F5F5F5F5F5F5F5F5F5F5F5F5F5F5F5F5F5F5F5F5F5F5F5F5F5F5F5F5F5F5F5F5F5F5F5F5F5F5F5F5F5F5F5F5F5F5F5F5F5F5F5F5F5F5F5F5F5F5F5F5F5F5F5F5F5F5F5F5F5F5F5F5F5F5F5F5F5F5F5F5F5F5F5F5F5F5F5F5F5F5F5F5F5F5F5F5F5F5F5F5F5F5F5F52DF5F5F5F5F5F5F5F5F5F5
310
F5F5F5F5F5F5E2F5F5F5E2E2EFE2F5F5F5E2F5F5F5F5F5F5F5F5F5F5F5F5F5F5F5F52DF5F5F5F5F5F5F5F5F5F5F5F5F5F5F5F5F5F5F5F5F5F5F5F5F5F5F5F5F5F5F5F5F5F5F5F5F5F5F5F5F5F5F5F5F5F5F5F5F5F5F5F5F5F5F5F5F5F5F5F5F5F5F5F5F5F5F5F5F5F5F5F5F5F5F5F5F5F5F5F5F5F5F5F5F5F5F5F5F5F5F5F5
310
F5F5F5F5F5F5F5F5F5F5F5F5F5F5F5F5F5F5F5F5F5F5F5F5F5F5F5F5F5F5F5F5F5F5F5F5F5F5F5F5F5F52DF5F5F5F5F5F5F5F5F5F5F5F5F5F5F5F5E2F5F5F5E2E2EFE2F5F5F5E2F5F5F5F5F5F5F5F5F5F5F5F5F5F5F5F52DF5F5F5F5F5F5F5F5F5F5F5F5F5F5F5F5F5F5F5F5F5F5F5F5F5F5F5F5F5F5F5F5F5F5F5F5F5F5F5
310
F5F5F5F5F5F5F5F5F5F5F5F5F5F5F5F5F5F5F5F5F5F5F5F5F5F5F5F5F5F5F5F5F5F5F5F5F5F5F5F5F5F5F5F5F5F5F5F5F5F5F5F5F5F5F5F5F5F5F5F5F5F5F5F5F5F5F5F5F5F5F5F5F5F5F5F5F5F5F5F5F5F5F5F5F5F5F5F5F5F5F5F5F5F5F52DF5F5F5F5F5F5F5F5F5F5F5F5F5F5F5F5E2F5F5F5E2E2EFE2F5F5F5E2F5F5F5
310
F5F5F5F5F5F5F5F5F5F5F5F5F52DF5F5F5F5F5F5F5F5F5F5F5F5F5F5F5F5F5F5F5F5F5F5F5F5F5F5F5F5F5F5F5F5F5F5F5F5F5F5F5F5F5F5F5F5F5F5F5F5F5F5F5F5F5F5F5F5F5F5F5F5F5F5F5F5F5F5F5F5F5F5F5F5F5F5F5F5F5F5F5F5F5F5F5F5F5F5F5F5F5F5F5F5F5F5F5F5F5F5F5F5F5F5F5F5F5F5F5F5F5F5F5F5F5
310
F5F5F5F5F5F5F5F5F5F5F5F5F5F5F5F5F5F5F5F5F52DF5F5F5F5F5F5F5F5F5F5F5F5F5F5F5F5E2F5F5F5E2E2EFE2F5F5F5F5F5F5F5F5F5F5F5F5F5F5F5F5F5F5F5F52DF5F5F5F5F5F5F5F5F5F5F5F5F5F5F5F5F5F5F5F5F5F5F5F5F5F5F5F5F5F5F5F5F5F5F5F5F5F5F5F5F5F5F5F5F5F5F5F5F5F5F5F5F5F5F5F5F5F5F5F5
310
F5F5F5F5F5F5F5F5F5F5F5F5F5F5F5F5F5F5F5F5F5F5F5F5F5F5F5F5F5F5F5F5F5F5F5F5F5F5F5F5F5F5F5F5F5F5F5F5F5F5F5F5F5F5F5F5F5F5F5F5F5F5F5F5F5F5F5F5F5F5F5F5F5F52DF5F5F5F5F5F5F5F5F5F5F5F5F5F5F5F5F5F5F5F5E2E2EFE2F5F5F5F5F5F5F5F5F5F5F5F5F5F5F5F5F5F5F5F52DF5F5F5F5F5F5F5
310
F5F5F5F5F5F5F5F5F5F5F5F5F5F5F5F5F5F5F5F5F5F5F5F5F5F5F5F5F5F5F5F5F5F5F5F5F5F5F5F5F5F5F5F5F5F5F5F5F5F5F5F5F5F5F5F5F5F5F5F5F5F5F5F5F5F5F5F5F5F5F5F5F5F5F5F5F5F5F5F5F5F5F5F5F5F5F5F5F5F5F5F5F5F5F5F5F5F5F5F5F5F5F5F5F5F5F5F5F5F5F5F5F5F5F5F5F5F5F5F5F5F5F5F5F5F5F5
310
2DF5F5F5F5F5F5F5F5F5F5F5F5F5F5F5F5F5F5F5F5E2E2EFE2F5F5F5F5F5F5F5F5F5F5F5F5F5F5F5F5F5F5F5F52DF5F5F5F5F5F5F5F5F5F5F5F5F5F5F5F5F5F5F5F5F5F5F5F5F5F5F5F5F5F5F5F5F5F5F5F5F5F5F5F5F5F5F5F5F5F5F5F5F5F5F5F5F5F5F5F5F5F5F5F5F5F5F5F5F5F5F5F5F5F5F5F5F5F5F5F5F5F5F5F5F5
310
F5F5F5F5F5F5F5F5F5F5F5F5F5F5F5F5F5F5F5F5F5F5F5F5F5F5F5F5F5F5F5F5F5F5F5F5F5F5F5F5F5F5F5F5F5F5F5F5F5F5F5F5F52DF5F5F5F5F5F5F5F5F5F5F5F5F5F5F5F5F5F5F5F5E2E2EFE2F5F5F5F5F5F5F5F5F5F5F5F5F5F5F5F5F5F5F5F52DF5F5F5F5F5F5F5F5F5F5F5F5F5F5F5F5F5F5F5F5F5F5F5F5F5F5F5F5
310
F5F5F5F5F5F5F5F5F5F5F5F5F5F5F5F5F5F5F5F5F5F5F5F5F5F5F5F5F5F5F5F5F5F5F5F5F5F5F5F5F5F5F5F5F5F5F5F5F5F5F5F5F5F5F5F5F5F5F5F5F5F5F5F5F5F5F5F5F5F5F5F5F5F5F5F5F5F5F5F5F5F5F5F5F5F5F5F5F5F5F5F5F5F5F5F5F5F5F5F5F5F5F5F5F5F52DF5F5F5F5F5F5F5F5F5F5F5F5F5F5F5F5F5F5F5F5
310
E2E2EFE2F5F5F5F5F5F5F5F5F5F5F5F5F5F5F5F5F5F5F5F52DF5F5F5F5F5F5F5F5F5F5F5F5F5F5F5F5F5F5F5F5F5F5F5F5F5F5F5F5F5F5F5F5F5F5F5F5F5F5F5F5F5F5F5F5F5F5F5F5F5F5F5F5F5F5F5F5F5F5F5F5F5F5F5F5F5F5F5F5F5F5F5F5F5F5F5F5F5F5F5F5F5F5F5F5F5F5F5F5F5F5F5F5F5F5F5F5F5F5F5F5F5F5
310
F5F5F5F5F5F5F5F5F5F5F5F5F5F5F5F5F5F5F5F5F5F5F5F5F5F5F5F5F5F5F5F52DF5F5F5F5F5F5F5F5F5F5F5F5F5F5F5F5F5F5F5F5E2E2EFE2F5F5F5F5F5F5F5F5F5F5F5F5F5F5F5F5F5F5F5F52DF5F5F5F5F5F5F5F5F5F5F5F5F5F5F5F5F5F5F5F5F5F5F5F5F5F5F5F5F5F5F5F5F5F5F5F5F5F5F5F5F5F5F5F5F5F5F5F5F5
310
F5F5F5F5F5F5F5F5F5F5F5F5F5F5F5F5F5F5F5F5F5F5F5F5F5F5F5F5F5F5F5F5F5F5F5F5F5F5F5F5F5F5F5F5F5F5F5F5F5F5F5F5F5F5F5F5F5F5F5F5F5F5F5F5F5F5F5F5F5F5F5F5F5F5F5F5F5F5F5F5F5F5F5F5F52DF5F5F5F5F5F5F5F5F5F5F5F5F5F5F5F5F5F5F5F5E2E2EFE2F5F5F5F5F5F5F5F5F5F5F5F5F5F5F5F5F5
310
F5F5F52DF5F5F5F5F5F5F5F5F5F5F5F5F5F5F5F5F5F5F5F5F5F5F5F5F5F5F5F5F5F5F5F5F5F5F5F5F5F5F5F5F5F5F5F5F5F5F5F5F5F5F5F5F5F5F5F5F5F5F5F5F5F5F5F5F5F5F5F5F5F5F5F5F5F5F5F5F5F5F5F5F5F5F5F5F5F5F5F5F5F5F5F5F5F5F5F5F5F5F5F5F5F5F5F5F5F5F5F5F5F5F5F5F5F5F5F5F5F5F5F5F5F5F5
310
F5F5F5F5F5F5F5F5F5F5F52DF5F5F5F5F5F5F5F5F5F5F5F5F5F5F5F5F5F5F5F5E2E2EFE2F5F5F5F5F5F5F5F5F5F5F5F5F5F5F5F5F5F5F5F52DF5F5F5F5F5F5F5F5F5F5F5F5F5F5F5F5F5F5F5F5F5F5F5F5F5F5F5F5F5F5F5F5F5F5F5F5F5F5F5F5F5F5F5F5F5F5F5F5F5F5F5F5F5F5F5F5F5F5F5F5F5F5F5F5F5F5F5F5F5F5
310
F5F5F5F5F5F5F5F5F5F5F5F5F5F5F5F5F5F5F5F5F5F5F5F5F5F5F5F5F5F5F5F5F5F5F5F5F5F5F5F5F5F5F5F5F5F5F5F5F5F5F5F5F5F5F5F5F5F5F5F5F5F5F5F52DF5F5F5F5F5F5F5F5F5F5F5F5F5F5F5F5F5F5F5F5E2E2EFE2F5F5F5F5F5F5F5F5F5F5F5F5F5F5F5F5F5F5F5F52DF5F5F5F5F5F5F5F5F5F5F5F5F5F5F5F5F5
310
F5F5F5F5F5F5F5F5F5F5F5F5F5F5F5F5F5F5F5F5F5F5F5F5F5F5F5F5F5F5F5F5F5F5F5F5F5F5F5F5F5F5F5F5F5F5F5F5F5F5F5F5F5F5F5F5F5F5F5F5F5F5F5F5F5F5F5F5F5F5F5F5F5F5F5F5F5F5F5F5F5F5F5F5F5F5F5F5F5F5F5F5F5F5F5F5F5F5F5F5F5F5F5F5F5F5F5F5F5F5F5F5F5F5F5F5F52DF5F5F5F5F5F5F5F5F5
310
F5F5F5F5F5F5F5F5F5F5F5E2E2EFE2F5F5F5E2F5F5F5F5F5F5F5F5F5F5F5F5F5F5F5F52DF5F5F5F5F5F5F5F5F5F5F5F5F5F5F5F5F5F5F5F5F5F5F5F5F5F5F5F5F5F5F5F5F5F5F5F5F5F5F5F5F5F5F5F5F5F5F5F5F5F5F5F5F5F5F5F5F5F5F5F5F5F5F5F5F5F5F5F5F5F5F5F5F5F5F5F5F5F5F5F5F5F5F5F5F5F5F5F5F5F5F5
310
F5F5F5F5F5F5F5F5F5F5F5F5F5F5F5F5F5F5F5F5F5F5F5F5F5F5F5F5F5F5F5F5F5F5F5F5F5F5F5F5F5F5F52DF5F5F5F5F5F5F5F5F5F5F5F5F5F5F5F5E2F5F5F5E2E2EFE2F5F5F5E2F5F5F5F5F5F5F5F5F5F5F5F5F5F5F5F52DF5F5F5F5F5F5F5F5F5F5F5F5F5F5F5F5F5F5F5F5F5F5F5F5F5F5F5F5F5F5F5F5F5F5F5F5F5F5
310
F5F5F5F5F5F5F5F5F5F5F5F5F5F5F5F5F5F5F5F5F5F5F5F5F5F5F5F5F5F5F5F5F5F5F5F5F5F5F5F5F5F5F5F5F5F5F5F5F5F5F5F5F5F5F5F5F5F5F5F5F5F5F5F5F5F5F5F5F5F5F5F5F5F5F5F5F5F5F5F5F5F5F5F5F5F5F5F5F5F5F5F5F5F5F5F52DF5F5F5F5F5F5F5F5F5F5F5F5F5F5F5F5E2F5F5F5E2E2EFE2F5F5F5E2F5F5
310
F5F5F5F5F5F5F5F5F5F5F5F5F5F52DF5F5F5F5F5F5F5F5F5F5F5F5F5F5F5F5F5F5F5F5F5F5F5F5F5F5F5F5F5F5F5F5F5F5F5F5F5F5F5F5F5F5F5F5F5F5F5F5F5F5F5F5F5F5F5F5F5F5F5F5F5F5F5F5F5F5F5F5F5F5F5F5F5F5F5F5F5F5F5F5F5F5F5F5F5F5F5F5F5F5F5F5F5F5F5F5F5F5F5F5F5F5F5F5F5F5F5F5F5F5F5F5
310
F5F5F5F5F5F5F5F5F5F5F5F5F5F5F5F5F5F5F5F5F5F52DF5F5F5F5F5F5F5F5F5F5F5F5F5F5F5F5E2F5F5F5E2E2EFE2F5F5F5E2F5F5F5F5F5F5F5F5F5F5F5F5F5F5F5F52DF5F5F5F5F5F5F5F5F5F5F5F5F5F5F5F5F5F5F5F5F5F5F5F5F5F5F5F5F5F5F5F5F5F5F5F5F5F5F5F5F5F5F5F5F5F5F5F5F5F5F5F5F5F5F5F5F5F5F5
310
F5F5F5F5F5F5F5F5F5F5F5F5F5F5F5F5F5F5F5F5F5F5F5F5F5F5F5F5F5F5F5F5F5F5F5F5F5F5F5F5F5F5F5F5F5F5F5F5F5F5F5F5F5F5F5F5F5F5F5F5F5F5F5F5F5F5F5F5F5F5F5F5F5F5F52DF5F5F5F5F5F5F5F5F5F5F5F5F5F5F5F5E2F5F5F5E2E2EFE2F5F5F5E2F5F5F5F5F5F5F5F5F5F5F5F5F5F5F5F52DF5F5F5F5F5F5
310
F5F5F5F5F5F5F5F5F5F5F5F5F5F5F5F5F5F5F5F5F5F5F5F5F5F5F5F5F5F5F5F5F5F5F5F5F5F5F5F5F5F5F5F5F5F5F5F5F5F5F5F5F5F5F5F5F5F5F5F5F5F5F5F5F5F5F5F5F5F5F5F5F5F5F5F5F5F5F5F5F5F5F5F5F5F5F5F5F5F5F5F5F5F5F5F5F5F5F5F5F5F5F5F5F5F5F5F5F5F5F5F5F5F5F5F5F5F5F5F5F5F5F5F5F5F5F5
310
F52DF5F5F5F5F5F5F5F5F5F5F5F5F5F5F5F5E2F5F5F5E2E2EFE2F5F5F5E2F5F5F5F5F5F5F5F5F5F5F5F5F5F5F5F52DF5F5F5F5F5F5F5F5F5F5F5F5F5F5F5F5F5F5F5F5F5F5F5F5F5F5F5F5F5F5F5F5F5F5F5F5F5F5F5F5F5F5F5F5F5F5F5F5F5F5F5F5F5F5F5F5F5F5F5F5F5F5F5F5F5F5F5F5F5F5F5F5F5F5F5F5F5F5F5F5
310
F5F5F5F5F5F5F5F5F5F5F5F5F5F5F5F5F5F5F5F5F5F5F5F5F5F5F5F5F5F5F5F5F5F5F5F5F5F5F5F5F5F5F5F5F5F5F5F5F5F5F5F5F5F52DF5F5F5F5F5F5F5F5F5F5F5F5F5F5F5F5E2F5F5F5E2E2EFE2F5F5F5E2F5F5F5F5F5F5F5F5F5F5F5F5F5F5F5F52DF5F5F5F5F5F5F5F5F5F5F5F5F5F5F5F5F5F5F5F5F5F5F5F5F5F5F5
310
F5F5F5F5F5F5F5F5F5F5F5F5F5F5F5F5F5F5F5F5F5F5F5F5F5F5F5F5F5F5F5F5F5F5F5F5F5F5F5F5F5F5F5F5F5F5F5F5F5F5F5F5F5F5F5F5F5F5F5F5F5F5F5F5F5F5F5F5F5F5F5F5F5F5F5F5F5F5F5F5F5F5F5F5F5F5F5F5F5F5F5F5F5F5F5F5F5F5F5F5F5F5F5F5F5F5F52DF5F5F5F5F5F5F5F5F5F5F5F5F5F5F5F5E2F5F5
310
F5E2E2EFE2F5F5F5E2F5F5F5F5F5F5F5F5F5F5F5F5F5F5F5F52DF5F5F5F5F5F5F5F5F5F5F5F5F5F5F5F5F5F5F5F5F5F5F5F5F5F5F5F5F5F5F5F5F5F5F5F5F5F5F5F5F5F5F5F5F5F5F5F5F5F5F5F5F5F5F5F5F5F5F5F5F5F5F5F5F5F5F5F5F5F5F5F5F5F5F5F5F5F5F5F5F5F5F5F5F5F5F5F5F5F5F5F5F5F5F5F5F5F5F5F5F5
310
F5F5F5F5F5F5F5F5F5F5F5F5F5F5F5F5F5F5F5F5F5F5F5F5F5F5F5F5F5F5F5F5F52DF5F5F5F5F5F5F5F5F5F5F5F5F5F5F5F5E2F5F5F5E2E2EFE2F5F5F5E2F5F5F5F5F5F5F5F5F5F5F5F5F5F5F5F52DF5F5F5F5F5F5F5F5F5F5F5F5F5F5F5F5F5F5F5F5F5F5F5F5F5F5F5F5F5F5F5F5F5F5F5F5F5F5F5F5F5F5F5F5F5F5F5F5
310
F5F5F5F5F5F5F5F5F5F5F5F5F5F5F5F5F5F5F5F5F5F5F5F5F5F5F5F5F5F5F5F5F5F5F5F5F5F5F5F5F5F5F5F5F5F5F5F5F5F5F5F5F5F5F5F5F5F5F5F5F5F5F5F5F5F5F5F5F5F5F5F5F5F5F5F5F5F5F5F5F5F5F5F5F5F52DF5F5F5F5F5F5F5F5F5F5F5F5F5F5F5F5E2F5F5F5E2E2EFE2F5F5F5E2F5F5F5F5F5F5F5F5F5F5F5F5
310
F5F5F5F52DF5F5F5F5F5F5F5F5F5F5F5F5F5F5F5F5F5F5F5F5F5F5F5F5F5F5F5F5F5F5F5F5F5F5F5F5F5F5F5F5F5F5F5F5F5F5F5F5F5F5F5F5F5F5F5F5F5F5F5F5F5F5F5F5F5F5F5F5F5F5F5F5F5F5F5F5F5F5F5F5F5F5F5F5F5F5F5F5F5F5F5F5F5F5F5F5F5F5F5F5F5F5F5F5F5F5F5F5F5F5F5F5F5F5F5F5F5F5F5F5F5F5
310
F5F5F5F5F5F5F5F5F5F5F5F52DF5F5F5F5F5F5F5F5F5F5F5F5F5F5F5F5E2F5F5F5E2E2EFE2F5F5F5E2F5F5F5F5F5F5F5F5F5F5F5F5F5F5F5F52DF5F5F5F5F5F5F5F5F5F5F5F5F5F5F5F5F5F5F5F5F5F5F5F5F5F5F5F5F5F5F5F5F5F5F5F5F5F5F5F5F5F5F5F5F5F5F5F5F5F5F5F5F5F5F5F5F5F5F5F5F5F5F5F5F5F5F5F5F5
310
F5F5F5F5F5F5F5F5F5F5F5F5F5F5F5F5F5F5F5F5F5F5F5F5F5F5F5F5F5F5F5F5F5F5F5F5F5F5F5F5F5F5F5F5F5F5F5F5F5F5F5F5F5F5F5F5F5F5F5F5F5F5F5F5F52DF5F5F5F5F5F5F5F5F5F5F5F5F5F5F5F5E2F5F5F5E2E2EFE2F5F5F5E2F5F5F5F5F5F5F5F5F5F5F5F5F5F5F5F52DF5F5F5F5F5F5F5F5F5F5F5F5F5F5F5F5
310
F5F5F5F5F5F5F5F5F5F5F5F5F5F5F5F5F5F5F5F5F5F5F5F5F5F5F5F5F5F5F5F5F5F5F5F5F5F5F5F5F5F5F5F5F5F5F5F5F5F5F5F5F5F5F5F5F5F5F5F5F5F5F5F5F5F5F5F5F5F5F5F5F5F5F5F5F5F5F5F5F5F5F5F5F5F5F5F5F5F5F5F5F5F5F5F5F5F5F5F5F5F5F5F5F5F5F5F5F5F5F5F5F5F5F5F5F5F52DF5F5F5F5F5F5F5F5
310
F5F5F5F5F5F5F5F5E2F5F5F5E2E2EFE2F5F5F5E2F5F5F5F5F5F5F5F5F5F5F5F5F5F5F5F52DF5F5F5F5F5F5F5F5F5F5F5F5F5F5F5F5F5F5F5F5F5F5F5F5F5F5F5F5F5F5F5F5F5F5F5F5F5F5F5F5F5F5F5F5F5F5F5F5F5F5F5F5F5F5F5F5F5F5F5F5F5F5F5F5F5F5F5F5F5F5F5F5F5F5F5F5F5F5F5F5F5F5F5F5F5F5F5F5F5F5
310
F5F5F5F5F5F5F5F5F5F5F5F5F5F5F5F5F5F5F5F5F5F5F5F5F5F5F5F5F5F5F5F5F5F5F5F5F5F5F5F5F5F5F5F52DF5F5F5F5F5F5F5F5F5F5F5F5F5F5F5F5E2F5F5F5E2E2EFE2F5F5F5E2F5F5F5F5F5F5F5F5F5F5F5F5F5F5F5F52DF5F5F5F5F5F5F5F5F5F5F5F5F5F5F5F5F5F5F5F5F5F5F5F5F5F5F5F5F5F5F5F5F5F5F5F5F5
310
F5F5F5F5F5F5F5F5F5F5F5F5F5F5F5F5F5F5F5F5F5F5F5F5F5F5F5F5F5F5F5F5F5F5F5F5F5F5F5F5F5F5F5F5F5F5F5F5F5F5F5F5F5F5F5F5F5F5F5F5F5F5F5F5F5F5F5F5F5F5F5F5F5F5F5F5F5F5F5F5F5F5F5F5F5F5F5F5F5F5F5F5F5F5F5F5F52DF5F5F5F5F5F5F5F5F5F5F5F5F5F5F5F5E2F5F5F5E2E2EFE2F5F5F5E2F5
310
F5F5F5F5F5F5F5F5F5F5F5F5F5F5F52DF5F5F5F5F5F5F5F5F5F5F5F5F5F5F5F5F5F5F5F5F5F5F5F5F5F5F5F5F5F5F5F5F5F5F5F5F5F5F5F5F5F5F5F5F5F5F5F5F5F5F5F5F5F5F5F5F5F5F5F5F5F5F5F5F5F5F5F5F5F5F5F5F5F5F5F5F5F5F5F5F5F5F5F5F5F5F5F5F5F5F5F5F5F5F5F5F5F5F5F5F5F5F5F5F5F5F5F5F5F5F5
310
F5F5F5F5F5F5F5F5F5F5F5F5F5F5F5F5F5F5F5F5F5F5F52DF5F5F5F5F5F5F5F5F5F5F5F5F5F5F5F5E2F5F5F5E2E2EFE2F5F5F5E2F5F5F5F5F5F5F5F5F5F5F5F5F5F5F5F52DF5F5F5F5F5F5F5F5F5F5F5F5F5F5F5F5F5F5F5F5F5F5F5F5F5F5F5F5F5F5F5F5F5F5F5F5F5F5F5F5F5F5F5F5F5F5F5F5F5F5F5F5F5F5F5F5F5F5
310
F5F5F5F5F5F5F5F5F5F5F5F5F5F5F5F5F5F5F5F5F5F5F5F5F5F5F5F5F5F5F5F5F5F5F5F5F5F5F5F5F5F5F5F5F5F5F5F5F5F5F5F5F5F5F5F5F5F5F5F5F5F5F5F5F5F5F5F5F5F5F5F5F5F5F5F52DF5F5F5F5F5F5F5F5F5F5F5F5F5F5F5F5E2F5F5F5E2E2EFE2F5F5F5E2F5F5F5F5F5F5F5F5F5F5F5F5F5F5F5F52DF5F5F5F5F5
310
F5F5F5F5F5F5F5F5F5F5F5F5F5F5F5F5F5F5F5F5F5F5F5F5F5F5F5F5F5F5F5F5F5F5F5F5F5F5F5F5F5F5F5F5F5F5F5F5F5F5F5F5F5F5F5F5F5F5F5F5F5F5F5F5F5F5F5F5F5F5F5F5F5F5F5F5F5F5F5F5F5F5F5F5F5F5F5F5F5F5F5F5F5F5F5F5F5F5F5F5F5F5F5F5F5F5F5F5F5F5F5F5F5F5F5F5F5F5F5F5F5F5F5F5F5F5F5
310
F5F52DF5F5F5F5F5F5F5F5F5F5F5F5F5F5F5F5E2F5F5F5E2E2EFE2F5F5F5F5F5F5F5F5F5F5F5F5F5F5F5F5F5F5F5F52DF5F5F5F5F5F5F5F5F5F5F5F5F5F5F5F5F5F5F5F5F5F5F5F5F5F5F5F5F5F5F5F5F5F5F5F5F5F5F5F5F5F5F5F5F5F5F5F5F5F5F5F5F5F5F5F5F5F5F5F5F5F5F5F5F5F5F5F5F5F5F5F5F5F5F5F5F5F5F5
310
F5F5F5F5F5F5F5F5F5F5F5F5F5F5F5F5F5F5F5F5F5F5F5F5F5F5F5F5F5F5F5F5F5F5F5F5F5F5F5F5F5F5F5F5F5F5F5F5F5F5F5F5F5F5F52DF5F5F5F5F5F5F5F5F5F5F5F5F5F5F5F5F5F5F5F5E2E2EFE2F5F5F5F5F5F5F5F5F5F5F5F5F5F5F5F5F5F5F5F52DF5F5F5F5F5F5F5F5F5F5F5F5F5F5F5F5F5F5F5F5F5F5F5F5F5F5
310
F5F5F5F5F5F5F5F5F5F5F5F5F5F5F5F5F5F5F5F5F5F5F5F5F5F5F5F5F5F5F5F5F5F5F5F5F5F5F5F5F5F5F5F5F5F5F5F5F5F5F5F5F5F5F5F5F5F5F5F5F5F5F5F5F5F5F5F5F5F5F5F5F5F5F5F5F5F5F5F5F5F5F5F5F5F5F5F5F5F5F5F5F5F5F5F5F5F5F5F5F5F5F5F5F5F5F5F52DF5F5F5F5F5F5F5F5F5F5F5F5F5F5F5F5F5F5
310
F5F5E2E2EFE2F5F5F5F5F5F5F5F5F5F5F5F5F5F5F5F5F5F5F5F52DF5F5F5F5F5F5F5F5F5F5F5F5F5F5F5F5F5F5F5F5F5F5F5F5F5F5F5F5F5F5F5F5F5F5F5F5F5F5F5F5F5F5F5F5F5F5F5F5F5F5F5F5F5F5F5F5F5F5F5F5F5F5F5F5F5F5F5F5F5F5F5F5F5F5F5F5F5F5F5F5F5F5F5F5F5F5F5F5F5F5F5F5F5F5F5F5F5F5F5F5
310
F5F5F5F5F5F5F5F5F5F5F5F5F5F5F5F5F5F5F5F5F5F5F5F5F5F5F5F5F5F5F5F5F5F52DF5F5F5F5F5F5F5F5F5F5F5F5F5F5F5F5F5F5F5F5E2E2EFE2F5F5F5F5F5F5F5F5F5F5F5F5F5F5F5F5F5F5F5F52DF5F5F5F5F5F5F5F5F5F5F5F5F5F5F5F5F5F5F5F5F5F5F5F5F5F5F5F5F5F5F5F5F5F5F5F5F5F5F5F5F5F5F5F5F5F5F5
310
F5F5F5F5F5F5F5F5F5F5F5F5F5F5F5F5F5F5F5F5F5F5F5F5F5F5F5F5F5F5F5F5F5F5F5F5F5F5F5F5F5F5F5F5F5F5F5F5F5F5F5F5F5F5F5F5F5F5F5F5F5F5F5F5F5F5F5F5F5F5F5F5F5F5F5F5F5F5F5F5F5F5F5F5F5F5F52DF5F5F5F5F5F5F5F5F5F5F5F5F5F5F5F5F5F5F5F5E2E2EFE2F5F5F5F5F5F5F5F5F5F5F5F5F5F5F5
310
F5F5F5F5F52D2D2D2D2D2D2D2D2D2D2D2D2D2D2D2D2D2D2D2D2D2D2D2D2D2D2D2D2D2D2D2D2D2D2D2D2D2D2D2D2D2D2D2D2D2D2D2D2D2D2D2D2D2D2D2D2D2D2D2D2D2D2D2D2D2D2D2D2D2D2D2D2D2D2D2D2D2D2D2D2D2D2D2D2D2D2D2D2D2D2D2D2D2D2D2D2D2D2D2D2D2D2D2D2D2D2D2D2D2D2D2D2D2D2D2D2D2D2D2D2D2D
310
2D2D2D2D2D2D2D2D2D2D2D2D2D2DF5F5F5F5F5F5F5F5F5F5F5F5F5F5F5F5F5F5F5F5E2E2EFE2F5F5F5F5F5F5F5F5F5F5F5F5F5F5F5F5F5F5F5F5F5F5F5F5F5F5F5F5F5F5F5F5F5F5F5F5F5F5F5F5F5F5F5F5F5F5F5F5F5F5F5F5F5F5F5F5F5F5F5F5F5F5F5F5F5F5F5F5F5F5F5F5F5F5F5F5F5F5F5F5F5F5F5F5F5F5F5F5F5
310
F5F5F5F5F5F5F5F5F5F5F5F5F5F5F5F5F5F5F5F5F5F5F5F5F5F5F5F5F5F5F5F5F5F5F5F5F5F5F5F5F5F5F5F5F5F5F5F5F5F5F5F5F5F5F5F5F5F5F5F5F5F5F5F5F5F5F5F5F5F5F5F5F5F5F5F5F5F5F5F5F5F5F5F5F5F5F5E2E2EFE2F5F5F5F5F5F5F5F5F5F5F5F5F5F5F5F5F5F5F5F5F5F5F5F5F5F5F5F5F5F5F5F5F5F5F5F5
310
F5F5F5F5F5F5F5F5F5F5F5F5F5F5F5F5F5F5F5F5F5F5F5F5F5F5F5F5F5F5F5F5F5F5F5F5F5F5F5F5F5F5F5F5F5F5F5F5F5F5F5F5F5F5F5F5F5F5F5F5F5F5F5F5F5F5F5F5F5F5F5F5F5F5F5F5F5F5F5F5F5F5F5F5F5F5F5F5F5F5F5F5F5F5F5F5F5F5F5F5F5F5F5F5F5F5F5F5F5F5F5F5F5F5F5F5F5F5F5F5F5F5F5F5F5F5F5
310
F5F5F5F5F5F5F5F5F5F5F5F5F5E2E2EFE2F5F5F5F5F5F5F5F5F5F5F5F5F5F5F5F5F5F5F5F5F5F5F5F5F5F5F5F5F5F5F5F5F5F5F5F5F5F5F5F5F5F5F5F5F5F5F5F5F5F5F5F5F5F5F5F5F5F5F5F5F5F5F5F5F5F5F5F5F5F5F5F5F5F5F5F5F5F5F5F5F5F5F5F5F5F5F5F5F5F5F5F5F5F5F5F5F5F5F5F5F5F5F5F5F5F5F5F5F5F5
310
F5F5F5F5F5F5F5F5F5F5F5F5F5F5F5F5F5F5F5F5F5F5F5F5F5F5F5F5F5F5F5F5F5F5F5F5F5F5F5F5F5F5F5F5F5F5F5F5F5F5F5F5F5F5F5F5F5F5F5F5F5F5F5F5F5F5E2E2EFE2F5F5F5F5F5F5F5F5F5F5F5F5F5F5F5F5F5F5F5F5F5F5F5F5F5F5F5F5F5F5F5F5F5F5F5F5F5F5F5F5F5F5F5F5F5F5F5F5F5F5F5F5F5F5F5F5F5
310
F5F5F5F5F5F5F5F5F5F5F5F5F5F5F5F5F5F5F5F5F5F5F5F5F5F5F5F5F5F5F5F5F5F5F5F5F5F5F5F5F5F5F5F5F5F5F5F5F5F5F5F5F5F5F5F5F5F5F5F5F5F5F5F5F5F5F5F5F5F5F5F5F5F5F5F5F5F5F5F5F5F5F5F5F5F5F5F5F5F5F5F5F5F5F5F5F5F5F5F5F5F5F5F5F5F5F5F5F5F5F5F5F5F5F5F5F5F5F5E2E2EFE2F5F5F5E2
310
F5F5F5F5F5F5F5F5F5F5F5F5F5F5F5F5F5F5F5F5F5F5F5F5F5F5F5F5F5F5F5F5F5F5F5F5F5F5F5F5F5F5F5F5F5F5F5F5F5F5F5F5F5F5F5F5F5F5F5F5F5F5F5F5F5F5F5F5F5F5F5F5F5F5F5F5F5F5F5F5F5F5F5F5F5F5F5F5F5F5F5F5F5F5F5F5F5F5F5F5F5F5F5F5F5F5F5F5F5F5F5F5F5F5F5F5F5F5F5F5F5F5F5F5F5F5F5
310
F5F5F5F5F5F5F5F5F5F5F5F5F5F5F5F5F5F5F5F5F5F5F5F5F5F5F5F5F5F5F5F5F5F5F5F5F5F5F5F5F5E2F5F5F5E2E2EFE2F5F5F5E2F5F5F5F5F5F5F5F5F5F5F5F5F5F5F5F5F5F5F5F5F5F5F5F5F5F5F5F5F5F5F5F5F5F5F5F5F5F5F5F5F5F5F5F5F5F5F5F5F5F5F5F5F5F5F5F5F5F5F5F5F5F5F5F5F5F5F5F5F5F5F5F5F5F5
310
F5F5F5F5F5F5F5F5F5F5F5F5F5F5F5F5F5F5F5F5F5F5F5F5F5F5F5F5F5F5F5F5F5F5F5F5F5F5F5F5F5F5F5F5F5F5F5F5F5F5F5F5F5F5F5F5F5F5F5F5F5F5F5F5F5F5F5F5F5F5F5F5F5F5F5F5F5F5F5F5F5F5F5F5F5F5F5F5F5F5F5F5F5F5E2F5F5F5E2E2EFE2F5F5F5E2F5F5F5F5F5F5F5F5F5F5F5F5F5F5F5F5F5F5F5F5F5
310
F5F5F5F5F5F5F5F5F5F5F5F5F5F5F5F5F5F5F5F5F5F5F5F5F5F5F5F5F5F5F5F5F5F5F5F5F5F5F5F5F5F5F5F5F5F5F5F5F5F5F5F5F5F5F5F5F5F5F5F5F5F5F5F5F5F5F5F5F5F5F5F5F5F5F5F5F5F5F5F5F5F5F5F5F5F5F5F5F5F5F5F5F5F5F5F5F5F5F5F5F5F5F5F5F5F5F5F5F5F5F5F5F5F5F5F5F5F5F5F5F5F5F5F5F5F5F5
310
F5F5F5F5F5F5F5F5F5F5F5F5F5F5F5F5F5F5F5F5E2F5F5F5E2E2EFE2F5F5F5E2F5F5F5F5F5F5F5F5F5F5F5F5F5F5F5F5F5F5F5F5F5F5F5F5F5F5F5F5F5F5F5F5F5F5F5F5F5F5F5F5F5F5F5F5F5F5F5F5F5F5F5F5F5F5F5F5F5F5F5F5F5F5F5F5F5F5F5F5F5F5F5F5F5F5F5F5F5F5F5F5F5F5F5F5F5F5F5F5F5F5F5F5F5F5F5
310
F5F5F5F5F5F5F5F5F5F5F5F5F5F5F5F5F5F5F5F5F5F5F5F5F5F5F5F5F5F5F5F5F5F5F5F5F5F5F5F5F5F5F5F5F5F5F5F5F5F5F5F5F5F5F5F5F5F5F5F5F5F5F5F5F5F5F5F5F5F5F5F5F5E2F5F5F5E2E2EFE2F5F5F5E2F5F5F5F5F5F5F5F5F5F5F5F5F5F5F5F5F5F5F5F5F5F5F5F5F5F5F5F5F5F5F5F5F5F5F5F5F5F5F5F5F5F5
310
F5F5F5F5F5F5F5F5F5F5F5F5F5F5F5F5F5F5F5F5F5F5F5F5F5F5F5F5F5F5F5F5F5F5F5F5F5F5F5F5F5F5F5F5F5F5F5F5F5F5F5F5F5F5F5F5F5F5F5F5F5F5F5F5F5F5F5F5F5F5F5F5F5F5F5F5F5F5F5F5F5F5F5F5F5F5F5F5F5F5F5F5F5F5F5F5F5F5F5F5F5F5F5F5F5F5F5F5F5F5F5F5F5F5F5F5F5F5F5F5F5F5F5F5F5F5E2
310
F5F5F5E2E2EFE2F5F5F5E2F5F5F5F5F5F5F5F5F5F5F5F5F5F5F5F5F5F5F5F5F5F5F5F5F5F5F5F5F5F5F5F5F5F5F5F5F5F5F5F5F5F5F5F5F5F5F5F5F5F5F5F5F5F5F5F5F5F5F5F5F5F5F5F5F5F5F5F5F5F5F5F5F5F5F5F5F5F5F5F5F5F5F5F5F5F5F5F5F5F5F5F5F5F5F5F5F5F5F5F5F5F5F5F5F5F5F5F5F5F5F5F5F5F5F5F5
310
F5F5F5F5F5F5F5F5F5F5F5F5F5F5F5F5F5F5F5F5F5F5F5F5F5F5F5F5F5F5F5F5F5F5F5F5F5F5F5F5F5F5F5F5F5F5F5F5F5F5F5F5E2F5F5F5E2E2EFE2F5F5F5E2F5F5F5F5F5F5F5F5F5F5F5F5F5F5F5F5F5F5F5F5F5F5F5F5F5F5F5F5F5F5F5F5F5F5F5F5F5F5F5F5F5F5F5F5F5F5F5F5F5F5F5F5F5F5F5F5F5F5F5F5F5F5F5
310
F5F5F5F5F5F5F5F5F5F5F5F5F5F5F5F5F5F5F5F5F5F5F5F5F5F5F5F5F5F5F5F5F5F5F5F5F5F5F5F5F5F5F5F5F5F5F5F5F5F5F5F5F5F5F5F5F5F5F5F5F5F5F5F5F5F5F5F5F5F5F5F5F5F5F5F5F5F5F5F5F5F5F5F5F5F5F5F5F5F5F5F5F5F5F5F5F5F5F5F5F5F5F5F5F5E2F5F5F5E2E2EFE2F5F5F5E2F5F5F5F5F5F5F5F5F5F5
310
F5F5F5F5F5F5F5F5F5F5F5F5F5F5F5F5F5F5F5F5F5F5F5F5F5F5F5F5F5F5F5F5F5F5F5F5F5F5F5F5F5F5F5F5F5F5F5F5F5F5F5F5F5F5F5F5F5F5F5F5F5F5F5F5F5F5F5F5F5F5F5F5F5F5F5F5F5F5F5F5F5F5F5F5F5F5F5F5F5F5F5F5F5F5F5F5F5F5F5F5F5F5F5F5F5F5F5F5F5F5F5F5F5F5F5F5F5F5F5F5F5F5F5F5F5F5F5
310
F5F5F5F5F5F5F5F5F5F5F5F5F5F5F5F5F5F5F5F5F5F5F5F5F5F5F5F5F5F5F5E2F5F5F5E2E2EFE2F5F5F5E2E2E2E2E2E2E2E2F5F5F5F5F5F5F5F5F5E2E2E2E2E2E2E2E2E2E2E2E2E2E2E2F5F5F5F5F5F5F5F5F5E2E2E2E2E2E2E2E2E2E2E2E2E2E2E2E2F5F5F5F5F5F5F5F5E2E2E2E2E2E2E2E2E2E2E2E2E2E2E2E2F5F5F5F5
310
F5F5F5F5E2E2E2E2E2E2E2E2E2E2E2E2E2E2E2E2F5F5F5F5F5F5F5F5E2E2E2E2E2E2E2E2E2E2E2E2E2E2E2E2F5F5F5F5F5F5F5F5F5E2E2E2E2E2E2E2E2E2E2E2E2E2E2E2F5F5F5F5F5F5F5F5F5E2E2E2E2E2E2E2E2F5F5F5E2E2EFE2F5F5F5F5F5F5F5F5F5F5F5F5F5F5F5F5F5F5F5F5F5F5F5F5F5F5F5F5F5F5F5F5F5F5F5
310
F5F5F5F5F5F5F5F5F5F5F5F5F5F5F5F5F5F5F5F5F5F5F5F5F5F5F5F5F5F5F5F5F5F5F5F5F5F5F5F5F5F5F5F5F5F5F5F5F5F5F5F5F5F5F5F5F5F5F5F5F5F5F5F5F5F5F5F5F5F5F5F5F5F5F5F5F5F5F5F5F5F5F5F5F5F5F5F5F5F5F5F5F5F5F5F5F5F5F5F5F5F5F5F5F5F5F5F5F5F5F5F5F5F5F5F5F5F5F5F5F5F5F5F5F5F5F5
310
F5F5F5F5F5F5F5F5F5F5F5F5F5F5E2E2EFE2F5F5F5F5F5F5F5F5F5F5F5F5F5F5F5F5F5F5F5F5F5F5F5F5F5F5F5F5F5F5F5F5F5F5F5F5F5F5F5F5F5F5F5F5F5F5F5F5F5F5F5F5F5F5F5F5F5F5F5F5F5F5F5F5F5F5F5F5F5F5F5F5F5F5F5F5F5F5F5F5F5F5F5F5F5F5F5F5F5F5F5F5F5F5F5F5F5F5F5F5F5F5F5F5F5F5F5F5F5
310
F5F5F5F5F5F5F5F5F5F5F5F5F5F5F5F5F5F5F5F5F5F5F5F5F5F5F5F5F5F5F5F5F5F5F5F5F5F5F5F5F5F5F5F5F5F5F5F5F5F5F5F5F5F5F5F5F5F5F5F5F5F5F5F5F5F5F5E2EFEFE2F5F5F5F5F5F5F5F5F5F5F5F5F5F5F5F5F5F5F5F5F5F5F5F5F5F5F5F5F5F5F5F5F5F5F5F5F5F5F5F5F5F5F5F5F5F5F5F5F5F5F5F5F5F5F5F5
310
F5F5F5F5F5F5F5F5F5F5F5F5F5F5F5F5F5F5F5F5F5F5F5F5F5F5F5F5F5F5F5F5F5F5F5F5F5F5F5F5F5F5F5F5F5F5F5F5F5F5F5F5F5F5F5F5F5F5F5F5F5F5F5F5F5F5F5F5F5F5F5F5F5F5F5F5F5F5F5F5F5F5F5F5F5F5F5F5F5F5F5F5F5F5F5F5F5F5F5F5F5F5F5F5F5F5F5F5F5F5F5F5F5F5F5F5F5F5F5F5E2EFEFE2E2E2E2
310
E2E2E2E2E2E2E2E2E2E2E2E2E2E2E2E2E2E2E2E2E2E2E2E2E2E2E2E2E2E2E2E2E2E2E2E2E2E2E2E2E2E2E2E2E2E2E2E2E2E2E2E2E2E2E2E2E2E2E2E2E2E2E2E2E2E2E2E2E2E2E2E2E2E2E2E2E2E2E2E2E2E2E2E2E2E2E2E2E2E2E2E2E2E2E2E2E2E2E2E2E2E2E2E2E2E2E2E2E2E2E2E2E2E2E2E2E2E2E2E2E2E2E2E2E2E2E2
310
E2E2E2E2E2E2E2E2E2E2E2E2E2E2E2E2E2E2E2E2E2E2E2E2E2E2E2E2E2E2E2E2E2E2E2E2E2E2E2E2E2E2E2E2E2E2E2EFEF
  0
XRECORD
  5
2F3F61
102
{ACAD_REACTORS
330
2EF111
102
}
330
2EF111
100
AcDbXrecord
280
     1
102
MATERIAL
148
0.0
149
0.0
149
0.0
 93
        0
 94
      127
282
     0
 72
     0
 77
     0
171
     0
175
     0
179
     0
273
     0
  0
XRECORD
  5
2EF113
102
{ACAD_REACTORS
330
2EF111
102
}
330
2EF111
100
AcDbXrecord
280
     1
270
     1
271
     1
  0
XRECORD
  5
2EF112
102
{ACAD_REACTORS
330
2EF111
102
}
330
2EF111
100
AcDbXrecord
280
     1
270
     1
271
     1
  0
XRECORD
  5
2EF116
102
{ACAD_REACTORS
330
2EF111
102
}
330
2EF111
100
AcDbXrecord
280
     1
270
     1
271
     1
  0
XRECORD
  5
2EF115
102
{ACAD_REACTORS
330
2EF111
102
}
330
2EF111
100
AcDbXrecord
280
     1
270
     1
271
     1
  0
XRECORD
  5
2EF117
102
{ACAD_REACTORS
330
2EF111
102
}
330
2EF111
100
AcDbXrecord
280
     1
270
     1
271
     1
  0
XRECORD
  5
2EF114
102
{ACAD_REACTORS
330
2EF111
102
}
330
2EF111
100
AcDbXrecord
280
     1
270
     1
271
     1
  0
XRECORD
  5
2F3F60
102
{ACAD_REACTORS
330
2EF109
102
}
330
2EF109
100
AcDbXrecord
280
     1
102
MATERIAL
148
0.0
149
0.0
149
0.0
 93
        0
 94
      127
282
     0
 72
     0
 77
     0
171
     0
175
     0
179
     0
273
     0
  0
XRECORD
  5
2EF10B
102
{ACAD_REACTORS
330
2EF109
102
}
330
2EF109
100
AcDbXrecord
280
     1
270
     1
271
     1
  0
XRECORD
  5
2EF10A
102
{ACAD_REACTORS
330
2EF109
102
}
330
2EF109
100
AcDbXrecord
280
     1
270
     1
271
     1
  0
XRECORD
  5
2EF10E
102
{ACAD_REACTORS
330
2EF109
102
}
330
2EF109
100
AcDbXrecord
280
     1
270
     1
271
     1
  0
XRECORD
  5
2EF10D
102
{ACAD_REACTORS
330
2EF109
102
}
330
2EF109
100
AcDbXrecord
280
     1
270
     1
271
     1
  0
XRECORD
  5
2EF10F
102
{ACAD_REACTORS
330
2EF109
102
}
330
2EF109
100
AcDbXrecord
280
     1
270
     1
271
     1
  0
XRECORD
  5
2EF10C
102
{ACAD_REACTORS
330
2EF109
102
}
330
2EF109
100
AcDbXrecord
280
     1
270
     1
271
     1
  0
XRECORD
  5
2F3F62
102
{ACAD_REACTORS
330
2EF119
102
}
330
2EF119
100
AcDbXrecord
280
     1
102
MATERIAL
148
0.0
149
0.0
149
0.0
 93
        0
 94
      127
282
     0
 72
     0
 77
     0
171
     0
175
     0
179
     0
273
     0
  0
XRECORD
  5
2EF11B
102
{ACAD_REACTORS
330
2EF119
102
}
330
2EF119
100
AcDbXrecord
280
     1
270
     1
271
     1
  0
XRECORD
  5
2EF11A
102
{ACAD_REACTORS
330
2EF119
102
}
330
2EF119
100
AcDbXrecord
280
     1
270
     1
271
     1
  0
XRECORD
  5
2EF11E
102
{ACAD_REACTORS
330
2EF119
102
}
330
2EF119
100
AcDbXrecord
280
     1
270
     1
271
     1
  0
XRECORD
  5
2EF11D
102
{ACAD_REACTORS
330
2EF119
102
}
330
2EF119
100
AcDbXrecord
280
     1
270
     1
271
     1
  0
XRECORD
  5
2EF11F
102
{ACAD_REACTORS
330
2EF119
102
}
330
2EF119
100
AcDbXrecord
280
     1
270
     1
271
     1
  0
XRECORD
  5
2EF11C
102
{ACAD_REACTORS
330
2EF119
102
}
330
2EF119
100
AcDbXrecord
280
     1
270
     1
271
     1
  0
CELLSTYLEMAP
  5
2F3F59
102
{ACAD_REACTORS
330
2EF143
102
}
330
2EF143
100
AcDbCellStyleMap
 90
        3
300
CELLSTYLE
  1
TABLEFORMAT_BEGIN
 90
        5
170
     1
 91
        0
 92
    32768
 62
   257
 93
        1
300
CONTENTFORMAT
  1
CONTENTFORMAT_BEGIN
 90
        0
 91
        0
 92
      512
 93
        0
300

 40
0.0
140
1.0
 94
        5
 62
     0
340
10
144
0.25
309
CONTENTFORMAT_END
171
     0
 94
        0
309
TABLEFORMAT_END
  1
CELLSTYLE_BEGIN
 90
        1
 91
        1
300
_TITLE
309
CELLSTYLE_END
300
CELLSTYLE
  1
TABLEFORMAT_BEGIN
 90
        5
170
     1
 91
        0
 92
        0
 62
   257
 93
        1
300
CONTENTFORMAT
  1
CONTENTFORMAT_BEGIN
 90
        0
 91
        0
 92
      512
 93
        0
300

 40
0.0
140
1.0
 94
        5
 62
     0
340
10
144
0.18
309
CONTENTFORMAT_END
171
     0
 94
        0
309
TABLEFORMAT_END
  1
CELLSTYLE_BEGIN
 90
        2
 91
        1
300
_HEADER
309
CELLSTYLE_END
300
CELLSTYLE
  1
TABLEFORMAT_BEGIN
 90
        5
170
     1
 91
        0
 92
        0
 62
   257
 93
        1
300
CONTENTFORMAT
  1
CONTENTFORMAT_BEGIN
 90
        0
 91
        0
 92
      512
 93
        0
300

 40
0.0
140
1.0
 94
        2
 62
     0
340
10
144
0.18
309
CONTENTFORMAT_END
171
     0
 94
        0
309
TABLEFORMAT_END
  1
CELLSTYLE_BEGIN
 90
        3
 91
        2
300
_DATA
309
CELLSTYLE_END
  0
XRECORD
  5
2F3F63
102
{ACAD_REACTORS
330
2EF143
102
}
330
2EF143
100
AcDbXrecord
280
     1
102
ACAD_ROUNDTRIP_PRE2007_TABLESTYLE
 90
      512
 91
        0
  1

 92
      512
 93
        0
  2

 94
      512
 95
        0
  3

  0
ENDSEC
  0
EOF
