  0
SECTION
  2
HEADER
  9
$ACADVER
  1
AC1015
  9
$ACADMAINTVER
 70
     6
  9
$DWGCODEPAGE
  3
ANSI_932
  9
$INSBASE
 10
0.0
 20
0.0
 30
0.0
  9
$EXTMIN
 10
6603.916461771108
 20
-3968.302061029407
 30
0.0
  9
$EXTMAX
 10
6708.916461771108
 20
-3845.552880631535
 30
0.0
  9
$LIMMIN
 10
0.0
 20
0.0
  9
$LIMMAX
 10
594.0
 20
420.0
  9
$ORTHOMODE
 70
     1
  9
$REGENMODE
 70
     1
  9
$FILLMODE
 70
     1
  9
$QTEXTMODE
 70
     0
  9
$MIRRTEXT
 70
     1
  9
$LTSCALE
 40
7.0
  9
$ATTMODE
 70
     0
  9
$TEXTSIZE
 40
3.0
  9
$TRACEWID
 40
1.0
  9
$TEXTSTYLE
  7
STANDARD
  9
$CLAYER
  8
0
  9
$CELTYPE
  6
BYLAYER
  9
$CECOLOR
 62
   256
  9
$CELTSCALE
 40
1.0
  9
$DISPSILH
 70
     0
  9
$DIMSCALE
 40
1.0
  9
$DIMASZ
 40
2.5
  9
$DIMEXO
 40
1.5
  9
$DIMDLI
 40
5.0
  9
$DIMRND
 40
0.0
  9
$DIMDLE
 40
0.0
  9
$DIMEXE
 40
1.0
  9
$DIMTP
 40
0.0
  9
$DIMTM
 40
0.0
  9
$DIMTXT
 40
3.0
  9
$DIMCEN
 40
0.0
  9
$DIMTSZ
 40
0.0
  9
$DIMTOL
 70
     0
  9
$DIMLIM
 70
     0
  9
$DIMTIH
 70
     0
  9
$DIMTOH
 70
     0
  9
$DIMSE1
 70
     0
  9
$DIMSE2
 70
     0
  9
$DIMTAD
 70
     3
  9
$DIMZIN
 70
     8
  9
$DIMBLK
  1
Open30
  9
$DIMASO
 70
     1
  9
$DIMSHO
 70
     0
  9
$DIMPOST
  1

  9
$DIMAPOST
  1

  9
$DIMALT
 70
     0
  9
$DIMALTD
 70
     0
  9
$DIMALTF
 40
25.4
  9
$DIMLFAC
 40
1.0
  9
$DIMTOFL
 70
     1
  9
$DIMTVP
 40
0.0
  9
$DIMTIX
 70
     0
  9
$DIMSOXD
 70
     0
  9
$DIMSAH
 70
     0
  9
$DIMBLK1
  1

  9
$DIMBLK2
  1

  9
$DIMSTYLE
  2
STANDARD
  9
$DIMCLRD
 70
     8
  9
$DIMCLRE
 70
     8
  9
$DIMCLRT
 70
   256
  9
$DIMTFAC
 40
1.0
  9
$DIMGAP
 40
1.0
  9
$DIMJUST
 70
     0
  9
$DIMSD1
 70
     0
  9
$DIMSD2
 70
     0
  9
$DIMTOLJ
 70
     1
  9
$DIMTZIN
 70
     8
  9
$DIMALTZ
 70
     0
  9
$DIMALTTZ
 70
     0
  9
$DIMUPT
 70
     1
  9
$DIMDEC
 70
     2
  9
$DIMTDEC
 70
     2
  9
$DIMALTU
 70
     2
  9
$DIMALTTD
 70
     0
  9
$DIMTXSTY
  7
STANDARD
  9
$DIMAUNIT
 70
     0
  9
$DIMADEC
 70
     0
  9
$DIMALTRND
 40
0.0
  9
$DIMAZIN
 70
     2
  9
$DIMDSEP
 70
    46
  9
$DIMATFIT
 70
     2
  9
$DIMFRAC
 70
     0
  9
$DIMLDRBLK
  1
Open30
  9
$DIMLUNIT
 70
     2
  9
$DIMLWD
 70
    -2
  9
$DIMLWE
 70
    -2
  9
$DIMTMOVE
 70
     0
  9
$LUNITS
 70
     2
  9
$LUPREC
 70
     1
  9
$SKETCHINC
 40
0.1
  9
$FILLETRAD
 40
0.8
  9
$AUNITS
 70
     0
  9
$AUPREC
 70
     1
  9
$MENU
  1
FM
  9
$ELEVATION
 40
0.0
  9
$PELEVATION
 40
0.0
  9
$THICKNESS
 40
0.0
  9
$LIMCHECK
 70
     0
  9
$CHAMFERA
 40
0.0
  9
$CHAMFERB
 40
0.0
  9
$CHAMFERC
 40
0.0
  9
$CHAMFERD
 40
0.0
  9
$SKPOLY
 70
     0
  9
$TDCREATE
 40
2448499.608101852
  9
$TDUCREATE
 40
2448499.233101852
  9
$TDUPDATE
 40
2456822.478965104
  9
$TDUUPDATE
 40
2456822.103965104
  9
$TDINDWG
 40
19.0600505208
  9
$TDUSRTIMER
 40
2456822.103805069
  9
$USRTIMER
 70
     1
  9
$ANGBASE
 50
0.0
  9
$ANGDIR
 70
     0
  9
$PDMODE
 70
     3
  9
$PDSIZE
 40
0.0
  9
$PLINEWID
 40
0.0
  9
$SPLFRAME
 70
     0
  9
$SPLINETYPE
 70
     6
  9
$SPLINESEGS
 70
     8
  9
$HANDSEED
  5
103529
  9
$SURFTAB1
 70
     6
  9
$SURFTAB2
 70
     6
  9
$SURFTYPE
 70
     6
  9
$SURFU
 70
     6
  9
$SURFV
 70
     6
  9
$UCSBASE
  2

  9
$UCSNAME
  2

  9
$UCSORG
 10
0.0
 20
0.0
 30
0.0
  9
$UCSXDIR
 10
1.0
 20
0.0
 30
0.0
  9
$UCSYDIR
 10
0.0
 20
1.0
 30
0.0
  9
$UCSORTHOREF
  2

  9
$UCSORTHOVIEW
 70
     0
  9
$UCSORGTOP
 10
0.0
 20
0.0
 30
0.0
  9
$UCSORGBOTTOM
 10
0.0
 20
0.0
 30
0.0
  9
$UCSORGLEFT
 10
0.0
 20
0.0
 30
0.0
  9
$UCSORGRIGHT
 10
0.0
 20
0.0
 30
0.0
  9
$UCSORGFRONT
 10
0.0
 20
0.0
 30
0.0
  9
$UCSORGBACK
 10
0.0
 20
0.0
 30
0.0
  9
$PUCSBASE
  2

  9
$PUCSNAME
  2

  9
$PUCSORG
 10
0.0
 20
0.0
 30
0.0
  9
$PUCSXDIR
 10
1.0
 20
0.0
 30
0.0
  9
$PUCSYDIR
 10
0.0
 20
1.0
 30
0.0
  9
$PUCSORTHOREF
  2

  9
$PUCSORTHOVIEW
 70
     0
  9
$PUCSORGTOP
 10
0.0
 20
0.0
 30
0.0
  9
$PUCSORGBOTTOM
 10
0.0
 20
0.0
 30
0.0
  9
$PUCSORGLEFT
 10
0.0
 20
0.0
 30
0.0
  9
$PUCSORGRIGHT
 10
0.0
 20
0.0
 30
0.0
  9
$PUCSORGFRONT
 10
0.0
 20
0.0
 30
0.0
  9
$PUCSORGBACK
 10
0.0
 20
0.0
 30
0.0
  9
$USERI1
 70
     0
  9
$USERI2
 70
     0
  9
$USERI3
 70
     0
  9
$USERI4
 70
     0
  9
$USERI5
 70
     0
  9
$USERR1
 40
0.0
  9
$USERR2
 40
0.0
  9
$USERR3
 40
0.0
  9
$USERR4
 40
0.0
  9
$USERR5
 40
0.0
  9
$WORLDVIEW
 70
     0
  9
$SHADEDGE
 70
     3
  9
$SHADEDIF
 70
    70
  9
$TILEMODE
 70
     1
  9
$MAXACTVP
 70
    16
  9
$PINSBASE
 10
0.0
 20
0.0
 30
0.0
  9
$PLIMCHECK
 70
     0
  9
$PEXTMIN
 10
1.000000000000000E+20
 20
1.000000000000000E+20
 30
1.000000000000000E+20
  9
$PEXTMAX
 10
-1.000000000000000E+20
 20
-1.000000000000000E+20
 30
-1.000000000000000E+20
  9
$PLIMMIN
 10
0.0
 20
0.0
  9
$PLIMMAX
 10
0.0
 20
0.0
  9
$UNITMODE
 70
     0
  9
$VISRETAIN
 70
     0
  9
$PLINEGEN
 70
     0
  9
$PSLTSCALE
 70
     0
  9
$TREEDEPTH
 70
  3020
  9
$CMLSTYLE
  2
STANDARD
  9
$CMLJUST
 70
     0
  9
$CMLSCALE
 40
1.0
  9
$PROXYGRAPHICS
 70
     1
  9
$MEASUREMENT
 70
     0
  9
$CELWEIGHT
370
    -1
  9
$ENDCAPS
280
     0
  9
$JOINSTYLE
280
     0
  9
$LWDISPLAY
290
     0
  9
$INSUNITS
 70
     0
  9
$HYPERLINKBASE
  1

  9
$STYLESHEET
  1
spax form.ctb
  9
$XEDIT
290
     1
  9
$CEPSNTYPE
380
     0
  9
$PSTYLEMODE
290
     1
  9
$FINGERPRINTGUID
  2
{47009D22-CDDF-11D3-A113-00A0C90652EE}
  9
$VERSIONGUID
  2
{1E4E654B-39D1-4C93-9D03-05CEF32F9178}
  9
$EXTNAMES
290
     1
  9
$PSVPSCALE
 40
0.0
  9
$OLESTARTUP
290
     0
  0
ENDSEC
  0
SECTION
  2
CLASSES
  0
CLASS
  1
LWPOLYLINE
  2
AcDbPolyline
  3
ObjectDBX Classes
 90
        0
280
     0
281
     1
  0
CLASS
  1
ACDBDICTIONARYWDFLT
  2
AcDbDictionaryWithDefault
  3
ObjectDBX Classes
 90
        0
280
     0
281
     0
  0
CLASS
  1
ACDBPLACEHOLDER
  2
AcDbPlaceHolder
  3
ObjectDBX Classes
 90
        0
280
     0
281
     0
  0
CLASS
  1
LAYOUT
  2
AcDbLayout
  3
ObjectDBX Classes
 90
        0
280
     0
281
     0
  0
CLASS
  1
SORTENTSTABLE
  2
AcDbSortentsTable
  3
ObjectDBX Classes
 90
        0
280
     0
281
     0
  0
CLASS
  1
DICTIONARYVAR
  2
AcDbDictionaryVar
  3
ObjectDBX Classes
 90
        0
280
     0
281
     0
  0
CLASS
  1
MATERIAL
  2
AcDbMaterial
  3
ObjectDBX Classes
 90
     1153
280
     0
281
     0
  0
CLASS
  1
VISUALSTYLE
  2
AcDbVisualStyle
  3
ObjectDBX Classes
 90
     4095
280
     0
281
     0
  0
CLASS
  1
TABLESTYLE
  2
AcDbTableStyle
  3
ObjectDBX Classes
 90
     4095
280
     0
281
     0
  0
CLASS
  1
SCALE
  2
AcDbScale
  3
ObjectDBX Classes
 90
     1153
280
     0
281
     0
  0
CLASS
  1
MLEADERSTYLE
  2
AcDbMLeaderStyle
  3
ACDB_MLEADERSTYLE_CLASS
 90
     4095
280
     0
281
     0
  0
CLASS
  1
CELLSTYLEMAP
  2
AcDbCellStyleMap
  3
ObjectDBX Classes
 90
     1152
280
     0
281
     0
  0
CLASS
  1
RASTERVARIABLES
  2
AcDbRasterVariables
  3
ISM
 90
        0
280
     0
281
     0
  0
CLASS
  1
SUN
  2
AcDbSun
  3
SCENEOE
 90
     1153
280
     0
281
     0
  0
ENDSEC
  0
SECTION
  2
TABLES
  0
TABLE
  2
VPORT
  5
8
330
0
100
AcDbSymbolTable
 70
     1
  0
VPORT
  5
FF686
330
8
100
AcDbSymbolTableRecord
100
AcDbViewportTableRecord
  2
*Active
 70
     0
 10
0.0
 20
0.0
 11
1.0
 21
1.0
 12
6656.416461771108
 22
-3906.927470830471
 13
0.0
 23
0.0
 14
1.0
 24
1.0
 15
20.0
 25
20.0
 16
0.0
 26
0.0
 36
1.0
 17
0.0
 27
0.0
 37
0.0
 40
125.2041640058298
 41
1.731829573934837
 42
50.0
 43
0.0
 44
0.0
 50
0.0
 51
0.0
 71
    16
 72
   100
 73
     1
 74
     0
 75
     0
 76
     0
 77
     0
 78
     0
281
     0
 65
     1
110
0.0
120
0.0
130
0.0
111
1.0
121
0.0
131
0.0
112
0.0
122
1.0
132
0.0
 79
     0
146
0.0
  0
ENDTAB
  0
TABLE
  2
LTYPE
  5
5
330
0
100
AcDbSymbolTable
 70
     4
  0
LTYPE
  5
12
330
5
100
AcDbSymbolTableRecord
100
AcDbLinetypeTableRecord
  2
BYBLOCK
 70
     0
  3

 72
    65
 73
     0
 40
0.0
  0
LTYPE
  5
13
330
5
100
AcDbSymbolTableRecord
100
AcDbLinetypeTableRecord
  2
BYLAYER
 70
     0
  3

 72
    65
 73
     0
 40
0.0
  0
LTYPE
  5
14
330
5
100
AcDbSymbolTableRecord
100
AcDbLinetypeTableRecord
  2
CONTINUOUS
 70
     0
  3
Solid line
 72
    65
 73
     0
 40
0.0
  0
LTYPE
  5
27
330
5
100
AcDbSymbolTableRecord
100
AcDbLinetypeTableRecord
  2
CENTER
 70
     0
  3
____ _ ____ _ ____ _ ____ _ ____ _ ____ _ ____
 72
    65
 73
     4
 40
2.0
 49
1.25
 74
     0
 49
-0.25
 74
     0
 49
0.25
 74
     0
 49
-0.25
 74
     0
  0
LTYPE
  5
28
330
5
100
AcDbSymbolTableRecord
100
AcDbLinetypeTableRecord
  2
PHANTOM
 70
     0
  3
_____ _ _ _____ _ _ _____ _ _ _____ _ _ ____
 72
    65
 73
     6
 40
2.5
 49
1.25
 74
     0
 49
-0.25
 74
     0
 49
0.25
 74
     0
 49
-0.25
 74
     0
 49
0.25
 74
     0
 49
-0.25
 74
     0
  0
LTYPE
  5
8C889
330
5
100
AcDbSymbolTableRecord
100
AcDbLinetypeTableRecord
  2
HIDDEN
 70
     0
  3
_ _ _ _ _ _ _ _ _ _ _ _ _ _ _ _ _ _ _ _ _ _ _
 72
    65
 73
     2
 40
0.375
 49
0.25
 74
     0
 49
-0.125
 74
     0
  0
ENDTAB
  0
TABLE
  2
LAYER
  5
2
102
{ACAD_XDICTIONARY
360
39A53
102
}
330
0
100
AcDbSymbolTable
 70
    30
  0
LAYER
  5
F
102
{ACAD_XDICTIONARY
360
86370
102
}
330
2
100
AcDbSymbolTableRecord
100
AcDbLayerTableRecord
  2
0
 70
     0
 62
     7
  6
CONTINUOUS
370
    -3
390
1EE
  0
LAYER
  5
8E0
102
{ACAD_XDICTIONARY
360
86376
102
}
330
2
100
AcDbSymbolTableRecord
100
AcDbLayerTableRecord
  2
寸法線
 70
     0
 62
     7
  6
CONTINUOUS
370
    -3
390
1EE
  0
LAYER
  5
8E4
102
{ACAD_XDICTIONARY
360
8637C
102
}
330
2
100
AcDbSymbolTableRecord
100
AcDbLayerTableRecord
  2
文字
 70
     0
 62
     7
  6
CONTINUOUS
370
    -3
390
1EE
  0
LAYER
  5
8E5
102
{ACAD_XDICTIONARY
360
8637E
102
}
330
2
100
AcDbSymbolTableRecord
100
AcDbLayerTableRecord
  2
姿図
 70
     0
 62
     8
  6
CONTINUOUS
370
    -3
390
1EE
  0
ENDTAB
  0
TABLE
  2
STYLE
  5
3
330
0
100
AcDbSymbolTable
 70
     2
  0
STYLE
  5
10
330
3
100
AcDbSymbolTableRecord
100
AcDbTextStyleTableRecord
  2
STANDARD
 70
     0
 40
0.0
 41
1.0
 50
0.0
 71
     0
 42
3.0
  3
MONOTXT
  4
BIGFONT
  0
STYLE
  5
9C25
330
3
100
AcDbSymbolTableRecord
100
AcDbTextStyleTableRecord
  2
EXTFONT
 70
     0
 40
2.5
 41
1.0
 50
0.0
 71
     0
 42
2.5
  3
txt.shx
  4
extfont
  0
ENDTAB
  0
TABLE
  2
VIEW
  5
6
330
0
100
AcDbSymbolTable
 70
     0
  0
ENDTAB
  0
TABLE
  2
UCS
  5
7
330
0
100
AcDbSymbolTable
 70
     0
  0
ENDTAB
  0
TABLE
  2
APPID
  5
9
330
0
100
AcDbSymbolTable
 70
    13
  0
APPID
  5
11
330
9
100
AcDbSymbolTableRecord
100
AcDbRegAppTableRecord
  2
ACAD
 70
     0
  0
APPID
  5
86334
330
9
100
AcDbSymbolTableRecord
100
AcDbRegAppTableRecord
  2
ACAD_MLEADERVER
 70
     0
  0
APPID
  5
8633B
330
9
100
AcDbSymbolTableRecord
100
AcDbRegAppTableRecord
  2
ACAD_EXEMPT_FROM_CAD_STANDARDS
 70
     0
  0
APPID
  5
87B10
330
9
100
AcDbSymbolTableRecord
100
AcDbRegAppTableRecord
  2
ACAD_PSEXT
 70
     0
  0
APPID
  5
87B1B
330
9
100
AcDbSymbolTableRecord
100
AcDbRegAppTableRecord
  2
AcadAnnotative
 70
     0
  0
APPID
  5
87B1C
330
9
100
AcDbSymbolTableRecord
100
AcDbRegAppTableRecord
  2
ACAD_DSTYLE_DIMJAG
 70
     0
  0
APPID
  5
87B1D
330
9
100
AcDbSymbolTableRecord
100
AcDbRegAppTableRecord
  2
ACAD_DSTYLE_DIMTALN
 70
     0
  0
APPID
  5
87B89
330
9
100
AcDbSymbolTableRecord
100
AcDbRegAppTableRecord
  2
AcAecLayerStandard
 70
     0
  0
APPID
  5
92335
330
9
100
AcDbSymbolTableRecord
100
AcDbRegAppTableRecord
  2
ACAD_DSTYLE_DIMRADIAL_EXTENSION
 70
     0
  0
APPID
  5
9751B
330
9
100
AcDbSymbolTableRecord
100
AcDbRegAppTableRecord
  2
GENIUS_GENODEF_13
 70
     0
  0
APPID
  5
9751C
330
9
100
AcDbSymbolTableRecord
100
AcDbRegAppTableRecord
  2
GENIUS_GENREC_14
 70
     0
  0
APPID
  5
9751D
330
9
100
AcDbSymbolTableRecord
100
AcDbRegAppTableRecord
  2
GENIUS_GENOBJ-N-REC_13
 70
     0
  0
APPID
  5
D5A66
330
9
100
AcDbSymbolTableRecord
100
AcDbRegAppTableRecord
  2
ACAD_DSTYLE_DIMBREAK
 70
     0
  0
ENDTAB
  0
TABLE
  2
DIMSTYLE
  5
A
330
0
100
AcDbSymbolTable
 70
     3
100
AcDbDimStyleTable
  0
DIMSTYLE
105
166
330
A
100
AcDbSymbolTableRecord
100
AcDbDimStyleTableRecord
  2
STANDARD
 70
     0
 41
2.5
 42
1.5
 43
5.0
 44
1.0
 73
     0
 74
     0
 77
     3
 78
     8
 79
     2
140
3.0
141
0.0
147
1.0
171
     0
172
     1
176
     8
177
     8
271
     2
178
   256
271
     2
272
     2
274
     0
284
     8
288
     1
289
     2
340
10
341
229D
342
229D
1001
ACAD_DSTYLE_DIMJAG
1070
   388
1040
1.5
1001
ACAD_DSTYLE_DIMTALN
1070
   392
1070
     0
  0
ENDTAB
  0
TABLE
  2
BLOCK_RECORD
  5
1
330
0
100
AcDbSymbolTable
 70
    59
  0
BLOCK_RECORD
  5
18
102
{ACAD_XDICTIONARY
360
8F667
102
}
330
1
100
AcDbSymbolTableRecord
100
AcDbBlockTableRecord
  2
*MODEL_SPACE
340
1F1
  0
BLOCK_RECORD
  5
15
330
1
100
AcDbSymbolTableRecord
100
AcDbBlockTableRecord
  2
*PAPER_SPACE
340
1F2
  0
BLOCK_RECORD
  5
229D
330
1
100
AcDbSymbolTableRecord
100
AcDbBlockTableRecord
  2
_Open30
340
0
  0
BLOCK_RECORD
  5
878F6
330
1
100
AcDbSymbolTableRecord
100
AcDbBlockTableRecord
  2
_Open
340
0
102
{BLKREFS
331
FF598
331
FF599
331
FF5A1
331
FF5A2
331
FF5AA
331
FF5AB
331
FF5B3
331
FF5B4
331
FF5BC
331
FF5BD
331
FF5EB
331
FF5EC
331
FF5F4
331
FF5F5
331
FF5FD
331
FF5FE
331
FF606
331
FF607
331
FF60F
331
FF610
331
FF642
331
FF643
331
FF64B
331
FF64C
331
FF654
331
FF655
331
FF65F
331
FF660
331
100F69
331
100F6A
331
100F72
331
100F73
331
100F7B
331
100F7C
331
100F84
331
100F85
331
100F8D
331
100F8E
331
100F98
331
100F99
331
100FA1
331
100FA2
331
100FAA
331
100FAB
331
100FB3
331
100FB4
331
100FBC
331
100FBD
331
100FC5
331
100FC6
331
100FCE
331
100FCF
331
101326
331
101327
331
1026D2
331
1026D3
331
1026DB
331
1026DC
331
1026E4
331
1026E5
331
1026ED
331
1026EE
331
1026F6
331
1026F7
331
1026FF
331
102700
331
10270A
331
10270B
331
102713
331
102714
331
10271C
331
10271D
331
102725
331
102726
331
10272E
331
10272F
331
102737
331
102738
331
102740
331
102741
331
10274B
331
10274C
331
103441
331
103442
331
10344A
331
10344B
331
103453
331
103454
331
10345C
331
10345D
331
103465
331
103466
331
103470
331
103471
331
103479
331
10347A
331
103482
331
103483
331
10348D
331
10348E
331
103496
331
103497
331
10349F
331
1034A0
331
1034A8
331
1034A9
331
1034B1
331
1034B2
331
1034BA
331
1034BB
102
}
  0
BLOCK_RECORD
  5
8C829
330
1
100
AcDbSymbolTableRecord
100
AcDbBlockTableRecord
  2
SUN
340
0
  0
ENDTAB
  0
ENDSEC
  0
SECTION
  2
BLOCKS
  0
BLOCK
  5
3B
330
18
100
AcDbEntity
  8
0
100
AcDbBlockBegin
  2
*MODEL_SPACE
 70
     0
 10
0.0
 20
0.0
 30
0.0
  3
*MODEL_SPACE
  1
*MODEL_SPACE
  0
ENDBLK
  5
3C
330
18
100
AcDbEntity
  8
0
100
AcDbBlockEnd
  0
BLOCK
  5
39
330
15
100
AcDbEntity
 67
     1
  8
0
100
AcDbBlockBegin
  2
*PAPER_SPACE
 70
     0
 10
0.0
 20
0.0
 30
0.0
  3
*PAPER_SPACE
  1
*PAPER_SPACE
  0
ENDBLK
  5
3A
330
15
100
AcDbEntity
 67
     1
  8
0
100
AcDbBlockEnd
  0
BLOCK
  5
229E
330
229D
100
AcDbEntity
  8
0
100
AcDbBlockBegin
  2
_Open30
 70
     0
 10
0.0
 20
0.0
 30
0.0
  3
_Open30
  1
_Open30
  0
LINE
  5
229F
330
229D
100
AcDbEntity
  8
寸法線
 62
     0
370
    -2
100
AcDbLine
 10
-1.0
 20
0.26794919
 30
0.0
 11
0.0
 21
0.0
 31
0.0
  0
LINE
  5
22A0
330
229D
100
AcDbEntity
  8
寸法線
 62
     0
370
    -2
100
AcDbLine
 10
0.0
 20
0.0
 30
0.0
 11
-1.0
 21
-0.26794919
 31
0.0
  0
LINE
  5
22A1
330
229D
100
AcDbEntity
  8
寸法線
 62
     0
370
    -2
100
AcDbLine
 10
0.0
 20
0.0
 30
0.0
 11
-1.0
 21
0.0
 31
0.0
  0
ENDBLK
  5
22A2
330
229D
100
AcDbEntity
  8
0
100
AcDbBlockEnd
  0
BLOCK
  5
878F7
330
878F6
100
AcDbEntity
  8
0
100
AcDbBlockBegin
  2
_Open
 70
     0
 10
0.0
 20
0.0
 30
0.0
  3
_Open
  1
_Open
  0
LINE
  5
878F8
330
878F6
100
AcDbEntity
  8
寸法線
 62
     0
370
    -2
100
AcDbLine
 10
-1.0
 20
0.1666666666666667
 30
0.0
 11
0.0
 21
0.0
 31
0.0
  0
LINE
  5
878F9
330
878F6
100
AcDbEntity
  8
寸法線
 62
     0
370
    -2
100
AcDbLine
 10
-1.0
 20
-0.1666666666666667
 30
0.0
 11
0.0
 21
0.0
 31
0.0
  0
LINE
  5
878FA
330
878F6
100
AcDbEntity
  8
寸法線
 62
     0
370
    -2
100
AcDbLine
 10
0.0
 20
0.0
 30
0.0
 11
-1.0
 21
0.0
 31
0.0
  0
ENDBLK
  5
878FB
330
878F6
100
AcDbEntity
  8
0
100
AcDbBlockEnd
  0
BLOCK
  5
8C82A
330
8C829
100
AcDbEntity
  8
0
100
AcDbBlockBegin
  2
SUN
 70
     0
 10
0.0
 20
0.0
 30
0.0
  3
SUN
  1
SUN
  0
LINE
  5
8C82B
330
8C829
100
AcDbEntity
  8
0
100
AcDbLine
 10
-0.0000000000000568
 20
0.0
 30
0.0
 11
-1.500000000000057
 21
0.0
 31
0.0
  0
LINE
  5
8C82C
330
8C829
100
AcDbEntity
  8
0
100
AcDbLine
 10
-0.0000000000000568
 20
0.0000000000000284
 30
0.0
 11
-1.500000000000057
 21
0.401923788646684
 31
0.0
  0
LINE
  5
8C82D
330
8C829
100
AcDbEntity
  8
0
100
AcDbLine
 10
-0.0000000000000568
 20
0.0000000000000284
 30
0.0
 11
-1.500000000000057
 21
-0.4019237886466556
 31
0.0
  0
ENDBLK
  5
8C82E
330
8C829
100
AcDbEntity
  8
0
100
AcDbBlockEnd
  0
ENDSEC
  0
SECTION
  2
ENTITIES
  0
TEXT
  5
121C
330
18
100
AcDbEntity
  8
文字
100
AcDbText
 10
282.370039774007
 20
64.93037743435401
 30
0.0
 40
4.5
  1

100
AcDbText
  0
TEXT
  5
14E1
330
18
100
AcDbEntity
  8
文字
100
AcDbText
 10
859.7362816181185
 20
664.8537000932445
 30
0.0
 40
6.75
  1

100
AcDbText
  0
TEXT
  5
58BF
330
18
100
AcDbEntity
  8
文字
 62
     0
100
AcDbText
 10
239.5096002950205
 20
101.9109458569735
 30
0.0
 40
4.5
  1

100
AcDbText
  0
TEXT
  5
102B5E
330
18
100
AcDbEntity
  8
文字
100
AcDbText
 10
6603.916461771108
 20
-3968.302061029407
 30
0.0
 40
9.0
  1
SL-400DFC/V2
  7
EXTFONT
100
AcDbText
  0
ARC
  5
102BD2
330
18
100
AcDbEntity
  8
姿図
100
AcDbCircle
 10
6650.923600134658
 20
-3921.226053925265
 30
0.0
 40
0.4673905908019073
100
AcDbArc
 50
216.9331122207189
 51
315.443171154637
  0
ARC
  5
102BD3
330
18
100
AcDbEntity
  8
姿図
100
AcDbCircle
 10
6648.0606584417
 20
-3916.959919563099
 30
0.0
 40
0.5052106321935921
100
AcDbArc
 50
125.9385529435548
 51
209.8670357225643
  0
SPLINE
  5
102BD4
330
18
100
AcDbEntity
  8
姿図
100
AcDbSpline
210
0.0
220
0.0
230
1.0
 70
     8
 71
     3
 72
     8
 73
     4
 74
     0
 42
0.000000001
 43
0.0000000001
 40
0.7483326295444415
 40
0.7483326295444415
 40
0.7483326295444415
 40
0.7483326295444415
 40
1.0
 40
1.0
 40
1.0
 40
1.0
 10
6652.724643680576
 20
-3915.178500187123
 30
0.0
 10
6652.444164441909
 20
-3914.816779420889
 30
0.0
 10
6652.153198032178
 20
-3914.466220534534
 30
0.0
 10
6651.856261665769
 20
-3914.133597702226
 30
0.0
  0
SPLINE
  5
102BD5
330
18
100
AcDbEntity
  8
姿図
100
AcDbSpline
210
0.0
220
0.0
230
1.0
 70
     8
 71
     3
 72
     8
 73
     4
 74
     0
 42
0.000000001
 43
0.0000000001
 40
0.0
 40
0.0
 40
0.0
 40
0.0
 40
1.0
 40
1.0
 40
1.0
 40
1.0
 10
6653.136238180105
 20
-3919.754365026176
 30
0.0
 10
6652.42827105771
 20
-3918.291301875134
 30
0.0
 10
6651.342652568128
 20
-3916.686438593884
 30
0.0
 10
6650.162776266043
 20
-3915.364762161592
 30
0.0
  0
SPLINE
  5
102BD6
330
18
100
AcDbEntity
  8
姿図
100
AcDbSpline
210
0.0
220
0.0
230
1.0
 70
     8
 71
     3
 72
     8
 73
     4
 74
     0
 42
0.000000001
 43
0.0000000001
 40
0.0
 40
0.0
 40
0.0
 40
0.0
 40
1.0
 40
1.0
 40
1.0
 40
1.0
 10
6653.98298087997
 20
-3919.138782796494
 30
0.0
 10
6653.275013757573
 20
-3917.675719645451
 30
0.0
 10
6652.189395267989
 20
-3916.070856364201
 30
0.0
 10
6651.009518965908
 20
-3914.74917993191
 30
0.0
  0
SPLINE
  5
102BD7
330
18
100
AcDbEntity
  8
姿図
100
AcDbSpline
210
0.0
220
0.0
230
1.0
 70
     8
 71
     3
 72
     8
 73
     4
 74
     0
 42
0.000000001
 43
0.0000000001
 40
0.0
 40
0.0
 40
0.0
 40
0.0
 40
1.0
 40
1.0
 40
1.0
 40
1.0
 10
6652.289495480243
 20
-3920.369947255858
 30
0.0
 10
6651.581528357849
 20
-3918.906884104817
 30
0.0
 10
6650.495909868265
 20
-3917.302020823568
 30
0.0
 10
6649.316033566181
 20
-3915.980344391275
 30
0.0
  0
SPLINE
  5
102BD8
330
18
100
AcDbEntity
  8
姿図
100
AcDbSpline
210
0.0
220
0.0
230
1.0
 70
     8
 71
     3
 72
     8
 73
     4
 74
     0
 42
0.000000001
 43
0.0000000001
 40
0.0
 40
0.0
 40
0.0
 40
0.0
 40
1.0
 40
1.0
 40
1.0
 40
1.0
 10
6651.44275278038
 20
-3920.985529485542
 30
0.0
 10
6650.734785657984
 20
-3919.5224663345
 30
0.0
 10
6649.649167168402
 20
-3917.917603053251
 30
0.0
 10
6648.469290866318
 20
-3916.595926620957
 30
0.0
  0
SPLINE
  5
102BD9
330
18
100
AcDbEntity
  8
姿図
100
AcDbSpline
210
0.0
220
0.0
230
1.0
 70
     8
 71
     3
 72
     8
 73
     4
 74
     0
 42
0.000000001
 43
0.0000000001
 40
2.0
 40
2.0
 40
2.0
 40
2.0
 40
2.824645496158407
 40
2.824645496158407
 40
2.824645496158407
 40
2.824645496158407
 10
6634.707020070909
 20
-3926.523149912496
 30
0.0
 10
6630.718792050808
 20
-3921.625182483784
 30
0.0
 10
6628.709764346302
 20
-3916.387883410054
 30
0.0
 10
6629.507482245232
 20
-3913.578237706124
 30
0.0
  0
SPLINE
  5
102BDA
330
18
100
AcDbEntity
  8
姿図
100
AcDbSpline
210
0.0
220
0.0
230
1.0
 70
     8
 71
     3
 72
     8
 73
     4
 74
     0
 42
0.000000001
 43
0.0000000001
 40
1.23496752684258
 40
1.23496752684258
 40
1.23496752684258
 40
1.23496752684258
 40
2.0
 40
2.0
 40
2.0
 40
2.0
 10
6645.670932276373
 20
-3934.234284558192
 30
0.0
 10
6642.738209932702
 20
-3934.002640557291
 30
0.0
 10
6638.407100125401
 20
-3931.067046838977
 30
0.0
 10
6634.707020070909
 20
-3926.523149912496
 30
0.0
  0
SPLINE
  5
102BDB
330
18
100
AcDbEntity
  8
姿図
100
AcDbSpline
210
0.0
220
0.0
230
1.0
 70
     8
 71
     3
 72
     8
 73
     4
 74
     0
 42
0.000000001
 43
0.0000000001
 40
1.159450293756433
 40
1.159450293756433
 40
1.159450293756433
 40
1.159450293756433
 40
2.0
 40
2.0
 40
2.0
 40
2.0
 10
6645.568105051669
 20
-3934.841539320996
 30
0.0
 10
6642.67094102637
 20
-3935.185273098738
 30
0.0
 10
6637.843864045557
 20
-3932.134332141962
 30
0.0
 10
6633.778544844077
 20
-3927.141901937015
 30
0.0
  0
SPLINE
  5
102BDC
330
18
100
AcDbEntity
  8
姿図
100
AcDbSpline
210
0.0
220
0.0
230
1.0
 70
     8
 71
     3
 72
     8
 73
     4
 74
     0
 42
0.000000001
 43
0.0000000001
 40
2.0
 40
2.0
 40
2.0
 40
2.0
 40
2.902988750815928
 40
2.902988750815928
 40
2.902988750815928
 40
2.902988750815928
 10
6633.778544844077
 20
-3927.141901937015
 30
0.0
 10
6629.411425815822
 20
-3921.778616124394
 30
0.0
 10
6627.417427603581
 20
-3916.008461444594
 30
0.0
 10
6628.88306818343
 20
-3913.464325429321
 30
0.0
  0
SPLINE
  5
102BDD
330
18
100
AcDbEntity
  8
姿図
100
AcDbSpline
210
0.0
220
0.0
230
1.0
 70
     8
 71
     3
 72
     8
 73
     4
 74
     0
 42
0.000000001
 43
0.0000000001
 40
2.0
 40
2.0
 40
2.0
 40
2.0
 40
2.965559870294553
 40
2.965559870294553
 40
2.965559870294553
 40
2.965559870294553
 10
6632.850069617245
 20
-3927.760653961537
 30
0.0
 10
6628.180338262704
 20
-3922.025728084654
 30
0.0
 10
6626.224005430626
 20
-3915.825593114503
 30
0.0
 10
6628.309466998193
 20
-3913.601880874627
 30
0.0
  0
SPLINE
  5
102BDE
330
18
100
AcDbEntity
  8
姿図
100
AcDbSpline
210
0.0
220
0.0
230
1.0
 70
     8
 71
     3
 72
     8
 73
     4
 74
     0
 42
0.000000001
 43
0.0000000001
 40
1.076228437347216
 40
1.076228437347216
 40
1.076228437347216
 40
1.076228437347216
 40
2.0
 40
2.0
 40
2.0
 40
2.0
 10
6645.440796627741
 20
-3935.256951429717
 30
0.0
 10
6642.70577976453
 20
-3936.389133473062
 30
0.0
 10
6637.31789138143
 20
-3933.247378919741
 30
0.0
 10
6632.850069617245
 20
-3927.760653961537
 30
0.0
  0
LINE
  5
102BDF
330
18
100
AcDbEntity
  8
姿図
100
AcDbLine
 10
6634.004874048691
 20
-3885.570811196001
 30
0.0
 11
6633.866204259995
 21
-3900.067444560843
 31
0.0
  0
ARC
  5
102BE0
330
18
100
AcDbEntity
  8
姿図
100
AcDbCircle
 10
6654.565561153217
 20
-3886.395289335095
 30
0.0
 40
20.57721114271909
100
AcDbArc
 50
172.8784276235475
 51
177.7036846172146
  0
LINE
  5
102BE1
330
18
100
AcDbEntity
  8
姿図
100
AcDbLine
 10
6637.226412695396
 20
-3860.187634848188
 30
0.0
 11
6634.147096394052
 21
-3883.844227734345
 31
0.0
  0
LINE
  5
102BE2
330
18
100
AcDbEntity
  8
姿図
100
AcDbLine
 10
6639.986658133654
 20
-3857.39084559876
 30
0.0
 11
6637.226412695396
 21
-3860.187634848188
 31
0.0
  0
SPLINE
  5
102BE3
330
18
100
AcDbEntity
  8
姿図
100
AcDbSpline
210
0.0
220
0.0
230
1.0
 70
     8
 71
     3
 72
     8
 73
     4
 74
     0
 42
0.000000001
 43
0.0000000001
 40
0.9008390995991142
 40
0.9008390995991142
 40
0.9008390995991142
 40
0.9008390995991142
 40
1.0
 40
1.0
 40
1.0
 40
1.0
 10
6662.918611816758
 20
-3889.124407068717
 30
0.0
 10
6662.215038956794
 20
-3888.925152889027
 30
0.0
 10
6661.513554568777
 20
-3888.800443345353
 30
0.0
 10
6660.820915679476
 20
-3888.75846523085
 30
0.0
  0
SPLINE
  5
102BE4
330
18
100
AcDbEntity
  8
姿図
100
AcDbSpline
210
0.0
220
0.0
230
1.0
 70
     8
 71
     3
 72
     8
 73
     4
 74
     0
 42
0.000000001
 43
0.0000000001
 40
0.8929159528499462
 40
0.8929159528499462
 40
0.8929159528499462
 40
0.8929159528499462
 40
0.9937027483181298
 40
0.9937027483181298
 40
0.9937027483181298
 40
0.9937027483181298
 10
6663.404798846288
 20
-3888.803176352778
 30
0.0
 10
6662.689394458263
 20
-3888.588600375508
 30
0.0
 10
6661.975589841513
 20
-3888.450357854948
 30
0.0
 10
6661.270479877861
 20
-3888.397044928403
 30
0.0
  0
SPLINE
  5
102BE5
330
18
100
AcDbEntity
  8
姿図
100
AcDbSpline
210
0.0
220
0.0
230
1.0
 70
     8
 71
     3
 72
     8
 73
     4
 74
     0
 42
0.000000001
 43
0.0000000001
 40
0.7499948493015047
 40
0.7499948493015047
 40
0.7499948493015047
 40
0.7499948493015047
 40
1.0
 40
1.0
 40
1.0
 40
1.0
 10
6640.518401862784
 20
-3898.620356456853
 30
0.0
 10
6641.403991738676
 20
-3898.730613335593
 30
0.0
 10
6642.233767852429
 20
-3898.926315960191
 30
0.0
 10
6642.895394846142
 20
-3899.124757548559
 30
0.0
  0
SPLINE
  5
102BE6
330
18
100
AcDbEntity
  8
姿図
100
AcDbSpline
210
0.0
220
0.0
230
1.0
 70
     8
 71
     3
 72
     8
 73
     4
 74
     0
 42
0.000000001
 43
0.0000000001
 40
0.5205796185703948
 40
0.5205796185703948
 40
0.5205796185703948
 40
0.5205796185703948
 40
0.7275812738370321
 40
0.7275812738370321
 40
0.7275812738370321
 40
0.7275812738370321
 10
6638.026244984845
 20
-3898.596589367765
 30
0.0
 10
6638.765995781399
 20
-3898.500372860877
 30
0.0
 10
6639.538153235848
 20
-3898.514766348813
 30
0.0
 10
6640.278951071507
 20
-3898.592821981408
 30
0.0
  0
SPLINE
  5
102BE7
330
18
100
AcDbEntity
  8
姿図
100
AcDbSpline
210
0.0
220
0.0
230
1.0
 70
     8
 71
     3
 72
     8
 73
     4
 74
     0
 42
0.000000001
 43
0.0000000001
 40
0.1347708429978711
 40
0.1347708429978711
 40
0.1347708429978711
 40
0.1347708429978711
 40
0.3019637514920082
 40
0.3019637514920082
 40
0.3019637514920082
 40
0.3019637514920082
 10
6634.640572402093
 20
-3900.59121808395
 30
0.0
 10
6634.961584206234
 20
-3900.048766485604
 30
0.0
 10
6635.381268215762
 20
-3899.635554926005
 30
0.0
 10
6635.866025677376
 20
-3899.326846360464
 30
0.0
  0
SPLINE
  5
102BE8
330
18
100
AcDbEntity
  8
姿図
100
AcDbSpline
210
0.0
220
0.0
230
1.0
 70
     8
 71
     3
 72
     8
 73
     4
 74
     0
 42
0.000000001
 43
0.0000000001
 40
0.3236481002791683
 40
0.3236481002791683
 40
0.3236481002791683
 40
0.3236481002791683
 40
0.5027545820952082
 40
0.5027545820952082
 40
0.5027545820952082
 40
0.5027545820952082
 10
6636.057850375684
 20
-3899.211950653716
 30
0.0
 10
6636.594626879771
 20
-3898.909837790927
 30
0.0
 10
6637.201080261993
 20
-3898.723969733363
 30
0.0
 10
6637.835905437951
 20
-3898.623935658655
 30
0.0
  0
SPLINE
  5
102BE9
330
18
100
AcDbEntity
  8
姿図
100
AcDbSpline
210
0.0
220
0.0
230
1.0
 70
     8
 71
     3
 72
     8
 73
     4
 74
     0
 42
0.000000001
 43
0.0000000001
 40
0.1135589185464528
 40
0.1135589185464528
 40
0.1135589185464528
 40
0.1135589185464528
 40
1.0
 40
1.0
 40
1.0
 40
1.0
 10
6627.294328663018
 20
-3912.514397196042
 30
0.0
 10
6627.023372600983
 20
-3910.293937684488
 30
0.0
 10
6627.432392108296
 20
-3908.54598049472
 30
0.0
 10
6628.616989898226
 20
-3907.593904683975
 30
0.0
  0
LINE
  5
102BEA
330
18
100
AcDbEntity
  8
姿図
100
AcDbLine
 10
6628.400257357285
 20
-3910.824187546756
 30
0.0
 11
6625.989627680636
 21
-3914.508393916888
 31
0.0
  0
LINE
  5
102BEB
330
18
100
AcDbEntity
  8
姿図
100
AcDbLine
 10
6644.505610517619
 20
-3936.712343233787
 30
0.0
 11
6648.489471994581
 21
-3935.062202210016
 31
0.0
  0
LINE
  5
102BEC
330
18
100
AcDbEntity
  8
姿図
100
AcDbLine
 10
6668.966361643019
 20
-3921.765649475642
 30
0.0
 11
6652.068653213368
 21
-3935.507687271572
 31
0.0
  0
SPLINE
  5
102BED
330
18
100
AcDbEntity
  8
姿図
100
AcDbSpline
210
0.0
220
0.0
230
1.0
 70
     8
 71
     3
 72
     8
 73
     4
 74
     0
 42
0.000000001
 43
0.0000000001
 40
2.0
 40
2.0
 40
2.0
 40
2.0
 40
2.739908943303795
 40
2.739908943303795
 40
2.739908943303795
 40
2.739908943303795
 10
6635.731594390414
 20
-3925.839405986058
 30
0.0
 10
6632.15317724783
 20
-3921.444729823517
 30
0.0
 10
6630.168112076915
 20
-3916.776875276061
 30
0.0
 10
6630.374155953847
 20
-3913.83450621936
 30
0.0
  0
SPLINE
  5
102BEE
330
18
100
AcDbEntity
  8
姿図
100
AcDbSpline
210
0.0
220
0.0
230
1.0
 70
     8
 71
     3
 72
     8
 73
     4
 74
     0
 42
0.000000001
 43
0.0000000001
 40
1.3178468911593
 40
1.3178468911593
 40
1.3178468911593
 40
1.3178468911593
 40
2.0
 40
2.0
 40
2.0
 40
2.0
 10
6645.69570650732
 20
-3933.38144511601
 30
0.0
 10
6642.83177353043
 20
-3932.663969218972
 30
0.0
 10
6639.030828345432
 20
-3929.891042385045
 30
0.0
 10
6635.731594390414
 20
-3925.839405986058
 30
0.0
  0
SPLINE
  5
102BEF
330
18
100
AcDbEntity
  8
姿図
100
AcDbSpline
210
0.0
220
0.0
230
1.0
 70
     8
 71
     3
 72
     8
 73
     4
 74
     0
 42
0.000000001
 43
0.0000000001
 40
3.0
 40
3.0
 40
3.0
 40
3.0
 40
3.826631023511638
 40
3.826631023511638
 40
3.826631023511638
 40
3.826631023511638
 10
6627.619634754996
 20
-3913.998061585017
 30
0.0
 10
6627.960690014457
 20
-3913.72022799189
 30
0.0
 10
6628.368130856759
 20
-3913.54239651079
 30
0.0
 10
6628.829931181106
 20
-3913.457795162627
 30
0.0
  0
SPLINE
  5
102BF0
330
18
100
AcDbEntity
  8
姿図
100
AcDbSpline
210
0.0
220
0.0
230
1.0
 70
     8
 71
     3
 72
     8
 73
     4
 74
     0
 42
0.000000001
 43
0.0000000001
 40
2.0
 40
2.0
 40
2.0
 40
2.0
 40
3.0
 40
3.0
 40
3.0
 40
3.0
 10
6631.921594390415
 20
-3928.379405986058
 30
0.0
 10
6627.085300445102
 20
-3922.439923564183
 30
0.0
 10
6625.159423166457
 20
-3916.001453512101
 30
0.0
 10
6627.619634754996
 20
-3913.998061585017
 30
0.0
  0
SPLINE
  5
102BF1
330
18
100
AcDbEntity
  8
姿図
100
AcDbSpline
210
0.0
220
0.0
230
1.0
 70
     8
 71
     3
 72
     8
 73
     4
 74
     0
 42
0.000000001
 43
0.0000000001
 40
1.0
 40
1.0
 40
1.0
 40
1.0
 40
2.0
 40
2.0
 40
2.0
 40
2.0
 10
6645.133191070101
 20
-3935.507032939183
 30
0.0
 10
6642.67277277583
 20
-3937.510424866266
 30
0.0
 10
6636.758095041456
 20
-3934.318888407934
 30
0.0
 10
6631.921594390415
 20
-3928.379405986058
 30
0.0
  0
SPLINE
  5
102BF2
330
18
100
AcDbEntity
  8
姿図
100
AcDbSpline
210
0.0
220
0.0
230
1.0
 70
     8
 71
     3
 72
     8
 73
     4
 74
     0
 42
0.000000001
 43
0.0000000001
 40
0.6362648236157415
 40
0.6362648236157415
 40
0.6362648236157415
 40
0.6362648236157415
 40
1.0
 40
1.0
 40
1.0
 40
1.0
 10
6645.471718598197
 20
-3935.171168214649
 30
0.0
 10
6645.36987403037
 20
-3935.293966013971
 30
0.0
 10
6645.257097836828
 20
-3935.406133132783
 30
0.0
 10
6645.133191070101
 20
-3935.507032939183
 30
0.0
  0
SPLINE
  5
102BF3
330
18
100
AcDbEntity
  8
姿図
100
AcDbSpline
210
0.0
220
0.0
230
1.0
 70
     8
 71
     3
 72
     8
 73
     4
 74
     0
 42
0.000000001
 43
0.0000000001
 40
2.0
 40
2.0
 40
2.0
 40
2.0
 40
3.0
 40
3.0
 40
3.0
 40
3.0
 10
6643.733793283642
 20
-3918.6654769496
 30
0.0
 10
6649.187103830518
 20
-3925.44955898085
 30
0.0
 10
6651.315966135206
 20
-3932.790506246475
 30
0.0
 10
6648.489471994581
 20
-3935.062202210016
 30
0.0
  0
SPLINE
  5
102BF4
330
18
100
AcDbEntity
  8
姿図
100
AcDbSpline
210
0.0
220
0.0
230
1.0
 70
     8
 71
     3
 72
     8
 73
     4
 74
     0
 42
0.000000001
 43
0.0000000001
 40
1.0
 40
1.0
 40
1.0
 40
1.0
 40
2.0
 40
2.0
 40
2.0
 40
2.0
 10
6628.743080393018
 20
-3910.49729335585
 30
0.0
 10
6631.569574533643
 20
-3908.22518398085
 30
0.0
 10
6638.280689442498
 20
-3911.882635152725
 30
0.0
 10
6643.733793283642
 20
-3918.6654769496
 30
0.0
  0
SPLINE
  5
102BF5
330
18
100
AcDbEntity
  8
姿図
100
AcDbSpline
210
0.0
220
0.0
230
1.0
 70
     8
 71
     3
 72
     8
 73
     4
 74
     0
 42
0.000000001
 43
0.0000000001
 40
0.4978953282410408
 40
0.4978953282410408
 40
0.4978953282410408
 40
0.4978953282410408
 40
1.0
 40
1.0
 40
1.0
 40
1.0
 10
6628.400257357285
 20
-3910.824187546756
 30
0.0
 10
6628.505134466115
 20
-3910.705843901394
 30
0.0
 10
6628.619365201565
 20
-3910.596722175827
 30
0.0
 10
6628.743080393018
 20
-3910.49729335585
 30
0.0
  0
SPLINE
  5
102BF6
330
18
100
AcDbEntity
  8
姿図
100
AcDbSpline
210
0.0
220
0.0
230
1.0
 70
     8
 71
     3
 72
     8
 73
     4
 74
     0
 42
0.000000001
 43
0.0000000001
 40
2.0
 40
2.0
 40
2.0
 40
2.0
 40
3.0
 40
3.0
 40
3.0
 40
3.0
 10
6645.864515939893
 20
-3917.118904683975
 30
0.0
 10
6652.172761382601
 20
-3924.966694397516
 30
0.0
 10
6654.677414702914
 20
-3933.424679423559
 30
0.0
 10
6651.460040028434
 20
-3936.01139491835
 30
0.0
  0
SPLINE
  5
102BF7
330
18
100
AcDbEntity
  8
姿図
100
AcDbSpline
210
0.0
220
0.0
230
1.0
 70
     8
 71
     3
 72
     8
 73
     4
 74
     0
 42
0.000000001
 43
0.0000000001
 40
1.0
 40
1.0
 40
1.0
 40
1.0
 40
2.0
 40
2.0
 40
2.0
 40
2.0
 10
6628.616989898226
 20
-3907.593904683975
 30
0.0
 10
6631.834777984164
 20
-3905.007189189183
 30
0.0
 10
6639.556270497185
 20
-3909.271941793349
 30
0.0
 10
6645.864515939893
 20
-3917.118904683975
 30
0.0
  0
SPLINE
  5
102BF8
330
18
100
AcDbEntity
  8
姿図
100
AcDbSpline
210
0.0
220
0.0
230
1.0
 70
     8
 71
     3
 72
     8
 73
     4
 74
     0
 42
0.000000001
 43
0.0000000001
 40
0.0314141688692975
 40
0.0314141688692975
 40
0.0314141688692975
 40
0.0314141688692975
 40
1.0
 40
1.0
 40
1.0
 40
1.0
 10
6661.434727761116
 20
-3915.200440094303
 30
0.0
 10
6664.095051502587
 20
-3920.591191228814
 30
0.0
 10
6664.570716432198
 20
-3925.344406368214
 30
0.0
 10
6662.230235340934
 20
-3927.226401428768
 30
0.0
  0
SPLINE
  5
102BF9
330
18
100
AcDbEntity
  8
姿図
100
AcDbSpline
210
0.0
220
0.0
230
1.0
 70
     8
 71
     3
 72
     8
 73
     4
 74
     0
 42
0.000000001
 43
0.0000000001
 40
2.0
 40
2.0
 40
2.0
 40
2.0
 40
2.352974808949073
 40
2.352974808949073
 40
2.352974808949073
 40
2.352974808949073
 10
6652.439825184683
 20
-3911.907026428767
 30
0.0
 10
6652.521907339353
 20
-3912.009173110133
 30
0.0
 10
6652.60334565107
 20
-3912.111422806371
 30
0.0
 10
6652.684131029422
 20
-3912.213757336654
 30
0.0
  0
SPLINE
  5
102BFA
330
18
100
AcDbEntity
  8
姿図
100
AcDbSpline
210
0.0
220
0.0
230
1.0
 70
     8
 71
     3
 72
     8
 73
     4
 74
     0
 42
0.000000001
 43
0.0000000001
 40
1.0
 40
1.0
 40
1.0
 40
1.0
 40
2.0
 40
2.0
 40
2.0
 40
2.0
 10
6634.826430002393
 20
-3902.448999085017
 30
0.0
 10
6638.184984689893
 20
-3899.749008850642
 30
0.0
 10
6646.070394846143
 20
-3903.98358241835
 30
0.0
 10
6652.439825184683
 20
-3911.907026428767
 30
0.0
  0
SPLINE
  5
102BFB
330
18
100
AcDbEntity
  8
姿図
100
AcDbSpline
210
0.0
220
0.0
230
1.0
 70
     8
 71
     3
 72
     8
 73
     4
 74
     0
 42
0.000000001
 43
0.0000000001
 40
0.4974871343792461
 40
0.4974871343792461
 40
0.4974871343792461
 40
0.4974871343792461
 40
1.0
 40
1.0
 40
1.0
 40
1.0
 10
6634.389215899686
 20
-3902.870443675664
 30
0.0
 10
6634.522148929904
 20
-3902.717263109727
 30
0.0
 10
6634.667817018153
 20
-3902.576554255053
 30
0.0
 10
6634.826430002393
 20
-3902.448999085017
 30
0.0
  0
SPLINE
  5
102BFC
330
18
100
AcDbEntity
  8
姿図
100
AcDbSpline
210
0.0
220
0.0
230
1.0
 70
     8
 71
     3
 72
     8
 73
     4
 74
     0
 42
0.000000001
 43
0.0000000001
 40
0.0255782183397865
 40
0.0255782183397865
 40
0.0255782183397865
 40
0.0255782183397865
 40
0.8472868564555627
 40
0.8472868564555627
 40
0.8472868564555627
 40
0.8472868564555627
 10
6656.984806313383
 20
-3918.893794207578
 30
0.0
 10
6659.309845205342
 20
-3923.516725065189
 30
0.0
 10
6660.045312029777
 20
-3927.696213068621
 30
0.0
 10
6658.795888090131
 20
-3930.036772897387
 30
0.0
  0
SPLINE
  5
102BFD
330
18
100
AcDbEntity
  8
姿図
100
AcDbSpline
210
0.0
220
0.0
230
1.0
 70
     8
 71
     3
 72
     8
 73
     4
 74
     0
 42
0.000000001
 43
0.0000000001
 40
72.0
 40
72.0
 40
72.0
 40
72.0
 40
73.0
 40
73.0
 40
73.0
 40
73.0
 10
6658.574851226353
 20
-3867.336516988662
 30
0.0
 10
6659.343796538851
 20
-3871.942747457413
 30
0.0
 10
6660.064786122184
 20
-3875.960486715225
 30
0.0
 10
6659.946550445102
 20
-3875.604952861058
 30
0.0
  0
SPLINE
  5
102BFE
330
18
100
AcDbEntity
  8
姿図
100
AcDbSpline
210
0.0
220
0.0
230
1.0
 70
     8
 71
     3
 72
     8
 73
     4
 74
     0
 42
0.000000001
 43
0.0000000001
 40
71.47263318210159
 40
71.47263318210159
 40
71.47263318210159
 40
71.47263318210159
 40
72.0
 40
72.0
 40
72.0
 40
72.0
 10
6656.994255058977
 20
-3857.922331353152
 30
0.0
 10
6657.466406222666
 20
-3860.65423277407
 30
0.0
 10
6658.043537740763
 20
-3864.153323494065
 30
0.0
 10
6658.574851226353
 20
-3867.336516988662
 30
0.0
  0
SPLINE
  5
102BFF
330
18
100
AcDbEntity
  8
姿図
100
AcDbSpline
210
0.0
220
0.0
230
1.0
 70
     8
 71
     3
 72
     8
 73
     4
 74
     0
 42
0.000000001
 43
0.0000000001
 40
66.0
 40
66.0
 40
66.0
 40
66.0
 40
66.3929652655638
 40
66.3929652655638
 40
66.3929652655638
 40
66.3929652655638
 10
6637.651270497185
 20
-3859.306619527725
 30
0.0
 10
6637.775468371798
 20
-3859.182421653111
 30
0.0
 10
6638.553384776158
 20
-3858.404409489201
 30
0.0
 10
6639.528753812967
 20
-3857.43276247171
 30
0.0
  0
SPLINE
  5
102C00
330
18
100
AcDbEntity
  8
姿図
100
AcDbSpline
210
0.0
220
0.0
230
1.0
 70
     8
 71
     3
 72
    11
 73
     7
 74
     0
 42
0.000000001
 43
0.0000000001
 40
64.0
 40
64.0
 40
64.0
 40
64.0
 40
65.0
 40
65.0
 40
65.0
 40
66.0
 40
66.0
 40
66.0
 40
66.0
 10
6636.359566395622
 20
-3865.897431702204
 30
0.0
 10
6636.453410796665
 20
-3864.778533590224
 30
0.0
 10
6637.145874989372
 20
-3860.444121155329
 30
0.0
 10
6637.145874989372
 20
-3860.128068095433
 30
0.0
 10
6637.145874989372
 20
-3859.812221741267
 30
0.0
 10
6637.335424143017
 20
-3859.62267258762
 30
0.0
 10
6637.651270497185
 20
-3859.306619527725
 30
0.0
  0
SPLINE
  5
102C01
330
18
100
AcDbEntity
  8
姿図
100
AcDbSpline
210
0.0
220
0.0
230
1.0
 70
     8
 71
     3
 72
     8
 73
     4
 74
     0
 42
0.000000001
 43
0.0000000001
 40
63.0
 40
63.0
 40
63.0
 40
63.0
 40
64.0
 40
64.0
 40
64.0
 40
64.0
 10
6634.63626073156
 20
-3878.086455139704
 30
0.0
 10
6634.997995757602
 20
-3875.552863017308
 30
0.0
 10
6636.31533136958
 20
-3866.472693746475
 30
0.0
 10
6636.359566395622
 20
-3865.897431702204
 30
0.0
  0
SPLINE
  5
102C02
330
18
100
AcDbEntity
  8
姿図
100
AcDbSpline
210
0.0
220
0.0
230
1.0
 70
     8
 71
     3
 72
     8
 73
     4
 74
     0
 42
0.000000001
 43
0.0000000001
 40
62.0
 40
62.0
 40
62.0
 40
62.0
 40
63.0
 40
63.0
 40
63.0
 40
63.0
 10
6634.026478830518
 20
-3882.197211975641
 30
0.0
 10
6634.063685861769
 20
-3881.749694071996
 30
0.0
 10
6634.274318999789
 20
-3880.6200472621
 30
0.0
 10
6634.63626073156
 20
-3878.086455139704
 30
0.0
  0
SPLINE
  5
102C03
330
18
100
AcDbEntity
  8
姿図
100
AcDbSpline
210
0.0
220
0.0
230
1.0
 70
     8
 71
     3
 72
    11
 73
     7
 74
     0
 42
0.000000001
 43
0.0000000001
 40
60.0
 40
60.0
 40
60.0
 40
60.0
 40
61.0
 40
61.0
 40
61.0
 40
62.0
 40
62.0
 40
62.0
 40
62.0
 10
6633.770163726353
 20
-3900.258331767308
 30
0.0
 10
6633.790007476353
 20
-3899.805232808975
 30
0.0
 10
6633.750526682081
 20
-3885.309786845434
 30
0.0
 10
6633.750526682081
 20
-3885.013784241267
 30
0.0
 10
6633.750526682081
 20
-3884.442656311579
 30
0.0
 10
6633.967360991977
 20
-3882.906212626684
 30
0.0
 10
6634.026478830518
 20
-3882.197211975641
 30
0.0
  0
SPLINE
  5
102C04
330
18
100
AcDbEntity
  8
姿図
100
AcDbSpline
210
0.0
220
0.0
230
1.0
 70
     8
 71
     3
 72
     8
 73
     4
 74
     0
 42
0.000000001
 43
0.0000000001
 40
59.0
 40
59.0
 40
59.0
 40
59.0
 40
60.0
 40
60.0
 40
60.0
 40
60.0
 10
6633.060749663851
 20
-3903.862452861058
 30
0.0
 10
6632.981994781039
 20
-3903.153452210017
 30
0.0
 10
6633.395819650832
 20
-3900.868940491266
 30
0.0
 10
6633.770163726353
 20
-3900.258331767308
 30
0.0
  0
SPLINE
  5
102C05
330
18
100
AcDbEntity
  8
姿図
100
AcDbSpline
210
0.0
220
0.0
230
1.0
 70
     8
 71
     3
 72
     8
 73
     4
 74
     0
 42
0.000000001
 43
0.0000000001
 40
58.0
 40
58.0
 40
58.0
 40
58.0
 40
59.0
 40
59.0
 40
59.0
 40
59.0
 10
6629.178609364371
 20
-3907.073006246475
 30
0.0
 10
6629.592434234164
 20
-3906.816691142309
 30
0.0
 10
6632.784797515415
 20
-3904.098924215225
 30
0.0
 10
6634.389215899686
 20
-3902.870443675664
 30
0.0
  0
SPLINE
  5
102C06
330
18
100
AcDbEntity
  8
姿図
100
AcDbSpline
210
0.0
220
0.0
230
1.0
 70
     8
 71
     3
 72
     8
 73
     4
 74
     0
 42
0.000000001
 43
0.0000000001
 40
57.49842627354067
 40
57.49842627354067
 40
57.49842627354067
 40
57.49842627354067
 40
58.0
 40
58.0
 40
58.0
 40
58.0
 10
6628.536152426052
 20
-3907.661140916412
 30
0.0
 10
6628.743617143653
 20
-3907.418949225838
 30
0.0
 10
6628.97104568233
 20
-3907.201359812094
 30
0.0
 10
6629.178609364371
 20
-3907.073006246475
 30
0.0
  0
SPLINE
  5
102C07
330
18
100
AcDbEntity
  8
姿図
100
AcDbSpline
210
0.0
220
0.0
230
1.0
 70
     8
 71
     3
 72
     8
 73
     4
 74
     0
 42
0.000000001
 43
0.0000000001
 40
54.0
 40
54.0
 40
54.0
 40
54.0
 40
55.0
 40
55.0
 40
55.0
 40
55.0
 10
6625.631332346144
 20
-3917.097820699601
 30
0.0
 10
6625.640634103955
 20
-3916.368149475642
 30
0.0
 10
6625.631332346144
 20
-3915.226720439184
 30
0.0
 10
6625.989627680636
 20
-3914.508393916888
 30
0.0
  0
SPLINE
  5
102C08
330
18
100
AcDbEntity
  8
姿図
100
AcDbSpline
210
0.0
220
0.0
230
1.0
 70
     8
 71
     3
 72
     8
 73
     4
 74
     0
 42
0.000000001
 43
0.0000000001
 40
53.0
 40
53.0
 40
53.0
 40
53.0
 40
54.0
 40
54.0
 40
54.0
 40
54.0
 10
6627.799055327914
 20
-3923.893064840226
 30
0.0
 10
6626.925103504997
 20
-3922.431655335016
 30
0.0
 10
6625.610248361769
 20
-3918.746092183976
 30
0.0
 10
6625.631332346144
 20
-3917.097820699601
 30
0.0
  0
SPLINE
  5
102C09
330
18
100
AcDbEntity
  8
姿図
100
AcDbSpline
210
0.0
220
0.0
230
1.0
 70
     8
 71
     3
 72
     8
 73
     4
 74
     0
 42
0.000000001
 43
0.0000000001
 40
52.0
 40
52.0
 40
52.0
 40
52.0
 40
53.0
 40
53.0
 40
53.0
 40
53.0
 10
6632.233099924269
 20
-3930.195522522517
 30
0.0
 10
6631.188615874788
 20
-3929.32901210585
 30
0.0
 10
6627.999559885206
 20
-3924.434220439183
 30
0.0
 10
6627.799055327914
 20
-3923.893064840226
 30
0.0
  0
SPLINE
  5
102C0A
330
18
100
AcDbEntity
  8
姿図
100
AcDbSpline
210
0.0
220
0.0
230
1.0
 70
     8
 71
     3
 72
     8
 73
     4
 74
     0
 42
0.000000001
 43
0.0000000001
 40
51.0
 40
51.0
 40
51.0
 40
51.0
 40
52.0
 40
52.0
 40
52.0
 40
52.0
 10
6637.356921538852
 20
-3934.9423128871
 30
0.0
 10
6635.760533192497
 20
-3933.91787929335
 30
0.0
 10
6632.489208322706
 20
-3930.727169657934
 30
0.0
 10
6632.233099924269
 20
-3930.195522522517
 30
0.0
  0
SPLINE
  5
102C0B
330
18
100
AcDbEntity
  8
姿図
100
AcDbSpline
210
0.0
220
0.0
230
1.0
 70
     8
 71
     3
 72
     8
 73
     4
 74
     0
 42
0.000000001
 43
0.0000000001
 40
50.0
 40
50.0
 40
50.0
 40
50.0
 40
51.0
 40
51.0
 40
51.0
 40
51.0
 10
6642.99295995031
 20
-3937.108588928766
 30
0.0
 10
6640.805393218539
 20
-3937.24666835585
 30
0.0
 10
6637.906552072705
 20
-3935.299913798559
 30
0.0
 10
6637.356921538852
 20
-3934.9423128871
 30
0.0
  0
SPLINE
  5
102C0C
330
18
100
AcDbEntity
  8
姿図
100
AcDbSpline
210
0.0
220
0.0
230
1.0
 70
     8
 71
     3
 72
     8
 73
     4
 74
     0
 42
0.000000001
 43
0.0000000001
 40
49.44813687454683
 40
49.44813687454683
 40
49.44813687454683
 40
49.44813687454683
 40
50.0
 40
50.0
 40
50.0
 40
50.0
 10
6644.505610517619
 20
-3936.712343233787
 30
0.0
 10
6643.946188846803
 20
-3936.92724848033
 30
0.0
 10
6643.373508378187
 20
-3937.086915007514
 30
0.0
 10
6642.99295995031
 20
-3937.108588928766
 30
0.0
  0
SPLINE
  5
102C0D
330
18
100
AcDbEntity
  8
姿図
100
AcDbSpline
210
0.0
220
0.0
230
1.0
 70
     8
 71
     3
 72
     8
 73
     4
 74
     0
 42
0.000000001
 43
0.0000000001
 40
48.0
 40
48.0
 40
48.0
 40
48.0
 40
48.9548784250406
 40
48.9548784250406
 40
48.9548784250406
 40
48.9548784250406
 10
6650.087307281039
 20
-3936.655903381892
 30
0.0
 10
6648.431298804097
 20
-3936.99421071556
 30
0.0
 10
6646.541772531746
 20
-3936.470820421625
 30
0.0
 10
6645.825723037455
 20
-3936.165544145108
 30
0.0
  0
SPLINE
  5
102C0E
330
18
100
AcDbEntity
  8
姿図
100
AcDbSpline
210
0.0
220
0.0
230
1.0
 70
     8
 71
     3
 72
     8
 73
     4
 74
     0
 42
0.000000001
 43
0.0000000001
 40
47.15182875302986
 40
47.15182875302986
 40
47.15182875302986
 40
47.15182875302986
 40
48.0
 40
48.0
 40
48.0
 40
48.0
 10
6652.068653214137
 20
-3935.507687270843
 30
0.0
 10
6651.447656429447
 20
-3936.096013905752
 30
0.0
 10
6650.739153941882
 20
-3936.538788382042
 30
0.0
 10
6650.087307281039
 20
-3936.655903381892
 30
0.0
  0
SPLINE
  5
102C0F
330
18
100
AcDbEntity
  8
姿図
100
AcDbSpline
210
0.0
220
0.0
230
1.0
 70
     8
 71
     3
 72
     8
 73
     4
 74
     0
 42
0.000000001
 43
0.0000000001
 40
40.0
 40
40.0
 40
40.0
 40
40.0
 40
41.0
 40
41.0
 40
41.0
 40
41.0
 10
6670.010638986769
 20
-3920.308374085017
 30
0.0
 10
6669.596814116976
 20
-3921.293120178767
 30
0.0
 10
6669.321068674268
 20
-3921.411355855849
 30
0.0
 10
6668.966361643019
 20
-3921.765649475642
 30
0.0
  0
SPLINE
  5
102C10
330
18
100
AcDbEntity
  8
姿図
100
AcDbSpline
210
0.0
220
0.0
230
1.0
 70
     8
 71
     3
 72
    11
 73
     7
 74
     0
 42
0.000000001
 43
0.0000000001
 40
38.0
 40
38.0
 40
38.0
 40
38.0
 40
39.0
 40
39.0
 40
39.0
 40
40.0
 40
40.0
 40
40.0
 40
40.0
 10
6671.015642241977
 20
-3916.881193095433
 30
0.0
 10
6670.247110340935
 20
-3917.373566142308
 30
0.0
 10
6670.444307606558
 20
-3917.590193746475
 30
0.0
 10
6670.444307606558
 20
-3917.905626689184
 30
0.0
 10
6670.444307606558
 20
-3918.220646220433
 30
0.0
 10
6670.338474273227
 20
-3919.605988017308
 30
0.0
 10
6670.010638986769
 20
-3920.308374085017
 30
0.0
  0
SPLINE
  5
102C11
330
18
100
AcDbEntity
  8
姿図
100
AcDbSpline
210
0.0
220
0.0
230
1.0
 70
     8
 71
     3
 72
     8
 73
     4
 74
     0
 42
0.000000001
 43
0.0000000001
 40
37.0
 40
37.0
 40
37.0
 40
37.0
 40
38.0
 40
38.0
 40
38.0
 40
38.0
 10
6682.741231434684
 20
-3905.55619960585
 30
0.0
 10
6679.469906564893
 20
-3909.455909892309
 30
0.0
 10
6671.508428700308
 20
-3916.723683329808
 30
0.0
 10
6671.015642241977
 20
-3916.881193095433
 30
0.0
  0
SPLINE
  5
102C12
330
18
100
AcDbEntity
  8
姿図
100
AcDbSpline
210
0.0
220
0.0
230
1.0
 70
     8
 71
     3
 72
     8
 73
     4
 74
     0
 42
0.000000001
 43
0.0000000001
 40
36.0
 40
36.0
 40
36.0
 40
36.0
 40
37.0
 40
37.0
 40
37.0
 40
37.0
 10
6686.347419585727
 20
-3901.321626038141
 30
0.0
 10
6686.091104481562
 20
-3901.63705898085
 30
0.0
 10
6683.076094715934
 20
-3905.182062236057
 30
0.0
 10
6682.741231434684
 20
-3905.55619960585
 30
0.0
  0
SPLINE
  5
102C13
330
18
100
AcDbEntity
  8
姿図
100
AcDbSpline
210
0.0
220
0.0
230
1.0
 70
     8
 71
     3
 72
     8
 73
     4
 74
     0
 42
0.000000001
 43
0.0000000001
 40
35.0
 40
35.0
 40
35.0
 40
35.0
 40
36.0
 40
36.0
 40
36.0
 40
36.0
 10
6686.170066070103
 20
-3900.395997782934
 30
0.0
 10
6686.623165028435
 20
-3900.789978902725
 30
0.0
 10
6686.603734689894
 20
-3901.006606506891
 30
0.0
 10
6686.347419585727
 20
-3901.321626038141
 30
0.0
  0
SPLINE
  5
102C14
330
18
100
AcDbEntity
  8
姿図
100
AcDbSpline
210
0.0
220
0.0
230
1.0
 70
     8
 71
     3
 72
     8
 73
     4
 74
     0
 42
0.000000001
 43
0.0000000001
 40
34.0
 40
34.0
 40
34.0
 40
34.0
 40
35.0
 40
35.0
 40
35.0
 40
35.0
 10
6688.022562814893
 20
-3898.859760803766
 30
0.0
 10
6687.766247710726
 20
-3899.076388407934
 30
0.0
 10
6686.347419585727
 20
-3900.277762105849
 30
0.0
 10
6686.170066070103
 20
-3900.395997782934
 30
0.0
  0
SPLINE
  5
102C15
330
18
100
AcDbEntity
  8
姿図
100
AcDbSpline
210
0.0
220
0.0
230
1.0
 70
     8
 71
     3
 72
     8
 73
     4
 74
     0
 42
0.000000001
 43
0.0000000001
 40
33.0
 40
33.0
 40
33.0
 40
33.0
 40
34.0
 40
34.0
 40
34.0
 40
34.0
 10
6688.022562814893
 20
-3898.150760152726
 30
0.0
 10
6688.337582346143
 20
-3898.426505595433
 30
0.0
 10
6688.278464507603
 20
-3898.6431331996
 30
0.0
 10
6688.022562814893
 20
-3898.859760803766
 30
0.0
  0
SPLINE
  5
102C16
330
18
100
AcDbEntity
  8
姿図
100
AcDbSpline
210
0.0
220
0.0
230
1.0
 70
     8
 71
     3
 72
     8
 73
     4
 74
     0
 42
0.000000001
 43
0.0000000001
 40
32.0
 40
32.0
 40
32.0
 40
32.0
 40
33.0
 40
33.0
 40
33.0
 40
33.0
 10
6688.909330393019
 20
-3897.402485413142
 30
0.0
 10
6688.672859038852
 20
-3897.579425517308
 30
0.0
 10
6688.120954741977
 20
-3898.052368225642
 30
0.0
 10
6688.022562814893
 20
-3898.150760152726
 30
0.0
  0
SPLINE
  5
102C17
330
18
100
AcDbEntity
  8
姿図
100
AcDbSpline
210
0.0
220
0.0
230
1.0
 70
     8
 71
     3
 72
     8
 73
     4
 74
     0
 42
0.000000001
 43
0.0000000001
 40
31.0
 40
31.0
 40
31.0
 40
31.0
 40
32.0
 40
32.0
 40
32.0
 40
32.0
 10
6688.988291981561
 20
-3896.772032939183
 30
0.0
 10
6689.145801747185
 20
-3896.98866054335
 30
0.0
 10
6689.145801747185
 20
-3897.225131897517
 30
0.0
 10
6688.909330393019
 20
-3897.402485413142
 30
0.0
  0
SPLINE
  5
102C18
330
18
100
AcDbEntity
  8
姿図
100
AcDbSpline
210
0.0
220
0.0
230
1.0
 70
     8
 71
     3
 72
     8
 73
     4
 74
     0
 42
0.000000001
 43
0.0000000001
 40
30.0
 40
30.0
 40
30.0
 40
30.0
 40
31.0
 40
31.0
 40
31.0
 40
31.0
 10
6688.574467111768
 20
-3896.791876689183
 30
0.0
 10
6688.613741200308
 20
-3896.712915100641
 30
0.0
 10
6688.830368804476
 20
-3896.555405335017
 30
0.0
 10
6688.988291981561
 20
-3896.772032939183
 30
0.0
  0
SPLINE
  5
102C19
330
18
100
AcDbEntity
  8
姿図
100
AcDbSpline
210
0.0
220
0.0
230
1.0
 70
     8
 71
     3
 72
     8
 73
     4
 74
     0
 42
0.000000001
 43
0.0000000001
 40
29.0
 40
29.0
 40
29.0
 40
29.0
 40
30.0
 40
30.0
 40
30.0
 40
30.0
 10
6688.219760080519
 20
-3896.161424215225
 30
0.0
 10
6688.298308257603
 20
-3896.33877773085
 30
0.0
 10
6688.515349273228
 20
-3896.673641012099
 30
0.0
 10
6688.574467111768
 20
-3896.791876689183
 30
0.0
  0
SPLINE
  5
102C1A
330
18
100
AcDbEntity
  8
姿図
100
AcDbSpline
210
0.0
220
0.0
230
1.0
 70
     8
 71
     3
 72
     8
 73
     4
 74
     0
 42
0.000000001
 43
0.0000000001
 40
28.0
 40
28.0
 40
28.0
 40
28.0
 40
29.0
 40
29.0
 40
29.0
 40
29.0
 10
6688.870056304477
 20
-3895.66905116835
 30
0.0
 10
6688.653015288852
 20
-3895.807130595433
 30
0.0
 10
6688.357426096143
 20
-3896.082876038142
 30
0.0
 10
6688.219760080519
 20
-3896.161424215225
 30
0.0
  0
SPLINE
  5
102C1B
330
18
100
AcDbEntity
  8
姿図
100
AcDbSpline
210
0.0
220
0.0
230
1.0
 70
     8
 71
     3
 72
     8
 73
     4
 74
     0
 42
0.000000001
 43
0.0000000001
 40
27.0
 40
27.0
 40
27.0
 40
27.0
 40
28.0
 40
28.0
 40
28.0
 40
28.0
 10
6688.810938465935
 20
-3894.841814840225
 30
0.0
 10
6689.165645497185
 20
-3895.275070048559
 30
0.0
 10
6689.086683908645
 20
-3895.531385152725
 30
0.0
 10
6688.870056304477
 20
-3895.66905116835
 30
0.0
  0
SPLINE
  5
102C1C
330
18
100
AcDbEntity
  8
姿図
100
AcDbSpline
210
0.0
220
0.0
230
1.0
 70
     8
 71
     3
 72
     8
 73
     4
 74
     0
 42
0.000000001
 43
0.0000000001
 40
26.0
 40
26.0
 40
26.0
 40
26.0
 40
27.0
 40
27.0
 40
27.0
 40
27.0
 10
6687.766247710726
 20
-3893.226822978246
 30
0.0
 10
6687.88448338781
 20
-3893.463087626683
 30
0.0
 10
6688.703451486768
 20
-3894.710763407933
 30
0.0
 10
6688.810938465935
 20
-3894.841814840225
 30
0.0
  0
SPLINE
  5
102C1D
330
18
100
AcDbEntity
  8
姿図
100
AcDbSpline
210
0.0
220
0.0
230
1.0
 70
     8
 71
     3
 72
    11
 73
     7
 74
     0
 42
0.000000001
 43
0.0000000001
 40
24.0
 40
24.0
 40
24.0
 40
24.0
 40
25.0
 40
25.0
 40
25.0
 40
26.0
 40
26.0
 40
26.0
 40
26.0
 10
6688.298308257603
 20
-3891.789184631892
 30
0.0
 10
6688.574467111768
 20
-3892.557096415746
 30
0.0
 10
6688.534779611768
 20
-3892.537459371475
 30
0.0
 10
6688.298308257603
 20
-3892.734449931371
 30
0.0
 10
6688.061836903435
 20
-3892.931440491267
 30
0.0
 10
6687.88448338781
 20
-3893.148068095434
 30
0.0
 10
6687.766247710726
 20
-3893.226822978246
 30
0.0
  0
SPLINE
  5
102C1E
330
18
100
AcDbEntity
  8
姿図
100
AcDbSpline
210
0.0
220
0.0
230
1.0
 70
     8
 71
     3
 72
     8
 73
     4
 74
     0
 42
0.000000001
 43
0.0000000001
 40
23.0
 40
23.0
 40
23.0
 40
23.0
 40
24.0
 40
24.0
 40
24.0
 40
24.0
 10
6686.504929351351
 20
-3888.283248759496
 30
0.0
 10
6687.175069325309
 20
-3889.09084804335
 30
0.0
 10
6688.042406564893
 20
-3891.296604879288
 30
0.0
 10
6688.298308257603
 20
-3891.789184631892
 30
0.0
  0
SPLINE
  5
102C1F
330
18
100
AcDbEntity
  8
姿図
100
AcDbSpline
210
0.0
220
0.0
230
1.0
 70
     8
 71
     3
 72
     8
 73
     4
 74
     0
 42
0.000000001
 43
0.0000000001
 40
22.0
 40
22.0
 40
22.0
 40
22.0
 40
23.0
 40
23.0
 40
23.0
 40
23.0
 10
6683.864470366976
 20
-3884.935029358454
 30
0.0
 10
6684.534610340936
 20
-3885.545431376684
 30
0.0
 10
6686.112188465933
 20
-3887.708193420954
 30
0.0
 10
6686.504929351351
 20
-3888.283248759496
 30
0.0
  0
SPLINE
  5
102C20
330
18
100
AcDbEntity
  8
姿図
100
AcDbSpline
210
0.0
220
0.0
230
1.0
 70
     8
 71
     3
 72
     8
 73
     4
 74
     0
 42
0.000000001
 43
0.0000000001
 40
21.0
 40
21.0
 40
21.0
 40
21.0
 40
22.0
 40
22.0
 40
22.0
 40
22.0
 10
6683.036820627392
 20
-3884.678920960017
 30
0.0
 10
6683.430801747185
 20
-3884.344057678767
 30
0.0
 10
6683.602367502393
 20
-3884.664658264704
 30
0.0
 10
6683.864470366976
 20
-3884.935029358454
 30
0.0
  0
SPLINE
  5
102C21
330
18
100
AcDbEntity
  8
姿図
100
AcDbSpline
210
0.0
220
0.0
230
1.0
 70
     8
 71
     3
 72
     8
 73
     4
 74
     0
 42
0.000000001
 43
0.0000000001
 40
20.0
 40
20.0
 40
20.0
 40
20.0
 40
21.0
 40
21.0
 40
21.0
 40
21.0
 10
6682.563877919059
 20
-3885.09253912408
 30
0.0
 10
6682.721387684685
 20
-3884.974303446997
 30
0.0
 10
6682.887992502394
 20
-3884.805218160537
 30
0.0
 10
6683.036820627392
 20
-3884.678920960017
 30
0.0
  0
SPLINE
  5
102C22
330
18
100
AcDbEntity
  8
姿図
100
AcDbSpline
210
0.0
220
0.0
230
1.0
 70
     8
 71
     3
 72
     8
 73
     4
 74
     0
 42
0.000000001
 43
0.0000000001
 40
19.0
 40
19.0
 40
19.0
 40
19.0
 40
20.0
 40
20.0
 40
20.0
 40
20.0
 10
6681.046244455518
 20
-3882.689791728246
 30
0.0
 10
6681.223597971144
 20
-3882.926056376684
 30
0.0
 10
6682.405954741977
 20
-3884.875911519913
 30
0.0
 10
6682.563877919059
 20
-3885.09253912408
 30
0.0
  0
SPLINE
  5
102C23
330
18
100
AcDbEntity
  8
姿図
100
AcDbSpline
210
0.0
220
0.0
230
1.0
 70
     8
 71
     3
 72
     8
 73
     4
 74
     0
 42
0.000000001
 43
0.0000000001
 40
18.0
 40
18.0
 40
18.0
 40
18.0
 40
19.0
 40
19.0
 40
19.0
 40
19.0
 10
6680.316986643018
 20
-3882.47295741835
 30
0.0
 10
6680.829616851352
 20
-3882.079183004287
 30
0.0
 10
6680.868890939893
 20
-3882.453320374079
 30
0.0
 10
6681.046244455518
 20
-3882.689791728246
 30
0.0
  0
SPLINE
  5
102C24
330
18
100
AcDbEntity
  8
姿図
100
AcDbSpline
210
0.0
220
0.0
230
1.0
 70
     8
 71
     3
 72
     8
 73
     4
 74
     0
 42
0.000000001
 43
0.0000000001
 40
17.0
 40
17.0
 40
17.0
 40
17.0
 40
18.0
 40
18.0
 40
18.0
 40
18.0
 10
6679.725808257601
 20
-3882.886575582413
 30
0.0
 10
6679.942849273226
 20
-3882.729065816788
 30
0.0
 10
6680.159476877394
 20
-3882.610830139703
 30
0.0
 10
6680.316986643018
 20
-3882.47295741835
 30
0.0
  0
SPLINE
  5
102C25
330
18
100
AcDbEntity
  8
姿図
100
AcDbSpline
210
0.0
220
0.0
230
1.0
 70
     8
 71
     3
 72
     8
 73
     4
 74
     0
 42
0.000000001
 43
0.0000000001
 40
16.0
 40
16.0
 40
16.0
 40
16.0
 40
17.0
 40
17.0
 40
17.0
 40
17.0
 10
6678.839040679477
 20
-3881.5080550746
 30
0.0
 10
6679.0362379451
 20
-3881.842711650121
 30
0.0
 10
6679.568298491977
 20
-3882.689791728246
 30
0.0
 10
6679.725808257601
 20
-3882.886575582413
 30
0.0
  0
SPLINE
  5
102C26
330
18
100
AcDbEntity
  8
姿図
100
AcDbSpline
210
0.0
220
0.0
230
1.0
 70
     8
 71
     3
 72
     8
 73
     4
 74
     0
 42
0.000000001
 43
0.0000000001
 40
15.0
 40
15.0
 40
15.0
 40
15.0
 40
16.0
 40
16.0
 40
16.0
 40
16.0
 10
6678.070508778435
 20
-3881.291220764704
 30
0.0
 10
6678.425215809684
 20
-3880.976201233454
 30
0.0
 10
6678.642256825311
 20
-3881.172985087621
 30
0.0
 10
6678.839040679477
 20
-3881.5080550746
 30
0.0
  0
SPLINE
  5
102C27
330
18
100
AcDbEntity
  8
姿図
100
AcDbSpline
210
0.0
220
0.0
230
1.0
 70
     8
 71
     3
 72
     8
 73
     4
 74
     0
 42
0.000000001
 43
0.0000000001
 40
14.0
 40
14.0
 40
14.0
 40
14.0
 40
15.0
 40
15.0
 40
15.0
 40
15.0
 10
6677.519017893017
 20
-3881.685201884497
 30
0.0
 10
6677.676527658643
 20
-3881.566966207413
 30
0.0
 10
6677.898943023227
 20
-3881.443976298558
 30
0.0
 10
6678.070508778435
 20
-3881.291220764704
 30
0.0
  0
SPLINE
  5
102C28
330
18
100
AcDbEntity
  8
姿図
100
AcDbSpline
210
0.0
220
0.0
230
1.0
 70
     8
 71
     3
 72
     8
 73
     4
 74
     0
 42
0.000000001
 43
0.0000000001
 40
13.0
 40
13.0
 40
13.0
 40
13.0
 40
14.0
 40
14.0
 40
14.0
 40
14.0
 10
6677.105193023226
 20
-3881.054956116267
 30
0.0
 10
6677.321820627392
 20
-3881.370182353246
 30
0.0
 10
6677.400782215936
 20
-3881.5080550746
 30
0.0
 10
6677.519017893017
 20
-3881.685201884497
 30
0.0
  0
SPLINE
  5
102C29
330
18
100
AcDbEntity
  8
姿図
100
AcDbSpline
210
0.0
220
0.0
230
1.0
 70
     8
 71
     3
 72
     8
 73
     4
 74
     0
 42
0.000000001
 43
0.0000000001
 40
12.0
 40
12.0
 40
12.0
 40
12.0
 40
13.0
 40
13.0
 40
13.0
 40
13.0
 10
6676.336661122185
 20
-3880.79884771783
 30
0.0
 10
6676.829034169059
 20
-3880.48382818658
 30
0.0
 10
6676.888152007601
 20
-3880.739729879288
 30
0.0
 10
6677.105193023226
 20
-3881.054956116267
 30
0.0
  0
SPLINE
  5
102C2A
330
18
100
AcDbEntity
  8
姿図
100
AcDbSpline
210
0.0
220
0.0
230
1.0
 70
     8
 71
     3
 72
     8
 73
     4
 74
     0
 42
0.000000001
 43
0.0000000001
 40
11.0
 40
11.0
 40
11.0
 40
11.0
 40
12.0
 40
12.0
 40
12.0
 40
12.0
 10
6675.74506932531
 20
-3881.212465881892
 30
0.0
 10
6676.009652658642
 20
-3881.029531311578
 30
0.0
 10
6676.142771148225
 20
-3880.9226644496
 30
0.0
 10
6676.336661122185
 20
-3880.79884771783
 30
0.0
  0
SPLINE
  5
102C2B
330
18
100
AcDbEntity
  8
姿図
100
AcDbSpline
210
0.0
220
0.0
230
1.0
 70
     8
 71
     3
 72
     8
 73
     4
 74
     0
 42
0.000000001
 43
0.0000000001
 40
10.0
 40
10.0
 40
10.0
 40
10.0
 40
11.0
 40
11.0
 40
11.0
 40
11.0
 10
6674.34608495031
 20
-3881.271583720434
 30
0.0
 10
6675.291970366976
 20
-3880.424710348037
 30
0.0
 10
6675.311814116976
 20
-3880.601857157933
 30
0.0
 10
6675.74506932531
 20
-3881.212465881892
 30
0.0
  0
SPLINE
  5
102C2C
330
18
100
AcDbEntity
  8
姿図
100
AcDbSpline
210
0.0
220
0.0
230
1.0
 70
     8
 71
     3
 72
     8
 73
     4
 74
     0
 42
0.000000001
 43
0.0000000001
 40
9.0
 40
9.0
 40
9.0
 40
9.0
 40
10.0
 40
10.0
 40
10.0
 40
10.0
 10
6673.460557606559
 20
-3881.483663798558
 30
0.0
 10
6673.903321278434
 20
-3881.184353902725
 30
0.0
 10
6674.075300445102
 20
-3880.921010803767
 30
0.0
 10
6674.34608495031
 20
-3881.271583720434
 30
0.0
  0
SPLINE
  5
102C2D
330
18
100
AcDbEntity
  8
姿図
100
AcDbSpline
210
0.0
220
0.0
230
1.0
 70
     8
 71
     3
 72
     8
 73
     4
 74
     0
 42
0.000000001
 43
0.0000000001
 40
8.0
 40
8.0
 40
8.0
 40
8.0
 40
9.0
 40
9.0
 40
9.0
 40
9.0
 10
6668.870036773227
 20
-3884.723982808975
 30
0.0
 10
6669.185469715936
 20
-3884.552003642308
 30
0.0
 10
6673.130241851351
 20
-3881.706699280329
 30
0.0
 10
6673.460557606559
 20
-3881.483663798558
 30
0.0
  0
SPLINE
  5
102C2E
330
18
100
AcDbEntity
  8
姿図
100
AcDbSpline
210
0.0
220
0.0
230
1.0
 70
     8
 71
     3
 72
     8
 73
     4
 74
     0
 42
0.000000001
 43
0.0000000001
 40
7.0
 40
7.0
 40
7.0
 40
7.0
 40
8.0
 40
8.0
 40
8.0
 40
8.0
 10
6666.229991200309
 20
-3884.552003642308
 30
0.0
 10
6666.574362945103
 20
-3884.609261129287
 30
0.0
 10
6668.382211252392
 20
-3884.552003642308
 30
0.0
 10
6668.870036773227
 20
-3884.723982808975
 30
0.0
  0
SPLINE
  5
102C2F
330
18
100
AcDbEntity
  8
姿図
100
AcDbSpline
210
0.0
220
0.0
230
1.0
 70
     8
 71
     3
 72
     8
 73
     4
 74
     0
 42
0.000000001
 43
0.0000000001
 40
6.0
 40
6.0
 40
6.0
 40
6.0
 40
7.0
 40
7.0
 40
7.0
 40
7.0
 10
6664.938907215936
 20
-3884.351085673559
 30
0.0
 10
6665.713640288852
 20
-3884.093116923558
 30
0.0
 10
6665.914558257602
 20
-3884.408549866267
 30
0.0
 10
6666.229991200309
 20
-3884.552003642308
 30
0.0
  0
SPLINE
  5
102C30
330
18
100
AcDbEntity
  8
姿図
100
AcDbSpline
210
0.0
220
0.0
230
1.0
 70
     8
 71
     3
 72
     8
 73
     4
 74
     0
 42
0.000000001
 43
0.0000000001
 40
5.0
 40
5.0
 40
5.0
 40
5.0
 40
6.0
 40
6.0
 40
6.0
 40
6.0
 10
6660.032540028435
 20
-3886.444601298559
 30
0.0
 10
6660.290922189892
 20
-3886.301147522517
 30
0.0
 10
6664.164174143018
 20
-3884.609261129287
 30
0.0
 10
6664.938907215936
 20
-3884.351085673559
 30
0.0
  0
SPLINE
  5
102C31
330
18
100
AcDbEntity
  8
姿図
100
AcDbSpline
210
0.0
220
0.0
230
1.0
 70
     8
 71
     3
 72
     8
 73
     4
 74
     0
 42
0.000000001
 43
0.0000000001
 40
4.0
 40
4.0
 40
4.0
 40
4.0
 40
5.0
 40
5.0
 40
5.0
 40
5.0
 10
6660.778334299268
 20
-3885.756477926163
 30
0.0
 10
6660.548890939894
 20
-3885.928457092829
 30
0.0
 10
6660.2045191951
 20
-3886.272622131892
 30
0.0
 10
6660.032540028435
 20
-3886.444601298559
 30
0.0
  0
SPLINE
  5
102C32
330
18
100
AcDbEntity
  8
姿図
100
AcDbSpline
210
0.0
220
0.0
230
1.0
 70
     8
 71
     3
 72
     8
 73
     4
 74
     0
 42
0.000000001
 43
0.0000000001
 40
3.0
 40
3.0
 40
3.0
 40
3.0
 40
4.0
 40
4.0
 40
4.0
 40
4.0
 10
6660.749808908644
 20
-3885.182869527725
 30
0.0
 10
6661.295098622184
 20
-3885.555559957413
 30
0.0
 10
6661.008191070101
 20
-3885.584292053767
 30
0.0
 10
6660.778334299268
 20
-3885.756477926163
 30
0.0
  0
SPLINE
  5
102C33
330
18
100
AcDbEntity
  8
姿図
100
AcDbSpline
210
0.0
220
0.0
230
1.0
 70
     8
 71
     3
 72
     8
 73
     4
 74
     0
 42
0.000000001
 43
0.0000000001
 40
2.0
 40
2.0
 40
2.0
 40
2.0
 40
3.0
 40
3.0
 40
3.0
 40
3.0
 10
6660.032540028435
 20
-3884.752714905329
 30
0.0
 10
6660.319447580518
 20
-3884.895961975642
 30
0.0
 10
6660.579069976353
 20
-3885.066080790746
 30
0.0
 10
6660.749808908644
 20
-3885.182869527725
 30
0.0
  0
SPLINE
  5
102C34
330
18
100
AcDbEntity
  8
姿図
100
AcDbSpline
210
0.0
220
0.0
230
1.0
 70
     8
 71
     3
 72
     8
 73
     4
 74
     0
 42
0.000000001
 43
0.0000000001
 40
1.0
 40
1.0
 40
1.0
 40
1.0
 40
2.0
 40
2.0
 40
2.0
 40
2.0
 10
6660.147055002393
 20
-3878.157148499079
 30
0.0
 10
6660.118529611769
 20
-3878.759282288142
 30
0.0
 10
6660.032540028435
 20
-3884.465807353246
 30
0.0
 10
6660.032540028435
 20
-3884.752714905329
 30
0.0
  0
SPLINE
  5
102C35
330
18
100
AcDbEntity
  8
姿図
100
AcDbSpline
210
0.0
220
0.0
230
1.0
 70
     8
 71
     3
 72
     8
 73
     4
 74
     0
 42
0.000000001
 43
0.0000000001
 40
0.0
 40
0.0
 40
0.0
 40
0.0
 40
1.0
 40
1.0
 40
1.0
 40
1.0
 10
6659.946550445102
 20
-3875.604952861058
 30
0.0
 10
6660.2045191951
 20
-3876.379272522517
 30
0.0
 10
6660.175993804476
 20
-3877.555014710018
 30
0.0
 10
6660.147055002393
 20
-3878.157148499079
 30
0.0
  0
SPLINE
  5
102C36
330
18
100
AcDbEntity
  8
姿図
100
AcDbSpline
210
0.0
220
0.0
230
1.0
 70
     8
 71
     3
 72
     8
 73
     4
 74
     0
 42
0.000000001
 43
0.0000000001
 40
11.31492350031425
 40
11.31492350031425
 40
11.31492350031425
 40
11.31492350031425
 40
12.0
 40
12.0
 40
12.0
 40
12.0
 10
6648.09266804962
 20
-3857.15070102364
 30
0.0
 10
6649.410761862724
 20
-3863.103116992644
 30
0.0
 10
6651.597624812497
 20
-3873.084473943721
 30
0.0
 10
6652.195499012811
 20
-3876.455340230849
 30
0.0
  0
SPLINE
  5
102C37
330
18
100
AcDbEntity
  8
姿図
100
AcDbSpline
210
0.0
220
0.0
230
1.0
 70
     8
 71
     3
 72
     8
 73
     4
 74
     0
 42
0.000000001
 43
0.0000000001
 40
7.0
 40
7.0
 40
7.0
 40
7.0
 40
8.0
 40
8.0
 40
8.0
 40
8.0
 10
6641.637797189895
 20
-3882.700127014704
 30
0.0
 10
6641.734535471143
 20
-3881.638279683975
 30
0.0
 10
6644.782411447706
 20
-3866.281697652725
 30
0.0
 10
6645.356846669059
 20
-3863.589355530329
 30
0.0
  0
SPLINE
  5
102C38
330
18
100
AcDbEntity
  8
姿図
100
AcDbSpline
210
0.0
220
0.0
230
1.0
 70
     8
 71
     3
 72
     8
 73
     4
 74
     0
 42
0.000000001
 43
0.0000000001
 40
6.0
 40
6.0
 40
6.0
 40
6.0
 40
7.0
 40
7.0
 40
7.0
 40
7.0
 10
6641.106976877392
 20
-3886.030363017308
 30
0.0
 10
6641.155346018018
 20
-3885.596074280329
 30
0.0
 10
6641.300040028436
 20
-3883.520542053767
 30
0.0
 10
6641.637797189895
 20
-3882.700127014704
 30
0.0
  0
SPLINE
  5
102C39
330
18
100
AcDbEntity
  8
姿図
100
AcDbSpline
210
0.0
220
0.0
230
1.0
 70
     8
 71
     3
 72
     8
 73
     4
 74
     0
 42
0.000000001
 43
0.0000000001
 40
5.0
 40
5.0
 40
5.0
 40
5.0
 40
6.0
 40
6.0
 40
6.0
 40
6.0
 10
6640.867094468791
 20
-3894.543827886849
 30
0.0
 10
6640.913913726352
 20
-3893.800844788141
 30
0.0
 10
6641.058814442498
 20
-3886.464651754287
 30
0.0
 10
6641.106976877392
 20
-3886.030363017308
 30
0.0
  0
SPLINE
  5
102C3A
330
18
100
AcDbEntity
  8
姿図
100
AcDbSpline
210
0.0
220
0.0
230
1.0
 70
     8
 71
     3
 72
     8
 73
     4
 74
     0
 42
0.000000001
 43
0.0000000001
 40
3.0
 40
3.0
 40
3.0
 40
3.0
 40
4.0
 40
4.0
 40
4.0
 40
4.0
 10
6649.119304351352
 20
-3889.650193746475
 30
0.0
 10
6648.636646473748
 20
-3889.60182460585
 30
0.0
 10
6647.574799143018
 20
-3889.843256897517
 30
0.0
 10
6646.898871408644
 20
-3890.277545634495
 30
0.0
  0
SPLINE
  5
102C3B
330
18
100
AcDbEntity
  8
姿図
100
AcDbSpline
210
0.0
220
0.0
230
1.0
 70
     8
 71
     3
 72
     8
 73
     4
 74
     0
 42
0.000000001
 43
0.0000000001
 40
2.0
 40
2.0
 40
2.0
 40
2.0
 40
3.0
 40
3.0
 40
3.0
 40
3.0
 10
6652.304846343539
 20
-3887.574868225642
 30
0.0
 10
6651.966882476352
 20
-3887.816093811579
 30
0.0
 10
6649.45706151281
 20
-3889.60182460585
 30
0.0
 10
6649.119304351352
 20
-3889.650193746475
 30
0.0
  0
SPLINE
  5
102C3C
330
18
100
AcDbEntity
  8
姿図
100
AcDbSpline
210
0.0
220
0.0
230
1.0
 70
     8
 71
     3
 72
     8
 73
     4
 74
     0
 42
0.000000001
 43
0.0000000001
 40
1.0
 40
1.0
 40
1.0
 40
1.0
 40
2.0
 40
2.0
 40
2.0
 40
2.0
 10
6670.807282866976
 20
-3914.924516663141
 30
0.0
 10
6670.66258885656
 20
-3914.152264058975
 30
0.0
 10
6670.421569976352
 20
-3912.752452861058
 30
0.0
 10
6670.259926096143
 20
-3912.141430725642
 30
0.0
  0
SPLINE
  5
102C3D
330
18
100
AcDbEntity
  8
姿図
100
AcDbSpline
210
0.0
220
0.0
230
1.0
 70
     8
 71
     3
 72
     8
 73
     4
 74
     0
 42
0.000000001
 43
0.0000000001
 40
0.0
 40
0.0
 40
0.0
 40
0.0
 40
1.0
 40
1.0
 40
1.0
 40
1.0
 10
6673.124040679475
 20
-3912.816945048558
 30
0.0
 10
6672.689545236768
 20
-3913.251440491266
 30
0.0
 10
6671.241778309686
 20
-3914.683084371475
 30
0.0
 10
6670.807282866976
 20
-3914.924516663141
 30
0.0
  0
LINE
  5
102C3E
330
18
100
AcDbEntity
  8
姿図
100
AcDbLine
 10
6648.428145919263
 20
-3857.159251742413
 30
0.0
 11
6652.618832346143
 21
-3876.349506897516
 31
0.0
  0
LINE
  5
102C3F
330
18
100
AcDbEntity
  8
姿図
100
AcDbLine
 10
6653.253832346143
 20
-3876.349506897516
 30
0.0
 11
6659.603832346143
 21
-3876.349506897516
 31
0.0
  0
LINE
  5
102C40
330
18
100
AcDbEntity
  8
姿図
100
AcDbLine
 10
6652.618832346143
 20
-3876.349506897516
 30
0.0
 11
6653.003098296664
 21
-3915.702143616267
 31
0.0
  0
LINE
  5
102C41
330
18
100
AcDbEntity
  8
姿図
100
AcDbLine
 10
6652.195499012811
 20
-3876.455340230849
 30
0.0
 11
6652.734380848748
 21
-3915.891072652725
 31
0.0
  0
LINE
  5
102C42
330
18
100
AcDbEntity
  8
姿図
100
AcDbLine
 10
6660.032540028435
 20
-3884.752714905256
 30
0.0
 11
6659.10608495031
 21
-3915.891072652725
 31
0.0
  0
ELLIPSE
  5
102C43
330
18
100
AcDbEntity
  8
姿図
100
AcDbEllipse
 10
6656.158785805759
 20
-3915.666687036286
 30
0.0
 11
0.0
 21
-1.864072265625
 31
0.0
210
0.0
220
0.0
230
1.0
 40
0.9621867376358393
 41
0.0
 42
6.283185307179586
  0
ARC
  5
102C44
330
18
100
AcDbEntity
  8
姿図
100
AcDbCircle
 10
6656.188950347445
 20
-3915.702143616267
 30
0.0
 40
3.18585205078125
100
AcDbArc
 50
180.0
 51
302.1550360248395
  0
ARC
  5
102C45
330
18
100
AcDbEntity
  8
姿図
100
AcDbCircle
 10
6655.920232899529
 20
-3915.891072652725
 30
0.0
 40
3.18585205078125
100
AcDbArc
 50
180.0
 51
0.0
  0
LINE
  5
102C46
330
18
100
AcDbEntity
  8
姿図
100
AcDbLine
 10
6652.625446929476
 20
-3912.633390361058
 30
0.0
 11
6647.764141590935
 21
-3916.550877340226
 31
0.0
  0
LINE
  5
102C47
330
18
100
AcDbEntity
  8
姿図
100
AcDbLine
 10
6654.749348296664
 20
-3918.910629944393
 30
0.0
 11
6651.256641590935
 21
-3921.553982808976
 31
0.0
  0
SPLINE
  5
102C48
330
18
100
AcDbEntity
  8
姿図
100
AcDbSpline
210
0.0
220
0.0
230
1.0
 70
     8
 71
     3
 72
     8
 73
     4
 74
     0
 42
0.000000001
 43
0.0000000001
 40
0.0
 40
0.0
 40
0.0
 40
0.0
 40
1.0
 40
1.0
 40
1.0
 40
1.0
 10
6650.549997293447
 20
-3921.506900647533
 30
0.0
 10
6649.888042958122
 20
-3920.138048564184
 30
0.0
 10
6648.80242446854
 20
-3918.533185282933
 30
0.0
 10
6647.622548166455
 20
-3917.211508850642
 30
0.0
  0
ELLIPSE
  5
102C49
330
18
100
AcDbEntity
  8
姿図
100
AcDbEllipse
 10
6670.863300119581
 20
-3902.678029032933
 30
0.0
 11
0.0006201171875
 21
-1.7809765625
 31
0.0
210
0.0
220
0.0
230
1.0
 40
0.8332172196870808
 41
0.0
 42
6.283185307179586
  0
ELLIPSE
  5
102C4A
330
18
100
AcDbEntity
  8
姿図
100
AcDbEllipse
 10
6670.76449478104
 20
-3902.678029032933
 30
0.0
 11
-0.0002067057291666667
 21
-2.62185546875
 31
0.0
210
0.0
220
0.0
230
1.0
 40
0.8490223877744999
 41
0.0
 42
6.283185307179586
  0
LINE
  5
102C4B
330
18
100
AcDbEntity
  8
姿図
100
AcDbLine
 10
6668.538480783644
 20
-3899.858976298558
 30
0.0
 11
6659.536032866978
 21
-3907.624910543351
 31
0.0
  0
LINE
  5
102C4C
330
18
100
AcDbEntity
  8
姿図
100
AcDbLine
 10
6672.49565526281
 20
-3905.794738017309
 30
0.0
 11
6658.535882613789
 21
-3917.709871669043
 31
0.0
  0
SPLINE
  5
102C4D
330
18
100
AcDbEntity
  8
姿図
100
AcDbSpline
210
0.0
220
0.0
230
1.0
 70
     8
 71
     3
 72
     8
 73
     4
 74
     0
 42
0.000000001
 43
0.0000000001
 40
0.0
 40
0.0
 40
0.0
 40
0.0
 40
1.0
 40
1.0
 40
1.0
 40
1.0
 10
6668.538480783644
 20
-3899.858976298558
 30
0.0
 10
6672.198825835727
 20
-3897.088706116268
 30
0.0
 10
6675.809974924268
 20
-3902.826857157934
 30
0.0
 10
6672.49565526281
 20
-3905.794738017308
 30
0.0
  0
SPLINE
  5
102C4E
330
18
100
AcDbEntity
  8
姿図
100
AcDbSpline
210
0.0
220
0.0
230
1.0
 70
     8
 71
     3
 72
     8
 73
     4
 74
     0
 42
0.000000001
 43
0.0000000001
 40
0.0
 40
0.0
 40
0.0
 40
0.0
 40
1.0
 40
1.0
 40
1.0
 40
1.0
 10
6664.331192372185
 20
-3901.714366923558
 30
0.0
 10
6663.061192372184
 20
-3899.95034023085
 30
0.0
 10
6661.438138986767
 20
-3898.116033590225
 30
0.0
 10
6659.81549901281
 20
-3897.057700256892
 30
0.0
  0
SPLINE
  5
102C4F
330
18
100
AcDbEntity
  8
姿図
100
AcDbSpline
210
0.0
220
0.0
230
1.0
 70
     8
 71
     3
 72
     8
 73
     4
 74
     0
 42
0.000000001
 43
0.0000000001
 40
0.0
 40
0.0
 40
0.0
 40
0.0
 40
1.0
 40
1.0
 40
1.0
 40
1.0
 10
6663.30799901281
 20
-3901.996313538141
 30
0.0
 10
6662.108692372185
 20
-3900.444366923558
 30
0.0
 10
6660.979665679477
 20
-3899.209506897518
 30
0.0
 10
6659.780359038852
 20
-3898.257006897516
 30
0.0
  0
SPLINE
  5
102C50
330
18
100
AcDbEntity
  8
姿図
100
AcDbSpline
210
0.0
220
0.0
230
1.0
 70
     8
 71
     3
 72
     8
 73
     4
 74
     0
 42
0.000000001
 43
0.0000000001
 40
0.0
 40
0.0
 40
0.0
 40
0.0
 40
1.0
 40
1.0
 40
1.0
 40
1.0
 10
6663.30799901281
 20
-3901.996313538141
 30
0.0
 10
6663.625499012809
 20
-3902.384506897517
 30
0.0
 10
6663.872305653435
 20
-3902.349366923559
 30
0.0
 10
6664.542859038851
 20
-3902.137700256892
 30
0.0
  0
LINE
  5
102C51
330
18
100
AcDbEntity
  8
姿図
100
AcDbLine
 10
6664.472165679477
 20
-3902.137700256892
 30
0.0
 11
6668.035359038851
 21
-3900.267840230849
 31
0.0
  0
LINE
  5
102C52
330
18
100
AcDbEntity
  8
姿図
100
AcDbLine
 10
6664.507305653435
 20
-3901.85534023085
 30
0.0
 11
6668.740638986768
 21
-3899.703533590226
 31
0.0
  0
SPLINE
  5
102C53
330
18
100
AcDbEntity
  8
姿図
100
AcDbSpline
210
0.0
220
0.0
230
1.0
 70
     8
 71
     3
 72
     8
 73
     4
 74
     0
 42
0.000000001
 43
0.0000000001
 40
0.0
 40
0.0
 40
0.0
 40
0.0
 40
1.0
 40
1.0
 40
1.0
 40
1.0
 10
6646.820736643018
 20
-3901.418364319391
 30
0.0
 10
6646.350877625082
 20
-3900.749702697725
 30
0.0
 10
6636.499919585727
 20
-3894.53775071262
 30
0.0
 10
6633.770163726353
 20
-3900.258331767308
 30
0.0
  0
LINE
  5
102C54
330
18
100
AcDbEntity
  8
姿図
100
AcDbLine
 10
6646.820736643018
 20
-3901.418364319391
 30
0.0
 11
6652.422048491977
 21
-3897.184204163142
 31
0.0
  0
LINE
  5
102C55
330
18
100
AcDbEntity
  8
姿図
100
AcDbLine
 10
6642.160945112462
 20
-3903.014368163314
 30
0.0
 11
6645.497613270622
 21
-3900.58037929335
 31
0.0
  0
LINE
  5
102C56
330
18
100
AcDbEntity
  8
姿図
100
AcDbLine
 10
6646.820736643018
 20
-3901.418364319391
 30
0.0
 11
6648.717261708123
 21
-3902.344405986059
 31
0.0
  0
LINE
  5
102C57
330
18
100
AcDbEntity
  8
姿図
100
AcDbLine
 10
6648.717261708123
 20
-3902.344405986059
 30
0.0
 11
6652.422048491977
 21
-3899.1689925746
 31
0.0
  0
LINE
  5
102C58
330
18
100
AcDbEntity
  8
姿図
100
AcDbLine
 10
6643.60108820552
 20
-3899.389340881892
 30
0.0
 11
6642.160945112462
 21
-3903.014368163314
 31
0.0
  0
LINE
  5
102C59
330
18
100
AcDbEntity
  8
姿図
100
AcDbLine
 10
6643.336298166456
 20
-3899.301284241267
 30
0.0
 11
6641.927186245724
 21
-3902.89693343783
 31
0.0
  0
LINE
  5
102C5A
330
18
100
AcDbEntity
  8
姿図
100
AcDbLine
 10
6640.60178807531
 20
-3898.286772522517
 30
0.0
 11
6639.674007766247
 21
-3901.998328621816
 31
0.0
  0
LINE
  5
102C5B
330
18
100
AcDbEntity
  8
姿図
100
AcDbLine
 10
6640.38123306229
 20
-3898.198302470433
 30
0.0
 11
6639.414963492683
 21
-3901.925373044202
 31
0.0
  0
LINE
  5
102C5C
330
18
100
AcDbEntity
  8
姿図
100
AcDbLine
 10
6639.674007766247
 20
-3901.998328621816
 30
0.0
 11
6642.807131499789
 21
-3899.124757548559
 31
0.0
  0
SPLINE
  5
102C5D
330
18
100
AcDbEntity
  8
姿図
100
AcDbSpline
210
0.0
220
0.0
230
1.0
 70
     8
 71
     3
 72
     8
 73
     4
 74
     0
 42
0.000000001
 43
0.0000000001
 40
0.0
 40
0.0
 40
0.0
 40
0.0
 40
0.1035150188635144
 40
0.1035150188635144
 40
0.1035150188635144
 40
0.1035150188635144
 10
6634.074227853955
 20
-3902.16787929335
 30
0.0
 10
6634.160971889734
 20
-3901.693076591349
 30
0.0
 10
6634.295921577639
 20
-3901.275458851972
 30
0.0
 10
6634.471102853957
 20
-3900.909155179699
 30
0.0
  0
LINE
  5
102C5E
330
18
100
AcDbEntity
  8
姿図
100
AcDbLine
 10
6638.131861317497
 20
-3897.977954163141
 30
0.0
 11
6637.507387183425
 21
-3901.63573770841
 31
0.0
  0
LINE
  5
102C5F
330
18
100
AcDbEntity
  8
姿図
100
AcDbLine
 10
6637.955541330517
 20
-3897.977954163141
 30
0.0
 11
6637.27804306227
 21
-3901.636148498785
 31
0.0
  0
LINE
  5
102C60
330
18
100
AcDbEntity
  8
姿図
100
AcDbLine
 10
6636.103044585725
 20
-3898.727882548558
 30
0.0
 11
6635.807101883331
 21
-3901.897678481441
 31
0.0
  0
LINE
  5
102C61
330
18
100
AcDbEntity
  8
姿図
100
AcDbLine
 10
6635.926517893018
 20
-3898.815939189184
 30
0.0
 11
6635.549046976354
 21
-3902.003995639502
 31
0.0
  0
LINE
  5
102C62
330
18
100
AcDbEntity
  8
姿図
100
AcDbLine
 10
6634.647629546664
 20
-3900.183090881892
 30
0.0
 11
6634.605085596071
 21
-3902.643483090061
 31
0.0
  0
LINE
  5
102C63
330
18
100
AcDbEntity
  8
姿図
100
AcDbLine
 10
6634.471102853957
 20
-3900.315382548559
 30
0.0
 11
6634.471102853957
 21
-3902.779396484254
 31
0.0
  0
SPLINE
  5
102C64
330
18
100
AcDbEntity
  8
姿図
100
AcDbSpline
210
0.0
220
0.0
230
1.0
 70
     8
 71
     3
 72
     8
 73
     4
 74
     0
 42
0.000000001
 43
0.0000000001
 40
0.0717464482443993
 40
0.0717464482443993
 40
0.0717464482443993
 40
0.0717464482443993
 40
0.9757260756061246
 40
0.9757260756061246
 40
0.9757260756061246
 40
0.9757260756061246
 10
6649.952985214302
 20
-3901.28525380719
 30
0.0
 10
6650.818569354036
 20
-3901.93408798067
 30
0.0
 10
6651.693427223203
 20
-3902.663082101779
 30
0.0
 10
6652.564579638412
 20
-3903.464906749313
 30
0.0
  0
LINE
  5
102C65
330
18
100
AcDbEntity
  8
姿図
100
AcDbLine
 10
6646.898871408644
 20
-3890.277545634496
 30
0.0
 11
6634.835317528938
 21
-3898.8101101392
 31
0.0
  0
SPLINE
  5
102C66
330
18
100
AcDbEntity
  8
姿図
100
AcDbSpline
210
0.0
220
0.0
230
1.0
 70
     8
 71
     3
 72
     8
 73
     4
 74
     0
 42
0.000000001
 43
0.0000000001
 40
0.0
 40
0.0
 40
0.0
 40
0.0
 40
1.0
 40
1.0
 40
1.0
 40
1.0
 10
6670.398832346144
 20
-3917.41284023085
 30
0.0
 10
6670.299613596144
 20
-3913.6648519496
 30
0.0
 10
6669.147849273226
 20
-3911.360909892308
 30
0.0
 10
6668.493832346143
 20
-3910.216173564183
 30
0.0
  0
SPLINE
  5
102C67
330
18
100
AcDbEntity
  8
姿図
100
AcDbSpline
210
0.0
220
0.0
230
1.0
 70
     8
 71
     3
 72
     8
 73
     4
 74
     0
 42
0.000000001
 43
0.0000000001
 40
0.0
 40
0.0
 40
0.0
 40
0.0
 40
1.0
 40
1.0
 40
1.0
 40
1.0
 10
6668.54674901281
 20
-3910.259168355849
 30
0.0
 10
6668.296221669059
 20
-3909.708090881892
 30
0.0
 10
6668.636459299269
 20
-3908.956922262099
 30
0.0
 10
6668.747253570102
 20
-3908.956922262099
 30
0.0
  0
SPLINE
  5
102C68
330
18
100
AcDbEntity
  8
姿図
100
AcDbSpline
210
0.0
220
0.0
230
1.0
 70
     8
 71
     3
 72
     8
 73
     4
 74
     0
 42
0.000000001
 43
0.0000000001
 40
0.0
 40
0.0
 40
0.0
 40
0.0
 40
1.0
 40
1.0
 40
1.0
 40
1.0
 10
6670.398832346144
 20
-3917.41284023085
 30
0.0
 10
6670.398832346144
 20
-3916.037420308975
 30
0.0
 10
6670.581560210725
 20
-3914.924516663141
 30
0.0
 10
6670.807282866976
 20
-3914.924516663141
 30
0.0
  0
SPLINE
  5
102C69
330
18
100
AcDbEntity
  8
姿図
100
AcDbSpline
210
0.0
220
0.0
230
1.0
 70
     8
 71
     3
 72
     8
 73
     4
 74
     0
 42
0.000000001
 43
0.0000000001
 40
0.0
 40
0.0
 40
0.0
 40
0.0
 40
1.0
 40
1.0
 40
1.0
 40
1.0
 10
6670.249590809684
 20
-3912.262560282933
 30
0.0
 10
6669.999063465933
 20
-3910.659764058975
 30
0.0
 10
6669.448399403434
 20
-3909.457976949599
 30
0.0
 10
6668.947344715934
 20
-3908.806853902724
 30
0.0
  0
SPLINE
  5
102C6A
330
18
100
AcDbEntity
  8
姿図
100
AcDbSpline
210
0.0
220
0.0
230
1.0
 70
     8
 71
     3
 72
     8
 73
     4
 74
     0
 42
0.000000001
 43
0.0000000001
 40
0.0
 40
0.0
 40
0.0
 40
0.0
 40
1.0
 40
1.0
 40
1.0
 40
1.0
 10
6677.862149403434
 20
-3906.502911845433
 30
0.0
 10
6676.109284820101
 20
-3909.808549866266
 30
0.0
 10
6674.907084299268
 20
-3911.31088710585
 30
0.0
 10
6673.104196929477
 20
-3912.763201558975
 30
0.0
  0
SPLINE
  5
102C6B
330
18
100
AcDbEntity
  8
姿図
100
AcDbSpline
210
0.0
220
0.0
230
1.0
 70
     8
 71
     3
 72
     8
 73
     4
 74
     0
 42
0.000000001
 43
0.0000000001
 40
0.0
 40
0.0
 40
0.0
 40
0.0
 40
0.8259434361853444
 40
0.8259434361853444
 40
0.8259434361853444
 40
0.8259434361853444
 10
6677.862149403434
 20
-3906.502911845433
 30
0.0
 10
6676.330726058597
 20
-3899.189639783064
 30
0.0
 10
6670.685446532336
 20
-3891.888212648346
 30
0.0
 10
6664.830988353464
 20
-3889.329525902123
 30
0.0
  0
SPLINE
  5
102C6C
330
18
100
AcDbEntity
  8
姿図
100
AcDbSpline
210
0.0
220
0.0
230
1.0
 70
     8
 71
     3
 72
     8
 73
     4
 74
     0
 42
0.000000001
 43
0.0000000001
 40
0.0
 40
0.0
 40
0.0
 40
0.0
 40
0.8306569032767366
 40
0.8306569032767366
 40
0.8306569032767366
 40
0.8306569032767366
 10
6677.544649403435
 20
-3906.8733285121
 30
0.0
 10
6676.004486581749
 20
-3899.518321307001
 30
0.0
 10
6670.303379961042
 20
-3892.175294607801
 30
0.0
 10
6664.413238548506
 20
-3889.656601330814
 30
0.0
  0
LINE
  5
102C6D
330
18
100
AcDbEntity
  8
姿図
100
AcDbLine
 10
6684.633415679476
 20
-3900.02971523085
 30
0.0
 11
6678.653832346143
 21
-3905.58596523085
 31
0.0
  0
SPLINE
  5
102C6E
330
18
100
AcDbEntity
  8
姿図
100
AcDbSpline
210
0.0
220
0.0
230
1.0
 70
     8
 71
     3
 72
     8
 73
     4
 74
     0
 42
0.000000001
 43
0.0000000001
 40
0.0
 40
0.0
 40
0.0
 40
0.0
 40
1.0
 40
1.0
 40
1.0
 40
1.0
 10
6684.89799901281
 20
-3898.653881897517
 30
0.0
 10
6683.522165679477
 20
-3893.626798564183
 30
0.0
 10
6675.584665679475
 20
-3885.636381897517
 30
0.0
 10
6668.705499012809
 20
-3884.683881897516
 30
0.0
  0
SPLINE
  5
102C6F
330
18
100
AcDbEntity
  8
姿図
100
AcDbSpline
210
0.0
220
0.0
230
1.0
 70
     8
 71
     3
 72
     8
 73
     4
 74
     0
 42
0.000000001
 43
0.0000000001
 40
0.0
 40
0.0
 40
0.0
 40
0.0
 40
1.0
 40
1.0
 40
1.0
 40
1.0
 10
6684.89799901281
 20
-3898.653881897517
 30
0.0
 10
6685.215499012809
 20
-3899.606381897516
 30
0.0
 10
6685.638832346143
 20
-3900.02971523085
 30
0.0
 10
6686.170066070103
 20
-3900.395997782934
 30
0.0
  0
LINE
  5
102C70
330
18
100
AcDbEntity
  8
姿図
100
AcDbLine
 10
6688.022562814893
 20
-3898.150760152726
 30
0.0
 11
6685.797582346144
 21
-3900.082631897517
 31
0.0
  0
LINE
  5
102C71
330
18
100
AcDbEntity
  8
姿図
100
AcDbLine
 10
6688.219760080519
 20
-3896.161424215225
 30
0.0
 11
6685.003832346143
 21
-3898.812631897517
 31
0.0
  0
LINE
  5
102C72
330
18
100
AcDbEntity
  8
姿図
100
AcDbLine
 10
6687.766247710726
 20
-3893.226822978246
 30
0.0
 11
6683.945499012811
 21
-3896.325548564184
 31
0.0
  0
LINE
  5
102C73
330
18
100
AcDbEntity
  8
姿図
100
AcDbLine
 10
6682.563877919059
 20
-3885.09253912408
 30
0.0
 11
6678.495082346144
 21
-3888.070548564184
 31
0.0
  0
LINE
  5
102C74
330
18
100
AcDbEntity
  8
姿図
100
AcDbLine
 10
6679.725808257601
 20
-3882.886575582413
 30
0.0
 11
6675.69049901281
 21
-3885.848048564184
 31
0.0
  0
LINE
  5
102C75
330
18
100
AcDbEntity
  8
姿図
100
AcDbLine
 10
6677.489665679477
 20
-3881.61471523085
 30
0.0
 11
6673.415082346142
 21
-3884.578048564184
 31
0.0
  0
LINE
  5
102C76
330
18
100
AcDbEntity
  8
姿図
100
AcDbLine
 10
6675.69049901281
 20
-3881.191381897517
 30
0.0
 11
6671.72174901281
 21
-3884.15471523085
 31
0.0
  0
LINE
  5
102C77
330
18
100
AcDbEntity
  8
姿図
100
AcDbLine
 10
6674.34608495031
 20
-3881.271583720434
 30
0.0
 11
6670.13424901281
 21
-3884.15471523085
 31
0.0
  0
SPLINE
  5
102C78
330
18
100
AcDbEntity
  8
姿図
100
AcDbSpline
210
0.0
220
0.0
230
1.0
 70
     8
 71
     3
 72
     8
 73
     4
 74
     0
 42
0.000000001
 43
0.0000000001
 40
0.0
 40
0.0
 40
0.0
 40
0.0
 40
1.0
 40
1.0
 40
1.0
 40
1.0
 10
6678.495082346144
 20
-3888.070548564184
 30
0.0
 10
6676.32549901281
 20
-3886.059715230851
 30
0.0
 10
6672.145082346142
 20
-3883.413881897517
 30
0.0
 10
6669.49924901281
 20
-3884.366381897516
 30
0.0
  0
SPLINE
  5
102C79
330
18
100
AcDbEntity
  8
姿図
100
AcDbSpline
210
0.0
220
0.0
230
1.0
 70
     8
 71
     3
 72
     8
 73
     4
 74
     0
 42
0.000000001
 43
0.0000000001
 40
0.0
 40
0.0
 40
0.0
 40
0.0
 40
1.0
 40
1.0
 40
1.0
 40
1.0
 10
6679.923832346143
 20
-3891.192631897517
 30
0.0
 10
6678.283415679476
 20
-3888.176381897517
 30
0.0
 10
6672.832999012811
 20
-3883.784298564184
 30
0.0
 10
6669.02299901281
 20
-3884.683881897516
 30
0.0
  0
ELLIPSE
  5
102C7A
330
18
100
AcDbEntity
  8
姿図
100
AcDbEllipse
 10
6679.844457346142
 20
-3894.71159023085
 30
0.0
 11
0.0
 21
-0.6085416666666665
 31
0.0
210
0.0
220
0.0
230
1.0
 40
0.8260869565217391
 41
0.0
 42
6.283185307179586
  0
LINE
  5
102C7B
330
18
100
AcDbEntity
  8
姿図
100
AcDbLine
 10
6659.81549901281
 20
-3893.256381897518
 30
0.0
 11
6666.64174901281
 21
-3887.911798564183
 31
0.0
  0
LINE
  5
102C7C
330
18
100
AcDbEntity
  8
姿図
100
AcDbLine
 10
6666.64174901281
 20
-3887.911798564183
 30
0.0
 11
6666.218415679476
 21
-3887.541381897517
 31
0.0
  0
LINE
  5
102C7D
330
18
100
AcDbEntity
  8
姿図
100
AcDbLine
 10
6666.218415679476
 20
-3887.541381897517
 30
0.0
 11
6660.027165679476
 21
-3891.827631897516
 31
0.0
  0
LINE
  5
102C7E
330
18
100
AcDbEntity
  8
姿図
100
AcDbLine
 10
6666.218415679476
 20
-3887.541381897517
 30
0.0
 11
6665.795082346143
 21
-3887.223881897517
 31
0.0
  0
LINE
  5
102C7F
330
18
100
AcDbEntity
  8
姿図
100
AcDbLine
 10
6665.795082346143
 20
-3887.223881897517
 30
0.0
 11
6659.868415679477
 21
-3891.13971523085
 31
0.0
  0
LINE
  5
102C80
330
18
100
AcDbEntity
  8
姿図
100
AcDbLine
 10
6663.255082346142
 20
-3886.853465230851
 30
0.0
 11
6659.921332346144
 21
-3889.446381897516
 31
0.0
  0
LINE
  5
102C81
330
18
100
AcDbEntity
  8
姿図
100
AcDbLine
 10
6663.255082346142
 20
-3886.853465230851
 30
0.0
 11
6662.83174901281
 21
-3886.21846523085
 31
0.0
  0
LINE
  5
102C82
330
18
100
AcDbEntity
  8
姿図
100
AcDbLine
 10
6662.83174901281
 20
-3886.21846523085
 30
0.0
 11
6659.921332346144
 21
-3888.229298564184
 31
0.0
  0
LINE
  5
102C83
330
18
100
AcDbEntity
  8
姿図
100
AcDbLine
 10
6662.83174901281
 20
-3886.21846523085
 30
0.0
 11
6662.461332346142
 21
-3885.953881897517
 31
0.0
  0
LINE
  5
102C84
330
18
100
AcDbEntity
  8
姿図
100
AcDbLine
 10
6662.461332346142
 20
-3885.953881897517
 30
0.0
 11
6659.974249012808
 21
-3887.541381897517
 31
0.0
  0
LINE
  5
102C85
330
18
100
AcDbEntity
  8
姿図
100
AcDbLine
 10
6665.795082346143
 20
-3885.001381897517
 30
0.0
 11
6663.678415679477
 21
-3886.271381897516
 31
0.0
  0
LINE
  5
102C86
330
18
100
AcDbEntity
  8
姿図
100
AcDbLine
 10
6650.025915679476
 20
-3889.658048564183
 30
0.0
 11
6652.301332346144
 21
-3888.176381897517
 31
0.0
  0
SPLINE
  5
102C87
330
18
100
AcDbEntity
  8
姿図
100
AcDbSpline
210
0.0
220
0.0
230
1.0
 70
     8
 71
     3
 72
     8
 73
     4
 74
     0
 42
0.000000001
 43
0.0000000001
 40
0.0
 40
0.0
 40
0.0
 40
0.0
 40
1.0
 40
1.0
 40
1.0
 40
1.0
 10
6649.020499012811
 20
-3889.605131897516
 30
0.0
 10
6649.020499012811
 20
-3889.692775126683
 30
0.0
 10
6650.607999012809
 20
-3889.605131897516
 30
0.0
 10
6652.301332346142
 20
-3889.763881897517
 30
0.0
  0
ELLIPSE
  5
102C88
330
18
100
AcDbEntity
  8
姿図
100
AcDbEllipse
 10
6635.562199045362
 20
-3925.182081767308
 30
0.0
 11
9.107144368489582
 21
-11.18484700520833
 31
0.0
210
0.0
220
0.0
230
1.0
 40
0.3982786566893743
 41
0.0
 42
6.283185307179586
  0
SPLINE
  5
102C89
330
18
100
AcDbEntity
  8
姿図
100
AcDbSpline
210
0.0
220
0.0
230
1.0
 70
     8
 71
     3
 72
    17
 73
    13
 74
     0
 42
0.000000001
 43
0.0000000001
 40
0.0
 40
0.0
 40
0.0
 40
0.0
 40
1.0
 40
1.0
 40
1.0
 40
2.0
 40
2.0
 40
2.0
 40
3.0
 40
3.0
 40
3.0
 40
4.0
 40
4.0
 40
4.0
 40
4.0
 10
6630.664656513953
 20
-3852.097873036049
 30
0.0
 10
6629.907941290428
 20
-3851.540456586396
 30
0.0
 10
6629.486606112478
 20
-3850.938081640649
 30
0.0
 10
6629.501420023069
 20
-3850.312624555147
 30
0.0
 10
6629.571355461436
 20
-3847.355182335094
 30
0.0
 10
6637.427895717512
 20
-3845.463308148896
 30
0.0
 10
6647.149266160221
 20
-3845.552880631535
 30
0.0
 10
6656.871325622027
 20
-3845.641936349851
 30
0.0
 10
6664.748880960567
 20
-3847.268710438393
 30
0.0
 10
6664.707539814735
 20
-3850.635085492646
 30
0.0
 10
6664.699960604665
 20
-3851.244867393688
 30
0.0
 10
6664.29964050918
 20
-3851.825193728323
 30
0.0
 10
6663.569280266123
 20
-3852.357460980927
 30
0.0
  0
SPLINE
  5
102C8A
330
18
100
AcDbEntity
  8
姿図
100
AcDbSpline
210
0.0
220
0.0
230
1.0
 70
     8
 71
     3
 72
    11
 73
     7
 74
     0
 42
0.000000001
 43
0.0000000001
 40
0.0
 40
0.0
 40
0.0
 40
0.0
 40
1.0
 40
1.0
 40
1.0
 40
2.0
 40
2.0
 40
2.0
 40
2.0
 10
6629.565498799109
 20
-3850.920856163219
 30
0.0
 10
6629.635434237478
 20
-3847.963241688392
 30
0.0
 10
6637.491974493554
 20
-3846.071539756969
 30
0.0
 10
6647.213344936263
 20
-3846.161112239608
 30
0.0
 10
6656.559199970985
 20
-3846.246550607663
 30
0.0
 10
6664.200421759178
 20
-3847.753263118514
 30
0.0
 10
6664.741301750499
 20
-3850.860394737438
 30
0.0
  0
SPLINE
  5
102C8B
330
18
100
AcDbEntity
  8
姿図
100
AcDbSpline
210
0.0
220
0.0
230
1.0
 70
     8
 71
     3
 72
    11
 73
     7
 74
     0
 42
0.000000001
 43
0.0000000001
 40
0.0
 40
0.0
 40
0.0
 40
0.0
 40
1.0
 40
1.0
 40
1.0
 40
2.0
 40
2.0
 40
2.0
 40
2.0
 10
6631.198301804752
 20
-3849.897835058619
 30
0.0
 10
6630.898923007009
 20
-3850.940665462264
 30
0.0
 10
6630.566815802147
 20
-3852.32559384768
 30
0.0
 10
6630.261063577756
 20
-3853.854527224417
 30
0.0
 10
6629.808894795204
 20
-3856.115198882403
 30
0.0
 10
6629.531047844248
 20
-3858.107325347247
 30
0.0
 10
6629.497285908485
 20
-3859.166347699677
 30
0.0
  0
SPLINE
  5
102C8C
330
18
100
AcDbEntity
  8
姿図
100
AcDbSpline
210
0.0
220
0.0
230
1.0
 70
     8
 71
     3
 72
    11
 73
     7
 74
     0
 42
0.000000001
 43
0.0000000001
 40
0.0
 40
0.0
 40
0.0
 40
0.0
 40
1.0
 40
1.0
 40
1.0
 40
2.0
 40
2.0
 40
2.0
 40
2.0
 10
6663.359818460569
 20
-3851.480684179712
 30
0.0
 10
6663.671944111609
 20
-3852.475110991778
 30
0.0
 10
6664.008874450152
 20
-3854.045213259573
 30
0.0
 10
6664.270701707095
 20
-3855.826155371118
 30
0.0
 10
6664.458114901541
 20
-3857.107386382403
 30
0.0
 10
6664.577315205359
 20
-3858.295427560789
 30
0.0
 10
6664.624168503971
 20
-3859.249374500892
 30
0.0
  0
SPLINE
  5
102C8D
330
18
100
AcDbEntity
  8
姿図
100
AcDbSpline
210
0.0
220
0.0
230
1.0
 70
     8
 71
     3
 72
    17
 73
    13
 74
     0
 42
0.000000001
 43
0.0000000001
 40
0.0
 40
0.0
 40
0.0
 40
0.0
 40
1.0
 40
1.0
 40
1.0
 40
2.0
 40
2.0
 40
2.0
 40
3.0
 40
3.0
 40
3.0
 40
4.0
 40
4.0
 40
4.0
 40
4.0
 10
6628.666501132009
 20
-3860.59072242841
 30
0.0
 10
6628.654960062131
 20
-3860.527677181014
 30
0.0
 10
6628.649447909353
 20
-3860.46428742407
 30
0.0
 10
6628.649964673676
 20
-3860.400725412351
 30
0.0
 10
6628.671496520465
 20
-3858.069084787351
 30
0.0
 10
6636.940070196679
 20
-3856.254725249591
 30
0.0
 10
6647.116882262651
 20
-3856.348431846813
 30
0.0
 10
6657.295072366818
 20
-3856.441621679712
 30
0.0
 10
6665.528850578623
 20
-3858.407048654539
 30
0.0
 10
6665.508180005707
 20
-3860.73834476999
 30
0.0
 10
6665.507490986609
 20
-3860.788643164087
 30
0.0
 10
6665.503356872026
 20
-3860.83876930341
 30
0.0
 10
6665.49508864286
 20
-3860.888550933184
 30
0.0
  0
SPLINE
  5
102C8E
330
18
100
AcDbEntity
  8
姿図
100
AcDbSpline
210
0.0
220
0.0
230
1.0
 70
     8
 71
     3
 72
    11
 73
     7
 74
     0
 42
0.000000001
 43
0.0000000001
 40
0.0
 40
0.0
 40
0.0
 40
0.0
 40
1.0
 40
1.0
 40
1.0
 40
2.0
 40
2.0
 40
2.0
 40
2.0
 10
6630.853620001366
 20
-3851.409026193601
 30
0.0
 10
6629.527258239214
 20
-3849.068428320337
 30
0.0
 10
6637.297498853362
 20
-3846.476166221812
 30
0.0
 10
6647.238149623763
 20
-3846.727830447073
 30
0.0
 10
6656.48340787029
 20
-3846.961924685354
 30
0.0
 10
6664.129452792165
 20
-3848.522208431014
 30
0.0
 10
6663.427342332096
 20
-3851.643120431882
 30
0.0
  0
LINE
  5
102C8F
330
18
100
AcDbEntity
  8
姿図
100
AcDbLine
 10
6638.306723820839
 20
-3860.388237012176
 30
0.0
 11
6645.632917530071
 21
-3860.990594942083
 31
0.0
  0
LINE
  5
102C90
330
18
100
AcDbEntity
  8
姿図
100
AcDbLine
 10
6645.356846669059
 20
-3863.589355530329
 30
0.0
 11
6645.844468507115
 21
-3861.12739890951
 31
0.0
  0
LINE
  5
102C91
330
18
100
AcDbEntity
  8
姿図
100
AcDbLine
 10
6645.88114330652
 20
-3861.008314885174
 30
0.0
 11
6648.081228742471
 21
-3859.283984219557
 31
0.0
  0
ELLIPSE
  5
102C92
330
18
100
AcDbEntity
  8
姿図
100
AcDbEllipse
 10
6647.048123290006
 20
-3860.838182179559
 30
0.0
 11
17.13345542060051
 21
-0.1824125605453445
 31
0.0
210
0.0
220
0.0
230
1.0
 40
0.2162181212671087
 41
5.407098669835122
 42
10.34556662180719
  0
ELLIPSE
  5
102C93
330
18
100
AcDbEntity
  8
姿図
100
AcDbEllipse
 10
6647.060236684889
 20
-3860.918489507663
 30
0.0
 11
18.41005188075542
 21
-0.1212280780646324
 31
0.0
210
0.0
220
0.0
230
1.0
 40
0.2319868328486092
 41
5.356109575276943
 42
10.38956381872119
  0
ELLIPSE
  5
102C94
330
18
100
AcDbEntity
  8
姿図
100
AcDbEllipse
 10
6647.048123290006
 20
-3860.838182179559
 30
0.0
 11
17.13345542060051
 21
-0.1824125605453445
 31
0.0
210
0.0
220
0.0
230
1.0
 40
0.2162181212671087
 41
10.8878448727806
 42
11.15400496578082
  0
ELLIPSE
  5
102C95
330
18
100
AcDbEntity
  8
姿図
100
AcDbEllipse
 10
6647.060236684889
 20
-3860.918489507663
 30
0.0
 11
18.41005188075542
 21
-0.1212280780646324
 31
0.0
210
0.0
220
0.0
230
1.0
 40
0.2319868328486092
 41
10.88680847040845
 42
11.14920769167839
  0
ENDSEC
  0
SECTION
  2
OBJECTS
  0
DICTIONARY
  5
C
330
0
100
AcDbDictionary
281
     1
  3
ACAD_GROUP
350
D
  3
ACAD_IMAGE_VARS
350
103505
  3
ACAD_LAYOUT
350
1EF
  3
ACAD_MLINESTYLE
350
E
  3
ACAD_PLOTSETTINGS
350
1F0
  3
ACAD_PLOTSTYLENAME
350
1ED
  3
ACAD_SCALELIST
350
86310
  3
AcadDim
350
4CAEF
  3
AcDbVariableDictionary
350
1767
  3
APPDATA
350
103504
  3
DWGPROPS
350
103528
  0
DICTIONARY
  5
39A53
330
2
100
AcDbDictionary
280
     1
281
     1
  3
ACAD_LAYERSTATES
360
39A54
  0
DICTIONARY
  5
86370
330
F
100
AcDbDictionary
280
     1
281
     1
  3
ADSK_XREC_LAYER_RECONCILED
360
86371
  0
DICTIONARY
  5
86376
330
8E0
100
AcDbDictionary
280
     1
281
     1
  3
ADSK_XREC_LAYER_RECONCILED
360
86377
  0
DICTIONARY
  5
8637C
330
8E4
100
AcDbDictionary
280
     1
281
     1
  3
ADSK_XREC_LAYER_RECONCILED
360
8637D
  0
DICTIONARY
  5
8637E
330
8E5
100
AcDbDictionary
280
     1
281
     1
  3
ADSK_XREC_LAYER_RECONCILED
360
8637F
  0
DICTIONARY
  5
8F667
330
18
100
AcDbDictionary
280
     1
281
     1
  3
ACAD_SORTENTS
360
8F668
  0
DICTIONARY
  5
D
102
{ACAD_REACTORS
330
C
102
}
330
C
100
AcDbDictionary
281
     1
  0
RASTERVARIABLES
  5
103505
102
{ACAD_REACTORS
330
C
102
}
330
C
100
AcDbRasterVariables
 90
        0
 70
     1
 71
     1
 72
     0
  0
DICTIONARY
  5
1EF
102
{ACAD_REACTORS
330
C
102
}
330
C
100
AcDbDictionary
281
     1
  3
Model
350
1F1
  3
ﾚｲｱｳﾄ1
350
1F2
  0
DICTIONARY
  5
E
102
{ACAD_REACTORS
330
C
102
}
330
C
100
AcDbDictionary
281
     1
  3
STANDARD
350
1B
  0
DICTIONARY
  5
1F0
102
{ACAD_REACTORS
330
C
102
}
330
C
100
AcDbDictionary
281
     1
  0
ACDBDICTIONARYWDFLT
  5
1ED
102
{ACAD_REACTORS
330
C
102
}
330
C
100
AcDbDictionary
281
     1
  3
Normal
350
1EE
100
AcDbDictionaryWithDefault
340
1EE
  0
DICTIONARY
  5
86310
102
{ACAD_REACTORS
330
C
102
}
330
C
100
AcDbDictionary
281
     1
  3
A0
350
86311
  3
A1
350
86312
  3
A2
350
86313
  3
A3
350
86314
  3
A4
350
86315
  3
A5
350
86316
  3
A6
350
86317
  3
A7
350
86318
  3
A8
350
86319
  3
A9
350
8631A
  3
B0
350
8631B
  3
B1
350
8631C
  3
B2
350
8631D
  3
B3
350
8631E
  3
B4
350
8631F
  3
B5
350
86320
  3
B6
350
86321
  3
B7
350
86322
  3
B8
350
86323
  3
B9
350
86324
  3
C0
350
86325
  3
C1
350
86326
  3
C2
350
86327
  3
C3
350
86328
  3
C4
350
86329
  3
C5
350
8632A
  3
C6
350
8632B
  3
C7
350
8632C
  3
C8
350
8632D
  3
C9
350
8632E
  3
D0
350
8632F
  3
D1
350
86330
  3
D2
350
86331
  0
XRECORD
  5
4CAEF
102
{ACAD_REACTORS
330
C
102
}
330
C
100
AcDbXrecord
280
     1
 90
   990106
  3

 60
     0
 61
     0
 62
     4
 63
     4
 64
     1
 65
     0
 66
     0
 67
     3
 68
     1
 69
     0
 70
     0
 71
     0
 72
     0
 40
0.0
170
     0
340
0
  0
DICTIONARY
  5
1767
102
{ACAD_REACTORS
330
C
102
}
330
C
100
AcDbDictionary
281
     1
  3
DIMASSOC
350
1768
  3
INDEXCTL
350
863A5
  3
PROJECTNAME
350
1769
  3
SORTENTS
350
863A4
  0
DICTIONARY
  5
103504
102
{ACAD_REACTORS
330
C
102
}
330
C
100
AcDbDictionary
281
     1
  0
XRECORD
  5
103528
102
{ACAD_REACTORS
330
C
102
}
330
C
100
AcDbXrecord
280
     1
  1
DWGPROPS COOKIE
  2

  3

  4

  6

  7

  8
SPAX
  9

300
=
301
=
302
=
303
=
304
=
305
=
306
=
307
=
308
=
309
=
 40
0.0
 41
2448499.233101852
 42
2456822.103965104
  1

 90
        0
  0
DICTIONARY
  5
39A54
102
{ACAD_REACTORS
330
39A53
102
}
330
39A53
100
AcDbDictionary
281
     1
  0
XRECORD
  5
86371
102
{ACAD_REACTORS
330
86370
102
}
330
86370
100
AcDbXrecord
280
     1
290
     1
  0
XRECORD
  5
86377
102
{ACAD_REACTORS
330
86376
102
}
330
86376
100
AcDbXrecord
280
     1
290
     1
  0
XRECORD
  5
8637D
102
{ACAD_REACTORS
330
8637C
102
}
330
8637C
100
AcDbXrecord
280
     1
290
     1
  0
XRECORD
  5
8637F
102
{ACAD_REACTORS
330
8637E
102
}
330
8637E
100
AcDbXrecord
280
     1
290
     1
  0
SORTENTSTABLE
  5
8F668
102
{ACAD_REACTORS
330
8F667
102
}
330
8F667
100
AcDbSortentsTable
330
18
331
121C
  5
121C
331
14E1
  5
14E1
331
58BF
  5
58BF
  0
LAYOUT
  5
1F1
102
{ACAD_REACTORS
330
1EF
102
}
330
1EF
100
AcDbPlotSettings
  1

  2
JUST PDF 2.pc3
  4
A4
  6

 40
3.174999952316284
 41
3.174999952316284
 42
3.175003051757812
 43
3.17498779296875
 44
209.8886566162109
 45
297.0530090332031
 46
14.27
 47
9.86
 48
6601.541890343475
 49
-3547.125053385691
140
7126.527545828192
141
-2734.147027969691
142
1.0
143
3.0
 70
  3748
 72
     1
 73
     0
 74
     4
  7
spax form.ctb
 75
     0
147
0.3333333333333333
148
-6601.541890343475
149
3547.125053385691
100
AcDbLayout
  1
Model
 70
     1
 71
     0
 10
0.0
 20
0.0
 11
12.0
 21
9.0
 12
0.0
 22
0.0
 32
0.0
 14
6603.916461771108
 24
-3968.302061029407
 34
0.0
 15
6708.916461771108
 25
-3845.552880631535
 35
0.0
146
0.0
 13
0.0
 23
0.0
 33
0.0
 16
1.0
 26
0.0
 36
0.0
 17
0.0
 27
1.0
 37
0.0
 76
     0
330
18
331
FF686
1001
ACAD_PSEXT
1000
DWG To PDF.pc3
1000
PDF
1000
ファイル
1000

1070
     0
  0
LAYOUT
  5
1F2
102
{ACAD_REACTORS
330
1EF
102
}
330
1EF
100
AcDbPlotSettings
  1

  2
Canon LBP-310 LIPS3
  4

  6

 40
0.0
 41
0.0
 42
0.0
 43
0.0
 44
0.0
 45
0.0
 46
0.0
 47
0.0
 48
0.0
 49
0.0
140
0.0
141
0.0
142
1.0
143
1.0
 70
   688
 72
     0
 73
     0
 74
     5
  7
spax form.ctb
 75
    16
147
1.0
148
0.0
149
0.0
100
AcDbLayout
  1
ﾚｲｱｳﾄ1
 70
     0
 71
     1
 10
0.0
 20
0.0
 11
12.0
 21
9.0
 12
0.0
 22
0.0
 32
0.0
 14
1.000000000000000E+20
 24
1.000000000000000E+20
 34
1.000000000000000E+20
 15
-1.000000000000000E+20
 25
-1.000000000000000E+20
 35
-1.000000000000000E+20
146
0.0
 13
0.0
 23
0.0
 33
0.0
 16
1.0
 26
0.0
 36
0.0
 17
0.0
 27
1.0
 37
0.0
 76
     0
330
15
  0
MLINESTYLE
  5
1B
102
{ACAD_REACTORS
330
E
102
}
330
E
100
AcDbMlineStyle
  2
STANDARD
 70
     0
  3

 62
     0
 51
90.0
 52
90.0
 71
     2
 49
0.5
 62
   256
  6
BYLAYER
 49
-0.5
 62
   256
  6
BYLAYER
  0
ACDBPLACEHOLDER
  5
1EE
102
{ACAD_REACTORS
330
1ED
102
}
330
1ED
  0
SCALE
  5
86311
102
{ACAD_REACTORS
330
86310
102
}
330
86310
100
AcDbScale
 70
     0
300
1:1
140
1.0
141
1.0
290
     1
1001
ACAD
1000
AcRTDxfName
1000
SCALE
1000
AcRTDxfName
1000
SCALE
  0
SCALE
  5
86312
102
{ACAD_REACTORS
330
86310
102
}
330
86310
100
AcDbScale
 70
     0
300
1:2
140
1.0
141
2.0
290
     0
1001
ACAD
1000
AcRTDxfName
1000
SCALE
1000
AcRTDxfName
1000
SCALE
  0
SCALE
  5
86313
102
{ACAD_REACTORS
330
86310
102
}
330
86310
100
AcDbScale
 70
     0
300
1:4
140
1.0
141
4.0
290
     0
1001
ACAD
1000
AcRTDxfName
1000
SCALE
1000
AcRTDxfName
1000
SCALE
  0
SCALE
  5
86314
102
{ACAD_REACTORS
330
86310
102
}
330
86310
100
AcDbScale
 70
     0
300
1:5
140
1.0
141
5.0
290
     0
1001
ACAD
1000
AcRTDxfName
1000
SCALE
1000
AcRTDxfName
1000
SCALE
  0
SCALE
  5
86315
102
{ACAD_REACTORS
330
86310
102
}
330
86310
100
AcDbScale
 70
     0
300
1:8
140
1.0
141
8.0
290
     0
1001
ACAD
1000
AcRTDxfName
1000
SCALE
1000
AcRTDxfName
1000
SCALE
  0
SCALE
  5
86316
102
{ACAD_REACTORS
330
86310
102
}
330
86310
100
AcDbScale
 70
     0
300
1:10
140
1.0
141
10.0
290
     0
1001
ACAD
1000
AcRTDxfName
1000
SCALE
1000
AcRTDxfName
1000
SCALE
  0
SCALE
  5
86317
102
{ACAD_REACTORS
330
86310
102
}
330
86310
100
AcDbScale
 70
     0
300
1:16
140
1.0
141
16.0
290
     0
1001
ACAD
1000
AcRTDxfName
1000
SCALE
1000
AcRTDxfName
1000
SCALE
  0
SCALE
  5
86318
102
{ACAD_REACTORS
330
86310
102
}
330
86310
100
AcDbScale
 70
     0
300
1:20
140
1.0
141
20.0
290
     0
1001
ACAD
1000
AcRTDxfName
1000
SCALE
1000
AcRTDxfName
1000
SCALE
  0
SCALE
  5
86319
102
{ACAD_REACTORS
330
86310
102
}
330
86310
100
AcDbScale
 70
     0
300
1:30
140
1.0
141
30.0
290
     0
1001
ACAD
1000
AcRTDxfName
1000
SCALE
1000
AcRTDxfName
1000
SCALE
  0
SCALE
  5
8631A
102
{ACAD_REACTORS
330
86310
102
}
330
86310
100
AcDbScale
 70
     0
300
1:40
140
1.0
141
40.0
290
     0
1001
ACAD
1000
AcRTDxfName
1000
SCALE
1000
AcRTDxfName
1000
SCALE
  0
SCALE
  5
8631B
102
{ACAD_REACTORS
330
86310
102
}
330
86310
100
AcDbScale
 70
     0
300
1:50
140
1.0
141
50.0
290
     0
1001
ACAD
1000
AcRTDxfName
1000
SCALE
1000
AcRTDxfName
1000
SCALE
  0
SCALE
  5
8631C
102
{ACAD_REACTORS
330
86310
102
}
330
86310
100
AcDbScale
 70
     0
300
1:100
140
1.0
141
100.0
290
     0
1001
ACAD
1000
AcRTDxfName
1000
SCALE
1000
AcRTDxfName
1000
SCALE
  0
SCALE
  5
8631D
102
{ACAD_REACTORS
330
86310
102
}
330
86310
100
AcDbScale
 70
     0
300
2:1
140
2.0
141
1.0
290
     0
1001
ACAD
1000
AcRTDxfName
1000
SCALE
1000
AcRTDxfName
1000
SCALE
  0
SCALE
  5
8631E
102
{ACAD_REACTORS
330
86310
102
}
330
86310
100
AcDbScale
 70
     0
300
4:1
140
4.0
141
1.0
290
     0
1001
ACAD
1000
AcRTDxfName
1000
SCALE
1000
AcRTDxfName
1000
SCALE
  0
SCALE
  5
8631F
102
{ACAD_REACTORS
330
86310
102
}
330
86310
100
AcDbScale
 70
     0
300
8:1
140
8.0
141
1.0
290
     0
1001
ACAD
1000
AcRTDxfName
1000
SCALE
1000
AcRTDxfName
1000
SCALE
  0
SCALE
  5
86320
102
{ACAD_REACTORS
330
86310
102
}
330
86310
100
AcDbScale
 70
     0
300
10:1
140
10.0
141
1.0
290
     0
1001
ACAD
1000
AcRTDxfName
1000
SCALE
1000
AcRTDxfName
1000
SCALE
  0
SCALE
  5
86321
102
{ACAD_REACTORS
330
86310
102
}
330
86310
100
AcDbScale
 70
     0
300
100:1
140
100.0
141
1.0
290
     0
1001
ACAD
1000
AcRTDxfName
1000
SCALE
1000
AcRTDxfName
1000
SCALE
  0
SCALE
  5
86322
102
{ACAD_REACTORS
330
86310
102
}
330
86310
100
AcDbScale
 70
     0
300
1/128" = 1'-0"
140
0.0078125
141
12.0
290
     0
1001
ACAD
1000
AcRTDxfName
1000
SCALE
1000
AcRTDxfName
1000
SCALE
  0
SCALE
  5
86323
102
{ACAD_REACTORS
330
86310
102
}
330
86310
100
AcDbScale
 70
     0
300
1/64" = 1'-0"
140
0.015625
141
12.0
290
     0
1001
ACAD
1000
AcRTDxfName
1000
SCALE
1000
AcRTDxfName
1000
SCALE
  0
SCALE
  5
86324
102
{ACAD_REACTORS
330
86310
102
}
330
86310
100
AcDbScale
 70
     0
300
1/32" = 1'-0"
140
0.03125
141
12.0
290
     0
1001
ACAD
1000
AcRTDxfName
1000
SCALE
1000
AcRTDxfName
1000
SCALE
  0
SCALE
  5
86325
102
{ACAD_REACTORS
330
86310
102
}
330
86310
100
AcDbScale
 70
     0
300
1/16" = 1'-0"
140
0.0625
141
12.0
290
     0
1001
ACAD
1000
AcRTDxfName
1000
SCALE
1000
AcRTDxfName
1000
SCALE
  0
SCALE
  5
86326
102
{ACAD_REACTORS
330
86310
102
}
330
86310
100
AcDbScale
 70
     0
300
3/32" = 1'-0"
140
0.09375
141
12.0
290
     0
1001
ACAD
1000
AcRTDxfName
1000
SCALE
1000
AcRTDxfName
1000
SCALE
  0
SCALE
  5
86327
102
{ACAD_REACTORS
330
86310
102
}
330
86310
100
AcDbScale
 70
     0
300
1/8" = 1'-0"
140
0.125
141
12.0
290
     0
1001
ACAD
1000
AcRTDxfName
1000
SCALE
1000
AcRTDxfName
1000
SCALE
  0
SCALE
  5
86328
102
{ACAD_REACTORS
330
86310
102
}
330
86310
100
AcDbScale
 70
     0
300
3/16" = 1'-0"
140
0.1875
141
12.0
290
     0
1001
ACAD
1000
AcRTDxfName
1000
SCALE
1000
AcRTDxfName
1000
SCALE
  0
SCALE
  5
86329
102
{ACAD_REACTORS
330
86310
102
}
330
86310
100
AcDbScale
 70
     0
300
1/4" = 1'-0"
140
0.25
141
12.0
290
     0
1001
ACAD
1000
AcRTDxfName
1000
SCALE
1000
AcRTDxfName
1000
SCALE
  0
SCALE
  5
8632A
102
{ACAD_REACTORS
330
86310
102
}
330
86310
100
AcDbScale
 70
     0
300
3/8" = 1'-0"
140
0.375
141
12.0
290
     0
1001
ACAD
1000
AcRTDxfName
1000
SCALE
1000
AcRTDxfName
1000
SCALE
  0
SCALE
  5
8632B
102
{ACAD_REACTORS
330
86310
102
}
330
86310
100
AcDbScale
 70
     0
300
1/2" = 1'-0"
140
0.5
141
12.0
290
     0
1001
ACAD
1000
AcRTDxfName
1000
SCALE
1000
AcRTDxfName
1000
SCALE
  0
SCALE
  5
8632C
102
{ACAD_REACTORS
330
86310
102
}
330
86310
100
AcDbScale
 70
     0
300
3/4" = 1'-0"
140
0.75
141
12.0
290
     0
1001
ACAD
1000
AcRTDxfName
1000
SCALE
1000
AcRTDxfName
1000
SCALE
  0
SCALE
  5
8632D
102
{ACAD_REACTORS
330
86310
102
}
330
86310
100
AcDbScale
 70
     0
300
1" = 1'-0"
140
1.0
141
12.0
290
     0
1001
ACAD
1000
AcRTDxfName
1000
SCALE
1000
AcRTDxfName
1000
SCALE
  0
SCALE
  5
8632E
102
{ACAD_REACTORS
330
86310
102
}
330
86310
100
AcDbScale
 70
     0
300
1-1/2" = 1'-0"
140
1.5
141
12.0
290
     0
1001
ACAD
1000
AcRTDxfName
1000
SCALE
1000
AcRTDxfName
1000
SCALE
  0
SCALE
  5
8632F
102
{ACAD_REACTORS
330
86310
102
}
330
86310
100
AcDbScale
 70
     0
300
3" = 1'-0"
140
3.0
141
12.0
290
     0
1001
ACAD
1000
AcRTDxfName
1000
SCALE
1000
AcRTDxfName
1000
SCALE
  0
SCALE
  5
86330
102
{ACAD_REACTORS
330
86310
102
}
330
86310
100
AcDbScale
 70
     0
300
6" = 1'-0"
140
6.0
141
12.0
290
     0
1001
ACAD
1000
AcRTDxfName
1000
SCALE
1000
AcRTDxfName
1000
SCALE
  0
SCALE
  5
86331
102
{ACAD_REACTORS
330
86310
102
}
330
86310
100
AcDbScale
 70
     0
300
1'-0" = 1'-0"
140
12.0
141
12.0
290
     0
1001
ACAD
1000
AcRTDxfName
1000
SCALE
1000
AcRTDxfName
1000
SCALE
  0
DICTIONARYVAR
  5
1768
102
{ACAD_REACTORS
330
1767
102
}
330
1767
100
DictionaryVariables
280
     0
  1
1
  0
DICTIONARYVAR
  5
863A5
102
{ACAD_REACTORS
330
1767
102
}
330
1767
100
DictionaryVariables
280
     0
  1
0
  0
DICTIONARYVAR
  5
1769
102
{ACAD_REACTORS
330
1767
102
}
330
1767
100
DictionaryVariables
280
     0
  1

  0
DICTIONARYVAR
  5
863A4
102
{ACAD_REACTORS
330
1767
102
}
330
1767
100
DictionaryVariables
280
     0
  1
127
  0
ENDSEC
  0
EOF
