  0
SECTION
  2
HEADER
  9
$ACADVER
  1
AC1015
  9
$ACADMAINTVER
 70
     6
  9
$DWGCODEPAGE
  3
ANSI_932
  9
$INSBASE
 10
0.0
 20
0.0
 30
0.0
  9
$EXTMIN
 10
2443.214550661661
 20
-789.2324115171538
 30
0.0
  9
$EXTMAX
 10
2511.214550661661
 20
-710.0087500333775
 30
0.0
  9
$LIMMIN
 10
0.0
 20
0.0
  9
$LIMMAX
 10
420.0
 20
297.0
  9
$ORTHOMODE
 70
     1
  9
$REGENMODE
 70
     1
  9
$FILLMODE
 70
     1
  9
$QTEXTMODE
 70
     0
  9
$MIRRTEXT
 70
     1
  9
$LTSCALE
 40
5.0
  9
$ATTMODE
 70
     0
  9
$TEXTSIZE
 40
3.5
  9
$TRACEWID
 40
1.0
  9
$TEXTSTYLE
  7
STANDARD
  9
$CLAYER
  8
寸法線
  9
$CELTYPE
  6
BYLAYER
  9
$CECOLOR
 62
   256
  9
$CELTSCALE
 40
1.0
  9
$DISPSILH
 70
     0
  9
$DIMSCALE
 40
1.0
  9
$DIMASZ
 40
1.5
  9
$DIMEXO
 40
1.5
  9
$DIMDLI
 40
0.38
  9
$DIMRND
 40
0.0
  9
$DIMDLE
 40
0.0
  9
$DIMEXE
 40
1.0
  9
$DIMTP
 40
0.0
  9
$DIMTM
 40
0.0
  9
$DIMTXT
 40
2.500000000000003
  9
$DIMCEN
 40
0.0
  9
$DIMTSZ
 40
0.0
  9
$DIMTOL
 70
     0
  9
$DIMLIM
 70
     0
  9
$DIMTIH
 70
     0
  9
$DIMTOH
 70
     0
  9
$DIMSE1
 70
     0
  9
$DIMSE2
 70
     0
  9
$DIMTAD
 70
     3
  9
$DIMZIN
 70
     8
  9
$DIMBLK
  1

  9
$DIMASO
 70
     1
  9
$DIMSHO
 70
     0
  9
$DIMPOST
  1

  9
$DIMAPOST
  1

  9
$DIMALT
 70
     0
  9
$DIMALTD
 70
     0
  9
$DIMALTF
 40
25.4
  9
$DIMLFAC
 40
1.0
  9
$DIMTOFL
 70
     0
  9
$DIMTVP
 40
0.0
  9
$DIMTIX
 70
     0
  9
$DIMSOXD
 70
     0
  9
$DIMSAH
 70
     1
  9
$DIMBLK1
  1
OPEN
  9
$DIMBLK2
  1
OPEN
  9
$DIMSTYLE
  2
STANDARD
  9
$DIMCLRD
 70
     8
  9
$DIMCLRE
 70
     8
  9
$DIMCLRT
 70
   256
  9
$DIMTFAC
 40
1.0
  9
$DIMGAP
 40
1.0
  9
$DIMJUST
 70
     0
  9
$DIMSD1
 70
     0
  9
$DIMSD2
 70
     0
  9
$DIMTOLJ
 70
     1
  9
$DIMTZIN
 70
     0
  9
$DIMALTZ
 70
     0
  9
$DIMALTTZ
 70
     0
  9
$DIMUPT
 70
     0
  9
$DIMDEC
 70
     2
  9
$DIMTDEC
 70
     2
  9
$DIMALTU
 70
     2
  9
$DIMALTTD
 70
     0
  9
$DIMTXSTY
  7
STANDARD
  9
$DIMAUNIT
 70
     0
  9
$DIMADEC
 70
     2
  9
$DIMALTRND
 40
0.0
  9
$DIMAZIN
 70
     2
  9
$DIMDSEP
 70
    46
  9
$DIMATFIT
 70
     3
  9
$DIMFRAC
 70
     0
  9
$DIMLDRBLK
  1
OPEN
  9
$DIMLUNIT
 70
     2
  9
$DIMLWD
 70
    -2
  9
$DIMLWE
 70
    -2
  9
$DIMTMOVE
 70
     0
  9
$LUNITS
 70
     2
  9
$LUPREC
 70
     2
  9
$SKETCHINC
 40
0.1
  9
$FILLETRAD
 40
6.0
  9
$AUNITS
 70
     0
  9
$AUPREC
 70
     1
  9
$MENU
  1
FM
  9
$ELEVATION
 40
0.0
  9
$PELEVATION
 40
0.0
  9
$THICKNESS
 40
0.0
  9
$LIMCHECK
 70
     0
  9
$CHAMFERA
 40
0.0
  9
$CHAMFERB
 40
0.0
  9
$CHAMFERC
 40
0.0
  9
$CHAMFERD
 40
0.0
  9
$SKPOLY
 70
     0
  9
$TDCREATE
 40
2448636.619629629
  9
$TDUCREATE
 40
2448636.244629629
  9
$TDUPDATE
 40
2456822.474685868
  9
$TDUUPDATE
 40
2456822.099685868
  9
$TDINDWG
 40
1.3602420486
  9
$TDUSRTIMER
 40
2456822.099559201
  9
$USRTIMER
 70
     1
  9
$ANGBASE
 50
0.0
  9
$ANGDIR
 70
     0
  9
$PDMODE
 70
     3
  9
$PDSIZE
 40
0.0
  9
$PLINEWID
 40
0.0
  9
$SPLFRAME
 70
     0
  9
$SPLINETYPE
 70
     6
  9
$SPLINESEGS
 70
     8
  9
$HANDSEED
  5
31CC7
  9
$SURFTAB1
 70
     6
  9
$SURFTAB2
 70
     6
  9
$SURFTYPE
 70
     6
  9
$SURFU
 70
     6
  9
$SURFV
 70
     6
  9
$UCSBASE
  2

  9
$UCSNAME
  2

  9
$UCSORG
 10
0.0
 20
0.0
 30
0.0
  9
$UCSXDIR
 10
1.0
 20
0.0
 30
0.0
  9
$UCSYDIR
 10
0.0
 20
1.0
 30
0.0
  9
$UCSORTHOREF
  2

  9
$UCSORTHOVIEW
 70
     0
  9
$UCSORGTOP
 10
0.0
 20
0.0
 30
0.0
  9
$UCSORGBOTTOM
 10
0.0
 20
0.0
 30
0.0
  9
$UCSORGLEFT
 10
0.0
 20
0.0
 30
0.0
  9
$UCSORGRIGHT
 10
0.0
 20
0.0
 30
0.0
  9
$UCSORGFRONT
 10
0.0
 20
0.0
 30
0.0
  9
$UCSORGBACK
 10
0.0
 20
0.0
 30
0.0
  9
$PUCSBASE
  2

  9
$PUCSNAME
  2

  9
$PUCSORG
 10
0.0
 20
0.0
 30
0.0
  9
$PUCSXDIR
 10
1.0
 20
0.0
 30
0.0
  9
$PUCSYDIR
 10
0.0
 20
1.0
 30
0.0
  9
$PUCSORTHOREF
  2

  9
$PUCSORTHOVIEW
 70
     0
  9
$PUCSORGTOP
 10
0.0
 20
0.0
 30
0.0
  9
$PUCSORGBOTTOM
 10
0.0
 20
0.0
 30
0.0
  9
$PUCSORGLEFT
 10
0.0
 20
0.0
 30
0.0
  9
$PUCSORGRIGHT
 10
0.0
 20
0.0
 30
0.0
  9
$PUCSORGFRONT
 10
0.0
 20
0.0
 30
0.0
  9
$PUCSORGBACK
 10
0.0
 20
0.0
 30
0.0
  9
$USERI1
 70
     0
  9
$USERI2
 70
     0
  9
$USERI3
 70
     0
  9
$USERI4
 70
     0
  9
$USERI5
 70
     0
  9
$USERR1
 40
0.0
  9
$USERR2
 40
0.0
  9
$USERR3
 40
0.0
  9
$USERR4
 40
0.0
  9
$USERR5
 40
0.0
  9
$WORLDVIEW
 70
     0
  9
$SHADEDGE
 70
     3
  9
$SHADEDIF
 70
    70
  9
$TILEMODE
 70
     1
  9
$MAXACTVP
 70
    16
  9
$PINSBASE
 10
0.0
 20
0.0
 30
0.0
  9
$PLIMCHECK
 70
     0
  9
$PEXTMIN
 10
1.000000000000000E+20
 20
1.000000000000000E+20
 30
1.000000000000000E+20
  9
$PEXTMAX
 10
-1.000000000000000E+20
 20
-1.000000000000000E+20
 30
-1.000000000000000E+20
  9
$PLIMMIN
 10
0.0
 20
0.0
  9
$PLIMMAX
 10
0.0
 20
0.0
  9
$UNITMODE
 70
     0
  9
$VISRETAIN
 70
     0
  9
$PLINEGEN
 70
     0
  9
$PSLTSCALE
 70
     0
  9
$TREEDEPTH
 70
  3020
  9
$CMLSTYLE
  2
STANDARD
  9
$CMLJUST
 70
     0
  9
$CMLSCALE
 40
1.0
  9
$PROXYGRAPHICS
 70
     1
  9
$MEASUREMENT
 70
     0
  9
$CELWEIGHT
370
    -1
  9
$ENDCAPS
280
     0
  9
$JOINSTYLE
280
     0
  9
$LWDISPLAY
290
     0
  9
$INSUNITS
 70
     0
  9
$HYPERLINKBASE
  1

  9
$STYLESHEET
  1
spax form.ctb
  9
$XEDIT
290
     1
  9
$CEPSNTYPE
380
     0
  9
$PSTYLEMODE
290
     1
  9
$FINGERPRINTGUID
  2
{BBAEEBA6-8B94-11D3-9160-00E0294F7E09}
  9
$VERSIONGUID
  2
{B7770824-534E-4035-8F26-56240B3D682C}
  9
$EXTNAMES
290
     1
  9
$PSVPSCALE
 40
0.0
  9
$OLESTARTUP
290
     0
  0
ENDSEC
  0
SECTION
  2
CLASSES
  0
CLASS
  1
LWPOLYLINE
  2
AcDbPolyline
  3
ObjectDBX Classes
 90
        0
280
     0
281
     1
  0
CLASS
  1
ACDBDICTIONARYWDFLT
  2
AcDbDictionaryWithDefault
  3
ObjectDBX Classes
 90
        0
280
     0
281
     0
  0
CLASS
  1
ACDBPLACEHOLDER
  2
AcDbPlaceHolder
  3
ObjectDBX Classes
 90
        0
280
     0
281
     0
  0
CLASS
  1
LAYOUT
  2
AcDbLayout
  3
ObjectDBX Classes
 90
        0
280
     0
281
     0
  0
CLASS
  1
DICTIONARYVAR
  2
AcDbDictionaryVar
  3
ObjectDBX Classes
 90
        0
280
     0
281
     0
  0
CLASS
  1
MATERIAL
  2
AcDbMaterial
  3
ObjectDBX Classes
 90
     1153
280
     0
281
     0
  0
CLASS
  1
VISUALSTYLE
  2
AcDbVisualStyle
  3
ObjectDBX Classes
 90
     4095
280
     0
281
     0
  0
CLASS
  1
TABLESTYLE
  2
AcDbTableStyle
  3
ObjectDBX Classes
 90
     4095
280
     0
281
     0
  0
CLASS
  1
SCALE
  2
AcDbScale
  3
ObjectDBX Classes
 90
     1153
280
     0
281
     0
  0
CLASS
  1
MLEADERSTYLE
  2
AcDbMLeaderStyle
  3
ACDB_MLEADERSTYLE_CLASS
 90
     4095
280
     0
281
     0
  0
CLASS
  1
CELLSTYLEMAP
  2
AcDbCellStyleMap
  3
ObjectDBX Classes
 90
     1152
280
     0
281
     0
  0
CLASS
  1
SORTENTSTABLE
  2
AcDbSortentsTable
  3
ObjectDBX Classes
 90
        0
280
     0
281
     0
  0
CLASS
  1
RASTERVARIABLES
  2
AcDbRasterVariables
  3
ISM
 90
        0
280
     0
281
     0
  0
CLASS
  1
SUN
  2
AcDbSun
  3
SCENEOE
 90
     1153
280
     0
281
     0
  0
ENDSEC
  0
SECTION
  2
TABLES
  0
TABLE
  2
VPORT
  5
8
330
0
100
AcDbSymbolTable
 70
     1
  0
VPORT
  5
31C80
330
8
100
AcDbSymbolTableRecord
100
AcDbViewportTableRecord
  2
*Active
 70
     0
 10
0.0
 20
0.0
 11
1.0
 21
1.0
 12
2477.214550661661
 22
-749.6205807752656
 13
0.0
 23
0.0
 14
1.0
 24
1.0
 15
20.0
 25
20.0
 16
0.0
 26
0.0
 36
1.0
 17
0.0
 27
0.0
 37
0.0
 40
80.80813471345178
 41
1.731829573934837
 42
50.0
 43
0.0
 44
0.0
 50
0.0
 51
0.0
 71
    16
 72
   100
 73
     1
 74
     0
 75
     0
 76
     0
 77
     0
 78
     0
281
     0
 65
     1
110
0.0
120
0.0
130
0.0
111
1.0
121
0.0
131
0.0
112
0.0
122
1.0
132
0.0
 79
     0
146
0.0
  0
ENDTAB
  0
TABLE
  2
LTYPE
  5
5
330
0
100
AcDbSymbolTable
 70
     4
  0
LTYPE
  5
12
330
5
100
AcDbSymbolTableRecord
100
AcDbLinetypeTableRecord
  2
BYBLOCK
 70
     0
  3

 72
    65
 73
     0
 40
0.0
  0
LTYPE
  5
13
330
5
100
AcDbSymbolTableRecord
100
AcDbLinetypeTableRecord
  2
BYLAYER
 70
     0
  3

 72
    65
 73
     0
 40
0.0
  0
LTYPE
  5
14
330
5
100
AcDbSymbolTableRecord
100
AcDbLinetypeTableRecord
  2
CONTINUOUS
 70
     0
  3
Solid line
 72
    65
 73
     0
 40
0.0
  0
LTYPE
  5
26
330
5
100
AcDbSymbolTableRecord
100
AcDbLinetypeTableRecord
  2
PHANTOM
 70
     0
  3
_____ _ _ _____ _ _ _____ _ _ _____ _ _ ____
 72
    65
 73
     6
 40
2.5
 49
1.25
 74
     0
 49
-0.25
 74
     0
 49
0.25
 74
     0
 49
-0.25
 74
     0
 49
0.25
 74
     0
 49
-0.25
 74
     0
  0
LTYPE
  5
514
330
5
100
AcDbSymbolTableRecord
100
AcDbLinetypeTableRecord
  2
CENTER
 70
     0
  3
Center ____ _ ____ _ ____ _ ____ _ ____ _ ____
 72
    65
 73
     4
 40
2.0
 49
1.25
 74
     0
 49
-0.25
 74
     0
 49
0.25
 74
     0
 49
-0.25
 74
     0
  0
ENDTAB
  0
TABLE
  2
LAYER
  5
2
102
{ACAD_XDICTIONARY
360
9EB
102
}
330
0
100
AcDbSymbolTable
 70
    16
  0
LAYER
  5
F
102
{ACAD_XDICTIONARY
360
2C7F6
102
}
330
2
100
AcDbSymbolTableRecord
100
AcDbLayerTableRecord
  2
0
 70
     0
 62
     7
  6
CONTINUOUS
370
    -3
390
616
  0
LAYER
  5
34
102
{ACAD_XDICTIONARY
360
2C7FC
102
}
330
2
100
AcDbSymbolTableRecord
100
AcDbLayerTableRecord
  2
寸法線
 70
     0
 62
     7
  6
CONTINUOUS
370
    -3
390
616
  0
LAYER
  5
2F4
102
{ACAD_XDICTIONARY
360
2C804
102
}
330
2
100
AcDbSymbolTableRecord
100
AcDbLayerTableRecord
  2
文字
 70
     0
 62
     7
  6
CONTINUOUS
370
    -3
390
616
  0
LAYER
  5
305
102
{ACAD_XDICTIONARY
360
2C808
102
}
330
2
100
AcDbSymbolTableRecord
100
AcDbLayerTableRecord
  2
姿図
 70
     0
 62
     8
  6
CONTINUOUS
370
    -3
390
616
  0
ENDTAB
  0
TABLE
  2
STYLE
  5
3
330
0
100
AcDbSymbolTable
 70
     2
  0
STYLE
  5
10
330
3
100
AcDbSymbolTableRecord
100
AcDbTextStyleTableRecord
  2
STANDARD
 70
     0
 40
0.0
 41
1.0
 50
0.0
 71
     0
 42
3.5
  3
MONOTXT
  4
BIGFONT
  0
STYLE
  5
1ED6A
330
3
100
AcDbSymbolTableRecord
100
AcDbTextStyleTableRecord
  2
EXTFONT
 70
     0
 40
4.5
 41
1.0
 50
0.0
 71
     0
 42
4.5
  3
txt.shx
  4
extfont
  0
ENDTAB
  0
TABLE
  2
VIEW
  5
6
330
0
100
AcDbSymbolTable
 70
     0
  0
ENDTAB
  0
TABLE
  2
UCS
  5
7
330
0
100
AcDbSymbolTable
 70
     0
  0
ENDTAB
  0
TABLE
  2
APPID
  5
9
330
0
100
AcDbSymbolTable
 70
     6
  0
APPID
  5
11
330
9
100
AcDbSymbolTableRecord
100
AcDbRegAppTableRecord
  2
ACAD
 70
     0
  0
APPID
  5
2C7EF
330
9
100
AcDbSymbolTableRecord
100
AcDbRegAppTableRecord
  2
ACAD_MLEADERVER
 70
     0
  0
APPID
  5
2D61F
330
9
100
AcDbSymbolTableRecord
100
AcDbRegAppTableRecord
  2
ACAD_EXEMPT_FROM_CAD_STANDARDS
 70
     0
  0
APPID
  5
2D655
330
9
100
AcDbSymbolTableRecord
100
AcDbRegAppTableRecord
  2
ACAD_DSTYLE_DIMJAG
 70
     0
  0
APPID
  5
2D656
330
9
100
AcDbSymbolTableRecord
100
AcDbRegAppTableRecord
  2
ACAD_DSTYLE_DIMTALN
 70
     0
  0
APPID
  5
2E4B6
330
9
100
AcDbSymbolTableRecord
100
AcDbRegAppTableRecord
  2
ACAD_PSEXT
 70
     0
  0
ENDTAB
  0
TABLE
  2
DIMSTYLE
  5
A
330
0
100
AcDbSymbolTable
 70
     2
100
AcDbDimStyleTable
  0
DIMSTYLE
105
1CC
330
A
100
AcDbSymbolTableRecord
100
AcDbDimStyleTableRecord
  2
STANDARD
 70
     0
 41
1.5
 42
1.5
 44
1.0
 73
     0
 74
     0
 77
     3
 78
     8
 79
     2
140
2.500000000000003
141
0.0
147
1.0
171
     0
173
     1
176
     8
177
     8
271
     2
178
   256
179
     2
271
     2
272
     2
274
     0
340
10
341
608
343
608
344
608
  0
ENDTAB
  0
TABLE
  2
BLOCK_RECORD
  5
1
330
0
100
AcDbSymbolTable
 70
    84
  0
BLOCK_RECORD
  5
18
330
1
100
AcDbSymbolTableRecord
100
AcDbBlockTableRecord
  2
*MODEL_SPACE
340
619
  0
BLOCK_RECORD
  5
15
330
1
100
AcDbSymbolTableRecord
100
AcDbBlockTableRecord
  2
*PAPER_SPACE
340
61A
  0
BLOCK_RECORD
  5
608
330
1
100
AcDbSymbolTableRecord
100
AcDbBlockTableRecord
  2
_OPEN
340
0
102
{BLKREFS
331
1D91B
331
1D91C
331
1D924
331
1D925
331
1D92F
331
1D930
331
1D938
331
1D939
331
1D941
331
1D942
331
1D94A
331
1D94B
331
1D953
331
1D954
331
1D95C
331
1D95D
331
1D965
331
1D966
331
1D96E
331
1D96F
331
1E1F0
331
1E1F1
331
2D5B8
331
2D5B9
331
2D5C1
331
2D5C2
331
2D5CA
331
2D5CB
331
2D5D5
331
2D5D6
331
2D5DE
331
2D5DF
331
2D5E7
331
2D5E8
331
2D5F0
331
2D5F1
331
2D5F9
331
2D5FA
331
2D602
331
2D603
331
2D60B
331
2D60C
331
2D614
331
2D615
331
2E39B
331
2E39C
331
2E3A4
331
2E3A5
331
2E3AD
331
2E3AE
331
2E3B6
331
2E3B7
331
2E3BF
331
2E3C0
331
2E3C8
331
2E3C9
331
2E446
331
2E447
331
2E44F
331
2E450
331
2E46E
331
2E46F
331
2E478
331
2E479
331
2E481
331
2E482
331
2E48A
331
2E48B
331
2E493
331
2E494
331
2E49E
331
2E49F
331
2E4A7
331
2E4A8
331
2F229
331
2F22A
331
2F234
331
2F235
331
2F23D
331
2F23E
331
2F246
331
2F247
331
2F24F
331
2F250
331
2F258
331
2F259
331
2F261
331
2F262
331
2F26A
331
2F26B
331
2F273
331
2F274
331
2F27C
331
2F27D
331
2F285
331
2F286
331
2F28E
331
2F28F
331
2F298
331
2F299
331
2F2A1
331
2F2A2
331
2F2AA
331
2F2AB
331
30DD3
331
30DD4
331
30DDC
331
30DDD
331
30DE5
331
30DE6
331
30DEE
331
30DEF
331
30DF7
331
30DF8
331
30E00
331
30E01
331
30E0A
331
30E0B
331
30E13
331
30E14
331
30E1C
331
30E1D
331
30E25
331
30E26
331
30E2E
331
30E2F
331
30E39
331
30E3A
331
30E42
331
30E43
331
30E4B
331
30E4C
331
30E54
331
30E55
331
31BC8
331
31BC9
331
31BD1
331
31BD2
331
31BDA
331
31BDB
331
31BE3
331
31BE4
331
31BEC
331
31BED
331
31BF7
331
31BF8
331
31C00
331
31C01
331
31C09
331
31C0A
331
31C12
331
31C13
331
31C1B
331
31C1C
331
31C24
331
31C25
331
31C2D
331
31C2E
331
31C36
331
31C37
331
31C3F
331
31C40
331
31C48
331
31C49
102
}
  0
BLOCK_RECORD
  5
A62
330
1
100
AcDbSymbolTableRecord
100
AcDbBlockTableRecord
  2
SUN
340
0
  0
ENDTAB
  0
ENDSEC
  0
SECTION
  2
BLOCKS
  0
BLOCK
  5
39
330
18
100
AcDbEntity
  8
0
100
AcDbBlockBegin
  2
*MODEL_SPACE
 70
     0
 10
0.0
 20
0.0
 30
0.0
  3
*MODEL_SPACE
  1
*MODEL_SPACE
  0
ENDBLK
  5
3A
330
18
100
AcDbEntity
  8
0
100
AcDbBlockEnd
  0
BLOCK
  5
37
330
15
100
AcDbEntity
 67
     1
  8
0
100
AcDbBlockBegin
  2
*PAPER_SPACE
 70
     0
 10
0.0
 20
0.0
 30
0.0
  3
*PAPER_SPACE
  1
*PAPER_SPACE
  0
ENDBLK
  5
38
330
15
100
AcDbEntity
 67
     1
  8
0
100
AcDbBlockEnd
  0
BLOCK
  5
609
330
608
100
AcDbEntity
  8
0
100
AcDbBlockBegin
  2
_OPEN
 70
     0
 10
0.0
 20
0.0
 30
0.0
  3
_OPEN
  1
_OPEN
  0
LINE
  5
60A
330
608
100
AcDbEntity
  8
0
  6
ByBlock
 62
     0
100
AcDbLine
 10
-1.0
 20
0.1666666666666667
 30
0.0
 11
0.0
 21
0.0
 31
0.0
  0
LINE
  5
60B
330
608
100
AcDbEntity
  8
0
  6
ByBlock
 62
     0
100
AcDbLine
 10
0.0
 20
0.0
 30
0.0
 11
-1.0
 21
-0.1666666666666667
 31
0.0
  0
LINE
  5
60C
330
608
100
AcDbEntity
  8
0
  6
ByBlock
 62
     0
100
AcDbLine
 10
0.0
 20
0.0
 30
0.0
 11
-1.0
 21
0.0
 31
0.0
  0
ENDBLK
  5
60D
330
608
100
AcDbEntity
  8
0
100
AcDbBlockEnd
  0
BLOCK
  5
A63
330
A62
100
AcDbEntity
  8
0
100
AcDbBlockBegin
  2
SUN
 70
     0
 10
0.0
 20
0.0
 30
0.0
  3
SUN
  1
SUN
  0
LINE
  5
A64
330
A62
100
AcDbEntity
  8
0
100
AcDbLine
 10
-0.0000000000000568
 20
0.0
 30
0.0
 11
-1.500000000000057
 21
0.0
 31
0.0
  0
LINE
  5
A65
330
A62
100
AcDbEntity
  8
0
100
AcDbLine
 10
-0.0000000000000568
 20
0.0000000000000284
 30
0.0
 11
-1.500000000000057
 21
0.401923788646684
 31
0.0
  0
LINE
  5
A66
330
A62
100
AcDbEntity
  8
0
100
AcDbLine
 10
-0.0000000000000568
 20
0.0000000000000284
 30
0.0
 11
-1.500000000000057
 21
-0.4019237886466556
 31
0.0
  0
ENDBLK
  5
A67
330
A62
100
AcDbEntity
  8
0
100
AcDbBlockEnd
  0
ENDSEC
  0
SECTION
  2
ENTITIES
  0
SPLINE
  5
319FD
330
18
100
AcDbEntity
  8
姿図
100
AcDbSpline
210
0.0
220
0.0
230
1.0
 70
     8
 71
     3
 72
    11
 73
     7
 74
     0
 42
0.000000001
 43
0.0000000001
 40
0.0
 40
0.0
 40
0.0
 40
0.0
 40
1.0
 40
1.0
 40
1.0
 40
2.0
 40
2.0
 40
2.0
 40
2.0
 10
2489.091962653739
 20
-725.8242957062737
 30
0.0
 10
2485.945367803433
 20
-726.0949012718156
 30
0.0
 10
2483.736098777844
 20
-726.1949865610059
 30
0.0
 10
2481.405135139263
 20
-726.1736615704112
 30
0.0
 10
2479.674256736011
 20
-726.1577389107672
 30
0.0
 10
2478.011760469264
 20
-726.0761352800926
 30
0.0
 10
2475.624639713555
 20
-725.835031611193
 30
0.0
  0
SPLINE
  5
319FE
330
18
100
AcDbEntity
  8
姿図
100
AcDbSpline
210
0.0
220
0.0
230
1.0
 70
     8
 71
     3
 72
    17
 73
    13
 74
     0
 42
0.000000001
 43
0.0000000001
 40
0.2084474298111308
 40
0.2084474298111308
 40
0.2084474298111308
 40
0.2084474298111308
 40
1.0
 40
1.0
 40
1.0
 40
2.0
 40
2.0
 40
2.0
 40
3.0
 40
3.0
 40
3.0
 40
3.72058887900539
 40
3.72058887900539
 40
3.72058887900539
 40
3.72058887900539
 10
2469.762771906999
 20
-724.8184922378874
 30
0.0
 10
2467.558198511043
 20
-724.1932028256731
 30
0.0
 10
2466.234733428658
 20
-723.401402696911
 30
0.0
 10
2466.24249816017
 20
-722.5505456684085
 30
0.0
 10
2466.260268985666
 20
-720.6261785171628
 30
0.0
 10
2473.077726312117
 20
-719.1287376776181
 30
0.0
 10
2481.468825777838
 20
-719.2059341435702
 30
0.0
 10
2489.860636076579
 20
-719.2828462763141
 30
0.0
 10
2496.64937574903
 20
-720.9048250609304
 30
0.0
 10
2496.632315756555
 20
-722.8289078789687
 30
0.0
 10
2496.625759361433
 20
-723.5173293667826
 30
0.0
 10
2495.748720214278
 20
-724.1511242232784
 30
0.0
 10
2494.240782770477
 20
-724.6777370661464
 30
0.0
  0
SPLINE
  5
319FF
330
18
100
AcDbEntity
  8
姿図
100
AcDbSpline
210
0.0
220
0.0
230
1.0
 70
     8
 71
     3
 72
    11
 73
     7
 74
     0
 42
0.000000001
 43
0.0000000001
 40
0.0
 40
0.0
 40
0.0
 40
0.0
 40
1.0
 40
1.0
 40
1.0
 40
2.0
 40
2.0
 40
2.0
 40
2.0
 10
2489.0214100766
 20
-725.552097549157
 30
0.0
 10
2485.913522484144
 20
-725.8380062184541
 30
0.0
 10
2483.718470118952
 20
-725.9439203384065
 30
0.0
 10
2481.393193144531
 20
-725.9227375144161
 30
0.0
 10
2479.689042062824
 20
-725.9070991879803
 30
0.0
 10
2478.055832116493
 20
-725.8243582244735
 30
0.0
 10
2475.691462719097
 20
-725.5556913676597
 30
0.0
  0
SPLINE
  5
31A00
330
18
100
AcDbEntity
  8
姿図
100
AcDbSpline
210
0.0
220
0.0
230
1.0
 70
     8
 71
     3
 72
    17
 73
    13
 74
     0
 42
0.000000001
 43
0.0000000001
 40
0.2539452136063279
 40
0.2539452136063279
 40
0.2539452136063279
 40
0.2539452136063279
 40
1.0
 40
1.0
 40
1.0
 40
2.0
 40
2.0
 40
2.0
 40
3.0
 40
3.0
 40
3.0
 40
3.626749038855106
 40
3.626749038855106
 40
3.626749038855106
 40
3.626749038855106
 10
2469.824885692984
 20
-724.4651159576854
 30
0.0
 10
2468.210476698711
 20
-723.9335411882558
 30
0.0
 10
2467.26549048989
 20
-723.294817863011
 30
0.0
 10
2467.271642206259
 20
-722.614947140004
 30
0.0
 10
2467.287849199112
 20
-720.8594739142663
 30
0.0
 10
2473.636867565505
 20
-719.4945323496152
 30
0.0
 10
2481.451765785363
 20
-719.5664686512208
 30
0.0
 10
2489.266948338428
 20
-719.6378362864103
 30
0.0
 10
2495.589950216297
 20
-721.1187857998952
 30
0.0
 10
2495.574027556654
 20
-722.8741168590288
 30
0.0
 10
2495.569394211969
 20
-723.3694392263418
 30
0.0
 10
2495.060368075614
 20
-723.8337117273827
 30
0.0
 10
2494.15629180997
 20
-724.2433787885976
 30
0.0
  0
ELLIPSE
  5
31A01
330
18
100
AcDbEntity
  8
姿図
100
AcDbEllipse
 10
2484.029502230339
 20
-719.9558823163156
 30
0.0
 11
0.843703884548611
 21
0.0
 31
0.0
210
0.0
220
0.0
230
1.0
 40
0.2564315215099384
 41
0.0
 42
6.283185307179586
  0
SPLINE
  5
31A02
330
18
100
AcDbEntity
  8
姿図
100
AcDbSpline
210
0.0
220
0.0
230
1.0
 70
     8
 71
     3
 72
    17
 73
    13
 74
     0
 42
0.000000001
 43
0.0000000001
 40
0.0
 40
0.0
 40
0.0
 40
0.0
 40
1.0
 40
1.0
 40
1.0
 40
2.0
 40
2.0
 40
2.0
 40
3.0
 40
3.0
 40
3.0
 40
4.0
 40
4.0
 40
4.0
 40
4.0
 10
2467.905705259935
 20
-715.4105123175642
 30
0.0
 10
2467.281167368725
 20
-714.9504611871391
 30
0.0
 10
2466.933427855431
 20
-714.4533045730795
 30
0.0
 10
2466.945654183373
 20
-713.9370976340895
 30
0.0
 10
2467.003373824581
 20
-711.496239210645
 30
0.0
 10
2473.487592631343
 20
-709.9348233993169
 30
0.0
 10
2481.510907092611
 20
-710.0087500333775
 30
0.0
 10
2489.534790220296
 20
-710.0822501676266
 30
0.0
 10
2496.036353352741
 20
-711.4248715754554
 30
0.0
 10
2496.00223336779
 20
-714.2032335167083
 30
0.0
 10
2495.995978037215
 20
-714.706503294738
 30
0.0
 10
2495.665582849605
 20
-715.1854625834902
 30
0.0
 10
2495.062796448801
 20
-715.6247573897365
 30
0.0
  0
SPLINE
  5
31A03
330
18
100
AcDbEntity
  8
姿図
100
AcDbSpline
210
0.0
220
0.0
230
1.0
 70
     8
 71
     3
 72
    11
 73
     7
 74
     0
 42
0.000000001
 43
0.0000000001
 40
0.0
 40
0.0
 40
0.0
 40
0.0
 40
1.0
 40
1.0
 40
1.0
 40
2.0
 40
2.0
 40
2.0
 40
2.0
 10
2466.998540160046
 20
-714.4390879126835
 30
0.0
 10
2467.056259801256
 20
-711.9980873226349
 30
0.0
 10
2473.540478608018
 20
-710.4368136779109
 30
0.0
 10
2481.563793069286
 20
-710.510740311972
 30
0.0
 10
2489.277184333914
 20
-710.5812549475376
 30
0.0
 10
2495.583694885722
 20
-711.8247862324039
 30
0.0
 10
2496.030098022167
 20
-714.3891874346923
 30
0.0
  0
SPLINE
  5
31A04
330
18
100
AcDbEntity
  8
姿図
100
AcDbSpline
210
0.0
220
0.0
230
1.0
 70
     8
 71
     3
 72
    11
 73
     7
 74
     0
 42
0.000000001
 43
0.0000000001
 40
0.0
 40
0.0
 40
0.0
 40
0.0
 40
1.0
 40
1.0
 40
1.0
 40
2.0
 40
2.0
 40
2.0
 40
2.0
 10
2468.346137399014
 20
-713.5947604517457
 30
0.0
 10
2468.099051841326
 20
-714.4554370721391
 30
0.0
 10
2467.824954628884
 20
-715.5984565680033
 30
0.0
 10
2467.572608906851
 20
-716.860327344781
 30
0.0
 10
2467.199421571447
 20
-718.7261218551944
 30
0.0
 10
2466.970106839253
 20
-720.3702786300289
 30
0.0
 10
2466.942242184877
 20
-721.2443189111947
 30
0.0
  0
SPLINE
  5
31A05
330
18
100
AcDbEntity
  8
姿図
100
AcDbSpline
210
0.0
220
0.0
230
1.0
 70
     8
 71
     3
 72
    11
 73
     7
 74
     0
 42
0.000000001
 43
0.0000000001
 40
0.0
 40
0.0
 40
0.0
 40
0.0
 40
1.0
 40
1.0
 40
1.0
 40
2.0
 40
2.0
 40
2.0
 40
2.0
 10
2494.889921858382
 20
-714.9011293755636
 30
0.0
 10
2495.147527744763
 20
-715.7218571802435
 30
0.0
 10
2495.425605622116
 20
-717.0177057753681
 30
0.0
 10
2495.641698860139
 20
-718.4875662937438
 30
0.0
 10
2495.796376125252
 20
-719.5450014940225
 30
0.0
 10
2495.894755415193
 20
-720.5255245615568
 30
0.0
 10
2495.933424731472
 20
-721.3128432143048
 30
0.0
  0
POLYLINE
  5
31A06
330
18
100
AcDbEntity
  8
姿図
100
AcDb2dPolyline
 66
     1
 10
0.0
 20
0.0
 30
0.0
  0
VERTEX
  5
31A07
330
31A06
100
AcDbEntity
  8
姿図
100
AcDbVertex
100
AcDb2dVertex
 10
2472.157358675653
 20
-743.3187973553781
 30
0.0
  0
VERTEX
  5
31A08
330
31A06
100
AcDbEntity
  8
姿図
100
AcDbVertex
100
AcDb2dVertex
 10
2472.224193528083
 20
-740.0499185033818
 30
0.0
  0
VERTEX
  5
31A09
330
31A06
100
AcDbEntity
  8
姿図
100
AcDbVertex
100
AcDb2dVertex
 10
2476.660959749871
 20
-721.5029024443538
 30
0.0
  0
SEQEND
  5
31A0A
330
31A06
100
AcDbEntity
  8
姿図
  0
LINE
  5
31A0B
330
18
100
AcDbEntity
  8
姿図
100
AcDbLine
 10
2467.587439513326
 20
-739.4161931887115
 30
0.0
 11
2472.224193528083
 21
-740.0499185033818
 31
0.0
  0
ELLIPSE
  5
31A0C
330
18
100
AcDbEntity
  8
姿図
100
AcDbEllipse
 10
2494.39269396211
 20
-738.6900531876267
 30
0.0
 11
0.1591634114583333
 21
-0.9710862901475694
 31
0.0
210
0.0
220
0.0
230
1.0
 40
0.6662211580819815
 41
0.0
 42
6.283185307179586
  0
SPLINE
  5
31A0D
330
18
100
AcDbEntity
  8
姿図
100
AcDbSpline
210
0.0
220
0.0
230
1.0
 70
     8
 71
     3
 72
    11
 73
     7
 74
     0
 42
0.000000001
 43
0.0000000001
 40
0.0
 40
0.0
 40
0.0
 40
0.0
 40
1.0
 40
1.0
 40
1.0
 40
2.0
 40
2.0
 40
2.0
 40
2.0
 10
2493.931051166971
 20
-737.948410256854
 30
0.0
 10
2494.133622781555
 20
-738.0941377959166
 30
0.0
 10
2494.296231288501
 20
-738.3725015111945
 30
0.0
 10
2494.351352816278
 20
-738.7097763592847
 30
0.0
 10
2494.408541401348
 20
-739.0563529651872
 30
0.0
 10
2494.336883415237
 20
-739.380364195656
 30
0.0
 10
2494.183232156556
 20
-739.5819022815936
 30
0.0
  0
SPLINE
  5
31A0E
330
18
100
AcDbEntity
  8
姿図
100
AcDbSpline
210
0.0
220
0.0
230
1.0
 70
     8
 71
     3
 72
    14
 73
    10
 74
     0
 42
0.000000001
 43
0.0000000001
 40
0.0
 40
0.0
 40
0.0
 40
0.0
 40
1.0
 40
1.0
 40
1.0
 40
2.0
 40
2.0
 40
2.0
 40
3.0
 40
3.0
 40
3.0
 40
3.0
 10
2487.783622781555
 20
-720.8733112442674
 30
0.0
 10
2486.177519265931
 20
-721.0226561335903
 30
0.0
 10
2484.28478380586
 20
-721.1089557755172
 30
0.0
 10
2482.25837864093
 20
-721.1089557755172
 30
0.0
 10
2480.489666618361
 20
-721.1089557755172
 30
0.0
 10
2478.827235791539
 20
-720.9821762616284
 30
0.0
 10
2477.361003152649
 20
-720.9273992433991
 30
0.0
 10
2476.860086268969
 20
-720.9086234729998
 30
0.0
 10
2476.702300895705
 20
-721.3044649443541
 30
0.0
 10
2476.661648768969
 20
-721.5583684816802
 30
0.0
  0
LINE
  5
31A0F
330
18
100
AcDbEntity
  8
姿図
100
AcDbLine
 10
2472.470553061627
 20
-720.2048560373719
 30
0.0
 11
2476.587234706468
 21
-721.1561535836768
 31
0.0
  0
ELLIPSE
  5
31A10
330
18
100
AcDbEntity
  8
姿図
100
AcDbEllipse
 10
2476.749670958639
 20
-720.22890613359
 30
0.0
 11
0.9585978190104166
 21
0.0
 31
0.0
210
0.0
220
0.0
230
1.0
 40
0.4208446026042643
 41
0.0
 42
6.283185307179586
  0
SPLINE
  5
31A11
330
18
100
AcDbEntity
  8
姿図
100
AcDbSpline
210
0.0
220
0.0
230
1.0
 70
     8
 71
     3
 72
    11
 73
     7
 74
     0
 42
0.000000001
 43
0.0000000001
 40
0.0
 40
0.0
 40
0.0
 40
0.0
 40
1.0
 40
1.0
 40
1.0
 40
1.311238117250983
 40
1.311238117250983
 40
1.311238117250983
 40
1.311238117250983
 10
2475.788661572789
 20
-720.2290783883645
 30
0.0
 10
2475.787972553691
 20
-720.1613822620625
 30
0.0
 10
2475.791073139629
 20
-720.0933416262114
 30
0.0
 10
2475.791073139629
 20
-720.0297796144928
 30
0.0
 10
2475.791073139629
 20
-719.9352612148474
 30
0.0
 10
2475.832888697344
 20
-719.8462993118974
 30
0.0
 10
2475.906538147783
 20
-719.7685910370133
 30
0.0
  0
SPLINE
  5
31A12
330
18
100
AcDbEntity
  8
姿図
100
AcDbSpline
210
0.0
220
0.0
230
1.0
 70
     8
 71
     3
 72
    17
 73
    13
 74
     0
 42
0.000000001
 43
0.0000000001
 40
0.0
 40
0.0
 40
0.0
 40
0.0
 40
1.0
 40
1.0
 40
1.0
 40
2.0
 40
2.0
 40
2.0
 40
3.0
 40
3.0
 40
3.0
 40
4.0
 40
4.0
 40
4.0
 40
4.0
 10
2466.256572653962
 20
-722.4198945593663
 30
0.0
 10
2466.247047491497
 20
-722.367861582316
 30
0.0
 10
2466.24249816017
 20
-722.3155442720573
 30
0.0
 10
2466.242924659982
 20
-722.263084795195
 30
0.0
 10
2466.260695485478
 20
-720.3387176439488
 30
0.0
 10
2473.084976808919
 20
-718.8412768044045
 30
0.0
 10
2481.484179771066
 20
-718.9186154369604
 30
0.0
 10
2489.884520066045
 20
-718.9955275697043
 30
0.0
 10
2496.680083735486
 20
-720.6176485209248
 30
0.0
 10
2496.663023743011
 20
-722.5417313389631
 30
0.0
 10
2496.662455076595
 20
-722.5832439873201
 30
0.0
 10
2496.6590430781
 20
-722.6246144690733
 30
0.0
 10
2496.65221908111
 20
-722.6657006176188
 30
0.0
  0
SPLINE
  5
31A13
330
18
100
AcDbEntity
  8
姿図
100
AcDbSpline
210
0.0
220
0.0
230
1.0
 70
     8
 71
     3
 72
    11
 73
     7
 74
     0
 42
0.000000001
 43
0.0000000001
 40
0.0
 40
0.0
 40
0.0
 40
0.0
 40
1.0
 40
1.0
 40
1.0
 40
2.0
 40
2.0
 40
2.0
 40
2.0
 10
2468.061662024483
 20
-714.8419880683151
 30
0.0
 10
2466.966979173966
 20
-712.9102282536629
 30
0.0
 10
2473.379972512143
 20
-710.7707630306204
 30
0.0
 10
2481.584265060257
 20
-710.9784684390106
 30
0.0
 10
2489.21463102817
 20
-711.171672853797
 30
0.0
 10
2495.52512224489
 20
-712.4594179524955
 30
0.0
 10
2494.945651167135
 20
-715.035192483101
 30
0.0
  0
SPLINE
  5
31A14
330
18
100
AcDbEntity
  8
姿図
100
AcDbSpline
210
0.0
220
0.0
230
1.0
 70
     8
 71
     3
 72
    17
 73
    13
 74
     0
 42
0.000000001
 43
0.0000000001
 40
0.0
 40
0.0
 40
0.0
 40
0.0
 40
1.0
 40
1.0
 40
1.0
 40
2.0
 40
2.0
 40
2.0
 40
3.0
 40
3.0
 40
3.0
 40
4.0
 40
4.0
 40
4.0
 40
4.0
 10
2459.882311203864
 20
-752.9905584230864
 30
0.0
 10
2460.854689404819
 20
-751.7544581626698
 30
0.0
 10
2460.795433762457
 20
-751.5119234404478
 30
0.0
 10
2462.491109760721
 20
-750.2082993085032
 30
0.0
 10
2466.01165283798
 20
-747.503210332809
 30
0.0
 10
2472.959721414368
 20
-750.2854694473922
 30
0.0
 10
2477.263851459942
 20
-755.8858166696145
 30
0.0
 10
2481.567981505513
 20
-761.4861638918364
 30
0.0
 10
2482.203257113153
 20
-768.2199475289895
 30
0.0
 10
2478.683230800219
 20
-770.9264145428783
 30
0.0
 10
2477.961138786329
 20
-771.481074916142
 30
0.0
 10
2477.103999029386
 20
-772.023332945656
 30
0.0
 10
2476.17037815265
 20
-772.3685315133644
 30
0.0
  0
SPLINE
  5
31A15
330
18
100
AcDbEntity
  8
姿図
100
AcDbSpline
210
0.0
220
0.0
230
1.0
 70
     8
 71
     3
 72
    14
 73
    10
 74
     0
 42
0.000000001
 43
0.0000000001
 40
0.0
 40
0.0
 40
0.0
 40
0.0
 40
1.0
 40
1.0
 40
1.0
 40
2.0
 40
2.0
 40
2.0
 40
3.0
 40
3.0
 40
3.0
 40
3.0
 10
2478.818967562372
 20
-770.8278848119758
 30
0.0
 10
2481.593475212112
 20
-768.9771795168367
 30
0.0
 10
2483.043171392666
 20
-767.9236693171838
 30
0.0
 10
2483.765263406556
 20
-767.3690089439201
 30
0.0
 10
2486.109306375305
 20
-765.5672240046838
 30
0.0
 10
2486.616424430862
 20
-761.9257580758645
 30
0.0
 10
2485.423043354472
 20
-758.0403793866285
 30
0.0
 10
2485.423043354472
 20
-758.0403793866285
 30
0.0
 10
2487.084957416973
 20
-756.3329900637118
 30
0.0
 10
2487.084957416973
 20
-756.3329900637118
 30
0.0
  0
SPLINE
  5
31A16
330
18
100
AcDbEntity
  8
姿図
100
AcDbSpline
210
0.0
220
0.0
230
1.0
 70
     8
 71
     3
 72
    17
 73
    13
 74
     0
 42
0.000000001
 43
0.0000000001
 40
0.0
 40
0.0
 40
0.0
 40
0.0
 40
1.0
 40
1.0
 40
1.0
 40
2.0
 40
2.0
 40
2.0
 40
3.0
 40
3.0
 40
3.0
 40
4.0
 40
4.0
 40
4.0
 40
4.0
 10
2461.645338818882
 20
-750.8794039091977
 30
0.0
 10
2462.617717019837
 20
-749.643303648781
 30
0.0
 10
2465.159336214715
 20
-747.1352741348924
 30
0.0
 10
2466.954058708204
 20
-745.9722098987809
 30
0.0
 10
2471.297807351868
 20
-743.156877867531
 30
0.0
 10
2478.054156364454
 20
-746.6061074682257
 30
0.0
 10
2482.35759739093
 20
-752.2064546904476
 30
0.0
 10
2482.702795958639
 20
-752.6550061227395
 30
0.0
 10
2483.023878857944
 20
-753.1111367651006
 30
0.0
 10
2483.320846088847
 20
-753.5727795602393
 30
0.0
 10
2483.320846088847
 20
-753.5727795602393
 30
0.0
 10
2486.358731288501
 20
-751.6318127633645
 30
0.0
 10
2486.358731288501
 20
-751.6318127633645
 30
0.0
  0
SPLINE
  5
31A17
330
18
100
AcDbEntity
  8
姿図
100
AcDbSpline
210
0.0
220
0.0
230
1.0
 70
     8
 71
     3
 72
    11
 73
     7
 74
     0
 42
0.000000001
 43
0.0000000001
 40
0.0
 40
0.0
 40
0.0
 40
0.0
 40
1.0
 40
1.0
 40
1.0
 40
2.0
 40
2.0
 40
2.0
 40
2.0
 10
2496.408763840583
 20
-763.4353989178785
 30
0.0
 10
2496.408763840583
 20
-764.6790783883644
 30
0.0
 10
2495.495813536763
 20
-765.6871133276004
 30
0.0
 10
2494.369267312806
 20
-765.6871133276004
 30
0.0
 10
2493.243410107945
 20
-765.6871133276004
 30
0.0
 10
2492.352508415237
 20
-763.6483058189201
 30
0.0
 10
2492.337349995097
 20
-762.5320948814201
 30
0.0
  0
SPLINE
  5
31A18
330
18
100
AcDbEntity
  8
姿図
100
AcDbSpline
210
0.0
220
0.0
230
1.0
 70
     8
 71
     3
 72
     8
 73
     4
 74
     0
 42
0.000000001
 43
0.0000000001
 40
0.0
 40
0.0
 40
0.0
 40
0.0
 40
1.0
 40
1.0
 40
1.0
 40
1.0
 10
2494.212859977737
 20
-765.7098509578091
 30
0.0
 10
2492.464818528083
 20
-765.642327086281
 30
0.0
 10
2491.940474995097
 20
-763.8315848987809
 30
0.0
 10
2491.924627555861
 20
-762.7153739612809
 30
0.0
  0
ELLIPSE
  5
31A19
330
18
100
AcDbEntity
  8
姿図
100
AcDbEllipse
 10
2494.699651969924
 20
-762.5693019126702
 30
0.0
 11
-0.000344509548611111
 21
-1.380794270833333
 31
0.0
210
0.0
220
0.0
230
1.0
 40
0.7238023726809617
 41
0.0
 42
6.283185307179586
  0
ELLIPSE
  5
31A1A
330
18
100
AcDbEntity
  8
姿図
100
AcDbEllipse
 10
2494.562192660028
 20
-762.7029716175311
 30
0.0
 11
0.0
 21
-1.659157986111111
 31
0.0
210
0.0
220
0.0
230
1.0
 40
0.7221760797342193
 41
0.0
 42
6.283185307179586
  0
SPLINE
  5
31A1B
330
18
100
AcDbEntity
  8
姿図
100
AcDbSpline
210
0.0
220
0.0
230
1.0
 70
     8
 71
     3
 72
    11
 73
     7
 74
     0
 42
0.000000001
 43
0.0000000001
 40
0.0
 40
0.0
 40
0.0
 40
0.0
 40
1.0
 40
1.0
 40
1.0
 40
2.0
 40
2.0
 40
2.0
 40
2.0
 10
2484.242064621834
 20
-767.0017617651006
 30
0.0
 10
2486.508248432597
 20
-765.2592324682255
 30
0.0
 10
2487.128365620097
 20
-761.7562593779476
 30
0.0
 10
2486.133422043709
 20
-757.9880139352395
 30
0.0
 10
2486.133422043709
 20
-757.9880139352395
 30
0.0
 10
2485.494701340583
 20
-758.3201211401006
 30
0.0
 10
2485.494701340583
 20
-758.3201211401006
 30
0.0
  0
SPLINE
  5
31A1C
330
18
100
AcDbEntity
  8
姿図
100
AcDbSpline
210
0.0
220
0.0
230
1.0
 70
     8
 71
     3
 72
    17
 73
    13
 74
     0
 42
0.000000001
 43
0.0000000001
 40
0.0
 40
0.0
 40
0.0
 40
0.0
 40
1.0
 40
1.0
 40
1.0
 40
2.0
 40
2.0
 40
2.0
 40
3.0
 40
3.0
 40
3.0
 40
4.0
 40
4.0
 40
4.0
 40
4.0
 10
2483.23058458711
 20
-753.395012633156
 30
0.0
 10
2483.23058458711
 20
-753.395012633156
 30
0.0
 10
2483.802470437805
 20
-752.8589557755172
 30
0.0
 10
2483.802470437805
 20
-752.8589557755172
 30
0.0
 10
2483.553734543707
 20
-752.4813733102396
 30
0.0
 10
2483.28777317218
 20
-752.1086139786421
 30
0.0
 10
2483.005964361416
 20
-751.7420558189201
 30
0.0
 10
2478.701834315843
 20
-746.1417085966978
 30
0.0
 10
2471.774264057598
 20
-742.7896306887114
 30
0.0
 10
2467.430515413934
 20
-745.6049627199618
 30
0.0
 10
2467.30511393824
 20
-745.6862669734337
 30
0.0
 10
2467.176095112285
 20
-745.7737723987811
 30
0.0
 10
2467.044320209941
 20
-745.8674789960032
 30
0.0
  0
ELLIPSE
  5
31A1D
330
18
100
AcDbEntity
  8
姿図
100
AcDbEllipse
 10
2489.32289144475
 20
-752.9802231366284
 30
0.0
 11
0.0
 21
-1.451763237847222
 31
0.0
210
0.0
220
0.0
230
1.0
 40
0.69625059326056
 41
0.0
 42
6.283185307179586
  0
SPLINE
  5
31A1E
330
18
100
AcDbEntity
  8
姿図
100
AcDbSpline
210
0.0
220
0.0
230
1.0
 70
     8
 71
     3
 72
    20
 73
    16
 74
     0
 42
0.000000001
 43
0.0000000001
 40
0.0
 40
0.0
 40
0.0
 40
0.0
 40
1.0
 40
1.0
 40
1.0
 40
2.0
 40
2.0
 40
2.0
 40
3.0
 40
3.0
 40
3.0
 40
4.0
 40
4.0
 40
4.0
 40
5.0
 40
5.0
 40
5.0
 40
5.0
 10
2493.824942225999
 20
-765.682979213017
 30
0.0
 10
2493.39568332843
 20
-765.682979213017
 30
0.0
 10
2492.476531852737
 20
-766.1508231800312
 30
0.0
 10
2491.111585021139
 20
-761.3462930151004
 30
0.0
 10
2490.859404031556
 20
-760.458147398781
 30
0.0
 10
2488.276960455166
 20
-758.2181463137117
 30
0.0
 10
2488.173607590582
 20
-757.9763006105868
 30
0.0
 10
2487.072555073222
 20
-755.4083264352394
 30
0.0
 10
2486.584040533292
 20
-753.6657971383643
 30
0.0
 10
2486.635716965583
 20
-752.169936678295
 30
0.0
 10
2486.675680073221
 20
-751.001360289406
 30
0.0
 10
2487.4501375385
 20
-749.9733437963505
 30
0.0
 10
2488.519495177388
 20
-749.9733437963505
 30
0.0
 10
2489.321513406555
 20
-749.9733437963505
 30
0.0
 10
2490.009154465584
 20
-750.5066445776006
 30
0.0
 10
2490.303365620096
 20
-751.2666326418366
 30
0.0
  0
SPLINE
  5
31A1F
330
18
100
AcDbEntity
  8
姿図
100
AcDbSpline
210
0.0
220
0.0
230
1.0
 70
     8
 71
     3
 72
    20
 73
    16
 74
     0
 42
0.000000001
 43
0.0000000001
 40
0.0
 40
0.0
 40
0.0
 40
0.0
 40
1.0
 40
1.0
 40
1.0
 40
2.0
 40
2.0
 40
2.0
 40
3.0
 40
3.0
 40
3.0
 40
4.0
 40
4.0
 40
4.0
 40
5.0
 40
5.0
 40
5.0
 40
5.0
 10
2493.357098258986
 20
-765.7029607668364
 30
0.0
 10
2492.927839361416
 20
-765.7029607668364
 30
0.0
 10
2492.008687885721
 20
-766.1708047338507
 30
0.0
 10
2490.643741054125
 20
-761.3662745689198
 30
0.0
 10
2490.391560064541
 20
-760.4781289526004
 30
0.0
 10
2487.809116488153
 20
-758.2381278675311
 30
0.0
 10
2487.705763623569
 20
-757.9962821644062
 30
0.0
 10
2486.604711106208
 20
-755.4283079890588
 30
0.0
 10
2486.116196566277
 20
-753.6857786921837
 30
0.0
 10
2486.16787299857
 20
-752.1899182321145
 30
0.0
 10
2486.207836106208
 20
-751.0213418432254
 30
0.0
 10
2486.982293571485
 20
-749.9933253501699
 30
0.0
 10
2488.051651210375
 20
-749.9933253501699
 30
0.0
 10
2488.097126470791
 20
-749.9933253501699
 30
0.0
 10
2488.142601731207
 20
-749.9953924074616
 30
0.0
 10
2488.188076991626
 20
-749.9988375029479
 30
0.0
  0
SPLINE
  5
31A20
330
18
100
AcDbEntity
  8
姿図
100
AcDbSpline
210
0.0
220
0.0
230
1.0
 70
     8
 71
     3
 72
    11
 73
     7
 74
     0
 42
0.000000001
 43
0.0000000001
 40
0.0
 40
0.0
 40
0.0
 40
0.0
 40
1.0
 40
1.0
 40
1.0
 40
2.0
 40
2.0
 40
2.0
 40
2.0
 10
2489.863082416972
 20
-760.2390393258643
 30
0.0
 10
2489.457939187805
 20
-760.8605345515589
 30
0.0
 10
2488.604933545444
 20
-761.8423867651004
 30
0.0
 10
2487.545911193014
 20
-762.8731593345451
 30
0.0
 10
2487.081512321487
 20
-763.3251558623228
 30
0.0
 10
2486.628137755513
 20
-763.7378783015588
 30
0.0
 10
2486.211281201694
 20
-764.091345098434
 30
0.0
  0
SPLINE
  5
31A21
330
18
100
AcDbEntity
  8
姿図
100
AcDbSpline
210
0.0
220
0.0
230
1.0
 70
     8
 71
     3
 72
    11
 73
     7
 74
     0
 42
0.000000001
 43
0.0000000001
 40
0.0
 40
0.0
 40
0.0
 40
0.0
 40
1.0
 40
1.0
 40
1.0
 40
2.0
 40
2.0
 40
2.0
 40
2.0
 10
2486.525473910027
 20
-761.5757363744756
 30
0.0
 10
2486.704618875306
 20
-761.3759208362812
 30
0.0
 10
2486.894099127042
 20
-761.1547457060728
 30
0.0
 10
2487.087024474263
 20
-760.9197901939201
 30
0.0
 10
2487.94347521211
 20
-759.8779933189198
 30
0.0
 10
2488.544299864888
 20
-758.9567747859337
 30
0.0
 10
2488.429233675653
 20
-758.8623791696145
 30
0.0
  0
SPLINE
  5
31A22
330
18
100
AcDbEntity
  8
姿図
100
AcDbSpline
210
0.0
220
0.0
230
1.0
 70
     8
 71
     3
 72
    11
 73
     7
 74
     0
 42
0.000000001
 43
0.0000000001
 40
0.0
 40
0.0
 40
0.0
 40
0.0
 40
1.0
 40
1.0
 40
1.0
 40
2.0
 40
2.0
 40
2.0
 40
2.0
 10
2486.557857807598
 20
-761.19264175642
 30
0.0
 10
2486.725289448222
 20
-761.0072956192671
 30
0.0
 10
2486.901678337111
 20
-760.8019679282952
 30
0.0
 10
2487.080823302389
 20
-760.5835488744756
 30
0.0
 10
2487.87664035968
 20
-759.6154770428784
 30
0.0
 10
2488.427855637459
 20
-758.7542031713506
 30
0.0
 10
2488.312789448222
 20
-758.659807555031
 30
0.0
  0
SPLINE
  5
31A23
330
18
100
AcDbEntity
  8
姿図
100
AcDbSpline
210
0.0
220
0.0
230
1.0
 70
     8
 71
     3
 72
    11
 73
     7
 74
     0
 42
0.000000001
 43
0.0000000001
 40
0.0
 40
0.0
 40
0.0
 40
0.0
 40
1.0
 40
1.0
 40
1.0
 40
2.0
 40
2.0
 40
2.0
 40
2.0
 10
2486.313256028082
 20
-758.7631604196145
 30
0.0
 10
2486.482754726001
 20
-758.6611855932256
 30
0.0
 10
2486.708752989889
 20
-758.5068453154477
 30
0.0
 10
2486.949909673916
 20
-758.324944273781
 30
0.0
 10
2487.229651427389
 20
-758.1147934491282
 30
0.0
 10
2487.46736301593
 20
-757.9135998727393
 30
0.0
 10
2487.609989969056
 20
-757.7723509578091
 30
0.0
  0
SPLINE
  5
31A24
330
18
100
AcDbEntity
  8
姿図
100
AcDbSpline
210
0.0
220
0.0
230
1.0
 70
     8
 71
     3
 72
    11
 73
     7
 74
     0
 42
0.000000001
 43
0.0000000001
 40
0.0
 40
0.0
 40
0.0
 40
0.0
 40
1.0
 40
1.0
 40
1.0
 40
2.0
 40
2.0
 40
2.0
 40
2.0
 10
2486.191988666973
 20
-758.2029878935728
 30
0.0
 10
2486.342883849263
 20
-758.0830985706561
 30
0.0
 10
2486.528229986417
 20
-757.921868101906
 30
0.0
 10
2486.72322239093
 20
-757.7385890220448
 30
0.0
 10
2486.985049647875
 20
-757.4919201852395
 30
0.0
 10
2487.206913797181
 20
-757.2597207494755
 30
0.0
 10
2487.337138406555
 20
-757.1005573380171
 30
0.0
  0
SPLINE
  5
31A25
330
18
100
AcDbEntity
  8
姿図
100
AcDbSpline
210
0.0
220
0.0
230
1.0
 70
     8
 71
     3
 72
    17
 73
    13
 74
     0
 42
0.000000001
 43
0.0000000001
 40
0.0
 40
0.0
 40
0.0
 40
0.0
 40
1.0
 40
1.0
 40
1.0
 40
2.0
 40
2.0
 40
2.0
 40
3.0
 40
3.0
 40
3.0
 40
4.0
 40
4.0
 40
4.0
 40
4.0
 10
2470.032596034594
 20
-744.7195731800311
 30
0.0
 10
2470.517148714716
 20
-744.3206311227395
 30
0.0
 10
2472.911317822789
 20
-742.4967975723921
 30
0.0
 10
2476.71332520126
 20
-741.0829303848923
 30
0.0
 10
2480.570281852737
 20
-739.648220369701
 30
0.0
 10
2483.656398389195
 20
-739.0477402264719
 30
0.0
 10
2484.058096522874
 20
-739.4837170602395
 30
0.0
 10
2484.134577642667
 20
-739.5669161162291
 30
0.0
 10
2484.707152512459
 20
-740.4307738093712
 30
0.0
 10
2485.310044222527
 20
-740.4731484838508
 30
0.0
 10
2486.93406223468
 20
-740.5868366348923
 30
0.0
 10
2489.943697651348
 20
-741.8429184491283
 30
0.0
 10
2491.551868224263
 20
-743.7218735272531
 30
0.0
  0
SPLINE
  5
31A26
330
18
100
AcDbEntity
  8
姿図
100
AcDbSpline
210
0.0
220
0.0
230
1.0
 70
     8
 71
     3
 72
    14
 73
    10
 74
     0
 42
0.000000001
 43
0.0000000001
 40
0.0
 40
0.0
 40
0.0
 40
0.0
 40
1.0
 40
1.0
 40
1.0
 40
2.0
 40
2.0
 40
2.0
 40
3.0
 40
3.0
 40
3.0
 40
3.0
 10
2472.651040858812
 20
-744.7051037789893
 30
0.0
 10
2472.989349235549
 20
-744.505977259892
 30
0.0
 10
2476.685764437372
 20
-742.3810423640589
 30
0.0
 10
2480.406984326695
 20
-742.3541706192673
 30
0.0
 10
2485.381702208638
 20
-742.3176526071143
 30
0.0
 10
2489.82863146211
 20
-747.6609957060728
 30
0.0
 10
2490.355042052389
 20
-751.4747164091978
 30
0.0
 10
2490.46873020343
 20
-752.3008503067672
 30
0.0
 10
2491.751683762458
 20
-755.7211411053781
 30
0.0
 10
2491.751683762458
 20
-755.7211411053781
 30
0.0
  0
LINE
  5
31A27
330
18
100
AcDbEntity
  8
姿図
100
AcDbLine
 10
2491.295553120096
 20
-734.4307955107602
 30
0.0
 11
2489.413841965582
 21
-739.390354972566
 31
0.0
  0
LINE
  5
31A28
330
18
100
AcDbEntity
  8
姿図
100
AcDbLine
 10
2491.295553120096
 20
-743.4944972251701
 30
0.0
 11
2491.523618441278
 21
-743.20924331892
 31
0.0
  0
LINE
  5
31A29
330
18
100
AcDbEntity
  8
姿図
100
AcDbLine
 10
2490.639606939541
 20
-742.8674898466979
 30
0.0
 11
2491.523618441278
 21
-742.0696057321143
 31
0.0
  0
POLYLINE
  5
31A2A
330
18
100
AcDbEntity
  8
姿図
100
AcDb2dPolyline
 66
     1
 10
0.0
 20
0.0
 30
0.0
  0
VERTEX
  5
31A2B
330
31A2A
100
AcDbEntity
  8
姿図
100
AcDbVertex
100
AcDb2dVertex
 10
2489.214715446485
 20
-741.8415404109337
 30
0.0
  0
VERTEX
  5
31A2C
330
31A2A
100
AcDbEntity
  8
姿図
100
AcDbVertex
100
AcDb2dVertex
 10
2491.266614318014
 20
-740.2454276722187
 30
0.0
  0
VERTEX
  5
31A2D
330
31A2A
100
AcDbEntity
  8
姿図
100
AcDbVertex
100
AcDb2dVertex
 10
2491.466429856209
 20
-740.3878823705695
 30
0.0
  0
SEQEND
  5
31A2E
330
31A2A
100
AcDbEntity
  8
姿図
  0
POLYLINE
  5
31A2F
330
18
100
AcDbEntity
  8
姿図
100
AcDb2dPolyline
 66
     1
 10
0.0
 20
0.0
 30
0.0
  0
VERTEX
  5
31A30
330
31A2F
100
AcDbEntity
  8
姿図
100
AcDbVertex
100
AcDb2dVertex
 10
2487.50457004718
 20
-741.0147174942672
 30
0.0
  0
VERTEX
  5
31A31
330
31A2F
100
AcDbEntity
  8
姿図
100
AcDbVertex
100
AcDb2dVertex
 10
2489.670846088847
 20
-739.390354972566
 30
0.0
  0
VERTEX
  5
31A32
330
31A2F
100
AcDbEntity
  8
姿図
100
AcDbVertex
100
AcDb2dVertex
 10
2490.24066488225
 20
-740.6157754369756
 30
0.0
  0
VERTEX
  5
31A33
330
31A2F
100
AcDbEntity
  8
姿図
100
AcDbVertex
100
AcDb2dVertex
 10
2490.75398410968
 20
-740.6729640220451
 30
0.0
  0
SEQEND
  5
31A34
330
31A2F
100
AcDbEntity
  8
姿図
  0
POLYLINE
  5
31A35
330
18
100
AcDbEntity
  8
姿図
100
AcDb2dPolyline
 66
     1
 10
0.0
 20
0.0
 30
0.0
  0
VERTEX
  5
31A36
330
31A35
100
AcDbEntity
  8
姿図
100
AcDbVertex
100
AcDb2dVertex
 10
2486.307054856208
 20
-740.5875256539894
 30
0.0
  0
VERTEX
  5
31A37
330
31A35
100
AcDbEntity
  8
姿図
100
AcDbVertex
100
AcDb2dVertex
 10
2488.159827208639
 20
-739.1622896513854
 30
0.0
  0
VERTEX
  5
31A38
330
31A35
100
AcDbEntity
  8
姿図
100
AcDbVertex
100
AcDb2dVertex
 10
2488.644896653084
 20
-740.1028007190935
 30
0.0
  0
SEQEND
  5
31A39
330
31A35
100
AcDbEntity
  8
姿図
  0
POLYLINE
  5
31A3A
330
18
100
AcDbEntity
  8
姿図
100
AcDb2dPolyline
 66
     1
 10
0.0
 20
0.0
 30
0.0
  0
VERTEX
  5
31A3B
330
31A3A
100
AcDbEntity
  8
姿図
100
AcDbVertex
100
AcDb2dVertex
 10
2485.395482590583
 20
-740.4448987008645
 30
0.0
  0
VERTEX
  5
31A3C
330
31A3A
100
AcDbEntity
  8
姿図
100
AcDbVertex
100
AcDb2dVertex
 10
2486.905812451694
 20
-739.4187770103263
 30
0.0
  0
VERTEX
  5
31A3D
330
31A3A
100
AcDbEntity
  8
姿図
100
AcDbVertex
100
AcDb2dVertex
 10
2487.276504726
 20
-739.7892970298576
 30
0.0
  0
SEQEND
  5
31A3E
330
31A3A
100
AcDbEntity
  8
姿図
  0
POLYLINE
  5
31A3F
330
18
100
AcDbEntity
  8
姿図
100
AcDb2dPolyline
 66
     1
 10
0.0
 20
0.0
 30
0.0
  0
VERTEX
  5
31A40
330
31A3F
100
AcDbEntity
  8
姿図
100
AcDbVertex
100
AcDb2dVertex
 10
2482.430633415237
 20
-751.0468355498228
 30
0.0
  0
VERTEX
  5
31A41
330
31A3F
100
AcDbEntity
  8
姿図
100
AcDbVertex
100
AcDb2dVertex
 10
2483.428333068013
 20
-750.3061400203087
 30
0.0
  0
VERTEX
  5
31A42
330
31A3F
100
AcDbEntity
  8
姿図
100
AcDbVertex
100
AcDb2dVertex
 10
2487.647197000305
 20
-746.6577839005172
 30
0.0
  0
VERTEX
  5
31A43
330
31A3F
100
AcDbEntity
  8
姿図
100
AcDbVertex
100
AcDb2dVertex
 10
2487.786378857945
 20
-746.5206691001699
 30
0.0
  0
SEQEND
  5
31A44
330
31A3F
100
AcDbEntity
  8
姿図
  0
POLYLINE
  5
31A45
330
18
100
AcDbEntity
  8
姿図
100
AcDb2dPolyline
 66
     1
 10
0.0
 20
0.0
 30
0.0
  0
VERTEX
  5
31A46
330
31A45
100
AcDbEntity
  8
姿図
100
AcDbVertex
100
AcDb2dVertex
 10
2481.974502772875
 20
-750.5342053414893
 30
0.0
  0
VERTEX
  5
31A47
330
31A45
100
AcDbEntity
  8
姿図
100
AcDbVertex
100
AcDb2dVertex
 10
2483.570960021139
 20
-749.1086248293368
 30
0.0
  0
VERTEX
  5
31A48
330
31A45
100
AcDbEntity
  8
姿図
100
AcDbVertex
100
AcDb2dVertex
 10
2487.532819830166
 20
-746.4862181453091
 30
0.0
  0
VERTEX
  5
31A49
330
31A45
100
AcDbEntity
  8
姿図
100
AcDbVertex
100
AcDb2dVertex
 10
2487.687849127041
 20
-746.3938895862811
 30
0.0
  0
SEQEND
  5
31A4A
330
31A45
100
AcDbEntity
  8
姿図
  0
POLYLINE
  5
31A4B
330
18
100
AcDbEntity
  8
姿図
100
AcDb2dPolyline
 66
     1
 10
0.0
 20
0.0
 30
0.0
  0
VERTEX
  5
31A4C
330
31A4B
100
AcDbEntity
  8
姿図
100
AcDbVertex
100
AcDb2dVertex
 10
2479.324018560635
 20
-747.9400484404478
 30
0.0
  0
VERTEX
  5
31A4D
330
31A4B
100
AcDbEntity
  8
姿図
100
AcDbVertex
100
AcDb2dVertex
 10
2481.775376253777
 20
-746.087276088017
 30
0.0
  0
VERTEX
  5
31A4E
330
31A4B
100
AcDbEntity
  8
姿図
100
AcDbVertex
100
AcDb2dVertex
 10
2482.459572217319
 20
-745.7165838137116
 30
0.0
  0
VERTEX
  5
31A4F
330
31A4B
100
AcDbEntity
  8
姿図
100
AcDbVertex
100
AcDb2dVertex
 10
2485.195667052388
 20
-744.9186996991284
 30
0.0
  0
VERTEX
  5
31A50
330
31A4B
100
AcDbEntity
  8
姿図
100
AcDbVertex
100
AcDb2dVertex
 10
2485.900533588846
 20
-744.6630736140587
 30
0.0
  0
SEQEND
  5
31A51
330
31A4B
100
AcDbEntity
  8
姿図
  0
POLYLINE
  5
31A52
330
18
100
AcDbEntity
  8
姿図
100
AcDb2dPolyline
 66
     1
 10
0.0
 20
0.0
 30
0.0
  0
VERTEX
  5
31A53
330
31A52
100
AcDbEntity
  8
姿図
100
AcDbVertex
100
AcDb2dVertex
 10
2478.839638135288
 20
-747.5693561661424
 30
0.0
  0
VERTEX
  5
31A54
330
31A52
100
AcDbEntity
  8
姿図
100
AcDbVertex
100
AcDb2dVertex
 10
2479.979792486417
 20
-746.5716565133644
 30
0.0
  0
VERTEX
  5
31A55
330
31A52
100
AcDbEntity
  8
姿図
100
AcDbVertex
100
AcDb2dVertex
 10
2480.948553337111
 20
-745.9446491348922
 30
0.0
  0
VERTEX
  5
31A56
330
31A52
100
AcDbEntity
  8
姿図
100
AcDbVertex
100
AcDb2dVertex
 10
2482.40238363225
 20
-745.2611421904476
 30
0.0
  0
VERTEX
  5
31A57
330
31A52
100
AcDbEntity
  8
姿図
100
AcDbVertex
100
AcDb2dVertex
 10
2485.42373237357
 20
-744.4915078588506
 30
0.0
  0
VERTEX
  5
31A58
330
31A52
100
AcDbEntity
  8
姿図
100
AcDbVertex
100
AcDb2dVertex
 10
2485.604944396138
 20
-744.4232949682255
 30
0.0
  0
SEQEND
  5
31A59
330
31A52
100
AcDbEntity
  8
姿図
  0
POLYLINE
  5
31A5A
330
18
100
AcDbEntity
  8
姿図
100
AcDb2dPolyline
 66
     1
 10
0.0
 20
0.0
 30
0.0
  0
VERTEX
  5
31A5B
330
31A5A
100
AcDbEntity
  8
姿図
100
AcDbVertex
100
AcDb2dVertex
 10
2476.103543300219
 20
-745.8881495689197
 30
0.0
  0
VERTEX
  5
31A5C
330
31A5A
100
AcDbEntity
  8
姿図
100
AcDbVertex
100
AcDb2dVertex
 10
2478.212630756816
 20
-744.434319273781
 30
0.0
  0
VERTEX
  5
31A5D
330
31A5A
100
AcDbEntity
  8
姿図
100
AcDbVertex
100
AcDb2dVertex
 10
2478.725949984247
 20
-744.1780041696143
 30
0.0
  0
VERTEX
  5
31A5E
330
31A5A
100
AcDbEntity
  8
姿図
100
AcDbVertex
100
AcDb2dVertex
 10
2483.99952989961
 20
-743.5075885880174
 30
0.0
  0
VERTEX
  5
31A5F
330
31A5A
100
AcDbEntity
  8
姿図
100
AcDbVertex
100
AcDb2dVertex
 10
2484.169717616625
 20
-743.466936461281
 30
0.0
  0
SEQEND
  5
31A60
330
31A5A
100
AcDbEntity
  8
姿図
  0
POLYLINE
  5
31A61
330
18
100
AcDbEntity
  8
姿図
100
AcDb2dPolyline
 66
     1
 10
0.0
 20
0.0
 30
0.0
  0
VERTEX
  5
31A62
330
31A61
100
AcDbEntity
  8
姿図
100
AcDbVertex
100
AcDb2dVertex
 10
2475.604348964281
 20
-745.6628403241284
 30
0.0
  0
VERTEX
  5
31A63
330
31A61
100
AcDbEntity
  8
姿図
100
AcDbVertex
100
AcDb2dVertex
 10
2476.807376308032
 20
-744.6727198814201
 30
0.0
  0
VERTEX
  5
31A64
330
31A61
100
AcDbEntity
  8
姿図
100
AcDbVertex
100
AcDb2dVertex
 10
2477.684497618794
 20
-744.1966076852395
 30
0.0
  0
VERTEX
  5
31A65
330
31A61
100
AcDbEntity
  8
姿図
100
AcDbVertex
100
AcDb2dVertex
 10
2478.686675895705
 20
-743.8458969647531
 30
0.0
  0
VERTEX
  5
31A66
330
31A61
100
AcDbEntity
  8
姿図
100
AcDbVertex
100
AcDb2dVertex
 10
2483.673623866625
 20
-743.3449800810727
 30
0.0
  0
VERTEX
  5
31A67
330
31A61
100
AcDbEntity
  8
姿図
100
AcDbVertex
100
AcDb2dVertex
 10
2483.874128423916
 20
-743.3256875463508
 30
0.0
  0
SEQEND
  5
31A68
330
31A61
100
AcDbEntity
  8
姿図
  0
POLYLINE
  5
31A69
330
18
100
AcDbEntity
  8
姿図
100
AcDb2dPolyline
 66
     1
 10
0.0
 20
0.0
 30
0.0
  0
VERTEX
  5
31A6A
330
31A69
100
AcDbEntity
  8
姿図
100
AcDbVertex
100
AcDb2dVertex
 10
2473.236018072355
 20
-744.8484197512116
 30
0.0
  0
VERTEX
  5
31A6B
330
31A69
100
AcDbEntity
  8
姿図
100
AcDbVertex
100
AcDb2dVertex
 10
2473.837359489454
 20
-744.3468138484341
 30
0.0
  0
VERTEX
  5
31A6C
330
31A69
100
AcDbEntity
  8
姿図
100
AcDbVertex
100
AcDb2dVertex
 10
2474.539469949524
 20
-743.9837007841979
 30
0.0
  0
VERTEX
  5
31A6D
330
31A69
100
AcDbEntity
  8
姿図
100
AcDbVertex
100
AcDb2dVertex
 10
2475.165788308899
 20
-743.7955985706562
 30
0.0
  0
VERTEX
  5
31A6E
330
31A69
100
AcDbEntity
  8
姿図
100
AcDbVertex
100
AcDb2dVertex
 10
2477.809554584941
 20
-743.5578869821143
 30
0.0
  0
VERTEX
  5
31A6F
330
31A69
100
AcDbEntity
  8
姿図
100
AcDbVertex
100
AcDb2dVertex
 10
2483.197511670445
 20
-743.156877867531
 30
0.0
  0
VERTEX
  5
31A70
330
31A69
100
AcDbEntity
  8
姿図
100
AcDbVertex
100
AcDb2dVertex
 10
2483.480009500306
 20
-743.101067320656
 30
0.0
  0
SEQEND
  5
31A71
330
31A69
100
AcDbEntity
  8
姿図
  0
SPLINE
  5
31A72
330
18
100
AcDbEntity
  8
姿図
100
AcDbSpline
210
0.0
220
0.0
230
1.0
 70
     8
 71
     3
 72
    14
 73
    10
 74
     0
 42
0.000000001
 43
0.0000000001
 40
0.0
 40
0.0
 40
0.0
 40
0.0
 40
1.0
 40
1.0
 40
1.0
 40
2.0
 40
2.0
 40
2.0
 40
3.0
 40
3.0
 40
3.0
 40
3.0
 10
2476.448052848829
 20
-743.0480128501699
 30
0.0
 10
2477.609739046747
 20
-742.691789976906
 30
0.0
 10
2478.922320426954
 20
-742.4203164526007
 30
0.0
 10
2480.238174647875
 20
-742.4106701852393
 30
0.0
 10
2485.212203510722
 20
-742.3741521730867
 30
0.0
 10
2489.722522521138
 20
-747.7161172338506
 30
0.0
 10
2490.248933111417
 20
-751.5298379369756
 30
0.0
 10
2490.363310281556
 20
-752.355971834545
 30
0.0
 10
2491.755128857945
 20
-755.9767671904478
 30
0.0
 10
2491.755128857945
 20
-755.9767671904478
 30
0.0
  0
ELLIPSE
  5
31A73
330
18
100
AcDbEntity
  8
姿図
100
AcDbEllipse
 10
2468.828965799133
 20
-761.7690062312463
 30
0.0
 11
6.681848822699653
 21
-8.575531684027776
 31
0.0
210
0.0
220
0.0
230
1.0
 40
0.6257407731937094
 41
0.0
 42
6.283185307179586
  0
ELLIPSE
  5
31A74
330
18
100
AcDbEntity
  8
姿図
100
AcDbEllipse
 10
2468.826554232293
 20
-761.9305812095449
 30
0.0
 11
7.850252956814236
 21
-10.07518174913195
 31
0.0
210
0.0
220
0.0
230
1.0
 40
0.603263200838782
 41
0.0
 42
6.283185307179586
  0
POLYLINE
  5
31A75
330
18
100
AcDbEntity
  8
姿図
100
AcDb2dPolyline
 66
     1
 10
0.0
 20
0.0
 30
0.0
  0
VERTEX
  5
31A76
330
31A75
100
AcDbEntity
  8
姿図
100
AcDbVertex
100
AcDb2dVertex
 10
2467.554022087111
 20
-745.5202133710031
 30
0.0
  0
VERTEX
  5
31A77
330
31A75
100
AcDbEntity
  8
姿図
100
AcDbVertex
100
AcDb2dVertex
 10
2467.587439513326
 20
-739.4161931887115
 30
0.0
  0
VERTEX
  5
31A78
330
31A75
100
AcDbEntity
  8
姿図
100
AcDbVertex
100
AcDb2dVertex
 10
2470.852069090543
 20
-720.5392934476597
 30
0.0
  0
SEQEND
  5
31A79
330
31A75
100
AcDbEntity
  8
姿図
  0
POLYLINE
  5
31A7A
330
18
100
AcDbEntity
  8
姿図
100
AcDb2dPolyline
 66
     1
 10
0.0
 20
0.0
 30
0.0
  0
VERTEX
  5
31A7B
330
31A7A
100
AcDbEntity
  8
姿図
100
AcDbVertex
100
AcDb2dVertex
 10
2467.153701991625
 20
-745.720717928295
 30
0.0
  0
VERTEX
  5
31A7C
330
31A7A
100
AcDbEntity
  8
姿図
100
AcDbVertex
100
AcDb2dVertex
 10
2467.220364589282
 20
-739.2826957386246
 30
0.0
  0
VERTEX
  5
31A7D
330
31A7A
100
AcDbEntity
  8
姿図
100
AcDbVertex
100
AcDb2dVertex
 10
2470.499223047341
 20
-720.6286918514447
 30
0.0
  0
SEQEND
  5
31A7E
330
31A7A
100
AcDbEntity
  8
姿図
  0
SPLINE
  5
31A7F
330
18
100
AcDbEntity
  8
姿図
100
AcDbSpline
210
0.0
220
0.0
230
1.0
 70
     8
 71
     3
 72
    11
 73
     7
 74
     0
 42
0.000000001
 43
0.0000000001
 40
2.52747855909131
 40
2.52747855909131
 40
2.52747855909131
 40
2.52747855909131
 40
3.0
 40
3.0
 40
3.0
 40
4.0
 40
4.0
 40
4.0
 40
4.0
 10
2477.464545752146
 20
-719.657644544356
 30
0.0
 10
2477.62229910932
 20
-719.7555914372633
 30
0.0
 10
2477.718604064108
 20
-719.886281861752
 30
0.0
 10
2477.718604064108
 20
-720.0297796144928
 30
0.0
 10
2477.718604064108
 20
-720.1040214222185
 30
0.0
 10
2477.715158968621
 20
-720.1848089113678
 30
0.0
 10
2477.702067605774
 20
-720.2645628718715
 30
0.0
  0
POLYLINE
  5
31A80
330
18
100
AcDbEntity
  8
姿図
100
AcDb2dPolyline
 66
     1
 10
0.0
 20
0.0
 30
0.0
  0
VERTEX
  5
31A81
330
31A80
100
AcDbEntity
  8
姿図
100
AcDbVertex
100
AcDb2dVertex
 10
2487.565154254619
 20
-719.9337322518053
 30
0.0
  0
VERTEX
  5
31A82
330
31A80
100
AcDbEntity
  8
姿図
100
AcDbVertex
100
AcDb2dVertex
 10
2491.369967182598
 20
-734.6130410619758
 30
0.0
  0
VERTEX
  5
31A83
330
31A80
100
AcDbEntity
  8
姿図
100
AcDbVertex
100
AcDb2dVertex
 10
2491.903267963847
 20
-762.8325072078087
 30
0.0
  0
SEQEND
  5
31A84
330
31A80
100
AcDbEntity
  8
姿図
  0
POLYLINE
  5
31A85
330
18
100
AcDbEntity
  8
姿図
100
AcDb2dPolyline
 66
     1
 10
0.0
 20
0.0
 30
0.0
  0
VERTEX
  5
31A86
330
31A85
100
AcDbEntity
  8
姿図
100
AcDbVertex
100
AcDb2dVertex
 10
2488.024768304368
 20
-719.9898841255647
 30
0.0
  0
VERTEX
  5
31A87
330
31A85
100
AcDbEntity
  8
姿図
100
AcDbVertex
100
AcDb2dVertex
 10
2491.80336019475
 20
-734.9461817954825
 30
0.0
  0
VERTEX
  5
31A88
330
31A85
100
AcDbEntity
  8
姿図
100
AcDbVertex
100
AcDb2dVertex
 10
2492.337349995097
 20
-762.5320948814201
 30
0.0
  0
SEQEND
  5
31A89
330
31A85
100
AcDbEntity
  8
姿図
  0
POLYLINE
  5
31A8A
330
18
100
AcDbEntity
  8
姿図
100
AcDb2dPolyline
 66
     1
 10
0.0
 20
0.0
 30
0.0
  0
VERTEX
  5
31A8B
330
31A8A
100
AcDbEntity
  8
姿図
100
AcDbVertex
100
AcDb2dVertex
 10
2496.406696783291
 20
-763.4994776939202
 30
0.0
  0
VERTEX
  5
31A8C
330
31A8A
100
AcDbEntity
  8
姿図
100
AcDbVertex
100
AcDb2dVertex
 10
2496.406696783291
 20
-735.8124510554653
 30
0.0
  0
VERTEX
  5
31A8D
330
31A8A
100
AcDbEntity
  8
姿図
100
AcDbVertex
100
AcDb2dVertex
 10
2493.567763112269
 20
-721.2178206710398
 30
0.0
  0
SEQEND
  5
31A8E
330
31A8A
100
AcDbEntity
  8
姿図
  0
TEXT
  5
31AA5
330
18
100
AcDbEntity
  8
文字
100
AcDbText
 10
2443.214550661661
 20
-789.2324115171538
 30
0.0
 40
6.0
  1
SL-503/80DFC
  7
EXTFONT
100
AcDbText
  0
ENDSEC
  0
SECTION
  2
OBJECTS
  0
DICTIONARY
  5
C
330
0
100
AcDbDictionary
281
     1
  3
ACAD_GROUP
350
D
  3
ACAD_IMAGE_VARS
350
31CA3
  3
ACAD_LAYOUT
350
617
  3
ACAD_MLINESTYLE
350
E
  3
ACAD_PLOTSETTINGS
350
618
  3
ACAD_PLOTSTYLENAME
350
615
  3
ACAD_SCALELIST
350
2C7CB
  3
AcDbVariableDictionary
350
6DE
  3
APPDATA
350
31CA2
  3
DWGPROPS
350
31CC6
  0
DICTIONARY
  5
9EB
330
2
100
AcDbDictionary
280
     1
281
     1
  3
ACAD_LAYERSTATES
360
9EC
  0
DICTIONARY
  5
2C7F6
330
F
100
AcDbDictionary
280
     1
281
     1
  3
ADSK_XREC_LAYER_RECONCILED
360
2C7F7
  0
DICTIONARY
  5
2C7FC
330
34
100
AcDbDictionary
280
     1
281
     1
  3
ADSK_XREC_LAYER_RECONCILED
360
2C7FD
  0
DICTIONARY
  5
2C804
330
2F4
100
AcDbDictionary
280
     1
281
     1
  3
ADSK_XREC_LAYER_RECONCILED
360
2C805
  0
DICTIONARY
  5
2C808
330
305
100
AcDbDictionary
280
     1
281
     1
  3
ADSK_XREC_LAYER_RECONCILED
360
2C809
  0
DICTIONARY
  5
D
102
{ACAD_REACTORS
330
C
102
}
330
C
100
AcDbDictionary
281
     1
  0
RASTERVARIABLES
  5
31CA3
102
{ACAD_REACTORS
330
C
102
}
330
C
100
AcDbRasterVariables
 90
        0
 70
     1
 71
     1
 72
     0
  0
DICTIONARY
  5
617
102
{ACAD_REACTORS
330
C
102
}
330
C
100
AcDbDictionary
281
     1
  3
Model
350
619
  3
ﾚｲｱｳﾄ1
350
61A
  0
DICTIONARY
  5
E
102
{ACAD_REACTORS
330
C
102
}
330
C
100
AcDbDictionary
281
     1
  3
STANDARD
350
1B
  0
DICTIONARY
  5
618
102
{ACAD_REACTORS
330
C
102
}
330
C
100
AcDbDictionary
281
     1
  0
ACDBDICTIONARYWDFLT
  5
615
102
{ACAD_REACTORS
330
C
102
}
330
C
100
AcDbDictionary
281
     1
  3
Normal
350
616
100
AcDbDictionaryWithDefault
340
616
  0
DICTIONARY
  5
2C7CB
102
{ACAD_REACTORS
330
C
102
}
330
C
100
AcDbDictionary
281
     1
  3
A0
350
2C7CC
  3
A1
350
2C7CD
  3
A2
350
2C7CE
  3
A3
350
2C7CF
  3
A4
350
2C7D0
  3
A5
350
2C7D1
  3
A6
350
2C7D2
  3
A7
350
2C7D3
  3
A8
350
2C7D4
  3
A9
350
2C7D5
  3
B0
350
2C7D6
  3
B1
350
2C7D7
  3
B2
350
2C7D8
  3
B3
350
2C7D9
  3
B4
350
2C7DA
  3
B5
350
2C7DB
  3
B6
350
2C7DC
  3
B7
350
2C7DD
  3
B8
350
2C7DE
  3
B9
350
2C7DF
  3
C0
350
2C7E0
  3
C1
350
2C7E1
  3
C2
350
2C7E2
  3
C3
350
2C7E3
  3
C4
350
2C7E4
  3
C5
350
2C7E5
  3
C6
350
2C7E6
  3
C7
350
2C7E7
  3
C8
350
2C7E8
  3
C9
350
2C7E9
  3
D0
350
2C7EA
  3
D1
350
2C7EB
  3
D2
350
2C7EC
  0
DICTIONARY
  5
6DE
102
{ACAD_REACTORS
330
C
102
}
330
C
100
AcDbDictionary
281
     1
  3
DIMASSOC
350
6DF
  3
INDEXCTL
350
2C84C
  3
PROJECTNAME
350
6E0
  3
SORTENTS
350
2C84B
  0
DICTIONARY
  5
31CA2
102
{ACAD_REACTORS
330
C
102
}
330
C
100
AcDbDictionary
281
     1
  0
XRECORD
  5
31CC6
102
{ACAD_REACTORS
330
C
102
}
330
C
100
AcDbXrecord
280
     1
  1
DWGPROPS COOKIE
  2

  3

  4

  6

  7

  8
SPAX
  9

300
=
301
=
302
=
303
=
304
=
305
=
306
=
307
=
308
=
309
=
 40
0.0
 41
2448636.244629629
 42
2456822.099685868
  1

 90
        0
  0
DICTIONARY
  5
9EC
102
{ACAD_REACTORS
330
9EB
102
}
330
9EB
100
AcDbDictionary
281
     1
  0
XRECORD
  5
2C7F7
102
{ACAD_REACTORS
330
2C7F6
102
}
330
2C7F6
100
AcDbXrecord
280
     1
290
     1
  0
XRECORD
  5
2C7FD
102
{ACAD_REACTORS
330
2C7FC
102
}
330
2C7FC
100
AcDbXrecord
280
     1
290
     1
  0
XRECORD
  5
2C805
102
{ACAD_REACTORS
330
2C804
102
}
330
2C804
100
AcDbXrecord
280
     1
290
     1
  0
XRECORD
  5
2C809
102
{ACAD_REACTORS
330
2C808
102
}
330
2C808
100
AcDbXrecord
280
     1
290
     1
  0
LAYOUT
  5
619
102
{ACAD_REACTORS
330
617
102
}
330
617
100
AcDbPlotSettings
  1

  2
JUST PDF 2.pc3
  4
A4
  6

 40
3.174999952316284
 41
3.174999952316284
 42
3.175003051757812
 43
3.17498779296875
 44
209.8886566162109
 45
297.0530090332031
 46
14.27
 47
9.86
 48
2435.05861209453
 49
-1208.832575939284
140
2785.049049084343
141
-666.8472256619511
142
1.0
143
2.0
 70
 11956
 72
     1
 73
     0
 74
     4
  7
spax form.ctb
 75
    17
147
0.5
148
-2435.05861209453
149
1208.832575939284
100
AcDbLayout
  1
Model
 70
     1
 71
     0
 10
0.0
 20
0.0
 11
12.0
 21
9.0
 12
0.0
 22
0.0
 32
0.0
 14
2443.214550661661
 24
-789.2324115171538
 34
0.0
 15
2511.214550661661
 25
-710.0087500333775
 35
0.0
146
0.0
 13
0.0
 23
0.0
 33
0.0
 16
1.0
 26
0.0
 36
0.0
 17
0.0
 27
1.0
 37
0.0
 76
     0
330
18
331
31C80
1001
ACAD_PSEXT
1000
DWG To PDF.pc3
1000
PDF
1000
ファイル
1000

1070
     0
  0
LAYOUT
  5
61A
102
{ACAD_REACTORS
330
617
102
}
330
617
100
AcDbPlotSettings
  1

  2
Canon LASER SHOT LBP-750
  4

  6

 40
0.0
 41
0.0
 42
0.0
 43
0.0
 44
0.0
 45
0.0
 46
0.0
 47
0.0
 48
0.0
 49
0.0
140
0.0
141
0.0
142
1.0
143
1.0
 70
   688
 72
     0
 73
     0
 74
     5
  7
monochrome.ctb
 75
    16
147
1.0
148
0.0
149
0.0
100
AcDbLayout
  1
ﾚｲｱｳﾄ1
 70
     0
 71
     1
 10
0.0
 20
0.0
 11
12.0
 21
9.0
 12
0.0
 22
0.0
 32
0.0
 14
1.000000000000000E+20
 24
1.000000000000000E+20
 34
1.000000000000000E+20
 15
-1.000000000000000E+20
 25
-1.000000000000000E+20
 35
-1.000000000000000E+20
146
0.0
 13
0.0
 23
0.0
 33
0.0
 16
1.0
 26
0.0
 36
0.0
 17
0.0
 27
1.0
 37
0.0
 76
     0
330
15
  0
MLINESTYLE
  5
1B
102
{ACAD_REACTORS
330
E
102
}
330
E
100
AcDbMlineStyle
  2
STANDARD
 70
     0
  3

 62
     0
 51
90.0
 52
90.0
 71
     2
 49
0.5
 62
   256
  6
BYLAYER
 49
-0.5
 62
   256
  6
BYLAYER
  0
ACDBPLACEHOLDER
  5
616
102
{ACAD_REACTORS
330
615
102
}
330
615
  0
SCALE
  5
2C7CC
102
{ACAD_REACTORS
330
2C7CB
102
}
330
2C7CB
100
AcDbScale
 70
     0
300
1:1
140
1.0
141
1.0
290
     1
1001
ACAD
1000
AcRTDxfName
1000
SCALE
1000
AcRTDxfName
1000
SCALE
1000
AcRTDxfName
1000
SCALE
  0
SCALE
  5
2C7CD
102
{ACAD_REACTORS
330
2C7CB
102
}
330
2C7CB
100
AcDbScale
 70
     0
300
1:2
140
1.0
141
2.0
290
     0
1001
ACAD
1000
AcRTDxfName
1000
SCALE
1000
AcRTDxfName
1000
SCALE
1000
AcRTDxfName
1000
SCALE
  0
SCALE
  5
2C7CE
102
{ACAD_REACTORS
330
2C7CB
102
}
330
2C7CB
100
AcDbScale
 70
     0
300
1:4
140
1.0
141
4.0
290
     0
1001
ACAD
1000
AcRTDxfName
1000
SCALE
1000
AcRTDxfName
1000
SCALE
1000
AcRTDxfName
1000
SCALE
  0
SCALE
  5
2C7CF
102
{ACAD_REACTORS
330
2C7CB
102
}
330
2C7CB
100
AcDbScale
 70
     0
300
1:5
140
1.0
141
5.0
290
     0
1001
ACAD
1000
AcRTDxfName
1000
SCALE
1000
AcRTDxfName
1000
SCALE
1000
AcRTDxfName
1000
SCALE
  0
SCALE
  5
2C7D0
102
{ACAD_REACTORS
330
2C7CB
102
}
330
2C7CB
100
AcDbScale
 70
     0
300
1:8
140
1.0
141
8.0
290
     0
1001
ACAD
1000
AcRTDxfName
1000
SCALE
1000
AcRTDxfName
1000
SCALE
1000
AcRTDxfName
1000
SCALE
  0
SCALE
  5
2C7D1
102
{ACAD_REACTORS
330
2C7CB
102
}
330
2C7CB
100
AcDbScale
 70
     0
300
1:10
140
1.0
141
10.0
290
     0
1001
ACAD
1000
AcRTDxfName
1000
SCALE
1000
AcRTDxfName
1000
SCALE
1000
AcRTDxfName
1000
SCALE
  0
SCALE
  5
2C7D2
102
{ACAD_REACTORS
330
2C7CB
102
}
330
2C7CB
100
AcDbScale
 70
     0
300
1:16
140
1.0
141
16.0
290
     0
1001
ACAD
1000
AcRTDxfName
1000
SCALE
1000
AcRTDxfName
1000
SCALE
1000
AcRTDxfName
1000
SCALE
  0
SCALE
  5
2C7D3
102
{ACAD_REACTORS
330
2C7CB
102
}
330
2C7CB
100
AcDbScale
 70
     0
300
1:20
140
1.0
141
20.0
290
     0
1001
ACAD
1000
AcRTDxfName
1000
SCALE
1000
AcRTDxfName
1000
SCALE
1000
AcRTDxfName
1000
SCALE
  0
SCALE
  5
2C7D4
102
{ACAD_REACTORS
330
2C7CB
102
}
330
2C7CB
100
AcDbScale
 70
     0
300
1:30
140
1.0
141
30.0
290
     0
1001
ACAD
1000
AcRTDxfName
1000
SCALE
1000
AcRTDxfName
1000
SCALE
1000
AcRTDxfName
1000
SCALE
  0
SCALE
  5
2C7D5
102
{ACAD_REACTORS
330
2C7CB
102
}
330
2C7CB
100
AcDbScale
 70
     0
300
1:40
140
1.0
141
40.0
290
     0
1001
ACAD
1000
AcRTDxfName
1000
SCALE
1000
AcRTDxfName
1000
SCALE
1000
AcRTDxfName
1000
SCALE
  0
SCALE
  5
2C7D6
102
{ACAD_REACTORS
330
2C7CB
102
}
330
2C7CB
100
AcDbScale
 70
     0
300
1:50
140
1.0
141
50.0
290
     0
1001
ACAD
1000
AcRTDxfName
1000
SCALE
1000
AcRTDxfName
1000
SCALE
1000
AcRTDxfName
1000
SCALE
  0
SCALE
  5
2C7D7
102
{ACAD_REACTORS
330
2C7CB
102
}
330
2C7CB
100
AcDbScale
 70
     0
300
1:100
140
1.0
141
100.0
290
     0
1001
ACAD
1000
AcRTDxfName
1000
SCALE
1000
AcRTDxfName
1000
SCALE
1000
AcRTDxfName
1000
SCALE
  0
SCALE
  5
2C7D8
102
{ACAD_REACTORS
330
2C7CB
102
}
330
2C7CB
100
AcDbScale
 70
     0
300
2:1
140
2.0
141
1.0
290
     0
1001
ACAD
1000
AcRTDxfName
1000
SCALE
1000
AcRTDxfName
1000
SCALE
1000
AcRTDxfName
1000
SCALE
  0
SCALE
  5
2C7D9
102
{ACAD_REACTORS
330
2C7CB
102
}
330
2C7CB
100
AcDbScale
 70
     0
300
4:1
140
4.0
141
1.0
290
     0
1001
ACAD
1000
AcRTDxfName
1000
SCALE
1000
AcRTDxfName
1000
SCALE
1000
AcRTDxfName
1000
SCALE
  0
SCALE
  5
2C7DA
102
{ACAD_REACTORS
330
2C7CB
102
}
330
2C7CB
100
AcDbScale
 70
     0
300
8:1
140
8.0
141
1.0
290
     0
1001
ACAD
1000
AcRTDxfName
1000
SCALE
1000
AcRTDxfName
1000
SCALE
1000
AcRTDxfName
1000
SCALE
  0
SCALE
  5
2C7DB
102
{ACAD_REACTORS
330
2C7CB
102
}
330
2C7CB
100
AcDbScale
 70
     0
300
10:1
140
10.0
141
1.0
290
     0
1001
ACAD
1000
AcRTDxfName
1000
SCALE
1000
AcRTDxfName
1000
SCALE
1000
AcRTDxfName
1000
SCALE
  0
SCALE
  5
2C7DC
102
{ACAD_REACTORS
330
2C7CB
102
}
330
2C7CB
100
AcDbScale
 70
     0
300
100:1
140
100.0
141
1.0
290
     0
1001
ACAD
1000
AcRTDxfName
1000
SCALE
1000
AcRTDxfName
1000
SCALE
1000
AcRTDxfName
1000
SCALE
  0
SCALE
  5
2C7DD
102
{ACAD_REACTORS
330
2C7CB
102
}
330
2C7CB
100
AcDbScale
 70
     0
300
1/128" = 1'-0"
140
0.0078125
141
12.0
290
     0
1001
ACAD
1000
AcRTDxfName
1000
SCALE
1000
AcRTDxfName
1000
SCALE
1000
AcRTDxfName
1000
SCALE
  0
SCALE
  5
2C7DE
102
{ACAD_REACTORS
330
2C7CB
102
}
330
2C7CB
100
AcDbScale
 70
     0
300
1/64" = 1'-0"
140
0.015625
141
12.0
290
     0
1001
ACAD
1000
AcRTDxfName
1000
SCALE
1000
AcRTDxfName
1000
SCALE
1000
AcRTDxfName
1000
SCALE
  0
SCALE
  5
2C7DF
102
{ACAD_REACTORS
330
2C7CB
102
}
330
2C7CB
100
AcDbScale
 70
     0
300
1/32" = 1'-0"
140
0.03125
141
12.0
290
     0
1001
ACAD
1000
AcRTDxfName
1000
SCALE
1000
AcRTDxfName
1000
SCALE
1000
AcRTDxfName
1000
SCALE
  0
SCALE
  5
2C7E0
102
{ACAD_REACTORS
330
2C7CB
102
}
330
2C7CB
100
AcDbScale
 70
     0
300
1/16" = 1'-0"
140
0.0625
141
12.0
290
     0
1001
ACAD
1000
AcRTDxfName
1000
SCALE
1000
AcRTDxfName
1000
SCALE
1000
AcRTDxfName
1000
SCALE
  0
SCALE
  5
2C7E1
102
{ACAD_REACTORS
330
2C7CB
102
}
330
2C7CB
100
AcDbScale
 70
     0
300
3/32" = 1'-0"
140
0.09375
141
12.0
290
     0
1001
ACAD
1000
AcRTDxfName
1000
SCALE
1000
AcRTDxfName
1000
SCALE
1000
AcRTDxfName
1000
SCALE
  0
SCALE
  5
2C7E2
102
{ACAD_REACTORS
330
2C7CB
102
}
330
2C7CB
100
AcDbScale
 70
     0
300
1/8" = 1'-0"
140
0.125
141
12.0
290
     0
1001
ACAD
1000
AcRTDxfName
1000
SCALE
1000
AcRTDxfName
1000
SCALE
1000
AcRTDxfName
1000
SCALE
  0
SCALE
  5
2C7E3
102
{ACAD_REACTORS
330
2C7CB
102
}
330
2C7CB
100
AcDbScale
 70
     0
300
3/16" = 1'-0"
140
0.1875
141
12.0
290
     0
1001
ACAD
1000
AcRTDxfName
1000
SCALE
1000
AcRTDxfName
1000
SCALE
1000
AcRTDxfName
1000
SCALE
  0
SCALE
  5
2C7E4
102
{ACAD_REACTORS
330
2C7CB
102
}
330
2C7CB
100
AcDbScale
 70
     0
300
1/4" = 1'-0"
140
0.25
141
12.0
290
     0
1001
ACAD
1000
AcRTDxfName
1000
SCALE
1000
AcRTDxfName
1000
SCALE
1000
AcRTDxfName
1000
SCALE
  0
SCALE
  5
2C7E5
102
{ACAD_REACTORS
330
2C7CB
102
}
330
2C7CB
100
AcDbScale
 70
     0
300
3/8" = 1'-0"
140
0.375
141
12.0
290
     0
1001
ACAD
1000
AcRTDxfName
1000
SCALE
1000
AcRTDxfName
1000
SCALE
1000
AcRTDxfName
1000
SCALE
  0
SCALE
  5
2C7E6
102
{ACAD_REACTORS
330
2C7CB
102
}
330
2C7CB
100
AcDbScale
 70
     0
300
1/2" = 1'-0"
140
0.5
141
12.0
290
     0
1001
ACAD
1000
AcRTDxfName
1000
SCALE
1000
AcRTDxfName
1000
SCALE
1000
AcRTDxfName
1000
SCALE
  0
SCALE
  5
2C7E7
102
{ACAD_REACTORS
330
2C7CB
102
}
330
2C7CB
100
AcDbScale
 70
     0
300
3/4" = 1'-0"
140
0.75
141
12.0
290
     0
1001
ACAD
1000
AcRTDxfName
1000
SCALE
1000
AcRTDxfName
1000
SCALE
1000
AcRTDxfName
1000
SCALE
  0
SCALE
  5
2C7E8
102
{ACAD_REACTORS
330
2C7CB
102
}
330
2C7CB
100
AcDbScale
 70
     0
300
1" = 1'-0"
140
1.0
141
12.0
290
     0
1001
ACAD
1000
AcRTDxfName
1000
SCALE
1000
AcRTDxfName
1000
SCALE
1000
AcRTDxfName
1000
SCALE
  0
SCALE
  5
2C7E9
102
{ACAD_REACTORS
330
2C7CB
102
}
330
2C7CB
100
AcDbScale
 70
     0
300
1-1/2" = 1'-0"
140
1.5
141
12.0
290
     0
1001
ACAD
1000
AcRTDxfName
1000
SCALE
1000
AcRTDxfName
1000
SCALE
1000
AcRTDxfName
1000
SCALE
  0
SCALE
  5
2C7EA
102
{ACAD_REACTORS
330
2C7CB
102
}
330
2C7CB
100
AcDbScale
 70
     0
300
3" = 1'-0"
140
3.0
141
12.0
290
     0
1001
ACAD
1000
AcRTDxfName
1000
SCALE
1000
AcRTDxfName
1000
SCALE
1000
AcRTDxfName
1000
SCALE
  0
SCALE
  5
2C7EB
102
{ACAD_REACTORS
330
2C7CB
102
}
330
2C7CB
100
AcDbScale
 70
     0
300
6" = 1'-0"
140
6.0
141
12.0
290
     0
1001
ACAD
1000
AcRTDxfName
1000
SCALE
1000
AcRTDxfName
1000
SCALE
1000
AcRTDxfName
1000
SCALE
  0
SCALE
  5
2C7EC
102
{ACAD_REACTORS
330
2C7CB
102
}
330
2C7CB
100
AcDbScale
 70
     0
300
1'-0" = 1'-0"
140
12.0
141
12.0
290
     0
1001
ACAD
1000
AcRTDxfName
1000
SCALE
1000
AcRTDxfName
1000
SCALE
1000
AcRTDxfName
1000
SCALE
  0
DICTIONARYVAR
  5
6DF
102
{ACAD_REACTORS
330
6DE
102
}
330
6DE
100
DictionaryVariables
280
     0
  1
1
  0
DICTIONARYVAR
  5
2C84C
102
{ACAD_REACTORS
330
6DE
102
}
330
6DE
100
DictionaryVariables
280
     0
  1
0
  0
DICTIONARYVAR
  5
6E0
102
{ACAD_REACTORS
330
6DE
102
}
330
6DE
100
DictionaryVariables
280
     0
  1

  0
DICTIONARYVAR
  5
2C84B
102
{ACAD_REACTORS
330
6DE
102
}
330
6DE
100
DictionaryVariables
280
     0
  1
127
  0
ENDSEC
  0
EOF
