  0
SECTION
  2
HEADER
  9
$ACADVER
  1
AC1015
  9
$ACADMAINTVER
 70
     6
  9
$DWGCODEPAGE
  3
ANSI_932
  9
$INSBASE
 10
0.0
 20
0.0
 30
0.0
  9
$EXTMIN
 10
2994.507745620241
 20
-793.7961085197256
 30
0.0
  9
$EXTMAX
 10
3062.507745620241
 20
-715.2231994622134
 30
0.0
  9
$LIMMIN
 10
0.0
 20
0.0
  9
$LIMMAX
 10
420.0
 20
297.0
  9
$ORTHOMODE
 70
     1
  9
$REGENMODE
 70
     1
  9
$FILLMODE
 70
     1
  9
$QTEXTMODE
 70
     0
  9
$MIRRTEXT
 70
     1
  9
$LTSCALE
 40
5.0
  9
$ATTMODE
 70
     0
  9
$TEXTSIZE
 40
3.5
  9
$TRACEWID
 40
1.0
  9
$TEXTSTYLE
  7
STANDARD
  9
$CLAYER
  8
寸法線
  9
$CELTYPE
  6
BYLAYER
  9
$CECOLOR
 62
   256
  9
$CELTSCALE
 40
1.0
  9
$DISPSILH
 70
     0
  9
$DIMSCALE
 40
1.0
  9
$DIMASZ
 40
1.5
  9
$DIMEXO
 40
1.5
  9
$DIMDLI
 40
0.38
  9
$DIMRND
 40
0.0
  9
$DIMDLE
 40
0.0
  9
$DIMEXE
 40
1.0
  9
$DIMTP
 40
0.0
  9
$DIMTM
 40
0.0
  9
$DIMTXT
 40
2.500000000000003
  9
$DIMCEN
 40
0.0
  9
$DIMTSZ
 40
0.0
  9
$DIMTOL
 70
     0
  9
$DIMLIM
 70
     0
  9
$DIMTIH
 70
     0
  9
$DIMTOH
 70
     0
  9
$DIMSE1
 70
     0
  9
$DIMSE2
 70
     0
  9
$DIMTAD
 70
     3
  9
$DIMZIN
 70
     8
  9
$DIMBLK
  1

  9
$DIMASO
 70
     1
  9
$DIMSHO
 70
     0
  9
$DIMPOST
  1

  9
$DIMAPOST
  1

  9
$DIMALT
 70
     0
  9
$DIMALTD
 70
     0
  9
$DIMALTF
 40
25.4
  9
$DIMLFAC
 40
1.0
  9
$DIMTOFL
 70
     0
  9
$DIMTVP
 40
0.0
  9
$DIMTIX
 70
     0
  9
$DIMSOXD
 70
     0
  9
$DIMSAH
 70
     1
  9
$DIMBLK1
  1
OPEN
  9
$DIMBLK2
  1
OPEN
  9
$DIMSTYLE
  2
STANDARD
  9
$DIMCLRD
 70
     8
  9
$DIMCLRE
 70
     8
  9
$DIMCLRT
 70
   256
  9
$DIMTFAC
 40
1.0
  9
$DIMGAP
 40
1.0
  9
$DIMJUST
 70
     0
  9
$DIMSD1
 70
     0
  9
$DIMSD2
 70
     0
  9
$DIMTOLJ
 70
     1
  9
$DIMTZIN
 70
     0
  9
$DIMALTZ
 70
     0
  9
$DIMALTTZ
 70
     0
  9
$DIMUPT
 70
     0
  9
$DIMDEC
 70
     2
  9
$DIMTDEC
 70
     2
  9
$DIMALTU
 70
     2
  9
$DIMALTTD
 70
     0
  9
$DIMTXSTY
  7
STANDARD
  9
$DIMAUNIT
 70
     0
  9
$DIMADEC
 70
     2
  9
$DIMALTRND
 40
0.0
  9
$DIMAZIN
 70
     2
  9
$DIMDSEP
 70
    46
  9
$DIMATFIT
 70
     3
  9
$DIMFRAC
 70
     0
  9
$DIMLDRBLK
  1
OPEN
  9
$DIMLUNIT
 70
     2
  9
$DIMLWD
 70
    -2
  9
$DIMLWE
 70
    -2
  9
$DIMTMOVE
 70
     0
  9
$LUNITS
 70
     2
  9
$LUPREC
 70
     2
  9
$SKETCHINC
 40
0.1
  9
$FILLETRAD
 40
6.0
  9
$AUNITS
 70
     0
  9
$AUPREC
 70
     1
  9
$MENU
  1
FM
  9
$ELEVATION
 40
0.0
  9
$PELEVATION
 40
0.0
  9
$THICKNESS
 40
0.0
  9
$LIMCHECK
 70
     0
  9
$CHAMFERA
 40
0.0
  9
$CHAMFERB
 40
0.0
  9
$CHAMFERC
 40
0.0
  9
$CHAMFERD
 40
0.0
  9
$SKPOLY
 70
     0
  9
$TDCREATE
 40
2448636.619629629
  9
$TDUCREATE
 40
2448636.244629629
  9
$TDUPDATE
 40
2456822.475015
  9
$TDUUPDATE
 40
2456822.100015
  9
$TDINDWG
 40
1.4310831829
  9
$TDUSRTIMER
 40
2456822.099731632
  9
$USRTIMER
 70
     1
  9
$ANGBASE
 50
0.0
  9
$ANGDIR
 70
     0
  9
$PDMODE
 70
     3
  9
$PDSIZE
 40
0.0
  9
$PLINEWID
 40
0.0
  9
$SPLFRAME
 70
     0
  9
$SPLINETYPE
 70
     6
  9
$SPLINESEGS
 70
     8
  9
$HANDSEED
  5
31AA6
  9
$SURFTAB1
 70
     6
  9
$SURFTAB2
 70
     6
  9
$SURFTYPE
 70
     6
  9
$SURFU
 70
     6
  9
$SURFV
 70
     6
  9
$UCSBASE
  2

  9
$UCSNAME
  2

  9
$UCSORG
 10
0.0
 20
0.0
 30
0.0
  9
$UCSXDIR
 10
1.0
 20
0.0
 30
0.0
  9
$UCSYDIR
 10
0.0
 20
1.0
 30
0.0
  9
$UCSORTHOREF
  2

  9
$UCSORTHOVIEW
 70
     0
  9
$UCSORGTOP
 10
0.0
 20
0.0
 30
0.0
  9
$UCSORGBOTTOM
 10
0.0
 20
0.0
 30
0.0
  9
$UCSORGLEFT
 10
0.0
 20
0.0
 30
0.0
  9
$UCSORGRIGHT
 10
0.0
 20
0.0
 30
0.0
  9
$UCSORGFRONT
 10
0.0
 20
0.0
 30
0.0
  9
$UCSORGBACK
 10
0.0
 20
0.0
 30
0.0
  9
$PUCSBASE
  2

  9
$PUCSNAME
  2

  9
$PUCSORG
 10
0.0
 20
0.0
 30
0.0
  9
$PUCSXDIR
 10
1.0
 20
0.0
 30
0.0
  9
$PUCSYDIR
 10
0.0
 20
1.0
 30
0.0
  9
$PUCSORTHOREF
  2

  9
$PUCSORTHOVIEW
 70
     0
  9
$PUCSORGTOP
 10
0.0
 20
0.0
 30
0.0
  9
$PUCSORGBOTTOM
 10
0.0
 20
0.0
 30
0.0
  9
$PUCSORGLEFT
 10
0.0
 20
0.0
 30
0.0
  9
$PUCSORGRIGHT
 10
0.0
 20
0.0
 30
0.0
  9
$PUCSORGFRONT
 10
0.0
 20
0.0
 30
0.0
  9
$PUCSORGBACK
 10
0.0
 20
0.0
 30
0.0
  9
$USERI1
 70
     0
  9
$USERI2
 70
     0
  9
$USERI3
 70
     0
  9
$USERI4
 70
     0
  9
$USERI5
 70
     0
  9
$USERR1
 40
0.0
  9
$USERR2
 40
0.0
  9
$USERR3
 40
0.0
  9
$USERR4
 40
0.0
  9
$USERR5
 40
0.0
  9
$WORLDVIEW
 70
     0
  9
$SHADEDGE
 70
     3
  9
$SHADEDIF
 70
    70
  9
$TILEMODE
 70
     1
  9
$MAXACTVP
 70
    16
  9
$PINSBASE
 10
0.0
 20
0.0
 30
0.0
  9
$PLIMCHECK
 70
     0
  9
$PEXTMIN
 10
1.000000000000000E+20
 20
1.000000000000000E+20
 30
1.000000000000000E+20
  9
$PEXTMAX
 10
-1.000000000000000E+20
 20
-1.000000000000000E+20
 30
-1.000000000000000E+20
  9
$PLIMMIN
 10
0.0
 20
0.0
  9
$PLIMMAX
 10
0.0
 20
0.0
  9
$UNITMODE
 70
     0
  9
$VISRETAIN
 70
     0
  9
$PLINEGEN
 70
     0
  9
$PSLTSCALE
 70
     0
  9
$TREEDEPTH
 70
  3020
  9
$CMLSTYLE
  2
STANDARD
  9
$CMLJUST
 70
     0
  9
$CMLSCALE
 40
1.0
  9
$PROXYGRAPHICS
 70
     1
  9
$MEASUREMENT
 70
     0
  9
$CELWEIGHT
370
    -1
  9
$ENDCAPS
280
     0
  9
$JOINSTYLE
280
     0
  9
$LWDISPLAY
290
     0
  9
$INSUNITS
 70
     0
  9
$HYPERLINKBASE
  1

  9
$STYLESHEET
  1
spax form.ctb
  9
$XEDIT
290
     1
  9
$CEPSNTYPE
380
     0
  9
$PSTYLEMODE
290
     1
  9
$FINGERPRINTGUID
  2
{BBAEEBA6-8B94-11D3-9160-00E0294F7E09}
  9
$VERSIONGUID
  2
{1F44B5AF-101A-4F11-9B96-7BEF0F573CB7}
  9
$EXTNAMES
290
     1
  9
$PSVPSCALE
 40
0.0
  9
$OLESTARTUP
290
     0
  0
ENDSEC
  0
SECTION
  2
CLASSES
  0
CLASS
  1
LWPOLYLINE
  2
AcDbPolyline
  3
ObjectDBX Classes
 90
        0
280
     0
281
     1
  0
CLASS
  1
ACDBDICTIONARYWDFLT
  2
AcDbDictionaryWithDefault
  3
ObjectDBX Classes
 90
        0
280
     0
281
     0
  0
CLASS
  1
ACDBPLACEHOLDER
  2
AcDbPlaceHolder
  3
ObjectDBX Classes
 90
        0
280
     0
281
     0
  0
CLASS
  1
LAYOUT
  2
AcDbLayout
  3
ObjectDBX Classes
 90
        0
280
     0
281
     0
  0
CLASS
  1
DICTIONARYVAR
  2
AcDbDictionaryVar
  3
ObjectDBX Classes
 90
        0
280
     0
281
     0
  0
CLASS
  1
MATERIAL
  2
AcDbMaterial
  3
ObjectDBX Classes
 90
     1153
280
     0
281
     0
  0
CLASS
  1
VISUALSTYLE
  2
AcDbVisualStyle
  3
ObjectDBX Classes
 90
     4095
280
     0
281
     0
  0
CLASS
  1
TABLESTYLE
  2
AcDbTableStyle
  3
ObjectDBX Classes
 90
     4095
280
     0
281
     0
  0
CLASS
  1
SCALE
  2
AcDbScale
  3
ObjectDBX Classes
 90
     1153
280
     0
281
     0
  0
CLASS
  1
MLEADERSTYLE
  2
AcDbMLeaderStyle
  3
ACDB_MLEADERSTYLE_CLASS
 90
     4095
280
     0
281
     0
  0
CLASS
  1
CELLSTYLEMAP
  2
AcDbCellStyleMap
  3
ObjectDBX Classes
 90
     1152
280
     0
281
     0
  0
CLASS
  1
SORTENTSTABLE
  2
AcDbSortentsTable
  3
ObjectDBX Classes
 90
        0
280
     0
281
     0
  0
CLASS
  1
RASTERVARIABLES
  2
AcDbRasterVariables
  3
ISM
 90
        0
280
     0
281
     0
  0
CLASS
  1
SUN
  2
AcDbSun
  3
SCENEOE
 90
     1153
280
     0
281
     0
  0
ENDSEC
  0
SECTION
  2
TABLES
  0
TABLE
  2
VPORT
  5
8
330
0
100
AcDbSymbolTable
 70
     1
  0
VPORT
  5
31A5F
330
8
100
AcDbSymbolTableRecord
100
AcDbViewportTableRecord
  2
*Active
 70
     0
 10
0.0
 20
0.0
 11
1.0
 21
1.0
 12
3028.507745620241
 22
-754.5096539909696
 13
0.0
 23
0.0
 14
1.0
 24
1.0
 15
20.0
 25
20.0
 16
0.0
 26
0.0
 36
1.0
 17
0.0
 27
0.0
 37
0.0
 40
80.14436723866247
 41
1.731829573934837
 42
50.0
 43
0.0
 44
0.0
 50
0.0
 51
0.0
 71
    16
 72
   100
 73
     1
 74
     0
 75
     0
 76
     0
 77
     0
 78
     0
281
     0
 65
     1
110
0.0
120
0.0
130
0.0
111
1.0
121
0.0
131
0.0
112
0.0
122
1.0
132
0.0
 79
     0
146
0.0
  0
ENDTAB
  0
TABLE
  2
LTYPE
  5
5
330
0
100
AcDbSymbolTable
 70
     5
  0
LTYPE
  5
12
330
5
100
AcDbSymbolTableRecord
100
AcDbLinetypeTableRecord
  2
BYBLOCK
 70
     0
  3

 72
    65
 73
     0
 40
0.0
  0
LTYPE
  5
13
330
5
100
AcDbSymbolTableRecord
100
AcDbLinetypeTableRecord
  2
BYLAYER
 70
     0
  3

 72
    65
 73
     0
 40
0.0
  0
LTYPE
  5
14
330
5
100
AcDbSymbolTableRecord
100
AcDbLinetypeTableRecord
  2
CONTINUOUS
 70
     0
  3
Solid line
 72
    65
 73
     0
 40
0.0
  0
LTYPE
  5
26
330
5
100
AcDbSymbolTableRecord
100
AcDbLinetypeTableRecord
  2
PHANTOM
 70
     0
  3
_____ _ _ _____ _ _ _____ _ _ _____ _ _ ____
 72
    65
 73
     6
 40
2.5
 49
1.25
 74
     0
 49
-0.25
 74
     0
 49
0.25
 74
     0
 49
-0.25
 74
     0
 49
0.25
 74
     0
 49
-0.25
 74
     0
  0
LTYPE
  5
514
330
5
100
AcDbSymbolTableRecord
100
AcDbLinetypeTableRecord
  2
CENTER
 70
     0
  3
Center ____ _ ____ _ ____ _ ____ _ ____ _ ____
 72
    65
 73
     4
 40
2.0
 49
1.25
 74
     0
 49
-0.25
 74
     0
 49
0.25
 74
     0
 49
-0.25
 74
     0
  0
LTYPE
  5
B34
330
5
100
AcDbSymbolTableRecord
100
AcDbLinetypeTableRecord
  2
WACOM_LSTYLE_M1
 70
     0
  3
実線     [---------]
 72
    65
 73
     2
 40
24.0
 49
12.0
 74
     0
 49
12.0
 74
     0
  0
LTYPE
  5
2F006
330
5
100
AcDbSymbolTableRecord
100
AcDbLinetypeTableRecord
  2
CENS
 70
     0
  3
(1点鎖線1)---- - ---- - ---- - ---- - ---- - --
 72
    65
 73
     4
 40
13.0
 49
10.0
 74
     0
 49
-1.0
 74
     0
 49
1.0
 74
     0
 49
-1.0
 74
     0
  0
ENDTAB
  0
TABLE
  2
LAYER
  5
2
102
{ACAD_XDICTIONARY
360
9EB
102
}
330
0
100
AcDbSymbolTable
 70
    16
  0
LAYER
  5
F
102
{ACAD_XDICTIONARY
360
2C7F5
102
}
330
2
100
AcDbSymbolTableRecord
100
AcDbLayerTableRecord
  2
0
 70
     0
 62
     7
  6
CONTINUOUS
370
    -3
390
616
  0
LAYER
  5
2C
102
{ACAD_XDICTIONARY
360
2C7F7
102
}
330
2
100
AcDbSymbolTableRecord
100
AcDbLayerTableRecord
  2
中心線
 70
     0
 62
     1
  6
CENTER
370
    -3
390
616
  0
LAYER
  5
34
102
{ACAD_XDICTIONARY
360
2C7FB
102
}
330
2
100
AcDbSymbolTableRecord
100
AcDbLayerTableRecord
  2
寸法線
 70
     0
 62
     7
  6
CONTINUOUS
370
    -3
390
616
  0
LAYER
  5
36
330
2
100
AcDbSymbolTableRecord
100
AcDbLayerTableRecord
  2
DEFPOINTS
 70
     0
 62
     7
  6
CONTINUOUS
290
     0
370
    -3
390
616
  0
LAYER
  5
280
102
{ACAD_XDICTIONARY
360
2C7FD
102
}
330
2
100
AcDbSymbolTableRecord
100
AcDbLayerTableRecord
  2
実線
 70
     0
 62
     4
  6
CONTINUOUS
370
    -3
390
616
  0
LAYER
  5
2A3
102
{ACAD_XDICTIONARY
360
2C7FF
102
}
330
2
100
AcDbSymbolTableRecord
100
AcDbLayerTableRecord
  2
ﾊｯﾁﾝｸﾞ
 70
     0
 62
     8
  6
CONTINUOUS
370
    -3
390
616
  0
LAYER
  5
2A4
102
{ACAD_XDICTIONARY
360
2C801
102
}
330
2
100
AcDbSymbolTableRecord
100
AcDbLayerTableRecord
  2
輪郭線
 70
     0
 62
     6
  6
CONTINUOUS
370
    -3
390
616
  0
LAYER
  5
2F4
102
{ACAD_XDICTIONARY
360
2C803
102
}
330
2
100
AcDbSymbolTableRecord
100
AcDbLayerTableRecord
  2
文字
 70
     0
 62
     7
  6
CONTINUOUS
370
    -3
390
616
  0
LAYER
  5
301
102
{ACAD_XDICTIONARY
360
2C805
102
}
330
2
100
AcDbSymbolTableRecord
100
AcDbLayerTableRecord
  2
想像線
 70
     0
 62
     3
  6
PHANTOM
370
    -3
390
616
  0
LAYER
  5
305
102
{ACAD_XDICTIONARY
360
2C807
102
}
330
2
100
AcDbSymbolTableRecord
100
AcDbLayerTableRecord
  2
姿図
 70
     0
 62
     8
  6
CONTINUOUS
370
    -3
390
616
  0
LAYER
  5
B35
102
{ACAD_XDICTIONARY
360
2C809
102
}
330
2
100
AcDbSymbolTableRecord
100
AcDbLayerTableRecord
  2
ｽｹﾙﾄﾝｵﾃﾞｨ
 70
     0
 62
     4
  6
CONTINUOUS
370
    -3
390
616
  0
LAYER
  5
B36
102
{ACAD_XDICTIONARY
360
2C80B
102
}
330
2
100
AcDbSymbolTableRecord
100
AcDbLayerTableRecord
  2
ﾐﾗｰ
 70
     0
 62
     4
  6
CONTINUOUS
370
    -3
390
616
  0
LAYER
  5
B37
102
{ACAD_XDICTIONARY
360
2C80D
102
}
330
2
100
AcDbSymbolTableRecord
100
AcDbLayerTableRecord
  2
ﾗﾝﾌﾟ
 70
     0
 62
     4
  6
CONTINUOUS
370
    -3
390
616
  0
LAYER
  5
B38
102
{ACAD_XDICTIONARY
360
2C80F
102
}
330
2
100
AcDbSymbolTableRecord
100
AcDbLayerTableRecord
  2
ｱｰﾑ
 70
     0
 62
     4
  6
CONTINUOUS
370
    -3
390
616
  0
LAYER
  5
B39
102
{ACAD_XDICTIONARY
360
2C811
102
}
330
2
100
AcDbSymbolTableRecord
100
AcDbLayerTableRecord
  2
放熱ﾌｨﾝ
 70
     0
 62
     4
  6
CONTINUOUS
370
    -3
390
616
  0
LAYER
  5
B3A
102
{ACAD_XDICTIONARY
360
2C813
102
}
330
2
100
AcDbSymbolTableRecord
100
AcDbLayerTableRecord
  2
CONT-5
 70
     0
 62
     4
  6
CONTINUOUS
370
    -3
390
616
  0
ENDTAB
  0
TABLE
  2
STYLE
  5
3
330
0
100
AcDbSymbolTable
 70
     2
  0
STYLE
  5
10
330
3
100
AcDbSymbolTableRecord
100
AcDbTextStyleTableRecord
  2
STANDARD
 70
     0
 40
0.0
 41
1.0
 50
0.0
 71
     0
 42
3.5
  3
MONOTXT
  4
BIGFONT
  0
STYLE
  5
1ED6A
330
3
100
AcDbSymbolTableRecord
100
AcDbTextStyleTableRecord
  2
EXTFONT
 70
     0
 40
4.5
 41
1.0
 50
0.0
 71
     0
 42
4.5
  3
txt.shx
  4
extfont
  0
ENDTAB
  0
TABLE
  2
VIEW
  5
6
330
0
100
AcDbSymbolTable
 70
     0
  0
ENDTAB
  0
TABLE
  2
UCS
  5
7
330
0
100
AcDbSymbolTable
 70
     0
  0
ENDTAB
  0
TABLE
  2
APPID
  5
9
330
0
100
AcDbSymbolTable
 70
     7
  0
APPID
  5
11
330
9
100
AcDbSymbolTableRecord
100
AcDbRegAppTableRecord
  2
ACAD
 70
     0
  0
APPID
  5
2C7EE
330
9
100
AcDbSymbolTableRecord
100
AcDbRegAppTableRecord
  2
ACAD_MLEADERVER
 70
     0
  0
APPID
  5
2E2AA
330
9
100
AcDbSymbolTableRecord
100
AcDbRegAppTableRecord
  2
ACAD_EXEMPT_FROM_CAD_STANDARDS
 70
     0
  0
APPID
  5
2E2D5
330
9
100
AcDbSymbolTableRecord
100
AcDbRegAppTableRecord
  2
ACAD_DSTYLE_DIMJAG
 70
     0
  0
APPID
  5
2E2D6
330
9
100
AcDbSymbolTableRecord
100
AcDbRegAppTableRecord
  2
ACAD_DSTYLE_DIMTALN
 70
     0
  0
APPID
  5
2F009
330
9
100
AcDbSymbolTableRecord
100
AcDbRegAppTableRecord
  2
ACAD_PSEXT
 70
     0
  0
APPID
  5
2F00A
330
9
100
AcDbSymbolTableRecord
100
AcDbRegAppTableRecord
  2
AcadAnnotative
 70
     0
  0
ENDTAB
  0
TABLE
  2
DIMSTYLE
  5
A
330
0
100
AcDbSymbolTable
 70
     2
100
AcDbDimStyleTable
  0
DIMSTYLE
105
1CC
330
A
100
AcDbSymbolTableRecord
100
AcDbDimStyleTableRecord
  2
STANDARD
 70
     0
 41
1.5
 42
1.5
 44
1.0
 73
     0
 74
     0
 77
     3
 78
     8
 79
     2
140
2.500000000000003
141
0.0
147
1.0
171
     0
173
     1
176
     8
177
     8
271
     2
178
   256
179
     2
271
     2
272
     2
274
     0
340
10
341
608
343
608
344
608
  0
DIMSTYLE
105
A76
330
A
100
AcDbSymbolTableRecord
100
AcDbDimStyleTableRecord
  2
STANDARD$0
 70
     0
 41
2.5
 42
1.0
 43
4.0
 44
1.0
 73
     0
 74
     0
 77
     1
 78
     8
140
2.5
145
1.0
147
0.9999999999999991
171
     0
172
     1
176
     8
177
     8
271
     2
178
   256
271
     2
272
     2
274
     0
284
     8
340
10
341
A62
342
608
371
    -1
372
    -1
  0
ENDTAB
  0
TABLE
  2
BLOCK_RECORD
  5
1
330
0
100
AcDbSymbolTable
 70
    95
  0
BLOCK_RECORD
  5
18
102
{ACAD_XDICTIONARY
360
2F07A
102
}
330
1
100
AcDbSymbolTableRecord
100
AcDbBlockTableRecord
  2
*MODEL_SPACE
340
619
  0
BLOCK_RECORD
  5
15
330
1
100
AcDbSymbolTableRecord
100
AcDbBlockTableRecord
  2
*PAPER_SPACE
340
61A
  0
BLOCK_RECORD
  5
608
330
1
100
AcDbSymbolTableRecord
100
AcDbBlockTableRecord
  2
_OPEN
340
0
102
{BLKREFS
331
1E736
331
1E737
331
1E73F
331
1E740
331
1E748
331
1E749
331
1E751
331
1E752
331
1E75A
331
1E75B
331
1E763
331
1E764
331
1E76C
331
1E76D
331
1E777
331
1E778
331
1E780
331
1E781
331
1E789
331
1E78A
331
1E792
331
1E793
331
2D529
331
2D52A
331
2D532
331
2D533
331
2D53B
331
2D53C
331
2D544
331
2D545
331
2D54D
331
2D54E
331
2D556
331
2D557
331
2D55F
331
2D560
331
2D568
331
2D569
331
2D571
331
2D572
331
2D57C
331
2D57D
331
2D585
331
2D586
331
2E244
331
2E245
331
2E24D
331
2E24E
331
2E256
331
2E257
331
2E25F
331
2E260
331
2E268
331
2E269
331
2E271
331
2E272
331
2E27C
331
2E27D
331
2E285
331
2E286
331
2E28E
331
2E28F
331
2E297
331
2E298
331
2E2A0
331
2E2A1
331
2EFAD
331
2EFAE
331
2EFB6
331
2EFB7
331
2EFBF
331
2EFC0
331
2EFC8
331
2EFC9
331
2F082
331
2F083
331
2F08D
331
2F08E
331
2F096
331
2F097
331
2F09F
331
2F0A0
331
2F0A8
331
2F0A9
331
2F121
331
2F122
331
2F12A
331
2F12B
331
2F158
331
2F159
331
2F161
331
2F162
331
2F16A
331
2F16B
331
2F174
331
2F175
331
2FE71
331
2FE72
331
2FE7A
331
2FE7B
331
2FE83
331
2FE84
331
2FE8D
331
2FE8E
331
2FE96
331
2FE97
331
2FE9F
331
2FEA0
331
2FEA8
331
2FEA9
331
2FEB1
331
2FEB2
331
2FEBA
331
2FEBB
331
2FEC3
331
2FEC4
331
2FECE
331
2FECF
331
2FED7
331
2FED8
331
2FEE0
331
2FEE1
331
2FEE9
331
2FEEA
331
2FEF2
331
2FEF3
331
30C06
331
30C07
331
30C0F
331
30C10
331
30C18
331
30C19
331
30C21
331
30C22
331
30C2A
331
30C2B
331
30C33
331
30C34
331
30C3E
331
30C3F
331
30C47
331
30C48
331
30C50
331
30C51
331
30C59
331
30C5A
331
30C7E
331
30C7F
331
30CA5
331
30CA6
331
30CB7
331
30CB8
331
30CC0
331
30CC1
331
30CD2
331
30CD3
331
319BE
331
319BF
331
319C7
331
319C8
331
319D2
331
319D3
331
319DB
331
319DC
331
319E4
331
319E5
331
319ED
331
319EE
331
319F6
331
319F7
331
319FF
331
31A00
331
31A08
331
31A09
331
31A12
331
31A13
331
31A1B
331
31A1C
331
31A24
331
31A25
331
31A2D
331
31A2E
331
31A36
331
31A37
331
31A3F
331
31A40
102
}
  0
BLOCK_RECORD
  5
A62
330
1
100
AcDbSymbolTableRecord
100
AcDbBlockTableRecord
  2
SUN
340
0
  0
ENDTAB
  0
ENDSEC
  0
SECTION
  2
BLOCKS
  0
BLOCK
  5
39
330
18
100
AcDbEntity
  8
0
100
AcDbBlockBegin
  2
*MODEL_SPACE
 70
     0
 10
0.0
 20
0.0
 30
0.0
  3
*MODEL_SPACE
  1
*MODEL_SPACE
  0
ENDBLK
  5
3A
330
18
100
AcDbEntity
  8
0
100
AcDbBlockEnd
  0
BLOCK
  5
37
330
15
100
AcDbEntity
 67
     1
  8
0
100
AcDbBlockBegin
  2
*PAPER_SPACE
 70
     0
 10
0.0
 20
0.0
 30
0.0
  3
*PAPER_SPACE
  1
*PAPER_SPACE
  0
ENDBLK
  5
38
330
15
100
AcDbEntity
 67
     1
  8
0
100
AcDbBlockEnd
  0
BLOCK
  5
609
330
608
100
AcDbEntity
  8
0
100
AcDbBlockBegin
  2
_OPEN
 70
     0
 10
0.0
 20
0.0
 30
0.0
  3
_OPEN
  1
_OPEN
  0
LINE
  5
60A
330
608
100
AcDbEntity
  8
0
  6
ByBlock
 62
     0
100
AcDbLine
 10
-1.0
 20
0.1666666666666667
 30
0.0
 11
0.0
 21
0.0
 31
0.0
  0
LINE
  5
60B
330
608
100
AcDbEntity
  8
0
  6
ByBlock
 62
     0
100
AcDbLine
 10
0.0
 20
0.0
 30
0.0
 11
-1.0
 21
-0.1666666666666667
 31
0.0
  0
LINE
  5
60C
330
608
100
AcDbEntity
  8
0
  6
ByBlock
 62
     0
100
AcDbLine
 10
0.0
 20
0.0
 30
0.0
 11
-1.0
 21
0.0
 31
0.0
  0
ENDBLK
  5
60D
330
608
100
AcDbEntity
  8
0
100
AcDbBlockEnd
  0
BLOCK
  5
A63
330
A62
100
AcDbEntity
  8
0
100
AcDbBlockBegin
  2
SUN
 70
     0
 10
0.0
 20
0.0
 30
0.0
  3
SUN
  1
SUN
  0
LINE
  5
A64
330
A62
100
AcDbEntity
  8
0
100
AcDbLine
 10
-0.0000000000000568
 20
0.0
 30
0.0
 11
-1.500000000000057
 21
0.0
 31
0.0
  0
LINE
  5
A65
330
A62
100
AcDbEntity
  8
0
100
AcDbLine
 10
-0.0000000000000568
 20
0.0000000000000284
 30
0.0
 11
-1.500000000000057
 21
0.401923788646684
 31
0.0
  0
LINE
  5
A66
330
A62
100
AcDbEntity
  8
0
100
AcDbLine
 10
-0.0000000000000568
 20
0.0000000000000284
 30
0.0
 11
-1.500000000000057
 21
-0.4019237886466556
 31
0.0
  0
ENDBLK
  5
A67
330
A62
100
AcDbEntity
  8
0
100
AcDbBlockEnd
  0
ENDSEC
  0
SECTION
  2
ENTITIES
  0
TEXT
  5
30D41
330
18
100
AcDbEntity
  8
文字
100
AcDbText
 10
2994.507745620241
 20
-793.7961085197256
 30
0.0
 40
6.0
  1
SL-504/80DFC
  7
EXTFONT
100
AcDbText
  0
POLYLINE
  5
30D42
330
18
100
AcDbEntity
  8
姿図
100
AcDb2dPolyline
 66
     1
 10
0.0
 20
0.0
 30
0.0
  0
VERTEX
  5
30D43
330
30D42
100
AcDbEntity
  8
姿図
100
AcDbVertex
100
AcDb2dVertex
 10
3054.544326365492
 20
-768.7139271227561
 30
0.0
  0
VERTEX
  5
30D44
330
30D42
100
AcDbEntity
  8
姿図
100
AcDbVertex
100
AcDb2dVertex
 10
3054.544326365492
 20
-741.0269004843012
 30
0.0
  0
VERTEX
  5
30D45
330
30D42
100
AcDbEntity
  8
姿図
100
AcDbVertex
100
AcDb2dVertex
 10
3051.70539269447
 20
-726.4322700998757
 30
0.0
  0
SEQEND
  5
30D46
330
30D42
100
AcDbEntity
  8
姿図
  0
POLYLINE
  5
30D47
330
18
100
AcDbEntity
  8
姿図
100
AcDb2dPolyline
 66
     1
 10
0.0
 20
0.0
 30
0.0
  0
VERTEX
  5
30D48
330
30D47
100
AcDbEntity
  8
姿図
100
AcDbVertex
100
AcDb2dVertex
 10
3046.162397886568
 20
-725.2043335544006
 30
0.0
  0
VERTEX
  5
30D49
330
30D47
100
AcDbEntity
  8
姿図
100
AcDbVertex
100
AcDb2dVertex
 10
3049.94098977695
 20
-740.1606312243184
 30
0.0
  0
VERTEX
  5
30D4A
330
30D47
100
AcDbEntity
  8
姿図
100
AcDbVertex
100
AcDb2dVertex
 10
3050.474979577298
 20
-767.746544310256
 30
0.0
  0
SEQEND
  5
30D4B
330
30D47
100
AcDbEntity
  8
姿図
  0
POLYLINE
  5
30D4C
330
18
100
AcDbEntity
  8
姿図
100
AcDb2dPolyline
 66
     1
 10
0.0
 20
0.0
 30
0.0
  0
VERTEX
  5
30D4D
330
30D4C
100
AcDbEntity
  8
姿図
100
AcDbVertex
100
AcDb2dVertex
 10
3045.70278383682
 20
-725.1481816806412
 30
0.0
  0
VERTEX
  5
30D4E
330
30D4C
100
AcDbEntity
  8
姿図
100
AcDbVertex
100
AcDb2dVertex
 10
3049.507596764798
 20
-739.8274904908117
 30
0.0
  0
VERTEX
  5
30D4F
330
30D4C
100
AcDbEntity
  8
姿図
100
AcDbVertex
100
AcDb2dVertex
 10
3050.040897546048
 20
-768.0469566366446
 30
0.0
  0
SEQEND
  5
30D50
330
30D4C
100
AcDbEntity
  8
姿図
  0
SPLINE
  5
30D51
330
18
100
AcDbEntity
  8
姿図
100
AcDbSpline
210
0.0
220
0.0
230
1.0
 70
     8
 71
     3
 72
    11
 73
     7
 74
     0
 42
0.000000001
 43
0.0000000001
 40
2.52747855909131
 40
2.52747855909131
 40
2.52747855909131
 40
2.52747855909131
 40
3.0
 40
3.0
 40
3.0
 40
4.0
 40
4.0
 40
4.0
 40
4.0
 10
3035.602175334347
 20
-724.8720939731919
 30
0.0
 10
3035.759928691521
 20
-724.9700408660992
 30
0.0
 10
3035.856233646308
 20
-725.1007312905879
 30
0.0
 10
3035.856233646308
 20
-725.2442290433287
 30
0.0
 10
3035.856233646308
 20
-725.3184708510544
 30
0.0
 10
3035.852788550822
 20
-725.3992583402037
 30
0.0
 10
3035.839697187975
 20
-725.4790123007074
 30
0.0
  0
POLYLINE
  5
30D52
330
18
100
AcDbEntity
  8
姿図
100
AcDb2dPolyline
 66
     1
 10
0.0
 20
0.0
 30
0.0
  0
VERTEX
  5
30D53
330
30D52
100
AcDbEntity
  8
姿図
100
AcDbVertex
100
AcDb2dVertex
 10
3025.291331573825
 20
-750.9351673571309
 30
0.0
  0
VERTEX
  5
30D54
330
30D52
100
AcDbEntity
  8
姿図
100
AcDbVertex
100
AcDb2dVertex
 10
3025.357994171482
 20
-744.4971451674605
 30
0.0
  0
VERTEX
  5
30D55
330
30D52
100
AcDbEntity
  8
姿図
100
AcDbVertex
100
AcDb2dVertex
 10
3028.636852629541
 20
-725.8431412802806
 30
0.0
  0
SEQEND
  5
30D56
330
30D52
100
AcDbEntity
  8
姿図
  0
POLYLINE
  5
30D57
330
18
100
AcDbEntity
  8
姿図
100
AcDb2dPolyline
 66
     1
 10
0.0
 20
0.0
 30
0.0
  0
VERTEX
  5
30D58
330
30D57
100
AcDbEntity
  8
姿図
100
AcDbVertex
100
AcDb2dVertex
 10
3025.691651669312
 20
-750.734662799839
 30
0.0
  0
VERTEX
  5
30D59
330
30D57
100
AcDbEntity
  8
姿図
100
AcDbVertex
100
AcDb2dVertex
 10
3025.725069095527
 20
-744.6306426175474
 30
0.0
  0
VERTEX
  5
30D5A
330
30D57
100
AcDbEntity
  8
姿図
100
AcDbVertex
100
AcDb2dVertex
 10
3028.989698672744
 20
-725.7537428764956
 30
0.0
  0
SEQEND
  5
30D5B
330
30D57
100
AcDbEntity
  8
姿図
  0
SPLINE
  5
30D5C
330
18
100
AcDbEntity
  8
姿図
100
AcDbSpline
210
0.0
220
0.0
230
1.0
 70
     8
 71
     3
 72
    11
 73
     7
 74
     0
 42
0.000000001
 43
0.0000000001
 40
0.0
 40
0.0
 40
0.0
 40
0.0
 40
1.0
 40
1.0
 40
1.0
 40
2.0
 40
2.0
 40
2.0
 40
2.0
 10
3026.199291606683
 20
-720.056437497151
 30
0.0
 10
3025.104608756167
 20
-718.1246776824988
 30
0.0
 10
3031.517602094343
 20
-715.9852124594563
 30
0.0
 10
3039.721894642457
 20
-716.1929178678465
 30
0.0
 10
3047.352260610371
 20
-716.3861222826329
 30
0.0
 10
3053.66275182709
 20
-717.6738673813314
 30
0.0
 10
3053.083280749336
 20
-720.2496419119369
 30
0.0
  0
SPLINE
  5
30D5D
330
18
100
AcDbEntity
  8
姿図
100
AcDbSpline
210
0.0
220
0.0
230
1.0
 70
     8
 71
     3
 72
    17
 73
    13
 74
     0
 42
0.000000001
 43
0.0000000001
 40
0.0
 40
0.0
 40
0.0
 40
0.0
 40
1.0
 40
1.0
 40
1.0
 40
2.0
 40
2.0
 40
2.0
 40
3.0
 40
3.0
 40
3.0
 40
4.0
 40
4.0
 40
4.0
 40
4.0
 10
3024.394202236163
 20
-727.6343439882022
 30
0.0
 10
3024.384677073698
 20
-727.5823110111519
 30
0.0
 10
3024.38012774237
 20
-727.5299937008932
 30
0.0
 10
3024.380554242182
 20
-727.4775342240309
 30
0.0
 10
3024.398325067678
 20
-725.5531670727847
 30
0.0
 10
3031.22260639112
 20
-724.0557262332404
 30
0.0
 10
3039.621809353267
 20
-724.1330648657963
 30
0.0
 10
3048.022149648245
 20
-724.2099769985402
 30
0.0
 10
3054.817713317687
 20
-725.8320979497607
 30
0.0
 10
3054.800653325211
 20
-727.756180767799
 30
0.0
 10
3054.800084658795
 20
-727.797693416156
 30
0.0
 10
3054.796672660301
 20
-727.8390638979092
 30
0.0
 10
3054.78984866331
 20
-727.8801500464547
 30
0.0
  0
SPLINE
  5
30D5E
330
18
100
AcDbEntity
  8
姿図
100
AcDbSpline
210
0.0
220
0.0
230
1.0
 70
     8
 71
     3
 72
    11
 73
     7
 74
     0
 42
0.000000001
 43
0.0000000001
 40
0.0
 40
0.0
 40
0.0
 40
0.0
 40
1.0
 40
1.0
 40
1.0
 40
1.311238117250983
 40
1.311238117250983
 40
1.311238117250983
 40
1.311238117250983
 10
3033.926291154989
 20
-725.4435278172004
 30
0.0
 10
3033.925602135891
 20
-725.3758316908984
 30
0.0
 10
3033.92870272183
 20
-725.3077910550473
 30
0.0
 10
3033.92870272183
 20
-725.2442290433287
 30
0.0
 10
3033.92870272183
 20
-725.1497106436833
 30
0.0
 10
3033.970518279544
 20
-725.0607487407333
 30
0.0
 10
3034.044167729983
 20
-724.9830404658492
 30
0.0
  0
ELLIPSE
  5
30D5F
330
18
100
AcDbEntity
  8
姿図
100
AcDbEllipse
 10
3034.88730054084
 20
-725.443355562426
 30
0.0
 11
0.9585978190104166
 21
0.0
 31
0.0
210
0.0
220
0.0
230
1.0
 40
0.4208446026042643
 41
0.0
 42
6.283185307179586
  0
LINE
  5
30D60
330
18
100
AcDbEntity
  8
姿図
100
AcDbLine
 10
3030.608182643828
 20
-725.4193054662078
 30
0.0
 11
3034.724864288669
 21
-726.3706030125127
 31
0.0
  0
SPLINE
  5
30D61
330
18
100
AcDbEntity
  8
姿図
100
AcDbSpline
210
0.0
220
0.0
230
1.0
 70
     8
 71
     3
 72
    14
 73
    10
 74
     0
 42
0.000000001
 43
0.0000000001
 40
0.0
 40
0.0
 40
0.0
 40
0.0
 40
1.0
 40
1.0
 40
1.0
 40
2.0
 40
2.0
 40
2.0
 40
3.0
 40
3.0
 40
3.0
 40
3.0
 10
3045.921252363755
 20
-726.0877606731033
 30
0.0
 10
3044.315148848132
 20
-726.2371055624262
 30
0.0
 10
3042.422413388061
 20
-726.3234052043531
 30
0.0
 10
3040.396008223131
 20
-726.3234052043531
 30
0.0
 10
3038.627296200561
 20
-726.3234052043531
 30
0.0
 10
3036.964865373739
 20
-726.1966256904643
 30
0.0
 10
3035.49863273485
 20
-726.141848672235
 30
0.0
 10
3034.997715851169
 20
-726.1230729018357
 30
0.0
 10
3034.839930477906
 20
-726.51891437319
 30
0.0
 10
3034.79927835117
 20
-726.7728179105161
 30
0.0
  0
POLYLINE
  5
30D62
330
18
100
AcDbEntity
  8
姿図
100
AcDb2dPolyline
 66
     1
 10
0.0
 20
0.0
 30
0.0
  0
VERTEX
  5
30D63
330
30D62
100
AcDbEntity
  8
姿図
100
AcDbVertex
100
AcDb2dVertex
 10
3030.294988257853
 20
-748.533246784214
 30
0.0
  0
VERTEX
  5
30D64
330
30D62
100
AcDbEntity
  8
姿図
100
AcDbVertex
100
AcDb2dVertex
 10
3030.361823110284
 20
-745.2643679322177
 30
0.0
  0
VERTEX
  5
30D65
330
30D62
100
AcDbEntity
  8
姿図
100
AcDbVertex
100
AcDb2dVertex
 10
3034.798589332072
 20
-726.7173518731897
 30
0.0
  0
SEQEND
  5
30D66
330
30D62
100
AcDbEntity
  8
姿図
  0
SPLINE
  5
30D67
330
18
100
AcDbEntity
  8
姿図
100
AcDbSpline
210
0.0
220
0.0
230
1.0
 70
     8
 71
     3
 72
    11
 73
     7
 74
     0
 42
0.000000001
 43
0.0000000001
 40
0.0
 40
0.0
 40
0.0
 40
0.0
 40
1.0
 40
1.0
 40
1.0
 40
2.0
 40
2.0
 40
2.0
 40
2.0
 10
3053.027551440583
 20
-720.1155788043995
 30
0.0
 10
3053.285157326964
 20
-720.9363066090795
 30
0.0
 10
3053.563235204316
 20
-722.232155204204
 30
0.0
 10
3053.77932844234
 20
-723.7020157225797
 30
0.0
 10
3053.934005707452
 20
-724.7594509228584
 30
0.0
 10
3054.032384997394
 20
-725.7399739903927
 30
0.0
 10
3054.071054313673
 20
-726.5272926431408
 30
0.0
  0
SPLINE
  5
30D68
330
18
100
AcDbEntity
  8
姿図
100
AcDbSpline
210
0.0
220
0.0
230
1.0
 70
     8
 71
     3
 72
    11
 73
     7
 74
     0
 42
0.000000001
 43
0.0000000001
 40
0.0
 40
0.0
 40
0.0
 40
0.0
 40
1.0
 40
1.0
 40
1.0
 40
2.0
 40
2.0
 40
2.0
 40
2.0
 10
3026.483766981214
 20
-718.8092098805816
 30
0.0
 10
3026.236681423527
 20
-719.669886500975
 30
0.0
 10
3025.962584211085
 20
-720.8129059968392
 30
0.0
 10
3025.710238489051
 20
-722.0747767736169
 30
0.0
 10
3025.337051153647
 20
-723.9405712840303
 30
0.0
 10
3025.107736421454
 20
-725.5847280588648
 30
0.0
 10
3025.079871767077
 20
-726.4587683400306
 30
0.0
  0
SPLINE
  5
30D69
330
18
100
AcDbEntity
  8
姿図
100
AcDbSpline
210
0.0
220
0.0
230
1.0
 70
     8
 71
     3
 72
    11
 73
     7
 74
     0
 42
0.000000001
 43
0.0000000001
 40
0.0
 40
0.0
 40
0.0
 40
0.0
 40
1.0
 40
1.0
 40
1.0
 40
2.0
 40
2.0
 40
2.0
 40
2.0
 10
3025.136169742247
 20
-719.6535373415194
 30
0.0
 10
3025.193889383456
 20
-717.2125367514708
 30
0.0
 10
3031.678108190218
 20
-715.6512631067468
 30
0.0
 10
3039.701422651487
 20
-715.7251897408079
 30
0.0
 10
3047.414813916115
 20
-715.7957043763735
 30
0.0
 10
3053.721324467922
 20
-717.0392356612398
 30
0.0
 10
3054.167727604367
 20
-719.6036368635282
 30
0.0
  0
SPLINE
  5
30D6A
330
18
100
AcDbEntity
  8
姿図
100
AcDbSpline
210
0.0
220
0.0
230
1.0
 70
     8
 71
     3
 72
    17
 73
    13
 74
     0
 42
0.000000001
 43
0.0000000001
 40
0.0
 40
0.0
 40
0.0
 40
0.0
 40
1.0
 40
1.0
 40
1.0
 40
2.0
 40
2.0
 40
2.0
 40
3.0
 40
3.0
 40
3.0
 40
4.0
 40
4.0
 40
4.0
 40
4.0
 10
3026.043334842136
 20
-720.6249617464001
 30
0.0
 10
3025.418796950925
 20
-720.164910615975
 30
0.0
 10
3025.071057437632
 20
-719.6677540019155
 30
0.0
 10
3025.083283765573
 20
-719.1515470629254
 30
0.0
 10
3025.141003406781
 20
-716.7106886394808
 30
0.0
 10
3031.625222213544
 20
-715.1492728281528
 30
0.0
 10
3039.648536674812
 20
-715.2231994622134
 30
0.0
 10
3047.672419802497
 20
-715.2966995964625
 30
0.0
 10
3054.173982934941
 20
-716.6393210042913
 30
0.0
 10
3054.139862949991
 20
-719.4176829455442
 30
0.0
 10
3054.133607619416
 20
-719.9209527235739
 30
0.0
 10
3053.803212431806
 20
-720.3999120123261
 30
0.0
 10
3053.200426031001
 20
-720.8392068185724
 30
0.0
  0
ELLIPSE
  5
30D6B
330
18
100
AcDbEntity
  8
姿図
100
AcDbEllipse
 10
3042.16713181254
 20
-725.1703317451515
 30
0.0
 11
0.843703884548611
 21
0.0
 31
0.0
210
0.0
220
0.0
230
1.0
 40
0.2564315215099384
 41
0.0
 42
6.283185307179586
  0
SPLINE
  5
30D6C
330
18
100
AcDbEntity
  8
姿図
100
AcDbSpline
210
0.0
220
0.0
230
1.0
 70
     8
 71
     3
 72
    17
 73
    13
 74
     0
 42
0.000000001
 43
0.0000000001
 40
0.2539452136063279
 40
0.2539452136063279
 40
0.2539452136063279
 40
0.2539452136063279
 40
1.0
 40
1.0
 40
1.0
 40
2.0
 40
2.0
 40
2.0
 40
3.0
 40
3.0
 40
3.0
 40
3.626749038855106
 40
3.626749038855106
 40
3.626749038855106
 40
3.626749038855106
 10
3027.962515275184
 20
-729.6795653865213
 30
0.0
 10
3026.348106280911
 20
-729.1479906170918
 30
0.0
 10
3025.40312007209
 20
-728.5092672918469
 30
0.0
 10
3025.40927178846
 20
-727.8293965688399
 30
0.0
 10
3025.425478781312
 20
-726.0739233431023
 30
0.0
 10
3031.774497147705
 20
-724.7089817784511
 30
0.0
 10
3039.589395367563
 20
-724.7809180800567
 30
0.0
 10
3047.404577920629
 20
-724.8522857152462
 30
0.0
 10
3053.727579798498
 20
-726.3332352287312
 30
0.0
 10
3053.711657138854
 20
-728.0885662878648
 30
0.0
 10
3053.707023794169
 20
-728.5838886551777
 30
0.0
 10
3053.197997657815
 20
-729.0481611562186
 30
0.0
 10
3052.293921392171
 20
-729.4578282174335
 30
0.0
  0
SPLINE
  5
30D6D
330
18
100
AcDbEntity
  8
姿図
100
AcDbSpline
210
0.0
220
0.0
230
1.0
 70
     8
 71
     3
 72
    11
 73
     7
 74
     0
 42
0.000000001
 43
0.0000000001
 40
0.0
 40
0.0
 40
0.0
 40
0.0
 40
1.0
 40
1.0
 40
1.0
 40
2.0
 40
2.0
 40
2.0
 40
2.0
 10
3047.159039658801
 20
-730.7665469779929
 30
0.0
 10
3044.051152066344
 20
-731.05245564729
 30
0.0
 10
3041.856099701153
 20
-731.1583697672424
 30
0.0
 10
3039.530822726731
 20
-731.137186943252
 30
0.0
 10
3037.826671645024
 20
-731.1215486168162
 30
0.0
 10
3036.193461698694
 20
-731.0388076533094
 30
0.0
 10
3033.829092301297
 20
-730.7701407964956
 30
0.0
  0
SPLINE
  5
30D6E
330
18
100
AcDbEntity
  8
姿図
100
AcDbSpline
210
0.0
220
0.0
230
1.0
 70
     8
 71
     3
 72
    17
 73
    13
 74
     0
 42
0.000000001
 43
0.0000000001
 40
0.2084474298111308
 40
0.2084474298111308
 40
0.2084474298111308
 40
0.2084474298111308
 40
1.0
 40
1.0
 40
1.0
 40
2.0
 40
2.0
 40
2.0
 40
3.0
 40
3.0
 40
3.0
 40
3.72058887900539
 40
3.72058887900539
 40
3.72058887900539
 40
3.72058887900539
 10
3027.900401489199
 20
-730.0329416667233
 30
0.0
 10
3025.695828093244
 20
-729.407652254509
 30
0.0
 10
3024.372363010858
 20
-728.6158521257469
 30
0.0
 10
3024.38012774237
 20
-727.7649950972444
 30
0.0
 10
3024.397898567866
 20
-725.8406279459987
 30
0.0
 10
3031.215355894317
 20
-724.343187106454
 30
0.0
 10
3039.606455360038
 20
-724.4203835724061
 30
0.0
 10
3047.99826565878
 20
-724.49729570515
 30
0.0
 10
3054.787005331231
 20
-726.1192744897663
 30
0.0
 10
3054.769945338756
 20
-728.0433573078046
 30
0.0
 10
3054.763388943634
 20
-728.7317787956185
 30
0.0
 10
3053.886349796478
 20
-729.3655736521143
 30
0.0
 10
3052.378412352678
 20
-729.8921864949823
 30
0.0
  0
SPLINE
  5
30D6F
330
18
100
AcDbEntity
  8
姿図
100
AcDbSpline
210
0.0
220
0.0
230
1.0
 70
     8
 71
     3
 72
    11
 73
     7
 74
     0
 42
0.000000001
 43
0.0000000001
 40
0.0
 40
0.0
 40
0.0
 40
0.0
 40
1.0
 40
1.0
 40
1.0
 40
2.0
 40
2.0
 40
2.0
 40
2.0
 10
3047.229592235939
 20
-731.0387451351096
 30
0.0
 10
3044.082997385633
 20
-731.3093507006515
 30
0.0
 10
3041.873728360044
 20
-731.4094359898418
 30
0.0
 10
3039.542764721464
 20
-731.3881109992471
 30
0.0
 10
3037.811886318212
 20
-731.3721883396031
 30
0.0
 10
3036.149390051465
 20
-731.2905847089285
 30
0.0
 10
3033.762269295755
 20
-731.0494810400289
 30
0.0
  0
ELLIPSE
  5
31738
330
18
100
AcDbEntity
  8
姿図
100
AcDbEllipse
 10
3026.964183814493
 20
-767.1450306383808
 30
0.0
 11
7.850252956814236
 21
-10.07518174913195
 31
0.0
210
0.0
220
0.0
230
1.0
 40
0.603263200838782
 41
0.0
 42
6.283185307179586
  0
ELLIPSE
  5
31739
330
18
100
AcDbEntity
  8
姿図
100
AcDbEllipse
 10
3026.966595381334
 20
-766.9834556600822
 30
0.0
 11
6.681848822699653
 21
-8.575531684027776
 31
0.0
210
0.0
220
0.0
230
1.0
 40
0.6257407731937094
 41
0.0
 42
6.283185307179586
  0
SPLINE
  5
3173A
330
18
100
AcDbEntity
  8
姿図
100
AcDbSpline
210
0.0
220
0.0
230
1.0
 70
     8
 71
     3
 72
    14
 73
    10
 74
     0
 42
0.000000001
 43
0.0000000001
 40
0.0
 40
0.0
 40
0.0
 40
0.0
 40
1.0
 40
1.0
 40
1.0
 40
2.0
 40
2.0
 40
2.0
 40
3.0
 40
3.0
 40
3.0
 40
3.0
 10
3034.585682431029
 20
-748.2624622790058
 30
0.0
 10
3035.747368628948
 20
-747.9062394057419
 30
0.0
 10
3037.059950009155
 20
-747.6347658814366
 30
0.0
 10
3038.375804230075
 20
-747.6251196140752
 30
0.0
 10
3043.349833092922
 20
-747.5886016019226
 30
0.0
 10
3047.860152103339
 20
-752.9305666626865
 30
0.0
 10
3048.386562693618
 20
-756.7442873658115
 30
0.0
 10
3048.500939863757
 20
-757.5704212633809
 30
0.0
 10
3049.892758440145
 20
-761.1912166192838
 30
0.0
 10
3049.892758440145
 20
-761.1912166192838
 30
0.0
  0
POLYLINE
  5
3173B
330
18
100
AcDbEntity
  8
姿図
100
AcDb2dPolyline
 66
     1
 10
0.0
 20
0.0
 30
0.0
  0
VERTEX
  5
3173C
330
3173B
100
AcDbEntity
  8
姿図
100
AcDbVertex
100
AcDb2dVertex
 10
3031.373647654555
 20
-750.0628691800475
 30
0.0
  0
VERTEX
  5
3173D
330
3173B
100
AcDbEntity
  8
姿図
100
AcDbVertex
100
AcDb2dVertex
 10
3031.974989071655
 20
-749.56126327727
 30
0.0
  0
VERTEX
  5
3173E
330
3173B
100
AcDbEntity
  8
姿図
100
AcDbVertex
100
AcDb2dVertex
 10
3032.677099531725
 20
-749.1981502130338
 30
0.0
  0
VERTEX
  5
3173F
330
3173B
100
AcDbEntity
  8
姿図
100
AcDbVertex
100
AcDb2dVertex
 10
3033.303417891099
 20
-749.0100479994921
 30
0.0
  0
VERTEX
  5
31740
330
3173B
100
AcDbEntity
  8
姿図
100
AcDbVertex
100
AcDb2dVertex
 10
3035.947184167141
 20
-748.7723364109502
 30
0.0
  0
VERTEX
  5
31741
330
3173B
100
AcDbEntity
  8
姿図
100
AcDbVertex
100
AcDb2dVertex
 10
3041.335141252645
 20
-748.3713272963669
 30
0.0
  0
VERTEX
  5
31742
330
3173B
100
AcDbEntity
  8
姿図
100
AcDbVertex
100
AcDb2dVertex
 10
3041.617639082507
 20
-748.315516749492
 30
0.0
  0
SEQEND
  5
31743
330
3173B
100
AcDbEntity
  8
姿図
  0
POLYLINE
  5
31744
330
18
100
AcDbEntity
  8
姿図
100
AcDb2dPolyline
 66
     1
 10
0.0
 20
0.0
 30
0.0
  0
VERTEX
  5
31745
330
31744
100
AcDbEntity
  8
姿図
100
AcDbVertex
100
AcDb2dVertex
 10
3033.741978546482
 20
-750.8772897529643
 30
0.0
  0
VERTEX
  5
31746
330
31744
100
AcDbEntity
  8
姿図
100
AcDbVertex
100
AcDb2dVertex
 10
3034.945005890232
 20
-749.887169310256
 30
0.0
  0
VERTEX
  5
31747
330
31744
100
AcDbEntity
  8
姿図
100
AcDbVertex
100
AcDb2dVertex
 10
3035.822127200995
 20
-749.4110571140754
 30
0.0
  0
VERTEX
  5
31748
330
31744
100
AcDbEntity
  8
姿図
100
AcDbVertex
100
AcDb2dVertex
 10
3036.824305477906
 20
-749.060346393589
 30
0.0
  0
VERTEX
  5
31749
330
31744
100
AcDbEntity
  8
姿図
100
AcDbVertex
100
AcDb2dVertex
 10
3041.811253448825
 20
-748.5594295099086
 30
0.0
  0
VERTEX
  5
3174A
330
31744
100
AcDbEntity
  8
姿図
100
AcDbVertex
100
AcDb2dVertex
 10
3042.011758006117
 20
-748.5401369751867
 30
0.0
  0
SEQEND
  5
3174B
330
31744
100
AcDbEntity
  8
姿図
  0
POLYLINE
  5
3174C
330
18
100
AcDbEntity
  8
姿図
100
AcDb2dPolyline
 66
     1
 10
0.0
 20
0.0
 30
0.0
  0
VERTEX
  5
3174D
330
3174C
100
AcDbEntity
  8
姿図
100
AcDbVertex
100
AcDb2dVertex
 10
3034.24117288242
 20
-751.1025989977556
 30
0.0
  0
VERTEX
  5
3174E
330
3174C
100
AcDbEntity
  8
姿図
100
AcDbVertex
100
AcDb2dVertex
 10
3036.350260339016
 20
-749.648768702617
 30
0.0
  0
VERTEX
  5
3174F
330
3174C
100
AcDbEntity
  8
姿図
100
AcDbVertex
100
AcDb2dVertex
 10
3036.863579566448
 20
-749.3924535984502
 30
0.0
  0
VERTEX
  5
31750
330
3174C
100
AcDbEntity
  8
姿図
100
AcDbVertex
100
AcDb2dVertex
 10
3042.137159481811
 20
-748.7220380168533
 30
0.0
  0
VERTEX
  5
31751
330
3174C
100
AcDbEntity
  8
姿図
100
AcDbVertex
100
AcDb2dVertex
 10
3042.307347198825
 20
-748.6813858901169
 30
0.0
  0
SEQEND
  5
31752
330
3174C
100
AcDbEntity
  8
姿図
  0
POLYLINE
  5
31753
330
18
100
AcDbEntity
  8
姿図
100
AcDb2dPolyline
 66
     1
 10
0.0
 20
0.0
 30
0.0
  0
VERTEX
  5
31754
330
31753
100
AcDbEntity
  8
姿図
100
AcDbVertex
100
AcDb2dVertex
 10
3036.977267717489
 20
-752.7838055949783
 30
0.0
  0
VERTEX
  5
31755
330
31753
100
AcDbEntity
  8
姿図
100
AcDbVertex
100
AcDb2dVertex
 10
3038.117422068618
 20
-751.7861059422003
 30
0.0
  0
VERTEX
  5
31756
330
31753
100
AcDbEntity
  8
姿図
100
AcDbVertex
100
AcDb2dVertex
 10
3039.086182919312
 20
-751.1590985637281
 30
0.0
  0
VERTEX
  5
31757
330
31753
100
AcDbEntity
  8
姿図
100
AcDbVertex
100
AcDb2dVertex
 10
3040.54001321445
 20
-750.4755916192835
 30
0.0
  0
VERTEX
  5
31758
330
31753
100
AcDbEntity
  8
姿図
100
AcDbVertex
100
AcDb2dVertex
 10
3043.561361955771
 20
-749.7059572876865
 30
0.0
  0
VERTEX
  5
31759
330
31753
100
AcDbEntity
  8
姿図
100
AcDbVertex
100
AcDb2dVertex
 10
3043.742573978338
 20
-749.6377443970614
 30
0.0
  0
SEQEND
  5
3175A
330
31753
100
AcDbEntity
  8
姿図
  0
POLYLINE
  5
3175B
330
18
100
AcDbEntity
  8
姿図
100
AcDb2dPolyline
 66
     1
 10
0.0
 20
0.0
 30
0.0
  0
VERTEX
  5
3175C
330
3175B
100
AcDbEntity
  8
姿図
100
AcDbVertex
100
AcDb2dVertex
 10
3037.461648142836
 20
-753.1544978692837
 30
0.0
  0
VERTEX
  5
3175D
330
3175B
100
AcDbEntity
  8
姿図
100
AcDbVertex
100
AcDb2dVertex
 10
3039.913005835978
 20
-751.3017255168529
 30
0.0
  0
VERTEX
  5
3175E
330
3175B
100
AcDbEntity
  8
姿図
100
AcDbVertex
100
AcDb2dVertex
 10
3040.59720179952
 20
-750.9310332425475
 30
0.0
  0
VERTEX
  5
3175F
330
3175B
100
AcDbEntity
  8
姿図
100
AcDbVertex
100
AcDb2dVertex
 10
3043.333296634589
 20
-750.1331491279643
 30
0.0
  0
VERTEX
  5
31760
330
3175B
100
AcDbEntity
  8
姿図
100
AcDbVertex
100
AcDb2dVertex
 10
3044.038163171047
 20
-749.8775230428946
 30
0.0
  0
SEQEND
  5
31761
330
3175B
100
AcDbEntity
  8
姿図
  0
POLYLINE
  5
31762
330
18
100
AcDbEntity
  8
姿図
100
AcDb2dPolyline
 66
     1
 10
0.0
 20
0.0
 30
0.0
  0
VERTEX
  5
31763
330
31762
100
AcDbEntity
  8
姿図
100
AcDbVertex
100
AcDb2dVertex
 10
3040.112132355075
 20
-755.7486547703252
 30
0.0
  0
VERTEX
  5
31764
330
31762
100
AcDbEntity
  8
姿図
100
AcDbVertex
100
AcDb2dVertex
 10
3041.70858960334
 20
-754.3230742581727
 30
0.0
  0
VERTEX
  5
31765
330
31762
100
AcDbEntity
  8
姿図
100
AcDbVertex
100
AcDb2dVertex
 10
3045.670449412367
 20
-751.700667574145
 30
0.0
  0
VERTEX
  5
31766
330
31762
100
AcDbEntity
  8
姿図
100
AcDbVertex
100
AcDb2dVertex
 10
3045.825478709242
 20
-751.608339015117
 30
0.0
  0
SEQEND
  5
31767
330
31762
100
AcDbEntity
  8
姿図
  0
POLYLINE
  5
31768
330
18
100
AcDbEntity
  8
姿図
100
AcDb2dPolyline
 66
     1
 10
0.0
 20
0.0
 30
0.0
  0
VERTEX
  5
31769
330
31768
100
AcDbEntity
  8
姿図
100
AcDbVertex
100
AcDb2dVertex
 10
3040.568262997437
 20
-756.2612849786588
 30
0.0
  0
VERTEX
  5
3176A
330
31768
100
AcDbEntity
  8
姿図
100
AcDbVertex
100
AcDb2dVertex
 10
3041.565962650214
 20
-755.5205894491446
 30
0.0
  0
VERTEX
  5
3176B
330
31768
100
AcDbEntity
  8
姿図
100
AcDbVertex
100
AcDb2dVertex
 10
3045.784826582506
 20
-751.8722333293531
 30
0.0
  0
VERTEX
  5
3176C
330
31768
100
AcDbEntity
  8
姿図
100
AcDbVertex
100
AcDb2dVertex
 10
3045.924008440145
 20
-751.7351185290058
 30
0.0
  0
SEQEND
  5
3176D
330
31768
100
AcDbEntity
  8
姿図
  0
POLYLINE
  5
3176E
330
18
100
AcDbEntity
  8
姿図
100
AcDb2dPolyline
 66
     1
 10
0.0
 20
0.0
 30
0.0
  0
VERTEX
  5
3176F
330
3176E
100
AcDbEntity
  8
姿図
100
AcDbVertex
100
AcDb2dVertex
 10
3043.533112172784
 20
-745.6593481297004
 30
0.0
  0
VERTEX
  5
31770
330
3176E
100
AcDbEntity
  8
姿図
100
AcDbVertex
100
AcDb2dVertex
 10
3045.043442033894
 20
-744.6332264391622
 30
0.0
  0
VERTEX
  5
31771
330
3176E
100
AcDbEntity
  8
姿図
100
AcDbVertex
100
AcDb2dVertex
 10
3045.4141343082
 20
-745.0037464586935
 30
0.0
  0
SEQEND
  5
31772
330
3176E
100
AcDbEntity
  8
姿図
  0
POLYLINE
  5
31773
330
18
100
AcDbEntity
  8
姿図
100
AcDb2dPolyline
 66
     1
 10
0.0
 20
0.0
 30
0.0
  0
VERTEX
  5
31774
330
31773
100
AcDbEntity
  8
姿図
100
AcDbVertex
100
AcDb2dVertex
 10
3044.444684438408
 20
-745.8019750828253
 30
0.0
  0
VERTEX
  5
31775
330
31773
100
AcDbEntity
  8
姿図
100
AcDbVertex
100
AcDb2dVertex
 10
3046.29745679084
 20
-744.3767390802213
 30
0.0
  0
VERTEX
  5
31776
330
31773
100
AcDbEntity
  8
姿図
100
AcDbVertex
100
AcDb2dVertex
 10
3046.782526235284
 20
-745.3172501479294
 30
0.0
  0
SEQEND
  5
31777
330
31773
100
AcDbEntity
  8
姿図
  0
POLYLINE
  5
31778
330
18
100
AcDbEntity
  8
姿図
100
AcDb2dPolyline
 66
     1
 10
0.0
 20
0.0
 30
0.0
  0
VERTEX
  5
31779
330
31778
100
AcDbEntity
  8
姿図
100
AcDbVertex
100
AcDb2dVertex
 10
3045.64219962938
 20
-746.2291669231031
 30
0.0
  0
VERTEX
  5
3177A
330
31778
100
AcDbEntity
  8
姿図
100
AcDbVertex
100
AcDb2dVertex
 10
3047.808475671048
 20
-744.6048044014019
 30
0.0
  0
VERTEX
  5
3177B
330
31778
100
AcDbEntity
  8
姿図
100
AcDbVertex
100
AcDb2dVertex
 10
3048.378294464451
 20
-745.8302248658115
 30
0.0
  0
VERTEX
  5
3177C
330
31778
100
AcDbEntity
  8
姿図
100
AcDbVertex
100
AcDb2dVertex
 10
3048.891613691881
 20
-745.887413450881
 30
0.0
  0
SEQEND
  5
3177D
330
31778
100
AcDbEntity
  8
姿図
  0
POLYLINE
  5
3177E
330
18
100
AcDbEntity
  8
姿図
100
AcDb2dPolyline
 66
     1
 10
0.0
 20
0.0
 30
0.0
  0
VERTEX
  5
3177F
330
3177E
100
AcDbEntity
  8
姿図
100
AcDbVertex
100
AcDb2dVertex
 10
3047.352345028686
 20
-747.0559898397696
 30
0.0
  0
VERTEX
  5
31780
330
3177E
100
AcDbEntity
  8
姿図
100
AcDbVertex
100
AcDb2dVertex
 10
3049.404243900214
 20
-745.4598771010546
 30
0.0
  0
VERTEX
  5
31781
330
3177E
100
AcDbEntity
  8
姿図
100
AcDbVertex
100
AcDb2dVertex
 10
3049.604059438409
 20
-745.6023317994054
 30
0.0
  0
SEQEND
  5
31782
330
3177E
100
AcDbEntity
  8
姿図
  0
LINE
  5
31783
330
18
100
AcDbEntity
  8
姿図
100
AcDbLine
 10
3048.777236521742
 20
-748.0819392755338
 30
0.0
 11
3049.661248023479
 21
-747.2840551609502
 31
0.0
  0
LINE
  5
31784
330
18
100
AcDbEntity
  8
姿図
100
AcDbLine
 10
3049.433182702297
 20
-748.708946654006
 30
0.0
 11
3049.661248023479
 21
-748.4236927477559
 31
0.0
  0
LINE
  5
31785
330
18
100
AcDbEntity
  8
姿図
100
AcDbLine
 10
3049.433182702297
 20
-739.6452449395961
 30
0.0
 11
3047.551471547783
 21
-744.6048044014019
 31
0.0
  0
SPLINE
  5
31786
330
18
100
AcDbEntity
  8
姿図
100
AcDbSpline
210
0.0
220
0.0
230
1.0
 70
     8
 71
     3
 72
    14
 73
    10
 74
     0
 42
0.000000001
 43
0.0000000001
 40
0.0
 40
0.0
 40
0.0
 40
0.0
 40
1.0
 40
1.0
 40
1.0
 40
2.0
 40
2.0
 40
2.0
 40
3.0
 40
3.0
 40
3.0
 40
3.0
 10
3030.788670441013
 20
-749.9195532078252
 30
0.0
 10
3031.12697881775
 20
-749.7204266887279
 30
0.0
 10
3034.823394019572
 20
-747.5954917928948
 30
0.0
 10
3038.544613908895
 20
-747.5686200481032
 30
0.0
 10
3043.519331790839
 20
-747.5321020359502
 30
0.0
 10
3047.966261044311
 20
-752.8754451349087
 30
0.0
 10
3048.49267163459
 20
-756.6891658380337
 30
0.0
 10
3048.606359785631
 20
-757.5152997356031
 30
0.0
 10
3049.889313344659
 20
-760.935590534214
 30
0.0
 10
3049.889313344659
 20
-760.935590534214
 30
0.0
  0
SPLINE
  5
31787
330
18
100
AcDbEntity
  8
姿図
100
AcDbSpline
210
0.0
220
0.0
230
1.0
 70
     8
 71
     3
 72
    17
 73
    13
 74
     0
 42
0.000000001
 43
0.0000000001
 40
0.0
 40
0.0
 40
0.0
 40
0.0
 40
1.0
 40
1.0
 40
1.0
 40
2.0
 40
2.0
 40
2.0
 40
3.0
 40
3.0
 40
3.0
 40
4.0
 40
4.0
 40
4.0
 40
4.0
 10
3028.170225616795
 20
-749.934022608867
 30
0.0
 10
3028.654778296916
 20
-749.5350805515754
 30
0.0
 10
3031.048947404989
 20
-747.711247001228
 30
0.0
 10
3034.850954783461
 20
-746.2973798137282
 30
0.0
 10
3038.707911434937
 20
-744.8626697985369
 30
0.0
 10
3041.794027971396
 20
-744.2621896553078
 30
0.0
 10
3042.195726105075
 20
-744.6981664890754
 30
0.0
 10
3042.272207224868
 20
-744.781365545065
 30
0.0
 10
3042.844782094659
 20
-745.6452232382071
 30
0.0
 10
3043.447673804728
 20
-745.6875979126867
 30
0.0
 10
3045.071691816881
 20
-745.8012860637282
 30
0.0
 10
3048.081327233548
 20
-747.0573678779642
 30
0.0
 10
3049.689497806464
 20
-748.936322956089
 30
0.0
  0
SPLINE
  5
31788
330
18
100
AcDbEntity
  8
姿図
100
AcDbSpline
210
0.0
220
0.0
230
1.0
 70
     8
 71
     3
 72
    11
 73
     7
 74
     0
 42
0.000000001
 43
0.0000000001
 40
0.0
 40
0.0
 40
0.0
 40
0.0
 40
1.0
 40
1.0
 40
1.0
 40
2.0
 40
2.0
 40
2.0
 40
2.0
 10
3044.329618249173
 20
-763.4174373224087
 30
0.0
 10
3044.480513431464
 20
-763.297547999492
 30
0.0
 10
3044.665859568618
 20
-763.136317530742
 30
0.0
 10
3044.860851973131
 20
-762.9530384508807
 30
0.0
 10
3045.122679230076
 20
-762.7063696140754
 30
0.0
 10
3045.344543379381
 20
-762.4741701783114
 30
0.0
 10
3045.474767988756
 20
-762.315006766853
 30
0.0
  0
SPLINE
  5
31789
330
18
100
AcDbEntity
  8
姿図
100
AcDbSpline
210
0.0
220
0.0
230
1.0
 70
     8
 71
     3
 72
    11
 73
     7
 74
     0
 42
0.000000001
 43
0.0000000001
 40
0.0
 40
0.0
 40
0.0
 40
0.0
 40
1.0
 40
1.0
 40
1.0
 40
2.0
 40
2.0
 40
2.0
 40
2.0
 10
3044.450885610283
 20
-763.9776098484504
 30
0.0
 10
3044.620384308201
 20
-763.8756350220615
 30
0.0
 10
3044.846382572089
 20
-763.7212947442836
 30
0.0
 10
3045.087539256117
 20
-763.539393702617
 30
0.0
 10
3045.36728100959
 20
-763.3292428779641
 30
0.0
 10
3045.604992598131
 20
-763.1280493015752
 30
0.0
 10
3045.747619551256
 20
-762.986800386645
 30
0.0
  0
SPLINE
  5
3178A
330
18
100
AcDbEntity
  8
姿図
100
AcDbSpline
210
0.0
220
0.0
230
1.0
 70
     8
 71
     3
 72
    11
 73
     7
 74
     0
 42
0.000000001
 43
0.0000000001
 40
0.0
 40
0.0
 40
0.0
 40
0.0
 40
1.0
 40
1.0
 40
1.0
 40
2.0
 40
2.0
 40
2.0
 40
2.0
 10
3044.695487389798
 20
-766.4070911852559
 30
0.0
 10
3044.862919030423
 20
-766.221745048103
 30
0.0
 10
3045.039307919312
 20
-766.0164173571311
 30
0.0
 10
3045.218452884589
 20
-765.7979983033115
 30
0.0
 10
3046.01426994188
 20
-764.8299264717143
 30
0.0
 10
3046.565485219659
 20
-763.9686526001865
 30
0.0
 10
3046.450419030422
 20
-763.8742569838669
 30
0.0
  0
SPLINE
  5
3178B
330
18
100
AcDbEntity
  8
姿図
100
AcDbSpline
210
0.0
220
0.0
230
1.0
 70
     8
 71
     3
 72
    11
 73
     7
 74
     0
 42
0.000000001
 43
0.0000000001
 40
0.0
 40
0.0
 40
0.0
 40
0.0
 40
1.0
 40
1.0
 40
1.0
 40
2.0
 40
2.0
 40
2.0
 40
2.0
 10
3044.663103492227
 20
-766.7901858033115
 30
0.0
 10
3044.842248457507
 20
-766.5903702651171
 30
0.0
 10
3045.031728709243
 20
-766.3691951349088
 30
0.0
 10
3045.224654056464
 20
-766.134239622756
 30
0.0
 10
3046.081104794311
 20
-765.0924427477557
 30
0.0
 10
3046.681929447089
 20
-764.1712242147696
 30
0.0
 10
3046.566863257854
 20
-764.0768285984504
 30
0.0
  0
SPLINE
  5
3178C
330
18
100
AcDbEntity
  8
姿図
100
AcDbSpline
210
0.0
220
0.0
230
1.0
 70
     8
 71
     3
 72
    11
 73
     7
 74
     0
 42
0.000000001
 43
0.0000000001
 40
0.0
 40
0.0
 40
0.0
 40
0.0
 40
1.0
 40
1.0
 40
1.0
 40
2.0
 40
2.0
 40
2.0
 40
2.0
 10
3048.000711999172
 20
-765.4534887547002
 30
0.0
 10
3047.595568770005
 20
-766.0749839803948
 30
0.0
 10
3046.742563127645
 20
-767.0568361939363
 30
0.0
 10
3045.683540775214
 20
-768.087608763381
 30
0.0
 10
3045.219141903687
 20
-768.5396052911588
 30
0.0
 10
3044.765767337713
 20
-768.9523277303947
 30
0.0
 10
3044.348910783895
 20
-769.3057945272699
 30
0.0
  0
SPLINE
  5
3178D
330
18
100
AcDbEntity
  8
姿図
100
AcDbSpline
210
0.0
220
0.0
230
1.0
 70
     8
 71
     3
 72
    20
 73
    16
 74
     0
 42
0.000000001
 43
0.0000000001
 40
0.0
 40
0.0
 40
0.0
 40
0.0
 40
1.0
 40
1.0
 40
1.0
 40
2.0
 40
2.0
 40
2.0
 40
3.0
 40
3.0
 40
3.0
 40
4.0
 40
4.0
 40
4.0
 40
5.0
 40
5.0
 40
5.0
 40
5.0
 10
3051.494727841186
 20
-770.9174101956723
 30
0.0
 10
3051.065468943617
 20
-770.9174101956723
 30
0.0
 10
3050.146317467922
 20
-771.3852541626866
 30
0.0
 10
3048.781370636326
 20
-766.5807239977557
 30
0.0
 10
3048.529189646742
 20
-765.6925783814363
 30
0.0
 10
3045.946746070354
 20
-763.452577296367
 30
0.0
 10
3045.84339320577
 20
-763.2107315932421
 30
0.0
 10
3044.742340688409
 20
-760.6427574178947
 30
0.0
 10
3044.253826148478
 20
-758.9002281210196
 30
0.0
 10
3044.305502580771
 20
-757.4043676609504
 30
0.0
 10
3044.345465688409
 20
-756.2357912720613
 30
0.0
 10
3045.119923153686
 20
-755.2077747790058
 30
0.0
 10
3046.189280792575
 20
-755.2077747790058
 30
0.0
 10
3046.234756052992
 20
-755.2077747790058
 30
0.0
 10
3046.280231313408
 20
-755.2098418362975
 30
0.0
 10
3046.325706573826
 20
-755.2132869317838
 30
0.0
  0
SPLINE
  5
3178E
330
18
100
AcDbEntity
  8
姿図
100
AcDbSpline
210
0.0
220
0.0
230
1.0
 70
     8
 71
     3
 72
    20
 73
    16
 74
     0
 42
0.000000001
 43
0.0000000001
 40
0.0
 40
0.0
 40
0.0
 40
0.0
 40
1.0
 40
1.0
 40
1.0
 40
2.0
 40
2.0
 40
2.0
 40
3.0
 40
3.0
 40
3.0
 40
4.0
 40
4.0
 40
4.0
 40
5.0
 40
5.0
 40
5.0
 40
5.0
 10
3051.9625718082
 20
-770.8974286418529
 30
0.0
 10
3051.53331291063
 20
-770.8974286418529
 30
0.0
 10
3050.614161434937
 20
-771.3652726088671
 30
0.0
 10
3049.249214603339
 20
-766.5607424439363
 30
0.0
 10
3048.997033613757
 20
-765.6725968276169
 30
0.0
 10
3046.414590037367
 20
-763.4325957425476
 30
0.0
 10
3046.311237172783
 20
-763.1907500394227
 30
0.0
 10
3045.210184655422
 20
-760.6227758640753
 30
0.0
 10
3044.721670115493
 20
-758.8802465672002
 30
0.0
 10
3044.773346547784
 20
-757.3843861071309
 30
0.0
 10
3044.813309655422
 20
-756.2158097182419
 30
0.0
 10
3045.587767120701
 20
-755.1877932251864
 30
0.0
 10
3046.657124759588
 20
-755.1877932251864
 30
0.0
 10
3047.459142988756
 20
-755.1877932251864
 30
0.0
 10
3048.146784047784
 20
-755.7210940064365
 30
0.0
 10
3048.440995202297
 20
-756.4810820706725
 30
0.0
  0
ELLIPSE
  5
3178F
330
18
100
AcDbEntity
  8
姿図
100
AcDbEllipse
 10
3047.46052102695
 20
-758.1946725654643
 30
0.0
 11
0.0
 21
-1.451763237847222
 31
0.0
210
0.0
220
0.0
230
1.0
 40
0.69625059326056
 41
0.0
 42
6.283185307179586
  0
SPLINE
  5
31790
330
18
100
AcDbEntity
  8
姿図
100
AcDbSpline
210
0.0
220
0.0
230
1.0
 70
     8
 71
     3
 72
    17
 73
    13
 74
     0
 42
0.000000001
 43
0.0000000001
 40
0.0
 40
0.0
 40
0.0
 40
0.0
 40
1.0
 40
1.0
 40
1.0
 40
2.0
 40
2.0
 40
2.0
 40
3.0
 40
3.0
 40
3.0
 40
4.0
 40
4.0
 40
4.0
 40
4.0
 10
3041.368214169311
 20
-758.609462061992
 30
0.0
 10
3041.368214169311
 20
-758.609462061992
 30
0.0
 10
3041.940100020006
 20
-758.0734052043531
 30
0.0
 10
3041.940100020006
 20
-758.0734052043531
 30
0.0
 10
3041.691364125908
 20
-757.6958227390755
 30
0.0
 10
3041.42540275438
 20
-757.323063407478
 30
0.0
 10
3041.143593943617
 20
-756.956505247756
 30
0.0
 10
3036.839463898044
 20
-751.3561580255337
 30
0.0
 10
3029.911893639798
 20
-748.0040801175473
 30
0.0
 10
3025.568144996135
 20
-750.8194121487977
 30
0.0
 10
3025.442743520441
 20
-750.9007164022696
 30
0.0
 10
3025.313724694485
 20
-750.988221827617
 30
0.0
 10
3025.181949792141
 20
-751.0819284248391
 30
0.0
  0
SPLINE
  5
31791
330
18
100
AcDbEntity
  8
姿図
100
AcDbSpline
210
0.0
220
0.0
230
1.0
 70
     8
 71
     3
 72
    11
 73
     7
 74
     0
 42
0.000000001
 43
0.0000000001
 40
0.0
 40
0.0
 40
0.0
 40
0.0
 40
1.0
 40
1.0
 40
1.0
 40
2.0
 40
2.0
 40
2.0
 40
2.0
 10
3042.379694204034
 20
-772.2162111939365
 30
0.0
 10
3044.645878014798
 20
-770.4736818970614
 30
0.0
 10
3045.265995202298
 20
-766.9707088067835
 30
0.0
 10
3044.271051625909
 20
-763.2024633640754
 30
0.0
 10
3044.271051625909
 20
-763.2024633640754
 30
0.0
 10
3043.632330922784
 20
-763.5345705689365
 30
0.0
 10
3043.632330922784
 20
-763.5345705689365
 30
0.0
  0
ELLIPSE
  5
31792
330
18
100
AcDbEntity
  8
姿図
100
AcDbEllipse
 10
3052.699822242229
 20
-767.917421046367
 30
0.0
 11
0.0
 21
-1.659157986111111
 31
0.0
210
0.0
220
0.0
230
1.0
 40
0.7221760797342193
 41
0.0
 42
6.283185307179586
  0
ELLIPSE
  5
31793
330
18
100
AcDbEntity
  8
姿図
100
AcDbEllipse
 10
3052.837281552124
 20
-767.7837513415061
 30
0.0
 11
-0.000344509548611111
 21
-1.380794270833333
 31
0.0
210
0.0
220
0.0
230
1.0
 40
0.7238023726809617
 41
0.0
 42
6.283185307179586
  0
SPLINE
  5
31794
330
18
100
AcDbEntity
  8
姿図
100
AcDbSpline
210
0.0
220
0.0
230
1.0
 70
     8
 71
     3
 72
     8
 73
     4
 74
     0
 42
0.000000001
 43
0.0000000001
 40
0.0
 40
0.0
 40
0.0
 40
0.0
 40
1.0
 40
1.0
 40
1.0
 40
1.0
 10
3052.350489559937
 20
-770.924300386645
 30
0.0
 10
3050.602448110284
 20
-770.856776515117
 30
0.0
 10
3050.078104577297
 20
-769.0460343276168
 30
0.0
 10
3050.062257138062
 20
-767.9298233901168
 30
0.0
  0
SPLINE
  5
31795
330
18
100
AcDbEntity
  8
姿図
100
AcDbSpline
210
0.0
220
0.0
230
1.0
 70
     8
 71
     3
 72
    11
 73
     7
 74
     0
 42
0.000000001
 43
0.0000000001
 40
0.0
 40
0.0
 40
0.0
 40
0.0
 40
1.0
 40
1.0
 40
1.0
 40
2.0
 40
2.0
 40
2.0
 40
2.0
 10
3054.546393422784
 20
-768.6498483467144
 30
0.0
 10
3054.546393422784
 20
-769.8935278172003
 30
0.0
 10
3053.633443118963
 20
-770.9015627564363
 30
0.0
 10
3052.506896895006
 20
-770.9015627564363
 30
0.0
 10
3051.381039690145
 20
-770.9015627564363
 30
0.0
 10
3050.490137997437
 20
-768.862755247756
 30
0.0
 10
3050.474979577298
 20
-767.746544310256
 30
0.0
  0
SPLINE
  5
31796
330
18
100
AcDbEntity
  8
姿図
100
AcDbSpline
210
0.0
220
0.0
230
1.0
 70
     8
 71
     3
 72
    17
 73
    13
 74
     0
 42
0.000000001
 43
0.0000000001
 40
0.0
 40
0.0
 40
0.0
 40
0.0
 40
1.0
 40
1.0
 40
1.0
 40
2.0
 40
2.0
 40
2.0
 40
3.0
 40
3.0
 40
3.0
 40
4.0
 40
4.0
 40
4.0
 40
4.0
 10
3019.782968401082
 20
-756.0938533380336
 30
0.0
 10
3020.755346602037
 20
-754.857753077617
 30
0.0
 10
3023.296965796916
 20
-752.3497235637283
 30
0.0
 10
3025.091688290405
 20
-751.1866593276168
 30
0.0
 10
3029.435436934068
 20
-748.3713272963669
 30
0.0
 10
3036.191785946655
 20
-751.8205568970616
 30
0.0
 10
3040.49522697313
 20
-757.4209041192835
 30
0.0
 10
3040.84042554084
 20
-757.8694555515754
 30
0.0
 10
3041.161508440145
 20
-758.3255861939365
 30
0.0
 10
3041.458475671047
 20
-758.7872289890752
 30
0.0
 10
3041.458475671047
 20
-758.7872289890752
 30
0.0
 10
3044.496360870701
 20
-756.8462621922004
 30
0.0
 10
3044.496360870701
 20
-756.8462621922004
 30
0.0
  0
SPLINE
  5
31797
330
18
100
AcDbEntity
  8
姿図
100
AcDbSpline
210
0.0
220
0.0
230
1.0
 70
     8
 71
     3
 72
    14
 73
    10
 74
     0
 42
0.000000001
 43
0.0000000001
 40
0.0
 40
0.0
 40
0.0
 40
0.0
 40
1.0
 40
1.0
 40
1.0
 40
2.0
 40
2.0
 40
2.0
 40
3.0
 40
3.0
 40
3.0
 40
3.0
 10
3036.956597144573
 20
-776.0423342408117
 30
0.0
 10
3039.731104794312
 20
-774.1916289456726
 30
0.0
 10
3041.180800974867
 20
-773.1381187460197
 30
0.0
 10
3041.902892988756
 20
-772.583458372756
 30
0.0
 10
3044.246935957505
 20
-770.7816734335197
 30
0.0
 10
3044.754054013062
 20
-767.1402075047004
 30
0.0
 10
3043.560672936673
 20
-763.2548288154644
 30
0.0
 10
3043.560672936673
 20
-763.2548288154644
 30
0.0
 10
3045.222586999173
 20
-761.5474394925477
 30
0.0
 10
3045.222586999173
 20
-761.5474394925477
 30
0.0
  0
SPLINE
  5
31798
330
18
100
AcDbEntity
  8
姿図
100
AcDbSpline
210
0.0
220
0.0
230
1.0
 70
     8
 71
     3
 72
    17
 73
    13
 74
     0
 42
0.000000001
 43
0.0000000001
 40
0.0
 40
0.0
 40
0.0
 40
0.0
 40
1.0
 40
1.0
 40
1.0
 40
2.0
 40
2.0
 40
2.0
 40
3.0
 40
3.0
 40
3.0
 40
4.0
 40
4.0
 40
4.0
 40
4.0
 10
3018.019940786065
 20
-758.2050078519223
 30
0.0
 10
3018.99231898702
 20
-756.9689075915057
 30
0.0
 10
3018.933063344658
 20
-756.7263728692838
 30
0.0
 10
3020.628739342922
 20
-755.4227487373391
 30
0.0
 10
3024.14928242018
 20
-752.7176597616449
 30
0.0
 10
3031.097350996569
 20
-755.4999188762281
 30
0.0
 10
3035.401481042142
 20
-761.1002660984504
 30
0.0
 10
3039.705611087714
 20
-766.7006133206723
 30
0.0
 10
3040.340886695353
 20
-773.4343969578254
 30
0.0
 10
3036.82086038242
 20
-776.1408639717142
 30
0.0
 10
3036.09876836853
 20
-776.6955243449779
 30
0.0
 10
3035.241628611587
 20
-777.2377823744919
 30
0.0
 10
3034.30800773485
 20
-777.5829809422003
 30
0.0
  0
SPLINE
  5
31799
330
18
100
AcDbEntity
  8
姿図
100
AcDbSpline
210
0.0
220
0.0
230
1.0
 70
     8
 71
     3
 72
    11
 73
     7
 74
     0
 42
0.000000001
 43
0.0000000001
 40
0.0
 40
0.0
 40
0.0
 40
0.0
 40
1.0
 40
1.0
 40
1.0
 40
2.0
 40
2.0
 40
2.0
 40
2.0
 10
3052.068680749172
 20
-743.1628596856899
 30
0.0
 10
3052.271252363756
 20
-743.3085872247525
 30
0.0
 10
3052.433860870701
 20
-743.5869509400304
 30
0.0
 10
3052.488982398479
 20
-743.9242257881206
 30
0.0
 10
3052.546170983548
 20
-744.2708023940231
 30
0.0
 10
3052.474512997437
 20
-744.594813624492
 30
0.0
 10
3052.320861738756
 20
-744.7963517104295
 30
0.0
  0
ELLIPSE
  5
3179A
330
18
100
AcDbEntity
  8
姿図
100
AcDbEllipse
 10
3052.530323544311
 20
-743.9045026164627
 30
0.0
 11
0.1591634114583333
 21
-0.9710862901475694
 31
0.0
210
0.0
220
0.0
230
1.0
 40
0.6662211580819815
 41
0.0
 42
6.283185307179586
  0
LINE
  5
3179B
330
18
100
AcDbEntity
  8
姿図
100
AcDbLine
 10
3025.725069095527
 20
-744.6306426175474
 30
0.0
 11
3030.361823110284
 21
-745.2643679322177
 31
0.0
  0
ENDSEC
  0
SECTION
  2
OBJECTS
  0
DICTIONARY
  5
C
330
0
100
AcDbDictionary
281
     1
  3
ACAD_GROUP
350
D
  3
ACAD_IMAGE_VARS
350
31A82
  3
ACAD_LAYOUT
350
617
  3
ACAD_MLINESTYLE
350
E
  3
ACAD_PLOTSETTINGS
350
618
  3
ACAD_PLOTSTYLENAME
350
615
  3
ACAD_SCALELIST
350
2C7CA
  3
AcDbVariableDictionary
350
6DE
  3
APPDATA
350
31A81
  3
DWGPROPS
350
31AA5
  0
DICTIONARY
  5
9EB
330
2
100
AcDbDictionary
280
     1
281
     1
  3
ACAD_LAYERSTATES
360
9EC
  0
DICTIONARY
  5
2C7F5
330
F
100
AcDbDictionary
280
     1
281
     1
  3
ADSK_XREC_LAYER_RECONCILED
360
2C7F6
  0
DICTIONARY
  5
2C7F7
330
2C
100
AcDbDictionary
280
     1
281
     1
  3
ADSK_XREC_LAYER_RECONCILED
360
2C7F8
  0
DICTIONARY
  5
2C7FB
330
34
100
AcDbDictionary
280
     1
281
     1
  3
ADSK_XREC_LAYER_RECONCILED
360
2C7FC
  0
DICTIONARY
  5
2C7FD
330
280
100
AcDbDictionary
280
     1
281
     1
  3
ADSK_XREC_LAYER_RECONCILED
360
2C7FE
  0
DICTIONARY
  5
2C7FF
330
2A3
100
AcDbDictionary
280
     1
281
     1
  3
ADSK_XREC_LAYER_RECONCILED
360
2C800
  0
DICTIONARY
  5
2C801
330
2A4
100
AcDbDictionary
280
     1
281
     1
  3
ADSK_XREC_LAYER_RECONCILED
360
2C802
  0
DICTIONARY
  5
2C803
330
2F4
100
AcDbDictionary
280
     1
281
     1
  3
ADSK_XREC_LAYER_RECONCILED
360
2C804
  0
DICTIONARY
  5
2C805
330
301
100
AcDbDictionary
280
     1
281
     1
  3
ADSK_XREC_LAYER_RECONCILED
360
2C806
  0
DICTIONARY
  5
2C807
330
305
100
AcDbDictionary
280
     1
281
     1
  3
ADSK_XREC_LAYER_RECONCILED
360
2C808
  0
DICTIONARY
  5
2C809
330
B35
100
AcDbDictionary
280
     1
281
     1
  3
ADSK_XREC_LAYER_RECONCILED
360
2C80A
  0
DICTIONARY
  5
2C80B
330
B36
100
AcDbDictionary
280
     1
281
     1
  3
ADSK_XREC_LAYER_RECONCILED
360
2C80C
  0
DICTIONARY
  5
2C80D
330
B37
100
AcDbDictionary
280
     1
281
     1
  3
ADSK_XREC_LAYER_RECONCILED
360
2C80E
  0
DICTIONARY
  5
2C80F
330
B38
100
AcDbDictionary
280
     1
281
     1
  3
ADSK_XREC_LAYER_RECONCILED
360
2C810
  0
DICTIONARY
  5
2C811
330
B39
100
AcDbDictionary
280
     1
281
     1
  3
ADSK_XREC_LAYER_RECONCILED
360
2C812
  0
DICTIONARY
  5
2C813
330
B3A
100
AcDbDictionary
280
     1
281
     1
  3
ADSK_XREC_LAYER_RECONCILED
360
2C814
  0
DICTIONARY
  5
2F07A
330
18
100
AcDbDictionary
280
     1
281
     1
  3
ACAD_SORTENTS
360
2F07B
  0
DICTIONARY
  5
D
102
{ACAD_REACTORS
330
C
102
}
330
C
100
AcDbDictionary
281
     1
  0
RASTERVARIABLES
  5
31A82
102
{ACAD_REACTORS
330
C
102
}
330
C
100
AcDbRasterVariables
 90
        0
 70
     1
 71
     1
 72
     0
  0
DICTIONARY
  5
617
102
{ACAD_REACTORS
330
C
102
}
330
C
100
AcDbDictionary
281
     1
  3
Model
350
619
  3
ﾚｲｱｳﾄ1
350
61A
  0
DICTIONARY
  5
E
102
{ACAD_REACTORS
330
C
102
}
330
C
100
AcDbDictionary
281
     1
  3
STANDARD
350
1B
  0
DICTIONARY
  5
618
102
{ACAD_REACTORS
330
C
102
}
330
C
100
AcDbDictionary
281
     1
  0
ACDBDICTIONARYWDFLT
  5
615
102
{ACAD_REACTORS
330
C
102
}
330
C
100
AcDbDictionary
281
     1
  3
Normal
350
616
100
AcDbDictionaryWithDefault
340
616
  0
DICTIONARY
  5
2C7CA
102
{ACAD_REACTORS
330
C
102
}
330
C
100
AcDbDictionary
281
     1
  3
A0
350
2C7CB
  3
A1
350
2C7CC
  3
A2
350
2C7CD
  3
A3
350
2C7CE
  3
A4
350
2C7CF
  3
A5
350
2C7D0
  3
A6
350
2C7D1
  3
A7
350
2C7D2
  3
A8
350
2C7D3
  3
A9
350
2C7D4
  3
B0
350
2C7D5
  3
B1
350
2C7D6
  3
B2
350
2C7D7
  3
B3
350
2C7D8
  3
B4
350
2C7D9
  3
B5
350
2C7DA
  3
B6
350
2C7DB
  3
B7
350
2C7DC
  3
B8
350
2C7DD
  3
B9
350
2C7DE
  3
C0
350
2C7DF
  3
C1
350
2C7E0
  3
C2
350
2C7E1
  3
C3
350
2C7E2
  3
C4
350
2C7E3
  3
C5
350
2C7E4
  3
C6
350
2C7E5
  3
C7
350
2C7E6
  3
C8
350
2C7E7
  3
C9
350
2C7E8
  3
D0
350
2C7E9
  3
D1
350
2C7EA
  3
D2
350
2C7EB
  0
DICTIONARY
  5
6DE
102
{ACAD_REACTORS
330
C
102
}
330
C
100
AcDbDictionary
281
     1
  3
DIMASSOC
350
6DF
  3
INDEXCTL
350
2C84B
  3
PROJECTNAME
350
6E0
  3
SORTENTS
350
2C84A
  0
DICTIONARY
  5
31A81
102
{ACAD_REACTORS
330
C
102
}
330
C
100
AcDbDictionary
281
     1
  0
XRECORD
  5
31AA5
102
{ACAD_REACTORS
330
C
102
}
330
C
100
AcDbXrecord
280
     1
  1
DWGPROPS COOKIE
  2

  3

  4

  6

  7

  8
SPAX
  9

300
=
301
=
302
=
303
=
304
=
305
=
306
=
307
=
308
=
309
=
 40
0.0
 41
2448636.244629629
 42
2456822.100015
  1

 90
        0
  0
DICTIONARY
  5
9EC
102
{ACAD_REACTORS
330
9EB
102
}
330
9EB
100
AcDbDictionary
281
     1
  0
XRECORD
  5
2C7F6
102
{ACAD_REACTORS
330
2C7F5
102
}
330
2C7F5
100
AcDbXrecord
280
     1
290
     1
  0
XRECORD
  5
2C7F8
102
{ACAD_REACTORS
330
2C7F7
102
}
330
2C7F7
100
AcDbXrecord
280
     1
290
     1
  0
XRECORD
  5
2C7FC
102
{ACAD_REACTORS
330
2C7FB
102
}
330
2C7FB
100
AcDbXrecord
280
     1
290
     1
  0
XRECORD
  5
2C7FE
102
{ACAD_REACTORS
330
2C7FD
102
}
330
2C7FD
100
AcDbXrecord
280
     1
290
     1
  0
XRECORD
  5
2C800
102
{ACAD_REACTORS
330
2C7FF
102
}
330
2C7FF
100
AcDbXrecord
280
     1
290
     1
  0
XRECORD
  5
2C802
102
{ACAD_REACTORS
330
2C801
102
}
330
2C801
100
AcDbXrecord
280
     1
290
     1
  0
XRECORD
  5
2C804
102
{ACAD_REACTORS
330
2C803
102
}
330
2C803
100
AcDbXrecord
280
     1
290
     1
  0
XRECORD
  5
2C806
102
{ACAD_REACTORS
330
2C805
102
}
330
2C805
100
AcDbXrecord
280
     1
290
     1
  0
XRECORD
  5
2C808
102
{ACAD_REACTORS
330
2C807
102
}
330
2C807
100
AcDbXrecord
280
     1
290
     1
  0
XRECORD
  5
2C80A
102
{ACAD_REACTORS
330
2C809
102
}
330
2C809
100
AcDbXrecord
280
     1
290
     1
  0
XRECORD
  5
2C80C
102
{ACAD_REACTORS
330
2C80B
102
}
330
2C80B
100
AcDbXrecord
280
     1
290
     1
  0
XRECORD
  5
2C80E
102
{ACAD_REACTORS
330
2C80D
102
}
330
2C80D
100
AcDbXrecord
280
     1
290
     1
  0
XRECORD
  5
2C810
102
{ACAD_REACTORS
330
2C80F
102
}
330
2C80F
100
AcDbXrecord
280
     1
290
     1
  0
XRECORD
  5
2C812
102
{ACAD_REACTORS
330
2C811
102
}
330
2C811
100
AcDbXrecord
280
     1
290
     1
  0
XRECORD
  5
2C814
102
{ACAD_REACTORS
330
2C813
102
}
330
2C813
100
AcDbXrecord
280
     1
290
     1
  0
SORTENTSTABLE
  5
2F07B
102
{ACAD_REACTORS
330
2F07A
102
}
330
2F07A
100
AcDbSortentsTable
330
18
331
0
  5
17AFB
  0
LAYOUT
  5
619
102
{ACAD_REACTORS
330
617
102
}
330
617
100
AcDbPlotSettings
  1

  2
JUST PDF 2.pc3
  4
A4
  6

 40
3.174999952316284
 41
3.174999952316284
 42
3.175003051757812
 43
3.17498779296875
 44
209.8886566162109
 45
297.0530090332031
 46
14.27
 47
9.86
 48
2994.071955214528
 49
-1209.170716484835
140
3344.062392204341
141
-667.1853662075023
142
1.0
143
2.0
 70
 11956
 72
     1
 73
     0
 74
     4
  7
spax form.ctb
 75
    17
147
0.5
148
-2994.071955214528
149
1209.170716484835
100
AcDbLayout
  1
Model
 70
     1
 71
     0
 10
0.0
 20
0.0
 11
12.0
 21
9.0
 12
0.0
 22
0.0
 32
0.0
 14
2994.507745620241
 24
-793.7961085197256
 34
0.0
 15
3062.507745620241
 25
-715.2231994622134
 35
0.0
146
0.0
 13
0.0
 23
0.0
 33
0.0
 16
1.0
 26
0.0
 36
0.0
 17
0.0
 27
1.0
 37
0.0
 76
     0
330
18
331
31A5F
1001
ACAD_PSEXT
1000
DWG To PDF.pc3
1000
PDF
1000
ファイル
1000

1070
     0
  0
LAYOUT
  5
61A
102
{ACAD_REACTORS
330
617
102
}
330
617
100
AcDbPlotSettings
  1

  2
Canon LASER SHOT LBP-750
  4

  6

 40
0.0
 41
0.0
 42
0.0
 43
0.0
 44
0.0
 45
0.0
 46
0.0
 47
0.0
 48
0.0
 49
0.0
140
0.0
141
0.0
142
1.0
143
1.0
 70
   688
 72
     0
 73
     0
 74
     5
  7
monochrome.ctb
 75
    16
147
1.0
148
0.0
149
0.0
100
AcDbLayout
  1
ﾚｲｱｳﾄ1
 70
     0
 71
     1
 10
0.0
 20
0.0
 11
12.0
 21
9.0
 12
0.0
 22
0.0
 32
0.0
 14
1.000000000000000E+20
 24
1.000000000000000E+20
 34
1.000000000000000E+20
 15
-1.000000000000000E+20
 25
-1.000000000000000E+20
 35
-1.000000000000000E+20
146
0.0
 13
0.0
 23
0.0
 33
0.0
 16
1.0
 26
0.0
 36
0.0
 17
0.0
 27
1.0
 37
0.0
 76
     0
330
15
  0
MLINESTYLE
  5
1B
102
{ACAD_REACTORS
330
E
102
}
330
E
100
AcDbMlineStyle
  2
STANDARD
 70
     0
  3

 62
     0
 51
90.0
 52
90.0
 71
     2
 49
0.5
 62
   256
  6
BYLAYER
 49
-0.5
 62
   256
  6
BYLAYER
  0
ACDBPLACEHOLDER
  5
616
102
{ACAD_REACTORS
330
615
102
}
330
615
  0
SCALE
  5
2C7CB
102
{ACAD_REACTORS
330
2C7CA
102
}
330
2C7CA
100
AcDbScale
 70
     0
300
1:1
140
1.0
141
1.0
290
     1
1001
ACAD
1000
AcRTDxfName
1000
SCALE
1000
AcRTDxfName
1000
SCALE
  0
SCALE
  5
2C7CC
102
{ACAD_REACTORS
330
2C7CA
102
}
330
2C7CA
100
AcDbScale
 70
     0
300
1:2
140
1.0
141
2.0
290
     0
1001
ACAD
1000
AcRTDxfName
1000
SCALE
1000
AcRTDxfName
1000
SCALE
  0
SCALE
  5
2C7CD
102
{ACAD_REACTORS
330
2C7CA
102
}
330
2C7CA
100
AcDbScale
 70
     0
300
1:4
140
1.0
141
4.0
290
     0
1001
ACAD
1000
AcRTDxfName
1000
SCALE
1000
AcRTDxfName
1000
SCALE
  0
SCALE
  5
2C7CE
102
{ACAD_REACTORS
330
2C7CA
102
}
330
2C7CA
100
AcDbScale
 70
     0
300
1:5
140
1.0
141
5.0
290
     0
1001
ACAD
1000
AcRTDxfName
1000
SCALE
1000
AcRTDxfName
1000
SCALE
  0
SCALE
  5
2C7CF
102
{ACAD_REACTORS
330
2C7CA
102
}
330
2C7CA
100
AcDbScale
 70
     0
300
1:8
140
1.0
141
8.0
290
     0
1001
ACAD
1000
AcRTDxfName
1000
SCALE
1000
AcRTDxfName
1000
SCALE
  0
SCALE
  5
2C7D0
102
{ACAD_REACTORS
330
2C7CA
102
}
330
2C7CA
100
AcDbScale
 70
     0
300
1:10
140
1.0
141
10.0
290
     0
1001
ACAD
1000
AcRTDxfName
1000
SCALE
1000
AcRTDxfName
1000
SCALE
  0
SCALE
  5
2C7D1
102
{ACAD_REACTORS
330
2C7CA
102
}
330
2C7CA
100
AcDbScale
 70
     0
300
1:16
140
1.0
141
16.0
290
     0
1001
ACAD
1000
AcRTDxfName
1000
SCALE
1000
AcRTDxfName
1000
SCALE
  0
SCALE
  5
2C7D2
102
{ACAD_REACTORS
330
2C7CA
102
}
330
2C7CA
100
AcDbScale
 70
     0
300
1:20
140
1.0
141
20.0
290
     0
1001
ACAD
1000
AcRTDxfName
1000
SCALE
1000
AcRTDxfName
1000
SCALE
  0
SCALE
  5
2C7D3
102
{ACAD_REACTORS
330
2C7CA
102
}
330
2C7CA
100
AcDbScale
 70
     0
300
1:30
140
1.0
141
30.0
290
     0
1001
ACAD
1000
AcRTDxfName
1000
SCALE
1000
AcRTDxfName
1000
SCALE
  0
SCALE
  5
2C7D4
102
{ACAD_REACTORS
330
2C7CA
102
}
330
2C7CA
100
AcDbScale
 70
     0
300
1:40
140
1.0
141
40.0
290
     0
1001
ACAD
1000
AcRTDxfName
1000
SCALE
1000
AcRTDxfName
1000
SCALE
  0
SCALE
  5
2C7D5
102
{ACAD_REACTORS
330
2C7CA
102
}
330
2C7CA
100
AcDbScale
 70
     0
300
1:50
140
1.0
141
50.0
290
     0
1001
ACAD
1000
AcRTDxfName
1000
SCALE
1000
AcRTDxfName
1000
SCALE
  0
SCALE
  5
2C7D6
102
{ACAD_REACTORS
330
2C7CA
102
}
330
2C7CA
100
AcDbScale
 70
     0
300
1:100
140
1.0
141
100.0
290
     0
1001
ACAD
1000
AcRTDxfName
1000
SCALE
1000
AcRTDxfName
1000
SCALE
  0
SCALE
  5
2C7D7
102
{ACAD_REACTORS
330
2C7CA
102
}
330
2C7CA
100
AcDbScale
 70
     0
300
2:1
140
2.0
141
1.0
290
     0
1001
ACAD
1000
AcRTDxfName
1000
SCALE
1000
AcRTDxfName
1000
SCALE
  0
SCALE
  5
2C7D8
102
{ACAD_REACTORS
330
2C7CA
102
}
330
2C7CA
100
AcDbScale
 70
     0
300
4:1
140
4.0
141
1.0
290
     0
1001
ACAD
1000
AcRTDxfName
1000
SCALE
1000
AcRTDxfName
1000
SCALE
  0
SCALE
  5
2C7D9
102
{ACAD_REACTORS
330
2C7CA
102
}
330
2C7CA
100
AcDbScale
 70
     0
300
8:1
140
8.0
141
1.0
290
     0
1001
ACAD
1000
AcRTDxfName
1000
SCALE
1000
AcRTDxfName
1000
SCALE
  0
SCALE
  5
2C7DA
102
{ACAD_REACTORS
330
2C7CA
102
}
330
2C7CA
100
AcDbScale
 70
     0
300
10:1
140
10.0
141
1.0
290
     0
1001
ACAD
1000
AcRTDxfName
1000
SCALE
1000
AcRTDxfName
1000
SCALE
  0
SCALE
  5
2C7DB
102
{ACAD_REACTORS
330
2C7CA
102
}
330
2C7CA
100
AcDbScale
 70
     0
300
100:1
140
100.0
141
1.0
290
     0
1001
ACAD
1000
AcRTDxfName
1000
SCALE
1000
AcRTDxfName
1000
SCALE
  0
SCALE
  5
2C7DC
102
{ACAD_REACTORS
330
2C7CA
102
}
330
2C7CA
100
AcDbScale
 70
     0
300
1/128" = 1'-0"
140
0.0078125
141
12.0
290
     0
1001
ACAD
1000
AcRTDxfName
1000
SCALE
1000
AcRTDxfName
1000
SCALE
  0
SCALE
  5
2C7DD
102
{ACAD_REACTORS
330
2C7CA
102
}
330
2C7CA
100
AcDbScale
 70
     0
300
1/64" = 1'-0"
140
0.015625
141
12.0
290
     0
1001
ACAD
1000
AcRTDxfName
1000
SCALE
1000
AcRTDxfName
1000
SCALE
  0
SCALE
  5
2C7DE
102
{ACAD_REACTORS
330
2C7CA
102
}
330
2C7CA
100
AcDbScale
 70
     0
300
1/32" = 1'-0"
140
0.03125
141
12.0
290
     0
1001
ACAD
1000
AcRTDxfName
1000
SCALE
1000
AcRTDxfName
1000
SCALE
  0
SCALE
  5
2C7DF
102
{ACAD_REACTORS
330
2C7CA
102
}
330
2C7CA
100
AcDbScale
 70
     0
300
1/16" = 1'-0"
140
0.0625
141
12.0
290
     0
1001
ACAD
1000
AcRTDxfName
1000
SCALE
1000
AcRTDxfName
1000
SCALE
  0
SCALE
  5
2C7E0
102
{ACAD_REACTORS
330
2C7CA
102
}
330
2C7CA
100
AcDbScale
 70
     0
300
3/32" = 1'-0"
140
0.09375
141
12.0
290
     0
1001
ACAD
1000
AcRTDxfName
1000
SCALE
1000
AcRTDxfName
1000
SCALE
  0
SCALE
  5
2C7E1
102
{ACAD_REACTORS
330
2C7CA
102
}
330
2C7CA
100
AcDbScale
 70
     0
300
1/8" = 1'-0"
140
0.125
141
12.0
290
     0
1001
ACAD
1000
AcRTDxfName
1000
SCALE
1000
AcRTDxfName
1000
SCALE
  0
SCALE
  5
2C7E2
102
{ACAD_REACTORS
330
2C7CA
102
}
330
2C7CA
100
AcDbScale
 70
     0
300
3/16" = 1'-0"
140
0.1875
141
12.0
290
     0
1001
ACAD
1000
AcRTDxfName
1000
SCALE
1000
AcRTDxfName
1000
SCALE
  0
SCALE
  5
2C7E3
102
{ACAD_REACTORS
330
2C7CA
102
}
330
2C7CA
100
AcDbScale
 70
     0
300
1/4" = 1'-0"
140
0.25
141
12.0
290
     0
1001
ACAD
1000
AcRTDxfName
1000
SCALE
1000
AcRTDxfName
1000
SCALE
  0
SCALE
  5
2C7E4
102
{ACAD_REACTORS
330
2C7CA
102
}
330
2C7CA
100
AcDbScale
 70
     0
300
3/8" = 1'-0"
140
0.375
141
12.0
290
     0
1001
ACAD
1000
AcRTDxfName
1000
SCALE
1000
AcRTDxfName
1000
SCALE
  0
SCALE
  5
2C7E5
102
{ACAD_REACTORS
330
2C7CA
102
}
330
2C7CA
100
AcDbScale
 70
     0
300
1/2" = 1'-0"
140
0.5
141
12.0
290
     0
1001
ACAD
1000
AcRTDxfName
1000
SCALE
1000
AcRTDxfName
1000
SCALE
  0
SCALE
  5
2C7E6
102
{ACAD_REACTORS
330
2C7CA
102
}
330
2C7CA
100
AcDbScale
 70
     0
300
3/4" = 1'-0"
140
0.75
141
12.0
290
     0
1001
ACAD
1000
AcRTDxfName
1000
SCALE
1000
AcRTDxfName
1000
SCALE
  0
SCALE
  5
2C7E7
102
{ACAD_REACTORS
330
2C7CA
102
}
330
2C7CA
100
AcDbScale
 70
     0
300
1" = 1'-0"
140
1.0
141
12.0
290
     0
1001
ACAD
1000
AcRTDxfName
1000
SCALE
1000
AcRTDxfName
1000
SCALE
  0
SCALE
  5
2C7E8
102
{ACAD_REACTORS
330
2C7CA
102
}
330
2C7CA
100
AcDbScale
 70
     0
300
1-1/2" = 1'-0"
140
1.5
141
12.0
290
     0
1001
ACAD
1000
AcRTDxfName
1000
SCALE
1000
AcRTDxfName
1000
SCALE
  0
SCALE
  5
2C7E9
102
{ACAD_REACTORS
330
2C7CA
102
}
330
2C7CA
100
AcDbScale
 70
     0
300
3" = 1'-0"
140
3.0
141
12.0
290
     0
1001
ACAD
1000
AcRTDxfName
1000
SCALE
1000
AcRTDxfName
1000
SCALE
  0
SCALE
  5
2C7EA
102
{ACAD_REACTORS
330
2C7CA
102
}
330
2C7CA
100
AcDbScale
 70
     0
300
6" = 1'-0"
140
6.0
141
12.0
290
     0
1001
ACAD
1000
AcRTDxfName
1000
SCALE
1000
AcRTDxfName
1000
SCALE
  0
SCALE
  5
2C7EB
102
{ACAD_REACTORS
330
2C7CA
102
}
330
2C7CA
100
AcDbScale
 70
     0
300
1'-0" = 1'-0"
140
12.0
141
12.0
290
     0
1001
ACAD
1000
AcRTDxfName
1000
SCALE
1000
AcRTDxfName
1000
SCALE
  0
DICTIONARYVAR
  5
6DF
102
{ACAD_REACTORS
330
6DE
102
}
330
6DE
100
DictionaryVariables
280
     0
  1
1
  0
DICTIONARYVAR
  5
2C84B
102
{ACAD_REACTORS
330
6DE
102
}
330
6DE
100
DictionaryVariables
280
     0
  1
0
  0
DICTIONARYVAR
  5
6E0
102
{ACAD_REACTORS
330
6DE
102
}
330
6DE
100
DictionaryVariables
280
     0
  1

  0
DICTIONARYVAR
  5
2C84A
102
{ACAD_REACTORS
330
6DE
102
}
330
6DE
100
DictionaryVariables
280
     0
  1
127
  0
ENDSEC
  0
EOF
