  0
SECTION
  2
HEADER
  9
$ACADVER
  1
AC1015
  9
$ACADMAINTVER
 70
     6
  9
$DWGCODEPAGE
  3
ANSI_932
  9
$INSBASE
 10
0.0
 20
0.0
 30
0.0
  9
$EXTMIN
 10
2776.983901730527
 20
-1373.4066501745
 30
0.0
  9
$EXTMAX
 10
2828.519846861925
 20
-1293.620625300467
 30
0.0
  9
$LIMMIN
 10
0.0
 20
0.0
  9
$LIMMAX
 10
420.0
 20
297.0
  9
$ORTHOMODE
 70
     0
  9
$REGENMODE
 70
     1
  9
$FILLMODE
 70
     1
  9
$QTEXTMODE
 70
     0
  9
$MIRRTEXT
 70
     1
  9
$LTSCALE
 40
5.0
  9
$ATTMODE
 70
     0
  9
$TEXTSIZE
 40
3.5
  9
$TRACEWID
 40
1.0
  9
$TEXTSTYLE
  7
STANDARD
  9
$CLAYER
  8
寸法線
  9
$CELTYPE
  6
BYLAYER
  9
$CECOLOR
 62
   256
  9
$CELTSCALE
 40
1.0
  9
$DISPSILH
 70
     0
  9
$DIMSCALE
 40
1.0
  9
$DIMASZ
 40
1.5
  9
$DIMEXO
 40
1.5
  9
$DIMDLI
 40
0.38
  9
$DIMRND
 40
0.0
  9
$DIMDLE
 40
0.0
  9
$DIMEXE
 40
1.0
  9
$DIMTP
 40
0.0
  9
$DIMTM
 40
0.0
  9
$DIMTXT
 40
2.500000000000003
  9
$DIMCEN
 40
0.0
  9
$DIMTSZ
 40
0.0
  9
$DIMTOL
 70
     0
  9
$DIMLIM
 70
     0
  9
$DIMTIH
 70
     0
  9
$DIMTOH
 70
     0
  9
$DIMSE1
 70
     0
  9
$DIMSE2
 70
     0
  9
$DIMTAD
 70
     3
  9
$DIMZIN
 70
     8
  9
$DIMBLK
  1

  9
$DIMASO
 70
     1
  9
$DIMSHO
 70
     0
  9
$DIMPOST
  1

  9
$DIMAPOST
  1

  9
$DIMALT
 70
     0
  9
$DIMALTD
 70
     0
  9
$DIMALTF
 40
25.4
  9
$DIMLFAC
 40
1.0
  9
$DIMTOFL
 70
     0
  9
$DIMTVP
 40
0.0
  9
$DIMTIX
 70
     0
  9
$DIMSOXD
 70
     0
  9
$DIMSAH
 70
     1
  9
$DIMBLK1
  1
OPEN
  9
$DIMBLK2
  1
OPEN
  9
$DIMSTYLE
  2
STANDARD
  9
$DIMCLRD
 70
     8
  9
$DIMCLRE
 70
     8
  9
$DIMCLRT
 70
   256
  9
$DIMTFAC
 40
1.0
  9
$DIMGAP
 40
1.0
  9
$DIMJUST
 70
     0
  9
$DIMSD1
 70
     0
  9
$DIMSD2
 70
     0
  9
$DIMTOLJ
 70
     1
  9
$DIMTZIN
 70
     0
  9
$DIMALTZ
 70
     0
  9
$DIMALTTZ
 70
     0
  9
$DIMUPT
 70
     0
  9
$DIMDEC
 70
     2
  9
$DIMTDEC
 70
     2
  9
$DIMALTU
 70
     2
  9
$DIMALTTD
 70
     0
  9
$DIMTXSTY
  7
STANDARD
  9
$DIMAUNIT
 70
     0
  9
$DIMADEC
 70
     2
  9
$DIMALTRND
 40
0.0
  9
$DIMAZIN
 70
     2
  9
$DIMDSEP
 70
    46
  9
$DIMATFIT
 70
     3
  9
$DIMFRAC
 70
     0
  9
$DIMLDRBLK
  1
OPEN
  9
$DIMLUNIT
 70
     2
  9
$DIMLWD
 70
    -2
  9
$DIMLWE
 70
    -2
  9
$DIMTMOVE
 70
     0
  9
$LUNITS
 70
     2
  9
$LUPREC
 70
     2
  9
$SKETCHINC
 40
0.1
  9
$FILLETRAD
 40
6.0
  9
$AUNITS
 70
     0
  9
$AUPREC
 70
     1
  9
$MENU
  1
FM
  9
$ELEVATION
 40
0.0
  9
$PELEVATION
 40
0.0
  9
$THICKNESS
 40
0.0
  9
$LIMCHECK
 70
     0
  9
$CHAMFERA
 40
0.0
  9
$CHAMFERB
 40
0.0
  9
$CHAMFERC
 40
0.0
  9
$CHAMFERD
 40
0.0
  9
$SKPOLY
 70
     0
  9
$TDCREATE
 40
2448636.619629629
  9
$TDUCREATE
 40
2448636.244629629
  9
$TDUPDATE
 40
2456822.475982975
  9
$TDUUPDATE
 40
2456822.100982975
  9
$TDINDWG
 40
1.3620486574
  9
$TDUSRTIMER
 40
2456822.100845324
  9
$USRTIMER
 70
     1
  9
$ANGBASE
 50
0.0
  9
$ANGDIR
 70
     0
  9
$PDMODE
 70
     3
  9
$PDSIZE
 40
0.0
  9
$PLINEWID
 40
0.0
  9
$SPLFRAME
 70
     0
  9
$SPLINETYPE
 70
     6
  9
$SPLINESEGS
 70
     8
  9
$HANDSEED
  5
3086F
  9
$SURFTAB1
 70
     6
  9
$SURFTAB2
 70
     6
  9
$SURFTYPE
 70
     6
  9
$SURFU
 70
     6
  9
$SURFV
 70
     6
  9
$UCSBASE
  2

  9
$UCSNAME
  2

  9
$UCSORG
 10
0.0
 20
0.0
 30
0.0
  9
$UCSXDIR
 10
1.0
 20
0.0
 30
0.0
  9
$UCSYDIR
 10
0.0
 20
1.0
 30
0.0
  9
$UCSORTHOREF
  2

  9
$UCSORTHOVIEW
 70
     0
  9
$UCSORGTOP
 10
0.0
 20
0.0
 30
0.0
  9
$UCSORGBOTTOM
 10
0.0
 20
0.0
 30
0.0
  9
$UCSORGLEFT
 10
0.0
 20
0.0
 30
0.0
  9
$UCSORGRIGHT
 10
0.0
 20
0.0
 30
0.0
  9
$UCSORGFRONT
 10
0.0
 20
0.0
 30
0.0
  9
$UCSORGBACK
 10
0.0
 20
0.0
 30
0.0
  9
$PUCSBASE
  2

  9
$PUCSNAME
  2

  9
$PUCSORG
 10
0.0
 20
0.0
 30
0.0
  9
$PUCSXDIR
 10
1.0
 20
0.0
 30
0.0
  9
$PUCSYDIR
 10
0.0
 20
1.0
 30
0.0
  9
$PUCSORTHOREF
  2

  9
$PUCSORTHOVIEW
 70
     0
  9
$PUCSORGTOP
 10
0.0
 20
0.0
 30
0.0
  9
$PUCSORGBOTTOM
 10
0.0
 20
0.0
 30
0.0
  9
$PUCSORGLEFT
 10
0.0
 20
0.0
 30
0.0
  9
$PUCSORGRIGHT
 10
0.0
 20
0.0
 30
0.0
  9
$PUCSORGFRONT
 10
0.0
 20
0.0
 30
0.0
  9
$PUCSORGBACK
 10
0.0
 20
0.0
 30
0.0
  9
$USERI1
 70
     0
  9
$USERI2
 70
     0
  9
$USERI3
 70
     0
  9
$USERI4
 70
     0
  9
$USERI5
 70
     0
  9
$USERR1
 40
0.0
  9
$USERR2
 40
0.0
  9
$USERR3
 40
0.0
  9
$USERR4
 40
0.0
  9
$USERR5
 40
0.0
  9
$WORLDVIEW
 70
     0
  9
$SHADEDGE
 70
     3
  9
$SHADEDIF
 70
    70
  9
$TILEMODE
 70
     1
  9
$MAXACTVP
 70
    16
  9
$PINSBASE
 10
0.0
 20
0.0
 30
0.0
  9
$PLIMCHECK
 70
     0
  9
$PEXTMIN
 10
1.000000000000000E+20
 20
1.000000000000000E+20
 30
1.000000000000000E+20
  9
$PEXTMAX
 10
-1.000000000000000E+20
 20
-1.000000000000000E+20
 30
-1.000000000000000E+20
  9
$PLIMMIN
 10
0.0
 20
0.0
  9
$PLIMMAX
 10
0.0
 20
0.0
  9
$UNITMODE
 70
     0
  9
$VISRETAIN
 70
     0
  9
$PLINEGEN
 70
     0
  9
$PSLTSCALE
 70
     0
  9
$TREEDEPTH
 70
  3020
  9
$CMLSTYLE
  2
STANDARD
  9
$CMLJUST
 70
     0
  9
$CMLSCALE
 40
1.0
  9
$PROXYGRAPHICS
 70
     1
  9
$MEASUREMENT
 70
     0
  9
$CELWEIGHT
370
    -1
  9
$ENDCAPS
280
     0
  9
$JOINSTYLE
280
     0
  9
$LWDISPLAY
290
     0
  9
$INSUNITS
 70
     0
  9
$HYPERLINKBASE
  1

  9
$STYLESHEET
  1
spax form.ctb
  9
$XEDIT
290
     1
  9
$CEPSNTYPE
380
     0
  9
$PSTYLEMODE
290
     1
  9
$FINGERPRINTGUID
  2
{BBAEEBA6-8B94-11D3-9160-00E0294F7E09}
  9
$VERSIONGUID
  2
{A7854D2E-FC6B-43A6-BBD4-45B320E386CD}
  9
$EXTNAMES
290
     1
  9
$PSVPSCALE
 40
0.0
  9
$OLESTARTUP
290
     0
  0
ENDSEC
  0
SECTION
  2
CLASSES
  0
CLASS
  1
LWPOLYLINE
  2
AcDbPolyline
  3
ObjectDBX Classes
 90
        0
280
     0
281
     1
  0
CLASS
  1
ACDBDICTIONARYWDFLT
  2
AcDbDictionaryWithDefault
  3
ObjectDBX Classes
 90
        0
280
     0
281
     0
  0
CLASS
  1
ACDBPLACEHOLDER
  2
AcDbPlaceHolder
  3
ObjectDBX Classes
 90
        0
280
     0
281
     0
  0
CLASS
  1
LAYOUT
  2
AcDbLayout
  3
ObjectDBX Classes
 90
        0
280
     0
281
     0
  0
CLASS
  1
DICTIONARYVAR
  2
AcDbDictionaryVar
  3
ObjectDBX Classes
 90
        0
280
     0
281
     0
  0
CLASS
  1
MATERIAL
  2
AcDbMaterial
  3
ObjectDBX Classes
 90
     1153
280
     0
281
     0
  0
CLASS
  1
VISUALSTYLE
  2
AcDbVisualStyle
  3
ObjectDBX Classes
 90
     4095
280
     0
281
     0
  0
CLASS
  1
TABLESTYLE
  2
AcDbTableStyle
  3
ObjectDBX Classes
 90
     4095
280
     0
281
     0
  0
CLASS
  1
SCALE
  2
AcDbScale
  3
ObjectDBX Classes
 90
     1153
280
     0
281
     0
  0
CLASS
  1
MLEADERSTYLE
  2
AcDbMLeaderStyle
  3
ACDB_MLEADERSTYLE_CLASS
 90
     4095
280
     0
281
     0
  0
CLASS
  1
CELLSTYLEMAP
  2
AcDbCellStyleMap
  3
ObjectDBX Classes
 90
     1152
280
     0
281
     0
  0
CLASS
  1
SORTENTSTABLE
  2
AcDbSortentsTable
  3
ObjectDBX Classes
 90
        0
280
     0
281
     0
  0
CLASS
  1
RASTERVARIABLES
  2
AcDbRasterVariables
  3
ISM
 90
        0
280
     0
281
     0
  0
CLASS
  1
SUN
  2
AcDbSun
  3
SCENEOE
 90
     1153
280
     0
281
     0
  0
ENDSEC
  0
SECTION
  2
TABLES
  0
TABLE
  2
VPORT
  5
8
330
0
100
AcDbSymbolTable
 70
     1
  0
VPORT
  5
30828
330
8
100
AcDbSymbolTableRecord
100
AcDbViewportTableRecord
  2
*Active
 70
     0
 10
0.0
 20
0.0
 11
1.0
 21
1.0
 12
2802.751874296226
 22
-1333.513637737483
 13
0.0
 23
0.0
 14
1.0
 24
1.0
 15
20.0
 25
20.0
 16
0.0
 26
0.0
 36
1.0
 17
0.0
 27
0.0
 37
0.0
 40
81.38174537151347
 41
1.731829573934837
 42
50.0
 43
0.0
 44
0.0
 50
0.0
 51
0.0
 71
    16
 72
   100
 73
     1
 74
     0
 75
     0
 76
     0
 77
     0
 78
     0
281
     0
 65
     1
110
0.0
120
0.0
130
0.0
111
1.0
121
0.0
131
0.0
112
0.0
122
1.0
132
0.0
 79
     0
146
0.0
  0
ENDTAB
  0
TABLE
  2
LTYPE
  5
5
330
0
100
AcDbSymbolTable
 70
     4
  0
LTYPE
  5
12
330
5
100
AcDbSymbolTableRecord
100
AcDbLinetypeTableRecord
  2
BYBLOCK
 70
     0
  3

 72
    65
 73
     0
 40
0.0
  0
LTYPE
  5
13
330
5
100
AcDbSymbolTableRecord
100
AcDbLinetypeTableRecord
  2
BYLAYER
 70
     0
  3

 72
    65
 73
     0
 40
0.0
  0
LTYPE
  5
14
330
5
100
AcDbSymbolTableRecord
100
AcDbLinetypeTableRecord
  2
CONTINUOUS
 70
     0
  3
Solid line
 72
    65
 73
     0
 40
0.0
  0
LTYPE
  5
26
330
5
100
AcDbSymbolTableRecord
100
AcDbLinetypeTableRecord
  2
PHANTOM
 70
     0
  3
_____ _ _ _____ _ _ _____ _ _ _____ _ _ ____
 72
    65
 73
     6
 40
2.5
 49
1.25
 74
     0
 49
-0.25
 74
     0
 49
0.25
 74
     0
 49
-0.25
 74
     0
 49
0.25
 74
     0
 49
-0.25
 74
     0
  0
LTYPE
  5
514
330
5
100
AcDbSymbolTableRecord
100
AcDbLinetypeTableRecord
  2
CENTER
 70
     0
  3
Center ____ _ ____ _ ____ _ ____ _ ____ _ ____
 72
    65
 73
     4
 40
2.0
 49
1.25
 74
     0
 49
-0.25
 74
     0
 49
0.25
 74
     0
 49
-0.25
 74
     0
  0
ENDTAB
  0
TABLE
  2
LAYER
  5
2
102
{ACAD_XDICTIONARY
360
9EB
102
}
330
0
100
AcDbSymbolTable
 70
    16
  0
LAYER
  5
F
102
{ACAD_XDICTIONARY
360
2C7F5
102
}
330
2
100
AcDbSymbolTableRecord
100
AcDbLayerTableRecord
  2
0
 70
     0
 62
     7
  6
CONTINUOUS
370
    -3
390
616
  0
LAYER
  5
34
102
{ACAD_XDICTIONARY
360
2C7FB
102
}
330
2
100
AcDbSymbolTableRecord
100
AcDbLayerTableRecord
  2
寸法線
 70
     0
 62
     7
  6
CONTINUOUS
370
    -3
390
616
  0
LAYER
  5
2F4
102
{ACAD_XDICTIONARY
360
2C803
102
}
330
2
100
AcDbSymbolTableRecord
100
AcDbLayerTableRecord
  2
文字
 70
     0
 62
     7
  6
CONTINUOUS
370
    -3
390
616
  0
LAYER
  5
305
102
{ACAD_XDICTIONARY
360
2C807
102
}
330
2
100
AcDbSymbolTableRecord
100
AcDbLayerTableRecord
  2
姿図
 70
     0
 62
     8
  6
CONTINUOUS
370
    -3
390
616
  0
ENDTAB
  0
TABLE
  2
STYLE
  5
3
330
0
100
AcDbSymbolTable
 70
     2
  0
STYLE
  5
10
330
3
100
AcDbSymbolTableRecord
100
AcDbTextStyleTableRecord
  2
STANDARD
 70
     0
 40
0.0
 41
1.0
 50
0.0
 71
     0
 42
3.5
  3
MONOTXT
  4
BIGFONT
  0
STYLE
  5
1ED6A
330
3
100
AcDbSymbolTableRecord
100
AcDbTextStyleTableRecord
  2
EXTFONT
 70
     0
 40
4.5
 41
1.0
 50
0.0
 71
     0
 42
4.5
  3
txt.shx
  4
extfont
  0
ENDTAB
  0
TABLE
  2
VIEW
  5
6
330
0
100
AcDbSymbolTable
 70
     0
  0
ENDTAB
  0
TABLE
  2
UCS
  5
7
330
0
100
AcDbSymbolTable
 70
     0
  0
ENDTAB
  0
TABLE
  2
APPID
  5
9
330
0
100
AcDbSymbolTable
 70
     6
  0
APPID
  5
11
330
9
100
AcDbSymbolTableRecord
100
AcDbRegAppTableRecord
  2
ACAD
 70
     0
  0
APPID
  5
2C7EE
330
9
100
AcDbSymbolTableRecord
100
AcDbRegAppTableRecord
  2
ACAD_MLEADERVER
 70
     0
  0
APPID
  5
2E2E9
330
9
100
AcDbSymbolTableRecord
100
AcDbRegAppTableRecord
  2
ACAD_EXEMPT_FROM_CAD_STANDARDS
 70
     0
  0
APPID
  5
2E314
330
9
100
AcDbSymbolTableRecord
100
AcDbRegAppTableRecord
  2
ACAD_DSTYLE_DIMJAG
 70
     0
  0
APPID
  5
2E315
330
9
100
AcDbSymbolTableRecord
100
AcDbRegAppTableRecord
  2
ACAD_DSTYLE_DIMTALN
 70
     0
  0
APPID
  5
2EC59
330
9
100
AcDbSymbolTableRecord
100
AcDbRegAppTableRecord
  2
ACAD_PSEXT
 70
     0
  0
ENDTAB
  0
TABLE
  2
DIMSTYLE
  5
A
330
0
100
AcDbSymbolTable
 70
     2
100
AcDbDimStyleTable
  0
DIMSTYLE
105
1CC
330
A
100
AcDbSymbolTableRecord
100
AcDbDimStyleTableRecord
  2
STANDARD
 70
     0
 41
1.5
 42
1.5
 44
1.0
 73
     0
 74
     0
 77
     3
 78
     8
 79
     2
140
2.500000000000003
141
0.0
147
1.0
171
     0
173
     1
176
     8
177
     8
271
     2
178
   256
179
     2
271
     2
272
     2
274
     0
340
10
341
608
343
608
344
608
  0
ENDTAB
  0
TABLE
  2
BLOCK_RECORD
  5
1
330
0
100
AcDbSymbolTable
 70
    95
  0
BLOCK_RECORD
  5
18
330
1
100
AcDbSymbolTableRecord
100
AcDbBlockTableRecord
  2
*MODEL_SPACE
340
619
  0
BLOCK_RECORD
  5
15
330
1
100
AcDbSymbolTableRecord
100
AcDbBlockTableRecord
  2
*PAPER_SPACE
340
61A
  0
BLOCK_RECORD
  5
608
330
1
100
AcDbSymbolTableRecord
100
AcDbBlockTableRecord
  2
_OPEN
340
0
102
{BLKREFS
331
1E6D1
331
1E6D2
331
1E6DA
331
1E6DB
331
1E6E3
331
1E6E4
331
1E6EC
331
1E6ED
331
1E6F5
331
1E6F6
331
1E6FE
331
1E6FF
331
1E707
331
1E708
331
1E710
331
1E711
331
1E71B
331
1E71C
331
1E724
331
1E725
331
1E72D
331
1E72E
331
2D96F
331
2D970
331
2D978
331
2D979
331
2D981
331
2D982
331
2D98A
331
2D98B
331
2D993
331
2D994
331
2D99E
331
2D99F
331
2D9A7
331
2D9A8
331
2D9B0
331
2D9B1
331
2D9B9
331
2D9BA
331
2D9C2
331
2D9C3
331
2D9CB
331
2D9CC
331
2D9D4
331
2D9D5
331
2D9DD
331
2D9DE
331
2E271
331
2E272
331
2E27A
331
2E27B
331
2E283
331
2E284
331
2E28C
331
2E28D
331
2E295
331
2E296
331
2E29E
331
2E29F
331
2E2A7
331
2E2A8
331
2E2B0
331
2E2B1
331
2E2B9
331
2E2BA
331
2E2C2
331
2E2C3
331
2E2CD
331
2E2CE
331
2E2D6
331
2E2D7
331
2E2DF
331
2E2E0
331
2EBA6
331
2EBA7
331
2EBAF
331
2EBB0
331
2EBB8
331
2EBB9
331
2EBC1
331
2EBC2
331
2EBCA
331
2EBCB
331
2EBD5
331
2EBD6
331
2EBDE
331
2EBDF
331
2EBE7
331
2EBE8
331
2EBF0
331
2EBF1
331
2EBF9
331
2EBFA
331
2EC02
331
2EC03
331
2EC0B
331
2EC0C
331
2EC14
331
2EC15
331
2EC4A
331
2EC4B
331
2F4F3
331
2F4F4
331
2F4FC
331
2F4FD
331
2F505
331
2F506
331
2F50E
331
2F50F
331
2F517
331
2F518
331
2F520
331
2F521
331
2F52B
331
2F52C
331
2F534
331
2F535
331
2F53D
331
2F53E
331
2F546
331
2F547
331
2F54F
331
2F550
331
2F558
331
2F559
331
2F562
331
2F563
331
2F56B
331
2F56C
331
2FE44
331
2FE45
331
2FE4D
331
2FE4E
331
2FE56
331
2FE57
331
2FE5F
331
2FE60
331
2FE68
331
2FE69
331
2FE73
331
2FE74
331
2FE7C
331
2FE7D
331
2FE85
331
2FE86
331
2FE8E
331
2FE8F
331
2FE97
331
2FE98
331
2FEA0
331
2FEA1
331
2FEA9
331
2FEAA
331
2FEB2
331
2FEB3
331
2FEBC
331
2FEBD
331
30769
331
3076A
331
30772
331
30773
331
3077B
331
3077C
331
30784
331
30785
331
3078D
331
3078E
331
30798
331
30799
331
307A1
331
307A2
331
307AA
331
307AB
331
307B3
331
307B4
331
307BD
331
307BE
331
307C6
331
307C7
331
307CF
331
307D0
331
307D8
331
307D9
331
307E1
331
307E2
102
}
  0
BLOCK_RECORD
  5
A62
330
1
100
AcDbSymbolTableRecord
100
AcDbBlockTableRecord
  2
SUN
340
0
  0
ENDTAB
  0
ENDSEC
  0
SECTION
  2
BLOCKS
  0
BLOCK
  5
39
330
18
100
AcDbEntity
  8
0
100
AcDbBlockBegin
  2
*MODEL_SPACE
 70
     0
 10
0.0
 20
0.0
 30
0.0
  3
*MODEL_SPACE
  1
*MODEL_SPACE
  0
ENDBLK
  5
3A
330
18
100
AcDbEntity
  8
0
100
AcDbBlockEnd
  0
BLOCK
  5
37
330
15
100
AcDbEntity
 67
     1
  8
0
100
AcDbBlockBegin
  2
*PAPER_SPACE
 70
     0
 10
0.0
 20
0.0
 30
0.0
  3
*PAPER_SPACE
  1
*PAPER_SPACE
  0
ENDBLK
  5
38
330
15
100
AcDbEntity
 67
     1
  8
0
100
AcDbBlockEnd
  0
BLOCK
  5
609
330
608
100
AcDbEntity
  8
0
100
AcDbBlockBegin
  2
_OPEN
 70
     0
 10
0.0
 20
0.0
 30
0.0
  3
_OPEN
  1
_OPEN
  0
LINE
  5
60A
330
608
100
AcDbEntity
  8
0
  6
ByBlock
 62
     0
100
AcDbLine
 10
-1.0
 20
0.1666666666666667
 30
0.0
 11
0.0
 21
0.0
 31
0.0
  0
LINE
  5
60B
330
608
100
AcDbEntity
  8
0
  6
ByBlock
 62
     0
100
AcDbLine
 10
0.0
 20
0.0
 30
0.0
 11
-1.0
 21
-0.1666666666666667
 31
0.0
  0
LINE
  5
60C
330
608
100
AcDbEntity
  8
0
  6
ByBlock
 62
     0
100
AcDbLine
 10
0.0
 20
0.0
 30
0.0
 11
-1.0
 21
0.0
 31
0.0
  0
ENDBLK
  5
60D
330
608
100
AcDbEntity
  8
0
100
AcDbBlockEnd
  0
BLOCK
  5
A63
330
A62
100
AcDbEntity
  8
0
100
AcDbBlockBegin
  2
SUN
 70
     0
 10
0.0
 20
0.0
 30
0.0
  3
SUN
  1
SUN
  0
LINE
  5
A64
330
A62
100
AcDbEntity
  8
0
100
AcDbLine
 10
-0.0000000000000568
 20
0.0
 30
0.0
 11
-1.500000000000057
 21
0.0
 31
0.0
  0
LINE
  5
A65
330
A62
100
AcDbEntity
  8
0
100
AcDbLine
 10
-0.0000000000000568
 20
0.0000000000000284
 30
0.0
 11
-1.500000000000057
 21
0.401923788646684
 31
0.0
  0
LINE
  5
A66
330
A62
100
AcDbEntity
  8
0
100
AcDbLine
 10
-0.0000000000000568
 20
0.0000000000000284
 30
0.0
 11
-1.500000000000057
 21
-0.4019237886466556
 31
0.0
  0
ENDBLK
  5
A67
330
A62
100
AcDbEntity
  8
0
100
AcDbBlockEnd
  0
ENDSEC
  0
SECTION
  2
ENTITIES
  0
SPLINE
  5
3007F
330
18
100
AcDbEntity
  8
姿図
100
AcDbSpline
210
0.0
220
0.0
230
1.0
 70
     8
 71
     3
 72
     8
 73
     4
 74
     0
 42
0.000000001
 43
0.0000000001
 40
0.0
 40
0.0
 40
0.0
 40
0.0
 40
1.0
 40
1.0
 40
1.0
 40
1.0
 10
2793.501989683019
 20
-1334.491279176288
 30
0.0
 10
2790.586810345164
 20
-1338.310109525028
 30
0.0
 10
2789.38112800011
 20
-1341.227895208655
 30
0.0
 10
2787.535084301076
 20
-1345.031204306496
 30
0.0
  0
SPLINE
  5
30080
330
18
100
AcDbEntity
  8
姿図
100
AcDbSpline
210
0.0
220
0.0
230
1.0
 70
     8
 71
     3
 72
     8
 73
     4
 74
     0
 42
0.000000001
 43
0.0000000001
 40
0.0
 40
0.0
 40
0.0
 40
0.0
 40
1.0
 40
1.0
 40
1.0
 40
1.0
 10
2798.961604754633
 20
-1358.368202461878
 30
0.0
 10
2804.571427207518
 20
-1357.098369849705
 30
0.0
 10
2808.45771114188
 20
-1355.828653494888
 30
0.0
 10
2810.720966767776
 20
-1354.403375882305
 30
0.0
  0
SPLINE
  5
30081
330
18
100
AcDbEntity
  8
姿図
100
AcDbSpline
210
0.0
220
0.0
230
1.0
 70
    11
 71
     3
 72
    44
 73
    40
 74
     0
 42
0.000000001
 43
0.0000000001
 40
0.0
 40
0.0
 40
0.0
 40
0.0
 40
0.3378593807711008
 40
0.3378593807711008
 40
0.6757187615422016
 40
0.6757187615422016
 40
1.013578142313302
 40
1.013578142313302
 40
1.351437523084403
 40
1.351437523084403
 40
1.689296903855504
 40
1.689296903855504
 40
2.027156284626605
 40
2.027156284626605
 40
2.365015665397705
 40
2.365015665397705
 40
2.702875046168806
 40
2.702875046168806
 40
3.040734426939907
 40
3.040734426939907
 40
3.378593807711008
 40
3.378593807711008
 40
3.716453188482109
 40
3.716453188482109
 40
4.054312569253209
 40
4.054312569253209
 40
4.39217195002431
 40
4.39217195002431
 40
4.730031330795411
 40
4.730031330795411
 40
5.067890711566512
 40
5.067890711566512
 40
5.405750092337613
 40
5.405750092337613
 40
5.743609473108713
 40
5.743609473108713
 40
6.081468853879814
 40
6.081468853879814
 40
6.283185307179586
 40
6.283185307179586
 40
6.283185307179586
 40
6.283185307179586
 10
2798.9918291109
 20
-1357.831704199992
 30
0.0
 10
2799.411143259705
 20
-1357.495908905757
 30
0.0
 10
2799.739690627697
 20
-1357.043836347441
 30
0.0
 10
2800.18151102609
 20
-1355.9249865785
 30
0.0
 10
2800.292284050097
 20
-1355.257885770687
 30
0.0
 10
2800.260815703592
 20
-1353.781176044043
 30
0.0
 10
2800.118437539134
 20
-1352.972825545321
 30
0.0
 10
2799.588479311816
 20
-1351.316374379615
 30
0.0
 10
2799.201227337891
 20
-1350.468777248461
 30
0.0
 10
2798.225342915715
 20
-1348.837485049579
 30
0.0
 10
2797.636987767824
 20
-1348.054142958866
 30
0.0
 10
2796.328681597569
 20
-1346.644856898467
 30
0.0
 10
2795.609007287175
 20
-1346.019254475046
 30
0.0
 10
2794.125674397839
 20
-1344.998733561236
 30
0.0
 10
2793.362359886565
 20
-1344.60421090013
 30
0.0
 10
2791.888289851212
 20
-1344.088190704862
 30
0.0
 10
2791.178435201774
 20
-1343.967083532019
 30
0.0
 10
2789.900869813165
 20
-1343.996488284906
 30
0.0
 10
2789.334514158967
 20
-1344.145315122083
 30
0.0
 10
2788.386916704577
 20
-1344.677833166336
 30
0.0
 10
2788.002212547104
 20
-1345.061507770165
 30
0.0
 10
2787.434352066125
 20
-1346.051070771123
 30
0.0
 10
2787.253171276726
 20
-1346.659060830383
 30
0.0
 10
2787.136983336151
 20
-1348.044884479513
 30
0.0
 10
2787.20272999301
 20
-1348.821276154538
 30
0.0
 10
2787.586136944035
 20
-1350.44521757217
 30
0.0
 10
2787.903475133834
 20
-1351.292121517381
 30
0.0
 10
2788.755707518328
 20
-1352.9523577811
 30
0.0
 10
2789.290314098267
 20
-1353.765320195486
 30
0.0
 10
2790.514192487075
 20
-1355.260100260027
 30
0.0
 10
2791.203191163371
 20
-1355.941577476925
 30
0.0
 10
2792.652698607511
 20
-1357.093001915541
 30
0.0
 10
2793.412901274316
 20
-1357.562580555506
 30
0.0
 10
2794.909856748037
 20
-1358.237384150422
 30
0.0
 10
2795.645979759876
 20
-1358.442153912367
 30
0.0
 10
2797.00025619801
 20
-1358.574430113003
 30
0.0
 10
2797.616790389982
 20
-1358.502640637347
 30
0.0
 10
2798.458157085864
 20
-1358.191773719188
 30
0.0
 10
2798.74148068866
 20
-1358.032188305638
 30
0.0
 10
2798.9918291109
 20
-1357.831704199992
 30
0.0
  0
ELLIPSE
  5
30082
330
18
100
AcDbEntity
  8
姿図
100
AcDbEllipse
 10
2794.525963390813
 20
-1350.616077441823
 30
0.0
 11
5.515597873263889
 21
-6.887434895833333
 31
0.0
210
0.0
220
0.0
230
1.0
 40
0.6143749740678309
 41
3.481616758033854
 42
5.943107021608778
  0
ELLIPSE
  5
30083
330
18
100
AcDbEntity
  8
姿図
100
AcDbEllipse
 10
2795.013432493149
 20
-1350.225702275336
 30
0.0
 11
5.515597873263889
 21
-6.887434895833333
 31
0.0
210
0.0
220
0.0
230
1.0
 40
0.6143749740678309
 41
3.443881448557631
 42
5.980851719541449
  0
ELLIPSE
  5
30084
330
18
100
AcDbEntity
  8
姿図
100
AcDbEllipse
 10
2795.988370697823
 20
-1349.444951942362
 30
0.0
 11
5.515597873263889
 21
-6.887434895833333
 31
0.0
210
0.0
220
0.0
230
1.0
 40
0.6143749740678309
 41
3.502118869836067
 42
5.922691609107381
  0
ELLIPSE
  5
30085
330
18
100
AcDbEntity
  8
姿図
100
AcDbEllipse
 10
2795.500901595485
 20
-1349.835327108849
 30
0.0
 11
5.515597873263889
 21
-6.887434895833333
 31
0.0
210
0.0
220
0.0
230
1.0
 40
0.6143749740678309
 41
3.463529687412388
 42
5.961261927384565
  0
ELLIPSE
  5
30086
330
18
100
AcDbEntity
  8
姿図
100
AcDbEllipse
 10
2797.450778004831
 20
-1348.273826442901
 30
0.0
 11
5.515597873263889
 21
-6.887434895833333
 31
0.0
210
0.0
220
0.0
230
1.0
 40
0.6143749740678309
 41
3.661719329988739
 42
5.763018954709153
  0
ELLIPSE
  5
30087
330
18
100
AcDbEntity
  8
姿図
100
AcDbEllipse
 10
2797.938247107167
 20
-1347.883451276415
 30
0.0
 11
5.515597873263889
 21
-6.887434895833333
 31
0.0
210
0.0
220
0.0
230
1.0
 40
0.6143749740678309
 41
3.723823935622747
 42
5.700933712861032
  0
ELLIPSE
  5
30088
330
18
100
AcDbEntity
  8
姿図
100
AcDbEllipse
 10
2796.963308902495
 20
-1348.664201609388
 30
0.0
 11
5.515597873263889
 21
-6.887434895833333
 31
0.0
210
0.0
220
0.0
230
1.0
 40
0.6143749740678309
 41
3.603625616711013
 42
5.821152733123189
  0
ELLIPSE
  5
30089
330
18
100
AcDbEntity
  8
姿図
100
AcDbEllipse
 10
2796.475839800159
 20
-1349.054576775875
 30
0.0
 11
5.515597873263889
 21
-6.887434895833333
 31
0.0
210
0.0
220
0.0
230
1.0
 40
0.6143749740678309
 41
3.549971041621957
 42
5.87482879604447
  0
ELLIPSE
  5
3008A
330
18
100
AcDbEntity
  8
姿図
100
AcDbEllipse
 10
2798.445202137025
 20
-1347.477471383057
 30
0.0
 11
5.515597873263889
 21
-6.887434895833333
 31
0.0
210
0.0
220
0.0
230
1.0
 40
0.6143749740678309
 41
3.792705731420882
 42
5.632100224937547
  0
ELLIPSE
  5
3008B
330
18
100
AcDbEntity
  8
姿図
100
AcDbEllipse
 10
2798.932671239361
 20
-1347.08709621657
 30
0.0
 11
5.515597873263889
 21
-6.887434895833333
 31
0.0
210
0.0
220
0.0
230
1.0
 40
0.6143749740678309
 41
3.863555455909622
 42
5.561254567777032
  0
ELLIPSE
  5
3008C
330
18
100
AcDbEntity
  8
姿図
100
AcDbEllipse
 10
2799.907609444033
 20
-1346.306345883596
 30
0.0
 11
5.515597873263889
 21
-6.887434895833333
 31
0.0
210
0.0
220
0.0
230
1.0
 40
0.6143749740678309
 41
4.023581104885289
 42
5.401172784027141
  0
ELLIPSE
  5
3008D
330
18
100
AcDbEntity
  8
姿図
100
AcDbEllipse
 10
2799.420140341697
 20
-1346.696721050083
 30
0.0
 11
5.515597873263889
 21
-6.887434895833333
 31
0.0
210
0.0
220
0.0
230
1.0
 40
0.6143749740678309
 41
3.939938332006966
 42
5.484813251303125
  0
ELLIPSE
  5
3008E
330
18
100
AcDbEntity
  8
姿図
100
AcDbEllipse
 10
2801.389502678563
 20
-1345.119615657266
 30
0.0
 11
5.515597873263889
 21
-6.887434895833333
 31
0.0
210
0.0
220
0.0
230
1.0
 40
0.6143749740678309
 41
4.374013868178775
 42
5.050753964782055
  0
ELLIPSE
  5
3008F
330
18
100
AcDbEntity
  8
姿図
100
AcDbEllipse
 10
2800.902033576227
 20
-1345.509990823752
 30
0.0
 11
5.515597873263889
 21
-6.887434895833333
 31
0.0
210
0.0
220
0.0
230
1.0
 40
0.6143749740678309
 41
4.231795640529155
 42
5.192974888402503
  0
ELLIPSE
  5
30090
330
18
100
AcDbEntity
  8
姿図
100
AcDbEllipse
 10
2800.414564473891
 20
-1345.900365990239
 30
0.0
 11
5.515597873263889
 21
-6.887434895833333
 31
0.0
210
0.0
220
0.0
230
1.0
 40
0.6143749740678309
 41
4.121371833354382
 42
5.303438094087928
  0
SPLINE
  5
30091
330
18
100
AcDbEntity
  8
姿図
100
AcDbSpline
210
0.0
220
0.0
230
1.0
 70
     8
 71
     3
 72
    11
 73
     7
 74
     0
 42
0.000000001
 43
0.0000000001
 40
0.0
 40
0.0
 40
0.0
 40
0.0
 40
1.0
 40
1.0
 40
1.0
 40
2.0
 40
2.0
 40
2.0
 40
2.0
 10
2820.948785772652
 20
-1309.436170973363
 30
0.0
 10
2817.802190922346
 20
-1309.706776538905
 30
0.0
 10
2815.592921896757
 20
-1309.806861828095
 30
0.0
 10
2813.261958258177
 20
-1309.785536837501
 30
0.0
 10
2811.531079854925
 20
-1309.769614177857
 30
0.0
 10
2809.868583588178
 20
-1309.688010547182
 30
0.0
 10
2807.481462832469
 20
-1309.446906878282
 30
0.0
  0
SPLINE
  5
30092
330
18
100
AcDbEntity
  8
姿図
100
AcDbSpline
210
0.0
220
0.0
230
1.0
 70
     8
 71
     3
 72
    17
 73
    13
 74
     0
 42
0.000000001
 43
0.0000000001
 40
0.2084474298111308
 40
0.2084474298111308
 40
0.2084474298111308
 40
0.2084474298111308
 40
1.0
 40
1.0
 40
1.0
 40
2.0
 40
2.0
 40
2.0
 40
3.0
 40
3.0
 40
3.0
 40
3.72058887900539
 40
3.72058887900539
 40
3.72058887900539
 40
3.72058887900539
 10
2801.619595025913
 20
-1308.430367504977
 30
0.0
 10
2799.415021629956
 20
-1307.805078092763
 30
0.0
 10
2798.091556547571
 20
-1307.013277964
 30
0.0
 10
2798.099321279083
 20
-1306.162420935498
 30
0.0
 10
2798.117092104579
 20
-1304.238053784252
 30
0.0
 10
2804.934549431031
 20
-1302.740612944708
 30
0.0
 10
2813.325648896752
 20
-1302.81780941066
 30
0.0
 10
2821.717459195493
 20
-1302.894721543403
 30
0.0
 10
2828.506198867944
 20
-1304.51670032802
 30
0.0
 10
2828.489138875469
 20
-1306.440783146058
 30
0.0
 10
2828.482582480348
 20
-1307.129204633873
 30
0.0
 10
2827.605543333191
 20
-1307.762999490368
 30
0.0
 10
2826.09760588939
 20
-1308.289612333236
 30
0.0
  0
SPLINE
  5
30093
330
18
100
AcDbEntity
  8
姿図
100
AcDbSpline
210
0.0
220
0.0
230
1.0
 70
     8
 71
     3
 72
    11
 73
     7
 74
     0
 42
0.000000001
 43
0.0000000001
 40
0.0
 40
0.0
 40
0.0
 40
0.0
 40
1.0
 40
1.0
 40
1.0
 40
2.0
 40
2.0
 40
2.0
 40
2.0
 10
2820.878233195515
 20
-1309.163972816247
 30
0.0
 10
2817.770345603057
 20
-1309.449881485544
 30
0.0
 10
2815.575293237865
 20
-1309.555795605496
 30
0.0
 10
2813.250016263444
 20
-1309.534612781506
 30
0.0
 10
2811.545865181737
 20
-1309.518974455069
 30
0.0
 10
2809.912655235406
 20
-1309.436233491564
 30
0.0
 10
2807.548285838011
 20
-1309.167566634749
 30
0.0
  0
SPLINE
  5
30094
330
18
100
AcDbEntity
  8
姿図
100
AcDbSpline
210
0.0
220
0.0
230
1.0
 70
     8
 71
     3
 72
    17
 73
    13
 74
     0
 42
0.000000001
 43
0.0000000001
 40
0.2539452136063279
 40
0.2539452136063279
 40
0.2539452136063279
 40
0.2539452136063279
 40
1.0
 40
1.0
 40
1.0
 40
2.0
 40
2.0
 40
2.0
 40
3.0
 40
3.0
 40
3.0
 40
3.626749038855106
 40
3.626749038855106
 40
3.626749038855106
 40
3.626749038855106
 10
2801.681708811896
 20
-1308.076991224775
 30
0.0
 10
2800.067299817625
 20
-1307.545416455345
 30
0.0
 10
2799.122313608802
 20
-1306.9066931301
 30
0.0
 10
2799.128465325173
 20
-1306.226822407094
 30
0.0
 10
2799.144672318025
 20
-1304.471349181356
 30
0.0
 10
2805.493690684419
 20
-1303.106407616704
 30
0.0
 10
2813.308588904275
 20
-1303.17834391831
 30
0.0
 10
2821.123771457341
 20
-1303.2497115535
 30
0.0
 10
2827.44677333521
 20
-1304.730661066985
 30
0.0
 10
2827.430850675567
 20
-1306.485992126118
 30
0.0
 10
2827.426217330883
 20
-1306.981314493432
 30
0.0
 10
2826.917191194528
 20
-1307.445586994472
 30
0.0
 10
2826.013114928884
 20
-1307.855254055687
 30
0.0
  0
ELLIPSE
  5
30095
330
18
100
AcDbEntity
  8
姿図
100
AcDbEllipse
 10
2815.886325349252
 20
-1303.567757583405
 30
0.0
 11
0.843703884548611
 21
0.0
 31
0.0
210
0.0
220
0.0
230
1.0
 40
0.2564315215099384
 41
0.0
 42
6.283185307179586
  0
SPLINE
  5
30096
330
18
100
AcDbEntity
  8
姿図
100
AcDbSpline
210
0.0
220
0.0
230
1.0
 70
     8
 71
     3
 72
    17
 73
    13
 74
     0
 42
0.000000001
 43
0.0000000001
 40
0.0
 40
0.0
 40
0.0
 40
0.0
 40
1.0
 40
1.0
 40
1.0
 40
2.0
 40
2.0
 40
2.0
 40
3.0
 40
3.0
 40
3.0
 40
4.0
 40
4.0
 40
4.0
 40
4.0
 10
2799.762528378849
 20
-1299.022387584654
 30
0.0
 10
2799.137990487639
 20
-1298.562336454228
 30
0.0
 10
2798.790250974345
 20
-1298.065179840169
 30
0.0
 10
2798.802477302286
 20
-1297.548972901179
 30
0.0
 10
2798.860196943494
 20
-1295.108114477734
 30
0.0
 10
2805.344415750256
 20
-1293.546698666406
 30
0.0
 10
2813.367730211524
 20
-1293.620625300467
 30
0.0
 10
2821.39161333921
 20
-1293.694125434716
 30
0.0
 10
2827.893176471654
 20
-1295.036746842545
 30
0.0
 10
2827.859056486704
 20
-1297.815108783797
 30
0.0
 10
2827.852801156128
 20
-1298.318378561827
 30
0.0
 10
2827.52240596852
 20
-1298.79733785058
 30
0.0
 10
2826.919619567714
 20
-1299.236632656826
 30
0.0
  0
SPLINE
  5
30097
330
18
100
AcDbEntity
  8
姿図
100
AcDbSpline
210
0.0
220
0.0
230
1.0
 70
     8
 71
     3
 72
    11
 73
     7
 74
     0
 42
0.000000001
 43
0.0000000001
 40
0.0
 40
0.0
 40
0.0
 40
0.0
 40
1.0
 40
1.0
 40
1.0
 40
2.0
 40
2.0
 40
2.0
 40
2.0
 10
2798.85536327896
 20
-1298.050963179774
 30
0.0
 10
2798.913082920169
 20
-1295.609962589725
 30
0.0
 10
2805.39730172693
 20
-1294.048688945
 30
0.0
 10
2813.420616188199
 20
-1294.122615579061
 30
0.0
 10
2821.134007452828
 20
-1294.193130214627
 30
0.0
 10
2827.440518004636
 20
-1295.436661499494
 30
0.0
 10
2827.88692114108
 20
-1298.001062701781
 30
0.0
  0
SPLINE
  5
30098
330
18
100
AcDbEntity
  8
姿図
100
AcDbSpline
210
0.0
220
0.0
230
1.0
 70
     8
 71
     3
 72
    11
 73
     7
 74
     0
 42
0.000000001
 43
0.0000000001
 40
0.0
 40
0.0
 40
0.0
 40
0.0
 40
1.0
 40
1.0
 40
1.0
 40
2.0
 40
2.0
 40
2.0
 40
2.0
 10
2800.202960517926
 20
-1297.206635718836
 30
0.0
 10
2799.95587496024
 20
-1298.067312339228
 30
0.0
 10
2799.681777747797
 20
-1299.210331835092
 30
0.0
 10
2799.429432025765
 20
-1300.47220261187
 30
0.0
 10
2799.05624469036
 20
-1302.337997122283
 30
0.0
 10
2798.826929958168
 20
-1303.982153897119
 30
0.0
 10
2798.79906530379
 20
-1304.856194178284
 30
0.0
  0
SPLINE
  5
30099
330
18
100
AcDbEntity
  8
姿図
100
AcDbSpline
210
0.0
220
0.0
230
1.0
 70
     8
 71
     3
 72
    11
 73
     7
 74
     0
 42
0.000000001
 43
0.0000000001
 40
0.0
 40
0.0
 40
0.0
 40
0.0
 40
1.0
 40
1.0
 40
1.0
 40
2.0
 40
2.0
 40
2.0
 40
2.0
 10
2826.746744977295
 20
-1298.513004642653
 30
0.0
 10
2827.004350863677
 20
-1299.333732447334
 30
0.0
 10
2827.282428741029
 20
-1300.629581042458
 30
0.0
 10
2827.498521979052
 20
-1302.099441560833
 30
0.0
 10
2827.653199244166
 20
-1303.156876761112
 30
0.0
 10
2827.751578534107
 20
-1304.137399828647
 30
0.0
 10
2827.790247850385
 20
-1304.924718481394
 30
0.0
  0
POLYLINE
  5
3009A
330
18
100
AcDbEntity
  8
姿図
100
AcDb2dPolyline
 66
     1
 10
0.0
 20
0.0
 30
0.0
  0
VERTEX
  5
3009B
330
3009A
100
AcDbEntity
  8
姿図
100
AcDbVertex
100
AcDb2dVertex
 10
2804.014181794566
 20
-1326.930672622467
 30
0.0
  0
VERTEX
  5
3009C
330
3009A
100
AcDbEntity
  8
姿図
100
AcDbVertex
100
AcDb2dVertex
 10
2804.081016646996
 20
-1323.661793770472
 30
0.0
  0
VERTEX
  5
3009D
330
3009A
100
AcDbEntity
  8
姿図
100
AcDbVertex
100
AcDb2dVertex
 10
2808.517782868784
 20
-1305.114777711443
 30
0.0
  0
SEQEND
  5
3009E
330
3009A
100
AcDbEntity
  8
姿図
  0
SPLINE
  5
3009F
330
18
100
AcDbEntity
  8
姿図
100
AcDbSpline
210
0.0
220
0.0
230
1.0
 70
     8
 71
     3
 72
    14
 73
    10
 74
     0
 42
0.000000001
 43
0.0000000001
 40
0.0
 40
0.0
 40
0.0
 40
0.0
 40
1.0
 40
1.0
 40
1.0
 40
2.0
 40
2.0
 40
2.0
 40
3.0
 40
3.0
 40
3.0
 40
3.0
 10
2819.640445900468
 20
-1304.485186511357
 30
0.0
 10
2818.034342384844
 20
-1304.63453140068
 30
0.0
 10
2816.141606924773
 20
-1304.720831042606
 30
0.0
 10
2814.115201759843
 20
-1304.720831042606
 30
0.0
 10
2812.346489737274
 20
-1304.720831042606
 30
0.0
 10
2810.684058910452
 20
-1304.594051528718
 30
0.0
 10
2809.217826271562
 20
-1304.539274510489
 30
0.0
 10
2808.716909387882
 20
-1304.52049874009
 30
0.0
 10
2808.559124014618
 20
-1304.916340211444
 30
0.0
 10
2808.518471887882
 20
-1305.17024374877
 30
0.0
  0
LINE
  5
300A0
330
18
100
AcDbEntity
  8
姿図
100
AcDbLine
 10
2804.327376180541
 20
-1303.816731304461
 30
0.0
 11
2808.444057825381
 21
-1304.768028850767
 31
0.0
  0
ELLIPSE
  5
300A1
330
18
100
AcDbEntity
  8
姿図
100
AcDbEllipse
 10
2808.606494077552
 20
-1303.84078140068
 30
0.0
 11
0.9585978190104166
 21
0.0
 31
0.0
210
0.0
220
0.0
230
1.0
 40
0.4208446026042643
 41
0.0
 42
6.283185307179586
  0
SPLINE
  5
300A2
330
18
100
AcDbEntity
  8
姿図
100
AcDbSpline
210
0.0
220
0.0
230
1.0
 70
     8
 71
     3
 72
    11
 73
     7
 74
     0
 42
0.000000001
 43
0.0000000001
 40
0.0
 40
0.0
 40
0.0
 40
0.0
 40
1.0
 40
1.0
 40
1.0
 40
1.311238117250983
 40
1.311238117250983
 40
1.311238117250983
 40
1.311238117250983
 10
2807.645484691702
 20
-1303.840953655454
 30
0.0
 10
2807.644795672604
 20
-1303.773257529152
 30
0.0
 10
2807.647896258542
 20
-1303.705216893301
 30
0.0
 10
2807.647896258542
 20
-1303.641654881583
 30
0.0
 10
2807.647896258542
 20
-1303.547136481936
 30
0.0
 10
2807.689711816257
 20
-1303.458174578987
 30
0.0
 10
2807.763361266697
 20
-1303.380466304102
 30
0.0
  0
SPLINE
  5
300A3
330
18
100
AcDbEntity
  8
姿図
100
AcDbSpline
210
0.0
220
0.0
230
1.0
 70
     8
 71
     3
 72
    17
 73
    13
 74
     0
 42
0.000000001
 43
0.0000000001
 40
0.0
 40
0.0
 40
0.0
 40
0.0
 40
1.0
 40
1.0
 40
1.0
 40
2.0
 40
2.0
 40
2.0
 40
3.0
 40
3.0
 40
3.0
 40
4.0
 40
4.0
 40
4.0
 40
4.0
 10
2798.113395772876
 20
-1306.031769826456
 30
0.0
 10
2798.103870610411
 20
-1305.979736849405
 30
0.0
 10
2798.099321279083
 20
-1305.927419539147
 30
0.0
 10
2798.099747778895
 20
-1305.874960062285
 30
0.0
 10
2798.117518604391
 20
-1303.950592911038
 30
0.0
 10
2804.941799927833
 20
-1302.453152071494
 30
0.0
 10
2813.341002889979
 20
-1302.530490704049
 30
0.0
 10
2821.74134318496
 20
-1302.607402836794
 30
0.0
 10
2828.5369068544
 20
-1304.229523788015
 30
0.0
 10
2828.519846861925
 20
-1306.153606606052
 30
0.0
 10
2828.519278195508
 20
-1306.19511925441
 30
0.0
 10
2828.515866197014
 20
-1306.236489736163
 30
0.0
 10
2828.509042200023
 20
-1306.277575884709
 30
0.0
  0
SPLINE
  5
300A4
330
18
100
AcDbEntity
  8
姿図
100
AcDbSpline
210
0.0
220
0.0
230
1.0
 70
     8
 71
     3
 72
    11
 73
     7
 74
     0
 42
0.000000001
 43
0.0000000001
 40
0.0
 40
0.0
 40
0.0
 40
0.0
 40
1.0
 40
1.0
 40
1.0
 40
2.0
 40
2.0
 40
2.0
 40
2.0
 10
2799.918485143396
 20
-1298.453863335405
 30
0.0
 10
2798.823802292879
 20
-1296.522103520752
 30
0.0
 10
2805.236795631057
 20
-1294.38263829771
 30
0.0
 10
2813.44108817917
 20
-1294.5903437061
 30
0.0
 10
2821.071454147084
 20
-1294.783548120886
 30
0.0
 10
2827.381945363804
 20
-1296.071293219585
 30
0.0
 10
2826.802474286048
 20
-1298.647067750191
 30
0.0
  0
POLYLINE
  5
300A5
330
18
100
AcDbEntity
  8
姿図
100
AcDb2dPolyline
 66
     1
 10
0.0
 20
0.0
 30
0.0
  0
VERTEX
  5
300A6
330
300A5
100
AcDbEntity
  8
姿図
100
AcDbVertex
100
AcDb2dVertex
 10
2799.410845206024
 20
-1329.132088638092
 30
0.0
  0
VERTEX
  5
300A7
330
300A5
100
AcDbEntity
  8
姿図
100
AcDbVertex
100
AcDb2dVertex
 10
2799.444262632239
 20
-1323.028068455802
 30
0.0
  0
VERTEX
  5
300A8
330
300A5
100
AcDbEntity
  8
姿図
100
AcDbVertex
100
AcDb2dVertex
 10
2802.708892209457
 20
-1304.151168714749
 30
0.0
  0
SEQEND
  5
300A9
330
300A5
100
AcDbEntity
  8
姿図
  0
POLYLINE
  5
300AA
330
18
100
AcDbEntity
  8
姿図
100
AcDb2dPolyline
 66
     1
 10
0.0
 20
0.0
 30
0.0
  0
VERTEX
  5
300AB
330
300AA
100
AcDbEntity
  8
姿図
100
AcDbVertex
100
AcDb2dVertex
 10
2799.010525110537
 20
-1329.332593195385
 30
0.0
  0
VERTEX
  5
300AC
330
300AA
100
AcDbEntity
  8
姿図
100
AcDbVertex
100
AcDb2dVertex
 10
2799.077187708195
 20
-1322.894571005714
 30
0.0
  0
VERTEX
  5
300AD
330
300AA
100
AcDbEntity
  8
姿図
100
AcDbVertex
100
AcDb2dVertex
 10
2802.356046166254
 20
-1304.240567118535
 30
0.0
  0
SEQEND
  5
300AE
330
300AA
100
AcDbEntity
  8
姿図
  0
SPLINE
  5
300AF
330
18
100
AcDbEntity
  8
姿図
100
AcDbSpline
210
0.0
220
0.0
230
1.0
 70
     8
 71
     3
 72
    11
 73
     7
 74
     0
 42
0.000000001
 43
0.0000000001
 40
2.52747855909131
 40
2.52747855909131
 40
2.52747855909131
 40
2.52747855909131
 40
3.0
 40
3.0
 40
3.0
 40
4.0
 40
4.0
 40
4.0
 40
4.0
 10
2809.32136887106
 20
-1303.269519811446
 30
0.0
 10
2809.479122228234
 20
-1303.367466704353
 30
0.0
 10
2809.575427183021
 20
-1303.498157128841
 30
0.0
 10
2809.575427183021
 20
-1303.641654881583
 30
0.0
 10
2809.575427183021
 20
-1303.715896689308
 30
0.0
 10
2809.571982087534
 20
-1303.796684178458
 30
0.0
 10
2809.558890724687
 20
-1303.876438138961
 30
0.0
  0
POLYLINE
  5
300B0
330
18
100
AcDbEntity
  8
姿図
100
AcDb2dPolyline
 66
     1
 10
0.0
 20
0.0
 30
0.0
  0
VERTEX
  5
300B1
330
300B0
100
AcDbEntity
  8
姿図
100
AcDbVertex
100
AcDb2dVertex
 10
2819.421977373533
 20
-1303.545607518895
 30
0.0
  0
VERTEX
  5
300B2
330
300B0
100
AcDbEntity
  8
姿図
100
AcDbVertex
100
AcDb2dVertex
 10
2823.22679030151
 20
-1318.224916329065
 30
0.0
  0
VERTEX
  5
300B3
330
300B0
100
AcDbEntity
  8
姿図
100
AcDbVertex
100
AcDb2dVertex
 10
2823.76009108276
 20
-1346.444382474898
 30
0.0
  0
SEQEND
  5
300B4
330
300B0
100
AcDbEntity
  8
姿図
  0
POLYLINE
  5
300B5
330
18
100
AcDbEntity
  8
姿図
100
AcDb2dPolyline
 66
     1
 10
0.0
 20
0.0
 30
0.0
  0
VERTEX
  5
300B6
330
300B5
100
AcDbEntity
  8
姿図
100
AcDbVertex
100
AcDb2dVertex
 10
2819.881591423281
 20
-1303.601759392654
 30
0.0
  0
VERTEX
  5
300B7
330
300B5
100
AcDbEntity
  8
姿図
100
AcDbVertex
100
AcDb2dVertex
 10
2823.660183313662
 20
-1318.558057062572
 30
0.0
  0
VERTEX
  5
300B8
330
300B5
100
AcDbEntity
  8
姿図
100
AcDbVertex
100
AcDb2dVertex
 10
2824.19417311401
 20
-1346.14397014851
 30
0.0
  0
SEQEND
  5
300B9
330
300B5
100
AcDbEntity
  8
姿図
  0
POLYLINE
  5
300BA
330
18
100
AcDbEntity
  8
姿図
100
AcDb2dPolyline
 66
     1
 10
0.0
 20
0.0
 30
0.0
  0
VERTEX
  5
300BB
330
300BA
100
AcDbEntity
  8
姿図
100
AcDbVertex
100
AcDb2dVertex
 10
2828.263519902204
 20
-1347.11135296101
 30
0.0
  0
VERTEX
  5
300BC
330
300BA
100
AcDbEntity
  8
姿図
100
AcDbVertex
100
AcDb2dVertex
 10
2828.263519902204
 20
-1319.424326322555
 30
0.0
  0
VERTEX
  5
300BD
330
300BA
100
AcDbEntity
  8
姿図
100
AcDbVertex
100
AcDb2dVertex
 10
2825.424586231183
 20
-1304.829695938129
 30
0.0
  0
SEQEND
  5
300BE
330
300BA
100
AcDbEntity
  8
姿図
  0
LINE
  5
300BF
330
18
100
AcDbEntity
  8
0
 62
     8
100
AcDbLine
 10
2799.444090377464
 20
-1323.028068455802
 30
0.0
 11
2804.080844392221
 21
-1323.661793770471
 31
0.0
  0
ELLIPSE
  5
300C0
330
18
100
AcDbEntity
  8
0
 62
     8
100
AcDbEllipse
 10
2826.249517081023
 20
-1322.301928454716
 30
0.0
 11
0.1589911566840278
 21
-0.9710862901475694
 31
0.0
210
0.0
220
0.0
230
1.0
 40
0.6660672558886883
 41
0.0
 42
6.283185307179586
  0
SPLINE
  5
300C1
330
18
100
AcDbEntity
  8
0
 62
     8
100
AcDbSpline
210
0.0
220
0.0
230
1.0
 70
     8
 71
     3
 72
    11
 73
     7
 74
     0
 42
0.000000001
 43
0.0000000001
 40
0.0
 40
0.0
 40
0.0
 40
0.0
 40
1.0
 40
1.0
 40
1.0
 40
2.0
 40
2.0
 40
2.0
 40
2.0
 10
2825.788046540659
 20
-1321.560285523944
 30
0.0
 10
2825.990273645693
 20
-1321.706013063006
 30
0.0
 10
2826.153226662187
 20
-1321.984376778284
 30
0.0
 10
2826.208348189964
 20
-1322.321651626374
 30
0.0
 10
2826.265192265485
 20
-1322.668228232277
 30
0.0
 10
2826.193878788923
 20
-1322.992239462746
 30
0.0
 10
2826.039883020694
 20
-1323.193777548684
 30
0.0
  0
ELLIPSE
  5
300C2
330
18
100
AcDbEntity
  8
0
 62
     8
100
AcDbEllipse
 10
2793.726265399165
 20
-1351.256491849899
 30
0.0
 11
5.515597873263889
 21
-6.887434895833333
 31
0.0
210
0.0
220
0.0
230
1.0
 40
0.6143749740678309
 41
0.0
 42
6.283185307179586
  0
SPLINE
  5
300C3
330
18
100
AcDbEntity
  8
0
 62
     8
100
AcDbSpline
210
0.0
220
0.0
230
1.0
 70
     8
 71
     3
 72
    14
 73
    10
 74
     0
 42
0.000000001
 43
0.0000000001
 40
0.7843628129428981
 40
0.7843628129428981
 40
0.7843628129428981
 40
0.7843628129428981
 40
1.0
 40
1.0
 40
1.0
 40
2.0
 40
2.0
 40
2.0
 40
2.987633169865947
 40
2.987633169865947
 40
2.987633169865947
 40
2.987633169865947
 10
2793.467677114385
 20
-1334.536290011476
 30
0.0
 10
2793.698062282095
 20
-1334.333282210435
 30
0.0
 10
2793.982109822434
 20
-1334.101554636864
 30
0.0
 10
2794.347760624859
 20
-1333.820519085142
 30
0.0
 10
2797.868303702118
 20
-1331.115085599898
 30
0.0
 10
2804.816372278506
 20
-1333.89768922403
 30
0.0
 10
2809.120330069305
 20
-1339.498036446252
 30
0.0
 10
2813.371742043316
 20
-1345.028784876628
 30
0.0
 10
2814.0439786077
 20
-1351.665781119274
 30
0.0
 10
2810.668749335896
 20
-1354.436052990166
 30
0.0
  0
SPLINE
  5
300C4
330
18
100
AcDbEntity
  8
0
 62
     8
100
AcDbSpline
210
0.0
220
0.0
230
1.0
 70
     8
 71
     3
 72
    14
 73
    10
 74
     0
 42
0.000000001
 43
0.0000000001
 40
0.0
 40
0.0
 40
0.0
 40
0.0
 40
1.0
 40
1.0
 40
1.0
 40
2.0
 40
2.0
 40
2.0
 40
3.0
 40
3.0
 40
3.0
 40
3.0
 10
2810.675446171735
 20
-1354.439760079065
 30
0.0
 10
2813.450470585798
 20
-1352.589399293475
 30
0.0
 10
2814.900166766354
 20
-1351.535544584274
 30
0.0
 10
2815.622258780242
 20
-1350.980884211009
 30
0.0
 10
2817.965957239444
 20
-1349.179099271774
 30
0.0
 10
2818.473075294999
 20
-1345.537633342954
 30
0.0
 10
2817.27969421861
 20
-1341.652254653718
 30
0.0
 10
2817.27969421861
 20
-1341.652254653718
 30
0.0
 10
2818.941608281111
 20
-1339.944865330801
 30
0.0
 10
2818.941608281111
 20
-1339.944865330801
 30
0.0
  0
SPLINE
  5
300C5
330
18
100
AcDbEntity
  8
0
 62
     8
100
AcDbSpline
210
0.0
220
0.0
230
1.0
 70
     8
 71
     3
 72
    17
 73
    13
 74
     0
 42
0.000000001
 43
0.0000000001
 40
0.0
 40
0.0
 40
0.0
 40
0.0
 40
1.0
 40
1.0
 40
1.0
 40
2.0
 40
2.0
 40
2.0
 40
3.0
 40
3.0
 40
3.0
 40
4.0
 40
4.0
 40
4.0
 40
4.0
 10
2793.501989683019
 20
-1334.491279176288
 30
0.0
 10
2794.474367883975
 20
-1333.255523425419
 30
0.0
 10
2797.015987078853
 20
-1330.74749391153
 30
0.0
 10
2798.810709572342
 20
-1329.584429675419
 30
0.0
 10
2803.154458216005
 20
-1326.76909764417
 30
0.0
 10
2809.910634973819
 20
-1330.217982735315
 30
0.0
 10
2814.214592764617
 20
-1335.818329957537
 30
0.0
 10
2814.559446822777
 20
-1336.266881389829
 30
0.0
 10
2814.880529722082
 20
-1336.723356541739
 30
0.0
 10
2815.177841462535
 20
-1337.184999336877
 30
0.0
 10
2815.177841462535
 20
-1337.184999336877
 30
0.0
 10
2818.215726662187
 20
-1335.244032540003
 30
0.0
 10
2818.215726662187
 20
-1335.244032540003
 30
0.0
  0
SPLINE
  5
300C6
330
18
100
AcDbEntity
  8
0
 62
     8
100
AcDbSpline
210
0.0
220
0.0
230
1.0
 70
     8
 71
     3
 72
    11
 73
     7
 74
     0
 42
0.000000001
 43
0.0000000001
 40
0.0
 40
0.0
 40
0.0
 40
0.0
 40
1.0
 40
1.0
 40
1.0
 40
2.0
 40
2.0
 40
2.0
 40
2.0
 10
2828.265414704721
 20
-1347.047618694517
 30
0.0
 10
2828.265414704721
 20
-1348.291298165003
 30
0.0
 10
2827.352464400903
 20
-1349.299333104238
 30
0.0
 10
2826.226262686492
 20
-1349.299333104238
 30
0.0
 10
2825.100060972083
 20
-1349.299333104238
 30
0.0
 10
2824.209503788923
 20
-1347.260181086009
 30
0.0
 10
2824.194000859235
 20
-1346.143970148509
 30
0.0
  0
SPLINE
  5
300C7
330
18
100
AcDbEntity
  8
0
 62
     8
100
AcDbSpline
210
0.0
220
0.0
230
1.0
 70
     8
 71
     3
 72
     8
 73
     4
 74
     0
 42
0.000000001
 43
0.0000000001
 40
0.0
 40
0.0
 40
0.0
 40
0.0
 40
1.0
 40
1.0
 40
1.0
 40
1.0
 10
2826.069510841874
 20
-1349.321726224899
 30
0.0
 10
2824.321469392221
 20
-1349.254546862919
 30
0.0
 10
2823.797125859235
 20
-1347.443460165871
 30
0.0
 10
2823.781622929547
 20
-1346.327249228371
 30
0.0
  0
ELLIPSE
  5
300C8
330
18
100
AcDbEntity
  8
0
 62
     8
100
AcDbEllipse
 10
2826.556475088837
 20
-1346.18117717976
 30
0.0
 11
-0.0001722547743055555
 21
-1.381138780381944
 31
0.0
210
0.0
220
0.0
230
1.0
 40
0.7237465645881003
 41
0.0
 42
6.283185307179586
  0
ELLIPSE
  5
300C9
330
18
100
AcDbEntity
  8
0
 62
     8
100
AcDbEllipse
 10
2826.419015778939
 20
-1346.31519139417
 30
0.0
 11
-0.0001722547743055555
 21
-1.659157986111111
 31
0.0
210
0.0
220
0.0
230
1.0
 40
0.7220722552447066
 41
0.0
 42
6.283185307179586
  0
SPLINE
  5
300CA
330
18
100
AcDbEntity
  8
0
 62
     8
100
AcDbSpline
210
0.0
220
0.0
230
1.0
 70
     8
 71
     3
 72
    11
 73
     7
 74
     0
 42
0.000000001
 43
0.0000000001
 40
0.0
 40
0.0
 40
0.0
 40
0.0
 40
1.0
 40
1.0
 40
1.0
 40
2.0
 40
2.0
 40
2.0
 40
2.0
 10
2816.098715485972
 20
-1350.61363703219
 30
0.0
 10
2818.364899296735
 20
-1348.871107735315
 30
0.0
 10
2818.985016484235
 20
-1345.368479154586
 30
0.0
 10
2817.990417417395
 20
-1341.599889202329
 30
0.0
 10
2817.990417417395
 20
-1341.599889202329
 30
0.0
 10
2817.351696714269
 20
-1341.932340916739
 30
0.0
 10
2817.351696714269
 20
-1341.932340916739
 30
0.0
  0
SPLINE
  5
300CB
330
18
100
AcDbEntity
  8
0
 62
     8
100
AcDbSpline
210
0.0
220
0.0
230
1.0
 70
     8
 71
     3
 72
    17
 73
    13
 74
     0
 42
0.000000001
 43
0.0000000001
 40
0.0
 40
0.0
 40
0.0
 40
0.0
 40
1.0
 40
1.0
 40
1.0
 40
2.0
 40
2.0
 40
2.0
 40
3.0
 40
3.0
 40
3.0
 40
4.0
 40
4.0
 40
4.0
 40
4.0
 10
2815.087579960798
 20
-1337.006887900246
 30
0.0
 10
2815.087579960798
 20
-1337.006887900246
 30
0.0
 10
2815.659465811491
 20
-1336.470831042607
 30
0.0
 10
2815.659465811491
 20
-1336.470831042607
 30
0.0
 10
2815.410385407847
 20
-1336.093593086878
 30
0.0
 10
2815.144768545867
 20
-1335.720833755281
 30
0.0
 10
2814.862615225554
 20
-1335.353931086009
 30
0.0
 10
2810.558657434756
 20
-1329.753583863787
 30
0.0
 10
2803.630914921735
 20
-1326.401505955801
 30
0.0
 10
2799.287166278072
 20
-1329.216837987051
 30
0.0
 10
2799.161764802378
 20
-1329.298142240523
 30
0.0
 10
2799.032745976423
 20
-1329.38599217542
 30
0.0
 10
2798.900971074079
 20
-1329.479354263093
 30
0.0
  0
ELLIPSE
  5
300CC
330
18
100
AcDbEntity
  8
0
 62
     8
100
AcDbEllipse
 10
2821.179714563662
 20
-1336.592442913266
 30
0.0
 11
0.0001722547743055557
 21
-1.451763237847223
 31
0.0
210
0.0
220
0.0
230
1.0
 40
0.6963692404707118
 41
0.0
 42
6.283185307179586
  0
SPLINE
  5
300CD
330
18
100
AcDbEntity
  8
0
 62
     8
100
AcDbSpline
210
0.0
220
0.0
230
1.0
 70
     8
 71
     3
 72
    20
 73
    16
 74
     0
 42
0.000000001
 43
0.0000000001
 40
0.0
 40
0.0
 40
0.0
 40
0.0
 40
1.0
 40
1.0
 40
1.0
 40
2.0
 40
2.0
 40
2.0
 40
3.0
 40
3.0
 40
3.0
 40
4.0
 40
4.0
 40
4.0
 40
5.0
 40
5.0
 40
5.0
 40
5.0
 10
2825.681593090137
 20
-1349.295198989655
 30
0.0
 10
2825.252334192569
 20
-1349.295198989655
 30
0.0
 10
2824.333527226423
 20
-1349.76269844712
 30
0.0
 10
2822.968235885276
 20
-1344.95816828219
 30
0.0
 10
2822.716054895694
 20
-1344.07036717542
 30
0.0
 10
2820.133955828854
 20
-1341.830021580801
 30
0.0
 10
2820.030258454722
 20
-1341.588175877676
 30
0.0
 10
2818.92920593736
 20
-1339.020546211878
 30
0.0
 10
2818.44069139743
 20
-1337.278016915002
 30
0.0
 10
2818.492367829721
 20
-1335.781811945385
 30
0.0
 10
2818.532675446909
 20
-1334.613235556496
 30
0.0
 10
2819.306788402638
 20
-1333.585563572989
 30
0.0
 10
2820.376146041528
 20
-1333.585563572989
 30
0.0
 10
2821.178164270693
 20
-1333.585563572989
 30
0.0
 10
2821.86614983927
 20
-1334.11851984469
 30
0.0
 10
2822.160016484234
 20
-1334.878507908926
 30
0.0
  0
SPLINE
  5
300CE
330
18
100
AcDbEntity
  8
0
 62
     8
100
AcDbSpline
210
0.0
220
0.0
230
1.0
 70
     8
 71
     3
 72
    20
 73
    16
 74
     0
 42
0.000000001
 43
0.0000000001
 40
0.0
 40
0.0
 40
0.0
 40
0.0
 40
1.0
 40
1.0
 40
1.0
 40
2.0
 40
2.0
 40
2.0
 40
3.0
 40
3.0
 40
3.0
 40
4.0
 40
4.0
 40
4.0
 40
5.0
 40
5.0
 40
5.0
 40
5.0
 10
2825.213749123124
 20
-1349.315180543475
 30
0.0
 10
2824.784490225554
 20
-1349.315180543475
 30
0.0
 10
2823.865683259409
 20
-1349.783024510488
 30
0.0
 10
2822.500391918263
 20
-1344.978494345558
 30
0.0
 10
2822.248210928679
 20
-1344.090348729238
 30
0.0
 10
2819.666111861839
 20
-1341.85034764417
 30
0.0
 10
2819.562414487707
 20
-1341.608501941044
 30
0.0
 10
2818.461361970346
 20
-1339.040527765697
 30
0.0
 10
2817.972847430415
 20
-1337.297998468822
 30
0.0
 10
2818.024523862708
 20
-1335.802138008753
 30
0.0
 10
2818.064831479894
 20
-1334.633561619863
 30
0.0
 10
2818.838944435625
 20
-1333.605545126808
 30
0.0
 10
2819.908302074512
 20
-1333.605545126808
 30
0.0
 10
2819.954121844479
 20
-1333.605545126808
 30
0.0
 10
2819.999597104895
 20
-1333.607267674551
 30
0.0
 10
2820.044727855764
 20
-1333.610712770037
 30
0.0
  0
SPLINE
  5
300CF
330
18
100
AcDbEntity
  8
0
 62
     8
100
AcDbSpline
210
0.0
220
0.0
230
1.0
 70
     8
 71
     3
 72
    11
 73
     7
 74
     0
 42
0.000000001
 43
0.0000000001
 40
0.0
 40
0.0
 40
0.0
 40
0.0
 40
1.0
 40
1.0
 40
1.0
 40
2.0
 40
2.0
 40
2.0
 40
2.0
 10
2821.72007779066
 20
-1343.851259102502
 30
0.0
 10
2821.314934561492
 20
-1344.472754328197
 30
0.0
 10
2820.461928919132
 20
-1345.45426203219
 30
0.0
 10
2819.4029065667
 20
-1346.485034601634
 30
0.0
 10
2818.938507695173
 20
-1346.937031129412
 30
0.0
 10
2818.484788619653
 20
-1347.349753568649
 30
0.0
 10
2818.06827657538
 20
-1347.703564875072
 30
0.0
  0
SPLINE
  5
300D0
330
18
100
AcDbEntity
  8
0
 62
     8
100
AcDbSpline
210
0.0
220
0.0
230
1.0
 70
     8
 71
     3
 72
    11
 73
     7
 74
     0
 42
0.000000001
 43
0.0000000001
 40
0.0
 40
0.0
 40
0.0
 40
0.0
 40
1.0
 40
1.0
 40
1.0
 40
2.0
 40
2.0
 40
2.0
 40
2.0
 10
2818.382469283715
 20
-1345.187956151114
 30
0.0
 10
2818.561614248992
 20
-1344.98779610337
 30
0.0
 10
2818.751094500728
 20
-1344.766620973162
 30
0.0
 10
2818.944019847951
 20
-1344.531665461009
 30
0.0
 10
2819.800470585798
 20
-1343.489868586009
 30
0.0
 10
2820.400950729026
 20
-1342.568650053023
 30
0.0
 10
2820.285884539791
 20
-1342.474254436704
 30
0.0
  0
SPLINE
  5
300D1
330
18
100
AcDbEntity
  8
0
 62
     8
100
AcDbSpline
210
0.0
220
0.0
230
1.0
 70
     8
 71
     3
 72
    11
 73
     7
 74
     0
 42
0.000000001
 43
0.0000000001
 40
0.0
 40
0.0
 40
0.0
 40
0.0
 40
1.0
 40
1.0
 40
1.0
 40
2.0
 40
2.0
 40
2.0
 40
2.0
 10
2818.414853181284
 20
-1344.80451702351
 30
0.0
 10
2818.58194031236
 20
-1344.619170886357
 30
0.0
 10
2818.758329201249
 20
-1344.413843195385
 30
0.0
 10
2818.937474166526
 20
-1344.195424141565
 30
0.0
 10
2819.733635733367
 20
-1343.227352309968
 30
0.0
 10
2820.284851011145
 20
-1342.36607843844
 30
0.0
 10
2820.16978482191
 20
-1342.271682822121
 30
0.0
  0
SPLINE
  5
300D2
330
18
100
AcDbEntity
  8
0
 62
     8
100
AcDbSpline
210
0.0
220
0.0
230
1.0
 70
     8
 71
     3
 72
    11
 73
     7
 74
     0
 42
0.000000001
 43
0.0000000001
 40
0.0
 40
0.0
 40
0.0
 40
0.0
 40
1.0
 40
1.0
 40
1.0
 40
2.0
 40
2.0
 40
2.0
 40
2.0
 10
2818.169906892222
 20
-1342.375380196253
 30
0.0
 10
2818.339405590139
 20
-1342.273405369864
 30
0.0
 10
2818.565403854026
 20
-1342.119065092086
 30
0.0
 10
2818.806905047604
 20
-1341.937164050419
 30
0.0
 10
2819.086302291527
 20
-1341.726668716218
 30
0.0
 10
2819.324358389618
 20
-1341.525475139829
 30
0.0
 10
2819.466640833194
 20
-1341.384570734447
 30
0.0
  0
SPLINE
  5
300D3
330
18
100
AcDbEntity
  8
0
 62
     8
100
AcDbSpline
210
0.0
220
0.0
230
1.0
 70
     8
 71
     3
 72
    11
 73
     7
 74
     0
 42
0.000000001
 43
0.0000000001
 40
0.0
 40
0.0
 40
0.0
 40
0.0
 40
1.0
 40
1.0
 40
1.0
 40
2.0
 40
2.0
 40
2.0
 40
2.0
 10
2818.048984040659
 20
-1341.815207670211
 30
0.0
 10
2818.199534713401
 20
-1341.694973837746
 30
0.0
 10
2818.384880850555
 20
-1341.533743368996
 30
0.0
 10
2818.579873255068
 20
-1341.350464289134
 30
0.0
 10
2818.842045021561
 20
-1341.104139961878
 30
0.0
 10
2819.063564661319
 20
-1340.871940526114
 30
0.0
 10
2819.194133780241
 20
-1340.712432605107
 30
0.0
  0
SPLINE
  5
300D4
330
18
100
AcDbEntity
  8
0
 62
     8
100
AcDbSpline
210
0.0
220
0.0
230
1.0
 70
     8
 71
     3
 72
    17
 73
    13
 74
     0
 42
0.000000001
 43
0.0000000001
 40
0.0
 40
0.0
 40
0.0
 40
0.0
 40
1.0
 40
1.0
 40
1.0
 40
2.0
 40
2.0
 40
2.0
 40
3.0
 40
3.0
 40
3.0
 40
4.0
 40
4.0
 40
4.0
 40
4.0
 10
2801.889246898732
 20
-1328.33179295667
 30
0.0
 10
2802.373799578854
 20
-1327.932850899377
 30
0.0
 10
2804.767968686926
 20
-1326.108672839482
 30
0.0
 10
2808.569803810623
 20
-1324.694633397208
 30
0.0
 10
2812.426932716874
 20
-1323.260095636791
 30
0.0
 10
2815.513393762881
 20
-1322.659615493562
 30
0.0
 10
2815.915091896562
 20
-1323.095592327329
 30
0.0
 10
2815.991573016353
 20
-1323.178791383318
 30
0.0
 10
2816.564147886145
 20
-1324.042649076461
 30
0.0
 10
2817.166695086665
 20
-1324.084851496166
 30
0.0
 10
2818.791057608366
 20
-1324.198711901982
 30
0.0
 10
2821.800693025034
 20
-1325.454793716217
 30
0.0
 10
2823.408863597951
 20
-1327.334093303891
 30
0.0
  0
SPLINE
  5
300D5
330
18
100
AcDbEntity
  8
0
 62
     8
100
AcDbSpline
210
0.0
220
0.0
230
1.0
 70
     8
 71
     3
 72
    14
 73
    10
 74
     0
 42
0.000000001
 43
0.0000000001
 40
0.0
 40
0.0
 40
0.0
 40
0.0
 40
1.0
 40
1.0
 40
1.0
 40
2.0
 40
2.0
 40
2.0
 40
3.0
 40
3.0
 40
3.0
 40
3.0
 10
2804.50769172295
 20
-1328.316979046079
 30
0.0
 10
2804.846000099687
 20
-1328.117852526982
 30
0.0
 10
2808.542243046735
 20
-1325.993262140697
 30
0.0
 10
2812.263979700381
 20
-1325.966045886357
 30
0.0
 10
2817.238353072776
 20
-1325.929527874204
 30
0.0
 10
2821.685282326248
 20
-1331.273215482711
 30
0.0
 10
2822.211692916527
 20
-1335.086936185836
 30
0.0
 10
2822.325725577116
 20
-1335.913070083405
 30
0.0
 10
2823.608334626596
 20
-1339.333360882016
 30
0.0
 10
2823.608334626596
 20
-1339.333360882016
 30
0.0
  0
LINE
  5
300D6
330
18
100
AcDbEntity
  8
0
 62
     8
100
AcDbLine
 10
2823.152203984234
 20
-1318.04267077785
 30
0.0
 11
2821.27083733927
 21
-1323.002230239655
 31
0.0
  0
LINE
  5
300D7
330
18
100
AcDbEntity
  8
0
 62
     8
100
AcDbLine
 10
2823.152203984234
 20
-1327.106717001808
 30
0.0
 11
2823.380269305416
 21
-1326.821463095559
 31
0.0
  0
LINE
  5
300D8
330
18
100
AcDbEntity
  8
0
 62
     8
100
AcDbLine
 10
2822.496602313229
 20
-1326.479709623336
 30
0.0
 11
2823.380269305416
 21
-1325.681480999204
 31
0.0
  0
POLYLINE
  5
300D9
330
18
100
AcDbEntity
  8
0
 62
     8
100
AcDb2dPolyline
 66
     1
 10
0.0
 20
0.0
 30
0.0
  0
VERTEX
  5
300DA
330
300D9
100
AcDbEntity
  8
0
 62
     8
100
AcDbVertex
100
AcDb2dVertex
 10
2821.071366310625
 20
-1325.453415678023
 30
0.0
  0
VERTEX
  5
300DB
330
300D9
100
AcDbEntity
  8
0
 62
     8
100
AcDbVertex
100
AcDb2dVertex
 10
2823.1236096917
 20
-1323.857302939308
 30
0.0
  0
VERTEX
  5
300DC
330
300D9
100
AcDbEntity
  8
0
 62
     8
100
AcDbVertex
100
AcDb2dVertex
 10
2823.323080720347
 20
-1323.999757637659
 30
0.0
  0
SEQEND
  5
300DD
330
300D9
100
AcDbEntity
  8
0
 62
     8
  0
POLYLINE
  5
300DE
330
18
100
AcDbEntity
  8
0
 62
     8
100
AcDb2dPolyline
 66
     1
 10
0.0
 20
0.0
 30
0.0
  0
VERTEX
  5
300DF
330
300DE
100
AcDbEntity
  8
0
 62
     8
100
AcDbVertex
100
AcDb2dVertex
 10
2819.361220911319
 20
-1324.626765016131
 30
0.0
  0
VERTEX
  5
300E0
330
300DE
100
AcDbEntity
  8
0
 62
     8
100
AcDbVertex
100
AcDb2dVertex
 10
2821.527496952985
 20
-1323.002230239655
 30
0.0
  0
VERTEX
  5
300E1
330
300DE
100
AcDbEntity
  8
0
 62
     8
100
AcDbVertex
100
AcDb2dVertex
 10
2822.097660255936
 20
-1324.22782295884
 30
0.0
  0
VERTEX
  5
300E2
330
300DE
100
AcDbEntity
  8
0
 62
     8
100
AcDbVertex
100
AcDb2dVertex
 10
2822.610634973818
 20
-1324.284839289134
 30
0.0
  0
SEQEND
  5
300E3
330
300DE
100
AcDbEntity
  8
0
 62
     8
  0
POLYLINE
  5
300E4
330
18
100
AcDbEntity
  8
0
 62
     8
100
AcDb2dPolyline
 66
     1
 10
0.0
 20
0.0
 30
0.0
  0
VERTEX
  5
300E5
330
300E4
100
AcDbEntity
  8
0
 62
     8
100
AcDbVertex
100
AcDb2dVertex
 10
2818.164050229896
 20
-1324.199228666305
 30
0.0
  0
VERTEX
  5
300E6
330
300E4
100
AcDbEntity
  8
0
 62
     8
100
AcDbVertex
100
AcDb2dVertex
 10
2820.016822582325
 20
-1322.774164918475
 30
0.0
  0
VERTEX
  5
300E7
330
300E4
100
AcDbEntity
  8
0
 62
     8
100
AcDbVertex
100
AcDb2dVertex
 10
2820.501547517222
 20
-1323.714675986183
 30
0.0
  0
SEQEND
  5
300E8
330
300E4
100
AcDbEntity
  8
0
 62
     8
  0
POLYLINE
  5
300E9
330
18
100
AcDbEntity
  8
0
 62
     8
100
AcDb2dPolyline
 66
     1
 10
0.0
 20
0.0
 30
0.0
  0
VERTEX
  5
300EA
330
300E9
100
AcDbEntity
  8
0
 62
     8
100
AcDbVertex
100
AcDb2dVertex
 10
2817.252133454721
 20
-1324.056773967954
 30
0.0
  0
VERTEX
  5
300EB
330
300E9
100
AcDbEntity
  8
0
 62
     8
100
AcDbVertex
100
AcDb2dVertex
 10
2818.762807825382
 20
-1323.030652277416
 30
0.0
  0
VERTEX
  5
300EC
330
300E9
100
AcDbEntity
  8
0
 62
     8
100
AcDbVertex
100
AcDb2dVertex
 10
2819.133155590137
 20
-1323.401172296947
 30
0.0
  0
SEQEND
  5
300ED
330
300E9
100
AcDbEntity
  8
0
 62
     8
  0
POLYLINE
  5
300EE
330
18
100
AcDbEntity
  8
0
 62
     8
100
AcDb2dPolyline
 66
     1
 10
0.0
 20
0.0
 30
0.0
  0
VERTEX
  5
300EF
330
300EE
100
AcDbEntity
  8
0
 62
     8
100
AcDbVertex
100
AcDb2dVertex
 10
2814.287628788923
 20
-1334.659055326461
 30
0.0
  0
VERTEX
  5
300F0
330
300EE
100
AcDbEntity
  8
0
 62
     8
100
AcDbVertex
100
AcDb2dVertex
 10
2815.285328441701
 20
-1333.918015287398
 30
0.0
  0
VERTEX
  5
300F1
330
300EE
100
AcDbEntity
  8
0
 62
     8
100
AcDbVertex
100
AcDb2dVertex
 10
2819.503847864443
 20
-1330.269659167607
 30
0.0
  0
VERTEX
  5
300F2
330
300EE
100
AcDbEntity
  8
0
 62
     8
100
AcDbVertex
100
AcDb2dVertex
 10
2819.643374231631
 20
-1330.13254436726
 30
0.0
  0
SEQEND
  5
300F3
330
300EE
100
AcDbEntity
  8
0
 62
     8
  0
POLYLINE
  5
300F4
330
18
100
AcDbEntity
  8
0
 62
     8
100
AcDb2dPolyline
 66
     1
 10
0.0
 20
0.0
 30
0.0
  0
VERTEX
  5
300F5
330
300F4
100
AcDbEntity
  8
0
 62
     8
100
AcDbVertex
100
AcDb2dVertex
 10
2813.831498146562
 20
-1334.146080608579
 30
0.0
  0
VERTEX
  5
300F6
330
300F4
100
AcDbEntity
  8
0
 62
     8
100
AcDbVertex
100
AcDb2dVertex
 10
2815.427955394825
 20
-1332.720844605974
 30
0.0
  0
VERTEX
  5
300F7
330
300F4
100
AcDbEntity
  8
0
 62
     8
100
AcDbVertex
100
AcDb2dVertex
 10
2819.389815203854
 20
-1330.098437921947
 30
0.0
  0
VERTEX
  5
300F8
330
300F4
100
AcDbEntity
  8
0
 62
     8
100
AcDbVertex
100
AcDb2dVertex
 10
2819.544844500729
 20
-1330.005764853371
 30
0.0
  0
SEQEND
  5
300F9
330
300F4
100
AcDbEntity
  8
0
 62
     8
  0
POLYLINE
  5
300FA
330
18
100
AcDbEntity
  8
0
 62
     8
100
AcDb2dPolyline
 66
     1
 10
0.0
 20
0.0
 30
0.0
  0
VERTEX
  5
300FB
330
300FA
100
AcDbEntity
  8
0
 62
     8
100
AcDbVertex
100
AcDb2dVertex
 10
2811.180841679548
 20
-1331.552268217086
 30
0.0
  0
VERTEX
  5
300FC
330
300FA
100
AcDbEntity
  8
0
 62
     8
100
AcDbVertex
100
AcDb2dVertex
 10
2813.632027117915
 20
-1329.699495864655
 30
0.0
  0
VERTEX
  5
300FD
330
300FA
100
AcDbEntity
  8
0
 62
     8
100
AcDbVertex
100
AcDb2dVertex
 10
2814.316223081457
 20
-1329.32880359035
 30
0.0
  0
VERTEX
  5
300FE
330
300FA
100
AcDbEntity
  8
0
 62
     8
100
AcDbVertex
100
AcDb2dVertex
 10
2817.052662426076
 20
-1328.530919475766
 30
0.0
  0
VERTEX
  5
300FF
330
300FA
100
AcDbEntity
  8
0
 62
     8
100
AcDbVertex
100
AcDb2dVertex
 10
2817.757528962534
 20
-1328.274948881148
 30
0.0
  0
SEQEND
  5
30100
330
300FA
100
AcDbEntity
  8
0
 62
     8
  0
POLYLINE
  5
30101
330
18
100
AcDbEntity
  8
0
 62
     8
100
AcDb2dPolyline
 66
     1
 10
0.0
 20
0.0
 30
0.0
  0
VERTEX
  5
30102
330
30101
100
AcDbEntity
  8
0
 62
     8
100
AcDbVertex
100
AcDb2dVertex
 10
2810.696461254201
 20
-1331.18157594278
 30
0.0
  0
VERTEX
  5
30103
330
30101
100
AcDbEntity
  8
0
 62
     8
100
AcDbVertex
100
AcDb2dVertex
 10
2811.836443350555
 20
-1330.183876290003
 30
0.0
  0
VERTEX
  5
30104
330
30101
100
AcDbEntity
  8
0
 62
     8
100
AcDbVertex
100
AcDb2dVertex
 10
2812.805548710797
 20
-1329.55686891153
 30
0.0
  0
VERTEX
  5
30105
330
30101
100
AcDbEntity
  8
0
 62
     8
100
AcDbVertex
100
AcDb2dVertex
 10
2814.259034496388
 20
-1328.873017457537
 30
0.0
  0
VERTEX
  5
30106
330
30101
100
AcDbEntity
  8
0
 62
     8
100
AcDbVertex
100
AcDb2dVertex
 10
2817.280383237708
 20
-1328.10338312594
 30
0.0
  0
VERTEX
  5
30107
330
30101
100
AcDbEntity
  8
0
 62
     8
100
AcDbVertex
100
AcDb2dVertex
 10
2817.461939769826
 20
-1328.035514744864
 30
0.0
  0
SEQEND
  5
30108
330
30101
100
AcDbEntity
  8
0
 62
     8
  0
POLYLINE
  5
30109
330
18
100
AcDbEntity
  8
0
 62
     8
100
AcDb2dPolyline
 66
     1
 10
0.0
 20
0.0
 30
0.0
  0
VERTEX
  5
3010A
330
30109
100
AcDbEntity
  8
0
 62
     8
100
AcDbVertex
100
AcDb2dVertex
 10
2807.960021909582
 20
-1329.50002483601
 30
0.0
  0
VERTEX
  5
3010B
330
30109
100
AcDbEntity
  8
0
 62
     8
100
AcDbVertex
100
AcDb2dVertex
 10
2810.06910936618
 20
-1328.046194540871
 30
0.0
  0
VERTEX
  5
3010C
330
30109
100
AcDbEntity
  8
0
 62
     8
100
AcDbVertex
100
AcDb2dVertex
 10
2810.58242859361
 20
-1327.789879436704
 30
0.0
  0
VERTEX
  5
3010D
330
30109
100
AcDbEntity
  8
0
 62
     8
100
AcDbVertex
100
AcDb2dVertex
 10
2815.856525273298
 20
-1327.119463855106
 30
0.0
  0
VERTEX
  5
3010E
330
30109
100
AcDbEntity
  8
0
 62
     8
100
AcDbVertex
100
AcDb2dVertex
 10
2816.026712990311
 20
-1327.078811728371
 30
0.0
  0
SEQEND
  5
3010F
330
30109
100
AcDbEntity
  8
0
 62
     8
  0
POLYLINE
  5
30110
330
18
100
AcDbEntity
  8
0
 62
     8
100
AcDb2dPolyline
 66
     1
 10
0.0
 20
0.0
 30
0.0
  0
VERTEX
  5
30111
330
30110
100
AcDbEntity
  8
0
 62
     8
100
AcDbVertex
100
AcDb2dVertex
 10
2807.460999828419
 20
-1329.274715591218
 30
0.0
  0
VERTEX
  5
30112
330
30110
100
AcDbEntity
  8
0
 62
     8
100
AcDbVertex
100
AcDb2dVertex
 10
2808.664027172169
 20
-1328.284939658058
 30
0.0
  0
VERTEX
  5
30113
330
30110
100
AcDbEntity
  8
0
 62
     8
100
AcDbVertex
100
AcDb2dVertex
 10
2809.541148482932
 20
-1327.808827461877
 30
0.0
  0
VERTEX
  5
30114
330
30110
100
AcDbEntity
  8
0
 62
     8
100
AcDbVertex
100
AcDb2dVertex
 10
2810.543499014616
 20
-1327.458116741391
 30
0.0
  0
VERTEX
  5
30115
330
30110
100
AcDbEntity
  8
0
 62
     8
100
AcDbVertex
100
AcDb2dVertex
 10
2815.530619240311
 20
-1326.956855348163
 30
0.0
  0
VERTEX
  5
30116
330
30110
100
AcDbEntity
  8
0
 62
     8
100
AcDbVertex
100
AcDb2dVertex
 10
2815.731123797604
 20
-1326.937907322989
 30
0.0
  0
SEQEND
  5
30117
330
30110
100
AcDbEntity
  8
0
 62
     8
  0
POLYLINE
  5
30118
330
18
100
AcDbEntity
  8
0
 62
     8
100
AcDb2dPolyline
 66
     1
 10
0.0
 20
0.0
 30
0.0
  0
VERTEX
  5
30119
330
30118
100
AcDbEntity
  8
0
 62
     8
100
AcDbVertex
100
AcDb2dVertex
 10
2805.092668936493
 20
-1328.460295018301
 30
0.0
  0
VERTEX
  5
3011A
330
30118
100
AcDbEntity
  8
0
 62
     8
100
AcDbVertex
100
AcDb2dVertex
 10
2805.694182608367
 20
-1327.959033625072
 30
0.0
  0
VERTEX
  5
3011B
330
30118
100
AcDbEntity
  8
0
 62
     8
100
AcDbVertex
100
AcDb2dVertex
 10
2806.395948558887
 20
-1327.595920560836
 30
0.0
  0
VERTEX
  5
3011C
330
30118
100
AcDbEntity
  8
0
 62
     8
100
AcDbVertex
100
AcDb2dVertex
 10
2807.022439173037
 20
-1327.407818347294
 30
0.0
  0
VERTEX
  5
3011D
330
30118
100
AcDbEntity
  8
0
 62
     8
100
AcDbVertex
100
AcDb2dVertex
 10
2809.666377703853
 20
-1327.169762249204
 30
0.0
  0
VERTEX
  5
3011E
330
30118
100
AcDbEntity
  8
0
 62
     8
100
AcDbVertex
100
AcDb2dVertex
 10
2815.054507044131
 20
-1326.768753134621
 30
0.0
  0
VERTEX
  5
3011F
330
30118
100
AcDbEntity
  8
0
 62
     8
100
AcDbVertex
100
AcDb2dVertex
 10
2815.337004873992
 20
-1326.712942587746
 30
0.0
  0
SEQEND
  5
30120
330
30118
100
AcDbEntity
  8
0
 62
     8
  0
SPLINE
  5
30121
330
18
100
AcDbEntity
  8
0
 62
     8
100
AcDbSpline
210
0.0
220
0.0
230
1.0
 70
     8
 71
     3
 72
    14
 73
    10
 74
     0
 42
0.000000001
 43
0.0000000001
 40
0.0
 40
0.0
 40
0.0
 40
0.0
 40
1.0
 40
1.0
 40
1.0
 40
2.0
 40
2.0
 40
2.0
 40
3.0
 40
3.0
 40
3.0
 40
3.0
 10
2808.304531458194
 20
-1326.660232626808
 30
0.0
 10
2809.466562165658
 20
-1326.304009753545
 30
0.0
 10
2810.779143545867
 20
-1326.03219171969
 30
0.0
 10
2812.094825512012
 20
-1326.022545452329
 30
0.0
 10
2817.06919888441
 20
-1325.986027440176
 30
0.0
 10
2821.579517894826
 20
-1331.328337010489
 30
0.0
 10
2822.105928485103
 20
-1335.142057713614
 30
0.0
 10
2822.219961145694
 20
-1335.968191611184
 30
0.0
 10
2823.611779722083
 20
-1339.588986967086
 30
0.0
 10
2823.611779722083
 20
-1339.588986967086
 30
0.0
  0
TEXT
  5
3017A
330
18
100
AcDbEntity
  8
文字
100
AcDbText
 10
2776.983901730527
 20
-1373.4066501745
 30
0.0
 40
4.5
  1
SL-513/80DFC
  7
EXTFONT
100
AcDbText
  0
ENDSEC
  0
SECTION
  2
OBJECTS
  0
DICTIONARY
  5
C
330
0
100
AcDbDictionary
281
     1
  3
ACAD_GROUP
350
D
  3
ACAD_IMAGE_VARS
350
3084B
  3
ACAD_LAYOUT
350
617
  3
ACAD_MLINESTYLE
350
E
  3
ACAD_PLOTSETTINGS
350
618
  3
ACAD_PLOTSTYLENAME
350
615
  3
ACAD_SCALELIST
350
2C7CA
  3
AcDbVariableDictionary
350
6DE
  3
APPDATA
350
3084A
  3
DWGPROPS
350
3086E
  0
DICTIONARY
  5
9EB
330
2
100
AcDbDictionary
280
     1
281
     1
  3
ACAD_LAYERSTATES
360
9EC
  0
DICTIONARY
  5
2C7F5
330
F
100
AcDbDictionary
280
     1
281
     1
  3
ADSK_XREC_LAYER_RECONCILED
360
2C7F6
  0
DICTIONARY
  5
2C7FB
330
34
100
AcDbDictionary
280
     1
281
     1
  3
ADSK_XREC_LAYER_RECONCILED
360
2C7FC
  0
DICTIONARY
  5
2C803
330
2F4
100
AcDbDictionary
280
     1
281
     1
  3
ADSK_XREC_LAYER_RECONCILED
360
2C804
  0
DICTIONARY
  5
2C807
330
305
100
AcDbDictionary
280
     1
281
     1
  3
ADSK_XREC_LAYER_RECONCILED
360
2C808
  0
DICTIONARY
  5
D
102
{ACAD_REACTORS
330
C
102
}
330
C
100
AcDbDictionary
281
     1
  0
RASTERVARIABLES
  5
3084B
102
{ACAD_REACTORS
330
C
102
}
330
C
100
AcDbRasterVariables
 90
        0
 70
     1
 71
     1
 72
     0
  0
DICTIONARY
  5
617
102
{ACAD_REACTORS
330
C
102
}
330
C
100
AcDbDictionary
281
     1
  3
Model
350
619
  3
ﾚｲｱｳﾄ1
350
61A
  0
DICTIONARY
  5
E
102
{ACAD_REACTORS
330
C
102
}
330
C
100
AcDbDictionary
281
     1
  3
STANDARD
350
1B
  0
DICTIONARY
  5
618
102
{ACAD_REACTORS
330
C
102
}
330
C
100
AcDbDictionary
281
     1
  0
ACDBDICTIONARYWDFLT
  5
615
102
{ACAD_REACTORS
330
C
102
}
330
C
100
AcDbDictionary
281
     1
  3
Normal
350
616
100
AcDbDictionaryWithDefault
340
616
  0
DICTIONARY
  5
2C7CA
102
{ACAD_REACTORS
330
C
102
}
330
C
100
AcDbDictionary
281
     1
  3
A0
350
2C7CB
  3
A1
350
2C7CC
  3
A2
350
2C7CD
  3
A3
350
2C7CE
  3
A4
350
2C7CF
  3
A5
350
2C7D0
  3
A6
350
2C7D1
  3
A7
350
2C7D2
  3
A8
350
2C7D3
  3
A9
350
2C7D4
  3
B0
350
2C7D5
  3
B1
350
2C7D6
  3
B2
350
2C7D7
  3
B3
350
2C7D8
  3
B4
350
2C7D9
  3
B5
350
2C7DA
  3
B6
350
2C7DB
  3
B7
350
2C7DC
  3
B8
350
2C7DD
  3
B9
350
2C7DE
  3
C0
350
2C7DF
  3
C1
350
2C7E0
  3
C2
350
2C7E1
  3
C3
350
2C7E2
  3
C4
350
2C7E3
  3
C5
350
2C7E4
  3
C6
350
2C7E5
  3
C7
350
2C7E6
  3
C8
350
2C7E7
  3
C9
350
2C7E8
  3
D0
350
2C7E9
  3
D1
350
2C7EA
  3
D2
350
2C7EB
  0
DICTIONARY
  5
6DE
102
{ACAD_REACTORS
330
C
102
}
330
C
100
AcDbDictionary
281
     1
  3
DIMASSOC
350
6DF
  3
INDEXCTL
350
2C84B
  3
PROJECTNAME
350
6E0
  3
SORTENTS
350
2C84A
  0
DICTIONARY
  5
3084A
102
{ACAD_REACTORS
330
C
102
}
330
C
100
AcDbDictionary
281
     1
  0
XRECORD
  5
3086E
102
{ACAD_REACTORS
330
C
102
}
330
C
100
AcDbXrecord
280
     1
  1
DWGPROPS COOKIE
  2

  3

  4

  6

  7

  8
SPAX
  9

300
=
301
=
302
=
303
=
304
=
305
=
306
=
307
=
308
=
309
=
 40
0.0
 41
2448636.244629629
 42
2456822.100982975
  1

 90
        0
  0
DICTIONARY
  5
9EC
102
{ACAD_REACTORS
330
9EB
102
}
330
9EB
100
AcDbDictionary
281
     1
  0
XRECORD
  5
2C7F6
102
{ACAD_REACTORS
330
2C7F5
102
}
330
2C7F5
100
AcDbXrecord
280
     1
290
     1
  0
XRECORD
  5
2C7FC
102
{ACAD_REACTORS
330
2C7FB
102
}
330
2C7FB
100
AcDbXrecord
280
     1
290
     1
  0
XRECORD
  5
2C804
102
{ACAD_REACTORS
330
2C803
102
}
330
2C803
100
AcDbXrecord
280
     1
290
     1
  0
XRECORD
  5
2C808
102
{ACAD_REACTORS
330
2C807
102
}
330
2C807
100
AcDbXrecord
280
     1
290
     1
  0
LAYOUT
  5
619
102
{ACAD_REACTORS
330
617
102
}
330
617
100
AcDbPlotSettings
  1

  2
JUST PDF 2.pc3
  4
A4
  6

 40
3.174999952316284
 41
3.174999952316284
 42
3.175003051757812
 43
3.17498779296875
 44
209.8886566162109
 45
297.0530090332031
 46
14.27
 47
9.86
 48
2766.485013901539
 49
-1793.388427745449
140
3116.475450891352
141
-1251.403077468115
142
1.0
143
2.0
 70
 11956
 72
     1
 73
     0
 74
     4
  7
spax form.ctb
 75
    17
147
0.5
148
-2766.485013901539
149
1793.388427745449
100
AcDbLayout
  1
Model
 70
     1
 71
     0
 10
0.0
 20
0.0
 11
12.0
 21
9.0
 12
0.0
 22
0.0
 32
0.0
 14
2776.983901730527
 24
-1373.4066501745
 34
0.0
 15
2828.519846861925
 25
-1293.620625300467
 35
0.0
146
0.0
 13
0.0
 23
0.0
 33
0.0
 16
1.0
 26
0.0
 36
0.0
 17
0.0
 27
1.0
 37
0.0
 76
     0
330
18
331
30828
1001
ACAD_PSEXT
1000
DWG To PDF.pc3
1000
PDF
1000
ファイル
1000

1070
     0
  0
LAYOUT
  5
61A
102
{ACAD_REACTORS
330
617
102
}
330
617
100
AcDbPlotSettings
  1

  2
Canon LASER SHOT LBP-750
  4

  6

 40
0.0
 41
0.0
 42
0.0
 43
0.0
 44
0.0
 45
0.0
 46
0.0
 47
0.0
 48
0.0
 49
0.0
140
0.0
141
0.0
142
1.0
143
1.0
 70
   688
 72
     0
 73
     0
 74
     5
  7
monochrome.ctb
 75
    16
147
1.0
148
0.0
149
0.0
100
AcDbLayout
  1
ﾚｲｱｳﾄ1
 70
     0
 71
     1
 10
0.0
 20
0.0
 11
12.0
 21
9.0
 12
0.0
 22
0.0
 32
0.0
 14
1.000000000000000E+20
 24
1.000000000000000E+20
 34
1.000000000000000E+20
 15
-1.000000000000000E+20
 25
-1.000000000000000E+20
 35
-1.000000000000000E+20
146
0.0
 13
0.0
 23
0.0
 33
0.0
 16
1.0
 26
0.0
 36
0.0
 17
0.0
 27
1.0
 37
0.0
 76
     0
330
15
  0
MLINESTYLE
  5
1B
102
{ACAD_REACTORS
330
E
102
}
330
E
100
AcDbMlineStyle
  2
STANDARD
 70
     0
  3

 62
     0
 51
90.0
 52
90.0
 71
     2
 49
0.5
 62
   256
  6
BYLAYER
 49
-0.5
 62
   256
  6
BYLAYER
  0
ACDBPLACEHOLDER
  5
616
102
{ACAD_REACTORS
330
615
102
}
330
615
  0
SCALE
  5
2C7CB
102
{ACAD_REACTORS
330
2C7CA
102
}
330
2C7CA
100
AcDbScale
 70
     0
300
1:1
140
1.0
141
1.0
290
     1
1001
ACAD
1000
AcRTDxfName
1000
SCALE
1000
AcRTDxfName
1000
SCALE
1000
AcRTDxfName
1000
SCALE
1000
AcRTDxfName
1000
SCALE
  0
SCALE
  5
2C7CC
102
{ACAD_REACTORS
330
2C7CA
102
}
330
2C7CA
100
AcDbScale
 70
     0
300
1:2
140
1.0
141
2.0
290
     0
1001
ACAD
1000
AcRTDxfName
1000
SCALE
1000
AcRTDxfName
1000
SCALE
1000
AcRTDxfName
1000
SCALE
1000
AcRTDxfName
1000
SCALE
  0
SCALE
  5
2C7CD
102
{ACAD_REACTORS
330
2C7CA
102
}
330
2C7CA
100
AcDbScale
 70
     0
300
1:4
140
1.0
141
4.0
290
     0
1001
ACAD
1000
AcRTDxfName
1000
SCALE
1000
AcRTDxfName
1000
SCALE
1000
AcRTDxfName
1000
SCALE
1000
AcRTDxfName
1000
SCALE
  0
SCALE
  5
2C7CE
102
{ACAD_REACTORS
330
2C7CA
102
}
330
2C7CA
100
AcDbScale
 70
     0
300
1:5
140
1.0
141
5.0
290
     0
1001
ACAD
1000
AcRTDxfName
1000
SCALE
1000
AcRTDxfName
1000
SCALE
1000
AcRTDxfName
1000
SCALE
1000
AcRTDxfName
1000
SCALE
  0
SCALE
  5
2C7CF
102
{ACAD_REACTORS
330
2C7CA
102
}
330
2C7CA
100
AcDbScale
 70
     0
300
1:8
140
1.0
141
8.0
290
     0
1001
ACAD
1000
AcRTDxfName
1000
SCALE
1000
AcRTDxfName
1000
SCALE
1000
AcRTDxfName
1000
SCALE
1000
AcRTDxfName
1000
SCALE
  0
SCALE
  5
2C7D0
102
{ACAD_REACTORS
330
2C7CA
102
}
330
2C7CA
100
AcDbScale
 70
     0
300
1:10
140
1.0
141
10.0
290
     0
1001
ACAD
1000
AcRTDxfName
1000
SCALE
1000
AcRTDxfName
1000
SCALE
1000
AcRTDxfName
1000
SCALE
1000
AcRTDxfName
1000
SCALE
  0
SCALE
  5
2C7D1
102
{ACAD_REACTORS
330
2C7CA
102
}
330
2C7CA
100
AcDbScale
 70
     0
300
1:16
140
1.0
141
16.0
290
     0
1001
ACAD
1000
AcRTDxfName
1000
SCALE
1000
AcRTDxfName
1000
SCALE
1000
AcRTDxfName
1000
SCALE
1000
AcRTDxfName
1000
SCALE
  0
SCALE
  5
2C7D2
102
{ACAD_REACTORS
330
2C7CA
102
}
330
2C7CA
100
AcDbScale
 70
     0
300
1:20
140
1.0
141
20.0
290
     0
1001
ACAD
1000
AcRTDxfName
1000
SCALE
1000
AcRTDxfName
1000
SCALE
1000
AcRTDxfName
1000
SCALE
1000
AcRTDxfName
1000
SCALE
  0
SCALE
  5
2C7D3
102
{ACAD_REACTORS
330
2C7CA
102
}
330
2C7CA
100
AcDbScale
 70
     0
300
1:30
140
1.0
141
30.0
290
     0
1001
ACAD
1000
AcRTDxfName
1000
SCALE
1000
AcRTDxfName
1000
SCALE
1000
AcRTDxfName
1000
SCALE
1000
AcRTDxfName
1000
SCALE
  0
SCALE
  5
2C7D4
102
{ACAD_REACTORS
330
2C7CA
102
}
330
2C7CA
100
AcDbScale
 70
     0
300
1:40
140
1.0
141
40.0
290
     0
1001
ACAD
1000
AcRTDxfName
1000
SCALE
1000
AcRTDxfName
1000
SCALE
1000
AcRTDxfName
1000
SCALE
1000
AcRTDxfName
1000
SCALE
  0
SCALE
  5
2C7D5
102
{ACAD_REACTORS
330
2C7CA
102
}
330
2C7CA
100
AcDbScale
 70
     0
300
1:50
140
1.0
141
50.0
290
     0
1001
ACAD
1000
AcRTDxfName
1000
SCALE
1000
AcRTDxfName
1000
SCALE
1000
AcRTDxfName
1000
SCALE
1000
AcRTDxfName
1000
SCALE
  0
SCALE
  5
2C7D6
102
{ACAD_REACTORS
330
2C7CA
102
}
330
2C7CA
100
AcDbScale
 70
     0
300
1:100
140
1.0
141
100.0
290
     0
1001
ACAD
1000
AcRTDxfName
1000
SCALE
1000
AcRTDxfName
1000
SCALE
1000
AcRTDxfName
1000
SCALE
1000
AcRTDxfName
1000
SCALE
  0
SCALE
  5
2C7D7
102
{ACAD_REACTORS
330
2C7CA
102
}
330
2C7CA
100
AcDbScale
 70
     0
300
2:1
140
2.0
141
1.0
290
     0
1001
ACAD
1000
AcRTDxfName
1000
SCALE
1000
AcRTDxfName
1000
SCALE
1000
AcRTDxfName
1000
SCALE
1000
AcRTDxfName
1000
SCALE
  0
SCALE
  5
2C7D8
102
{ACAD_REACTORS
330
2C7CA
102
}
330
2C7CA
100
AcDbScale
 70
     0
300
4:1
140
4.0
141
1.0
290
     0
1001
ACAD
1000
AcRTDxfName
1000
SCALE
1000
AcRTDxfName
1000
SCALE
1000
AcRTDxfName
1000
SCALE
1000
AcRTDxfName
1000
SCALE
  0
SCALE
  5
2C7D9
102
{ACAD_REACTORS
330
2C7CA
102
}
330
2C7CA
100
AcDbScale
 70
     0
300
8:1
140
8.0
141
1.0
290
     0
1001
ACAD
1000
AcRTDxfName
1000
SCALE
1000
AcRTDxfName
1000
SCALE
1000
AcRTDxfName
1000
SCALE
1000
AcRTDxfName
1000
SCALE
  0
SCALE
  5
2C7DA
102
{ACAD_REACTORS
330
2C7CA
102
}
330
2C7CA
100
AcDbScale
 70
     0
300
10:1
140
10.0
141
1.0
290
     0
1001
ACAD
1000
AcRTDxfName
1000
SCALE
1000
AcRTDxfName
1000
SCALE
1000
AcRTDxfName
1000
SCALE
1000
AcRTDxfName
1000
SCALE
  0
SCALE
  5
2C7DB
102
{ACAD_REACTORS
330
2C7CA
102
}
330
2C7CA
100
AcDbScale
 70
     0
300
100:1
140
100.0
141
1.0
290
     0
1001
ACAD
1000
AcRTDxfName
1000
SCALE
1000
AcRTDxfName
1000
SCALE
1000
AcRTDxfName
1000
SCALE
1000
AcRTDxfName
1000
SCALE
  0
SCALE
  5
2C7DC
102
{ACAD_REACTORS
330
2C7CA
102
}
330
2C7CA
100
AcDbScale
 70
     0
300
1/128" = 1'-0"
140
0.0078125
141
12.0
290
     0
1001
ACAD
1000
AcRTDxfName
1000
SCALE
1000
AcRTDxfName
1000
SCALE
1000
AcRTDxfName
1000
SCALE
1000
AcRTDxfName
1000
SCALE
  0
SCALE
  5
2C7DD
102
{ACAD_REACTORS
330
2C7CA
102
}
330
2C7CA
100
AcDbScale
 70
     0
300
1/64" = 1'-0"
140
0.015625
141
12.0
290
     0
1001
ACAD
1000
AcRTDxfName
1000
SCALE
1000
AcRTDxfName
1000
SCALE
1000
AcRTDxfName
1000
SCALE
1000
AcRTDxfName
1000
SCALE
  0
SCALE
  5
2C7DE
102
{ACAD_REACTORS
330
2C7CA
102
}
330
2C7CA
100
AcDbScale
 70
     0
300
1/32" = 1'-0"
140
0.03125
141
12.0
290
     0
1001
ACAD
1000
AcRTDxfName
1000
SCALE
1000
AcRTDxfName
1000
SCALE
1000
AcRTDxfName
1000
SCALE
1000
AcRTDxfName
1000
SCALE
  0
SCALE
  5
2C7DF
102
{ACAD_REACTORS
330
2C7CA
102
}
330
2C7CA
100
AcDbScale
 70
     0
300
1/16" = 1'-0"
140
0.0625
141
12.0
290
     0
1001
ACAD
1000
AcRTDxfName
1000
SCALE
1000
AcRTDxfName
1000
SCALE
1000
AcRTDxfName
1000
SCALE
1000
AcRTDxfName
1000
SCALE
  0
SCALE
  5
2C7E0
102
{ACAD_REACTORS
330
2C7CA
102
}
330
2C7CA
100
AcDbScale
 70
     0
300
3/32" = 1'-0"
140
0.09375
141
12.0
290
     0
1001
ACAD
1000
AcRTDxfName
1000
SCALE
1000
AcRTDxfName
1000
SCALE
1000
AcRTDxfName
1000
SCALE
1000
AcRTDxfName
1000
SCALE
  0
SCALE
  5
2C7E1
102
{ACAD_REACTORS
330
2C7CA
102
}
330
2C7CA
100
AcDbScale
 70
     0
300
1/8" = 1'-0"
140
0.125
141
12.0
290
     0
1001
ACAD
1000
AcRTDxfName
1000
SCALE
1000
AcRTDxfName
1000
SCALE
1000
AcRTDxfName
1000
SCALE
1000
AcRTDxfName
1000
SCALE
  0
SCALE
  5
2C7E2
102
{ACAD_REACTORS
330
2C7CA
102
}
330
2C7CA
100
AcDbScale
 70
     0
300
3/16" = 1'-0"
140
0.1875
141
12.0
290
     0
1001
ACAD
1000
AcRTDxfName
1000
SCALE
1000
AcRTDxfName
1000
SCALE
1000
AcRTDxfName
1000
SCALE
1000
AcRTDxfName
1000
SCALE
  0
SCALE
  5
2C7E3
102
{ACAD_REACTORS
330
2C7CA
102
}
330
2C7CA
100
AcDbScale
 70
     0
300
1/4" = 1'-0"
140
0.25
141
12.0
290
     0
1001
ACAD
1000
AcRTDxfName
1000
SCALE
1000
AcRTDxfName
1000
SCALE
1000
AcRTDxfName
1000
SCALE
1000
AcRTDxfName
1000
SCALE
  0
SCALE
  5
2C7E4
102
{ACAD_REACTORS
330
2C7CA
102
}
330
2C7CA
100
AcDbScale
 70
     0
300
3/8" = 1'-0"
140
0.375
141
12.0
290
     0
1001
ACAD
1000
AcRTDxfName
1000
SCALE
1000
AcRTDxfName
1000
SCALE
1000
AcRTDxfName
1000
SCALE
1000
AcRTDxfName
1000
SCALE
  0
SCALE
  5
2C7E5
102
{ACAD_REACTORS
330
2C7CA
102
}
330
2C7CA
100
AcDbScale
 70
     0
300
1/2" = 1'-0"
140
0.5
141
12.0
290
     0
1001
ACAD
1000
AcRTDxfName
1000
SCALE
1000
AcRTDxfName
1000
SCALE
1000
AcRTDxfName
1000
SCALE
1000
AcRTDxfName
1000
SCALE
  0
SCALE
  5
2C7E6
102
{ACAD_REACTORS
330
2C7CA
102
}
330
2C7CA
100
AcDbScale
 70
     0
300
3/4" = 1'-0"
140
0.75
141
12.0
290
     0
1001
ACAD
1000
AcRTDxfName
1000
SCALE
1000
AcRTDxfName
1000
SCALE
1000
AcRTDxfName
1000
SCALE
1000
AcRTDxfName
1000
SCALE
  0
SCALE
  5
2C7E7
102
{ACAD_REACTORS
330
2C7CA
102
}
330
2C7CA
100
AcDbScale
 70
     0
300
1" = 1'-0"
140
1.0
141
12.0
290
     0
1001
ACAD
1000
AcRTDxfName
1000
SCALE
1000
AcRTDxfName
1000
SCALE
1000
AcRTDxfName
1000
SCALE
1000
AcRTDxfName
1000
SCALE
  0
SCALE
  5
2C7E8
102
{ACAD_REACTORS
330
2C7CA
102
}
330
2C7CA
100
AcDbScale
 70
     0
300
1-1/2" = 1'-0"
140
1.5
141
12.0
290
     0
1001
ACAD
1000
AcRTDxfName
1000
SCALE
1000
AcRTDxfName
1000
SCALE
1000
AcRTDxfName
1000
SCALE
1000
AcRTDxfName
1000
SCALE
  0
SCALE
  5
2C7E9
102
{ACAD_REACTORS
330
2C7CA
102
}
330
2C7CA
100
AcDbScale
 70
     0
300
3" = 1'-0"
140
3.0
141
12.0
290
     0
1001
ACAD
1000
AcRTDxfName
1000
SCALE
1000
AcRTDxfName
1000
SCALE
1000
AcRTDxfName
1000
SCALE
1000
AcRTDxfName
1000
SCALE
  0
SCALE
  5
2C7EA
102
{ACAD_REACTORS
330
2C7CA
102
}
330
2C7CA
100
AcDbScale
 70
     0
300
6" = 1'-0"
140
6.0
141
12.0
290
     0
1001
ACAD
1000
AcRTDxfName
1000
SCALE
1000
AcRTDxfName
1000
SCALE
1000
AcRTDxfName
1000
SCALE
1000
AcRTDxfName
1000
SCALE
  0
SCALE
  5
2C7EB
102
{ACAD_REACTORS
330
2C7CA
102
}
330
2C7CA
100
AcDbScale
 70
     0
300
1'-0" = 1'-0"
140
12.0
141
12.0
290
     0
1001
ACAD
1000
AcRTDxfName
1000
SCALE
1000
AcRTDxfName
1000
SCALE
1000
AcRTDxfName
1000
SCALE
1000
AcRTDxfName
1000
SCALE
  0
DICTIONARYVAR
  5
6DF
102
{ACAD_REACTORS
330
6DE
102
}
330
6DE
100
DictionaryVariables
280
     0
  1
1
  0
DICTIONARYVAR
  5
2C84B
102
{ACAD_REACTORS
330
6DE
102
}
330
6DE
100
DictionaryVariables
280
     0
  1
0
  0
DICTIONARYVAR
  5
6E0
102
{ACAD_REACTORS
330
6DE
102
}
330
6DE
100
DictionaryVariables
280
     0
  1

  0
DICTIONARYVAR
  5
2C84A
102
{ACAD_REACTORS
330
6DE
102
}
330
6DE
100
DictionaryVariables
280
     0
  1
127
  0
ENDSEC
  0
EOF
