  0
SECTION
  2
HEADER
  9
$ACADVER
  1
AC1015
  9
$ACADMAINTVER
 70
     6
  9
$DWGCODEPAGE
  3
ANSI_932
  9
$INSBASE
 10
0.0
 20
0.0
 30
0.0
  9
$EXTMIN
 10
9986.588229971874
 20
-5062.606223817625
 30
-0.000000000000009
  9
$EXTMAX
 10
10055.92156330521
 20
-4978.665986337886
 30
0.0
  9
$LIMMIN
 10
0.0
 20
0.0
  9
$LIMMAX
 10
420.0
 20
297.0
  9
$ORTHOMODE
 70
     1
  9
$REGENMODE
 70
     1
  9
$FILLMODE
 70
     1
  9
$QTEXTMODE
 70
     0
  9
$MIRRTEXT
 70
     1
  9
$LTSCALE
 40
5.0
  9
$ATTMODE
 70
     0
  9
$TEXTSIZE
 40
53.44730959687513
  9
$TRACEWID
 40
1.0
  9
$TEXTSTYLE
  7
STANDARD
  9
$CLAYER
  8
寸法線
  9
$CELTYPE
  6
BYLAYER
  9
$CECOLOR
 62
   256
  9
$CELTSCALE
 40
1.0
  9
$DISPSILH
 70
     0
  9
$DIMSCALE
 40
1.0
  9
$DIMASZ
 40
2.5
  9
$DIMEXO
 40
1.5
  9
$DIMDLI
 40
0.38
  9
$DIMRND
 40
0.0
  9
$DIMDLE
 40
0.0
  9
$DIMEXE
 40
1.0
  9
$DIMTP
 40
0.0
  9
$DIMTM
 40
0.0
  9
$DIMTXT
 40
2.500000000000003
  9
$DIMCEN
 40
0.0
  9
$DIMTSZ
 40
0.0
  9
$DIMTOL
 70
     0
  9
$DIMLIM
 70
     0
  9
$DIMTIH
 70
     0
  9
$DIMTOH
 70
     0
  9
$DIMSE1
 70
     0
  9
$DIMSE2
 70
     0
  9
$DIMTAD
 70
     3
  9
$DIMZIN
 70
     8
  9
$DIMBLK
  1

  9
$DIMASO
 70
     1
  9
$DIMSHO
 70
     0
  9
$DIMPOST
  1

  9
$DIMAPOST
  1

  9
$DIMALT
 70
     0
  9
$DIMALTD
 70
     0
  9
$DIMALTF
 40
25.4
  9
$DIMLFAC
 40
1.0
  9
$DIMTOFL
 70
     1
  9
$DIMTVP
 40
0.0
  9
$DIMTIX
 70
     0
  9
$DIMSOXD
 70
     0
  9
$DIMSAH
 70
     1
  9
$DIMBLK1
  1
OPEN
  9
$DIMBLK2
  1
OPEN
  9
$DIMSTYLE
  2
STANDARD
  9
$DIMCLRD
 70
     8
  9
$DIMCLRE
 70
     8
  9
$DIMCLRT
 70
   256
  9
$DIMTFAC
 40
1.0
  9
$DIMGAP
 40
1.0
  9
$DIMJUST
 70
     0
  9
$DIMSD1
 70
     0
  9
$DIMSD2
 70
     0
  9
$DIMTOLJ
 70
     1
  9
$DIMTZIN
 70
     0
  9
$DIMALTZ
 70
     0
  9
$DIMALTTZ
 70
     0
  9
$DIMUPT
 70
     0
  9
$DIMDEC
 70
     2
  9
$DIMTDEC
 70
     2
  9
$DIMALTU
 70
     2
  9
$DIMALTTD
 70
     0
  9
$DIMTXSTY
  7
STANDARD
  9
$DIMAUNIT
 70
     0
  9
$DIMADEC
 70
     2
  9
$DIMALTRND
 40
0.0
  9
$DIMAZIN
 70
     2
  9
$DIMDSEP
 70
    46
  9
$DIMATFIT
 70
     1
  9
$DIMFRAC
 70
     0
  9
$DIMLDRBLK
  1
OPEN
  9
$DIMLUNIT
 70
     2
  9
$DIMLWD
 70
    -2
  9
$DIMLWE
 70
    -2
  9
$DIMTMOVE
 70
     0
  9
$LUNITS
 70
     2
  9
$LUPREC
 70
     2
  9
$SKETCHINC
 40
0.1
  9
$FILLETRAD
 40
15.5
  9
$AUNITS
 70
     0
  9
$AUPREC
 70
     1
  9
$MENU
  1
FM
  9
$ELEVATION
 40
0.0
  9
$PELEVATION
 40
0.0
  9
$THICKNESS
 40
0.0
  9
$LIMCHECK
 70
     0
  9
$CHAMFERA
 40
0.0
  9
$CHAMFERB
 40
0.0
  9
$CHAMFERC
 40
0.0
  9
$CHAMFERD
 40
0.0
  9
$SKPOLY
 70
     0
  9
$TDCREATE
 40
2448636.619629629
  9
$TDUCREATE
 40
2448636.244629629
  9
$TDUPDATE
 40
2456821.606871528
  9
$TDUUPDATE
 40
2456821.231871528
  9
$TDINDWG
 40
48.8190323032
  9
$TDUSRTIMER
 40
2456821.231727847
  9
$USRTIMER
 70
     1
  9
$ANGBASE
 50
0.0
  9
$ANGDIR
 70
     0
  9
$PDMODE
 70
     3
  9
$PDSIZE
 40
0.0
  9
$PLINEWID
 40
0.0
  9
$SPLFRAME
 70
     0
  9
$SPLINETYPE
 70
     6
  9
$SPLINESEGS
 70
     8
  9
$HANDSEED
  5
1319FC
  9
$SURFTAB1
 70
     6
  9
$SURFTAB2
 70
     6
  9
$SURFTYPE
 70
     6
  9
$SURFU
 70
     6
  9
$SURFV
 70
     6
  9
$UCSBASE
  2

  9
$UCSNAME
  2

  9
$UCSORG
 10
0.0
 20
0.0
 30
0.0
  9
$UCSXDIR
 10
1.0
 20
0.0
 30
0.0
  9
$UCSYDIR
 10
0.0
 20
1.0
 30
0.0
  9
$UCSORTHOREF
  2

  9
$UCSORTHOVIEW
 70
     0
  9
$UCSORGTOP
 10
0.0
 20
0.0
 30
0.0
  9
$UCSORGBOTTOM
 10
0.0
 20
0.0
 30
0.0
  9
$UCSORGLEFT
 10
0.0
 20
0.0
 30
0.0
  9
$UCSORGRIGHT
 10
0.0
 20
0.0
 30
0.0
  9
$UCSORGFRONT
 10
0.0
 20
0.0
 30
0.0
  9
$UCSORGBACK
 10
0.0
 20
0.0
 30
0.0
  9
$PUCSBASE
  2

  9
$PUCSNAME
  2

  9
$PUCSORG
 10
0.0
 20
0.0
 30
0.0
  9
$PUCSXDIR
 10
1.0
 20
0.0
 30
0.0
  9
$PUCSYDIR
 10
0.0
 20
1.0
 30
0.0
  9
$PUCSORTHOREF
  2

  9
$PUCSORTHOVIEW
 70
     0
  9
$PUCSORGTOP
 10
0.0
 20
0.0
 30
0.0
  9
$PUCSORGBOTTOM
 10
0.0
 20
0.0
 30
0.0
  9
$PUCSORGLEFT
 10
0.0
 20
0.0
 30
0.0
  9
$PUCSORGRIGHT
 10
0.0
 20
0.0
 30
0.0
  9
$PUCSORGFRONT
 10
0.0
 20
0.0
 30
0.0
  9
$PUCSORGBACK
 10
0.0
 20
0.0
 30
0.0
  9
$USERI1
 70
     0
  9
$USERI2
 70
     0
  9
$USERI3
 70
     0
  9
$USERI4
 70
     0
  9
$USERI5
 70
     0
  9
$USERR1
 40
0.0
  9
$USERR2
 40
0.0
  9
$USERR3
 40
0.0
  9
$USERR4
 40
0.0
  9
$USERR5
 40
0.0
  9
$WORLDVIEW
 70
     0
  9
$SHADEDGE
 70
     3
  9
$SHADEDIF
 70
    70
  9
$TILEMODE
 70
     1
  9
$MAXACTVP
 70
    16
  9
$PINSBASE
 10
0.0
 20
0.0
 30
0.0
  9
$PLIMCHECK
 70
     0
  9
$PEXTMIN
 10
1.000000000000000E+20
 20
1.000000000000000E+20
 30
1.000000000000000E+20
  9
$PEXTMAX
 10
-1.000000000000000E+20
 20
-1.000000000000000E+20
 30
-1.000000000000000E+20
  9
$PLIMMIN
 10
0.0
 20
0.0
  9
$PLIMMAX
 10
0.0
 20
0.0
  9
$UNITMODE
 70
     0
  9
$VISRETAIN
 70
     0
  9
$PLINEGEN
 70
     0
  9
$PSLTSCALE
 70
     0
  9
$TREEDEPTH
 70
  3020
  9
$CMLSTYLE
  2
STANDARD
  9
$CMLJUST
 70
     0
  9
$CMLSCALE
 40
1.0
  9
$PROXYGRAPHICS
 70
     1
  9
$MEASUREMENT
 70
     0
  9
$CELWEIGHT
370
    -1
  9
$ENDCAPS
280
     0
  9
$JOINSTYLE
280
     0
  9
$LWDISPLAY
290
     0
  9
$INSUNITS
 70
     0
  9
$HYPERLINKBASE
  1

  9
$STYLESHEET
  1
spax form.ctb
  9
$XEDIT
290
     1
  9
$CEPSNTYPE
380
     0
  9
$PSTYLEMODE
290
     1
  9
$FINGERPRINTGUID
  2
{BBAEEBA6-8B94-11D3-9160-00E0294F7E09}
  9
$VERSIONGUID
  2
{0937009D-9BC1-4698-ADB7-0A866F8AA05F}
  9
$EXTNAMES
290
     1
  9
$PSVPSCALE
 40
0.0
  9
$OLESTARTUP
290
     0
  0
ENDSEC
  0
SECTION
  2
CLASSES
  0
CLASS
  1
LWPOLYLINE
  2
AcDbPolyline
  3
ObjectDBX Classes
 90
        0
280
     0
281
     1
  0
CLASS
  1
ACDBDICTIONARYWDFLT
  2
AcDbDictionaryWithDefault
  3
ObjectDBX Classes
 90
        0
280
     0
281
     0
  0
CLASS
  1
ACDBPLACEHOLDER
  2
AcDbPlaceHolder
  3
ObjectDBX Classes
 90
        0
280
     0
281
     0
  0
CLASS
  1
LAYOUT
  2
AcDbLayout
  3
ObjectDBX Classes
 90
        0
280
     0
281
     0
  0
CLASS
  1
DICTIONARYVAR
  2
AcDbDictionaryVar
  3
ObjectDBX Classes
 90
        0
280
     0
281
     0
  0
CLASS
  1
MATERIAL
  2
AcDbMaterial
  3
ObjectDBX Classes
 90
     1153
280
     0
281
     0
  0
CLASS
  1
VISUALSTYLE
  2
AcDbVisualStyle
  3
ObjectDBX Classes
 90
     4095
280
     0
281
     0
  0
CLASS
  1
TABLESTYLE
  2
AcDbTableStyle
  3
ObjectDBX Classes
 90
     4095
280
     0
281
     0
  0
CLASS
  1
SCALE
  2
AcDbScale
  3
ObjectDBX Classes
 90
     1153
280
     0
281
     0
  0
CLASS
  1
MLEADERSTYLE
  2
AcDbMLeaderStyle
  3
ACDB_MLEADERSTYLE_CLASS
 90
     4095
280
     0
281
     0
  0
CLASS
  1
CELLSTYLEMAP
  2
AcDbCellStyleMap
  3
ObjectDBX Classes
 90
     1152
280
     0
281
     0
  0
CLASS
  1
SORTENTSTABLE
  2
AcDbSortentsTable
  3
ObjectDBX Classes
 90
        0
280
     0
281
     0
  0
CLASS
  1
MULTILEADER
  2
AcDbMLeader
  3
ACDB_MLEADER_CLASS
 90
     1025
280
     0
281
     1
  0
CLASS
  1
DIMASSOC
  2
AcDbDimAssoc
  3
"AcDbDimAssoc|Product Desc:     AcDim ARX App For Dimension|Company:          Autodesk, Inc.|WEB Address:      www.autodesk.com"
 90
        0
280
     0
281
     0
  0
CLASS
  1
RASTERVARIABLES
  2
AcDbRasterVariables
  3
ISM
 90
        0
280
     0
281
     0
  0
CLASS
  1
SUN
  2
AcDbSun
  3
SCENEOE
 90
     1153
280
     0
281
     0
  0
ENDSEC
  0
SECTION
  2
TABLES
  0
TABLE
  2
VPORT
  5
8
330
0
100
AcDbSymbolTable
 70
     1
  0
VPORT
  5
1294E6
330
8
100
AcDbSymbolTableRecord
100
AcDbViewportTableRecord
  2
*Active
 70
     0
 10
0.0
 20
0.0
 11
1.0
 21
1.0
 12
10021.25489663854
 22
-5020.636105077756
 13
0.0
 23
0.0
 14
1.0
 24
1.0
 15
20.0
 25
20.0
 16
0.0
 26
0.0
 36
1.0
 17
0.0
 27
0.0
 37
0.0
 40
85.619042229333
 41
1.731829573934837
 42
50.0
 43
0.0
 44
0.0
 50
0.0
 51
0.0
 71
    16
 72
   100
 73
     1
 74
     0
 75
     0
 76
     0
 77
     0
 78
     0
281
     0
 65
     1
110
0.0
120
0.0
130
0.0
111
1.0
121
0.0
131
0.0
112
0.0
122
1.0
132
0.0
 79
     0
146
0.0
  0
ENDTAB
  0
TABLE
  2
LTYPE
  5
5
330
0
100
AcDbSymbolTable
 70
     3
  0
LTYPE
  5
12
330
5
100
AcDbSymbolTableRecord
100
AcDbLinetypeTableRecord
  2
BYBLOCK
 70
     0
  3

 72
    65
 73
     0
 40
0.0
  0
LTYPE
  5
13
330
5
100
AcDbSymbolTableRecord
100
AcDbLinetypeTableRecord
  2
BYLAYER
 70
     0
  3

 72
    65
 73
     0
 40
0.0
  0
LTYPE
  5
14
330
5
100
AcDbSymbolTableRecord
100
AcDbLinetypeTableRecord
  2
CONTINUOUS
 70
     0
  3
Solid line
 72
    65
 73
     0
 40
0.0
  0
LTYPE
  5
27
330
5
100
AcDbSymbolTableRecord
100
AcDbLinetypeTableRecord
  2
HIDDEN
 70
     0
  3
_ _ _ _ _ _ _ _ _ _ _ _ _ _ _ _ _ _ _ _ _ _ _
 72
    65
 73
     2
 40
0.375
 49
0.25
 74
     0
 49
-0.125
 74
     0
  0
LTYPE
  5
514
330
5
100
AcDbSymbolTableRecord
100
AcDbLinetypeTableRecord
  2
CENTER
 70
     0
  3
Center ____ _ ____ _ ____ _ ____ _ ____ _ ____
 72
    65
 73
     4
 40
2.0
 49
1.25
 74
     0
 49
-0.25
 74
     0
 49
0.25
 74
     0
 49
-0.25
 74
     0
  0
ENDTAB
  0
TABLE
  2
LAYER
  5
2
102
{ACAD_XDICTIONARY
360
8BF
102
}
330
0
100
AcDbSymbolTable
 70
    12
  0
LAYER
  5
F
102
{ACAD_XDICTIONARY
360
A60
102
}
330
2
100
AcDbSymbolTableRecord
100
AcDbLayerTableRecord
  2
0
 70
     0
 62
     7
  6
CONTINUOUS
370
    -3
390
616
  0
LAYER
  5
34
102
{ACAD_XDICTIONARY
360
A66
102
}
330
2
100
AcDbSymbolTableRecord
100
AcDbLayerTableRecord
  2
寸法線
 70
     0
 62
     7
  6
CONTINUOUS
370
    -3
390
616
  0
LAYER
  5
2F4
102
{ACAD_XDICTIONARY
360
A6E
102
}
330
2
100
AcDbSymbolTableRecord
100
AcDbLayerTableRecord
  2
文字
 70
     0
 62
     7
  6
CONTINUOUS
370
    -3
390
616
  0
LAYER
  5
305
102
{ACAD_XDICTIONARY
360
A72
102
}
330
2
100
AcDbSymbolTableRecord
100
AcDbLayerTableRecord
  2
姿図
 70
     0
 62
     8
  6
CONTINUOUS
370
    -3
390
616
  0
ENDTAB
  0
TABLE
  2
STYLE
  5
3
330
0
100
AcDbSymbolTable
 70
     1
  0
STYLE
  5
10
330
3
100
AcDbSymbolTableRecord
100
AcDbTextStyleTableRecord
  2
STANDARD
 70
     0
 40
0.0
 41
1.0
 50
0.0
 71
     0
 42
53.44730959687513
  3
MONOTXT
  4
BIGFONT
  0
ENDTAB
  0
TABLE
  2
VIEW
  5
6
330
0
100
AcDbSymbolTable
 70
     0
  0
ENDTAB
  0
TABLE
  2
UCS
  5
7
330
0
100
AcDbSymbolTable
 70
     0
  0
ENDTAB
  0
TABLE
  2
APPID
  5
9
330
0
100
AcDbSymbolTable
 70
    15
  0
APPID
  5
11
330
9
100
AcDbSymbolTableRecord
100
AcDbRegAppTableRecord
  2
ACAD
 70
     0
  0
APPID
  5
8BB
330
9
100
AcDbSymbolTableRecord
100
AcDbRegAppTableRecord
  2
ACAD_PSEXT
 70
     0
  0
APPID
  5
A5A
330
9
100
AcDbSymbolTableRecord
100
AcDbRegAppTableRecord
  2
ACAD_MLEADERVER
 70
     0
  0
APPID
  5
A5E
330
9
100
AcDbSymbolTableRecord
100
AcDbRegAppTableRecord
  2
ACAD_DSTYLE_DIMJAG
 70
     0
  0
APPID
  5
A5F
330
9
100
AcDbSymbolTableRecord
100
AcDbRegAppTableRecord
  2
ACAD_DSTYLE_DIMTALN
 70
     0
  0
APPID
  5
12C0
330
9
100
AcDbSymbolTableRecord
100
AcDbRegAppTableRecord
  2
ACAD_EXEMPT_FROM_CAD_STANDARDS
 70
     0
  0
APPID
  5
1C50
330
9
100
AcDbSymbolTableRecord
100
AcDbRegAppTableRecord
  2
AcAecLayerStandard
 70
     0
  0
APPID
  5
5088
330
9
100
AcDbSymbolTableRecord
100
AcDbRegAppTableRecord
  2
ACAD_DSTYLE_DIMRADIAL_EXTENSION
 70
     0
  0
APPID
  5
14AF3
330
9
100
AcDbSymbolTableRecord
100
AcDbRegAppTableRecord
  2
WACOM_STRING
 70
     0
  0
APPID
  5
14AF4
330
9
100
AcDbSymbolTableRecord
100
AcDbRegAppTableRecord
  2
WACOM_DRSYM_ARROW
 70
     0
  0
APPID
  5
1E1A8
330
9
100
AcDbSymbolTableRecord
100
AcDbRegAppTableRecord
  2
GENIUS_GENODEF_13
 70
     0
  0
APPID
  5
1E1A9
330
9
100
AcDbSymbolTableRecord
100
AcDbRegAppTableRecord
  2
GENIUS_GENREC_14
 70
     0
  0
APPID
  5
1E1AA
330
9
100
AcDbSymbolTableRecord
100
AcDbRegAppTableRecord
  2
GENIUS_GENOBJ-N-REC_13
 70
     0
  0
APPID
  5
27C72
330
9
100
AcDbSymbolTableRecord
100
AcDbRegAppTableRecord
  2
ASK_MEN_XD
 70
     0
  0
APPID
  5
29316
330
9
100
AcDbSymbolTableRecord
100
AcDbRegAppTableRecord
  2
ACAD_DSTYLE_DIMBREAK
 70
     0
  0
ENDTAB
  0
TABLE
  2
DIMSTYLE
  5
A
330
0
100
AcDbSymbolTable
 70
     3
100
AcDbDimStyleTable
  0
DIMSTYLE
105
1CC
330
A
100
AcDbSymbolTableRecord
100
AcDbDimStyleTableRecord
  2
STANDARD
 70
     0
 41
2.5
 42
1.5
 44
1.0
 73
     0
 74
     0
 77
     3
 78
     8
 79
     2
140
2.500000000000003
141
0.0
147
1.0
171
     0
172
     1
173
     1
176
     8
177
     8
271
     2
178
   256
179
     2
271
     2
272
     2
274
     0
289
     1
340
10
341
608
343
608
344
608
1001
ACAD_DSTYLE_DIMJAG
1070
   388
1040
1.5
1001
ACAD_DSTYLE_DIMTALN
1070
   392
1070
     0
  0
ENDTAB
  0
TABLE
  2
BLOCK_RECORD
  5
1
330
0
100
AcDbSymbolTable
 70
    40
  0
BLOCK_RECORD
  5
18
102
{ACAD_XDICTIONARY
360
143F
102
}
330
1
100
AcDbSymbolTableRecord
100
AcDbBlockTableRecord
  2
*MODEL_SPACE
340
619
  0
BLOCK_RECORD
  5
15
330
1
100
AcDbSymbolTableRecord
100
AcDbBlockTableRecord
  2
*PAPER_SPACE
340
61A
  0
BLOCK_RECORD
  5
608
330
1
100
AcDbSymbolTableRecord
100
AcDbBlockTableRecord
  2
_OPEN
340
0
102
{BLKREFS
331
10A06B
331
10A06C
331
10A086
331
10A087
331
10A0E9
331
10A0EA
331
10A0F2
331
10A0F3
331
11AA81
331
11AA82
331
11E924
331
11E925
331
1272F9
331
1272FA
331
127302
331
127303
331
12730B
331
12730C
331
127314
331
127315
331
12731D
331
12731E
331
127326
331
127327
331
128393
331
128394
331
12839C
331
12839D
331
1283A5
331
1283A6
331
1283AE
331
1283AF
331
1283B7
331
1283B8
331
1283C0
331
1283C1
331
12948D
331
12948E
331
129496
331
129497
331
12949F
331
1294A0
331
1294A8
331
1294A9
331
1294B1
331
1294B2
331
1294BA
331
1294BB
331
130660
331
130661
331
130669
331
13066A
331
130672
331
130673
331
13068D
331
13068E
331
130696
331
130697
331
13069F
331
1306A0
331
13197A
331
13197B
331
131983
331
131984
331
13198C
331
13198D
331
131995
331
131996
331
13199E
331
13199F
331
1319A7
331
1319A8
102
}
  0
BLOCK_RECORD
  5
89D
330
1
100
AcDbSymbolTableRecord
100
AcDbBlockTableRecord
  2
SUN
340
0
  0
BLOCK_RECORD
  5
1F1F
330
1
100
AcDbSymbolTableRecord
100
AcDbBlockTableRecord
  2
_OPEN30
340
0
  0
ENDTAB
  0
ENDSEC
  0
SECTION
  2
BLOCKS
  0
BLOCK
  5
39
330
18
100
AcDbEntity
  8
0
100
AcDbBlockBegin
  2
*MODEL_SPACE
 70
     0
 10
0.0
 20
0.0
 30
0.0
  3
*MODEL_SPACE
  1
*MODEL_SPACE
  0
ENDBLK
  5
3A
330
18
100
AcDbEntity
  8
0
100
AcDbBlockEnd
  0
BLOCK
  5
37
330
15
100
AcDbEntity
 67
     1
  8
0
100
AcDbBlockBegin
  2
*PAPER_SPACE
 70
     0
 10
0.0
 20
0.0
 30
0.0
  3
*PAPER_SPACE
  1
*PAPER_SPACE
  0
ENDBLK
  5
38
330
15
100
AcDbEntity
 67
     1
  8
0
100
AcDbBlockEnd
  0
BLOCK
  5
609
330
608
100
AcDbEntity
  8
0
100
AcDbBlockBegin
  2
_OPEN
 70
     0
 10
0.0
 20
0.0
 30
0.0
  3
_OPEN
  1
_OPEN
  0
LINE
  5
60A
330
608
100
AcDbEntity
  8
0
  6
ByBlock
 62
     0
100
AcDbLine
 10
-1.0
 20
0.1666666666666667
 30
0.0
 11
0.0
 21
0.0
 31
0.0
  0
LINE
  5
60B
330
608
100
AcDbEntity
  8
0
  6
ByBlock
 62
     0
100
AcDbLine
 10
0.0
 20
0.0
 30
0.0
 11
-1.0
 21
-0.1666666666666667
 31
0.0
  0
LINE
  5
60C
330
608
100
AcDbEntity
  8
0
  6
ByBlock
 62
     0
100
AcDbLine
 10
0.0
 20
0.0
 30
0.0
 11
-1.0
 21
0.0
 31
0.0
  0
ENDBLK
  5
60D
330
608
100
AcDbEntity
  8
0
100
AcDbBlockEnd
  0
BLOCK
  5
89E
330
89D
100
AcDbEntity
  8
0
100
AcDbBlockBegin
  2
SUN
 70
     0
 10
0.0
 20
0.0
 30
0.0
  3
SUN
  1
SUN
  0
LINE
  5
89F
330
89D
100
AcDbEntity
  8
0
100
AcDbLine
 10
-0.0000000000000568
 20
0.0
 30
0.0
 11
-1.500000000000057
 21
0.0
 31
0.0
  0
LINE
  5
8A0
330
89D
100
AcDbEntity
  8
0
100
AcDbLine
 10
-0.0000000000000568
 20
0.0000000000000284
 30
0.0
 11
-1.500000000000057
 21
0.401923788646684
 31
0.0
  0
LINE
  5
8A1
330
89D
100
AcDbEntity
  8
0
100
AcDbLine
 10
-0.0000000000000568
 20
0.0000000000000284
 30
0.0
 11
-1.500000000000057
 21
-0.4019237886466556
 31
0.0
  0
ENDBLK
  5
8A2
330
89D
100
AcDbEntity
  8
0
100
AcDbBlockEnd
  0
BLOCK
  5
1F20
330
1F1F
100
AcDbEntity
  8
0
100
AcDbBlockBegin
  2
_OPEN30
 70
     0
 10
0.0
 20
0.0
 30
0.0
  3
_OPEN30
  1
_OPEN30
  0
LINE
  5
1F21
330
1F1F
100
AcDbEntity
  8
0
  6
ByBlock
 62
     0
100
AcDbLine
 10
-1.0
 20
0.26794919
 30
0.0
 11
0.0
 21
0.0
 31
0.0
  0
LINE
  5
1F22
330
1F1F
100
AcDbEntity
  8
0
  6
ByBlock
 62
     0
100
AcDbLine
 10
0.0
 20
0.0
 30
0.0
 11
-1.0
 21
-0.26794919
 31
0.0
  0
LINE
  5
1F23
330
1F1F
100
AcDbEntity
  8
0
  6
ByBlock
 62
     0
100
AcDbLine
 10
0.0
 20
0.0
 30
0.0
 11
-1.0
 21
0.0
 31
0.0
  0
ENDBLK
  5
1F24
330
1F1F
100
AcDbEntity
  8
0
100
AcDbBlockEnd
  0
ENDSEC
  0
SECTION
  2
ENTITIES
  0
MTEXT
  5
D0CC6
330
18
100
AcDbEntity
  8
寸法線
100
AcDbMText
 10
2610.774875364868
 20
-2740.315466585338
 30
0.0
 40
2.500000000000003
 41
0.0
 71
     9
 72
     1
  1
\A1;
 73
     1
 44
1.0
  0
MTEXT
  5
F6D77
330
18
100
AcDbEntity
  8
文字
100
AcDbMText
 10
5821.057140836062
 20
-2842.341718131323
 30
0.0
 40
2.5
 41
64.39156592258223
 71
     1
 72
     5
  1
   
 73
     1
 44
1.0
  0
MTEXT
  5
F6D78
330
18
100
AcDbEntity
  8
寸法線
100
AcDbMText
 10
6222.662262480188
 20
-2968.738290481128
 30
0.0
 40
3.000000000000001
 41
0.0
 71
     7
 72
     1
  1
\A1;
 73
     1
 44
1.0
  0
TEXT
  5
130948
330
18
100
AcDbEntity
  8
文字
100
AcDbText
 10
9986.588229971874
 20
-5062.606223817625
 30
0.0
 40
6.5
  1
SL-535/80DF
100
AcDbText
  0
LINE
  5
131701
330
18
100
AcDbEntity
  8
姿図
100
AcDbLine
 10
10027.69885659882
 20
-4989.327455371194
 30
-0.0000000000000061
 11
10027.76030642487
 21
-4991.671224030558
 31
-0.0000000000000061
  0
LINE
  5
131702
330
18
100
AcDbEntity
  8
姿図
100
AcDbLine
 10
10032.9423341085
 20
-4988.309557076197
 30
-0.0000000000000061
 11
10033.00450687367
 21
-4991.054556952693
 31
-0.0000000000000061
  0
SPLINE
  5
131703
330
18
100
AcDbEntity
  8
姿図
100
AcDbSpline
210
0.0
220
0.0
230
1.0
 70
    24
 71
     3
 72
     8
 73
     4
 74
     0
 42
0.000000001
 43
0.0000000001
 40
0.0
 40
0.0
 40
0.0
 40
0.0
 40
1.0
 40
1.0
 40
1.0
 40
1.0
 10
10020.7897273337
 20
-5012.862015808239
 30
-0.0000000000000061
 10
10020.7897273337
 20
-5012.862015808239
 30
-0.0000000000000061
 10
10025.07675637442
 20
-4990.036658657696
 30
-0.0000000000000061
 10
10025.07675637442
 20
-4990.036658657696
 30
-0.0000000000000061
  0
SPLINE
  5
131704
330
18
100
AcDbEntity
  8
姿図
100
AcDbSpline
210
0.0
220
0.0
230
1.0
 70
     8
 71
     3
 72
    11
 73
     7
 74
     0
 42
0.000000001
 43
0.0000000001
 40
1.0
 40
1.0
 40
1.0
 40
1.0
 40
2.0
 40
2.0
 40
2.0
 40
3.0
 40
3.0
 40
3.0
 40
3.0
 10
10025.07675637442
 20
-4990.036658657696
 30
-0.0000000000000061
 10
10025.07675637442
 20
-4990.036658657696
 30
-0.0000000000000061
 10
10025.29291517428
 20
-4989.48216434501
 30
-0.0000000000000061
 10
10026.21827726064
 20
-4989.419991579831
 30
-0.0000000000000061
 10
10027.14363934701
 20
-4989.357818814654
 30
-0.0000000000000061
 10
10027.69885659882
 20
-4989.327455371194
 30
-0.0000000000000061
 10
10027.69885659882
 20
-4989.327455371194
 30
-0.0000000000000061
  0
SPLINE
  5
131705
330
18
100
AcDbEntity
  8
姿図
100
AcDbSpline
210
0.0
220
0.0
230
1.0
 70
     8
 71
     3
 72
     8
 73
     4
 74
     0
 42
0.000000001
 43
0.0000000001
 40
3.0
 40
3.0
 40
3.0
 40
3.0
 40
4.0
 40
4.0
 40
4.0
 40
4.0
 10
10027.69885659882
 20
-4989.327455371194
 30
-0.0000000000000061
 10
10027.69885659882
 20
-4989.327455371194
 30
-0.0000000000000061
 10
10028.59096348521
 20
-4986.864401755387
 30
-0.0000000000000061
 10
10033.00450687367
 20
-4988.339920519656
 30
-0.0000000000000061
  0
SPLINE
  5
131706
330
18
100
AcDbEntity
  8
姿図
100
AcDbSpline
210
0.0
220
0.0
230
1.0
 70
    24
 71
     3
 72
     8
 73
     4
 74
     0
 42
0.000000001
 43
0.0000000001
 40
4.0
 40
4.0
 40
4.0
 40
4.0
 40
5.0
 40
5.0
 40
5.0
 40
5.0
 10
10033.00450687367
 20
-4988.339920519656
 30
-0.0000000000000061
 10
10033.00450687367
 20
-4988.339920519656
 30
-0.0000000000000061
 10
10037.1686362623
 20
-4988.031948450288
 30
-0.0000000000000061
 10
10037.1686362623
 20
-4988.031948450288
 30
-0.0000000000000061
  0
SPLINE
  5
131707
330
18
100
AcDbEntity
  8
姿図
100
AcDbSpline
210
0.0
220
0.0
230
1.0
 70
     8
 71
     3
 72
     8
 73
     4
 74
     0
 42
0.000000001
 43
0.0000000001
 40
5.0
 40
5.0
 40
5.0
 40
5.0
 40
6.0
 40
6.0
 40
6.0
 40
6.0
 10
10037.1686362623
 20
-4988.031948450288
 30
-0.0000000000000061
 10
10037.1686362623
 20
-4988.031948450288
 30
-0.0000000000000061
 10
10038.61740627876
 20
-4987.723253441792
 30
-0.0000000000000061
 10
10038.86465146121
 20
-4989.666513823151
 30
-0.0000000000000061
  0
SPLINE
  5
131708
330
18
100
AcDbEntity
  8
姿図
100
AcDbSpline
210
0.0
220
0.0
230
1.0
 70
    24
 71
     3
 72
     8
 73
     4
 74
     0
 42
0.000000001
 43
0.0000000001
 40
6.0
 40
6.0
 40
6.0
 40
6.0
 40
7.0
 40
7.0
 40
7.0
 40
7.0
 10
10038.86465146121
 20
-4989.666513823151
 30
-0.0000000000000061
 10
10038.86465146121
 20
-4989.666513823151
 30
-0.0000000000000061
 10
10042.2270413547
 20
-5019.55643215176
 30
-0.0000000000000061
 10
10042.2270413547
 20
-5019.55643215176
 30
-0.0000000000000061
  0
SPLINE
  5
131709
330
18
100
AcDbEntity
  8
姿図
100
AcDbSpline
210
0.0
220
0.0
230
1.0
 70
     8
 71
     3
 72
     8
 73
     4
 74
     0
 42
0.000000001
 43
0.0000000001
 40
7.0
 40
7.0
 40
7.0
 40
7.0
 40
8.0
 40
8.0
 40
8.0
 40
8.0
 10
10042.2270413547
 20
-5019.55643215176
 30
-0.0000000000000061
 10
10042.2270413547
 20
-5019.55643215176
 30
-0.0000000000000061
 10
10042.50464998061
 20
-5019.83404077767
 30
-0.0000000000000061
 10
10042.68972239788
 20
-5019.926576986306
 30
-0.0000000000000061
  0
SPLINE
  5
13170A
330
18
100
AcDbEntity
  8
姿図
100
AcDbSpline
210
0.0
220
0.0
230
1.0
 70
    24
 71
     3
 72
     8
 73
     4
 74
     0
 42
0.000000001
 43
0.0000000001
 40
0.0
 40
0.0
 40
0.0
 40
0.0
 40
1.0
 40
1.0
 40
1.0
 40
1.0
 10
10023.65834980142
 20
-5012.399334765058
 30
-0.0000000000000061
 10
10023.65834980142
 20
-5012.399334765058
 30
-0.0000000000000061
 10
10027.86391020978
 20
-4992.302274451048
 30
-0.0000000000000061
 10
10027.86391020978
 20
-4992.302274451048
 30
-0.0000000000000061
  0
SPLINE
  5
13170B
330
18
100
AcDbEntity
  8
姿図
100
AcDbSpline
210
0.0
220
0.0
230
1.0
 70
    24
 71
     3
 72
     8
 73
     4
 74
     0
 42
0.000000001
 43
0.0000000001
 40
1.0
 40
1.0
 40
1.0
 40
1.0
 40
2.0
 40
2.0
 40
2.0
 40
2.0
 10
10027.86391020978
 20
-4992.302274451048
 30
-0.0000000000000061
 10
10027.86391020978
 20
-4992.302274451048
 30
-0.0000000000000061
 10
10028.55652545881
 20
-4992.254333791399
 30
-0.0000000000000061
 10
10028.55652545881
 20
-4992.254333791399
 30
-0.0000000000000061
  0
SPLINE
  5
13170C
330
18
100
AcDbEntity
  8
姿図
100
AcDbSpline
210
0.0
220
0.0
230
1.0
 70
     8
 71
     3
 72
     8
 73
     4
 74
     0
 42
0.000000001
 43
0.0000000001
 40
2.0
 40
2.0
 40
2.0
 40
2.0
 40
3.0
 40
3.0
 40
3.0
 40
3.0
 10
10028.55652545881
 20
-4992.254333791399
 30
-0.0000000000000061
 10
10028.55652545881
 20
-4992.254333791399
 30
-0.0000000000000061
 10
10032.47124299118
 20
-4992.971327586442
 30
-0.0000000000000061
 10
10033.1824699612
 20
-4991.96585386753
 30
-0.0000000000000061
  0
SPLINE
  5
13170D
330
18
100
AcDbEntity
  8
姿図
100
AcDbSpline
210
0.0
220
0.0
230
1.0
 70
    24
 71
     3
 72
     8
 73
     4
 74
     0
 42
0.000000001
 43
0.0000000001
 40
3.0
 40
3.0
 40
3.0
 40
3.0
 40
4.0
 40
4.0
 40
4.0
 40
4.0
 10
10033.1824699612
 20
-4991.96585386753
 30
-0.0000000000000061
 10
10033.1824699612
 20
-4991.96585386753
 30
-0.0000000000000061
 10
10035.57262877735
 20
-4991.788720580857
 30
-0.0000000000000061
 10
10035.57262877735
 20
-4991.788720580857
 30
-0.0000000000000061
  0
SPLINE
  5
13170E
330
18
100
AcDbEntity
  8
姿図
100
AcDbSpline
210
0.0
220
0.0
230
1.0
 70
     8
 71
     3
 72
     8
 73
     4
 74
     0
 42
0.000000001
 43
0.0000000001
 40
0.0
 40
0.0
 40
0.0
 40
0.0
 40
1.0
 40
1.0
 40
1.0
 40
1.0
 10
10039.85218631275
 20
-5020.389258029486
 30
-0.0000000000000061
 10
10039.85218631275
 20
-5020.389258029486
 30
-0.0000000000000061
 10
10040.25269459075
 20
-5020.325639386049
 30
-0.0000000000000061
 10
10040.06762217348
 20
-5018.969405578225
 30
-0.0000000000000061
  0
SPLINE
  5
13170F
330
18
100
AcDbEntity
  8
姿図
100
AcDbSpline
210
0.0
220
0.0
230
1.0
 70
    24
 71
     3
 72
     8
 73
     4
 74
     0
 42
0.000000001
 43
0.0000000001
 40
1.0
 40
1.0
 40
1.0
 40
1.0
 40
2.0
 40
2.0
 40
2.0
 40
2.0
 10
10040.06762217348
 20
-5018.969405578225
 30
-0.0000000000000061
 10
10040.06762217348
 20
-5018.969405578225
 30
-0.0000000000000061
 10
10035.41044829821
 20
-4990.808034709374
 30
-0.0000000000000061
 10
10035.41044829821
 20
-4990.808034709374
 30
-0.0000000000000061
  0
SPLINE
  5
131710
330
18
100
AcDbEntity
  8
姿図
100
AcDbSpline
210
0.0
220
0.0
230
1.0
 70
    24
 71
     3
 72
     8
 73
     4
 74
     0
 42
0.000000001
 43
0.0000000001
 40
2.0
 40
2.0
 40
2.0
 40
2.0
 40
3.0
 40
3.0
 40
3.0
 40
3.0
 10
10035.41044829821
 20
-4990.808034709374
 30
-0.0000000000000061
 10
10035.41044829821
 20
-4990.808034709374
 30
-0.0000000000000061
 10
10032.9423341085
 20
-4991.054556952693
 30
-0.0000000000000061
 10
10032.9423341085
 20
-4991.054556952693
 30
-0.0000000000000061
  0
SPLINE
  5
131711
330
18
100
AcDbEntity
  8
姿図
100
AcDbSpline
210
0.0
220
0.0
230
1.0
 70
     8
 71
     3
 72
     8
 73
     4
 74
     0
 42
0.000000001
 43
0.0000000001
 40
3.0
 40
3.0
 40
3.0
 40
3.0
 40
4.0
 40
4.0
 40
4.0
 40
4.0
 10
10032.9423341085
 20
-4991.054556952693
 30
-0.0000000000000061
 10
10032.9423341085
 20
-4991.054556952693
 30
-0.0000000000000061
 10
10029.03340223275
 20
-4989.93110954472
 30
-0.0000000000000061
 10
10028.161537642
 20
-4991.301079196012
 30
-0.0000000000000061
  0
SPLINE
  5
131712
330
18
100
AcDbEntity
  8
姿図
100
AcDbSpline
210
0.0
220
0.0
230
1.0
 70
    24
 71
     3
 72
     8
 73
     4
 74
     0
 42
0.000000001
 43
0.0000000001
 40
4.0
 40
4.0
 40
4.0
 40
4.0
 40
5.0
 40
5.0
 40
5.0
 40
5.0
 10
10028.161537642
 20
-4991.301079196012
 30
-0.0000000000000061
 10
10027.94537884215
 20
-4991.640860587099
 30
-0.0000000000000061
 10
10027.94537884215
 20
-4991.640860587099
 30
-0.0000000000000061
 10
10027.94537884215
 20
-4991.640860587099
 30
-0.0000000000000061
  0
SPLINE
  5
131713
330
18
100
AcDbEntity
  8
姿図
100
AcDbSpline
210
0.0
220
0.0
230
1.0
 70
    24
 71
     3
 72
     8
 73
     4
 74
     0
 42
0.000000001
 43
0.0000000001
 40
5.0
 40
5.0
 40
5.0
 40
5.0
 40
6.0
 40
6.0
 40
6.0
 40
6.0
 10
10027.94537884215
 20
-4991.640860587099
 30
-0.0000000000000061
 10
10027.94537884215
 20
-4991.640860587099
 30
-0.0000000000000061
 10
10025.78668260005
 20
-4991.825933004371
 30
-0.0000000000000061
 10
10025.78668260005
 20
-4991.825933004371
 30
-0.0000000000000061
  0
SPLINE
  5
131714
330
18
100
AcDbEntity
  8
姿図
100
AcDbSpline
210
0.0
220
0.0
230
1.0
 70
    24
 71
     3
 72
     8
 73
     4
 74
     0
 42
0.000000001
 43
0.0000000001
 40
6.0
 40
6.0
 40
6.0
 40
6.0
 40
7.0
 40
7.0
 40
7.0
 40
7.0
 10
10025.78668260005
 20
-4991.825933004371
 30
-0.0000000000000061
 10
10025.78668260005
 20
-4991.825933004371
 30
-0.0000000000000061
 10
10021.68400303748
 20
-5012.614770625789
 30
-0.0000000000000061
 10
10021.68400303748
 20
-5012.614770625789
 30
-0.0000000000000061
  0
ELLIPSE
  5
131715
330
18
100
AcDbEntity
  8
姿図
100
AcDbEllipse
 10
10042.11534725912
 20
-5022.279020915228
 30
-0.0000000000000061
 11
0.452198425796245
 21
-1.620829529392776
 31
0.0
210
0.0
220
0.0
230
1.0
 40
0.6435311717170277
 41
0.1727975711782461
 42
3.069675997577924
  0
ELLIPSE
  5
131716
330
18
100
AcDbEntity
  8
姿図
100
AcDbEllipse
 10
10042.61128350228
 20
-5022.097563193606
 30
-0.0000000000000061
 11
0.4775012953451957
 21
-1.714088677158909
 31
0.0
210
0.0
220
0.0
230
1.0
 40
0.6435771184023121
 41
0.0
 42
6.283185307179586
  0
LINE
  5
131717
330
18
100
AcDbEntity
  8
姿図
100
AcDbLine
 10
10042.36152217679
 20
-5024.893051578119
 30
-0.0000000000000061
 11
10043.38264890188
 21
-5024.338554661245
 31
-0.0000000000000061
  0
LINE
  5
131718
330
18
100
AcDbEntity
  8
姿図
100
AcDbLine
 10
10040.67995161657
 20
-5019.942481647166
 30
-0.0000000000000061
 11
10041.98051911138
 21
-5019.741504569033
 31
-0.0000000000000061
  0
ELLIPSE
  5
131719
330
18
100
AcDbEntity
  8
姿図
100
AcDbEllipse
 10
10042.44536897195
 20
-5022.125757819675
 30
-0.0000000000000061
 11
0.6513681561029848
 21
-2.342322781102853
 31
0.0
210
0.0
220
0.0
230
1.0
 40
0.6439476357599929
 41
0.0
 42
6.283185307179586
  0
ELLIPSE
  5
13171A
330
18
100
AcDbEntity
  8
姿図
100
AcDbEllipse
 10
10041.37939522481
 20
-5022.46843096728
 30
-0.0000000000000061
 11
0.7023353647658706
 21
-2.527395198375176
 31
0.0
210
0.0
220
0.0
230
1.0
 40
0.8372735138002815
 41
2.937168574284825
 42
6.528588851372925
  0
LINE
  5
13171B
330
18
100
AcDbEntity
  8
姿図
100
AcDbLine
 10
10036.4030753126
 20
-5021.499692533121
 30
-0.0000000000000061
 11
10040.05730802957
 21
-5020.108620591059
 31
-0.0000000000000061
  0
SPLINE
  5
13171C
330
18
100
AcDbEntity
  8
姿図
100
AcDbSpline
210
0.0
220
0.0
230
1.0
 70
    24
 71
     3
 72
     8
 73
     4
 74
     0
 42
0.000000001
 43
0.0000000001
 40
0.0
 40
0.0
 40
0.0
 40
0.0
 40
1.0
 40
1.0
 40
1.0
 40
1.0
 10
10044.91131434428
 20
-5017.335563144494
 30
-0.0000000000000061
 10
10044.91131434428
 20
-5017.335563144494
 30
-0.0000000000000061
 10
10046.45262056938
 20
-5015.823174484596
 30
-0.0000000000000061
 10
10046.45262056938
 20
-5015.823174484596
 30
-0.0000000000000061
  0
SPLINE
  5
13171D
330
18
100
AcDbEntity
  8
姿図
100
AcDbSpline
210
0.0
220
0.0
230
1.0
 70
     8
 71
     3
 72
     8
 73
     4
 74
     0
 42
0.000000001
 43
0.0000000001
 40
1.0
 40
1.0
 40
1.0
 40
1.0
 40
2.0
 40
2.0
 40
2.0
 40
2.0
 10
10046.45262056938
 20
-5015.823174484596
 30
-0.0000000000000061
 10
10046.45262056938
 20
-5015.823174484596
 30
-0.0000000000000061
 10
10046.51623921281
 20
-5015.700274832501
 30
-0.0000000000000061
 10
10046.4844298911
 20
-5015.607738623866
 30
-0.0000000000000061
  0
SPLINE
  5
13171E
330
18
100
AcDbEntity
  8
姿図
100
AcDbSpline
210
0.0
220
0.0
230
1.0
 70
    24
 71
     3
 72
     8
 73
     4
 74
     0
 42
0.000000001
 43
0.0000000001
 40
1.504403239517428
 40
1.504403239517428
 40
1.504403239517428
 40
1.504403239517428
 40
1.793215549939622
 40
1.793215549939622
 40
1.793215549939622
 40
1.793215549939622
 10
10034.97000906286
 20
-5008.998865056578
 30
-0.0000000000000061
 10
10036.1279936198
 20
-5008.134734869768
 30
-0.0000000000000061
 10
10037.28008723872
 20
-5007.275000715122
 30
-0.0000000000000061
 10
10038.03989817136
 20
-5006.708002166454
 30
-0.0000000000000061
  0
SPLINE
  5
13171F
330
18
100
AcDbEntity
  8
姿図
100
AcDbSpline
210
0.0
220
0.0
230
1.0
 70
     8
 71
     3
 72
     8
 73
     4
 74
     0
 42
0.000000001
 43
0.0000000001
 40
0.0
 40
0.0
 40
0.0
 40
0.0
 40
1.0
 40
1.0
 40
1.0
 40
1.0
 10
10049.10580717637
 20
-5019.186287317217
 30
-0.0000000000000061
 10
10049.10580717637
 20
-5019.186287317217
 30
-0.0000000000000061
 10
10049.38196992402
 20
-5019.55643215176
 30
-0.0000000000000061
 10
10049.22870682846
 20
-5019.741504569033
 30
-0.0000000000000061
  0
SPLINE
  5
131720
330
18
100
AcDbEntity
  8
姿図
100
AcDbSpline
210
0.0
220
0.0
230
1.0
 70
    24
 71
     3
 72
     8
 73
     4
 74
     0
 42
0.000000001
 43
0.0000000001
 40
1.0
 40
1.0
 40
1.0
 40
1.0
 40
1.888883729132651
 40
1.888883729132651
 40
1.888883729132651
 40
1.888883729132651
 10
10049.22870682846
 20
-5019.741504569033
 30
-0.0000000000000061
 10
10049.22870682846
 20
-5019.741504569033
 30
-0.0000000000000061
 10
10043.8673810818
 20
-5024.006117612349
 30
-0.0000000000000061
 10
10042.67592003405
 20
-5024.95385340848
 30
-0.0000000000000061
  0
SPLINE
  5
131721
330
18
100
AcDbEntity
  8
姿図
100
AcDbSpline
210
0.0
220
0.0
230
1.0
 70
     8
 71
     3
 72
    11
 73
     7
 74
     0
 42
0.000000001
 43
0.0000000001
 40
0.0
 40
0.0
 40
0.0
 40
0.0
 40
1.0
 40
1.0
 40
1.0
 40
1.814174646936442
 40
1.814174646936442
 40
1.814174646936442
 40
1.814174646936442
 10
10050.00080581927
 20
-5017.520635561766
 30
-0.0000000000000061
 10
10050.00080581927
 20
-5017.520635561766
 30
-0.0000000000000061
 10
10050.30877788863
 20
-5017.737517300757
 30
-0.0000000000000061
 10
10049.84609684545
 20
-5018.13802557876
 30
-0.0000000000000061
 10
10049.46939367048
 20
-5018.464109264599
 30
-0.0000000000000061
 10
10045.53494527147
 20
-5021.632938730203
 30
-0.0000000000000061
 10
10044.08571270639
 20
-5022.799376422769
 30
-0.0000000000000061
  0
SPLINE
  5
131722
330
18
100
AcDbEntity
  8
姿図
100
AcDbSpline
210
0.0
220
0.0
230
1.0
 70
    24
 71
     3
 72
     8
 73
     4
 74
     0
 42
0.000000001
 43
0.0000000001
 40
0.0
 40
0.0
 40
0.0
 40
0.0
 40
1.0
 40
1.0
 40
1.0
 40
1.0
 10
10048.797835107
 20
-5016.749982449217
 30
-0.0000000000000061
 10
10048.797835107
 20
-5016.749982449217
 30
-0.0000000000000061
 10
10050.18587823654
 20
-5017.613171770402
 30
-0.0000000000000061
 10
10050.18587823654
 20
-5017.613171770402
 30
-0.0000000000000061
  0
SPLINE
  5
131723
330
18
100
AcDbEntity
  8
姿図
100
AcDbSpline
210
0.0
220
0.0
230
1.0
 70
     8
 71
     3
 72
     8
 73
     4
 74
     0
 42
0.000000001
 43
0.0000000001
 40
1.0
 40
1.0
 40
1.0
 40
1.0
 40
2.0
 40
2.0
 40
2.0
 40
2.0
 10
10050.18587823654
 20
-5017.613171770402
 30
-0.0000000000000061
 10
10050.18587823654
 20
-5017.613171770402
 30
-0.0000000000000061
 10
10050.52421374937
 20
-5017.860416952852
 30
-0.0000000000000061
 10
10050.24660512346
 20
-5018.13802557876
 30
-0.0000000000000061
  0
SPLINE
  5
131724
330
18
100
AcDbEntity
  8
姿図
100
AcDbSpline
210
0.0
220
0.0
230
1.0
 70
    24
 71
     3
 72
     8
 73
     4
 74
     0
 42
0.000000001
 43
0.0000000001
 40
2.0
 40
2.0
 40
2.0
 40
2.0
 40
2.760018265937639
 40
2.760018265937639
 40
2.760018265937639
 40
2.760018265937639
 10
10050.24660512346
 20
-5018.13802557876
 30
-0.0000000000000061
 10
10050.24660512346
 20
-5018.13802557876
 30
-0.0000000000000061
 10
10045.98844281432
 20
-5021.807803981496
 30
-0.0000000000000061
 10
10043.94468046459
 20
-5023.569163550923
 30
-0.0000000000000061
  0
SPLINE
  5
131725
330
18
100
AcDbEntity
  8
姿図
100
AcDbSpline
210
0.0
220
0.0
230
1.0
 70
     8
 71
     3
 72
    11
 73
     7
 74
     0
 42
0.000000001
 43
0.0000000001
 40
0.0
 40
0.0
 40
0.0
 40
0.0
 40
1.0
 40
1.0
 40
1.0
 40
1.887883960454416
 40
1.887883960454416
 40
1.887883960454416
 40
1.887883960454416
 10
10050.12370547136
 20
-5015.084330693767
 30
-0.0000000000000061
 10
10050.12370547136
 20
-5015.084330693767
 30
-0.0000000000000061
 10
10050.52421374937
 20
-5015.052521372048
 30
-0.0000000000000061
 10
10049.69138787164
 20
-5015.669911389043
 30
-0.0000000000000061
 10
10048.95193513296
 20
-5016.218082082477
 30
-0.0000000000000061
 10
10044.41966256328
 20
-5019.781131349307
 30
-0.0000000000000061
 10
10043.41267658758
 20
-5020.57319078523
 30
-0.0000000000000061
  0
SPLINE
  5
131726
330
18
100
AcDbEntity
  8
姿図
100
AcDbSpline
210
0.0
220
0.0
230
1.0
 70
     8
 71
     3
 72
    11
 73
     7
 74
     0
 42
0.000000001
 43
0.0000000001
 40
0.0
 40
0.0
 40
0.0
 40
0.0
 40
1.0
 40
1.0
 40
1.0
 40
1.675127286579802
 40
1.675127286579802
 40
1.675127286579802
 40
1.675127286579802
 10
10049.04363441119
 20
-5012.554043738871
 30
-0.0000000000000061
 10
10049.04363441119
 20
-5012.554043738871
 30
-0.0000000000000061
 10
10049.50776133263
 20
-5012.585853060591
 30
-0.0000000000000061
 10
10049.16797994155
 20
-5012.893825129958
 30
-0.0000000000000061
 10
10048.93858425295
 20
-5013.101745477492
 30
-0.0000000000000061
 10
10044.78699079731
 20
-5016.416977002312
 30
-0.0000000000000061
 10
10042.11372287939
 20
-5018.549089136959
 30
-0.0000000000000061
  0
SPLINE
  5
131727
330
18
100
AcDbEntity
  8
姿図
100
AcDbSpline
210
0.0
220
0.0
230
1.0
 70
    24
 71
     3
 72
     8
 73
     4
 74
     0
 42
0.000000001
 43
0.0000000001
 40
0.0
 40
0.0
 40
0.0
 40
0.0
 40
1.0
 40
1.0
 40
1.0
 40
1.0
 10
10047.74812749028
 20
-5014.52911344195
 30
-0.0000000000000061
 10
10047.74812749028
 20
-5014.52911344195
 30
-0.0000000000000061
 10
10050.12370547136
 20
-5015.084330693767
 30
-0.0000000000000061
 10
10050.12370547136
 20
-5015.084330693767
 30
-0.0000000000000061
  0
SPLINE
  5
131728
330
18
100
AcDbEntity
  8
姿図
100
AcDbSpline
210
0.0
220
0.0
230
1.0
 70
     8
 71
     3
 72
    11
 73
     7
 74
     0
 42
0.000000001
 43
0.0000000001
 40
1.0
 40
1.0
 40
1.0
 40
1.0
 40
2.0
 40
2.0
 40
2.0
 40
2.903771721635469
 40
2.903771721635469
 40
2.903771721635469
 40
2.903771721635469
 10
10050.12370547136
 20
-5015.084330693767
 30
-0.0000000000000061
 10
10050.12370547136
 20
-5015.084330693767
 30
-0.0000000000000061
 10
10050.70928616664
 20
-5015.205784467602
 30
-0.0000000000000061
 10
10050.30877788863
 20
-5015.515202415228
 30
-0.0000000000000061
 10
10049.9468098327
 20
-5015.794845606461
 30
-0.0000000000000061
 10
10044.63409744805
 20
-5020.066262612345
 30
-0.0000000000000061
 10
10043.61498289694
 20
-5020.885735358823
 30
-0.0000000000000061
  0
SPLINE
  5
131729
330
18
100
AcDbEntity
  8
姿図
100
AcDbSpline
210
0.0
220
0.0
230
1.0
 70
    24
 71
     3
 72
     8
 73
     4
 74
     0
 42
0.000000001
 43
0.0000000001
 40
0.0
 40
0.0
 40
0.0
 40
0.0
 40
1.0
 40
1.0
 40
1.0
 40
1.0
 10
10043.86160672757
 20
-5015.176866902403
 30
-0.0000000000000061
 10
10043.86160672757
 20
-5015.176866902403
 30
-0.0000000000000061
 10
10045.83667643064
 20
-5013.326142729679
 30
-0.0000000000000061
 10
10045.83667643064
 20
-5013.326142729679
 30
-0.0000000000000061
  0
SPLINE
  5
13172A
330
18
100
AcDbEntity
  8
姿図
100
AcDbSpline
210
0.0
220
0.0
230
1.0
 70
     8
 71
     3
 72
     8
 73
     4
 74
     0
 42
0.000000001
 43
0.0000000001
 40
1.0
 40
1.0
 40
1.0
 40
1.0
 40
1.201957035102942
 40
1.201957035102942
 40
1.201957035102942
 40
1.201957035102942
 10
10045.83667643064
 20
-5013.326142729679
 30
-0.0000000000000061
 10
10045.755498961
 20
-5013.014573088986
 30
-0.0000000000000061
 10
10045.63286380846
 20
-5012.74705592215
 30
-0.0000000000000061
 10
10045.48882727102
 20
-5012.518505695177
 30
-0.0000000000000061
  0
SPLINE
  5
13172B
330
18
100
AcDbEntity
  8
姿図
100
AcDbSpline
210
0.0
220
0.0
230
1.0
 70
     8
 71
     3
 72
     8
 73
     4
 74
     0
 42
0.000000001
 43
0.0000000001
 40
1.371408514633379
 40
1.371408514633379
 40
1.371408514633379
 40
1.371408514633379
 40
2.0
 40
2.0
 40
2.0
 40
2.0
 10
10045.0929142284
 20
-5012.022506654077
 30
-0.0000000000000061
 10
10044.57676679771
 20
-5011.503527473896
 30
-0.0000000000000061
 10
10044.01631570138
 20
-5011.320709583143
 30
-0.0000000000000061
 10
10044.01631570138
 20
-5011.320709583143
 30
-0.0000000000000061
  0
SPLINE
  5
13172C
330
18
100
AcDbEntity
  8
姿図
100
AcDbSpline
210
0.0
220
0.0
230
1.0
 70
    24
 71
     3
 72
     8
 73
     4
 74
     0
 42
0.000000001
 43
0.0000000001
 40
2.0
 40
2.0
 40
2.0
 40
2.0
 40
3.0
 40
3.0
 40
3.0
 40
3.0
 10
10044.01631570138
 20
-5011.320709583143
 30
-0.0000000000000061
 10
10044.01631570138
 20
-5011.320709583143
 30
-0.0000000000000061
 10
10042.04196893743
 20
-5012.831652364781
 30
-0.0000000000000061
 10
10042.04196893743
 20
-5012.831652364781
 30
-0.0000000000000061
  0
SPLINE
  5
13172D
330
18
100
AcDbEntity
  8
姿図
100
AcDbSpline
210
0.0
220
0.0
230
1.0
 70
    24
 71
     3
 72
     8
 73
     4
 74
     0
 42
0.000000001
 43
0.0000000001
 40
0.1253663450285614
 40
0.1253663450285614
 40
0.1253663450285614
 40
0.1253663450285614
 40
1.0
 40
1.0
 40
1.0
 40
1.0
 10
10045.69256899264
 20
-5012.905570836505
 30
-0.0000000000000061
 10
10046.42638114019
 20
-5012.822926838028
 30
-0.0000000000000061
 10
10049.35305235882
 20
-5012.493316851954
 30
-0.0000000000000061
 10
10049.35305235882
 20
-5012.493316851954
 30
-0.0000000000000061
  0
SPLINE
  5
13172E
330
18
100
AcDbEntity
  8
姿図
100
AcDbSpline
210
0.0
220
0.0
230
1.0
 70
     8
 71
     3
 72
    11
 73
     7
 74
     0
 42
0.000000001
 43
0.0000000001
 40
1.0
 40
1.0
 40
1.0
 40
1.0
 40
2.0
 40
2.0
 40
2.0
 40
2.79498799956431
 40
2.79498799956431
 40
2.79498799956431
 40
2.79498799956431
 10
10049.35305235882
 20
-5012.493316851954
 30
-0.0000000000000061
 10
10049.35305235882
 20
-5012.493316851954
 30
-0.0000000000000061
 10
10050.24805100172
 20
-5012.461507530235
 30
-0.0000000000000061
 10
10049.53812477609
 20
-5013.07889754723
 30
-0.0000000000000061
 10
10048.97374194614
 20
-5013.569715201791
 30
-0.0000000000000061
 10
10044.14052550962
 20
-5017.549435074031
 30
-0.0000000000000061
 10
10042.18251173461
 20
-5019.160586711479
 30
-0.0000000000000061
  0
SPLINE
  5
13172F
330
18
100
AcDbEntity
  8
姿図
100
AcDbSpline
210
0.0
220
0.0
230
1.0
 70
    24
 71
     3
 72
     8
 73
     4
 74
     0
 42
0.000000001
 43
0.0000000001
 40
1.442042809461977
 40
1.442042809461977
 40
1.442042809461977
 40
1.442042809461977
 40
2.0
 40
2.0
 40
2.0
 40
2.0
 10
10042.91505221744
 20
-5013.659954868629
 30
-0.0000000000000061
 10
10045.2412652064
 20
-5011.910967427607
 30
-0.0000000000000061
 10
10047.87247302064
 20
-5009.9326664536
 30
-0.0000000000000061
 10
10047.87247302064
 20
-5009.9326664536
 30
-0.0000000000000061
  0
SPLINE
  5
131730
330
18
100
AcDbEntity
  8
姿図
100
AcDbSpline
210
0.0
220
0.0
230
1.0
 70
     8
 71
     3
 72
     8
 73
     4
 74
     0
 42
0.000000001
 43
0.0000000001
 40
2.0
 40
2.0
 40
2.0
 40
2.0
 40
3.0
 40
3.0
 40
3.0
 40
3.0
 10
10047.87247302064
 20
-5009.9326664536
 30
-0.0000000000000061
 10
10047.87247302064
 20
-5009.9326664536
 30
-0.0000000000000061
 10
10048.24261785518
 20
-5009.858926662344
 30
-0.0000000000000061
 10
10048.18044509
 20
-5010.240638522967
 30
-0.0000000000000061
  0
SPLINE
  5
131731
330
18
100
AcDbEntity
  8
姿図
100
AcDbSpline
210
0.0
220
0.0
230
1.0
 70
     8
 71
     3
 72
     8
 73
     4
 74
     0
 42
0.000000001
 43
0.0000000001
 40
3.0
 40
3.0
 40
3.0
 40
3.0
 40
3.531291710607063
 40
3.531291710607063
 40
3.531291710607063
 40
3.531291710607063
 10
10048.18044509
 20
-5010.240638522967
 30
-0.0000000000000061
 10
10048.16431324419
 20
-5010.338965964126
 30
-0.0000000000000061
 10
10045.84061815892
 20
-5012.23959253253
 30
-0.0000000000000061
 10
10043.66589182618
 20
-5013.999670081981
 30
-0.0000000000000061
  0
SPLINE
  5
131732
330
18
100
AcDbEntity
  8
姿図
100
AcDbSpline
210
0.0
220
0.0
230
1.0
 70
    24
 71
     3
 72
     8
 73
     4
 74
     0
 42
0.000000001
 43
0.0000000001
 40
1.47114458461932
 40
1.47114458461932
 40
1.47114458461932
 40
1.47114458461932
 40
2.0
 40
2.0
 40
2.0
 40
2.0
 10
10041.28955045479
 20
-5011.222619798115
 30
-0.0000000000000061
 10
10043.52502080328
 20
-5009.564260136198
 30
-0.0000000000000061
 10
10045.89740331756
 20
-5007.804333654968
 30
-0.0000000000000061
 10
10045.89740331756
 20
-5007.804333654968
 30
-0.0000000000000061
  0
SPLINE
  5
131733
330
18
100
AcDbEntity
  8
姿図
100
AcDbSpline
210
0.0
220
0.0
230
1.0
 70
     8
 71
     3
 72
     8
 73
     4
 74
     0
 42
0.000000001
 43
0.0000000001
 40
2.0
 40
2.0
 40
2.0
 40
2.0
 40
3.0
 40
3.0
 40
3.0
 40
3.0
 10
10045.89740331756
 20
-5007.804333654968
 30
-0.0000000000000061
 10
10045.89740331756
 20
-5007.804333654968
 30
-0.0000000000000061
 10
10046.51623921281
 20
-5007.558534350778
 30
-0.0000000000000061
 10
10046.4844298911
 20
-5008.020492454829
 30
-0.0000000000000061
  0
SPLINE
  5
131734
330
18
100
AcDbEntity
  8
姿図
100
AcDbSpline
210
0.0
220
0.0
230
1.0
 70
    24
 71
     3
 72
     8
 73
     4
 74
     0
 42
0.000000001
 43
0.0000000001
 40
3.0
 40
3.0
 40
3.0
 40
3.0
 40
4.0
 40
4.0
 40
4.0
 40
4.0
 10
10046.4844298911
 20
-5008.020492454829
 30
-0.0000000000000061
 10
10046.4844298911
 20
-5008.020492454829
 30
-0.0000000000000061
 10
10044.41682397938
 20
-5011.475418556956
 30
-0.0000000000000061
 10
10044.41682397938
 20
-5011.475418556956
 30
-0.0000000000000061
  0
SPLINE
  5
131735
330
18
100
AcDbEntity
  8
姿図
100
AcDbSpline
210
0.0
220
0.0
230
1.0
 70
    24
 71
     3
 72
     8
 73
     4
 74
     0
 42
0.000000001
 43
0.0000000001
 40
1.360572712780075
 40
1.360572712780075
 40
1.360572712780075
 40
1.360572712780075
 40
1.428242292534494
 40
1.428242292534494
 40
1.428242292534494
 40
1.428242292534494
 10
10037.80915541619
 20
-5010.906380630834
 30
-0.0000000000000061
 10
10038.0748037077
 20
-5010.710009335186
 30
-0.0000000000000061
 10
10038.35132286817
 20
-5010.50560212629
 30
-0.0000000000000061
 10
10038.63343683474
 20
-5010.297059150835
 30
-0.0000000000000061
  0
SPLINE
  5
131736
330
18
100
AcDbEntity
  8
姿図
100
AcDbSpline
210
0.0
220
0.0
230
1.0
 70
    24
 71
     3
 72
     8
 73
     4
 74
     0
 42
0.000000001
 43
0.0000000001
 40
1.615278216396081
 40
1.615278216396081
 40
1.615278216396081
 40
1.615278216396081
 40
2.0
 40
2.0
 40
2.0
 40
2.0
 10
10040.98950993327
 20
-5008.555413742998
 30
-0.0000000000000061
 10
10042.54009150845
 20
-5007.409200036142
 30
-0.0000000000000061
 10
10043.80015690152
 20
-5006.477740351474
 30
-0.0000000000000061
 10
10043.80015690152
 20
-5006.477740351474
 30
-0.0000000000000061
  0
SPLINE
  5
131737
330
18
100
AcDbEntity
  8
姿図
100
AcDbSpline
210
0.0
220
0.0
230
1.0
 70
     8
 71
     3
 72
     8
 73
     4
 74
     0
 42
0.000000001
 43
0.0000000001
 40
2.0
 40
2.0
 40
2.0
 40
2.0
 40
3.0
 40
3.0
 40
3.0
 40
3.0
 10
10043.80015690152
 20
-5006.477740351474
 30
-0.0000000000000061
 10
10043.80015690152
 20
-5006.477740351474
 30
-0.0000000000000061
 10
10044.0770425883
 20
-5006.262304490742
 30
-0.0000000000000061
 10
10044.04667914484
 20
-5007.156580194515
 30
-0.0000000000000061
  0
SPLINE
  5
131738
330
18
100
AcDbEntity
  8
姿図
100
AcDbSpline
210
0.0
220
0.0
230
1.0
 70
    24
 71
     3
 72
     8
 73
     4
 74
     0
 42
0.000000001
 43
0.0000000001
 40
1.359507037869534
 40
1.359507037869534
 40
1.359507037869534
 40
1.359507037869534
 40
1.445359962748388
 40
1.445359962748388
 40
1.445359962748388
 40
1.445359962748388
 10
10037.49019330299
 20
-5010.706595686022
 30
-0.0000000000000061
 10
10037.83533364206
 20
-5010.450491550361
 30
-0.0000000000000061
 10
10038.19855336507
 20
-5010.180971987786
 30
-0.0000000000000061
 10
10038.56880445958
 20
-5009.906234943742
 30
-0.0000000000000061
  0
SPLINE
  5
131739
330
18
100
AcDbEntity
  8
姿図
100
AcDbSpline
210
0.0
220
0.0
230
1.0
 70
    24
 71
     3
 72
     8
 73
     4
 74
     0
 42
0.000000001
 43
0.0000000001
 40
1.629831745831646
 40
1.629831745831646
 40
1.629831745831646
 40
1.629831745831646
 40
2.0
 40
2.0
 40
2.0
 40
2.0
 10
10040.9432646208
 20
-5008.14431667918
 30
-0.0000000000000061
 10
10042.4500165474
 20
-5007.02626307568
 30
-0.0000000000000061
 10
10043.64617086683
 20
-5006.138681899517
 30
-0.0000000000000061
 10
10043.64617086683
 20
-5006.138681899517
 30
-0.0000000000000061
  0
SPLINE
  5
13173A
330
18
100
AcDbEntity
  8
姿図
100
AcDbSpline
210
0.0
220
0.0
230
1.0
 70
     8
 71
     3
 72
    11
 73
     7
 74
     0
 42
0.000000001
 43
0.0000000001
 40
2.0
 40
2.0
 40
2.0
 40
2.0
 40
3.0
 40
3.0
 40
3.0
 40
4.0
 40
4.0
 40
4.0
 40
4.0
 10
10043.64617086683
 20
-5006.138681899517
 30
-0.0000000000000061
 10
10043.64617086683
 20
-5006.138681899517
 30
-0.0000000000000061
 10
10044.04667914484
 20
-5006.07650913434
 30
-0.0000000000000061
 10
10044.04667914484
 20
-5006.477740351474
 30
-0.0000000000000061
 10
10044.04667914484
 20
-5006.878971568607
 30
-0.0000000000000061
 10
10044.01631570138
 20
-5009.099840575875
 30
-0.0000000000000061
 10
10044.01631570138
 20
-5009.099840575875
 30
-0.0000000000000061
  0
SPLINE
  5
13173B
330
18
100
AcDbEntity
  8
姿図
100
AcDbSpline
210
0.0
220
0.0
230
1.0
 70
    24
 71
     3
 72
     8
 73
     4
 74
     0
 42
0.000000001
 43
0.0000000001
 40
1.403452693705031
 40
1.403452693705031
 40
1.403452693705031
 40
1.403452693705031
 40
1.573101002211188
 40
1.573101002211188
 40
1.573101002211188
 40
1.573101002211188
 10
10036.12723109273
 20
-5009.812310751274
 30
-0.0000000000000061
 10
10036.82751910128
 20
-5009.290961619297
 30
-0.0000000000000061
 10
10037.57546434865
 20
-5008.73413271359
 30
-0.0000000000000061
 10
10038.28732581436
 20
-5008.20416739546
 30
-0.0000000000000061
  0
SPLINE
  5
13173C
330
18
100
AcDbEntity
  8
姿図
100
AcDbSpline
210
0.0
220
0.0
230
1.0
 70
    24
 71
     3
 72
     8
 73
     4
 74
     0
 42
0.000000001
 43
0.0000000001
 40
1.799348189808347
 40
1.799348189808347
 40
1.799348189808347
 40
1.799348189808347
 40
2.0
 40
2.0
 40
2.0
 40
2.0
 10
10040.74423567748
 20
-5006.375051647592
 30
-0.0000000000000061
 10
10041.29620101733
 20
-5005.964125503921
 30
-0.0000000000000061
 10
10041.64146065943
 20
-5005.707087238926
 30
-0.0000000000000061
 10
10041.64146065943
 20
-5005.707087238926
 30
-0.0000000000000061
  0
SPLINE
  5
13173D
330
18
100
AcDbEntity
  8
姿図
100
AcDbSpline
210
0.0
220
0.0
230
1.0
 70
     8
 71
     3
 72
     8
 73
     4
 74
     0
 42
0.000000001
 43
0.0000000001
 40
2.0
 40
2.0
 40
2.0
 40
2.0
 40
3.0
 40
3.0
 40
3.0
 40
3.0
 10
10041.64146065943
 20
-5005.707087238926
 30
-0.0000000000000061
 10
10041.64146065943
 20
-5005.707087238926
 30
-0.0000000000000061
 10
10041.85761945929
 20
-5005.737450682384
 30
-0.0000000000000061
 10
10041.8265330767
 20
-5006.200131725564
 30
-0.0000000000000061
  0
SPLINE
  5
13173E
330
18
100
AcDbEntity
  8
姿図
100
AcDbSpline
210
0.0
220
0.0
230
1.0
 70
    24
 71
     3
 72
     8
 73
     4
 74
     0
 42
0.000000001
 43
0.0000000001
 40
1.401660082951144
 40
1.401660082951144
 40
1.401660082951144
 40
1.401660082951144
 40
1.583667207078013
 40
1.583667207078013
 40
1.583667207078013
 40
1.583667207078013
 10
10035.91113337602
 20
-5009.664289432207
 30
-0.0000000000000061
 10
10036.66665913563
 20
-5009.102989322
 30
-0.0000000000000061
 10
10037.47845281386
 20
-5008.499886283797
 30
-0.0000000000000061
 10
10038.24237397257
 20
-5007.932349009101
 30
-0.0000000000000061
  0
SPLINE
  5
13173F
330
18
100
AcDbEntity
  8
姿図
100
AcDbSpline
210
0.0
220
0.0
230
1.0
 70
    24
 71
     3
 72
     8
 73
     4
 74
     0
 42
0.000000001
 43
0.0000000001
 40
1.815455566821609
 40
1.815455566821609
 40
1.815455566821609
 40
1.815455566821609
 40
2.0
 40
2.0
 40
2.0
 40
2.0
 10
10040.71294528157
 20
-5006.096896107096
 30
-0.0000000000000061
 10
10041.1926306132
 20
-5005.740525161319
 30
-0.0000000000000061
 10
10041.48675168561
 20
-5005.522014821654
 30
-0.0000000000000061
 10
10041.48675168561
 20
-5005.522014821654
 30
-0.0000000000000061
  0
SPLINE
  5
131740
330
18
100
AcDbEntity
  8
姿図
100
AcDbSpline
210
0.0
220
0.0
230
1.0
 70
     8
 71
     3
 72
     8
 73
     4
 74
     0
 42
0.000000001
 43
0.0000000001
 40
2.0
 40
2.0
 40
2.0
 40
2.0
 40
3.0
 40
3.0
 40
3.0
 40
3.0
 10
10041.48675168561
 20
-5005.522014821654
 30
-0.0000000000000061
 10
10041.48675168561
 20
-5005.522014821654
 30
-0.0000000000000061
 10
10041.79616963324
 20
-5005.397669291298
 30
-0.0000000000000061
 10
10041.8265330767
 20
-5005.737450682384
 30
-0.0000000000000061
  0
SPLINE
  5
131741
330
18
100
AcDbEntity
  8
姿図
100
AcDbSpline
210
0.0
220
0.0
230
1.0
 70
    24
 71
     3
 72
     8
 73
     4
 74
     0
 42
0.000000001
 43
0.0000000001
 40
3.0
 40
3.0
 40
3.0
 40
3.0
 40
4.0
 40
4.0
 40
4.0
 40
4.0
 10
10041.8265330767
 20
-5005.737450682384
 30
-0.0000000000000061
 10
10041.8265330767
 20
-5005.737450682384
 30
-0.0000000000000061
 10
10041.76436031152
 20
-5007.896869863605
 30
-0.0000000000000061
 10
10041.76436031152
 20
-5007.896869863605
 30
-0.0000000000000061
  0
SPLINE
  5
131742
330
18
100
AcDbEntity
  8
姿図
100
AcDbSpline
210
0.0
220
0.0
230
1.0
 70
    24
 71
     3
 72
     8
 73
     4
 74
     0
 42
0.000000001
 43
0.0000000001
 40
1.509037387551805
 40
1.509037387551805
 40
1.509037387551805
 40
1.509037387551805
 40
1.810497930033095
 40
1.810497930033095
 40
1.810497930033095
 40
1.810497930033095
 10
10034.82639284418
 20
-5008.894277455516
 30
-0.0000000000000061
 10
10036.04884134153
 20
-5007.983377942515
 30
-0.0000000000000061
 10
10037.25796365348
 20
-5007.082408349529
 30
-0.0000000000000061
 10
10038.00923761475
 20
-5006.522601464468
 30
-0.0000000000000061
  0
SPLINE
  5
131743
330
18
100
AcDbEntity
  8
姿図
100
AcDbSpline
210
0.0
220
0.0
230
1.0
 70
     8
 71
     3
 72
     8
 73
     4
 74
     0
 42
0.000000001
 43
0.0000000001
 40
0.3537168008125633
 40
0.3537168008125633
 40
0.3537168008125633
 40
0.3537168008125633
 40
1.0
 40
1.0
 40
1.0
 40
1.0
 10
10036.66989261303
 20
-5036.23877399106
 30
-0.0000000000000061
 10
10035.58314226516
 20
-5037.277478044608
 30
-0.0000000000000061
 10
10033.52168684459
 20
-5039.00815428122
 30
-0.0000000000000061
 10
10030.35204320582
 20
-5040.622878399087
 30
-0.0000000000000061
  0
SPLINE
  5
131744
330
18
100
AcDbEntity
  8
姿図
100
AcDbSpline
210
0.0
220
0.0
230
1.0
 70
     8
 71
     3
 72
     8
 73
     4
 74
     0
 42
0.000000001
 43
0.0000000001
 40
1.0
 40
1.0
 40
1.0
 40
1.000000000000004
 40
2.0
 40
2.0
 40
2.0
 40
2.0
 10
10019.25996015198
 20
-5013.685751078253
 30
-0.0000000000000061
 10
10023.34025658424
 20
-5010.723561861788
 30
-0.0000000000000061
 10
10030.33686148409
 20
-5013.346385025318
 30
-0.0000000000000061
 10
10035.08078805495
 20
-5019.549202760461
 30
-0.0000000000000061
  0
SPLINE
  5
131745
330
18
100
AcDbEntity
  8
姿図
100
AcDbSpline
210
0.0
220
0.0
230
1.0
 70
     8
 71
     3
 72
     8
 73
     4
 74
     0
 42
0.000000001
 43
0.0000000001
 40
2.0
 40
2.0
 40
2.0
 40
2.0
 40
2.10277645146085
 40
2.10277645146085
 40
2.10277645146085
 40
2.10277645146085
 10
10035.08078805495
 20
-5019.549202760461
 30
-0.0000000000000061
 10
10035.56864919837
 20
-5020.186706356338
 30
-0.0000000000000061
 10
10036.01375410857
 20
-5020.8373292965
 30
-0.0000000000000061
 10
10036.41555113276
 20
-5021.494943310856
 30
-0.0000000000000061
  0
SPLINE
  5
131746
330
18
100
AcDbEntity
  8
姿図
100
AcDbSpline
210
0.0
220
0.0
230
1.0
 70
     8
 71
     3
 72
     8
 73
     4
 74
     0
 42
0.000000001
 43
0.0000000001
 40
2.529370585629382
 40
2.529370585629382
 40
2.529370585629382
 40
2.529370585629382
 40
2.999999999999997
 40
3.0
 40
3.0
 40
3.0
 10
10039.14095421504
 20
-5029.606720666588
 30
-0.0000000000000061
 10
10039.29104506365
 20
-5032.400326461174
 30
-0.0000000000000061
 10
10038.48501421247
 20
-5034.807153981526
 30
-0.0000000000000061
 10
10036.66989261288
 20
-5036.238773991208
 30
-0.0000000000000061
  0
SPLINE
  5
131747
330
18
100
AcDbEntity
  8
姿図
100
AcDbSpline
210
0.0
220
0.0
230
1.0
 70
     8
 71
     3
 72
     8
 73
     4
 74
     0
 42
0.000000001
 43
0.0000000001
 40
0.0
 40
0.0
 40
0.0
 40
0.0
 40
1.0
 40
1.0
 40
1.0
 40
1.0
 10
10013.7295220845
 20
-5018.254337432996
 30
-0.0000000000000061
 10
10017.41577041413
 20
-5015.884464269859
 30
-0.0000000000000061
 10
10024.29236741841
 20
-5018.009342413626
 30
-0.0000000000000061
 10
10028.95604774584
 20
-5024.106611035792
 30
-0.0000000000000061
  0
SPLINE
  5
131748
330
18
100
AcDbEntity
  8
姿図
100
AcDbSpline
210
0.0
220
0.0
230
1.0
 70
     8
 71
     3
 72
     8
 73
     4
 74
     0
 42
0.000000001
 43
0.0000000001
 40
1.0
 40
1.0
 40
1.0
 40
1.0
 40
2.0
 40
2.0
 40
2.0
 40
2.0
 10
10028.95604774584
 20
-5024.106611035792
 30
-0.0000000000000061
 10
10033.62045101241
 20
-5030.20532553622
 30
-0.0000000000000061
 10
10034.30796612501
 20
-5037.517131896736
 30
-0.0000000000000061
 10
10030.48867870138
 20
-5040.437805981815
 30
-0.0000000000000061
  0
SPLINE
  5
131749
330
18
100
AcDbEntity
  8
姿図
100
AcDbSpline
210
0.0
220
0.0
230
1.0
 70
    24
 71
     3
 72
     8
 73
     4
 74
     0
 42
0.000000001
 43
0.0000000001
 40
2.0
 40
2.0
 40
2.0
 40
2.0
 40
3.0
 40
3.0
 40
3.0
 40
3.0
 10
10030.48867870138
 20
-5040.437805981815
 30
-0.0000000000000061
 10
10030.47205110139
 20
-5040.450818886155
 30
-0.0000000000000061
 10
10030.4554235014
 20
-5040.463831790495
 30
-0.0000000000000061
 10
10030.43879590141
 20
-5040.476844694834
 30
-0.0000000000000061
  0
ELLIPSE
  5
13174A
330
18
100
AcDbEntity
  8
姿図
100
AcDbEllipse
 10
10038.74894558444
 20
-5015.91470506692
 30
-0.0000000000000061
 11
5.290155839779327
 21
-5.51914385655662
 31
0.0
210
0.0
220
0.0
230
1.0
 40
0.5896757540129038
 41
6.96598111917236
 42
7.147828363455014
  0
ELLIPSE
  5
13174B
330
18
100
AcDbEntity
  8
姿図
100
AcDbEllipse
 10
10038.74894558444
 20
-5015.91470506692
 30
-0.0000000000000061
 11
5.290155839779327
 21
-5.51914385655662
 31
0.0
210
0.0
220
0.0
230
1.0
 40
0.5896757540129038
 41
7.339249712863026
 42
7.53023533371985
  0
ELLIPSE
  5
13174C
330
18
100
AcDbEntity
  8
姿図
100
AcDbEllipse
 10
10038.74894558444
 20
-5015.91470506692
 30
-0.0000000000000061
 11
5.290155839779327
 21
-5.51914385655662
 31
0.0
210
0.0
220
0.0
230
1.0
 40
0.5896757540129038
 41
7.722658544129226
 42
7.896541804765815
  0
ELLIPSE
  5
13174D
330
18
100
AcDbEntity
  8
姿図
100
AcDbEllipse
 10
10038.74894558444
 20
-5015.91470506692
 30
-0.0000000000000061
 11
5.290155839779327
 21
-5.51914385655662
 31
0.0
210
0.0
220
0.0
230
1.0
 40
0.5896757540129038
 41
8.489247713282603
 42
8.60769396429671
  0
ARC
  5
13174E
330
18
100
AcDbEntity
  8
姿図
100
AcDbCircle
 10
10037.64686835445
 20
-5009.442741201393
 30
-0.0000000000000061
 40
0.4447330102389023
100
AcDbArc
 50
158.3286271790479
 51
250.9430020259656
  0
ARC
  5
13174F
330
18
100
AcDbEntity
  8
姿図
100
AcDbCircle
 10
10042.15500612625
 20
-5012.190723964984
 30
-0.0000000000000061
 40
0.5318306601946722
100
AcDbArc
 50
160.4247343165084
 51
224.460661065416
  0
ARC
  5
131750
330
18
100
AcDbEntity
  8
姿図
100
AcDbCircle
 10
10044.88777844225
 20
-5015.51052491113
 30
-0.0000000000000061
 40
0.8106690833526651
100
AcDbArc
 50
210.0537915452893
 51
255.6920591719458
  0
ARC
  5
131751
330
18
100
AcDbEntity
  8
姿図
100
AcDbCircle
 10
10045.35032141236
 20
-5018.037687362235
 30
-0.0000000000000061
 40
0.4829190527242695
100
AcDbArc
 50
203.2404029724748
 51
273.6673327535127
  0
SPLINE
  5
131752
330
18
100
AcDbEntity
  8
姿図
100
AcDbSpline
210
0.0
220
0.0
230
1.0
 70
     8
 71
     3
 72
     8
 73
     4
 74
     0
 42
0.000000001
 43
0.0000000001
 40
0.0
 40
0.0
 40
0.0
 40
0.0
 40
0.5686588660320964
 40
0.5686588660320964
 40
0.5686588660320964
 40
0.5686588660320964
 10
10024.4339933463
 20
-5042.868536615561
 30
-0.0000000000000061
 10
10027.10614525905
 20
-5042.272862375195
 30
-0.0000000000000061
 10
10028.61218597024
 20
-5041.658125627776
 30
-0.0000000000000061
 10
10030.41001352854
 20
-5040.542951396927
 30
-0.0000000000000061
  0
SPLINE
  5
131753
330
18
100
AcDbEntity
  8
姿図
100
AcDbSpline
210
0.0
220
0.0
230
1.0
 70
     8
 71
     3
 72
     8
 73
     4
 74
     0
 42
0.000000001
 43
0.0000000001
 40
0.0345848742755237
 40
0.0345848742755237
 40
0.0345848742755237
 40
0.0345848742755237
 40
1.0
 40
1.0
 40
1.0
 40
1.0
 10
10021.06908234574
 20
-5041.210424270303
 30
-0.0000000000000061
 10
10018.88514658142
 20
-5041.0093407832
 30
-0.0000000000000061
 10
10015.98589034565
 20
-5038.920072043963
 30
-0.0000000000000061
 10
10013.72809434863
 20
-5035.693527441586
 30
-0.0000000000000061
  0
SPLINE
  5
131754
330
18
100
AcDbEntity
  8
姿図
100
AcDbSpline
210
0.0
220
0.0
230
1.0
 70
     8
 71
     3
 72
     8
 73
     4
 74
     0
 42
0.000000001
 43
0.0000000001
 40
1.0
 40
1.0
 40
1.0
 40
1.0
 40
1.97362383066519
 40
1.97362383066519
 40
1.97362383066519
 40
1.97362383066519
 10
10013.72809434863
 20
-5035.693527441586
 30
-0.0000000000000061
 10
10011.18814704657
 20
-5032.063674199042
 30
-0.0000000000000061
 10
10010.27906872744
 20
-5028.164466559007
 30
-0.0000000000000061
 10
10011.34224899988
 20
-5026.178682559845
 30
-0.0000000000000061
  0
SPLINE
  5
131755
330
18
100
AcDbEntity
  8
姿図
100
AcDbSpline
210
0.0
220
0.0
230
1.0
 70
     8
 71
     3
 72
     8
 73
     4
 74
     0
 42
0.000000001
 43
0.0000000001
 40
0.0486180101854806
 40
0.0486180101854806
 40
0.0486180101854806
 40
0.0486180101854806
 40
1.0
 40
1.0
 40
1.0
 40
1.0
 10
10020.91709465471
 20
-5041.453771273028
 30
-0.0000000000000061
 10
10018.70607263175
 20
-5041.418767413081
 30
-0.0000000000000061
 10
10015.64973632706
 20
-5039.288939395279
 30
-0.0000000000000061
 10
10013.29290741828
 20
-5035.921403381476
 30
-0.0000000000000061
  0
SPLINE
  5
131756
330
18
100
AcDbEntity
  8
姿図
100
AcDbSpline
210
0.0
220
0.0
230
1.0
 70
     8
 71
     3
 72
     8
 73
     4
 74
     0
 42
0.000000001
 43
0.0000000001
 40
1.0
 40
1.0
 40
1.0
 40
1.0
 40
1.97067420936857
 40
1.97067420936857
 40
1.97067420936857
 40
1.97067420936857
 10
10013.29290741828
 20
-5035.921403381476
 30
-0.0000000000000061
 10
10010.62772877821
 20
-5032.112614417278
 30
-0.0000000000000061
 10
10009.75797107514
 20
-5028.006567840647
 30
-0.0000000000000061
 10
10011.07934975757
 20
-5026.126220581548
 30
-0.0000000000000061
  0
SPLINE
  5
131757
330
18
100
AcDbEntity
  8
姿図
100
AcDbSpline
210
0.0
220
0.0
230
1.0
 70
     8
 71
     3
 72
     8
 73
     4
 74
     0
 42
0.000000001
 43
0.0000000001
 40
0.0353979527042438
 40
0.0353979527042438
 40
0.0353979527042438
 40
0.0353979527042438
 40
1.0
 40
1.0
 40
1.0
 40
1.0
 10
10021.26980472788
 20
-5040.613512297504
 30
-0.0000000000000061
 10
10019.05342727047
 20
-5040.541047380176
 30
-0.0000000000000061
 10
10016.0403051352
 20
-5038.273723337438
 30
-0.0000000000000061
 10
10013.79629715258
 20
-5034.766787770372
 30
-0.0000000000000061
  0
SPLINE
  5
131758
330
18
100
AcDbEntity
  8
姿図
100
AcDbSpline
210
0.0
220
0.0
230
1.0
 70
     8
 71
     3
 72
     8
 73
     4
 74
     0
 42
0.000000001
 43
0.0000000001
 40
1.0
 40
1.0
 40
1.0
 40
1.0
 40
1.963858018535161
 40
1.963858018535161
 40
1.963858018535161
 40
1.963858018535161
 10
10013.79629715258
 20
-5034.766787770372
 30
-0.0000000000000061
 10
10011.77849146981
 20
-5031.613094837392
 30
-0.0000000000000061
 10
10010.932527603
 20
-5028.314661220444
 30
-0.0000000000000061
 10
10011.41051312716
 20
-5026.197647410668
 30
-0.0000000000000061
  0
SPLINE
  5
131759
330
18
100
AcDbEntity
  8
姿図
100
AcDbSpline
210
0.0
220
0.0
230
1.0
 70
     8
 71
     3
 72
     8
 73
     4
 74
     0
 42
0.000000001
 43
0.0000000001
 40
0.0533072557788984
 40
0.0533072557788984
 40
0.0533072557788984
 40
0.0533072557788984
 40
1.0
 40
1.0
 40
1.0
 40
1.0
 10
10020.82799017479
 20
-5041.573080925386
 30
-0.0000000000000061
 10
10018.5989240634
 20
-5041.76232787853
 30
-0.0000000000000061
 10
10015.35013922207
 20
-5039.590983564641
 30
-0.0000000000000061
 10
10012.87348276918
 20
-5036.052304299721
 30
-0.0000000000000061
  0
SPLINE
  5
13175A
330
18
100
AcDbEntity
  8
姿図
100
AcDbSpline
210
0.0
220
0.0
230
1.0
 70
     8
 71
     3
 72
     8
 73
     4
 74
     0
 42
0.000000001
 43
0.0000000001
 40
1.0
 40
1.0
 40
1.0
 40
1.0
 40
1.951403248137341
 40
1.951403248137341
 40
1.951403248137341
 40
1.951403248137341
 10
10012.87348276918
 20
-5036.052304299721
 30
-0.0000000000000061
 10
10010.15012855971
 20
-5032.160505629131
 30
-0.0000000000000061
 10
10009.30137051476
 20
-5027.958204465068
 30
-0.0000000000000061
 10
10010.74955731307
 20
-5026.137193062167
 30
-0.0000000000000061
  0
SPLINE
  5
13175B
330
18
100
AcDbEntity
  8
姿図
100
AcDbSpline
210
0.0
220
0.0
230
1.0
 70
     8
 71
     3
 72
     8
 73
     4
 74
     0
 42
0.000000001
 43
0.0000000001
 40
0.0651965595715052
 40
0.0651965595715052
 40
0.0651965595715052
 40
0.0651965595715052
 40
1.0
 40
1.0
 40
1.0
 40
1.0
 10
10020.63639391991
 20
-5041.787053487827
 30
-0.0000000000000061
 10
10018.40501264836
 20
-5042.125534507049
 30
-0.0000000000000061
 10
10015.03662562753
 20
-5039.932279261782
 30
-0.0000000000000061
 10
10012.48678334965
 20
-5036.28806138024
 30
-0.0000000000000061
  0
SPLINE
  5
13175C
330
18
100
AcDbEntity
  8
姿図
100
AcDbSpline
210
0.0
220
0.0
230
1.0
 70
     8
 71
     3
 72
     8
 73
     4
 74
     0
 42
0.000000001
 43
0.0000000001
 40
1.0
 40
1.0
 40
1.0
 40
1.0
 40
1.971095784903659
 40
1.971095784903659
 40
1.971095784903659
 40
1.971095784903659
 10
10012.48678334965
 20
-5036.28806138024
 30
-0.0000000000000061
 10
10009.65184699952
 20
-5032.237259993082
 30
-0.0000000000000061
 10
10008.8482798893
 20
-5027.85004059987
 30
-0.0000000000000061
 10
10010.55212488679
 20
-5026.160553501596
 30
-0.0000000000000061
  0
SPLINE
  5
13175D
330
18
100
AcDbEntity
  8
姿図
100
AcDbSpline
210
0.0
220
0.0
230
1.0
 70
     8
 71
     3
 72
     8
 73
     4
 74
     0
 42
0.000000001
 43
0.0000000001
 40
0.0830380048434791
 40
0.0830380048434791
 40
0.0830380048434791
 40
0.0830380048434791
 40
1.0
 40
1.0
 40
1.0
 40
1.0
 10
10020.51129412587
 20
-5041.902153829381
 30
-0.0000000000000061
 10
10018.29137091686
 20
-5042.505289004378
 30
-0.0000000000000061
 10
10014.72741895062
 20
-5040.279573523673
 30
-0.0000000000000061
 10
10012.05947755993
 20
-5036.467449809306
 30
-0.0000000000000061
  0
SPLINE
  5
13175E
330
18
100
AcDbEntity
  8
姿図
100
AcDbSpline
210
0.0
220
0.0
230
1.0
 70
     8
 71
     3
 72
     8
 73
     4
 74
     0
 42
0.000000001
 43
0.0000000001
 40
1.0
 40
1.0
 40
1.0
 40
1.0
 40
1.971016508087028
 40
1.971016508087028
 40
1.971016508087028
 40
1.971016508087028
 10
10012.05947755993
 20
-5036.467449809306
 30
-0.0000000000000061
 10
10009.15649764694
 20
-5032.319045865765
 30
-0.0000000000000061
 10
10008.38359938879
 20
-5027.818116222636
 30
-0.0000000000000061
 10
10010.25192847452
 20
-5026.223787777214
 30
-0.0000000000000061
  0
SPLINE
  5
13175F
330
18
100
AcDbEntity
  8
姿図
100
AcDbSpline
210
0.0
220
0.0
230
1.0
 70
     8
 71
     3
 72
    11
 73
     7
 74
     0
 42
0.000000001
 43
0.0000000001
 40
1.005060628197603
 40
1.005060628197603
 40
1.005060628197603
 40
1.005060628197603
 40
2.0
 40
2.0
 40
2.0
 40
2.924554902239563
 40
2.924554902239563
 40
2.924554902239563
 40
2.924554902239563
 10
10020.7603369393
 20
-5041.654610748429
 30
-0.0000000000000061
 10
10018.66274025569
 20
-5043.070463847577
 30
-0.0000000000000061
 10
10014.57394696048
 20
-5040.792589948568
 30
-0.0000000000000061
 10
10011.59944654064
 20
-5036.5419820761
 30
-0.0000000000000061
 10
10008.83536963021
 20
-5032.592072707384
 30
-0.0000000000000061
 10
10008.00240905152
 20
-5028.322566137177
 30
-0.0000000000000061
 10
10009.54179271795
 20
-5026.546785046607
 30
-0.0000000000000061
  0
SPLINE
  5
131760
330
18
100
AcDbEntity
  8
姿図
100
AcDbSpline
210
0.0
220
0.0
230
1.0
 70
    24
 71
     3
 72
     8
 73
     4
 74
     0
 42
0.000000001
 43
0.0000000001
 40
0.0
 40
0.0
 40
0.0
 40
0.0
 40
1.0
 40
1.0
 40
1.0
 40
1.0
 10
10008.36919821183
 20
-5026.810542406755
 30
-0.0000000000000061
 10
10008.36919821183
 20
-5026.810542406755
 30
-0.0000000000000061
 10
10010.08938098383
 20
-5024.800788846602
 30
-0.0000000000000061
 10
10010.08938098383
 20
-5024.800788846602
 30
-0.0000000000000061
  0
SPLINE
  5
131761
330
18
100
AcDbEntity
  8
姿図
100
AcDbSpline
210
0.0
220
0.0
230
1.0
 70
     8
 71
     3
 72
    11
 73
     7
 74
     0
 42
0.000000001
 43
0.0000000001
 40
1.0
 40
1.0
 40
1.0
 40
1.0
 40
2.0
 40
2.0
 40
2.0
 40
3.0
 40
3.0
 40
3.0
 40
3.0
 10
10010.08938098383
 20
-5024.800788846602
 30
-0.0000000000000061
 10
10010.08938098383
 20
-5024.800788846602
 30
-0.0000000000000061
 10
10010.79492802969
 20
-5023.521949949895
 30
-0.0000000000000061
 10
10012.64533458155
 20
-5023.772945783022
 30
-0.0000000000000061
 10
10014.4957411334
 20
-5024.023941616148
 30
-0.0000000000000061
 10
10019.19547882025
 20
-5025.757543379769
 30
-0.0000000000000061
 10
10022.78439693037
 20
-5032.736915640653
 30
-0.0000000000000061
  0
SPLINE
  5
131762
330
18
100
AcDbEntity
  8
姿図
100
AcDbSpline
210
0.0
220
0.0
230
1.0
 70
     8
 71
     3
 72
     8
 73
     4
 74
     0
 42
0.000000001
 43
0.0000000001
 40
3.0
 40
3.0
 40
3.0
 40
3.0
 40
4.0
 40
4.0
 40
4.0
 40
4.0
 10
10022.78439693037
 20
-5032.736915640653
 30
-0.0000000000000061
 10
10024.59952330885
 20
-5036.266898594315
 30
-0.0000000000000061
 10
10024.88767146432
 20
-5040.05103799824
 30
-0.0000000000000061
 10
10023.89262198621
 20
-5041.228386979391
 30
-0.0000000000000061
  0
SPLINE
  5
131763
330
18
100
AcDbEntity
  8
姿図
100
AcDbSpline
210
0.0
220
0.0
230
1.0
 70
     8
 71
     3
 72
     8
 73
     4
 74
     0
 42
0.000000001
 43
0.0000000001
 40
4.0
 40
4.0
 40
4.0
 40
4.0
 40
5.0
 40
5.0
 40
5.0
 40
5.0
 10
10023.89262198621
 20
-5041.228386979391
 30
-0.0000000000000061
 10
10023.33801727936
 20
-5041.884769376044
 30
-0.0000000000000061
 10
10020.04686987868
 20
-5042.842882840993
 30
-0.0000000000000061
 10
10020.04686987868
 20
-5042.842882840993
 30
-0.0000000000000061
  0
SPLINE
  5
131764
330
18
100
AcDbEntity
  8
姿図
100
AcDbSpline
210
0.0
220
0.0
230
1.0
 70
     8
 71
     3
 72
     8
 73
     4
 74
     0
 42
0.000000001
 43
0.0000000001
 40
0.0
 40
0.0
 40
0.0
 40
0.0
 40
1.0
 40
1.0
 40
1.0
 40
1.0
 10
10009.14927752449
 20
-5025.991734529335
 30
-0.0000000000000061
 10
10009.04629916764
 20
-5024.481941220271
 30
-0.0000000000000061
 10
10009.67542906313
 20
-5022.996273275056
 30
-0.0000000000000061
 10
10010.55205168732
 20
-5022.337019603126
 30
-0.0000000000000061
  0
SPLINE
  5
131765
330
18
100
AcDbEntity
  8
姿図
100
AcDbSpline
210
0.0
220
0.0
230
1.0
 70
     8
 71
     3
 72
     8
 73
     4
 74
     0
 42
0.000000001
 43
0.0000000001
 40
1.0
 40
1.0
 40
1.0
 40
1.0
 40
2.0
 40
2.0
 40
2.0
 40
2.0
 10
10010.55205168732
 20
-5022.337019603126
 30
-0.0000000000000061
 10
10013.26017469276
 20
-5020.301213547658
 30
-0.0000000000000061
 10
10018.81682602953
 20
-5023.128253332949
 30
-0.0000000000000061
 10
10022.967605554
 20
-5028.650683136603
 30
-0.0000000000000061
  0
SPLINE
  5
131766
330
18
100
AcDbEntity
  8
姿図
100
AcDbSpline
210
0.0
220
0.0
230
1.0
 70
     8
 71
     3
 72
     8
 73
     4
 74
     0
 42
0.000000001
 43
0.0000000001
 40
2.0
 40
2.0
 40
2.0
 40
2.0
 40
2.235305163792243
 40
2.235305163792243
 40
2.235305163792243
 40
2.235305163792243
 10
10022.967605554
 20
-5028.650683136603
 30
-0.0000000000000061
 10
10023.94352995806
 20
-5029.949281420269
 30
-0.0000000000000061
 10
10025.74590943982
 20
-5033.047152743617
 30
-0.0000000000000061
 10
10026.43768208723
 20
-5035.200839845546
 30
-0.0000000000000061
  0
SPLINE
  5
131767
330
18
100
AcDbEntity
  8
姿図
100
AcDbSpline
210
0.0
220
0.0
230
1.0
 70
     8
 71
     3
 72
     8
 73
     4
 74
     0
 42
0.000000001
 43
0.0000000001
 40
2.396066187168036
 40
2.396066187168036
 40
2.396066187168036
 40
2.396066187168036
 40
3.0
 40
3.0
 40
3.0
 40
3.0
 10
10026.43768208723
 20
-5035.200839845546
 30
-0.0000000000000061
 10
10027.43206938556
 20
-5038.378378685374
 30
-0.0000000000000061
 10
10027.21010211677
 20
-5041.098741019582
 30
-0.0000000000000061
 10
10025.57419754887
 20
-5042.329111049266
 30
-0.0000000000000061
  0
SPLINE
  5
131768
330
18
100
AcDbEntity
  8
姿図
100
AcDbSpline
210
0.0
220
0.0
230
1.0
 70
     8
 71
     3
 72
     8
 73
     4
 74
     0
 42
0.000000001
 43
0.0000000001
 40
3.0
 40
3.0
 40
3.0
 40
3.0
 40
4.0
 40
4.0
 40
4.0
 40
4.0
 10
10025.57419754887
 20
-5042.329111049266
 30
-0.0000000000000061
 10
10025.23577687536
 20
-5042.583602199053
 30
-0.0000000000000061
 10
10024.85300984601
 20
-5042.761675978071
 30
-0.0000000000000061
 10
10024.4339933463
 20
-5042.868536615561
 30
-0.0000000000000061
  0
SPLINE
  5
131769
330
18
100
AcDbEntity
  8
姿図
100
AcDbSpline
210
0.0
220
0.0
230
1.0
 70
     8
 71
     3
 72
     8
 73
     4
 74
     0
 42
0.000000001
 43
0.0000000001
 40
4.0
 40
4.0
 40
4.0
 40
4.0
 40
4.957822154171585
 40
4.957822154171585
 40
4.957822154171585
 40
4.957822154171585
 10
10024.4339933463
 20
-5042.868536615561
 30
-0.0000000000000061
 10
10024.4339933463
 20
-5042.868536615561
 30
-0.0000000000000061
 10
10023.12154047062
 20
-5043.011920331323
 30
-0.0000000000000061
 10
10021.22026384193
 20
-5042.470580053786
 30
-0.0000000000000061
  0
ELLIPSE
  5
13176A
330
18
100
AcDbEntity
  8
姿図
100
AcDbEllipse
 10
10014.4800869583
 20
-5034.573876211894
 30
-0.0000000000000061
 11
5.693443542348586
 21
-8.135622673511369
 31
0.0
210
0.0
220
0.0
230
1.0
 40
0.4645252947541931
 41
0.0
 42
6.283185307179586
  0
SPLINE
  5
13176B
330
18
100
AcDbEntity
  8
姿図
100
AcDbSpline
210
0.0
220
0.0
230
1.0
 70
     8
 71
     3
 72
    11
 73
     7
 74
     0
 42
0.000000001
 43
0.0000000001
 40
1.0
 40
1.0
 40
1.0
 40
1.0
 40
2.0
 40
2.0
 40
2.0
 40
3.0
 40
3.0
 40
3.0
 40
3.0
 10
10020.33638835272
 20
-5042.03765535393
 30
-0.0000000000000061
 10
10018.24856221898
 20
-5043.498521188661
 30
-0.0000000000000061
 10
10014.13327528258
 20
-5041.219146272456
 30
-0.0000000000000061
 10
10011.14364545774
 20
-5036.946918242352
 30
-0.0000000000000061
 10
10008.15401563291
 20
-5032.67469021225
 30
-0.0000000000000061
 10
10007.42352518485
 20
-5028.028577600092
 30
-0.0000000000000061
 10
10009.51047055841
 20
-5026.568346239897
 30
-0.0000000000000061
  0
SPLINE
  5
13176C
330
18
100
AcDbEntity
  8
姿図
100
AcDbSpline
210
0.0
220
0.0
230
1.0
 70
     8
 71
     3
 72
     8
 73
     4
 74
     0
 42
0.000000001
 43
0.0000000001
 40
3.0
 40
3.0
 40
3.0
 40
3.0
 40
3.728979391355297
 40
3.728979391355297
 40
3.728979391355297
 40
3.728979391355297
 10
10009.51047055841
 20
-5026.568346239897
 30
-0.0000000000000061
 10
10009.96691680936
 20
-5026.248556351057
 30
-0.0000000000000061
 10
10010.52030935896
 20
-5026.107754926606
 30
-0.0000000000000061
 10
10011.13762723393
 20
-5026.127621199198
 30
-0.0000000000000061
  0
ARC
  5
13176D
330
18
100
AcDbEntity
  8
姿図
100
AcDbCircle
 10
10038.16268513771
 20
-5041.941660036884
 30
-0.0000000000000061
 40
33.9957262455807
100
AcDbArc
 50
123.7818528605675
 51
146.4986655481891
  0
SPLINE
  5
13176E
330
18
100
AcDbEntity
  8
姿図
100
AcDbSpline
210
0.0
220
0.0
230
1.0
 70
     8
 71
     3
 72
     8
 73
     4
 74
     0
 42
0.000000001
 43
0.0000000001
 40
0.184123280855877
 40
0.184123280855877
 40
0.184123280855877
 40
0.184123280855877
 40
1.0
 40
1.0
 40
1.0
 40
1.0
 10
10021.31344782719
 20
-5039.836969079309
 30
-0.0000000000000034
 10
10019.26247520483
 20
-5039.222418218093
 30
-0.0000000000000034
 10
10016.81422625311
 20
-5037.143018645036
 30
-0.0000000000000034
 10
10014.91620636426
 20
-5034.176793254233
 30
-0.0000000000000034
  0
SPLINE
  5
13176F
330
18
100
AcDbEntity
  8
姿図
100
AcDbSpline
210
0.0
220
0.0
230
1.0
 70
     8
 71
     3
 72
     8
 73
     4
 74
     0
 42
0.000000001
 43
0.0000000001
 40
1.0
 40
1.0
 40
1.0
 40
1.0
 40
1.827384432039179
 40
1.827384432039179
 40
1.827384432039179
 40
1.827384432039179
 10
10014.91620636426
 20
-5034.176793254233
 30
-0.0000000000000034
 10
10013.1841037343
 20
-5031.469634745406
 30
-0.0000000000000034
 10
10012.31549158053
 20
-5028.655821737293
 30
-0.0000000000000034
 10
10012.40658288676
 20
-5026.574193833239
 30
-0.0000000000000034
  0
LINE
  5
131770
330
18
100
AcDbEntity
  8
姿図
100
AcDbLine
 10
10026.31402701561
 20
-4991.963271431432
 30
-0.0000000000000035
 11
10028.19337461509
 21
-4991.782867362524
 31
-0.000000000000004
  0
LINE
  5
131771
330
18
100
AcDbEntity
  8
姿図
100
AcDbLine
 10
10032.72906706008
 20
-4991.347472988105
 30
-0.0000000000000053
 11
10035.45636242783
 21
-4991.085671934595
 31
-0.0000000000000061
  0
LINE
  5
131772
330
18
100
AcDbEntity
  8
姿図
100
AcDbLine
 10
10027.75207148042
 20
-4992.226382104999
 30
-0.0000000000000035
 11
10028.74940130156
 21
-4992.151409650519
 31
-0.0000000000000038
  0
LINE
  5
131773
330
18
100
AcDbEntity
  8
姿図
100
AcDbLine
 10
10033.00499677055
 20
-4991.831503004971
 30
-0.0000000000000053
 11
10035.54808886582
 21
-4991.640330684329
 31
-0.0000000000000061
  0
SPLINE
  5
131774
330
18
100
AcDbEntity
  8
姿図
100
AcDbSpline
210
0.0
220
0.0
230
1.0
 70
     8
 71
     3
 72
     9
 73
     5
 74
     3
 42
0.000000001
 43
0.0000000001
 44
0.0000000001
 40
0.0
 40
0.0
 40
0.0
 40
0.0
 40
0.3120094600939856
 40
4.677314048171954
 40
4.677314048171954
 40
4.677314048171954
 40
4.677314048171954
 10
10028.19337461509
 20
-4991.782867362524
 30
-0.000000000000004
 10
10028.24982671073
 20
-4991.69378839026
 30
-0.0000000000000045
 10
10029.09609649974
 20
-4990.358411160862
 30
-0.000000000000012
 10
10030.97525837995
 20
-4990.870005530278
 30
-0.0000000000000085
 10
10032.72906706008
 20
-4991.347472988105
 30
-0.0000000000000053
 11
10028.19337461509
 21
-4991.782867362524
 31
-0.000000000000004
 11
10028.36732708609
 21
-4991.523849137251
 31
-0.0000000000000055
 11
10032.72906706008
 21
-4991.347472988105
 31
-0.0000000000000053
  0
SPLINE
  5
131775
330
18
100
AcDbEntity
  8
姿図
100
AcDbSpline
210
0.0
220
0.0
230
1.0
 70
     8
 71
     3
 72
    10
 73
     6
 74
     4
 42
0.000000001
 43
0.0000000001
 44
0.0000000001
 40
0.0
 40
0.0
 40
0.0
 40
0.0
 40
2.342755453420702
 40
4.062641454965982
 40
4.366769678700345
 40
4.366769678700345
 40
4.366769678700345
 40
4.366769678700345
 10
10028.74940130156
 20
-4992.151409650519
 30
-0.0000000000000038
 10
10029.51598597422
 20
-4992.281162144614
 30
-0.0000000000000036
 10
10030.84534310594
 20
-4992.506169778519
 30
-0.0000000000000032
 10
10032.37150992348
 20
-4992.283423494433
 30
-0.0000000000000023
 10
10032.92224357405
 20
-4991.890537956113
 30
-0.0000000000000049
 10
10033.00499677055
 20
-4991.831503004971
 30
-0.0000000000000053
 11
10028.74940130156
 21
-4992.151409650519
 31
-0.0000000000000038
 11
10031.07925576135
 21
-4992.396932176419
 31
-0.000000000000003
 11
10032.75320032066
 21
-4992.002068312981
 31
-0.0000000000000042
 11
10033.00499677055
 21
-4991.831503004971
 31
-0.0000000000000053
  0
ARC
  5
131776
330
18
100
AcDbEntity
  8
姿図
100
AcDbCircle
 10
10026.36324790311
 20
-4992.266530758289
 30
-0.0000000000000035
 40
0.3072277902337326
100
AcDbArc
 50
91.74730622664805
 51
180.3462281534986
  0
ARC
  5
131777
330
18
100
AcDbEntity
  8
姿図
100
AcDbCircle
 10
10027.77292259108
 20
-4992.403461744279
 30
-0.0000000000000035
 40
0.1783030214629486
100
AcDbArc
 50
91.88239147235437
 51
176.8294030759228
  0
ELLIPSE
  5
131778
330
18
100
AcDbEntity
  8
姿図
100
AcDbEllipse
 10
10030.58827503658
 20
-4988.042163945168
 30
-0.0000000000000034
 11
-9.834181320015009
 21
0.5019789658505338
 31
0.0
210
0.0
220
0.0
230
1.0
 40
0.2669507483421997
 41
2.588370580852554
 42
3.190305558350833
  0
SPLINE
  5
131779
330
18
100
AcDbEntity
  8
姿図
100
AcDbSpline
210
0.0
220
0.0
230
1.0
 70
     8
 71
     3
 72
    12
 73
     8
 74
     0
 42
0.000000001
 43
0.0000000001
 40
0.0
 40
0.0
 40
0.0
 40
0.0
 40
1.131311653021216
 40
1.131311653021216
 40
3.02132557813972
 40
3.02132557813972
 40
3.196886907352344
 40
3.196886907352344
 40
3.196886907352344
 40
3.196886907352344
 10
10020.34474300409
 20
-4992.268189936358
 30
-0.0000000000000034
 10
10020.68071222752
 20
-4992.35308148716
 30
-0.0000000000000034
 10
10021.0176808453
 20
-4992.438230549298
 30
-0.0000000000000034
 10
10021.92222230683
 20
-4992.657797590003
 30
-0.0000000000000034
 10
10022.49439826328
 20
-4992.785425091405
 30
-0.0000000000000034
 10
10023.12319995108
 20
-4992.903753241844
 30
-0.0000000000000034
 10
10023.60532766481
 20
-4992.959628343658
 30
-0.0000000000000034
 10
10024.50887257226
 20
-4993.060232904852
 30
-0.0000000000000034
  0
SPLINE
  5
13177A
330
18
100
AcDbEntity
  8
姿図
100
AcDbSpline
210
0.0
220
0.0
230
1.0
 70
     8
 71
     3
 72
    14
 73
    10
 74
     0
 42
0.000000001
 43
0.0000000001
 40
0.0
 40
0.0
 40
0.0
 40
0.0
 40
0.8584404188848929
 40
0.8584404188848929
 40
2.127674543654367
 40
2.127674543654367
 40
3.396908668423841
 40
3.396908668423841
 40
4.059569089000286
 40
4.059569089000286
 40
4.059569089000286
 40
4.059569089000286
 10
10042.92093910577
 20
-4992.122620931358
 30
-0.0000000000000034
 10
10042.67433933619
 20
-4992.21448045856
 30
-0.0000000000000034
 10
10042.42570670084
 20
-4992.307116093348
 30
-0.0000000000000034
 10
10041.80120736403
 20
-4992.52831290323
 30
-0.0000000000000034
 10
10041.41880680403
 20
-4992.651988407524
 30
-0.0000000000000034
 10
10040.64610144198
 20
-4992.859929313051
 30
-0.0000000000000034
 10
10040.25659183141
 20
-4992.947046905892
 30
-0.0000000000000034
 10
10039.66224558155
 20
-4993.061052698911
 30
-0.0000000000000034
 10
10039.45828243352
 20
-4993.096970333708
 30
-0.0000000000000034
 10
10039.25428842901
 20
-4993.130186244959
 30
-0.0000000000000034
  0
SPLINE
  5
13177B
330
18
100
AcDbEntity
  8
姿図
100
AcDbSpline
210
0.0
220
0.0
230
1.0
 70
     8
 71
     3
 72
     9
 73
     5
 74
     0
 42
0.000000001
 43
0.0000000001
 40
0.0
 40
0.0
 40
0.0
 40
0.0
 40
2.222853371383657
 40
3.04516710490263
 40
3.04516710490263
 40
3.04516710490263
 40
3.04516710490263
 10
10020.42576770504
 20
-4991.947524268196
 30
-0.0000000000000034
 10
10021.0858955478
 20
-4992.11432310687
 30
-0.0000000000000034
 10
10021.99022851807
 20
-4992.342826859391
 30
-0.0000000000000034
 10
10022.9048479614
 20
-4992.526295362732
 30
-0.0000000000000034
 10
10024.56550060424
 20
-4992.758729219583
 30
-0.0000000000000034
  0
SPLINE
  5
13177C
330
18
100
AcDbEntity
  8
姿図
100
AcDbSpline
210
0.0
220
0.0
230
1.0
 70
     8
 71
     3
 72
     9
 73
     5
 74
     0
 42
0.000000001
 43
0.0000000001
 40
0.0
 40
0.0
 40
0.0
 40
0.0
 40
1.683902873521906
 40
4.037898197562756
 40
4.037898197562756
 40
4.037898197562756
 40
4.037898197562756
 10
10042.77982922593
 20
-4991.743807052042
 30
-0.0000000000000034
 10
10042.29610309718
 20
-4991.923997218318
 30
-0.0000000000000034
 10
10041.13615682348
 20
-4992.356082440726
 30
-0.0000000000000034
 10
10039.92185880778
 20
-4992.611498131392
 30
-0.0000000000000034
 10
10039.20900978498
 20
-4992.727682366703
 30
-0.0000000000000034
  0
ELLIPSE
  5
13177D
330
18
100
AcDbEntity
  8
姿図
100
AcDbEllipse
 10
10030.55616482329
 20
-4988.517549479371
 30
-0.0000000000000034
 11
-8.978701403692844
 21
0.191221289960854
 31
0.0
210
0.0
220
0.0
230
1.0
 40
0.2589152262426073
 41
-0.0152433737171702
 42
0.914474598829651
  0
LINE
  5
13177E
330
18
100
AcDbEntity
  8
姿図
100
AcDbLine
 10
10033.69341343475
 20
-4988.288970138577
 30
-0.0000000000000077
 11
10033.60415077974
 21
-4987.523582178927
 31
-0.0000000000000034
  0
ELLIPSE
  5
13177F
330
18
100
AcDbEntity
  8
姿図
100
AcDbEllipse
 10
10030.58827503658
 20
-4988.010843445052
 30
-0.0000000000000034
 11
-3.602345901327196
 21
2.769589598404880E-14
 31
3.999407362317515E-16
210
1.110223024625157E-16
220
-8.535721513524229E-31
230
1.0
 40
0.2588190451025151
 41
5.734445639859379
 42
6.80355156574371
  0
LINE
  5
131780
330
18
100
AcDbEntity
  8
姿図
100
AcDbLine
 10
10027.46274595995
 20
-4989.068483889911
 30
-0.0000000000000034
 11
10027.46274595995
 21
-4987.527277731361
 31
-0.0000000000000034
  0
ELLIPSE
  5
131781
330
18
100
AcDbEntity
  8
姿図
100
AcDbEllipse
 10
10030.58827503658
 20
-4988.010843445052
 30
-0.0000000000000034
 11
3.602345901327196
 21
2.769589598404880E-14
 31
3.999407362317515E-16
210
1.110223024625157E-16
220
8.535721513524229E-31
230
-1.0
 40
0.2588190451025151
 41
5.734445639860233
 42
6.555988579509473
  0
SPLINE
  5
131782
330
18
100
AcDbEntity
  8
姿図
100
AcDbSpline
210
0.0
220
0.0
230
1.0
 70
     8
 71
     3
 72
     8
 73
     4
 74
     0
 42
0.000000001
 43
0.0000000001
 40
0.5481277105474045
 40
0.5481277105474045
 40
0.5481277105474045
 40
0.5481277105474045
 40
1.0
 40
1.0
 40
1.0
 40
1.0
 10
10035.83751653021
 20
-4993.390464996396
 30
-0.0000000000000034
 10
10032.97749241438
 20
-4993.51215141462
 30
-0.0000000000000034
 10
10032.03262234844
 20
-4993.52607427646
 30
-0.0000000000000034
 10
10031.0649230134
 20
-4993.517221208623
 30
-0.0000000000000034
  0
SPLINE
  5
131783
330
18
100
AcDbEntity
  8
姿図
100
AcDbSpline
210
0.0
220
0.0
230
1.0
 70
     8
 71
     3
 72
     8
 73
     4
 74
     0
 42
0.000000001
 43
0.0000000001
 40
1.0
 40
1.0
 40
1.0
 40
1.0
 40
1.687090454425072
 40
1.687090454425072
 40
1.687090454425072
 40
1.687090454425072
 10
10031.0649230134
 20
-4993.517221208623
 30
-0.0000000000000034
 10
10029.9723015982
 20
-4993.507169989033
 30
-0.0000000000000034
 10
10028.90933940331
 20
-4993.468631119174
 30
-0.0000000000000034
 10
10027.63971244708
 20
-4993.373645569697
 30
-0.0000000000000034
  0
SPLINE
  5
131784
330
18
100
AcDbEntity
  8
姿図
100
AcDbSpline
210
0.0
220
0.0
230
1.0
 70
     8
 71
     3
 72
     8
 73
     4
 74
     0
 42
0.000000001
 43
0.0000000001
 40
0.2084474298111308
 40
0.2084474298111308
 40
0.2084474298111308
 40
0.2084474298111308
 40
1.0
 40
1.0
 40
1.0
 40
1.0
 10
10020.36870173086
 20
-4992.272182657016
 30
-0.0000000000000034
 10
10018.343287783
 20
-4991.697708747789
 30
-0.0000000000000034
 10
10017.12737696674
 20
-4990.970255977263
 30
-0.0000000000000034
 10
10017.13451068047
 20
-4990.188545694299
 30
-0.0000000000000034
  0
SPLINE
  5
131785
330
18
100
AcDbEntity
  8
姿図
100
AcDbSpline
210
0.0
220
0.0
230
1.0
 70
     8
 71
     3
 72
     8
 73
     4
 74
     0
 42
0.000000001
 43
0.0000000001
 40
1.0
 40
1.0
 40
1.0
 40
1.0
 40
2.0
 40
2.0
 40
2.0
 40
2.0
 10
10017.13451068047
 20
-4990.188545694299
 30
-0.0000000000000034
 10
10017.15083732121
 20
-4988.420566421712
 30
-0.0000000000000034
 10
10023.41425916206
 20
-4987.044818366291
 30
-0.0000000000000034
 10
10031.12343769382
 20
-4987.115741293672
 30
-0.0000000000000034
  0
SPLINE
  5
131786
330
18
100
AcDbEntity
  8
姿図
100
AcDbSpline
210
0.0
220
0.0
230
1.0
 70
     8
 71
     3
 72
     8
 73
     4
 74
     0
 42
0.000000001
 43
0.0000000001
 40
2.0
 40
2.0
 40
2.0
 40
2.0
 40
3.0
 40
3.0
 40
3.0
 40
3.0
 10
10031.12343769382
 20
-4987.115741293672
 30
-0.0000000000000034
 10
10038.83326929121
 20
-4987.186402994799
 30
-0.0000000000000034
 10
10045.07030728062
 20
-4988.676568148534
 30
-0.0000000000000034
 10
10045.05463370551
 20
-4990.44428619487
 30
-0.0000000000000034
  0
SPLINE
  5
131787
330
18
100
AcDbEntity
  8
姿図
100
AcDbSpline
210
0.0
220
0.0
230
1.0
 70
     8
 71
     3
 72
     8
 73
     4
 74
     0
 42
0.000000001
 43
0.0000000001
 40
3.0
 40
3.0
 40
3.0
 40
3.0
 40
3.72058887900539
 40
3.72058887900539
 40
3.72058887900539
 40
3.72058887900539
 10
10045.05463370551
 20
-4990.44428619487
 30
-0.0000000000000034
 10
10045.04861013008
 20
-4991.076761614371
 30
-0.0000000000000034
 10
10044.24284547524
 20
-4991.659049754465
 30
-0.0000000000000034
 10
10042.85745384492
 20
-4992.142866260201
 30
-0.0000000000000034
  0
SPLINE
  5
131788
330
18
100
AcDbEntity
  8
姿図
100
AcDbSpline
210
0.0
220
0.0
230
1.0
 70
     8
 71
     3
 72
     8
 73
     4
 74
     0
 42
0.000000001
 43
0.0000000001
 40
0.5506078710546985
 40
0.5506078710546985
 40
0.5506078710546985
 40
0.5506078710546985
 40
1.0
 40
1.0
 40
1.0
 40
1.0
 10
10035.7842576988
 20
-4993.068415241877
 30
-0.0000000000000034
 10
10032.94986975089
 20
-4993.280598893127
 30
-0.0000000000000034
 10
10032.01399164032
 20
-4993.295434821456
 30
-0.0000000000000034
 10
10031.05395151082
 20
-4993.286689041357
 30
-0.0000000000000034
  0
SPLINE
  5
131789
330
18
100
AcDbEntity
  8
姿図
100
AcDbSpline
210
0.0
220
0.0
230
1.0
 70
     8
 71
     3
 72
     8
 73
     4
 74
     0
 42
0.000000001
 43
0.0000000001
 40
1.0
 40
1.0
 40
1.0
 40
1.0
 40
1.685326939462277
 40
1.685326939462277
 40
1.685326939462277
 40
1.685326939462277
 10
10031.05395151082
 20
-4993.286689041357
 30
-0.0000000000000034
 10
10029.98096284968
 20
-4993.276842645034
 30
-0.0000000000000034
 10
10028.93858557333
 20
-4993.238041191346
 30
-0.0000000000000034
 10
10027.68962143238
 20
-4993.135146109344
 30
-0.0000000000000034
  0
SPLINE
  5
13178A
330
18
100
AcDbEntity
  8
姿図
100
AcDbSpline
210
0.0
220
0.0
230
1.0
 70
     8
 71
     3
 72
     8
 73
     4
 74
     0
 42
0.000000001
 43
0.0000000001
 40
0.2539452136063279
 40
0.2539452136063279
 40
0.2539452136063279
 40
0.2539452136063279
 40
1.0
 40
1.0
 40
1.0
 40
1.0
 10
10020.42576770504
 20
-4991.947524268196
 30
-0.0000000000000034
 10
10018.94255716619
 20
-4991.459149077644
 30
-0.0000000000000034
 10
10018.07436731531
 20
-4990.872332991524
 30
-0.0000000000000034
 10
10018.08001909908
 20
-4990.247713440345
 30
-0.0000000000000034
  0
SPLINE
  5
13178B
330
18
100
AcDbEntity
  8
姿図
100
AcDbSpline
210
0.0
220
0.0
230
1.0
 70
     8
 71
     3
 72
     8
 73
     4
 74
     0
 42
0.000000001
 43
0.0000000001
 40
1.0
 40
1.0
 40
1.0
 40
1.0
 40
2.0
 40
2.0
 40
2.0
 40
2.0
 10
10018.08001909908
 20
-4990.247713440345
 30
-0.0000000000000034
 10
10018.09490899543
 20
-4988.634902561363
 30
-0.0000000000000034
 10
10023.92796058634
 20
-4987.380885939308
 30
-0.0000000000000034
 10
10031.10776411871
 20
-4987.44697618103
 30
-0.0000000000000034
  0
SPLINE
  5
13178C
330
18
100
AcDbEntity
  8
姿図
100
AcDbSpline
210
0.0
220
0.0
230
1.0
 70
     8
 71
     3
 72
     8
 73
     4
 74
     0
 42
0.000000001
 43
0.0000000001
 40
2.0
 40
2.0
 40
2.0
 40
2.0
 40
3.0
 40
3.0
 40
3.0
 40
3.0
 10
10031.10776411871
 20
-4987.44697618103
 30
-0.0000000000000034
 10
10038.28782887733
 20
-4987.512543970246
 30
-0.0000000000000034
 10
10044.09697826619
 20
-4988.873140903059
 30
-0.0000000000000034
 10
10044.08234959608
 20
-4990.485821168916
 30
-0.0000000000000034
  0
SPLINE
  5
13178D
330
18
100
AcDbEntity
  8
姿図
100
AcDbSpline
210
0.0
220
0.0
230
1.0
 70
     8
 71
     3
 72
     8
 73
     4
 74
     0
 42
0.000000001
 43
0.0000000001
 40
3.0
 40
3.0
 40
3.0
 40
3.0
 40
3.626749038855106
 40
3.626749038855106
 40
3.626749038855106
 40
3.626749038855106
 10
10044.08234959608
 20
-4990.485821168916
 30
-0.0000000000000034
 10
10044.07809279022
 20
-4990.940890087594
 30
-0.0000000000000034
 10
10043.61043376908
 20
-4991.367432474862
 30
-0.0000000000000034
 10
10042.77982922593
 20
-4991.743807052042
 30
-0.0000000000000034
  0
SPLINE
  5
13178E
330
18
100
AcDbEntity
  8
姿図
100
AcDbSpline
210
0.0
220
0.0
230
1.0
 70
     8
 71
     3
 72
     8
 73
     4
 74
     0
 42
0.000000001
 43
0.0000000001
 40
0.0
 40
0.0
 40
0.0
 40
0.0
 40
1.0
 40
1.0
 40
1.0
 40
1.0
 10
10018.66255364072
 20
-4983.62876267072
 30
-0.0000000000000034
 10
10018.08877017851
 20
-4983.20609859521
 30
-0.0000000000000034
 10
10017.76929047249
 20
-4982.749344493834
 30
-0.0000000000000034
 10
10017.78052320132
 20
-4982.275088233582
 30
-0.0000000000000034
  0
SPLINE
  5
13178F
330
18
100
AcDbEntity
  8
姿図
100
AcDbSpline
210
0.0
220
0.0
230
1.0
 70
     8
 71
     3
 72
     8
 73
     4
 74
     0
 42
0.000000001
 43
0.0000000001
 40
1.0
 40
1.0
 40
1.0
 40
1.0
 40
2.0
 40
2.0
 40
2.0
 40
2.0
 10
10017.78052320132
 20
-4982.275088233582
 30
-0.0000000000000034
 10
10017.83355213045
 20
-4980.032591474491
 30
-0.0000000000000034
 10
10023.79081680411
 20
-4978.598067512403
 30
-0.0000000000000034
 10
10031.16209917909
 20
-4978.665986337886
 30
-0.0000000000000034
  0
SPLINE
  5
131790
330
18
100
AcDbEntity
  8
姿図
100
AcDbSpline
210
0.0
220
0.0
230
1.0
 70
     8
 71
     3
 72
     8
 73
     4
 74
     0
 42
0.000000001
 43
0.0000000001
 40
2.0
 40
2.0
 40
2.0
 40
2.0
 40
3.0
 40
3.0
 40
3.0
 40
3.0
 10
10031.16209917909
 20
-4978.665986337886
 30
-0.0000000000000034
 10
10038.53390400658
 20
-4978.733513323991
 30
-0.0000000000000034
 10
10044.50710348161
 20
-4979.967023685274
 30
-0.0000000000000034
 10
10044.47575633138
 20
-4982.519596005322
 30
-0.0000000000000034
  0
SPLINE
  5
131791
330
18
100
AcDbEntity
  8
姿図
100
AcDbSpline
210
0.0
220
0.0
230
1.0
 70
     8
 71
     3
 72
     8
 73
     4
 74
     0
 42
0.000000001
 43
0.0000000001
 40
3.0
 40
3.0
 40
3.0
 40
3.0
 40
4.0
 40
4.0
 40
4.0
 40
4.0
 10
10044.47575633138
 20
-4982.519596005322
 30
-0.0000000000000034
 10
10044.47000935384
 20
-4982.981966471115
 30
-0.0000000000000034
 10
10044.16646444918
 20
-4983.422002092373
 30
-0.0000000000000034
 10
10043.61266479524
 20
-4983.825596651496
 30
-0.0000000000000034
  0
SPLINE
  5
131792
330
18
100
AcDbEntity
  8
姿図
100
AcDbSpline
210
0.0
220
0.0
230
1.0
 70
     8
 71
     3
 72
     8
 73
     4
 74
     0
 42
0.000000001
 43
0.0000000001
 40
0.0
 40
0.0
 40
0.0
 40
0.0
 40
1.0
 40
1.0
 40
1.0
 40
1.0
 10
10017.82911128417
 20
-4982.736283181241
 30
-0.0000000000000034
 10
10017.88214021329
 20
-4980.493655809024
 30
-0.0000000000000034
 10
10023.83940488696
 20
-4979.059262460061
 30
-0.0000000000000034
 10
10031.21068726194
 20
-4979.127181285546
 30
-0.0000000000000034
  0
SPLINE
  5
131793
330
18
100
AcDbEntity
  8
姿図
100
AcDbSpline
210
0.0
220
0.0
230
1.0
 70
     8
 71
     3
 72
     8
 73
     4
 74
     0
 42
0.000000001
 43
0.0000000001
 40
1.0
 40
1.0
 40
1.0
 40
1.0
 40
2.0
 40
2.0
 40
2.0
 40
2.0
 10
10031.21068726194
 20
-4979.127181285546
 30
-0.0000000000000034
 10
10038.29723302239
 20
-4979.191965396007
 30
-0.0000000000000034
 10
10044.09123128864
 20
-4980.334438408515
 30
-0.0000000000000034
 10
10044.50135650406
 20
-4982.69043797404
 30
-0.0000000000000034
  0
SPLINE
  5
131794
330
18
100
AcDbEntity
  8
姿図
100
AcDbSpline
210
0.0
220
0.0
230
1.0
 70
     8
 71
     3
 72
     8
 73
     4
 74
     0
 42
0.000000001
 43
0.0000000001
 40
0.0
 40
0.0
 40
0.0
 40
0.0
 40
1.0
 40
1.0
 40
1.0
 40
1.0
 10
10043.45383923411
 20
-4983.160775840513
 30
-0.0000000000000034
 10
10043.69051021829
 20
-4983.914805416506
 30
-0.0000000000000034
 10
10043.94598949261
 20
-4985.105344059358
 30
-0.0000000000000034
 10
10044.14452144402
 20
-4986.455753168347
 30
-0.0000000000000034
  0
SPLINE
  5
131795
330
18
100
AcDbEntity
  8
姿図
100
AcDbSpline
210
0.0
220
0.0
230
1.0
 70
     8
 71
     3
 72
     8
 73
     4
 74
     0
 42
0.000000001
 43
0.0000000001
 40
1.0
 40
1.0
 40
1.0
 40
1.0
 40
2.0
 40
2.0
 40
2.0
 40
2.0
 10
10044.14452144402
 20
-4986.455753168347
 30
-0.0000000000000034
 10
10044.28662852504
 20
-4987.427253599015
 30
-0.0000000000000034
 10
10044.37701280818
 20
-4988.328092328554
 30
-0.0000000000000034
 10
10044.41253957843
 20
-4989.051427819953
 30
-0.0000000000000034
  0
SPLINE
  5
131796
330
18
100
AcDbEntity
  8
姿図
100
AcDbSpline
210
0.0
220
0.0
230
1.0
 70
     8
 71
     3
 72
     8
 73
     4
 74
     0
 42
0.000000001
 43
0.0000000001
 40
0.0
 40
0.0
 40
0.0
 40
0.0
 40
1.0
 40
1.0
 40
1.0
 40
1.0
 10
10017.14744137994
 20
-4990.068512231569
 30
-0.0000000000000034
 10
10017.1386903005
 20
-4990.020707827479
 30
-0.0000000000000034
 10
10017.13451068047
 20
-4989.972642197136
 30
-0.0000000000000034
 10
10017.13490251985
 20
-4989.924445953669
 30
-0.0000000000000034
  0
SPLINE
  5
131797
330
18
100
AcDbEntity
  8
姿図
100
AcDbSpline
210
0.0
220
0.0
230
1.0
 70
     8
 71
     3
 72
     8
 73
     4
 74
     0
 42
0.000000001
 43
0.0000000001
 40
1.0
 40
1.0
 40
1.0
 40
1.0
 40
2.0
 40
2.0
 40
2.0
 40
2.0
 10
10017.13490251985
 20
-4989.924445953669
 30
-0.0000000000000034
 10
10017.15122916059
 20
-4988.156466681081
 30
-0.0000000000000034
 10
10023.42092043148
 20
-4986.780718625661
 30
-0.0000000000000034
 10
10031.13754391142
 20
-4986.851772166167
 30
-0.0000000000000034
  0
SPLINE
  5
131798
330
18
100
AcDbEntity
  8
姿図
100
AcDbSpline
210
0.0
220
0.0
230
1.0
 70
     8
 71
     3
 72
     8
 73
     4
 74
     0
 42
0.000000001
 43
0.0000000001
 40
2.0
 40
2.0
 40
2.0
 40
2.0
 40
3.0
 40
3.0
 40
3.0
 40
3.0
 10
10031.13754391142
 20
-4986.851772166167
 30
-0.0000000000000034
 10
10038.85521229637
 20
-4986.922433867295
 30
-0.0000000000000034
 10
10045.09851971582
 20
-4988.412729634155
 30
-0.0000000000000034
 10
10045.08284614071
 20
-4990.180447680491
 30
-0.0000000000000034
  0
SPLINE
  5
131799
330
18
100
AcDbEntity
  8
姿図
100
AcDbSpline
210
0.0
220
0.0
230
1.0
 70
     8
 71
     3
 72
     8
 73
     4
 74
     0
 42
0.000000001
 43
0.0000000001
 40
3.0
 40
3.0
 40
3.0
 40
3.0
 40
4.0
 40
4.0
 40
4.0
 40
4.0
 10
10045.08284614071
 20
-4990.180447680491
 30
-0.0000000000000034
 10
10045.0823236882
 20
-4990.218586713263
 30
-0.0000000000000034
 10
10045.07918897318
 20
-4990.256595132909
 30
-0.0000000000000034
 10
10045.07291954314
 20
-4990.294342326302
 30
-0.0000000000000034
  0
SPLINE
  5
13179A
330
18
100
AcDbEntity
  8
姿図
100
AcDbSpline
210
0.0
220
0.0
230
1.0
 70
     8
 71
     3
 72
     8
 73
     4
 74
     0
 42
0.000000001
 43
0.0000000001
 40
0.0
 40
0.0
 40
0.0
 40
0.0
 40
1.0
 40
1.0
 40
1.0
 40
1.0
 10
10018.80583623987
 20
-4983.106440780127
 30
-0.0000000000000034
 10
10017.80011517021
 20
-4981.33166962499
 30
-0.0000000000000034
 10
10023.69194266778
 20
-4979.36607269287
 30
-0.0000000000000034
 10
10031.22949555207
 20
-4979.556898469855
 30
-0.0000000000000034
  0
SPLINE
  5
13179B
330
18
100
AcDbEntity
  8
姿図
100
AcDbSpline
210
0.0
220
0.0
230
1.0
 70
     8
 71
     3
 72
     8
 73
     4
 74
     0
 42
0.000000001
 43
0.0000000001
 40
1.0
 40
1.0
 40
1.0
 40
1.0
 40
2.0
 40
2.0
 40
2.0
 40
2.0
 10
10031.22949555207
 20
-4979.556898469855
 30
-0.0000000000000034
 10
10038.23976324698
 20
-4979.734401707993
 30
-0.0000000000000034
 10
10044.03741868076
 20
-4980.917495402667
 30
-0.0000000000000034
 10
10043.50503957947
 20
-4983.283944018265
 30
-0.0000000000000034
  0
SPLINE
  5
13179C
330
18
100
AcDbEntity
  8
姿図
100
AcDbSpline
210
0.0
220
0.0
230
1.0
 70
     8
 71
     3
 72
     8
 73
     4
 74
     0
 42
0.000000001
 43
0.0000000001
 40
0.0
 40
0.0
 40
0.0
 40
0.0
 40
1.0
 40
1.0
 40
1.0
 40
1.0
 10
10019.07423838847
 20
-4981.94139709031
 30
-0.0000000000000034
 10
10018.8472327756
 20
-4982.73212895469
 30
-0.0000000000000034
 10
10018.5954106688
 20
-4983.782258487166
 30
-0.0000000000000034
 10
10018.36357237028
 20
-4984.941580592921
 30
-0.0000000000000034
  0
SPLINE
  5
13179D
330
18
100
AcDbEntity
  8
姿図
100
AcDbSpline
210
0.0
220
0.0
230
1.0
 70
     8
 71
     3
 72
     8
 73
     4
 74
     0
 42
0.000000001
 43
0.0000000001
 40
1.0
 40
1.0
 40
1.0
 40
1.0
 40
2.0
 40
2.0
 40
2.0
 40
2.0
 10
10018.36357237028
 20
-4984.941580592921
 30
-0.0000000000000034
 10
10018.02071291471
 20
-4986.655747257625
 30
-0.0000000000000034
 10
10017.81003394259
 20
-4988.166288059006
 30
-0.0000000000000034
 10
10017.78443376991
 20
-4988.969297557222
 30
-0.0000000000000034
  0
SPLINE
  5
13179E
330
18
100
AcDbEntity
  8
姿図
100
AcDbSpline
210
0.0
220
0.0
230
1.0
 70
     8
 71
     3
 72
     8
 73
     4
 74
     0
 42
0.000000001
 43
0.0000000001
 40
0.0
 40
0.0
 40
0.0
 40
0.0
 40
1.0
 40
1.0
 40
1.0
 40
1.0
 10
10038.66752525952
 20
-5030.25577707006
 30
-0.0000000000000061
 10
10039.17334646971
 20
-5029.518533362748
 30
-0.0000000000000061
 10
10042.97985173733
 20
-5024.557283424657
 30
-0.0000000000000061
 10
10042.97985173733
 20
-5024.557283424657
 30
-0.0000000000000061
  0
LINE
  5
13179F
330
18
100
AcDbEntity
  8
姿図
100
AcDbLine
 10
10036.28221212158
 20
-5022.390035486623
 30
-0.0000000000000037
 11
10039.85218631275
 21
-5020.389258029486
 31
-0.0000000000000061
  0
LINE
  5
1317A0
330
18
100
AcDbEntity
  8
姿図
100
AcDbLine
 10
10036.4030753126
 20
-5021.499692533121
 30
-0.0000000000000061
 11
10036.28221212158
 21
-5022.390035486623
 31
-0.0000000000000037
  0
SPLINE
  5
1317A1
330
18
100
AcDbEntity
  8
姿図
100
AcDbSpline
210
0.0
220
0.0
230
1.0
 70
     8
 71
     3
 72
     8
 73
     4
 74
     0
 42
0.000000001
 43
0.0000000001
 40
1.0
 40
1.0
 40
1.0
 40
1.000000000000004
 40
2.0
 40
2.0
 40
2.0
 40
2.0
 10
10018.78838979662
 20
-5014.006984756853
 30
-0.0000000000000061
 10
10022.86868622888
 20
-5011.044795540388
 30
-0.0000000000000061
 10
10029.86529112872
 20
-5013.667618703919
 30
-0.0000000000000061
 10
10034.60921769959
 20
-5019.870436439062
 30
-0.0000000000000061
  0
SPLINE
  5
1317A2
330
18
100
AcDbEntity
  8
姿図
100
AcDbSpline
210
0.0
220
0.0
230
1.0
 70
     8
 71
     3
 72
     8
 73
     4
 74
     0
 42
0.000000001
 43
0.0000000001
 40
2.0
 40
2.0
 40
2.0
 40
2.0
 40
2.132564484647539
 40
2.132564484647539
 40
2.132564484647539
 40
2.132564484647539
 10
10034.60921769959
 20
-5019.870436439062
 30
-0.0000000000000061
 10
10035.23847722487
 20
-5020.692709775483
 30
-0.0000000000000061
 10
10035.7966044954
 20
-5021.536809369035
 30
-0.0000000000000061
 10
10036.28221212158
 20
-5022.390035486623
 30
-0.0000000000000061
  0
SPLINE
  5
1317A3
330
18
100
AcDbEntity
  8
姿図
100
AcDbSpline
210
0.0
220
0.0
230
1.0
 70
     8
 71
     3
 72
     8
 73
     4
 74
     0
 42
0.000000001
 43
0.0000000001
 40
2.546094283791052
 40
2.546094283791052
 40
2.546094283791052
 40
2.546094283791052
 40
2.999999999999997
 40
3.0
 40
3.0
 40
3.0
 10
10038.66752525952
 20
-5030.25577707006
 30
-0.0000000000000061
 10
10038.73485009323
 20
-5032.949070534968
 30
-0.0000000000000061
 10
10037.90121189851
 20
-5035.28490061999
 30
-0.0000000000000061
 10
10036.11091598102
 20
-5036.753455404273
 30
-0.0000000000000061
  0
LINE
  5
1317A4
330
18
100
AcDbEntity
  8
姿図
100
AcDbLine
 10
10037.34765611996
 20
-5009.771769299176
 30
-0.0000000000000061
 11
10036.72912845935
 21
-5010.215487690098
 31
-0.0000000000000061
  0
LINE
  5
1317A5
330
18
100
AcDbEntity
  8
姿図
100
AcDbLine
 10
10041.77542182021
 20
-5012.563228469289
 30
-0.0000000000000061
 11
10041.46607205601
 21
-5012.79180612418
 31
-0.0000000000000061
  0
LINE
  5
1317A6
330
18
100
AcDbEntity
  8
姿図
100
AcDbLine
 10
10044.27960483856
 20
-5016.046537252857
 30
-0.0000000000000061
 11
10042.01975865881
 21
-5017.713795501251
 31
-0.0000000000000061
  0
LINE
  5
1317A7
330
18
100
AcDbEntity
  8
姿図
100
AcDbLine
 10
10044.90658770739
 20
-5018.228242369003
 30
-0.0000000000000061
 11
10042.68972239788
 21
-5019.926576986306
 31
-0.0000000000000061
  0
ARC
  5
1317A8
330
18
100
AcDbEntity
  8
姿図
100
AcDbCircle
 10
10046.04796348254
 20
-5046.425261279813
 30
0.0
 40
39.33120301649688
100
AcDbArc
 50
106.8206178016378
 51
121.2112053711344
  0
ARC
  5
1317A9
330
18
100
AcDbEntity
  8
姿図
100
AcDbCircle
 10
10072.0629183724
 20
-5056.613636027997
 30
-0.0000000000000061
 40
50.70022945072625
100
AcDbArc
 50
123.5328987203408
 51
126.6224344031526
  0
ARC
  5
1317AA
330
18
100
AcDbEntity
  8
姿図
100
AcDbCircle
 10
10062.89204604752
 20
-4970.506353313735
 30
0.0
 40
47.55327128227507
100
AcDbArc
 50
233.5901345256917
 51
239.6115647317654
  0
ARC
  5
1317AB
330
18
100
AcDbEntity
  8
姿図
100
AcDbCircle
 10
10062.89204604752
 20
-4970.506353313735
 30
0.0
 40
47.55327128227507
100
AcDbArc
 50
243.2468135642899
 51
246.6642495118248
  0
ARC
  5
1317AC
330
18
100
AcDbEntity
  8
姿図
100
AcDbCircle
 10
10043.98437213079
 20
-5014.260623283434
 30
0.0
 40
0.1152954029574709
100
AcDbArc
 50
307.9750042488932
 51
52.02499575110675
  0
ARC
  5
1317AD
330
18
100
AcDbEntity
  8
姿図
100
AcDbCircle
 10
10072.0629183724
 20
-5056.613636027997
 30
-0.0000000000000061
 40
50.70022945072625
100
AcDbArc
 50
129.4874917266017
 51
135.2542785562877
  0
ENDSEC
  0
SECTION
  2
OBJECTS
  0
DICTIONARY
  5
C
330
0
100
AcDbDictionary
281
     1
  3
ACAD_GROUP
350
D
  3
ACAD_IMAGE_VARS
350
1319D7
  3
ACAD_LAYOUT
350
617
  3
ACAD_MLINESTYLE
350
E
  3
ACAD_PLOTSETTINGS
350
618
  3
ACAD_PLOTSTYLENAME
350
615
  3
ACAD_SCALELIST
350
A36
  3
AcadDim
350
AB4
  3
AcDbVariableDictionary
350
6DE
  3
APPDATA
350
1319D6
  3
DWGPROPS
350
1319FB
  0
DICTIONARY
  5
8BF
330
2
100
AcDbDictionary
280
     1
281
     1
  3
ACAD_LAYERSTATES
360
8C0
  0
DICTIONARY
  5
A60
330
F
100
AcDbDictionary
280
     1
281
     1
  3
ADSK_XREC_LAYER_RECONCILED
360
A61
  0
DICTIONARY
  5
A66
330
34
100
AcDbDictionary
280
     1
281
     1
  3
ADSK_XREC_LAYER_RECONCILED
360
A67
  0
DICTIONARY
  5
A6E
330
2F4
100
AcDbDictionary
280
     1
281
     1
  3
ADSK_XREC_LAYER_RECONCILED
360
A6F
  0
DICTIONARY
  5
A72
330
305
100
AcDbDictionary
280
     1
281
     1
  3
ADSK_XREC_LAYER_RECONCILED
360
A73
  0
DICTIONARY
  5
143F
330
18
100
AcDbDictionary
280
     1
281
     1
  3
ACAD_SORTENTS
360
1440
  0
DICTIONARY
  5
D
102
{ACAD_REACTORS
330
C
102
}
330
C
100
AcDbDictionary
281
     1
  0
RASTERVARIABLES
  5
1319D7
102
{ACAD_REACTORS
330
C
102
}
330
C
100
AcDbRasterVariables
 90
        0
 70
     1
 71
     1
 72
     0
  0
DICTIONARY
  5
617
102
{ACAD_REACTORS
330
C
102
}
330
C
100
AcDbDictionary
281
     1
  3
Model
350
619
  3
ﾚｲｱｳﾄ1
350
61A
  0
DICTIONARY
  5
E
102
{ACAD_REACTORS
330
C
102
}
330
C
100
AcDbDictionary
281
     1
  3
STANDARD
350
1B
  0
DICTIONARY
  5
618
102
{ACAD_REACTORS
330
C
102
}
330
C
100
AcDbDictionary
281
     1
  0
ACDBDICTIONARYWDFLT
  5
615
102
{ACAD_REACTORS
330
C
102
}
330
C
100
AcDbDictionary
281
     1
  3
Normal
350
616
100
AcDbDictionaryWithDefault
340
616
  0
DICTIONARY
  5
A36
102
{ACAD_REACTORS
330
C
102
}
330
C
100
AcDbDictionary
281
     1
  3
A0
350
A37
  3
A1
350
A38
  3
A2
350
A39
  3
A3
350
A3A
  3
A4
350
A3B
  3
A5
350
A3C
  3
A6
350
A3D
  3
A7
350
A3E
  3
A8
350
A3F
  3
A9
350
A40
  3
B0
350
A41
  3
B1
350
A42
  3
B2
350
A43
  3
B3
350
A44
  3
B4
350
A45
  3
B5
350
A46
  3
B6
350
A47
  3
B7
350
A48
  3
B8
350
A49
  3
B9
350
A4A
  3
C0
350
A4B
  3
C1
350
A4C
  3
C2
350
A4D
  3
C3
350
A4E
  3
C4
350
A4F
  3
C5
350
A50
  3
C6
350
A51
  3
C7
350
A52
  3
C8
350
A53
  3
C9
350
A54
  3
D0
350
A55
  3
D1
350
A56
  3
D2
350
A57
  0
XRECORD
  5
AB4
102
{ACAD_REACTORS
330
C
102
}
330
C
100
AcDbXrecord
280
     1
 90
   990106
  3
OPEN
 60
     0
 61
     0
 62
     1
 63
     3
 64
     1
 65
     0
 66
     0
 67
     3
 68
     1
 69
     0
 70
     0
 71
     0
 72
     0
 40
0.0
170
     2
  0
DICTIONARY
  5
6DE
102
{ACAD_REACTORS
330
C
102
}
330
C
100
AcDbDictionary
281
     1
  3
DIMASSOC
350
6DF
  3
INDEXCTL
350
A93
  3
PROJECTNAME
350
6E0
  3
SORTENTS
350
A92
  0
DICTIONARY
  5
1319D6
102
{ACAD_REACTORS
330
C
102
}
330
C
100
AcDbDictionary
281
     1
  0
XRECORD
  5
1319FB
102
{ACAD_REACTORS
330
C
102
}
330
C
100
AcDbXrecord
280
     1
  1
DWGPROPS COOKIE
  2

  3

  4

  6

  7

  8
SPAX
  9

300
=
301
=
302
=
303
=
304
=
305
=
306
=
307
=
308
=
309
=
 40
0.0
 41
2448636.244629629
 42
2456821.231871528
  1

 90
        0
  0
DICTIONARY
  5
8C0
102
{ACAD_REACTORS
330
8BF
102
}
330
8BF
100
AcDbDictionary
281
     1
  0
XRECORD
  5
A61
102
{ACAD_REACTORS
330
A60
102
}
330
A60
100
AcDbXrecord
280
     1
290
     1
  0
XRECORD
  5
A67
102
{ACAD_REACTORS
330
A66
102
}
330
A66
100
AcDbXrecord
280
     1
290
     1
  0
XRECORD
  5
A6F
102
{ACAD_REACTORS
330
A6E
102
}
330
A6E
100
AcDbXrecord
280
     1
290
     1
  0
XRECORD
  5
A73
102
{ACAD_REACTORS
330
A72
102
}
330
A72
100
AcDbXrecord
280
     1
290
     1
  0
SORTENTSTABLE
  5
1440
102
{ACAD_REACTORS
330
143F
102
}
330
143F
100
AcDbSortentsTable
330
18
331
0
  5
108D92
331
D0CC6
  5
D0CC6
331
F6D77
  5
F6D77
331
F6D78
  5
F6D78
  0
LAYOUT
  5
619
102
{ACAD_REACTORS
330
617
102
}
330
617
100
AcDbPlotSettings
  1

  2
JUST PDF 2
  4
A4
  6

 40
3.174999952316284
 41
3.174999952316284
 42
3.175003051757812
 43
3.17498779296875
 44
209.8886566162109
 45
297.0530090332031
 46
14.27171755861491
 47
9.855173074625782
 48
9986.758238976532
 49
-5472.288030791531
140
10336.74867596635
141
-4930.302680514198
142
1.0
143
2.0
 70
  3748
 72
     1
 73
     0
 74
     4
  7
spax form.ctb
 75
     0
147
2.049951397771953
148
-9986.758238976532
149
5472.288030791531
100
AcDbLayout
  1
Model
 70
     1
 71
     0
 10
0.0
 20
0.0
 11
12.0
 21
9.0
 12
0.0
 22
0.0
 32
0.0
 14
9986.588229971874
 24
-5062.606223817625
 34
-0.000000000000009
 15
10055.92156330521
 25
-4978.665986337886
 35
0.0
146
0.0
 13
0.0
 23
0.0
 33
0.0
 16
1.0
 26
0.0
 36
0.0
 17
0.0
 27
1.0
 37
0.0
 76
     0
330
18
331
1294E6
1001
ACAD_PSEXT
1000
JUST PDF 2
1000
JUST PDF 2
1000
JUST PDF 2 Port:
1000

1070
     0
  0
LAYOUT
  5
61A
102
{ACAD_REACTORS
330
617
102
}
330
617
100
AcDbPlotSettings
  1

  2
Canon LASER SHOT LBP-750
  4

  6

 40
0.0
 41
0.0
 42
0.0
 43
0.0
 44
0.0
 45
0.0
 46
0.0
 47
0.0
 48
0.0
 49
0.0
140
0.0
141
0.0
142
1.0
143
1.0
 70
   688
 72
     0
 73
     0
 74
     5
  7
spax form.ctb
 75
    16
147
1.0
148
0.0
149
0.0
100
AcDbLayout
  1
ﾚｲｱｳﾄ1
 70
     0
 71
     1
 10
0.0
 20
0.0
 11
12.0
 21
9.0
 12
0.0
 22
0.0
 32
0.0
 14
1.000000000000000E+20
 24
1.000000000000000E+20
 34
1.000000000000000E+20
 15
-1.000000000000000E+20
 25
-1.000000000000000E+20
 35
-1.000000000000000E+20
146
0.0
 13
0.0
 23
0.0
 33
0.0
 16
1.0
 26
0.0
 36
0.0
 17
0.0
 27
1.0
 37
0.0
 76
     0
330
15
  0
MLINESTYLE
  5
1B
102
{ACAD_REACTORS
330
E
102
}
330
E
100
AcDbMlineStyle
  2
STANDARD
 70
     0
  3

 62
     0
 51
90.0
 52
90.0
 71
     2
 49
0.5
 62
   256
  6
BYLAYER
 49
-0.5
 62
   256
  6
BYLAYER
  0
ACDBPLACEHOLDER
  5
616
102
{ACAD_REACTORS
330
615
102
}
330
615
  0
SCALE
  5
A37
102
{ACAD_REACTORS
330
A36
102
}
330
A36
100
AcDbScale
 70
     0
300
1:1
140
1.0
141
1.0
290
     1
  0
SCALE
  5
A38
102
{ACAD_REACTORS
330
A36
102
}
330
A36
100
AcDbScale
 70
     0
300
1:2
140
1.0
141
2.0
290
     0
  0
SCALE
  5
A39
102
{ACAD_REACTORS
330
A36
102
}
330
A36
100
AcDbScale
 70
     0
300
1:4
140
1.0
141
4.0
290
     0
  0
SCALE
  5
A3A
102
{ACAD_REACTORS
330
A36
102
}
330
A36
100
AcDbScale
 70
     0
300
1:5
140
1.0
141
5.0
290
     0
  0
SCALE
  5
A3B
102
{ACAD_REACTORS
330
A36
102
}
330
A36
100
AcDbScale
 70
     0
300
1:8
140
1.0
141
8.0
290
     0
  0
SCALE
  5
A3C
102
{ACAD_REACTORS
330
A36
102
}
330
A36
100
AcDbScale
 70
     0
300
1:10
140
1.0
141
10.0
290
     0
  0
SCALE
  5
A3D
102
{ACAD_REACTORS
330
A36
102
}
330
A36
100
AcDbScale
 70
     0
300
1:16
140
1.0
141
16.0
290
     0
  0
SCALE
  5
A3E
102
{ACAD_REACTORS
330
A36
102
}
330
A36
100
AcDbScale
 70
     0
300
1:20
140
1.0
141
20.0
290
     0
  0
SCALE
  5
A3F
102
{ACAD_REACTORS
330
A36
102
}
330
A36
100
AcDbScale
 70
     0
300
1:30
140
1.0
141
30.0
290
     0
  0
SCALE
  5
A40
102
{ACAD_REACTORS
330
A36
102
}
330
A36
100
AcDbScale
 70
     0
300
1:40
140
1.0
141
40.0
290
     0
  0
SCALE
  5
A41
102
{ACAD_REACTORS
330
A36
102
}
330
A36
100
AcDbScale
 70
     0
300
1:50
140
1.0
141
50.0
290
     0
  0
SCALE
  5
A42
102
{ACAD_REACTORS
330
A36
102
}
330
A36
100
AcDbScale
 70
     0
300
1:100
140
1.0
141
100.0
290
     0
  0
SCALE
  5
A43
102
{ACAD_REACTORS
330
A36
102
}
330
A36
100
AcDbScale
 70
     0
300
2:1
140
2.0
141
1.0
290
     0
  0
SCALE
  5
A44
102
{ACAD_REACTORS
330
A36
102
}
330
A36
100
AcDbScale
 70
     0
300
4:1
140
4.0
141
1.0
290
     0
  0
SCALE
  5
A45
102
{ACAD_REACTORS
330
A36
102
}
330
A36
100
AcDbScale
 70
     0
300
8:1
140
8.0
141
1.0
290
     0
  0
SCALE
  5
A46
102
{ACAD_REACTORS
330
A36
102
}
330
A36
100
AcDbScale
 70
     0
300
10:1
140
10.0
141
1.0
290
     0
  0
SCALE
  5
A47
102
{ACAD_REACTORS
330
A36
102
}
330
A36
100
AcDbScale
 70
     0
300
100:1
140
100.0
141
1.0
290
     0
  0
SCALE
  5
A48
102
{ACAD_REACTORS
330
A36
102
}
330
A36
100
AcDbScale
 70
     0
300
1/128" = 1'-0"
140
0.0078125
141
12.0
290
     0
  0
SCALE
  5
A49
102
{ACAD_REACTORS
330
A36
102
}
330
A36
100
AcDbScale
 70
     0
300
1/64" = 1'-0"
140
0.015625
141
12.0
290
     0
  0
SCALE
  5
A4A
102
{ACAD_REACTORS
330
A36
102
}
330
A36
100
AcDbScale
 70
     0
300
1/32" = 1'-0"
140
0.03125
141
12.0
290
     0
  0
SCALE
  5
A4B
102
{ACAD_REACTORS
330
A36
102
}
330
A36
100
AcDbScale
 70
     0
300
1/16" = 1'-0"
140
0.0625
141
12.0
290
     0
  0
SCALE
  5
A4C
102
{ACAD_REACTORS
330
A36
102
}
330
A36
100
AcDbScale
 70
     0
300
3/32" = 1'-0"
140
0.09375
141
12.0
290
     0
  0
SCALE
  5
A4D
102
{ACAD_REACTORS
330
A36
102
}
330
A36
100
AcDbScale
 70
     0
300
1/8" = 1'-0"
140
0.125
141
12.0
290
     0
  0
SCALE
  5
A4E
102
{ACAD_REACTORS
330
A36
102
}
330
A36
100
AcDbScale
 70
     0
300
3/16" = 1'-0"
140
0.1875
141
12.0
290
     0
  0
SCALE
  5
A4F
102
{ACAD_REACTORS
330
A36
102
}
330
A36
100
AcDbScale
 70
     0
300
1/4" = 1'-0"
140
0.25
141
12.0
290
     0
  0
SCALE
  5
A50
102
{ACAD_REACTORS
330
A36
102
}
330
A36
100
AcDbScale
 70
     0
300
3/8" = 1'-0"
140
0.375
141
12.0
290
     0
  0
SCALE
  5
A51
102
{ACAD_REACTORS
330
A36
102
}
330
A36
100
AcDbScale
 70
     0
300
1/2" = 1'-0"
140
0.5
141
12.0
290
     0
  0
SCALE
  5
A52
102
{ACAD_REACTORS
330
A36
102
}
330
A36
100
AcDbScale
 70
     0
300
3/4" = 1'-0"
140
0.75
141
12.0
290
     0
  0
SCALE
  5
A53
102
{ACAD_REACTORS
330
A36
102
}
330
A36
100
AcDbScale
 70
     0
300
1" = 1'-0"
140
1.0
141
12.0
290
     0
  0
SCALE
  5
A54
102
{ACAD_REACTORS
330
A36
102
}
330
A36
100
AcDbScale
 70
     0
300
1-1/2" = 1'-0"
140
1.5
141
12.0
290
     0
  0
SCALE
  5
A55
102
{ACAD_REACTORS
330
A36
102
}
330
A36
100
AcDbScale
 70
     0
300
3" = 1'-0"
140
3.0
141
12.0
290
     0
  0
SCALE
  5
A56
102
{ACAD_REACTORS
330
A36
102
}
330
A36
100
AcDbScale
 70
     0
300
6" = 1'-0"
140
6.0
141
12.0
290
     0
  0
SCALE
  5
A57
102
{ACAD_REACTORS
330
A36
102
}
330
A36
100
AcDbScale
 70
     0
300
1'-0" = 1'-0"
140
12.0
141
12.0
290
     0
  0
DICTIONARYVAR
  5
6DF
102
{ACAD_REACTORS
330
6DE
102
}
330
6DE
100
DictionaryVariables
280
     0
  1
1
  0
DICTIONARYVAR
  5
A93
102
{ACAD_REACTORS
330
6DE
102
}
330
6DE
100
DictionaryVariables
280
     0
  1
0
  0
DICTIONARYVAR
  5
6E0
102
{ACAD_REACTORS
330
6DE
102
}
330
6DE
100
DictionaryVariables
280
     0
  1

  0
DICTIONARYVAR
  5
A92
102
{ACAD_REACTORS
330
6DE
102
}
330
6DE
100
DictionaryVariables
280
     0
  1
127
  0
ENDSEC
  0
EOF
