  0
SECTION
  2
HEADER
  9
$ACADVER
  1
AC1015
  9
$ACADMAINTVER
 70
     6
  9
$DWGCODEPAGE
  3
ANSI_932
  9
$INSBASE
 10
0.0
 20
0.0
 30
0.0
  9
$EXTMIN
 10
11070.28799899416
 20
-5081.625931452764
 30
0.0
  9
$EXTMAX
 10
11146.12133232749
 20
-5003.803564392168
 30
0.0000000000000059
  9
$LIMMIN
 10
0.0
 20
0.0
  9
$LIMMAX
 10
420.0
 20
297.0
  9
$ORTHOMODE
 70
     1
  9
$REGENMODE
 70
     1
  9
$FILLMODE
 70
     1
  9
$QTEXTMODE
 70
     0
  9
$MIRRTEXT
 70
     1
  9
$LTSCALE
 40
5.0
  9
$ATTMODE
 70
     0
  9
$TEXTSIZE
 40
53.44730959687513
  9
$TRACEWID
 40
1.0
  9
$TEXTSTYLE
  7
STANDARD
  9
$CLAYER
  8
寸法線
  9
$CELTYPE
  6
BYLAYER
  9
$CECOLOR
 62
   256
  9
$CELTSCALE
 40
1.0
  9
$DISPSILH
 70
     0
  9
$DIMSCALE
 40
1.0
  9
$DIMASZ
 40
2.5
  9
$DIMEXO
 40
1.5
  9
$DIMDLI
 40
0.38
  9
$DIMRND
 40
0.0
  9
$DIMDLE
 40
0.0
  9
$DIMEXE
 40
1.0
  9
$DIMTP
 40
0.0
  9
$DIMTM
 40
0.0
  9
$DIMTXT
 40
2.500000000000003
  9
$DIMCEN
 40
0.0
  9
$DIMTSZ
 40
0.0
  9
$DIMTOL
 70
     0
  9
$DIMLIM
 70
     0
  9
$DIMTIH
 70
     0
  9
$DIMTOH
 70
     0
  9
$DIMSE1
 70
     0
  9
$DIMSE2
 70
     0
  9
$DIMTAD
 70
     3
  9
$DIMZIN
 70
     8
  9
$DIMBLK
  1

  9
$DIMASO
 70
     1
  9
$DIMSHO
 70
     0
  9
$DIMPOST
  1

  9
$DIMAPOST
  1

  9
$DIMALT
 70
     0
  9
$DIMALTD
 70
     0
  9
$DIMALTF
 40
25.4
  9
$DIMLFAC
 40
1.0
  9
$DIMTOFL
 70
     1
  9
$DIMTVP
 40
0.0
  9
$DIMTIX
 70
     0
  9
$DIMSOXD
 70
     0
  9
$DIMSAH
 70
     1
  9
$DIMBLK1
  1
OPEN
  9
$DIMBLK2
  1
OPEN
  9
$DIMSTYLE
  2
STANDARD
  9
$DIMCLRD
 70
     8
  9
$DIMCLRE
 70
     8
  9
$DIMCLRT
 70
   256
  9
$DIMTFAC
 40
1.0
  9
$DIMGAP
 40
1.0
  9
$DIMJUST
 70
     0
  9
$DIMSD1
 70
     0
  9
$DIMSD2
 70
     0
  9
$DIMTOLJ
 70
     1
  9
$DIMTZIN
 70
     0
  9
$DIMALTZ
 70
     0
  9
$DIMALTTZ
 70
     0
  9
$DIMUPT
 70
     0
  9
$DIMDEC
 70
     2
  9
$DIMTDEC
 70
     2
  9
$DIMALTU
 70
     2
  9
$DIMALTTD
 70
     0
  9
$DIMTXSTY
  7
STANDARD
  9
$DIMAUNIT
 70
     0
  9
$DIMADEC
 70
     2
  9
$DIMALTRND
 40
0.0
  9
$DIMAZIN
 70
     2
  9
$DIMDSEP
 70
    46
  9
$DIMATFIT
 70
     1
  9
$DIMFRAC
 70
     0
  9
$DIMLDRBLK
  1
OPEN
  9
$DIMLUNIT
 70
     2
  9
$DIMLWD
 70
    -2
  9
$DIMLWE
 70
    -2
  9
$DIMTMOVE
 70
     0
  9
$LUNITS
 70
     2
  9
$LUPREC
 70
     2
  9
$SKETCHINC
 40
0.1
  9
$FILLETRAD
 40
15.5
  9
$AUNITS
 70
     0
  9
$AUPREC
 70
     1
  9
$MENU
  1
FM
  9
$ELEVATION
 40
0.0
  9
$PELEVATION
 40
0.0
  9
$THICKNESS
 40
0.0
  9
$LIMCHECK
 70
     0
  9
$CHAMFERA
 40
0.0
  9
$CHAMFERB
 40
0.0
  9
$CHAMFERC
 40
0.0
  9
$CHAMFERD
 40
0.0
  9
$SKPOLY
 70
     0
  9
$TDCREATE
 40
2448636.619629629
  9
$TDUCREATE
 40
2448636.244629629
  9
$TDUPDATE
 40
2456822.482804086
  9
$TDUUPDATE
 40
2456822.107804086
  9
$TDINDWG
 40
49.4443354861
  9
$TDUSRTIMER
 40
2456822.107682072
  9
$USRTIMER
 70
     1
  9
$ANGBASE
 50
0.0
  9
$ANGDIR
 70
     0
  9
$PDMODE
 70
     3
  9
$PDSIZE
 40
0.0
  9
$PLINEWID
 40
0.0
  9
$SPLFRAME
 70
     0
  9
$SPLINETYPE
 70
     6
  9
$SPLINESEGS
 70
     8
  9
$HANDSEED
  5
15DB73
  9
$SURFTAB1
 70
     6
  9
$SURFTAB2
 70
     6
  9
$SURFTYPE
 70
     6
  9
$SURFU
 70
     6
  9
$SURFV
 70
     6
  9
$UCSBASE
  2

  9
$UCSNAME
  2

  9
$UCSORG
 10
0.0
 20
0.0
 30
0.0
  9
$UCSXDIR
 10
1.0
 20
0.0
 30
0.0
  9
$UCSYDIR
 10
0.0
 20
1.0
 30
0.0
  9
$UCSORTHOREF
  2

  9
$UCSORTHOVIEW
 70
     0
  9
$UCSORGTOP
 10
0.0
 20
0.0
 30
0.0
  9
$UCSORGBOTTOM
 10
0.0
 20
0.0
 30
0.0
  9
$UCSORGLEFT
 10
0.0
 20
0.0
 30
0.0
  9
$UCSORGRIGHT
 10
0.0
 20
0.0
 30
0.0
  9
$UCSORGFRONT
 10
0.0
 20
0.0
 30
0.0
  9
$UCSORGBACK
 10
0.0
 20
0.0
 30
0.0
  9
$PUCSBASE
  2

  9
$PUCSNAME
  2

  9
$PUCSORG
 10
0.0
 20
0.0
 30
0.0
  9
$PUCSXDIR
 10
1.0
 20
0.0
 30
0.0
  9
$PUCSYDIR
 10
0.0
 20
1.0
 30
0.0
  9
$PUCSORTHOREF
  2

  9
$PUCSORTHOVIEW
 70
     0
  9
$PUCSORGTOP
 10
0.0
 20
0.0
 30
0.0
  9
$PUCSORGBOTTOM
 10
0.0
 20
0.0
 30
0.0
  9
$PUCSORGLEFT
 10
0.0
 20
0.0
 30
0.0
  9
$PUCSORGRIGHT
 10
0.0
 20
0.0
 30
0.0
  9
$PUCSORGFRONT
 10
0.0
 20
0.0
 30
0.0
  9
$PUCSORGBACK
 10
0.0
 20
0.0
 30
0.0
  9
$USERI1
 70
     0
  9
$USERI2
 70
     0
  9
$USERI3
 70
     0
  9
$USERI4
 70
     0
  9
$USERI5
 70
     0
  9
$USERR1
 40
0.0
  9
$USERR2
 40
0.0
  9
$USERR3
 40
0.0
  9
$USERR4
 40
0.0
  9
$USERR5
 40
0.0
  9
$WORLDVIEW
 70
     0
  9
$SHADEDGE
 70
     3
  9
$SHADEDIF
 70
    70
  9
$TILEMODE
 70
     1
  9
$MAXACTVP
 70
    16
  9
$PINSBASE
 10
0.0
 20
0.0
 30
0.0
  9
$PLIMCHECK
 70
     0
  9
$PEXTMIN
 10
1.000000000000000E+20
 20
1.000000000000000E+20
 30
1.000000000000000E+20
  9
$PEXTMAX
 10
-1.000000000000000E+20
 20
-1.000000000000000E+20
 30
-1.000000000000000E+20
  9
$PLIMMIN
 10
0.0
 20
0.0
  9
$PLIMMAX
 10
0.0
 20
0.0
  9
$UNITMODE
 70
     0
  9
$VISRETAIN
 70
     0
  9
$PLINEGEN
 70
     0
  9
$PSLTSCALE
 70
     0
  9
$TREEDEPTH
 70
  3020
  9
$CMLSTYLE
  2
STANDARD
  9
$CMLJUST
 70
     0
  9
$CMLSCALE
 40
1.0
  9
$PROXYGRAPHICS
 70
     1
  9
$MEASUREMENT
 70
     0
  9
$CELWEIGHT
370
    -1
  9
$ENDCAPS
280
     0
  9
$JOINSTYLE
280
     0
  9
$LWDISPLAY
290
     0
  9
$INSUNITS
 70
     0
  9
$HYPERLINKBASE
  1

  9
$STYLESHEET
  1
spax form.ctb
  9
$XEDIT
290
     1
  9
$CEPSNTYPE
380
     0
  9
$PSTYLEMODE
290
     1
  9
$FINGERPRINTGUID
  2
{BBAEEBA6-8B94-11D3-9160-00E0294F7E09}
  9
$VERSIONGUID
  2
{B333B5BC-1C24-48A1-ACB8-E5041F562CEF}
  9
$EXTNAMES
290
     1
  9
$PSVPSCALE
 40
0.0
  9
$OLESTARTUP
290
     0
  0
ENDSEC
  0
SECTION
  2
CLASSES
  0
CLASS
  1
LWPOLYLINE
  2
AcDbPolyline
  3
ObjectDBX Classes
 90
        0
280
     0
281
     1
  0
CLASS
  1
ACDBDICTIONARYWDFLT
  2
AcDbDictionaryWithDefault
  3
ObjectDBX Classes
 90
        0
280
     0
281
     0
  0
CLASS
  1
ACDBPLACEHOLDER
  2
AcDbPlaceHolder
  3
ObjectDBX Classes
 90
        0
280
     0
281
     0
  0
CLASS
  1
LAYOUT
  2
AcDbLayout
  3
ObjectDBX Classes
 90
        0
280
     0
281
     0
  0
CLASS
  1
DICTIONARYVAR
  2
AcDbDictionaryVar
  3
ObjectDBX Classes
 90
        0
280
     0
281
     0
  0
CLASS
  1
MATERIAL
  2
AcDbMaterial
  3
ObjectDBX Classes
 90
     1153
280
     0
281
     0
  0
CLASS
  1
VISUALSTYLE
  2
AcDbVisualStyle
  3
ObjectDBX Classes
 90
     4095
280
     0
281
     0
  0
CLASS
  1
TABLESTYLE
  2
AcDbTableStyle
  3
ObjectDBX Classes
 90
     4095
280
     0
281
     0
  0
CLASS
  1
SCALE
  2
AcDbScale
  3
ObjectDBX Classes
 90
     1153
280
     0
281
     0
  0
CLASS
  1
MLEADERSTYLE
  2
AcDbMLeaderStyle
  3
ACDB_MLEADERSTYLE_CLASS
 90
     4095
280
     0
281
     0
  0
CLASS
  1
CELLSTYLEMAP
  2
AcDbCellStyleMap
  3
ObjectDBX Classes
 90
     1152
280
     0
281
     0
  0
CLASS
  1
SORTENTSTABLE
  2
AcDbSortentsTable
  3
ObjectDBX Classes
 90
        0
280
     0
281
     0
  0
CLASS
  1
MULTILEADER
  2
AcDbMLeader
  3
ACDB_MLEADER_CLASS
 90
     1025
280
     0
281
     1
  0
CLASS
  1
DIMASSOC
  2
AcDbDimAssoc
  3
"AcDbDimAssoc|Product Desc:     AcDim ARX App For Dimension|Company:          Autodesk, Inc.|WEB Address:      www.autodesk.com"
 90
        0
280
     0
281
     0
  0
CLASS
  1
RASTERVARIABLES
  2
AcDbRasterVariables
  3
ISM
 90
        0
280
     0
281
     0
  0
CLASS
  1
SUN
  2
AcDbSun
  3
SCENEOE
 90
     1153
280
     0
281
     0
  0
ENDSEC
  0
SECTION
  2
TABLES
  0
TABLE
  2
VPORT
  5
8
330
0
100
AcDbSymbolTable
 70
     1
  0
VPORT
  5
152BEB
330
8
100
AcDbSymbolTableRecord
100
AcDbViewportTableRecord
  2
*Active
 70
     0
 10
0.0
 20
0.0
 11
1.0
 21
1.0
 12
11108.20466566083
 22
-5042.714747922466
 13
0.0
 23
0.0
 14
1.0
 24
1.0
 15
20.0
 25
20.0
 16
0.0
 26
0.0
 36
1.0
 17
0.0
 27
0.0
 37
0.0
 40
79.37881440180767
 41
2.027568922305764
 42
50.0
 43
0.0
 44
0.0
 50
0.0
 51
0.0
 71
    16
 72
   100
 73
     1
 74
     0
 75
     0
 76
     0
 77
     0
 78
     0
281
     0
 65
     1
110
0.0
120
0.0
130
0.0
111
1.0
121
0.0
131
0.0
112
0.0
122
1.0
132
0.0
 79
     0
146
0.0
  0
ENDTAB
  0
TABLE
  2
LTYPE
  5
5
330
0
100
AcDbSymbolTable
 70
     5
  0
LTYPE
  5
12
330
5
100
AcDbSymbolTableRecord
100
AcDbLinetypeTableRecord
  2
BYBLOCK
 70
     0
  3

 72
    65
 73
     0
 40
0.0
  0
LTYPE
  5
13
330
5
100
AcDbSymbolTableRecord
100
AcDbLinetypeTableRecord
  2
BYLAYER
 70
     0
  3

 72
    65
 73
     0
 40
0.0
  0
LTYPE
  5
14
330
5
100
AcDbSymbolTableRecord
100
AcDbLinetypeTableRecord
  2
CONTINUOUS
 70
     0
  3
Solid line
 72
    65
 73
     0
 40
0.0
  0
LTYPE
  5
26
330
5
100
AcDbSymbolTableRecord
100
AcDbLinetypeTableRecord
  2
PHANTOM
 70
     0
  3
_____ _ _ _____ _ _ _____ _ _ _____ _ _ ____
 72
    65
 73
     6
 40
2.5
 49
1.25
 74
     0
 49
-0.25
 74
     0
 49
0.25
 74
     0
 49
-0.25
 74
     0
 49
0.25
 74
     0
 49
-0.25
 74
     0
  0
LTYPE
  5
27
330
5
100
AcDbSymbolTableRecord
100
AcDbLinetypeTableRecord
  2
HIDDEN
 70
     0
  3
_ _ _ _ _ _ _ _ _ _ _ _ _ _ _ _ _ _ _ _ _ _ _
 72
    65
 73
     2
 40
0.375
 49
0.25
 74
     0
 49
-0.125
 74
     0
  0
LTYPE
  5
514
330
5
100
AcDbSymbolTableRecord
100
AcDbLinetypeTableRecord
  2
CENTER
 70
     0
  3
Center ____ _ ____ _ ____ _ ____ _ ____ _ ____
 72
    65
 73
     4
 40
2.0
 49
1.25
 74
     0
 49
-0.25
 74
     0
 49
0.25
 74
     0
 49
-0.25
 74
     0
  0
ENDTAB
  0
TABLE
  2
LAYER
  5
2
102
{ACAD_XDICTIONARY
360
8BF
102
}
330
0
100
AcDbSymbolTable
 70
    15
  0
LAYER
  5
F
102
{ACAD_XDICTIONARY
360
A60
102
}
330
2
100
AcDbSymbolTableRecord
100
AcDbLayerTableRecord
  2
0
 70
     0
 62
     7
  6
CONTINUOUS
370
    -3
390
616
  0
LAYER
  5
34
102
{ACAD_XDICTIONARY
360
A66
102
}
330
2
100
AcDbSymbolTableRecord
100
AcDbLayerTableRecord
  2
寸法線
 70
     0
 62
     7
  6
CONTINUOUS
370
    -3
390
616
  0
LAYER
  5
2F4
102
{ACAD_XDICTIONARY
360
A6E
102
}
330
2
100
AcDbSymbolTableRecord
100
AcDbLayerTableRecord
  2
文字
 70
     0
 62
     7
  6
CONTINUOUS
370
    -3
390
616
  0
LAYER
  5
305
102
{ACAD_XDICTIONARY
360
A72
102
}
330
2
100
AcDbSymbolTableRecord
100
AcDbLayerTableRecord
  2
姿図
 70
     0
 62
     8
  6
CONTINUOUS
370
    -3
390
616
  0
ENDTAB
  0
TABLE
  2
STYLE
  5
3
330
0
100
AcDbSymbolTable
 70
     1
  0
STYLE
  5
10
330
3
100
AcDbSymbolTableRecord
100
AcDbTextStyleTableRecord
  2
STANDARD
 70
     0
 40
0.0
 41
1.0
 50
0.0
 71
     0
 42
53.44730959687513
  3
MONOTXT
  4
BIGFONT
  0
ENDTAB
  0
TABLE
  2
VIEW
  5
6
330
0
100
AcDbSymbolTable
 70
     0
  0
ENDTAB
  0
TABLE
  2
UCS
  5
7
330
0
100
AcDbSymbolTable
 70
     0
  0
ENDTAB
  0
TABLE
  2
APPID
  5
9
330
0
100
AcDbSymbolTable
 70
    15
  0
APPID
  5
11
330
9
100
AcDbSymbolTableRecord
100
AcDbRegAppTableRecord
  2
ACAD
 70
     0
  0
APPID
  5
8BB
330
9
100
AcDbSymbolTableRecord
100
AcDbRegAppTableRecord
  2
ACAD_PSEXT
 70
     0
  0
APPID
  5
A5A
330
9
100
AcDbSymbolTableRecord
100
AcDbRegAppTableRecord
  2
ACAD_MLEADERVER
 70
     0
  0
APPID
  5
A5E
330
9
100
AcDbSymbolTableRecord
100
AcDbRegAppTableRecord
  2
ACAD_DSTYLE_DIMJAG
 70
     0
  0
APPID
  5
A5F
330
9
100
AcDbSymbolTableRecord
100
AcDbRegAppTableRecord
  2
ACAD_DSTYLE_DIMTALN
 70
     0
  0
APPID
  5
12C0
330
9
100
AcDbSymbolTableRecord
100
AcDbRegAppTableRecord
  2
ACAD_EXEMPT_FROM_CAD_STANDARDS
 70
     0
  0
APPID
  5
1C50
330
9
100
AcDbSymbolTableRecord
100
AcDbRegAppTableRecord
  2
AcAecLayerStandard
 70
     0
  0
APPID
  5
5088
330
9
100
AcDbSymbolTableRecord
100
AcDbRegAppTableRecord
  2
ACAD_DSTYLE_DIMRADIAL_EXTENSION
 70
     0
  0
APPID
  5
14AF3
330
9
100
AcDbSymbolTableRecord
100
AcDbRegAppTableRecord
  2
WACOM_STRING
 70
     0
  0
APPID
  5
14AF4
330
9
100
AcDbSymbolTableRecord
100
AcDbRegAppTableRecord
  2
WACOM_DRSYM_ARROW
 70
     0
  0
APPID
  5
1E1A8
330
9
100
AcDbSymbolTableRecord
100
AcDbRegAppTableRecord
  2
GENIUS_GENODEF_13
 70
     0
  0
APPID
  5
1E1A9
330
9
100
AcDbSymbolTableRecord
100
AcDbRegAppTableRecord
  2
GENIUS_GENREC_14
 70
     0
  0
APPID
  5
1E1AA
330
9
100
AcDbSymbolTableRecord
100
AcDbRegAppTableRecord
  2
GENIUS_GENOBJ-N-REC_13
 70
     0
  0
APPID
  5
27C72
330
9
100
AcDbSymbolTableRecord
100
AcDbRegAppTableRecord
  2
ASK_MEN_XD
 70
     0
  0
APPID
  5
29316
330
9
100
AcDbSymbolTableRecord
100
AcDbRegAppTableRecord
  2
ACAD_DSTYLE_DIMBREAK
 70
     0
  0
ENDTAB
  0
TABLE
  2
DIMSTYLE
  5
A
330
0
100
AcDbSymbolTable
 70
     3
100
AcDbDimStyleTable
  0
DIMSTYLE
105
1CC
330
A
100
AcDbSymbolTableRecord
100
AcDbDimStyleTableRecord
  2
STANDARD
 70
     0
 41
2.5
 42
1.5
 44
1.0
 73
     0
 74
     0
 77
     3
 78
     8
 79
     2
140
2.500000000000003
141
0.0
147
1.0
171
     0
172
     1
173
     1
176
     8
177
     8
271
     2
178
   256
179
     2
271
     2
272
     2
274
     0
289
     1
340
10
341
608
343
608
344
608
1001
ACAD_DSTYLE_DIMJAG
1070
   388
1040
1.5
1001
ACAD_DSTYLE_DIMTALN
1070
   392
1070
     0
  0
ENDTAB
  0
TABLE
  2
BLOCK_RECORD
  5
1
330
0
100
AcDbSymbolTable
 70
    95
  0
BLOCK_RECORD
  5
18
102
{ACAD_XDICTIONARY
360
143F
102
}
330
1
100
AcDbSymbolTableRecord
100
AcDbBlockTableRecord
  2
*MODEL_SPACE
340
619
  0
BLOCK_RECORD
  5
15
330
1
100
AcDbSymbolTableRecord
100
AcDbBlockTableRecord
  2
*PAPER_SPACE
340
61A
  0
BLOCK_RECORD
  5
608
330
1
100
AcDbSymbolTableRecord
100
AcDbBlockTableRecord
  2
_OPEN
340
0
102
{BLKREFS
331
1372F8
331
1372F9
331
137301
331
137302
331
13730C
331
13730D
331
137317
331
137318
331
137320
331
137321
331
137332
331
137333
331
13733B
331
13733C
331
137356
331
137357
331
137361
331
137362
331
1374BD
331
1374BE
331
1374C6
331
1374C7
331
1374EA
331
1374EB
331
14C1EE
331
14C1EF
331
150141
331
150142
331
15014A
331
15014B
331
150153
331
150154
331
15015C
331
15015D
331
150165
331
150166
331
150170
331
150171
331
150179
331
15017A
331
1501B3
331
1501B4
331
152B18
331
152B19
331
152B21
331
152B22
331
152B2A
331
152B2B
331
152B35
331
152B36
331
152B40
331
152B41
331
152B49
331
152B4A
331
152B52
331
152B53
331
152B5D
331
152B5E
331
152B66
331
152B67
331
152B6F
331
152B70
331
152B78
331
152B79
331
152B81
331
152B82
331
152B8A
331
152B8B
331
152BB7
331
152BB8
331
152BC2
331
152BC3
331
152BCD
331
152BCE
331
152BD6
331
152BD7
331
152BDF
331
152BE0
331
15406A
331
15406B
331
154073
331
154074
331
15407C
331
15407D
331
154085
331
154086
331
15408E
331
15408F
331
154099
331
15409A
331
1540A2
331
1540A3
331
1540AB
331
1540AC
331
1540B6
331
1540B7
331
1540C1
331
1540C2
331
1540CA
331
1540CB
331
1540D3
331
1540D4
331
1540DC
331
1540DD
331
1582C7
331
1582C8
331
1582D0
331
1582D1
331
1582D9
331
1582DA
331
1582E2
331
1582E3
331
1582EB
331
1582EC
331
1582F6
331
1582F7
331
1582FF
331
158300
331
158308
331
158309
331
158313
331
158314
331
15831E
331
15831F
331
158327
331
158328
331
158330
331
158331
331
158339
331
15833A
331
15DA9A
331
15DA9B
331
15DAA3
331
15DAA4
331
15DAAC
331
15DAAD
331
15DAB5
331
15DAB6
331
15DABE
331
15DABF
331
15DAC9
331
15DACA
331
15DAD2
331
15DAD3
331
15DADB
331
15DADC
331
15DAE6
331
15DAE7
331
15DAF1
331
15DAF2
331
15DAFA
331
15DAFB
331
15DB03
331
15DB04
331
15DB0C
331
15DB0D
102
}
  0
BLOCK_RECORD
  5
89D
330
1
100
AcDbSymbolTableRecord
100
AcDbBlockTableRecord
  2
SUN
340
0
  0
BLOCK_RECORD
  5
1F1F
330
1
100
AcDbSymbolTableRecord
100
AcDbBlockTableRecord
  2
_OPEN30
340
0
  0
ENDTAB
  0
ENDSEC
  0
SECTION
  2
BLOCKS
  0
BLOCK
  5
39
330
18
100
AcDbEntity
  8
0
100
AcDbBlockBegin
  2
*MODEL_SPACE
 70
     0
 10
0.0
 20
0.0
 30
0.0
  3
*MODEL_SPACE
  1
*MODEL_SPACE
  0
ENDBLK
  5
3A
330
18
100
AcDbEntity
  8
0
100
AcDbBlockEnd
  0
BLOCK
  5
37
330
15
100
AcDbEntity
 67
     1
  8
0
100
AcDbBlockBegin
  2
*PAPER_SPACE
 70
     0
 10
0.0
 20
0.0
 30
0.0
  3
*PAPER_SPACE
  1
*PAPER_SPACE
  0
ENDBLK
  5
38
330
15
100
AcDbEntity
 67
     1
  8
0
100
AcDbBlockEnd
  0
BLOCK
  5
609
330
608
100
AcDbEntity
  8
0
100
AcDbBlockBegin
  2
_OPEN
 70
     0
 10
0.0
 20
0.0
 30
0.0
  3
_OPEN
  1
_OPEN
  0
LINE
  5
60A
330
608
100
AcDbEntity
  8
0
  6
ByBlock
 62
     0
100
AcDbLine
 10
-1.0
 20
0.1666666666666667
 30
0.0
 11
0.0
 21
0.0
 31
0.0
  0
LINE
  5
60B
330
608
100
AcDbEntity
  8
0
  6
ByBlock
 62
     0
100
AcDbLine
 10
0.0
 20
0.0
 30
0.0
 11
-1.0
 21
-0.1666666666666667
 31
0.0
  0
LINE
  5
60C
330
608
100
AcDbEntity
  8
0
  6
ByBlock
 62
     0
100
AcDbLine
 10
0.0
 20
0.0
 30
0.0
 11
-1.0
 21
0.0
 31
0.0
  0
ENDBLK
  5
60D
330
608
100
AcDbEntity
  8
0
100
AcDbBlockEnd
  0
BLOCK
  5
89E
330
89D
100
AcDbEntity
  8
0
100
AcDbBlockBegin
  2
SUN
 70
     0
 10
0.0
 20
0.0
 30
0.0
  3
SUN
  1
SUN
  0
LINE
  5
89F
330
89D
100
AcDbEntity
  8
0
100
AcDbLine
 10
-0.0000000000000568
 20
0.0
 30
0.0
 11
-1.500000000000057
 21
0.0
 31
0.0
  0
LINE
  5
8A0
330
89D
100
AcDbEntity
  8
0
100
AcDbLine
 10
-0.0000000000000568
 20
0.0000000000000284
 30
0.0
 11
-1.500000000000057
 21
0.401923788646684
 31
0.0
  0
LINE
  5
8A1
330
89D
100
AcDbEntity
  8
0
100
AcDbLine
 10
-0.0000000000000568
 20
0.0000000000000284
 30
0.0
 11
-1.500000000000057
 21
-0.4019237886466556
 31
0.0
  0
ENDBLK
  5
8A2
330
89D
100
AcDbEntity
  8
0
100
AcDbBlockEnd
  0
BLOCK
  5
1F20
330
1F1F
100
AcDbEntity
  8
0
100
AcDbBlockBegin
  2
_OPEN30
 70
     0
 10
0.0
 20
0.0
 30
0.0
  3
_OPEN30
  1
_OPEN30
  0
LINE
  5
1F21
330
1F1F
100
AcDbEntity
  8
0
  6
ByBlock
 62
     0
100
AcDbLine
 10
-1.0
 20
0.26794919
 30
0.0
 11
0.0
 21
0.0
 31
0.0
  0
LINE
  5
1F22
330
1F1F
100
AcDbEntity
  8
0
  6
ByBlock
 62
     0
100
AcDbLine
 10
0.0
 20
0.0
 30
0.0
 11
-1.0
 21
-0.26794919
 31
0.0
  0
LINE
  5
1F23
330
1F1F
100
AcDbEntity
  8
0
  6
ByBlock
 62
     0
100
AcDbLine
 10
0.0
 20
0.0
 30
0.0
 11
-1.0
 21
0.0
 31
0.0
  0
ENDBLK
  5
1F24
330
1F1F
100
AcDbEntity
  8
0
100
AcDbBlockEnd
  0
ENDSEC
  0
SECTION
  2
ENTITIES
  0
MTEXT
  5
D0CC6
330
18
100
AcDbEntity
  8
寸法線
100
AcDbMText
 10
2610.774875364868
 20
-2740.315466585338
 30
0.0
 40
2.500000000000003
 41
0.0
 71
     9
 72
     1
  1
\A1;
 73
     1
 44
1.0
  0
MTEXT
  5
F6D77
330
18
100
AcDbEntity
  8
文字
100
AcDbMText
 10
5821.057140836062
 20
-2842.341718131323
 30
0.0
 40
2.5
 41
64.39156592258223
 71
     1
 72
     5
  1
   
 73
     1
 44
1.0
  0
MTEXT
  5
F6D78
330
18
100
AcDbEntity
  8
寸法線
100
AcDbMText
 10
6222.662262480188
 20
-2968.738290481128
 30
0.0
 40
3.000000000000001
 41
0.0
 71
     7
 72
     1
  1
\A1;
 73
     1
 44
1.0
  0
TEXT
  5
15C65C
330
18
100
AcDbEntity
  8
文字
100
AcDbText
 10
11070.28799899416
 20
-5081.625931452764
 30
0.0
 40
6.5
  1
SL-535/80DFC
100
AcDbText
  0
SPLINE
  5
15D7AA
330
18
100
AcDbEntity
  8
姿図
100
AcDbSpline
210
0.0
220
0.0
230
1.0
 70
     8
 71
     3
 72
     8
 73
     4
 74
     0
 42
0.000000001
 43
0.0000000001
 40
1.999751745249403
 40
1.999751745249403
 40
1.999751745249403
 40
1.999751745249403
 40
2.0
 40
2.0
 40
2.0
 40
2.0
 10
11129.34853318369
 20
-5039.557937818041
 30
0.0
 10
11129.34864823428
 20
-5039.558768427265
 30
0.0
 10
11129.34876307299
 20
-5039.559598953894
 30
0.0
 10
11129.25930215348
 20
-5039.455246926891
 30
0.0
  0
SPLINE
  5
15D7AB
330
18
100
AcDbEntity
  8
姿図
100
AcDbSpline
210
0.0
220
0.0
230
1.0
 70
     8
 71
     3
 72
     8
 73
     4
 74
     0
 42
0.000000001
 43
0.0000000001
 40
2.0
 40
2.0
 40
2.0
 40
2.0
 40
3.0
 40
3.0
 40
3.0
 40
3.0
 10
11129.25930215348
 20
-5039.455246926891
 30
0.0
 10
11129.44859696539
 20
-5040.285056061472
 30
0.0
 10
11130.57391376914
 20
-5043.285095059215
 30
0.0
 10
11130.57391376914
 20
-5043.285095059215
 30
0.0
  0
ELLIPSE
  5
15D7AC
330
18
100
AcDbEntity
  8
姿図
100
AcDbEllipse
 10
11128.4435476396
 20
-5040.880954218557
 30
0.0
 11
0.0
 21
-1.207867013888889
 31
0.0
210
0.0
220
0.0
230
1.0
 40
0.69625059326056
 41
0.0
 42
6.283185307179586
  0
SPLINE
  5
15D7AD
330
18
100
AcDbEntity
  8
姿図
100
AcDbSpline
210
0.0
220
0.0
230
1.0
 70
     8
 71
     3
 72
     8
 73
     4
 74
     0
 42
0.000000001
 43
0.0000000001
 40
0.0
 40
0.0
 40
0.0
 40
0.0
 40
1.0
 40
1.0
 40
1.0
 40
1.0
 10
11109.73786095557
 20
-5008.188646189043
 30
0.0
 10
11108.74468126807
 20
-5006.436006501543
 30
0.0
 10
11114.56303743994
 20
-5004.494920642167
 30
0.0
 10
11122.00659673682
 20
-5004.683366814042
 30
0.0
  0
SPLINE
  5
15D7AE
330
18
100
AcDbEntity
  8
姿図
100
AcDbSpline
210
0.0
220
0.0
230
1.0
 70
     8
 71
     3
 72
     8
 73
     4
 74
     0
 42
0.000000001
 43
0.0000000001
 40
1.0
 40
1.0
 40
1.0
 40
1.0
 40
2.0
 40
2.0
 40
2.0
 40
2.0
 10
11122.00659673682
 20
-5004.683366814042
 30
0.0
 10
11128.92944611182
 20
-5004.858656579669
 30
0.0
 10
11134.65480454932
 20
-5006.026997048417
 30
0.0
 10
11134.12906423682
 20
-5008.363935954668
 30
0.0
  0
SPLINE
  5
15D7AF
330
18
100
AcDbEntity
  8
姿図
100
AcDbSpline
210
0.0
220
0.0
230
1.0
 70
     8
 71
     3
 72
     8
 73
     4
 74
     0
 42
0.000000001
 43
0.0000000001
 40
0.0
 40
0.0
 40
0.0
 40
0.0
 40
1.0
 40
1.0
 40
1.0
 40
1.0
 10
11108.1001463462
 20
-5015.063900329668
 30
0.0
 10
11108.09150439307
 20
-5015.016692048417
 30
0.0
 10
11108.08737689307
 20
-5014.969225798418
 30
0.0
 10
11108.0877638462
 20
-5014.921630564042
 30
0.0
  0
SPLINE
  5
15D7B0
330
18
100
AcDbEntity
  8
姿図
100
AcDbSpline
210
0.0
220
0.0
230
1.0
 70
     8
 71
     3
 72
     8
 73
     4
 74
     0
 42
0.000000001
 43
0.0000000001
 40
1.0
 40
1.0
 40
1.0
 40
1.0
 40
2.0
 40
2.0
 40
2.0
 40
2.0
 10
11108.0877638462
 20
-5014.921630564042
 30
0.0
 10
11108.10388689307
 20
-5013.175698064043
 30
0.0
 10
11114.29539486182
 20
-5011.817105642169
 30
0.0
 10
11121.91579173682
 20
-5011.887273142169
 30
0.0
  0
SPLINE
  5
15D7B1
330
18
100
AcDbEntity
  8
姿図
100
AcDbSpline
210
0.0
220
0.0
230
1.0
 70
     8
 71
     3
 72
     8
 73
     4
 74
     0
 42
0.000000001
 43
0.0000000001
 40
2.0
 40
2.0
 40
2.0
 40
2.0
 40
3.0
 40
3.0
 40
3.0
 40
3.0
 10
11121.91579173682
 20
-5011.887273142169
 30
0.0
 10
11129.53722048682
 20
-5011.957053689043
 30
0.0
 10
11135.70267361182
 20
-5013.428765407793
 30
0.0
 10
11135.68719548682
 20
-5015.174439939043
 30
0.0
  0
SPLINE
  5
15D7B2
330
18
100
AcDbEntity
  8
姿図
100
AcDbSpline
210
0.0
220
0.0
230
1.0
 70
     8
 71
     3
 72
     8
 73
     4
 74
     0
 42
0.000000001
 43
0.0000000001
 40
3.0
 40
3.0
 40
3.0
 40
3.0
 40
4.0
 40
4.0
 40
4.0
 40
4.0
 10
11135.68719548682
 20
-5015.174439939043
 30
0.0
 10
11135.68667954932
 20
-5015.212103376543
 30
0.0
 10
11135.68358392432
 20
-5015.249637829668
 30
0.0
 10
11135.67739267432
 20
-5015.286914314042
 30
0.0
  0
SPLINE
  5
15D7B3
330
18
100
AcDbEntity
  8
姿図
100
AcDbSpline
210
0.0
220
0.0
230
1.0
 70
     8
 71
     3
 72
    17
 73
    13
 74
     0
 42
0.000000001
 43
0.0000000001
 40
0.0
 40
0.0
 40
0.0
 40
0.0
 40
1.0
 40
1.0
 40
1.0
 40
2.0
 40
2.0
 40
2.0
 40
3.0
 40
3.0
 40
3.0
 40
4.0
 40
4.0
 40
4.0
 40
4.0
 10
11117.18306838613
 20
-5013.632001788001
 30
0.0
 10
11117.18249512224
 20
-5013.575678610918
 30
0.0
 10
11117.18507480974
 20
-5013.51906880189
 30
0.0
 10
11117.18507480974
 20
-5013.466185208141
 30
0.0
 10
11117.18507480974
 20
-5013.213519149112
 30
0.0
 10
11117.54422463613
 20
-5013.008577308834
 30
0.0
 10
11117.98707099029
 20
-5013.008577308834
 30
0.0
 10
11118.42991734446
 20
-5013.008577308834
 30
0.0
 10
11118.7887805389
 20
-5013.213519149112
 30
0.0
 10
11118.7887805389
 20
-5013.466185208141
 30
0.0
 10
11118.7887805389
 20
-5013.527954392168
 30
0.0
 10
11118.78591421946
 20
-5013.595169583141
 30
0.0
 10
11118.77502220557
 20
-5013.66152487828
 30
0.0
  0
ELLIPSE
  5
15D7B4
330
18
100
AcDbEntity
  8
姿図
100
AcDbEllipse
 10
11117.98262819515
 20
-5013.631858472028
 30
0.0
 11
0.7975533854166668
 21
0.0
 31
0.0
210
0.0
220
0.0
230
1.0
 40
0.4208446026042643
 41
0.0
 42
6.283185307179586
  0
LINE
  5
15D7B5
330
18
100
AcDbEntity
  8
姿図
100
AcDbLine
 10
11113.3585383514
 20
-5013.366007343557
 30
0.0
 11
11117.84748123335
 21
-5014.403328350501
 31
0.0
  0
SPLINE
  5
15D7B6
330
18
100
AcDbEntity
  8
姿図
100
AcDbSpline
210
0.0
220
0.0
230
1.0
 70
     8
 71
     3
 72
    11
 73
     7
 74
     0
 42
0.000000001
 43
0.0000000001
 40
0.0
 40
0.0
 40
0.0
 40
0.0
 40
1.0
 40
1.0
 40
1.0
 40
2.0
 40
2.0
 40
2.0
 40
2.0
 10
11127.16287611182
 20
-5014.168003524113
 30
0.0
 10
11125.82659798682
 20
-5014.292258472029
 30
0.0
 10
11124.25184208404
 20
-5014.364059774112
 30
0.0
 10
11122.56587298682
 20
-5014.364059774112
 30
0.0
 10
11121.09430458404
 20
-5014.364059774112
 30
0.0
 10
11119.71116213613
 20
-5014.258579218556
 30
0.0
 10
11118.49125658057
 20
-5014.213004739389
 30
0.0
  0
SPLINE
  5
15D7B7
330
18
100
AcDbEntity
  8
姿図
100
AcDbSpline
210
0.0
220
0.0
230
1.0
 70
     8
 71
     3
 72
     8
 73
     4
 74
     0
 42
0.000000001
 43
0.0000000001
 40
2.0
 40
2.0
 40
2.0
 40
2.0
 40
3.0
 40
3.0
 40
3.0
 40
3.0
 10
11118.49125658057
 20
-5014.213004739389
 30
0.0
 10
11118.07449373335
 20
-5014.197383298419
 30
0.0
 10
11117.94321630279
 20
-5014.526723402585
 30
0.0
 10
11117.90939373335
 20
-5014.73797114564
 30
0.0
  0
LINE
  5
15D7B8
330
18
100
AcDbEntity
  8
姿図
100
AcDbLine
 10
11126.81605145904
 20
-5012.749462031057
 30
0.0
 11
11130.14671465349
 21
-5025.599458732446
 31
0.0
  0
LINE
  5
15D7B9
330
18
100
AcDbEntity
  8
姿図
100
AcDbLine
 10
11130.14671465349
 20
-5025.599458732446
 30
0.0
 11
11130.59042090349
 21
-5049.078054565778
 31
0.0
  0
LINE
  5
15D7BA
330
18
100
AcDbEntity
  8
姿図
100
AcDbLine
 10
11134.33727368126
 20
-5049.632974010225
 30
0.0
 11
11134.33727368126
 21
-5026.597367847029
 31
0.0
  0
LINE
  5
15D7BB
330
18
100
AcDbEntity
  8
姿図
100
AcDbLine
 10
11134.33727368126
 20
-5026.597367847029
 30
0.0
 11
11131.78395632015
 21
-5013.471057951196
 31
0.0
  0
LINE
  5
15D7BC
330
18
100
AcDbEntity
  8
姿図
100
AcDbLine
 10
11127.20472437571
 20
-5012.804495364391
 30
0.0
 11
11130.5072976396
 21
-5025.876631822724
 31
0.0
  0
LINE
  5
15D7BD
330
18
100
AcDbEntity
  8
姿図
100
AcDbLine
 10
11130.5072976396
 20
-5025.876631822724
 30
0.0
 11
11130.95157715349
 21
-5048.828111510224
 31
0.0
  0
LINE
  5
15D7BE
330
18
100
AcDbEntity
  8
姿図
100
AcDbLine
 10
11110.35132118565
 20
-5031.117319033567
 30
0.0
 11
11110.35965163265
 21
-5029.595681301891
 31
0.0
  0
LINE
  5
15D7BF
330
18
100
AcDbEntity
  8
姿図
100
AcDbLine
 10
11110.35965163265
 20
-5029.595681301891
 30
0.0
 11
11113.16276873335
 21
-5013.387361423418
 31
0.0
  0
LINE
  5
15D7C0
330
18
100
AcDbEntity
  8
姿図
100
AcDbLine
 10
11113.16276873335
 20
-5013.387361423418
 30
0.0
 11
11113.41256847293
 21
-5013.082098402585
 31
0.0
  0
SPLINE
  5
15D7C1
330
18
100
AcDbEntity
  8
姿図
100
AcDbSpline
210
0.0
220
0.0
230
1.0
 70
     8
 71
     3
 72
     8
 73
     4
 74
     0
 42
0.000000001
 43
0.0000000001
 40
0.0
 40
0.0
 40
0.0
 40
0.0
 40
1.0
 40
1.0
 40
1.0
 40
1.0
 10
11134.07850236182
 20
-5008.242303689043
 30
0.0
 10
11134.31222204932
 20
-5008.986930485918
 30
0.0
 10
11134.56451548682
 20
-5010.162623064043
 30
0.0
 10
11134.76057173682
 20
-5011.496192517168
 30
0.0
  0
SPLINE
  5
15D7C2
330
18
100
AcDbEntity
  8
姿図
100
AcDbSpline
210
0.0
220
0.0
230
1.0
 70
     8
 71
     3
 72
     8
 73
     4
 74
     0
 42
0.000000001
 43
0.0000000001
 40
1.0
 40
1.0
 40
1.0
 40
1.0
 40
2.0
 40
2.0
 40
2.0
 40
2.0
 10
11134.76057173682
 20
-5011.496192517168
 30
0.0
 10
11134.90090673682
 20
-5012.455578298418
 30
0.0
 10
11134.99016392432
 20
-5013.345183532792
 30
0.0
 10
11135.02524767432
 20
-5014.059499001542
 30
0.0
  0
SPLINE
  5
15D7C3
330
18
100
AcDbEntity
  8
姿図
100
AcDbSpline
210
0.0
220
0.0
230
1.0
 70
     8
 71
     3
 72
     8
 73
     4
 74
     0
 42
0.000000001
 43
0.0000000001
 40
0.0
 40
0.0
 40
0.0
 40
0.0
 40
1.0
 40
1.0
 40
1.0
 40
1.0
 10
11109.99595868995
 20
-5007.057066267167
 30
0.0
 10
11109.7717838462
 20
-5007.837937673418
 30
0.0
 10
11109.5231019712
 20
-5008.874972048417
 30
0.0
 10
11109.29415470557
 20
-5010.019837360918
 30
0.0
  0
SPLINE
  5
15D7C4
330
18
100
AcDbEntity
  8
姿図
100
AcDbSpline
210
0.0
220
0.0
230
1.0
 70
     8
 71
     3
 72
     8
 73
     4
 74
     0
 42
0.000000001
 43
0.0000000001
 40
1.0
 40
1.0
 40
1.0
 40
1.0
 40
2.0
 40
2.0
 40
2.0
 40
2.0
 10
11109.29415470557
 20
-5010.019837360918
 30
0.0
 10
11108.9555707212
 20
-5011.712628298417
 30
0.0
 10
11108.74751892432
 20
-5013.204332595293
 30
0.0
 10
11108.72223798682
 20
-5013.997328532792
 30
0.0
  0
SPLINE
  5
15D7C5
330
18
100
AcDbEntity
  8
姿図
100
AcDbSpline
210
0.0
220
0.0
230
1.0
 70
     8
 71
     3
 72
     8
 73
     4
 74
     0
 42
0.000000001
 43
0.0000000001
 40
0.0
 40
0.0
 40
0.0
 40
0.0
 40
1.0
 40
1.0
 40
1.0
 40
1.0
 10
11108.77331579932
 20
-5007.823104470292
 30
0.0
 10
11108.82568345557
 20
-5005.608442751542
 30
0.0
 10
11114.70866079932
 20
-5004.191936345293
 30
0.0
 10
11121.98802298682
 20
-5004.259008220293
 30
0.0
  0
SPLINE
  5
15D7C6
330
18
100
AcDbEntity
  8
姿図
100
AcDbSpline
210
0.0
220
0.0
230
1.0
 70
     8
 71
     3
 72
     8
 73
     4
 74
     0
 42
0.000000001
 43
0.0000000001
 40
1.0
 40
1.0
 40
1.0
 40
1.0
 40
2.0
 40
2.0
 40
2.0
 40
2.0
 10
11121.98802298682
 20
-5004.259008220293
 30
0.0
 10
11128.98619923682
 20
-5004.322984470293
 30
0.0
 10
11134.70794611182
 20
-5005.451210798418
 30
0.0
 10
11135.11295704932
 20
-5007.777830954667
 30
0.0
  0
SPLINE
  5
15D7C7
330
18
100
AcDbEntity
  8
姿図
100
AcDbSpline
210
0.0
220
0.0
230
1.0
 70
     8
 71
     3
 72
     8
 73
     4
 74
     0
 42
0.000000001
 43
0.0000000001
 40
0.0
 40
0.0
 40
0.0
 40
0.0
 40
1.0
 40
1.0
 40
1.0
 40
1.0
 10
11109.5963650962
 20
-5008.704454704668
 30
0.0
 10
11109.02973673682
 20
-5008.287061267167
 30
0.0
 10
11108.71424095557
 20
-5007.836002907793
 30
0.0
 10
11108.72533361182
 20
-5007.367660642168
 30
0.0
  0
SPLINE
  5
15D7C8
330
18
100
AcDbEntity
  8
姿図
100
AcDbSpline
210
0.0
220
0.0
230
1.0
 70
     8
 71
     3
 72
     8
 73
     4
 74
     0
 42
0.000000001
 43
0.0000000001
 40
1.0
 40
1.0
 40
1.0
 40
1.0
 40
2.0
 40
2.0
 40
2.0
 40
2.0
 10
11108.72533361182
 20
-5007.367660642168
 30
0.0
 10
11108.77770126807
 20
-5005.153127907793
 30
0.0
 10
11114.66067861182
 20
-5003.736492517169
 30
0.0
 10
11121.94004079932
 20
-5003.803564392168
 30
0.0
  0
SPLINE
  5
15D7C9
330
18
100
AcDbEntity
  8
姿図
100
AcDbSpline
210
0.0
220
0.0
230
1.0
 70
     8
 71
     3
 72
     8
 73
     4
 74
     0
 42
0.000000001
 43
0.0000000001
 40
2.0
 40
2.0
 40
2.0
 40
2.0
 40
3.0
 40
3.0
 40
3.0
 40
3.0
 10
11121.94004079932
 20
-5003.803564392168
 30
0.0
 10
11129.21991892432
 20
-5003.870249314043
 30
0.0
 10
11135.11863236182
 20
-5005.088377751542
 30
0.0
 10
11135.08767611182
 20
-5007.609119392168
 30
0.0
  0
SPLINE
  5
15D7CA
330
18
100
AcDbEntity
  8
姿図
100
AcDbSpline
210
0.0
220
0.0
230
1.0
 70
     8
 71
     3
 72
     8
 73
     4
 74
     0
 42
0.000000001
 43
0.0000000001
 40
3.0
 40
3.0
 40
3.0
 40
3.0
 40
4.0
 40
4.0
 40
4.0
 40
4.0
 10
11135.08767611182
 20
-5007.609119392168
 30
0.0
 10
11135.08200079932
 20
-5008.065724079667
 30
0.0
 10
11134.78224111182
 20
-5008.500272439042
 30
0.0
 10
11134.23534736182
 20
-5008.898834157791
 30
0.0
  0
ELLIPSE
  5
15D7CB
330
18
100
AcDbEntity
  8
姿図
100
AcDbEllipse
 10
11124.03944781321
 20
-5013.404702656057
 30
0.0
 11
0.7019616319444445
 21
0.0
 31
0.0
210
0.0
220
0.0
230
1.0
 40
0.2564315215099384
 41
0.0
 42
6.283185307179586
  0
SPLINE
  5
15D7CC
330
18
100
AcDbEntity
  8
姿図
100
AcDbSpline
210
0.0
220
0.0
230
1.0
 70
     8
 71
     3
 72
     8
 73
     4
 74
     0
 42
0.000000001
 43
0.0000000001
 40
0.1150246568719902
 40
0.1150246568719902
 40
0.1150246568719902
 40
0.1150246568719902
 40
1.0
 40
1.0
 40
1.0
 40
1.0
 10
11112.2173377904
 20
-5017.178396831414
 30
0.0
 10
11110.22209187543
 20
-5016.651714701361
 30
0.0
 10
11109.01447420019
 20
-5015.972555517837
 30
0.0
 10
11109.02109478369
 20
-5015.240866892167
 30
0.0
  0
SPLINE
  5
15D7CD
330
18
100
AcDbEntity
  8
姿図
100
AcDbSpline
210
0.0
220
0.0
230
1.0
 70
     8
 71
     3
 72
     8
 73
     4
 74
     0
 42
0.000000001
 43
0.0000000001
 40
1.0
 40
1.0
 40
1.0
 40
1.0
 40
2.0
 40
2.0
 40
2.0
 40
2.0
 10
11109.02109478369
 20
-5015.240866892167
 30
0.0
 10
11109.03579900245
 20
-5013.648167829669
 30
0.0
 10
11114.79611220557
 20
-5012.409788845293
 30
0.0
 10
11121.88638329932
 20
-5012.475054939044
 30
0.0
  0
SPLINE
  5
15D7CE
330
18
100
AcDbEntity
  8
姿図
100
AcDbSpline
210
0.0
220
0.0
230
1.0
 70
     8
 71
     3
 72
     8
 73
     4
 74
     0
 42
0.000000001
 43
0.0000000001
 40
2.0
 40
2.0
 40
2.0
 40
2.0
 40
3.0
 40
3.0
 40
3.0
 40
3.0
 10
11121.88638329932
 20
-5012.475054939044
 30
0.0
 10
11128.97691236182
 20
-5012.539805095294
 30
0.0
 10
11134.71362142432
 20
-5013.883435329669
 30
0.0
 10
11134.69917517432
 20
-5015.476005407792
 30
0.0
  0
SPLINE
  5
15D7CF
330
18
100
AcDbEntity
  8
姿図
100
AcDbSpline
210
0.0
220
0.0
230
1.0
 70
     8
 71
     3
 72
     8
 73
     4
 74
     0
 42
0.000000001
 43
0.0000000001
 40
3.0
 40
3.0
 40
3.0
 40
3.0
 40
3.83422194712028
 40
3.83422194712028
 40
3.83422194712028
 40
3.83422194712028
 10
11134.69917517432
 20
-5015.476005407792
 30
0.0
 10
11134.69357989131
 20
-5016.074162682517
 30
0.0
 10
11133.87723965285
 20
-5016.62241138824
 30
0.0
 10
11132.48408825205
 20
-5017.070355416525
 30
0.0
  0
SPLINE
  5
15D7D0
330
18
100
AcDbEntity
  8
姿図
100
AcDbSpline
210
0.0
220
0.0
230
1.0
 70
     8
 71
     3
 72
     8
 73
     4
 74
     0
 42
0.000000001
 43
0.0000000001
 40
0.0
 40
0.0
 40
0.0
 40
0.0
 40
1.0
 40
1.0
 40
1.0
 40
1.0
 10
11127.69222798682
 20
-5017.978689235918
 30
0.0
 10
11125.93442892432
 20
-5018.165071657792
 30
0.0
 10
11123.94291017432
 20
-5018.261165017168
 30
0.0
 10
11121.83324173682
 20
-5018.241946345292
 30
0.0
  0
SPLINE
  5
15D7D1
330
18
100
AcDbEntity
  8
姿図
100
AcDbSpline
210
0.0
220
0.0
230
1.0
 70
     8
 71
     3
 72
     8
 73
     4
 74
     0
 42
0.000000001
 43
0.0000000001
 40
1.0
 40
1.0
 40
1.0
 40
1.0
 40
2.0
 40
2.0
 40
2.0
 40
2.0
 10
11121.83324173682
 20
-5018.241946345292
 30
0.0
 10
11120.2871060337
 20
-5018.227758064043
 30
0.0
 10
11118.8053335337
 20
-5018.152689157791
 30
0.0
 10
11117.4334557212
 20
-5018.027574314043
 30
0.0
  0
SPLINE
  5
15D7D2
330
18
100
AcDbEntity
  8
姿図
100
AcDbSpline
210
0.0
220
0.0
230
1.0
 70
     8
 71
     3
 72
     8
 73
     4
 74
     0
 42
0.000000001
 43
0.0000000001
 40
0.0977406528030188
 40
0.0977406528030188
 40
0.0977406528030188
 40
0.0977406528030188
 40
1.0
 40
1.0
 40
1.0
 40
1.0
 10
11112.16625928898
 20
-5017.468991432013
 30
0.0
 10
11109.6405800626
 20
-5016.872678681111
 30
0.0
 10
11108.07934685537
 20
-5016.062366174025
 30
0.0
 10
11108.08737689307
 20
-5015.182436970293
 30
0.0
  0
SPLINE
  5
15D7D3
330
18
100
AcDbEntity
  8
姿図
100
AcDbSpline
210
0.0
220
0.0
230
1.0
 70
     8
 71
     3
 72
     8
 73
     4
 74
     0
 42
0.000000001
 43
0.0000000001
 40
1.0
 40
1.0
 40
1.0
 40
1.0
 40
2.0
 40
2.0
 40
2.0
 40
2.0
 10
11108.08737689307
 20
-5015.182436970293
 30
0.0
 10
11108.10349993995
 20
-5013.436504470293
 30
0.0
 10
11114.2888166587
 20
-5012.077912048418
 30
0.0
 10
11121.90186142432
 20
-5012.147950564043
 30
0.0
  0
SPLINE
  5
15D7D4
330
18
100
AcDbEntity
  8
姿図
100
AcDbSpline
210
0.0
220
0.0
230
1.0
 70
     8
 71
     3
 72
     8
 73
     4
 74
     0
 42
0.000000001
 43
0.0000000001
 40
2.0
 40
2.0
 40
2.0
 40
2.0
 40
3.0
 40
3.0
 40
3.0
 40
3.0
 10
11121.90186142432
 20
-5012.147950564043
 30
0.0
 10
11129.51555111182
 20
-5012.217731110918
 30
0.0
 10
11135.67481298682
 20
-5013.689313845292
 30
0.0
 10
11135.65933486182
 20
-5015.434988376543
 30
0.0
  0
SPLINE
  5
15D7D5
330
18
100
AcDbEntity
  8
姿図
100
AcDbSpline
210
0.0
220
0.0
230
1.0
 70
     8
 71
     3
 72
     8
 73
     4
 74
     0
 42
0.000000001
 43
0.0000000001
 40
3.0
 40
3.0
 40
3.0
 40
3.0
 40
3.872725372772374
 40
3.872725372772374
 40
3.872725372772374
 40
3.872725372772374
 10
11135.65933486182
 20
-5015.434988376543
 30
0.0
 10
11135.65213051387
 20
-5016.191444911527
 30
0.0
 10
11134.4864695372
 20
-5016.875203184534
 30
0.0
 10
11132.54851282709
 20
-5017.401554722085
 30
0.0
  0
SPLINE
  5
15D7D6
330
18
100
AcDbEntity
  8
姿図
100
AcDbSpline
210
0.0
220
0.0
230
1.0
 70
     8
 71
     3
 72
     8
 73
     4
 74
     0
 42
0.000000001
 43
0.0000000001
 40
0.0
 40
0.0
 40
0.0
 40
0.0
 40
1.0
 40
1.0
 40
1.0
 40
1.0
 10
11127.75620423682
 20
-5018.219374079668
 30
0.0
 10
11125.96332142432
 20
-5018.398146423418
 30
0.0
 10
11123.95890423682
 20
-5018.488951423418
 30
0.0
 10
11121.84407642432
 20
-5018.469603767167
 30
0.0
  0
SPLINE
  5
15D7D7
330
18
100
AcDbEntity
  8
姿図
100
AcDbSpline
210
0.0
220
0.0
230
1.0
 70
     8
 71
     3
 72
     8
 73
     4
 74
     0
 42
0.000000001
 43
0.0000000001
 40
1.0
 40
1.0
 40
1.0
 40
1.0
 40
2.0
 40
2.0
 40
2.0
 40
2.0
 10
11121.84407642432
 20
-5018.469603767167
 30
0.0
 10
11120.2736916587
 20
-5018.455157517167
 30
0.0
 10
11118.76534837744
 20
-5018.381120485918
 30
0.0
 10
11117.3601925962
 20
-5018.257295485918
 30
0.0
  0
SPLINE
  5
15D7D8
330
18
100
AcDbEntity
  8
姿図
100
AcDbSpline
210
0.0
220
0.0
230
1.0
 70
     8
 71
     3
 72
     8
 73
     4
 74
     0
 42
0.000000001
 43
0.0000000001
 40
0.0
 40
0.0
 40
0.0
 40
0.0
 40
1.0
 40
1.0
 40
1.0
 40
1.0
 10
11131.80000770904
 20
-5051.466271926891
 30
0.0
 10
11131.44286430626
 20
-5051.466271926891
 30
0.0
 10
11130.67813027849
 20
-5051.855518107446
 30
0.0
 10
11129.5424945146
 20
-5047.858149010224
 30
0.0
  0
SPLINE
  5
15D7D9
330
18
100
AcDbEntity
  8
姿図
100
AcDbSpline
210
0.0
220
0.0
230
1.0
 70
     8
 71
     3
 72
     8
 73
     4
 74
     0
 42
0.000000001
 43
0.0000000001
 40
1.0
 40
1.0
 40
1.0
 40
1.0
 40
2.0
 40
2.0
 40
2.0
 40
2.0
 10
11129.5424945146
 20
-5047.858149010224
 30
0.0
 10
11129.33267993126
 20
-5047.119211857445
 30
0.0
 10
11127.18408687571
 20
-5045.255530954668
 30
0.0
 10
11127.09809729238
 20
-5045.054315329668
 30
0.0
  0
SPLINE
  5
15D7DA
330
18
100
AcDbEntity
  8
姿図
100
AcDbSpline
210
0.0
220
0.0
230
1.0
 70
     8
 71
     3
 72
     8
 73
     4
 74
     0
 42
0.000000001
 43
0.0000000001
 40
2.0
 40
2.0
 40
2.0
 40
2.0
 40
3.0
 40
3.0
 40
3.0
 40
3.0
 10
11127.09809729238
 20
-5045.054315329668
 30
0.0
 10
11126.18202159793
 20
-5042.917760815779
 30
0.0
 10
11125.77557750071
 20
-5041.467976440779
 30
0.0
 10
11125.81857229238
 20
-5040.223420538001
 30
0.0
  0
SPLINE
  5
15D7DB
330
18
100
AcDbEntity
  8
姿図
100
AcDbSpline
210
0.0
220
0.0
230
1.0
 70
     8
 71
     3
 72
    11
 73
     7
 74
     0
 42
0.000000001
 43
0.0000000001
 40
3.0
 40
3.0
 40
3.0
 40
3.0
 40
4.0
 40
4.0
 40
4.0
 40
5.0
 40
5.0
 40
5.0
 40
5.0
 10
11125.81857229238
 20
-5040.223420538001
 30
0.0
 10
11125.85182159793
 20
-5039.251164982446
 30
0.0
 10
11126.49617020904
 20
-5038.395855260223
 30
0.0
 10
11127.3858757646
 20
-5038.395855260223
 30
0.0
 10
11127.42371118127
 20
-5038.395855260223
 30
0.0
 10
11127.46154659793
 20
-5038.397575051889
 30
0.0
 10
11127.4993820146
 20
-5038.400441371336
 30
0.0
  0
SPLINE
  5
15D7DC
330
18
100
AcDbEntity
  8
姿図
100
AcDbSpline
210
0.0
220
0.0
230
1.0
 70
     8
 71
     3
 72
     8
 73
     4
 74
     0
 42
0.000000001
 43
0.0000000001
 40
0.0
 40
0.0
 40
0.0
 40
0.0
 40
1.0
 40
1.0
 40
1.0
 40
1.0
 10
11132.1892538896
 20
-5051.449647274112
 30
0.0
 10
11131.83211048682
 20
-5051.449647274112
 30
0.0
 10
11131.06737645904
 20
-5051.838893454669
 30
0.0
 10
11129.93174069515
 20
-5047.841524357445
 30
0.0
  0
SPLINE
  5
15D7DD
330
18
100
AcDbEntity
  8
姿図
100
AcDbSpline
210
0.0
220
0.0
230
1.0
 70
     8
 71
     3
 72
     8
 73
     4
 74
     0
 42
0.000000001
 43
0.0000000001
 40
1.0
 40
1.0
 40
1.0
 40
1.0
 40
2.0
 40
2.0
 40
2.0
 40
2.0
 10
11129.93174069515
 20
-5047.841524357445
 30
0.0
 10
11129.72192611182
 20
-5047.102587204668
 30
0.0
 10
11127.57333305627
 20
-5045.238906301891
 30
0.0
 10
11127.48734347293
 20
-5045.037690676891
 30
0.0
  0
SPLINE
  5
15D7DE
330
18
100
AcDbEntity
  8
姿図
100
AcDbSpline
210
0.0
220
0.0
230
1.0
 70
     8
 71
     3
 72
     8
 73
     4
 74
     0
 42
0.000000001
 43
0.0000000001
 40
2.0
 40
2.0
 40
2.0
 40
2.0
 40
3.0
 40
3.0
 40
3.0
 40
3.0
 10
11127.48734347293
 20
-5045.037690676891
 30
0.0
 10
11126.57126777849
 20
-5042.901136163002
 30
0.0
 10
11126.16482368127
 20
-5041.451351788
 30
0.0
 10
11126.20781847293
 20
-5040.206795885224
 30
0.0
  0
SPLINE
  5
15D7DF
330
18
100
AcDbEntity
  8
姿図
100
AcDbSpline
210
0.0
220
0.0
230
1.0
 70
     8
 71
     3
 72
    11
 73
     7
 74
     0
 42
0.000000001
 43
0.0000000001
 40
3.0
 40
3.0
 40
3.0
 40
3.0
 40
4.0
 40
4.0
 40
4.0
 40
5.0
 40
5.0
 40
5.0
 40
5.0
 10
11126.20781847293
 20
-5040.206795885224
 30
0.0
 10
11126.24106777849
 20
-5039.234540329668
 30
0.0
 10
11126.8854163896
 20
-5038.379230607447
 30
0.0
 10
11127.77512194515
 20
-5038.379230607447
 30
0.0
 10
11128.44240111182
 20
-5038.379230607447
 30
0.0
 10
11129.01451847293
 20
-5038.822936857447
 30
0.0
 10
11129.25930215348
 20
-5039.455246926891
 30
0.0
  0
ELLIPSE
  5
15D7E0
330
18
100
AcDbEntity
  8
姿図
100
AcDbEllipse
 10
11132.80264625071
 20
-5048.970280954669
 30
0.0
 11
0.0
 21
-1.380419444444444
 31
0.0
210
0.0
220
0.0
230
1.0
 40
0.7221760797342193
 41
0.0
 42
6.283185307179586
  0
ELLIPSE
  5
15D7E1
330
18
100
AcDbEntity
  8
姿図
100
AcDbEllipse
 10
11132.91701239654
 20
-5048.859067760224
 30
0.0
 11
-0.0002866319444444444
 21
-1.148820833333333
 31
0.0
210
0.0
220
0.0
230
1.0
 40
0.7238023726809617
 41
0.0
 42
6.283185307179586
  0
SPLINE
  5
15D7E2
330
18
100
AcDbEntity
  8
姿図
100
AcDbSpline
210
0.0
220
0.0
230
1.0
 70
     8
 71
     3
 72
     8
 73
     4
 74
     0
 42
0.000000001
 43
0.0000000001
 40
0.0
 40
0.0
 40
0.0
 40
0.0
 40
1.0
 40
1.0
 40
1.0
 40
1.0
 10
11132.51200145904
 20
-5051.47200456578
 30
0.0
 10
11131.05763097293
 20
-5051.415824704667
 30
0.0
 10
11130.62137715349
 20
-5049.909287204668
 30
0.0
 10
11130.60819208404
 20
-5048.980599704668
 30
0.0
  0
SPLINE
  5
15D7E3
330
18
100
AcDbEntity
  8
姿図
100
AcDbSpline
210
0.0
220
0.0
230
1.0
 70
     8
 71
     3
 72
    11
 73
     7
 74
     0
 42
0.000000001
 43
0.0000000001
 40
0.0
 40
0.0
 40
0.0
 40
0.0
 40
1.0
 40
1.0
 40
1.0
 40
2.0
 40
2.0
 40
2.0
 40
2.0
 10
11134.33899347293
 20
-5049.579660468557
 30
0.0
 10
11134.33899347293
 20
-5050.614401788001
 30
0.0
 10
11133.57941882015
 20
-5051.453086857446
 30
0.0
 10
11132.64213236182
 20
-5051.453086857446
 30
0.0
 10
11131.70541916738
 20
-5051.453086857446
 30
0.0
 10
11130.96418895904
 20
-5049.756799010223
 30
0.0
 10
11130.95157715349
 20
-5048.828111510224
 30
0.0
  0
LINE
  5
15D7E4
330
18
100
AcDbEntity
  8
姿図
100
AcDbLine
 10
11110.35965163265
 20
-5029.595681301891
 30
0.0
 11
11114.21743097293
 21
-5030.122940763697
 31
0.0
  0
ELLIPSE
  5
15D7E5
330
18
100
AcDbEntity
  8
姿図
100
AcDbEllipse
 10
11132.66162333404
 20
-5028.991532820988
 30
0.0
 11
0.1324239583333333
 21
-0.8079437934027779
 31
0.0
210
0.0
220
0.0
230
1.0
 40
0.6662211580819815
 41
0.0
 42
6.283185307179586
  0
SPLINE
  5
15D7E6
330
18
100
AcDbEntity
  8
姿図
100
AcDbSpline
210
0.0
220
0.0
230
1.0
 70
     8
 71
     3
 72
     8
 73
     4
 74
     0
 42
0.000000001
 43
0.0000000001
 40
0.0
 40
0.0
 40
0.0
 40
0.0
 40
1.0
 40
1.0
 40
1.0
 40
1.0
 10
11132.27753652849
 20
-5028.374485902585
 30
0.0
 10
11132.44607611182
 20
-5028.495731215085
 30
0.0
 10
11132.5813663896
 20
-5028.727329826195
 30
0.0
 10
11132.62722750071
 20
-5029.007942499808
 30
0.0
  0
SPLINE
  5
15D7E7
330
18
100
AcDbEntity
  8
姿図
100
AcDbSpline
210
0.0
220
0.0
230
1.0
 70
     8
 71
     3
 72
     8
 73
     4
 74
     0
 42
0.000000001
 43
0.0000000001
 40
1.0
 40
1.0
 40
1.0
 40
1.0
 40
2.0
 40
2.0
 40
2.0
 40
2.0
 10
11132.62722750071
 20
-5029.007942499808
 30
0.0
 10
11132.67480840349
 20
-5029.296294235917
 30
0.0
 10
11132.61518895904
 20
-5029.565871579667
 30
0.0
 10
11132.48735111182
 20
-5029.733551267169
 30
0.0
  0
LINE
  5
15D7E8
330
18
100
AcDbEntity
  8
姿図
100
AcDbLine
 10
11110.03689687099
 20
-5031.160056847229
 30
0.0
 11
11110.05424529585
 21
-5029.484611423417
 31
0.0
  0
LINE
  5
15D7E9
330
18
100
AcDbEntity
  8
姿図
100
AcDbLine
 10
11110.05424529585
 20
-5029.484611423417
 30
0.0
 11
11112.91296899377
 21
-5013.220828263697
 31
0.0
  0
LINE
  5
15D7EA
330
18
100
AcDbEntity
  8
姿図
100
AcDbLine
 10
11114.21004155043
 20
-5030.484355894812
 30
0.0
 11
11114.21743097293
 21
-5030.122940763697
 31
0.0
  0
LINE
  5
15D7EB
330
18
100
AcDbEntity
  8
姿図
100
AcDbLine
 10
11114.21743097293
 20
-5030.122940763697
 30
0.0
 11
11117.90882046946
 21
-5014.691823402585
 31
0.0
  0
SPLINE
  5
15D7EC
330
18
100
AcDbEntity
  8
姿図
100
AcDbSpline
210
0.0
220
0.0
230
1.0
 70
     8
 71
     3
 72
     8
 73
     4
 74
     0
 42
0.000000001
 43
0.0000000001
 40
0.0
 40
0.0
 40
0.0
 40
0.0
 40
0.4363443899105438
 40
0.4363443899105438
 40
0.4363443899105438
 40
0.4363443899105438
 10
11125.35458611432
 20
-5047.439578760765
 30
0.0
 10
11125.55765908295
 20
-5047.143596177919
 30
0.0
 10
11126.33894582607
 20
-5046.107652258685
 30
0.0
 10
11127.15518130277
 20
-5045.033856984943
 30
0.0
  0
LINE
  5
15D7ED
330
18
100
AcDbEntity
  8
姿図
100
AcDbLine
 10
11123.27083409428
 20
-5039.359693633107
 30
0.0
 11
11125.83839158588
 21
-5038.376841417608
 31
0.0
  0
LINE
  5
15D7EE
330
18
100
AcDbEntity
  8
姿図
100
AcDbLine
 10
11123.15990672599
 20
-5040.202465673809
 30
0.0000000000000022
 11
11125.62033683465
 21
-5038.823527666795
 31
0.0000000000000005
  0
SPLINE
  5
15D7EF
330
18
100
AcDbEntity
  8
姿図
100
AcDbSpline
210
0.0
220
0.0
230
1.0
 70
     8
 71
     3
 72
     8
 73
     4
 74
     0
 42
0.000000001
 43
0.0000000001
 40
1.493921098087365
 40
1.493921098087365
 40
1.493921098087365
 40
1.493921098087365
 40
1.793215549939622
 40
1.793215549939622
 40
1.793215549939622
 40
1.793215549939622
 10
11121.83656329762
 20
-5027.968086817777
 30
0.0
 10
11122.94059336594
 20
-5027.144219432439
 30
0.0
 10
11124.05265923009
 20
-5026.314355444031
 30
0.0
 10
11126.22626400636
 20
-5024.890611433939
 30
0.0
  0
SPLINE
  5
15D7F0
330
18
100
AcDbEntity
  8
姿図
100
AcDbSpline
210
0.0
220
0.0
230
1.0
 70
     8
 71
     3
 72
     8
 73
     4
 74
     0
 42
0.000000001
 43
0.0000000001
 40
0.0
 40
0.0
 40
0.0
 40
0.0
 40
1.0
 40
1.0
 40
1.0
 40
1.0
 10
11134.958642625
 20
-5037.254760418282
 30
0.0
 10
11134.958642625
 20
-5037.254760418282
 30
0.0
 10
11135.21273450101
 20
-5037.595323351572
 30
0.0
 10
11135.07172016144
 20
-5037.765604818216
 30
0.0
  0
SPLINE
  5
15D7F1
330
18
100
AcDbEntity
  8
姿図
100
AcDbSpline
210
0.0
220
0.0
230
1.0
 70
    24
 71
     3
 72
     8
 73
     4
 74
     0
 42
0.000000001
 43
0.0000000001
 40
1.0
 40
1.0
 40
1.0
 40
1.0
 40
1.177684590189413
 40
1.177684590189413
 40
1.177684590189413
 40
1.177684590189413
 10
11135.07172016144
 20
-5037.765604818216
 30
0.0
 10
11135.07172016144
 20
-5037.765604818216
 30
0.0
 10
11134.87461068852
 20
-5037.92239358072
 30
0.0
 10
11134.55043837451
 20
-5038.180253211705
 30
0.0
  0
SPLINE
  5
15D7F2
330
18
100
AcDbEntity
  8
姿図
100
AcDbSpline
210
0.0
220
0.0
230
1.0
 70
    24
 71
     3
 72
     8
 73
     4
 74
     0
 42
0.000000001
 43
0.0000000001
 40
1.669876008019937
 40
1.669876008019937
 40
1.669876008019937
 40
1.669876008019937
 40
1.712102441484551
 40
1.712102441484551
 40
1.712102441484551
 40
1.712102441484551
 10
11130.42046917235
 20
-5041.465395984269
 30
0.0
 10
11130.30387042746
 20
-5041.558143291897
 30
0.0
 10
11130.19105383311
 20
-5041.647882125626
 30
0.0
 10
11130.08295952636
 20
-5041.733864662827
 30
0.0
  0
SPLINE
  5
15D7F3
330
18
100
AcDbEntity
  8
姿図
100
AcDbSpline
210
0.0
220
0.0
230
1.0
 70
     8
 71
     3
 72
    11
 73
     7
 74
     0
 42
0.000000001
 43
0.0000000001
 40
0.0
 40
0.0
 40
0.0
 40
0.0
 40
1.0
 40
1.0
 40
1.0
 40
1.248567504290957
 40
1.248567504290957
 40
1.248567504290957
 40
1.248567504290957
 10
11135.7821131551
 20
-5035.722227218479
 30
0.0
 10
11135.7821131551
 20
-5035.722227218479
 30
0.0
 10
11136.06547215819
 20
-5035.921775812204
 30
0.0
 10
11135.63976849158
 20
-5036.290275548615
 30
0.0
 10
11135.5339523936
 20
-5036.381872608426
 30
0.0
 10
11135.12302795232
 20
-5036.71726044039
 30
0.0
 10
11134.5504383745
 20
-5037.181364477685
 30
0.0
  0
SPLINE
  5
15D7F4
330
18
100
AcDbEntity
  8
姿図
100
AcDbSpline
210
0.0
220
0.0
230
1.0
 70
     8
 71
     3
 72
     8
 73
     4
 74
     0
 42
0.000000001
 43
0.0000000001
 40
1.735482608924301
 40
1.735482608924301
 40
1.735482608924301
 40
1.735482608924301
 40
1.814174646936442
 40
1.814174646936442
 40
1.814174646936442
 40
1.814174646936442
 10
11130.40270679263
 20
-5040.5255044806
 30
0.0
 10
11130.19517711504
 20
-5040.692285324661
 30
0.0
 10
11129.99960655562
 20
-5040.849374320494
 30
0.0
 10
11129.82054645468
 20
-5040.99312024246
 30
0.0
  0
SPLINE
  5
15D7F5
330
18
100
AcDbEntity
  8
姿図
100
AcDbSpline
210
0.0
220
0.0
230
1.0
 70
    24
 71
     3
 72
     8
 73
     4
 74
     0
 42
0.000000001
 43
0.0000000001
 40
0.0
 40
0.0
 40
0.0
 40
0.0
 40
1.0
 40
1.0
 40
1.0
 40
1.0
 10
11134.67528362191
 20
-5035.01316454878
 30
0.0
 10
11134.67528362191
 20
-5035.01316454878
 30
0.0
 10
11135.95239462175
 20
-5035.807367951802
 30
0.0
 10
11135.95239462175
 20
-5035.807367951802
 30
0.0
  0
SPLINE
  5
15D7F6
330
18
100
AcDbEntity
  8
姿図
100
AcDbSpline
210
0.0
220
0.0
230
1.0
 70
     8
 71
     3
 72
     8
 73
     4
 74
     0
 42
0.000000001
 43
0.0000000001
 40
1.0
 40
1.0
 40
1.0
 40
1.0
 40
2.0
 40
2.0
 40
2.0
 40
2.0
 10
11135.95239462175
 20
-5035.807367951802
 30
0.0
 10
11135.95239462175
 20
-5035.807367951802
 30
0.0
 10
11136.26369042796
 20
-5036.034853348649
 30
0.0
 10
11136.00826822799
 20
-5036.290275548615
 30
0.0
  0
SPLINE
  5
15D7F7
330
18
100
AcDbEntity
  8
姿図
100
AcDbSpline
210
0.0
220
0.0
230
1.0
 70
     8
 71
     3
 72
     8
 73
     4
 74
     0
 42
0.000000001
 43
0.0000000001
 40
2.0
 40
2.0
 40
2.0
 40
2.0
 40
2.297610604463431
 40
2.297610604463431
 40
2.297610604463431
 40
2.297610604463431
 10
11136.00826822799
 20
-5036.290275548615
 30
0.0
 10
11136.00826822799
 20
-5036.290275548615
 30
0.0
 10
11135.4075142711
 20
-5036.808018588055
 30
0.0
 10
11134.55043837451
 20
-5037.546719034786
 30
0.0
  0
SPLINE
  5
15D7F8
330
18
100
AcDbEntity
  8
姿図
100
AcDbSpline
210
0.0
220
0.0
230
1.0
 70
     8
 71
     3
 72
     8
 73
     4
 74
     0
 42
0.000000001
 43
0.0000000001
 40
2.711500832329627
 40
2.711500832329627
 40
2.711500832329627
 40
2.711500832329627
 40
2.760018265937639
 40
2.760018265937639
 40
2.760018265937639
 40
2.760018265937639
 10
11130.41379896491
 20
-5041.112443767052
 30
0.0
 10
11130.26644922517
 20
-5041.239482873152
 30
0.0
 10
11130.12501764311
 20
-5041.361424978972
 30
0.0
 10
11129.99099650371
 20
-5041.47698423209
 30
0.0
  0
SPLINE
  5
15D7F9
330
18
100
AcDbEntity
  8
姿図
100
AcDbSpline
210
0.0
220
0.0
230
1.0
 70
     8
 71
     3
 72
    11
 73
     7
 74
     0
 42
0.000000001
 43
0.0000000001
 40
0.0
 40
0.0
 40
0.0
 40
0.0
 40
1.0
 40
1.0
 40
1.0
 40
1.204093129813427
 40
1.204093129813427
 40
1.204093129813427
 40
1.204093129813427
 10
11135.89519069155
 20
-5033.480631348977
 30
0.0
 10
11135.89519069155
 20
-5033.480631348977
 30
0.0
 10
11136.26369042796
 20
-5033.451364221897
 30
0.0
 10
11135.49742382806
 20
-5034.019412552032
 30
0.0
 10
11135.34103407941
 20
-5034.135347313615
 30
0.0
 10
11135.00025650297
 20
-5034.397850310968
 30
0.0
 10
11134.55043837451
 20
-5034.746909631184
 30
0.0
  0
SPLINE
  5
15D7FA
330
18
100
AcDbEntity
  8
姿図
100
AcDbSpline
210
0.0
220
0.0
230
1.0
 70
     8
 71
     3
 72
     8
 73
     4
 74
     0
 42
0.000000001
 43
0.0000000001
 40
1.70842428722707
 40
1.70842428722707
 40
1.70842428722707
 40
1.70842428722707
 40
1.887883960454416
 40
1.887883960454416
 40
1.887883960454416
 40
1.887883960454416
 10
11130.35525592772
 20
-5038.014654837964
 30
0.0
 10
11129.8904342994
 20
-5038.375509446425
 30
0.0
 10
11129.48526212309
 20
-5038.688629773138
 30
0.0
 10
11129.19096452245
 20
-5038.913216497522
 30
0.0
  0
SPLINE
  5
15D7FB
330
18
100
AcDbEntity
  8
姿図
100
AcDbSpline
210
0.0
220
0.0
230
1.0
 70
     8
 71
     3
 72
    11
 73
     7
 74
     0
 42
0.000000001
 43
0.0000000001
 40
0.0
 40
0.0
 40
0.0
 40
0.0
 40
1.0
 40
1.0
 40
1.0
 40
1.125193526333914
 40
1.125193526333914
 40
1.125193526333914
 40
1.125193526333914
 10
11134.9014386948
 20
-5031.152564422194
 30
0.0
 10
11134.9014386948
 20
-5031.152564422194
 30
0.0
 10
11135.32847268537
 20
-5031.181831549274
 30
0.0
 10
11135.0158465552
 20
-5031.465190552362
 30
0.0
 10
11134.97670778754
 20
-5031.500665265177
 30
0.0
 10
11134.81347593094
 20
-5031.634451145659
 30
0.0
 10
11134.55043837451
 20
-5031.847316617414
 30
0.0
  0
SPLINE
  5
15D7FC
330
18
100
AcDbEntity
  8
姿図
100
AcDbSpline
210
0.0
220
0.0
230
1.0
 70
     8
 71
     3
 72
     8
 73
     4
 74
     0
 42
0.000000001
 43
0.0000000001
 40
1.490426695595549
 40
1.490426695595549
 40
1.490426695595549
 40
1.490426695595549
 40
1.675127286579802
 40
1.675127286579802
 40
1.675127286579802
 40
1.675127286579802
 10
11130.3030452099
 20
-5035.2519388706
 30
0.0
 10
11129.36080882275
 20
-5036.005226488578
 30
0.0
 10
11128.35555871077
 20
-5036.808519468181
 30
0.0
 10
11127.3652850802
 20
-5037.600062525544
 30
0.0
  0
SPLINE
  5
15D7FD
330
18
100
AcDbEntity
  8
姿図
100
AcDbSpline
210
0.0
220
0.0
230
1.0
 70
    24
 71
     3
 72
     8
 73
     4
 74
     0
 42
0.000000001
 43
0.0000000001
 40
0.4225513110515299
 40
0.4225513110515299
 40
0.4225513110515299
 40
0.4225513110515299
 40
1.0
 40
1.0
 40
1.0
 40
1.0
 10
11134.55043837451
 20
-5033.166337441648
 30
0.0
 10
11135.16636818545
 20
-5033.310291822294
 30
0.0
 10
11135.89519069155
 20
-5033.480631348977
 30
0.0
 10
11135.89519069155
 20
-5033.480631348977
 30
0.0
  0
SPLINE
  5
15D7FE
330
18
100
AcDbEntity
  8
姿図
100
AcDbSpline
210
0.0
220
0.0
230
1.0
 70
     8
 71
     3
 72
    11
 73
     7
 74
     0
 42
0.000000001
 43
0.0000000001
 40
1.0
 40
1.0
 40
1.0
 40
1.0
 40
2.0
 40
2.0
 40
2.0
 40
2.295883513902669
 40
2.295883513902669
 40
2.295883513902669
 40
2.295883513902669
 10
11135.89519069155
 20
-5033.480631348977
 30
0.0
 10
11135.89519069155
 20
-5033.480631348977
 30
0.0
 10
11136.4339718946
 20
-5033.592378561463
 30
0.0
 10
11136.06547215819
 20
-5033.877067888509
 30
0.0
 10
11135.95643916131
 20
-5033.961302766967
 30
0.0
 10
11135.35918093081
 20
-5034.439192533222
 30
0.0
 10
11134.55043837451
 20
-5035.088725421649
 30
0.0
  0
SPLINE
  5
15D7FF
330
18
100
AcDbEntity
  8
姿図
100
AcDbSpline
210
0.0
220
0.0
230
1.0
 70
     8
 71
     3
 72
     8
 73
     4
 74
     0
 42
0.000000001
 43
0.0000000001
 40
2.746213831321151
 40
2.746213831321151
 40
2.746213831321151
 40
2.746213831321151
 40
2.903771721635469
 40
2.903771721635469
 40
2.903771721635469
 40
2.903771721635469
 10
11130.3637580926
 20
-5038.464544586037
 30
0.0
 10
11129.93166588439
 20
-5038.81478711368
 30
0.0
 10
11129.55903854492
 20
-5039.117886906244
 30
0.0
 10
11129.28766214433
 20
-5039.340321636701
 30
0.0
  0
SPLINE
  5
15D800
330
18
100
AcDbEntity
  8
姿図
100
AcDbSpline
210
0.0
220
0.0
230
1.0
 70
    24
 71
     3
 72
     8
 73
     4
 74
     0
 42
0.000000001
 43
0.0000000001
 40
0.0
 40
0.0
 40
0.0
 40
0.0
 40
0.1670744248001695
 40
0.1670744248001695
 40
0.1670744248001695
 40
0.1670744248001695
 10
11130.13355762875
 20
-5033.5657720823
 30
0.0
 10
11130.13355762875
 20
-5033.5657720823
 30
0.0
 10
11130.18428333017
 20
-5033.518239946266
 30
0.0
 10
11130.26878479824
 20
-5033.439058482776
 30
0.0
  0
SPLINE
  5
15D801
330
18
100
AcDbEntity
  8
姿図
100
AcDbSpline
210
0.0
220
0.0
230
1.0
 70
    24
 71
     3
 72
     8
 73
     4
 74
     0
 42
0.000000001
 43
0.0000000001
 40
2.0
 40
2.0
 40
2.0
 40
2.0
 40
3.0
 40
3.0
 40
3.0
 40
3.0
 10
11130.2051519286
 20
-5030.071942450611
 30
0.0
 10
11130.2051519286
 20
-5030.071942450611
 30
0.0
 10
11128.4593449274
 20
-5031.40798662216
 30
0.0
 10
11128.4593449274
 20
-5031.40798662216
 30
0.0
  0
SPLINE
  5
15D802
330
18
100
AcDbEntity
  8
姿図
100
AcDbSpline
210
0.0
220
0.0
230
1.0
 70
    24
 71
     3
 72
     8
 73
     4
 74
     0
 42
0.000000001
 43
0.0000000001
 40
0.7289377752874774
 40
0.7289377752874774
 40
0.7289377752874774
 40
0.7289377752874774
 40
1.0
 40
1.0
 40
1.0
 40
1.0
 10
11134.5504383745
 20
-5031.168283981071
 30
0.0
 10
11134.92749424066
 20
-5031.125818883524
 30
0.0
 10
11135.18612802185
 20
-5031.096690815952
 30
0.0
 10
11135.18612802185
 20
-5031.096690815951
 30
0.0
  0
SPLINE
  5
15D803
330
18
100
AcDbEntity
  8
姿図
100
AcDbSpline
210
0.0
220
0.0
230
1.0
 70
     8
 71
     3
 72
    11
 73
     7
 74
     0
 42
0.000000001
 43
0.0000000001
 40
1.0
 40
1.0
 40
1.0
 40
1.0
 40
2.0
 40
2.0
 40
2.0
 40
2.169038799056811
 40
2.169038799056811
 40
2.169038799056811
 40
2.169038799056811
 10
11135.18612802185
 20
-5031.096690815951
 30
0.0
 10
11135.18612802185
 20
-5031.096690815951
 30
0.0
 10
11136.00959855195
 20
-5031.067423688872
 30
0.0
 10
11135.35640948849
 20
-5031.635472019007
 30
0.0
 10
11135.24599519365
 20
-5031.731494226538
 30
0.0
 10
11134.9580039609
 20
-5031.972649421105
 30
0.0
 10
11134.5504383745
 20
-5032.31128816224
 30
0.0
  0
SPLINE
  5
15D804
330
18
100
AcDbEntity
  8
姿図
100
AcDbSpline
210
0.0
220
0.0
230
1.0
 70
     8
 71
     3
 72
     8
 73
     4
 74
     0
 42
0.000000001
 43
0.0000000001
 40
2.578043074299988
 40
2.578043074299988
 40
2.578043074299988
 40
2.578043074299988
 40
2.79498799956431
 40
2.79498799956431
 40
2.79498799956431
 40
2.79498799956431
 10
11130.31352635163
 20
-5035.806545641186
 30
0.0
 10
11129.48363137164
 20
-5036.488571224165
 30
0.0
 10
11128.68794387461
 20
-5037.141264047454
 30
0.0
 10
11128.04907689334
 20
-5037.663896833429
 30
0.0
  0
SPLINE
  5
15D805
330
18
100
AcDbEntity
  8
姿図
100
AcDbSpline
210
0.0
220
0.0
230
1.0
 70
    24
 71
     3
 72
     8
 73
     4
 74
     0
 42
0.000000001
 43
0.0000000001
 40
1.434336468963312
 40
1.434336468963312
 40
1.434336468963312
 40
1.434336468963312
 40
1.525343736714863
 40
1.525343736714863
 40
1.525343736714863
 40
1.525343736714863
 10
11129.17413559464
 20
-5032.236643009466
 30
0.0
 10
11129.52188758596
 20
-5031.975182056283
 30
0.0
 10
11129.8780979235
 20
-5031.707361607478
 30
0.0
 10
11130.23104364678
 20
-5031.441995692873
 30
0.0
  0
SPLINE
  5
15D806
330
18
100
AcDbEntity
  8
姿図
100
AcDbSpline
210
0.0
220
0.0
230
1.0
 70
     8
 71
     3
 72
     8
 73
     4
 74
     0
 42
0.000000001
 43
0.0000000001
 40
1.47114458461932
 40
1.47114458461932
 40
1.47114458461932
 40
1.47114458461932
 40
1.706347279223829
 40
1.706347279223829
 40
1.706347279223829
 40
1.706347279223829
 10
11126.51666274402
 20
-5030.897571007214
 30
0.0000000000000059
 10
11127.98750790933
 20
-5029.787570072496
 30
0.0000000000000033
 10
11129.23594947635
 20
-5028.8509491965
 30
0.0000000000000018
 10
11130.16888789365
 20
-5028.153040879915
 30
0.000000000000001
  0
SPLINE
  5
15D807
330
18
100
AcDbEntity
  8
姿図
100
AcDbSpline
210
0.0
220
0.0
230
1.0
 70
    24
 71
     3
 72
     8
 73
     4
 74
     0
 42
0.000000001
 43
0.0000000001
 40
1.351338064298595
 40
1.351338064298595
 40
1.351338064298595
 40
1.351338064298595
 40
1.428242292534494
 40
1.428242292534494
 40
1.428242292534494
 40
1.428242292534494
 10
11124.46532347534
 20
-5029.710129374571
 30
0.0
 10
11124.73989092239
 20
-5029.507164902209
 30
0.0
 10
11125.02823222198
 20
-5029.294018586577
 30
0.0
 10
11125.32322202964
 20
-5029.075957591691
 30
0.0
  0
SPLINE
  5
15D808
330
18
100
AcDbEntity
  8
姿図
100
AcDbSpline
210
0.0
220
0.0
230
1.0
 70
    24
 71
     3
 72
     8
 73
     4
 74
     0
 42
0.000000001
 43
0.0000000001
 40
1.615278216396081
 40
1.615278216396081
 40
1.615278216396081
 40
1.615278216396081
 40
2.0
 40
2.0
 40
2.0
 40
2.0
 10
11125.32322202964
 20
-5029.075957591691
 30
0.0
 10
11128.91765764203
 20
-5026.418895600711
 30
0.0
 10
11130.07701886053
 20
-5025.561877988019
 30
0.0
 10
11130.07701886053
 20
-5025.561877988019
 30
0.0
  0
SPLINE
  5
15D809
330
18
100
AcDbEntity
  8
姿図
100
AcDbSpline
210
0.0
220
0.0
230
1.0
 70
    24
 71
     3
 72
     8
 73
     4
 74
     0
 42
0.000000001
 43
0.0000000001
 40
1.350370274518835
 40
1.350370274518835
 40
1.350370274518835
 40
1.350370274518835
 40
1.445359962748388
 40
1.445359962748388
 40
1.445359962748388
 40
1.445359962748388
 10
11124.17053729305
 20
-5029.527567248466
 30
0.0
 10
11124.51784478879
 20
-5029.269855019744
 30
0.0
 10
11124.88684007733
 20
-5028.996049820129
 30
0.0
 10
11125.263755061
 20
-5028.716367977177
 30
0.0
  0
SPLINE
  5
15D80A
330
18
100
AcDbEntity
  8
姿図
100
AcDbSpline
210
0.0
220
0.0
230
1.0
 70
    24
 71
     3
 72
     8
 73
     4
 74
     0
 42
0.000000001
 43
0.0000000001
 40
1.629831745831646
 40
1.629831745831646
 40
1.629831745831646
 40
1.629831745831646
 40
2.0
 40
2.0
 40
2.0
 40
2.0
 10
11125.263755061
 20
-5028.716367977177
 30
0.0
 10
11128.83478145387
 20
-5026.066562885653
 30
0.0
 10
11129.93533935898
 20
-5025.24991701983
 30
0.0
 10
11129.93533935898
 20
-5025.24991701983
 30
0.0
  0
SPLINE
  5
15D80B
330
18
100
AcDbEntity
  8
姿図
100
AcDbSpline
210
0.0
220
0.0
230
1.0
 70
     8
 71
     3
 72
     8
 73
     4
 74
     0
 42
0.000000001
 43
0.0000000001
 40
2.0
 40
2.0
 40
2.0
 40
2.0
 40
2.490469301531053
 40
2.490469301531053
 40
2.490469301531053
 40
2.490469301531053
 10
11129.93533935898
 20
-5025.24991701983
 30
0.0
 10
11129.93533935898
 20
-5025.24991701983
 30
0.0
 10
11130.0239857056
 20
-5025.236156034616
 30
0.0
 10
11130.11432177541
 20
-5025.265689538213
 30
0.0
  0
SPLINE
  5
15D80C
330
18
100
AcDbEntity
  8
姿図
100
AcDbSpline
210
0.0
220
0.0
230
1.0
 70
    24
 71
     3
 72
     8
 73
     4
 74
     0
 42
0.000000001
 43
0.0000000001
 40
1.393915750535534
 40
1.393915750535534
 40
1.393915750535534
 40
1.393915750535534
 40
1.573101002211188
 40
1.573101002211188
 40
1.573101002211188
 40
1.573101002211188
 10
11122.9090777525
 20
-5028.710528035344
 30
0.0
 10
11123.58415572503
 20
-5028.20794722474
 30
0.0
 10
11124.31298274381
 20
-5027.665351422778
 30
0.0
 10
11125.00477213289
 20
-5027.150329327435
 30
0.0
  0
SPLINE
  5
15D80D
330
18
100
AcDbEntity
  8
姿図
100
AcDbSpline
210
0.0
220
0.0
230
1.0
 70
    24
 71
     3
 72
     8
 73
     4
 74
     0
 42
0.000000001
 43
0.0000000001
 40
1.799348189808347
 40
1.799348189808347
 40
1.799348189808347
 40
1.799348189808347
 40
2.0
 40
2.0
 40
2.0
 40
2.0
 10
11125.00477213289
 20
-5027.150329327435
 30
0.0
 10
11127.77317863054
 20
-5025.089311136508
 30
0.0
 10
11128.09084519099
 20
-5024.85281531832
 30
0.0
 10
11128.09084519099
 20
-5024.85281531832
 30
0.0
  0
SPLINE
  5
15D80E
330
18
100
AcDbEntity
  8
姿図
100
AcDbSpline
210
0.0
220
0.0
230
1.0
 70
     8
 71
     3
 72
     8
 73
     4
 74
     0
 42
0.000000001
 43
0.0000000001
 40
2.0
 40
2.0
 40
2.0
 40
2.0
 40
3.0
 40
3.0
 40
3.0
 40
3.0
 10
11128.09084519099
 20
-5024.85281531832
 30
0.0
 10
11128.09084519099
 20
-5024.85281531832
 30
0.0
 10
11128.28972862274
 20
-5024.88075212144
 30
0.0
 10
11128.26112665764
 20
-5025.306455788052
 30
0.0
  0
SPLINE
  5
15D80F
330
18
100
AcDbEntity
  8
姿図
100
AcDbSpline
210
0.0
220
0.0
230
1.0
 70
    24
 71
     3
 72
     8
 73
     4
 74
     0
 42
0.000000001
 43
0.0000000001
 40
1.392044447518863
 40
1.392044447518863
 40
1.392044447518863
 40
1.392044447518863
 40
1.583667207078013
 40
1.583667207078013
 40
1.583667207078013
 40
1.583667207078013
 10
11122.70875644696
 20
-5028.575278595898
 30
0.0
 10
11123.4345851687
 20
-5028.036041202173
 30
0.0
 10
11124.22341077719
 20
-5027.450001751702
 30
0.0
 10
11124.96341283332
 20
-5026.900234612229
 30
0.0
  0
SPLINE
  5
15D810
330
18
100
AcDbEntity
  8
姿図
100
AcDbSpline
210
0.0
220
0.0
230
1.0
 70
    24
 71
     3
 72
     8
 73
     4
 74
     0
 42
0.000000001
 43
0.0000000001
 40
1.815455566821609
 40
1.815455566821609
 40
1.815455566821609
 40
1.815455566821609
 40
2.0
 40
2.0
 40
2.0
 40
2.0
 10
11124.96341283332
 20
-5026.900234612229
 30
0.0
 10
11127.67788555243
 20
-5024.883580888632
 30
0.0
 10
11127.94850052747
 20
-5024.682533851674
 30
0.0
 10
11127.94850052747
 20
-5024.682533851674
 30
0.0
  0
SPLINE
  5
15D811
330
18
100
AcDbEntity
  8
姿図
100
AcDbSpline
210
0.0
220
0.0
230
1.0
 70
     8
 71
     3
 72
     8
 73
     4
 74
     0
 42
0.000000001
 43
0.0000000001
 40
2.0
 40
2.0
 40
2.0
 40
2.0
 40
3.0
 40
3.0
 40
3.0
 40
3.0
 10
11127.94850052747
 20
-5024.682533851674
 30
0.0
 10
11127.94850052747
 20
-5024.682533851674
 30
0.0
 10
11128.23318985452
 20
-5024.568125991273
 30
0.0
 10
11128.26112665764
 20
-5024.88075212144
 30
0.0
  0
SPLINE
  5
15D812
330
18
100
AcDbEntity
  8
姿図
100
AcDbSpline
210
0.0
220
0.0
230
1.0
 70
    24
 71
     3
 72
     8
 73
     4
 74
     0
 42
0.000000001
 43
0.0000000001
 40
3.0
 40
3.0
 40
3.0
 40
3.0
 40
4.0
 40
4.0
 40
4.0
 40
4.0
 10
11128.26112665764
 20
-5024.88075212144
 30
0.0
 10
11128.26112665764
 20
-5024.88075212144
 30
0.0
 10
11128.21371700292
 20
-5026.527410710124
 30
0.0
 10
11128.21371700292
 20
-5026.527410710124
 30
0.0
  0
SPLINE
  5
15D813
330
18
100
AcDbEntity
  8
姿図
100
AcDbSpline
210
0.0
220
0.0
230
1.0
 70
     8
 71
     3
 72
     8
 73
     4
 74
     0
 42
0.000000001
 43
0.0000000001
 40
1.498570996403043
 40
1.498570996403043
 40
1.498570996403043
 40
1.498570996403043
 40
1.810497930033095
 40
1.810497930033095
 40
1.810497930033095
 40
1.810497930033095
 10
11121.70325855296
 20
-5027.872600113331
 30
0.0
 10
11122.8674301894
 20
-5027.005125222586
 30
0.0
 10
11124.03367753619
 20
-5026.136103629834
 30
0.0
 10
11126.08391934283
 20
-5024.720329967293
 30
0.0
  0
SPLINE
  5
15D814
330
18
100
AcDbEntity
  8
姿図
100
AcDbSpline
210
0.0
220
0.0
230
1.0
 70
     8
 71
     3
 72
     8
 73
     4
 74
     0
 42
0.000000001
 43
0.0000000001
 40
0.3537168008125633
 40
0.3537168008125633
 40
0.3537168008125633
 40
0.3537168008125633
 40
1.0
 40
1.0
 40
1.0
 40
1.0
 10
11123.51660387
 20
-5052.944415762702
 30
0.0
 10
11122.51670639289
 20
-5053.900106795729
 30
0.0
 10
11120.62000207784
 20
-5055.492467733144
 30
0.0
 10
11117.70367572566
 20
-5056.978143421988
 30
0.0
  0
SPLINE
  5
15D815
330
18
100
AcDbEntity
  8
姿図
100
AcDbSpline
210
0.0
220
0.0
230
1.0
 70
     8
 71
     3
 72
     8
 73
     4
 74
     0
 42
0.000000001
 43
0.0000000001
 40
1.0
 40
1.0
 40
1.0
 40
1.000000000000004
 40
2.0
 40
2.0
 40
2.0
 40
2.0
 10
11107.4980697343
 20
-5032.193825937025
 30
0.0
 10
11111.25226969056
 20
-5029.46837429116
 30
0.0
 10
11117.6897073241
 20
-5031.881581951267
 30
0.0
 10
11122.05450023083
 20
-5037.588671731781
 30
0.0
  0
SPLINE
  5
15D816
330
18
100
AcDbEntity
  8
姿図
100
AcDbSpline
210
0.0
220
0.0
230
1.0
 70
     8
 71
     3
 72
     8
 73
     4
 74
     0
 42
0.000000001
 43
0.0000000001
 40
2.0
 40
2.0
 40
2.0
 40
2.0
 40
2.101688335254661
 40
2.101688335254661
 40
2.101688335254661
 40
2.101688335254661
 10
11122.05450023083
 20
-5037.588671731781
 30
0.0
 10
11122.49861931211
 20
-5038.16901619071
 30
0.0
 10
11122.90422780453
 20
-5038.761177258259
 30
0.0
 10
11123.27083409428
 20
-5039.359693633107
 30
0.0
  0
SPLINE
  5
15D817
330
18
100
AcDbEntity
  8
姿図
100
AcDbSpline
210
0.0
220
0.0
230
1.0
 70
     8
 71
     3
 72
     8
 73
     4
 74
     0
 42
0.000000001
 43
0.0000000001
 40
2.529370585629382
 40
2.529370585629382
 40
2.529370585629382
 40
2.529370585629382
 40
2.999999999999997
 40
3.0
 40
3.0
 40
3.0
 10
11125.79017872226
 20
-5046.842394815434
 30
0.0
 10
11125.92827434023
 20
-5049.412736192828
 30
0.0
 10
11125.1866613137
 20
-5051.627210538421
 30
0.0
 10
11123.51660386985
 20
-5052.944415762837
 30
0.0
  0
SPLINE
  5
15D818
330
18
100
AcDbEntity
  8
姿図
100
AcDbSpline
210
0.0
220
0.0
230
1.0
 70
     8
 71
     3
 72
     8
 73
     4
 74
     0
 42
0.000000001
 43
0.0000000001
 40
0.0
 40
0.0
 40
0.0
 40
0.0
 40
1.0
 40
1.0
 40
1.0
 40
1.0
 10
11102.40962317269
 20
-5036.397291782689
 30
0.0
 10
11105.80126727199
 20
-5034.216818409463
 30
0.0
 10
11112.12828801701
 20
-5036.171876716338
 30
0.0
 10
11116.41924794406
 20
-5041.781852847906
 30
0.0
  0
SPLINE
  5
15D819
330
18
100
AcDbEntity
  8
姿図
100
AcDbSpline
210
0.0
220
0.0
230
1.0
 70
     8
 71
     3
 72
     8
 73
     4
 74
     0
 42
0.000000001
 43
0.0000000001
 40
1.0
 40
1.0
 40
1.0
 40
1.0
 40
2.0
 40
2.0
 40
2.0
 40
2.0
 10
11116.41924794406
 20
-5041.781852847906
 30
0.0
 10
11120.71087303309
 20
-5047.393159303432
 30
0.0
 10
11121.3434420752
 20
-5054.120607559857
 30
0.0
 10
11117.82939133971
 20
-5056.807861955343
 30
0.0
  0
SPLINE
  5
15D81A
330
18
100
AcDbEntity
  8
姿図
100
AcDbSpline
210
0.0
220
0.0
230
1.0
 70
    24
 71
     3
 72
     8
 73
     4
 74
     0
 42
0.000000001
 43
0.0000000001
 40
2.0
 40
2.0
 40
2.0
 40
2.0
 40
3.0
 40
3.0
 40
3.0
 40
3.0
 10
11117.82939133971
 20
-5056.807861955343
 30
0.0
 10
11117.8140926142
 20
-5056.819834870967
 30
0.0
 10
11117.79879388867
 20
-5056.83180778659
 30
0.0
 10
11117.78349516316
 20
-5056.843780702215
 30
0.0
  0
ELLIPSE
  5
15D81B
330
18
100
AcDbEntity
  8
姿図
100
AcDbEllipse
 10
11125.42949934314
 20
-5034.244642368061
 30
0.0
 11
4.86736764156037
 21
-5.078054981767983
 31
0.0
210
0.0
220
0.0
230
1.0
 40
0.5896757540129041
 41
2.589251650966877
 42
2.665542556623123
  0
ELLIPSE
  5
15D81C
330
18
100
AcDbEntity
  8
姿図
100
AcDbEllipse
 10
11125.42949934314
 20
-5034.244642368061
 30
0.0
 11
4.86736764156037
 21
-5.078054981767983
 31
0.0
210
0.0
220
0.0
230
1.0
 40
0.5896757540129041
 41
7.392437129077063
 42
7.522358245514032
  0
ELLIPSE
  5
15D81D
330
18
100
AcDbEntity
  8
姿図
100
AcDbEllipse
 10
11125.42949934314
 20
-5034.244642368061
 30
0.0
 11
4.86736764156037
 21
-5.078054981767983
 31
0.0
210
0.0
220
0.0
230
1.0
 40
0.5896757540129041
 41
7.690618598159064
 42
7.896541804765815
  0
ELLIPSE
  5
15D81E
330
18
100
AcDbEntity
  8
姿図
100
AcDbEllipse
 10
11125.42949934314
 20
-5034.244642368061
 30
0.0
 11
4.86736764156037
 21
-5.078054981767983
 31
0.0
210
0.0
220
0.0
230
1.0
 40
0.5896757540129041
 41
8.489247713282603
 42
8.60769396429671
  0
ARC
  5
15D81F
330
18
100
AcDbEntity
  8
姿図
100
AcDbCircle
 10
11124.41549990527
 20
-5028.289916562153
 30
0.0
 40
0.40919003687817
100
AcDbArc
 50
158.32862717906
 51
250.9430020259678
  0
ARC
  5
15D820
330
18
100
AcDbEntity
  8
姿図
100
AcDbCircle
 10
11128.56334820667
 20
-5030.818281092077
 30
0.0
 40
0.489326860043733
100
AcDbArc
 50
160.424734316492
 51
224.4606610654157
  0
SPLINE
  5
15D821
330
18
100
AcDbEntity
  8
姿図
100
AcDbSpline
210
0.0
220
0.0
230
1.0
 70
     8
 71
     3
 72
     8
 73
     4
 74
     0
 42
0.000000001
 43
0.0000000001
 40
0.0
 40
0.0
 40
0.0
 40
0.0
 40
0.5686588660320964
 40
0.5686588660320964
 40
0.5686588660320964
 40
0.5686588660320964
 10
11112.25859522903
 20
-5059.04432908228
 30
0.0
 10
11114.71718929456
 20
-5058.496261008242
 30
0.0
 10
11116.10286753289
 20
-5057.930653898908
 30
0.0
 10
11117.75701307177
 20
-5056.904604169878
 30
0.0
  0
SPLINE
  5
15D822
330
18
100
AcDbEntity
  8
姿図
100
AcDbSpline
210
0.0
220
0.0
230
1.0
 70
     8
 71
     3
 72
     8
 73
     4
 74
     0
 42
0.000000001
 43
0.0000000001
 40
0.0345848742755237
 40
0.0345848742755237
 40
0.0345848742755237
 40
0.0345848742755237
 40
1.0
 40
1.0
 40
1.0
 40
1.0
 10
11109.16260724363
 20
-5057.518732744514
 30
0.0
 10
11107.15321118944
 20
-5057.333719809543
 30
0.0
 10
11104.48566293302
 20
-5055.411425010698
 30
0.0
 10
11102.40830954118
 20
-5052.442745208571
 30
0.0
  0
SPLINE
  5
15D823
330
18
100
AcDbEntity
  8
姿図
100
AcDbSpline
210
0.0
220
0.0
230
1.0
 70
     8
 71
     3
 72
     8
 73
     4
 74
     0
 42
0.000000001
 43
0.0000000001
 40
1.0
 40
1.0
 40
1.0
 40
1.0
 40
1.97362383066519
 40
1.97362383066519
 40
1.97362383066519
 40
1.97362383066519
 10
11102.40830954118
 20
-5052.442745208571
 30
0.0
 10
11100.07135432024
 20
-5049.102989112253
 30
0.0
 10
11099.23492935883
 20
-5045.5154053681
 30
0.0
 10
11100.21314047623
 20
-5043.688324829569
 30
0.0
  0
SPLINE
  5
15D824
330
18
100
AcDbEntity
  8
姿図
100
AcDbSpline
210
0.0
220
0.0
230
1.0
 70
     8
 71
     3
 72
     8
 73
     4
 74
     0
 42
0.000000001
 43
0.0000000001
 40
0.0486180101854806
 40
0.0486180101854806
 40
0.0486180101854806
 40
0.0486180101854806
 40
1.0
 40
1.0
 40
1.0
 40
1.0
 10
11109.02276637851
 20
-5057.742631503381
 30
0.0
 10
11106.98844879406
 20
-5057.710425144929
 30
0.0
 10
11104.17637427646
 20
-5055.750812556963
 30
0.0
 10
11102.00790266339
 20
-5052.652409348853
 30
0.0
  0
SPLINE
  5
15D825
330
18
100
AcDbEntity
  8
姿図
100
AcDbSpline
210
0.0
220
0.0
230
1.0
 70
     8
 71
     3
 72
     8
 73
     4
 74
     0
 42
0.000000001
 43
0.0000000001
 40
1.0
 40
1.0
 40
1.0
 40
1.0
 40
1.97067420936857
 40
1.97067420936857
 40
1.97067420936857
 40
1.97067420936857
 10
11102.00790266339
 20
-5052.652409348853
 30
0.0
 10
11099.55572456797
 20
-5049.14801803802
 30
0.0
 10
11098.75547772683
 20
-5045.370125883777
 30
0.0
 10
11099.97125208886
 20
-5043.6400556021
 30
0.0
  0
SPLINE
  5
15D826
330
18
100
AcDbEntity
  8
姿図
100
AcDbSpline
210
0.0
220
0.0
230
1.0
 70
     8
 71
     3
 72
     8
 73
     4
 74
     0
 42
0.000000001
 43
0.0000000001
 40
0.0353979527042438
 40
0.0353979527042438
 40
0.0353979527042438
 40
0.0353979527042438
 40
1.0
 40
1.0
 40
1.0
 40
1.0
 10
11109.34728793308
 20
-5056.969525857372
 30
0.0
 10
11107.30804291942
 20
-5056.902852321766
 30
0.0
 10
11104.53572890346
 20
-5054.816732363716
 30
0.0
 10
11102.47106159066
 20
-5051.590070386799
 30
0.0
  0
SPLINE
  5
15D827
330
18
100
AcDbEntity
  8
姿図
100
AcDbSpline
210
0.0
220
0.0
230
1.0
 70
     8
 71
     3
 72
     8
 73
     4
 74
     0
 42
0.000000001
 43
0.0000000001
 40
1.0
 40
1.0
 40
1.0
 40
1.0
 40
1.963858018535161
 40
1.963858018535161
 40
1.963858018535161
 40
1.963858018535161
 10
11102.47106159066
 20
-5051.590070386799
 30
0.0
 10
11100.61451853508
 20
-5048.688419963201
 30
0.0
 10
11099.83616393156
 20
-5045.653596502189
 30
0.0
 10
11100.27594894809
 20
-5043.705774013302
 30
0.0
  0
SPLINE
  5
15D828
330
18
100
AcDbEntity
  8
姿図
100
AcDbSpline
210
0.0
220
0.0
230
1.0
 70
     8
 71
     3
 72
     8
 73
     4
 74
     0
 42
0.000000001
 43
0.0000000001
 40
0.0533072557788984
 40
0.0533072557788984
 40
0.0533072557788984
 40
0.0533072557788984
 40
1.0
 40
1.0
 40
1.0
 40
1.0
 10
11108.94078311083
 20
-5057.85240595215
 30
0.0
 10
11106.88986351789
 20
-5058.026528326593
 30
0.0
 10
11103.90072091227
 20
-5056.02871741663
 30
0.0
 10
11101.62199834849
 20
-5052.772848691854
 30
0.0
  0
SPLINE
  5
15D829
330
18
100
AcDbEntity
  8
姿図
100
AcDbSpline
210
0.0
220
0.0
230
1.0
 70
     8
 71
     3
 72
     8
 73
     4
 74
     0
 42
0.000000001
 43
0.0000000001
 40
1.0
 40
1.0
 40
1.0
 40
1.0
 40
1.951403248137341
 40
1.951403248137341
 40
1.951403248137341
 40
1.951403248137341
 10
11101.62199834849
 20
-5052.772848691854
 30
0.0
 10
11099.11629406355
 20
-5049.192081793788
 30
0.0
 10
11098.33536859206
 20
-5045.325627699514
 30
0.0
 10
11099.66781659066
 20
-5043.650151164261
 30
0.0
  0
SPLINE
  5
15D82A
330
18
100
AcDbEntity
  8
姿図
100
AcDbSpline
210
0.0
220
0.0
230
1.0
 70
     8
 71
     3
 72
     8
 73
     4
 74
     0
 42
0.000000001
 43
0.0000000001
 40
0.0651965595715052
 40
0.0651965595715052
 40
0.0651965595715052
 40
0.0651965595715052
 40
1.0
 40
1.0
 40
1.0
 40
1.0
 10
11108.76449919038
 20
-5058.049277870132
 30
0.0
 10
11106.71144946442
 20
-5058.360707553896
 30
0.0
 10
11103.6122632616
 20
-5056.342736829816
 30
0.0
 10
11101.26620386934
 20
-5052.989764113581
 30
0.0
  0
SPLINE
  5
15D82B
330
18
100
AcDbEntity
  8
姿図
100
AcDbSpline
210
0.0
220
0.0
230
1.0
 70
     8
 71
     3
 72
     8
 73
     4
 74
     0
 42
0.000000001
 43
0.0000000001
 40
1.0
 40
1.0
 40
1.0
 40
1.0
 40
1.971095784903659
 40
1.971095784903659
 40
1.971095784903659
 40
1.971095784903659
 10
11101.26620386934
 20
-5052.989764113581
 30
0.0
 10
11098.65783506615
 20
-5049.262701964299
 30
0.0
 10
11097.91848887889
 20
-5045.226108268824
 30
0.0
 10
11099.48616292446
 20
-5043.671644642035
 30
0.0
  0
SPLINE
  5
15D82C
330
18
100
AcDbEntity
  8
姿図
100
AcDbSpline
210
0.0
220
0.0
230
1.0
 70
     8
 71
     3
 72
     8
 73
     4
 74
     0
 42
0.000000001
 43
0.0000000001
 40
0.0830380048434791
 40
0.0830380048434791
 40
0.0830380048434791
 40
0.0830380048434791
 40
1.0
 40
1.0
 40
1.0
 40
1.0
 10
11108.6493973469
 20
-5058.155179415377
 30
0.0
 10
11106.60688995741
 20
-5058.710112147639
 30
0.0
 10
11103.32776832055
 20
-5056.662275403656
 30
0.0
 10
11100.87304827299
 20
-5053.154815855222
 30
0.0
  0
SPLINE
  5
15D82D
330
18
100
AcDbEntity
  8
姿図
100
AcDbSpline
210
0.0
220
0.0
230
1.0
 70
     8
 71
     3
 72
     8
 73
     4
 74
     0
 42
0.000000001
 43
0.0000000001
 40
1.0
 40
1.0
 40
1.0
 40
1.0
 40
1.971016508087028
 40
1.971016508087028
 40
1.971016508087028
 40
1.971016508087028
 10
11100.87304827299
 20
-5053.154815855222
 30
0.0
 10
11098.2020739349
 20
-5049.337951526371
 30
0.0
 10
11097.49094555118
 20
-5045.196735281442
 30
0.0
 10
11099.20995814951
 20
-5043.729825246975
 30
0.0
  0
SPLINE
  5
15D82E
330
18
100
AcDbEntity
  8
姿図
100
AcDbSpline
210
0.0
220
0.0
230
1.0
 70
     8
 71
     3
 72
    11
 73
     7
 74
     0
 42
0.000000001
 43
0.0000000001
 40
1.005060628197603
 40
1.005060628197603
 40
1.005060628197603
 40
1.005060628197603
 40
2.0
 40
2.0
 40
2.0
 40
2.924554902239563
 40
2.924554902239563
 40
2.924554902239563
 40
2.924554902239563
 10
11108.87853670841
 20
-5057.927419928017
 30
0.0
 10
11106.94857953284
 20
-5059.230118330241
 30
0.0
 10
11103.18656178122
 20
-5057.134291658327
 30
0.0
 10
11100.44978284089
 20
-5053.223391518139
 30
0.0
 10
11097.90661040513
 20
-5049.589158117335
 30
0.0
 10
11097.14021986954
 20
-5045.660869659556
 30
0.0
 10
11098.55657630078
 20
-5044.027008639103
 30
0.0
  0
SPLINE
  5
15D82F
330
18
100
AcDbEntity
  8
姿図
100
AcDbSpline
210
0.0
220
0.0
230
1.0
 70
    24
 71
     3
 72
     8
 73
     4
 74
     0
 42
0.000000001
 43
0.0000000001
 40
0.0
 40
0.0
 40
0.0
 40
0.0
 40
1.0
 40
1.0
 40
1.0
 40
1.0
 10
11097.47769531341
 20
-5044.269686563703
 30
0.0
 10
11097.47769531341
 20
-5044.269686563703
 30
0.0
 10
11099.0604014218
 20
-5042.42055210671
 30
0.0
 10
11099.0604014218
 20
-5042.42055210671
 30
0.0
  0
SPLINE
  5
15D830
330
18
100
AcDbEntity
  8
姿図
100
AcDbSpline
210
0.0
220
0.0
230
1.0
 70
     8
 71
     3
 72
    11
 73
     7
 74
     0
 42
0.000000001
 43
0.0000000001
 40
1.0
 40
1.0
 40
1.0
 40
1.0
 40
2.0
 40
2.0
 40
2.0
 40
3.0
 40
3.0
 40
3.0
 40
3.0
 10
11099.0604014218
 20
-5042.42055210671
 30
0.0
 10
11099.0604014218
 20
-5042.42055210671
 30
0.0
 10
11099.70956128867
 20
-5041.243917759231
 30
0.0
 10
11101.41208371844
 20
-5041.474854055501
 30
0.0
 10
11103.11460614822
 20
-5041.705790351769
 30
0.0
 10
11107.43874173771
 20
-5043.300843008659
 30
0.0
 10
11110.74083422922
 20
-5049.722425232303
 30
0.0
  0
SPLINE
  5
15D831
330
18
100
AcDbEntity
  8
姿図
100
AcDbSpline
210
0.0
220
0.0
230
1.0
 70
     8
 71
     3
 72
     8
 73
     4
 74
     0
 42
0.000000001
 43
0.0000000001
 40
3.0
 40
3.0
 40
3.0
 40
3.0
 40
4.0
 40
4.0
 40
4.0
 40
4.0
 10
11110.74083422922
 20
-5049.722425232303
 30
0.0
 10
11112.41089607003
 20
-5052.970292653281
 30
0.0
 10
11112.67601548247
 20
-5056.452004391773
 30
0.0
 10
11111.76049015992
 20
-5057.53525987748
 30
0.0
  0
SPLINE
  5
15D832
330
18
100
AcDbEntity
  8
姿図
100
AcDbSpline
210
0.0
220
0.0
230
1.0
 70
     8
 71
     3
 72
     8
 73
     4
 74
     0
 42
0.000000001
 43
0.0000000001
 40
4.0
 40
4.0
 40
4.0
 40
4.0
 40
5.0
 40
5.0
 40
5.0
 40
5.0
 10
11111.76049015992
 20
-5057.53525987748
 30
0.0
 10
11111.25020935048
 20
-5058.139184324079
 30
0.0
 10
11108.22208979279
 20
-5059.020725552254
 30
0.0
 10
11108.22208979279
 20
-5059.020725552254
 30
0.0
  0
SPLINE
  5
15D833
330
18
100
AcDbEntity
  8
姿図
100
AcDbSpline
210
0.0
220
0.0
230
1.0
 70
     8
 71
     3
 72
     8
 73
     4
 74
     0
 42
0.000000001
 43
0.0000000001
 40
0.0
 40
0.0
 40
0.0
 40
0.0
 40
1.0
 40
1.0
 40
1.0
 40
1.0
 10
11098.19543084319
 20
-5043.516317648322
 30
0.0
 10
11098.10068249606
 20
-5042.127186718999
 30
0.0
 10
11098.67953245594
 20
-5040.760253059263
 30
0.0
 10
11099.48609557507
 20
-5040.153686809132
 30
0.0
  0
SPLINE
  5
15D834
330
18
100
AcDbEntity
  8
姿図
100
AcDbSpline
210
0.0
220
0.0
230
1.0
 70
     8
 71
     3
 72
     8
 73
     4
 74
     0
 42
0.000000001
 43
0.0000000001
 40
1.0
 40
1.0
 40
1.0
 40
1.0
 40
2.0
 40
2.0
 40
2.0
 40
2.0
 10
11099.48609557507
 20
-5040.153686809132
 30
0.0
 10
11101.97778593076
 20
-5038.280581967048
 30
0.0
 10
11107.09035080241
 20
-5040.881685297285
 30
0.0
 10
11110.90940085624
 20
-5045.962763613916
 30
0.0
  0
SPLINE
  5
15D835
330
18
100
AcDbEntity
  8
姿図
100
AcDbSpline
210
0.0
220
0.0
230
1.0
 70
     8
 71
     3
 72
     8
 73
     4
 74
     0
 42
0.000000001
 43
0.0000000001
 40
2.0
 40
2.0
 40
2.0
 40
2.0
 40
2.235305163792243
 40
2.235305163792243
 40
2.235305163792243
 40
2.235305163792243
 10
11110.90940085624
 20
-5045.962763613916
 30
0.0
 10
11111.80732957682
 20
-5047.157578182094
 30
0.0
 10
11113.46566325036
 20
-5050.007868247954
 30
0.0
 10
11114.10214956594
 20
-5051.98943310681
 30
0.0
  0
SPLINE
  5
15D836
330
18
100
AcDbEntity
  8
姿図
100
AcDbSpline
210
0.0
220
0.0
230
1.0
 70
     8
 71
     3
 72
     8
 73
     4
 74
     0
 42
0.000000001
 43
0.0000000001
 40
2.396066187168036
 40
2.396066187168036
 40
2.396066187168036
 40
2.396066187168036
 40
3.0
 40
3.0
 40
3.0
 40
3.0
 10
11114.10214956594
 20
-5051.98943310681
 30
0.0
 10
11115.01706562998
 20
-5054.913023677145
 30
0.0
 10
11114.81283794098
 20
-5057.415975196887
 30
0.0
 10
11113.30767453944
 20
-5058.548014299517
 30
0.0
  0
SPLINE
  5
15D837
330
18
100
AcDbEntity
  8
姿図
100
AcDbSpline
210
0.0
220
0.0
230
1.0
 70
     8
 71
     3
 72
     8
 73
     4
 74
     0
 42
0.000000001
 43
0.0000000001
 40
3.0
 40
3.0
 40
3.0
 40
3.0
 40
4.0
 40
4.0
 40
4.0
 40
4.0
 10
11113.30767453944
 20
-5058.548014299517
 30
0.0
 10
11112.99630037857
 20
-5058.782166567436
 30
0.0
 10
11112.64412401376
 20
-5058.946008725598
 30
0.0
 10
11112.25859522903
 20
-5059.04432908228
 30
0.0
  0
SPLINE
  5
15D838
330
18
100
AcDbEntity
  8
姿図
100
AcDbSpline
210
0.0
220
0.0
230
1.0
 70
     8
 71
     3
 72
     8
 73
     4
 74
     0
 42
0.000000001
 43
0.0000000001
 40
4.0
 40
4.0
 40
4.0
 40
4.0
 40
4.957822154171585
 40
4.957822154171585
 40
4.957822154171585
 40
4.957822154171585
 10
11112.25859522903
 20
-5059.04432908228
 30
0.0
 10
11112.25859522903
 20
-5059.04432908228
 30
0.0
 10
11111.05103332507
 20
-5059.176253600115
 30
0.0
 10
11109.30170634483
 20
-5058.678177129446
 30
0.0
  0
ELLIPSE
  5
15D839
330
18
100
AcDbEntity
  8
姿図
100
AcDbEllipse
 10
11103.10020305167
 20
-5051.412576281549
 30
0.0
 11
5.238424671480817
 21
-7.485425334208286
 31
0.0
210
0.0
220
0.0
230
1.0
 40
0.4645252947541932
 41
0.0
 42
6.283185307179586
  0
SPLINE
  5
15D83A
330
18
100
AcDbEntity
  8
姿図
100
AcDbSpline
210
0.0
220
0.0
230
1.0
 70
     8
 71
     3
 72
    11
 73
     7
 74
     0
 42
0.000000001
 43
0.0000000001
 40
1.0
 40
1.0
 40
1.0
 40
1.0
 40
2.0
 40
2.0
 40
2.0
 40
3.0
 40
3.0
 40
3.0
 40
3.0
 10
11108.48847000821
 20
-5058.279851685145
 30
0.0
 10
11106.56750252212
 20
-5059.623965414112
 30
0.0
 10
11102.7811084958
 20
-5057.526757685997
 30
0.0
 10
11100.03040928951
 20
-5053.595965266853
 30
0.0
 10
11097.27971008322
 20
-5049.665172847711
 30
0.0
 10
11096.60760028588
 20
-5045.390376627643
 30
0.0
 10
11098.52775740197
 20
-5044.046846666131
 30
0.0
  0
SPLINE
  5
15D83B
330
18
100
AcDbEntity
  8
姿図
100
AcDbSpline
210
0.0
220
0.0
230
1.0
 70
     8
 71
     3
 72
     8
 73
     4
 74
     0
 42
0.000000001
 43
0.0000000001
 40
3.0
 40
3.0
 40
3.0
 40
3.0
 40
3.728979391355297
 40
3.728979391355297
 40
3.728979391355297
 40
3.728979391355297
 10
11098.52775740197
 20
-5044.046846666131
 30
0.0
 10
11098.94772455971
 20
-5043.752614321344
 30
0.0
 10
11099.45689008726
 20
-5043.623065718613
 30
0.0
 10
11100.02487204095
 20
-5043.641344282668
 30
0.0
  0
ARC
  5
15D83C
330
18
100
AcDbEntity
  8
姿図
100
AcDbCircle
 10
11124.89009271423
 20
-5058.191528294665
 30
0.0
 40
31.27879459331513
100
AcDbArc
 50
123.7818528605583
 51
146.4986655481887
  0
SPLINE
  5
15D83D
330
18
100
AcDbEntity
  8
姿図
100
AcDbSpline
210
0.0
220
0.0
230
1.0
 70
     8
 71
     3
 72
     8
 73
     4
 74
     0
 42
0.000000001
 43
0.0000000001
 40
0.184123280855877
 40
0.184123280855877
 40
0.184123280855877
 40
0.184123280855877
 40
1.0
 40
1.0
 40
1.0
 40
1.0
 10
11109.3874430846
 20
-5056.255043818092
 30
0.0000000000000025
 10
11107.50038378463
 20
-5055.689607738972
 30
0.0000000000000025
 10
11105.24779840018
 20
-5053.776393364518
 30
0.0000000000000025
 10
11103.5014678818
 20
-5051.047228114565
 30
0.0000000000000025
  0
SPLINE
  5
15D83E
330
18
100
AcDbEntity
  8
姿図
100
AcDbSpline
210
0.0
220
0.0
230
1.0
 70
     8
 71
     3
 72
     8
 73
     4
 74
     0
 42
0.000000001
 43
0.0000000001
 40
1.0
 40
1.0
 40
1.0
 40
1.0
 40
1.827384432039179
 40
1.827384432039179
 40
1.827384432039179
 40
1.827384432039179
 10
11103.5014678818
 20
-5051.047228114565
 30
0.0000000000000025
 10
11101.90779454811
 20
-5048.556425173117
 30
0.0000000000000025
 10
11101.1086017042
 20
-5045.967491538666
 30
0.0000000000000025
 10
11101.19241301143
 20
-5044.052226920981
 30
0.0000000000000025
  0
LINE
  5
15D83F
330
18
100
AcDbEntity
  8
姿図
100
AcDbLine
 10
11123.27083409428
 20
-5039.359693633107
 30
0.0
 11
11123.15990672599
 21
-5040.202465673809
 31
0.0000000000000022
  0
SPLINE
  5
15D840
330
18
100
AcDbEntity
  8
姿図
100
AcDbSpline
210
0.0
220
0.0
230
1.0
 70
     8
 71
     3
 72
     8
 73
     4
 74
     0
 42
0.000000001
 43
0.0000000001
 40
1.0
 40
1.0
 40
1.0
 40
1.000000000000004
 40
2.0
 40
2.0
 40
2.0
 40
2.0
 10
11107.06418718756
 20
-5032.489386684185
 30
0.0
 10
11110.81838714382
 20
-5029.763935038322
 30
0.0
 10
11117.25582477737
 20
-5032.177142698427
 30
0.0
 10
11121.6206176841
 20
-5037.88423247894
 30
0.0
  0
SPLINE
  5
15D841
330
18
100
AcDbEntity
  8
姿図
100
AcDbSpline
210
0.0
220
0.0
230
1.0
 70
     8
 71
     3
 72
     8
 73
     4
 74
     0
 42
0.000000001
 43
0.0000000001
 40
2.0
 40
2.0
 40
2.0
 40
2.0
 40
2.132564484647539
 40
2.132564484647539
 40
2.132564484647539
 40
2.132564484647539
 10
11121.6206176841
 20
-5037.88423247894
 30
0.0
 10
11122.19958691379
 20
-5038.640789894531
 30
0.0
 10
11122.71310876432
 20
-5039.417429217141
 30
0.0
 10
11123.15990672599
 20
-5040.202465673809
 30
0.0
  0
SPLINE
  5
15D842
330
18
100
AcDbEntity
  8
姿図
100
AcDbSpline
210
0.0
220
0.0
230
1.0
 70
     8
 71
     3
 72
     8
 73
     4
 74
     0
 42
0.000000001
 43
0.0000000001
 40
2.546094283791052
 40
2.546094283791052
 40
2.546094283791052
 40
2.546094283791052
 40
2.999999999999997
 40
3.0
 40
3.0
 40
3.0
 10
11125.35458611432
 20
-5047.439578760763
 30
0.0
 10
11125.41653036077
 20
-5049.917624749834
 30
0.0
 10
11124.64951636408
 20
-5052.06677576095
 30
0.0
 10
11123.00230053878
 20
-5053.417963940157
 30
0.0
  0
LINE
  5
15D843
330
18
100
AcDbEntity
  8
姿図
100
AcDbLine
 10
11124.09909836946
 20
-5028.549390172412
 30
0.0
 11
11123.42335584935
 21
-5029.050754834674
 31
0.0
  0
LINE
  5
15D844
330
18
100
AcDbEntity
  8
姿図
100
AcDbLine
 10
11126.16838355037
 20
-5029.435608267038
 30
0.0
 11
11125.27408512812
 21
-5030.19532614309
 31
0.0
  0
LINE
  5
15D845
330
18
100
AcDbEntity
  8
姿図
100
AcDbLine
 10
11128.21410020256
 20
-5031.161015110794
 30
0.0
 11
11127.71795739769
 21
-5031.528950987117
 31
0.0000000000000059
  0
LINE
  5
15D846
330
18
100
AcDbEntity
  8
姿図
100
AcDbLine
 10
11130.29035357275
 20
-5034.580364333576
 30
0.0
 11
11124.58559973928
 21
-5038.856405846456
 31
0.0
  0
LINE
  5
15D847
330
18
100
AcDbEntity
  8
姿図
100
AcDbLine
 10
11130.33867851965
 20
-5037.137465787351
 30
0.0
 11
11128.89408486438
 21
-5038.325164212945
 31
0.0
  0
ARC
  5
15D848
330
18
100
AcDbEntity
  8
姿図
100
AcDbCircle
 10
11132.18330656397
 20
-5063.690152115787
 30
0.0000000000000059
 40
37.757954895837
100
AcDbArc
 50
106.8206178016291
 51
120.7691310972298
  0
ARC
  5
15D849
330
18
100
AcDbEntity
  8
姿図
100
AcDbCircle
 10
11157.15766325824
 20
-5073.470991874045
 30
0.0
 40
48.67222027269721
100
AcDbArc
 50
123.5493292421334
 51
126.4219900180378
  0
ARC
  5
15D84A
330
18
100
AcDbEntity
  8
姿図
100
AcDbCircle
 10
11157.15766325825
 20
-5073.470991874066
 30
0.0
 40
48.67222027272535
100
AcDbArc
 50
126.4219900180378
 51
134.5035428112346
  0
ARC
  5
15D84B
330
18
100
AcDbEntity
  8
姿図
100
AcDbCircle
 10
11148.35362582643
 20
-4990.808000468236
 30
0.0000000000000059
 40
45.65114043112244
100
AcDbArc
 50
233.5901345256983
 51
243.46741538109
  0
ARC
  5
15D84C
330
18
100
AcDbEntity
  8
姿図
100
AcDbCircle
 10
11148.35362582636
 20
-4990.808000468353
 30
0.0000000000000059
 40
45.65114043098408
100
AcDbArc
 50
243.4674153811133
 51
246.6434698091016
  0
SPLINE
  5
15D84D
330
18
100
AcDbEntity
  8
姿図
100
AcDbSpline
210
0.0
220
0.0
230
1.0
 70
     8
 71
     3
 72
     8
 73
     4
 74
     0
 42
0.000000001
 43
0.0000000001
 40
2.0
 40
2.0
 40
2.0
 40
2.0
 40
3.0
 40
3.0
 40
3.0
 40
3.0
 10
11126.22626400636
 20
-5024.890611433939
 30
0.0
 10
11126.22626400636
 20
-5024.890611433939
 30
0.0
 10
11126.4251474381
 20
-5024.918548237059
 30
0.0
 10
11126.3861981596
 20
-5025.277936901359
 30
0.0
  0
SPLINE
  5
15D84E
330
18
100
AcDbEntity
  8
姿図
100
AcDbSpline
210
0.0
220
0.0
230
1.0
 70
     8
 71
     3
 72
     8
 73
     4
 74
     0
 42
0.000000001
 43
0.0000000001
 40
2.0
 40
2.0
 40
2.0
 40
2.0
 40
3.0
 40
3.0
 40
3.0
 40
3.0
 10
11126.08391934283
 20
-5024.720329967293
 30
0.0
 10
11126.08391934283
 20
-5024.720329967293
 30
0.0
 10
11126.36860866988
 20
-5024.605922106892
 30
0.0
 10
11126.396545473
 20
-5024.918548237059
 30
0.0
  0
SPLINE
  5
15D84F
330
18
100
AcDbEntity
  8
姿図
100
AcDbSpline
210
0.0
220
0.0
230
1.0
 70
    24
 71
     3
 72
     8
 73
     4
 74
     0
 42
0.000000001
 43
0.0000000001
 40
3.0
 40
3.0
 40
3.0
 40
3.0
 40
3.546158712685886
 40
3.546158712685886
 40
3.546158712685886
 40
3.546158712685886
 10
11126.396545473
 20
-5024.918548237059
 30
0.0
 10
11126.396545473
 20
-5024.918548237059
 30
0.0
 10
11126.38240367841
 20
-5025.409728939765
 30
0.0
 10
11126.36956741789
 20
-5025.855565104606
 30
0.0
  0
ARC
  5
15D850
330
18
100
AcDbEntity
  8
姿図
100
AcDbCircle
 10
11122.9709710185
 20
-5035.302046548396
 30
0.0
 40
6.681208349389654
100
AcDbArc
 50
48.95515262914671
 51
61.40808232052262
  0
ENDSEC
  0
SECTION
  2
OBJECTS
  0
DICTIONARY
  5
C
330
0
100
AcDbDictionary
281
     1
  3
ACAD_GROUP
350
D
  3
ACAD_IMAGE_VARS
350
15DB4F
  3
ACAD_LAYOUT
350
617
  3
ACAD_MLINESTYLE
350
E
  3
ACAD_PLOTSETTINGS
350
618
  3
ACAD_PLOTSTYLENAME
350
615
  3
ACAD_SCALELIST
350
A36
  3
AcadDim
350
AB4
  3
AcDbVariableDictionary
350
6DE
  3
APPDATA
350
15DB4E
  3
DWGPROPS
350
15DB72
  0
DICTIONARY
  5
8BF
330
2
100
AcDbDictionary
280
     1
281
     1
  3
ACAD_LAYERSTATES
360
8C0
  0
DICTIONARY
  5
A60
330
F
100
AcDbDictionary
280
     1
281
     1
  3
ADSK_XREC_LAYER_RECONCILED
360
A61
  0
DICTIONARY
  5
A66
330
34
100
AcDbDictionary
280
     1
281
     1
  3
ADSK_XREC_LAYER_RECONCILED
360
A67
  0
DICTIONARY
  5
A6E
330
2F4
100
AcDbDictionary
280
     1
281
     1
  3
ADSK_XREC_LAYER_RECONCILED
360
A6F
  0
DICTIONARY
  5
A72
330
305
100
AcDbDictionary
280
     1
281
     1
  3
ADSK_XREC_LAYER_RECONCILED
360
A73
  0
DICTIONARY
  5
143F
330
18
100
AcDbDictionary
280
     1
281
     1
  3
ACAD_SORTENTS
360
1440
  0
DICTIONARY
  5
D
102
{ACAD_REACTORS
330
C
102
}
330
C
100
AcDbDictionary
281
     1
  0
RASTERVARIABLES
  5
15DB4F
102
{ACAD_REACTORS
330
C
102
}
330
C
100
AcDbRasterVariables
 90
        0
 70
     1
 71
     1
 72
     0
  0
DICTIONARY
  5
617
102
{ACAD_REACTORS
330
C
102
}
330
C
100
AcDbDictionary
281
     1
  3
Model
350
619
  3
ﾚｲｱｳﾄ1
350
61A
  0
DICTIONARY
  5
E
102
{ACAD_REACTORS
330
C
102
}
330
C
100
AcDbDictionary
281
     1
  3
STANDARD
350
1B
  0
DICTIONARY
  5
618
102
{ACAD_REACTORS
330
C
102
}
330
C
100
AcDbDictionary
281
     1
  0
ACDBDICTIONARYWDFLT
  5
615
102
{ACAD_REACTORS
330
C
102
}
330
C
100
AcDbDictionary
281
     1
  3
Normal
350
616
100
AcDbDictionaryWithDefault
340
616
  0
DICTIONARY
  5
A36
102
{ACAD_REACTORS
330
C
102
}
330
C
100
AcDbDictionary
281
     1
  3
A0
350
A37
  3
A1
350
A38
  3
A2
350
A39
  3
A3
350
A3A
  3
A4
350
A3B
  3
A5
350
A3C
  3
A6
350
A3D
  3
A7
350
A3E
  3
A8
350
A3F
  3
A9
350
A40
  3
B0
350
A41
  3
B1
350
A42
  3
B2
350
A43
  3
B3
350
A44
  3
B4
350
A45
  3
B5
350
A46
  3
B6
350
A47
  3
B7
350
A48
  3
B8
350
A49
  3
B9
350
A4A
  3
C0
350
A4B
  3
C1
350
A4C
  3
C2
350
A4D
  3
C3
350
A4E
  3
C4
350
A4F
  3
C5
350
A50
  3
C6
350
A51
  3
C7
350
A52
  3
C8
350
A53
  3
C9
350
A54
  3
D0
350
A55
  3
D1
350
A56
  3
D2
350
A57
  0
XRECORD
  5
AB4
102
{ACAD_REACTORS
330
C
102
}
330
C
100
AcDbXrecord
280
     1
 90
   990106
  3
OPEN
 60
     0
 61
     0
 62
     1
 63
     3
 64
     1
 65
     0
 66
     0
 67
     3
 68
     1
 69
     0
 70
     0
 71
     0
 72
     0
 40
0.0
170
     2
  0
DICTIONARY
  5
6DE
102
{ACAD_REACTORS
330
C
102
}
330
C
100
AcDbDictionary
281
     1
  3
DIMASSOC
350
6DF
  3
INDEXCTL
350
A93
  3
PROJECTNAME
350
6E0
  3
SORTENTS
350
A92
  0
DICTIONARY
  5
15DB4E
102
{ACAD_REACTORS
330
C
102
}
330
C
100
AcDbDictionary
281
     1
  0
XRECORD
  5
15DB72
102
{ACAD_REACTORS
330
C
102
}
330
C
100
AcDbXrecord
280
     1
  1
DWGPROPS COOKIE
  2

  3

  4

  6

  7

  8
SPAX
  9

300
=
301
=
302
=
303
=
304
=
305
=
306
=
307
=
308
=
309
=
 40
0.0
 41
2448636.244629629
 42
2456822.107804086
  1

 90
        0
  0
DICTIONARY
  5
8C0
102
{ACAD_REACTORS
330
8BF
102
}
330
8BF
100
AcDbDictionary
281
     1
  0
XRECORD
  5
A61
102
{ACAD_REACTORS
330
A60
102
}
330
A60
100
AcDbXrecord
280
     1
290
     1
  0
XRECORD
  5
A67
102
{ACAD_REACTORS
330
A66
102
}
330
A66
100
AcDbXrecord
280
     1
290
     1
  0
XRECORD
  5
A6F
102
{ACAD_REACTORS
330
A6E
102
}
330
A6E
100
AcDbXrecord
280
     1
290
     1
  0
XRECORD
  5
A73
102
{ACAD_REACTORS
330
A72
102
}
330
A72
100
AcDbXrecord
280
     1
290
     1
  0
SORTENTSTABLE
  5
1440
102
{ACAD_REACTORS
330
143F
102
}
330
143F
100
AcDbSortentsTable
330
18
331
0
  5
13486B
331
D0CC6
  5
D0CC6
331
F6D77
  5
F6D77
331
F6D78
  5
F6D78
  0
LAYOUT
  5
619
102
{ACAD_REACTORS
330
617
102
}
330
617
100
AcDbPlotSettings
  1

  2
JUST PDF 2
  4
A4
  6

 40
3.174999952316284
 41
3.174999952316284
 42
3.175003051757812
 43
3.17498779296875
 44
209.8886566162109
 45
297.0530090332031
 46
14.27171755861491
 47
9.855173074625782
 48
11064.85097719599
 49
-4872.288030791531
140
11414.8414141858
141
-4330.302680514198
142
1.0
143
2.0
 70
  3764
 72
     1
 73
     0
 74
     4
  7
spax form.ctb
 75
    17
147
0.5
148
-11064.85097719599
149
4872.288030791531
100
AcDbLayout
  1
Model
 70
     1
 71
     0
 10
0.0
 20
0.0
 11
12.0
 21
9.0
 12
0.0
 22
0.0
 32
0.0
 14
11070.28799899416
 24
-5081.625931452764
 34
0.0
 15
11146.12133232749
 25
-5003.803564392168
 35
0.0000000000000059
146
0.0
 13
0.0
 23
0.0
 33
0.0
 16
1.0
 26
0.0
 36
0.0
 17
0.0
 27
1.0
 37
0.0
 76
     0
330
18
331
152BEB
1001
ACAD_PSEXT
1000
JUST PDF 2
1000
JUST PDF 2
1000
JUST PDF 2 Port:
1000

1070
     0
  0
LAYOUT
  5
61A
102
{ACAD_REACTORS
330
617
102
}
330
617
100
AcDbPlotSettings
  1

  2
Canon LASER SHOT LBP-750
  4

  6

 40
0.0
 41
0.0
 42
0.0
 43
0.0
 44
0.0
 45
0.0
 46
0.0
 47
0.0
 48
0.0
 49
0.0
140
0.0
141
0.0
142
1.0
143
1.0
 70
   688
 72
     0
 73
     0
 74
     5
  7
spax form2.ctb
 75
    16
147
1.0
148
0.0
149
0.0
100
AcDbLayout
  1
ﾚｲｱｳﾄ1
 70
     0
 71
     1
 10
0.0
 20
0.0
 11
12.0
 21
9.0
 12
0.0
 22
0.0
 32
0.0
 14
1.000000000000000E+20
 24
1.000000000000000E+20
 34
1.000000000000000E+20
 15
-1.000000000000000E+20
 25
-1.000000000000000E+20
 35
-1.000000000000000E+20
146
0.0
 13
0.0
 23
0.0
 33
0.0
 16
1.0
 26
0.0
 36
0.0
 17
0.0
 27
1.0
 37
0.0
 76
     0
330
15
  0
MLINESTYLE
  5
1B
102
{ACAD_REACTORS
330
E
102
}
330
E
100
AcDbMlineStyle
  2
STANDARD
 70
     0
  3

 62
     0
 51
90.0
 52
90.0
 71
     2
 49
0.5
 62
   256
  6
BYLAYER
 49
-0.5
 62
   256
  6
BYLAYER
  0
ACDBPLACEHOLDER
  5
616
102
{ACAD_REACTORS
330
615
102
}
330
615
  0
SCALE
  5
A37
102
{ACAD_REACTORS
330
A36
102
}
330
A36
100
AcDbScale
 70
     0
300
1:1
140
1.0
141
1.0
290
     1
1001
ACAD
1000
AcRTDxfName
1000
SCALE
  0
SCALE
  5
A38
102
{ACAD_REACTORS
330
A36
102
}
330
A36
100
AcDbScale
 70
     0
300
1:2
140
1.0
141
2.0
290
     0
1001
ACAD
1000
AcRTDxfName
1000
SCALE
  0
SCALE
  5
A39
102
{ACAD_REACTORS
330
A36
102
}
330
A36
100
AcDbScale
 70
     0
300
1:4
140
1.0
141
4.0
290
     0
1001
ACAD
1000
AcRTDxfName
1000
SCALE
  0
SCALE
  5
A3A
102
{ACAD_REACTORS
330
A36
102
}
330
A36
100
AcDbScale
 70
     0
300
1:5
140
1.0
141
5.0
290
     0
1001
ACAD
1000
AcRTDxfName
1000
SCALE
  0
SCALE
  5
A3B
102
{ACAD_REACTORS
330
A36
102
}
330
A36
100
AcDbScale
 70
     0
300
1:8
140
1.0
141
8.0
290
     0
1001
ACAD
1000
AcRTDxfName
1000
SCALE
  0
SCALE
  5
A3C
102
{ACAD_REACTORS
330
A36
102
}
330
A36
100
AcDbScale
 70
     0
300
1:10
140
1.0
141
10.0
290
     0
1001
ACAD
1000
AcRTDxfName
1000
SCALE
  0
SCALE
  5
A3D
102
{ACAD_REACTORS
330
A36
102
}
330
A36
100
AcDbScale
 70
     0
300
1:16
140
1.0
141
16.0
290
     0
1001
ACAD
1000
AcRTDxfName
1000
SCALE
  0
SCALE
  5
A3E
102
{ACAD_REACTORS
330
A36
102
}
330
A36
100
AcDbScale
 70
     0
300
1:20
140
1.0
141
20.0
290
     0
1001
ACAD
1000
AcRTDxfName
1000
SCALE
  0
SCALE
  5
A3F
102
{ACAD_REACTORS
330
A36
102
}
330
A36
100
AcDbScale
 70
     0
300
1:30
140
1.0
141
30.0
290
     0
1001
ACAD
1000
AcRTDxfName
1000
SCALE
  0
SCALE
  5
A40
102
{ACAD_REACTORS
330
A36
102
}
330
A36
100
AcDbScale
 70
     0
300
1:40
140
1.0
141
40.0
290
     0
1001
ACAD
1000
AcRTDxfName
1000
SCALE
  0
SCALE
  5
A41
102
{ACAD_REACTORS
330
A36
102
}
330
A36
100
AcDbScale
 70
     0
300
1:50
140
1.0
141
50.0
290
     0
1001
ACAD
1000
AcRTDxfName
1000
SCALE
  0
SCALE
  5
A42
102
{ACAD_REACTORS
330
A36
102
}
330
A36
100
AcDbScale
 70
     0
300
1:100
140
1.0
141
100.0
290
     0
1001
ACAD
1000
AcRTDxfName
1000
SCALE
  0
SCALE
  5
A43
102
{ACAD_REACTORS
330
A36
102
}
330
A36
100
AcDbScale
 70
     0
300
2:1
140
2.0
141
1.0
290
     0
1001
ACAD
1000
AcRTDxfName
1000
SCALE
  0
SCALE
  5
A44
102
{ACAD_REACTORS
330
A36
102
}
330
A36
100
AcDbScale
 70
     0
300
4:1
140
4.0
141
1.0
290
     0
1001
ACAD
1000
AcRTDxfName
1000
SCALE
  0
SCALE
  5
A45
102
{ACAD_REACTORS
330
A36
102
}
330
A36
100
AcDbScale
 70
     0
300
8:1
140
8.0
141
1.0
290
     0
1001
ACAD
1000
AcRTDxfName
1000
SCALE
  0
SCALE
  5
A46
102
{ACAD_REACTORS
330
A36
102
}
330
A36
100
AcDbScale
 70
     0
300
10:1
140
10.0
141
1.0
290
     0
1001
ACAD
1000
AcRTDxfName
1000
SCALE
  0
SCALE
  5
A47
102
{ACAD_REACTORS
330
A36
102
}
330
A36
100
AcDbScale
 70
     0
300
100:1
140
100.0
141
1.0
290
     0
1001
ACAD
1000
AcRTDxfName
1000
SCALE
  0
SCALE
  5
A48
102
{ACAD_REACTORS
330
A36
102
}
330
A36
100
AcDbScale
 70
     0
300
1/128" = 1'-0"
140
0.0078125
141
12.0
290
     0
1001
ACAD
1000
AcRTDxfName
1000
SCALE
  0
SCALE
  5
A49
102
{ACAD_REACTORS
330
A36
102
}
330
A36
100
AcDbScale
 70
     0
300
1/64" = 1'-0"
140
0.015625
141
12.0
290
     0
1001
ACAD
1000
AcRTDxfName
1000
SCALE
  0
SCALE
  5
A4A
102
{ACAD_REACTORS
330
A36
102
}
330
A36
100
AcDbScale
 70
     0
300
1/32" = 1'-0"
140
0.03125
141
12.0
290
     0
1001
ACAD
1000
AcRTDxfName
1000
SCALE
  0
SCALE
  5
A4B
102
{ACAD_REACTORS
330
A36
102
}
330
A36
100
AcDbScale
 70
     0
300
1/16" = 1'-0"
140
0.0625
141
12.0
290
     0
1001
ACAD
1000
AcRTDxfName
1000
SCALE
  0
SCALE
  5
A4C
102
{ACAD_REACTORS
330
A36
102
}
330
A36
100
AcDbScale
 70
     0
300
3/32" = 1'-0"
140
0.09375
141
12.0
290
     0
1001
ACAD
1000
AcRTDxfName
1000
SCALE
  0
SCALE
  5
A4D
102
{ACAD_REACTORS
330
A36
102
}
330
A36
100
AcDbScale
 70
     0
300
1/8" = 1'-0"
140
0.125
141
12.0
290
     0
1001
ACAD
1000
AcRTDxfName
1000
SCALE
  0
SCALE
  5
A4E
102
{ACAD_REACTORS
330
A36
102
}
330
A36
100
AcDbScale
 70
     0
300
3/16" = 1'-0"
140
0.1875
141
12.0
290
     0
1001
ACAD
1000
AcRTDxfName
1000
SCALE
  0
SCALE
  5
A4F
102
{ACAD_REACTORS
330
A36
102
}
330
A36
100
AcDbScale
 70
     0
300
1/4" = 1'-0"
140
0.25
141
12.0
290
     0
1001
ACAD
1000
AcRTDxfName
1000
SCALE
  0
SCALE
  5
A50
102
{ACAD_REACTORS
330
A36
102
}
330
A36
100
AcDbScale
 70
     0
300
3/8" = 1'-0"
140
0.375
141
12.0
290
     0
1001
ACAD
1000
AcRTDxfName
1000
SCALE
  0
SCALE
  5
A51
102
{ACAD_REACTORS
330
A36
102
}
330
A36
100
AcDbScale
 70
     0
300
1/2" = 1'-0"
140
0.5
141
12.0
290
     0
1001
ACAD
1000
AcRTDxfName
1000
SCALE
  0
SCALE
  5
A52
102
{ACAD_REACTORS
330
A36
102
}
330
A36
100
AcDbScale
 70
     0
300
3/4" = 1'-0"
140
0.75
141
12.0
290
     0
1001
ACAD
1000
AcRTDxfName
1000
SCALE
  0
SCALE
  5
A53
102
{ACAD_REACTORS
330
A36
102
}
330
A36
100
AcDbScale
 70
     0
300
1" = 1'-0"
140
1.0
141
12.0
290
     0
1001
ACAD
1000
AcRTDxfName
1000
SCALE
  0
SCALE
  5
A54
102
{ACAD_REACTORS
330
A36
102
}
330
A36
100
AcDbScale
 70
     0
300
1-1/2" = 1'-0"
140
1.5
141
12.0
290
     0
1001
ACAD
1000
AcRTDxfName
1000
SCALE
  0
SCALE
  5
A55
102
{ACAD_REACTORS
330
A36
102
}
330
A36
100
AcDbScale
 70
     0
300
3" = 1'-0"
140
3.0
141
12.0
290
     0
1001
ACAD
1000
AcRTDxfName
1000
SCALE
  0
SCALE
  5
A56
102
{ACAD_REACTORS
330
A36
102
}
330
A36
100
AcDbScale
 70
     0
300
6" = 1'-0"
140
6.0
141
12.0
290
     0
1001
ACAD
1000
AcRTDxfName
1000
SCALE
  0
SCALE
  5
A57
102
{ACAD_REACTORS
330
A36
102
}
330
A36
100
AcDbScale
 70
     0
300
1'-0" = 1'-0"
140
12.0
141
12.0
290
     0
1001
ACAD
1000
AcRTDxfName
1000
SCALE
  0
DICTIONARYVAR
  5
6DF
102
{ACAD_REACTORS
330
6DE
102
}
330
6DE
100
DictionaryVariables
280
     0
  1
1
  0
DICTIONARYVAR
  5
A93
102
{ACAD_REACTORS
330
6DE
102
}
330
6DE
100
DictionaryVariables
280
     0
  1
0
  0
DICTIONARYVAR
  5
6E0
102
{ACAD_REACTORS
330
6DE
102
}
330
6DE
100
DictionaryVariables
280
     0
  1

  0
DICTIONARYVAR
  5
A92
102
{ACAD_REACTORS
330
6DE
102
}
330
6DE
100
DictionaryVariables
280
     0
  1
127
  0
ENDSEC
  0
EOF
