  0
SECTION
  2
HEADER
  9
$ACADVER
  1
AC1015
  9
$ACADMAINTVER
 70
     6
  9
$DWGCODEPAGE
  3
ANSI_932
  9
$INSBASE
 10
0.0
 20
0.0
 30
0.0
  9
$EXTMIN
 10
10348.44667125733
 20
-4484.136341909964
 30
-0.0000000000000118
  9
$EXTMAX
 10
10443.78000459067
 20
-4394.284330384537
 30
0.0000000000000226
  9
$LIMMIN
 10
0.0
 20
0.0
  9
$LIMMAX
 10
420.0
 20
297.0
  9
$ORTHOMODE
 70
     1
  9
$REGENMODE
 70
     1
  9
$FILLMODE
 70
     1
  9
$QTEXTMODE
 70
     0
  9
$MIRRTEXT
 70
     1
  9
$LTSCALE
 40
5.0
  9
$ATTMODE
 70
     0
  9
$TEXTSIZE
 40
53.44730959687513
  9
$TRACEWID
 40
1.0
  9
$TEXTSTYLE
  7
STANDARD
  9
$CLAYER
  8
寸法線
  9
$CELTYPE
  6
BYLAYER
  9
$CECOLOR
 62
   256
  9
$CELTSCALE
 40
1.0
  9
$DISPSILH
 70
     0
  9
$DIMSCALE
 40
1.0
  9
$DIMASZ
 40
2.5
  9
$DIMEXO
 40
1.5
  9
$DIMDLI
 40
0.38
  9
$DIMRND
 40
0.0
  9
$DIMDLE
 40
0.0
  9
$DIMEXE
 40
1.0
  9
$DIMTP
 40
0.0
  9
$DIMTM
 40
0.0
  9
$DIMTXT
 40
2.500000000000003
  9
$DIMCEN
 40
0.0
  9
$DIMTSZ
 40
0.0
  9
$DIMTOL
 70
     0
  9
$DIMLIM
 70
     0
  9
$DIMTIH
 70
     0
  9
$DIMTOH
 70
     0
  9
$DIMSE1
 70
     0
  9
$DIMSE2
 70
     0
  9
$DIMTAD
 70
     3
  9
$DIMZIN
 70
     8
  9
$DIMBLK
  1

  9
$DIMASO
 70
     1
  9
$DIMSHO
 70
     0
  9
$DIMPOST
  1

  9
$DIMAPOST
  1

  9
$DIMALT
 70
     0
  9
$DIMALTD
 70
     0
  9
$DIMALTF
 40
25.4
  9
$DIMLFAC
 40
1.0
  9
$DIMTOFL
 70
     1
  9
$DIMTVP
 40
0.0
  9
$DIMTIX
 70
     0
  9
$DIMSOXD
 70
     0
  9
$DIMSAH
 70
     1
  9
$DIMBLK1
  1
OPEN
  9
$DIMBLK2
  1
OPEN
  9
$DIMSTYLE
  2
STANDARD
  9
$DIMCLRD
 70
     8
  9
$DIMCLRE
 70
     8
  9
$DIMCLRT
 70
   256
  9
$DIMTFAC
 40
1.0
  9
$DIMGAP
 40
1.0
  9
$DIMJUST
 70
     0
  9
$DIMSD1
 70
     0
  9
$DIMSD2
 70
     0
  9
$DIMTOLJ
 70
     1
  9
$DIMTZIN
 70
     0
  9
$DIMALTZ
 70
     0
  9
$DIMALTTZ
 70
     0
  9
$DIMUPT
 70
     0
  9
$DIMDEC
 70
     2
  9
$DIMTDEC
 70
     2
  9
$DIMALTU
 70
     2
  9
$DIMALTTD
 70
     0
  9
$DIMTXSTY
  7
STANDARD
  9
$DIMAUNIT
 70
     0
  9
$DIMADEC
 70
     2
  9
$DIMALTRND
 40
0.0
  9
$DIMAZIN
 70
     2
  9
$DIMDSEP
 70
    46
  9
$DIMATFIT
 70
     1
  9
$DIMFRAC
 70
     0
  9
$DIMLDRBLK
  1
OPEN
  9
$DIMLUNIT
 70
     2
  9
$DIMLWD
 70
    -2
  9
$DIMLWE
 70
    -2
  9
$DIMTMOVE
 70
     0
  9
$LUNITS
 70
     2
  9
$LUPREC
 70
     2
  9
$SKETCHINC
 40
0.1
  9
$FILLETRAD
 40
15.5
  9
$AUNITS
 70
     0
  9
$AUPREC
 70
     1
  9
$MENU
  1
FM
  9
$ELEVATION
 40
0.0
  9
$PELEVATION
 40
0.0
  9
$THICKNESS
 40
0.0
  9
$LIMCHECK
 70
     0
  9
$CHAMFERA
 40
0.0
  9
$CHAMFERB
 40
0.0
  9
$CHAMFERC
 40
0.0
  9
$CHAMFERD
 40
0.0
  9
$SKPOLY
 70
     0
  9
$TDCREATE
 40
2448636.619629629
  9
$TDUCREATE
 40
2448636.244629629
  9
$TDUPDATE
 40
2456821.592695428
  9
$TDUUPDATE
 40
2456821.217695428
  9
$TDINDWG
 40
48.8236689005
  9
$TDUSRTIMER
 40
2456821.217529919
  9
$USRTIMER
 70
     1
  9
$ANGBASE
 50
0.0
  9
$ANGDIR
 70
     0
  9
$PDMODE
 70
     3
  9
$PDSIZE
 40
0.0
  9
$PLINEWID
 40
0.0
  9
$SPLFRAME
 70
     0
  9
$SPLINETYPE
 70
     6
  9
$SPLINESEGS
 70
     8
  9
$HANDSEED
  5
12DBA9
  9
$SURFTAB1
 70
     6
  9
$SURFTAB2
 70
     6
  9
$SURFTYPE
 70
     6
  9
$SURFU
 70
     6
  9
$SURFV
 70
     6
  9
$UCSBASE
  2

  9
$UCSNAME
  2

  9
$UCSORG
 10
0.0
 20
0.0
 30
0.0
  9
$UCSXDIR
 10
1.0
 20
0.0
 30
0.0
  9
$UCSYDIR
 10
0.0
 20
1.0
 30
0.0
  9
$UCSORTHOREF
  2

  9
$UCSORTHOVIEW
 70
     0
  9
$UCSORGTOP
 10
0.0
 20
0.0
 30
0.0
  9
$UCSORGBOTTOM
 10
0.0
 20
0.0
 30
0.0
  9
$UCSORGLEFT
 10
0.0
 20
0.0
 30
0.0
  9
$UCSORGRIGHT
 10
0.0
 20
0.0
 30
0.0
  9
$UCSORGFRONT
 10
0.0
 20
0.0
 30
0.0
  9
$UCSORGBACK
 10
0.0
 20
0.0
 30
0.0
  9
$PUCSBASE
  2

  9
$PUCSNAME
  2

  9
$PUCSORG
 10
0.0
 20
0.0
 30
0.0
  9
$PUCSXDIR
 10
1.0
 20
0.0
 30
0.0
  9
$PUCSYDIR
 10
0.0
 20
1.0
 30
0.0
  9
$PUCSORTHOREF
  2

  9
$PUCSORTHOVIEW
 70
     0
  9
$PUCSORGTOP
 10
0.0
 20
0.0
 30
0.0
  9
$PUCSORGBOTTOM
 10
0.0
 20
0.0
 30
0.0
  9
$PUCSORGLEFT
 10
0.0
 20
0.0
 30
0.0
  9
$PUCSORGRIGHT
 10
0.0
 20
0.0
 30
0.0
  9
$PUCSORGFRONT
 10
0.0
 20
0.0
 30
0.0
  9
$PUCSORGBACK
 10
0.0
 20
0.0
 30
0.0
  9
$USERI1
 70
     0
  9
$USERI2
 70
     0
  9
$USERI3
 70
     0
  9
$USERI4
 70
     0
  9
$USERI5
 70
     0
  9
$USERR1
 40
0.0
  9
$USERR2
 40
0.0
  9
$USERR3
 40
0.0
  9
$USERR4
 40
0.0
  9
$USERR5
 40
0.0
  9
$WORLDVIEW
 70
     0
  9
$SHADEDGE
 70
     3
  9
$SHADEDIF
 70
    70
  9
$TILEMODE
 70
     1
  9
$MAXACTVP
 70
    16
  9
$PINSBASE
 10
0.0
 20
0.0
 30
0.0
  9
$PLIMCHECK
 70
     0
  9
$PEXTMIN
 10
1.000000000000000E+20
 20
1.000000000000000E+20
 30
1.000000000000000E+20
  9
$PEXTMAX
 10
-1.000000000000000E+20
 20
-1.000000000000000E+20
 30
-1.000000000000000E+20
  9
$PLIMMIN
 10
0.0
 20
0.0
  9
$PLIMMAX
 10
0.0
 20
0.0
  9
$UNITMODE
 70
     0
  9
$VISRETAIN
 70
     0
  9
$PLINEGEN
 70
     0
  9
$PSLTSCALE
 70
     0
  9
$TREEDEPTH
 70
  3020
  9
$CMLSTYLE
  2
STANDARD
  9
$CMLJUST
 70
     0
  9
$CMLSCALE
 40
1.0
  9
$PROXYGRAPHICS
 70
     1
  9
$MEASUREMENT
 70
     0
  9
$CELWEIGHT
370
    -1
  9
$ENDCAPS
280
     0
  9
$JOINSTYLE
280
     0
  9
$LWDISPLAY
290
     0
  9
$INSUNITS
 70
     0
  9
$HYPERLINKBASE
  1

  9
$STYLESHEET
  1
spax form.ctb
  9
$XEDIT
290
     1
  9
$CEPSNTYPE
380
     0
  9
$PSTYLEMODE
290
     1
  9
$FINGERPRINTGUID
  2
{BBAEEBA6-8B94-11D3-9160-00E0294F7E09}
  9
$VERSIONGUID
  2
{ED79C14C-94EF-4709-952F-CD8512152452}
  9
$EXTNAMES
290
     1
  9
$PSVPSCALE
 40
0.0
  9
$OLESTARTUP
290
     0
  0
ENDSEC
  0
SECTION
  2
CLASSES
  0
CLASS
  1
LWPOLYLINE
  2
AcDbPolyline
  3
ObjectDBX Classes
 90
        0
280
     0
281
     1
  0
CLASS
  1
ACDBDICTIONARYWDFLT
  2
AcDbDictionaryWithDefault
  3
ObjectDBX Classes
 90
        0
280
     0
281
     0
  0
CLASS
  1
ACDBPLACEHOLDER
  2
AcDbPlaceHolder
  3
ObjectDBX Classes
 90
        0
280
     0
281
     0
  0
CLASS
  1
LAYOUT
  2
AcDbLayout
  3
ObjectDBX Classes
 90
        0
280
     0
281
     0
  0
CLASS
  1
DICTIONARYVAR
  2
AcDbDictionaryVar
  3
ObjectDBX Classes
 90
        0
280
     0
281
     0
  0
CLASS
  1
MATERIAL
  2
AcDbMaterial
  3
ObjectDBX Classes
 90
     1153
280
     0
281
     0
  0
CLASS
  1
VISUALSTYLE
  2
AcDbVisualStyle
  3
ObjectDBX Classes
 90
     4095
280
     0
281
     0
  0
CLASS
  1
TABLESTYLE
  2
AcDbTableStyle
  3
ObjectDBX Classes
 90
     4095
280
     0
281
     0
  0
CLASS
  1
SCALE
  2
AcDbScale
  3
ObjectDBX Classes
 90
     1153
280
     0
281
     0
  0
CLASS
  1
MLEADERSTYLE
  2
AcDbMLeaderStyle
  3
ACDB_MLEADERSTYLE_CLASS
 90
     4095
280
     0
281
     0
  0
CLASS
  1
CELLSTYLEMAP
  2
AcDbCellStyleMap
  3
ObjectDBX Classes
 90
     1152
280
     0
281
     0
  0
CLASS
  1
SORTENTSTABLE
  2
AcDbSortentsTable
  3
ObjectDBX Classes
 90
        0
280
     0
281
     0
  0
CLASS
  1
MULTILEADER
  2
AcDbMLeader
  3
ACDB_MLEADER_CLASS
 90
     1025
280
     0
281
     1
  0
CLASS
  1
DIMASSOC
  2
AcDbDimAssoc
  3
"AcDbDimAssoc|Product Desc:     AcDim ARX App For Dimension|Company:          Autodesk, Inc.|WEB Address:      www.autodesk.com"
 90
        0
280
     0
281
     0
  0
CLASS
  1
RASTERVARIABLES
  2
AcDbRasterVariables
  3
ISM
 90
        0
280
     0
281
     0
  0
CLASS
  1
SUN
  2
AcDbSun
  3
SCENEOE
 90
     1153
280
     0
281
     0
  0
ENDSEC
  0
SECTION
  2
TABLES
  0
TABLE
  2
VPORT
  5
8
330
0
100
AcDbSymbolTable
 70
     1
  0
VPORT
  5
129154
330
8
100
AcDbSymbolTableRecord
100
AcDbViewportTableRecord
  2
*Active
 70
     0
 10
0.0
 20
0.0
 11
1.0
 21
1.0
 12
10396.113337924
 22
-4439.210336147251
 13
0.0
 23
0.0
 14
1.0
 24
1.0
 15
20.0
 25
20.0
 16
0.0
 26
0.0
 36
1.0
 17
0.0
 27
0.0
 37
0.0
 40
91.64905175593633
 41
1.731829573934837
 42
50.0
 43
0.0
 44
0.0
 50
0.0
 51
0.0
 71
    16
 72
   100
 73
     1
 74
     0
 75
     0
 76
     0
 77
     0
 78
     0
281
     0
 65
     1
110
0.0
120
0.0
130
0.0
111
1.0
121
0.0
131
0.0
112
0.0
122
1.0
132
0.0
 79
     0
146
0.0
  0
ENDTAB
  0
TABLE
  2
LTYPE
  5
5
330
0
100
AcDbSymbolTable
 70
     4
  0
LTYPE
  5
12
330
5
100
AcDbSymbolTableRecord
100
AcDbLinetypeTableRecord
  2
BYBLOCK
 70
     0
  3

 72
    65
 73
     0
 40
0.0
  0
LTYPE
  5
13
330
5
100
AcDbSymbolTableRecord
100
AcDbLinetypeTableRecord
  2
BYLAYER
 70
     0
  3

 72
    65
 73
     0
 40
0.0
  0
LTYPE
  5
14
330
5
100
AcDbSymbolTableRecord
100
AcDbLinetypeTableRecord
  2
CONTINUOUS
 70
     0
  3
Solid line
 72
    65
 73
     0
 40
0.0
  0
LTYPE
  5
26
330
5
100
AcDbSymbolTableRecord
100
AcDbLinetypeTableRecord
  2
PHANTOM
 70
     0
  3
_____ _ _ _____ _ _ _____ _ _ _____ _ _ ____
 72
    65
 73
     6
 40
2.5
 49
1.25
 74
     0
 49
-0.25
 74
     0
 49
0.25
 74
     0
 49
-0.25
 74
     0
 49
0.25
 74
     0
 49
-0.25
 74
     0
  0
LTYPE
  5
27
330
5
100
AcDbSymbolTableRecord
100
AcDbLinetypeTableRecord
  2
HIDDEN
 70
     0
  3
_ _ _ _ _ _ _ _ _ _ _ _ _ _ _ _ _ _ _ _ _ _ _
 72
    65
 73
     2
 40
0.375
 49
0.25
 74
     0
 49
-0.125
 74
     0
  0
LTYPE
  5
514
330
5
100
AcDbSymbolTableRecord
100
AcDbLinetypeTableRecord
  2
CENTER
 70
     0
  3
Center ____ _ ____ _ ____ _ ____ _ ____ _ ____
 72
    65
 73
     4
 40
2.0
 49
1.25
 74
     0
 49
-0.25
 74
     0
 49
0.25
 74
     0
 49
-0.25
 74
     0
  0
ENDTAB
  0
TABLE
  2
LAYER
  5
2
102
{ACAD_XDICTIONARY
360
8BF
102
}
330
0
100
AcDbSymbolTable
 70
    17
  0
LAYER
  5
F
102
{ACAD_XDICTIONARY
360
A60
102
}
330
2
100
AcDbSymbolTableRecord
100
AcDbLayerTableRecord
  2
0
 70
     0
 62
     7
  6
CONTINUOUS
370
    -3
390
616
  0
LAYER
  5
34
102
{ACAD_XDICTIONARY
360
A66
102
}
330
2
100
AcDbSymbolTableRecord
100
AcDbLayerTableRecord
  2
寸法線
 70
     0
 62
     7
  6
CONTINUOUS
370
    -3
390
616
  0
LAYER
  5
2A3
102
{ACAD_XDICTIONARY
360
A6A
102
}
330
2
100
AcDbSymbolTableRecord
100
AcDbLayerTableRecord
  2
ﾊｯﾁﾝｸﾞ
 70
     0
 62
     8
  6
CONTINUOUS
370
    -3
390
616
  0
LAYER
  5
2F4
102
{ACAD_XDICTIONARY
360
A6E
102
}
330
2
100
AcDbSymbolTableRecord
100
AcDbLayerTableRecord
  2
文字
 70
     0
 62
     7
  6
CONTINUOUS
370
    -3
390
616
  0
LAYER
  5
305
102
{ACAD_XDICTIONARY
360
A72
102
}
330
2
100
AcDbSymbolTableRecord
100
AcDbLayerTableRecord
  2
姿図
 70
     0
 62
     8
  6
CONTINUOUS
370
    -3
390
616
  0
ENDTAB
  0
TABLE
  2
STYLE
  5
3
330
0
100
AcDbSymbolTable
 70
     2
  0
STYLE
  5
10
330
3
100
AcDbSymbolTableRecord
100
AcDbTextStyleTableRecord
  2
STANDARD
 70
     0
 40
0.0
 41
1.0
 50
0.0
 71
     0
 42
53.44730959687513
  3
MONOTXT
  4
BIGFONT
  0
STYLE
  5
5B6F
330
3
100
AcDbSymbolTableRecord
100
AcDbTextStyleTableRecord
  2
EXTFONT
 70
     0
 40
2.5
 41
1.0
 50
0.0
 71
     0
 42
2.5
  3
txt.shx
  4
extfont
  0
ENDTAB
  0
TABLE
  2
VIEW
  5
6
330
0
100
AcDbSymbolTable
 70
     0
  0
ENDTAB
  0
TABLE
  2
UCS
  5
7
330
0
100
AcDbSymbolTable
 70
     0
  0
ENDTAB
  0
TABLE
  2
APPID
  5
9
330
0
100
AcDbSymbolTable
 70
    15
  0
APPID
  5
11
330
9
100
AcDbSymbolTableRecord
100
AcDbRegAppTableRecord
  2
ACAD
 70
     0
  0
APPID
  5
8BB
330
9
100
AcDbSymbolTableRecord
100
AcDbRegAppTableRecord
  2
ACAD_PSEXT
 70
     0
  0
APPID
  5
A5A
330
9
100
AcDbSymbolTableRecord
100
AcDbRegAppTableRecord
  2
ACAD_MLEADERVER
 70
     0
  0
APPID
  5
A5E
330
9
100
AcDbSymbolTableRecord
100
AcDbRegAppTableRecord
  2
ACAD_DSTYLE_DIMJAG
 70
     0
  0
APPID
  5
A5F
330
9
100
AcDbSymbolTableRecord
100
AcDbRegAppTableRecord
  2
ACAD_DSTYLE_DIMTALN
 70
     0
  0
APPID
  5
12C0
330
9
100
AcDbSymbolTableRecord
100
AcDbRegAppTableRecord
  2
ACAD_EXEMPT_FROM_CAD_STANDARDS
 70
     0
  0
APPID
  5
1C50
330
9
100
AcDbSymbolTableRecord
100
AcDbRegAppTableRecord
  2
AcAecLayerStandard
 70
     0
  0
APPID
  5
5088
330
9
100
AcDbSymbolTableRecord
100
AcDbRegAppTableRecord
  2
ACAD_DSTYLE_DIMRADIAL_EXTENSION
 70
     0
  0
APPID
  5
14AF3
330
9
100
AcDbSymbolTableRecord
100
AcDbRegAppTableRecord
  2
WACOM_STRING
 70
     0
  0
APPID
  5
14AF4
330
9
100
AcDbSymbolTableRecord
100
AcDbRegAppTableRecord
  2
WACOM_DRSYM_ARROW
 70
     0
  0
APPID
  5
1E1A8
330
9
100
AcDbSymbolTableRecord
100
AcDbRegAppTableRecord
  2
GENIUS_GENODEF_13
 70
     0
  0
APPID
  5
1E1A9
330
9
100
AcDbSymbolTableRecord
100
AcDbRegAppTableRecord
  2
GENIUS_GENREC_14
 70
     0
  0
APPID
  5
1E1AA
330
9
100
AcDbSymbolTableRecord
100
AcDbRegAppTableRecord
  2
GENIUS_GENOBJ-N-REC_13
 70
     0
  0
APPID
  5
27C72
330
9
100
AcDbSymbolTableRecord
100
AcDbRegAppTableRecord
  2
ASK_MEN_XD
 70
     0
  0
APPID
  5
29316
330
9
100
AcDbSymbolTableRecord
100
AcDbRegAppTableRecord
  2
ACAD_DSTYLE_DIMBREAK
 70
     0
  0
ENDTAB
  0
TABLE
  2
DIMSTYLE
  5
A
330
0
100
AcDbSymbolTable
 70
     4
100
AcDbDimStyleTable
  0
DIMSTYLE
105
1CC
330
A
100
AcDbSymbolTableRecord
100
AcDbDimStyleTableRecord
  2
STANDARD
 70
     0
 41
2.5
 42
1.5
 44
1.0
 73
     0
 74
     0
 77
     3
 78
     8
 79
     2
140
2.500000000000003
141
0.0
147
1.0
171
     0
172
     1
173
     1
176
     8
177
     8
271
     2
178
   256
179
     2
271
     2
272
     2
274
     0
289
     1
340
10
341
608
343
608
344
608
1001
ACAD_DSTYLE_DIMJAG
1070
   388
1040
1.5
1001
ACAD_DSTYLE_DIMTALN
1070
   392
1070
     0
  0
ENDTAB
  0
TABLE
  2
BLOCK_RECORD
  5
1
330
0
100
AcDbSymbolTable
 70
    32
  0
BLOCK_RECORD
  5
18
102
{ACAD_XDICTIONARY
360
143F
102
}
330
1
100
AcDbSymbolTableRecord
100
AcDbBlockTableRecord
  2
*MODEL_SPACE
340
619
  0
BLOCK_RECORD
  5
15
330
1
100
AcDbSymbolTableRecord
100
AcDbBlockTableRecord
  2
*PAPER_SPACE
340
61A
  0
BLOCK_RECORD
  5
608
330
1
100
AcDbSymbolTableRecord
100
AcDbBlockTableRecord
  2
_OPEN
340
0
102
{BLKREFS
331
105BF3
331
105BF4
331
105C07
331
105C08
331
105C42
331
105C43
331
105C73
331
105C74
331
1271E9
331
1271EA
331
1271F2
331
1271F3
331
1271FB
331
1271FC
331
127204
331
127205
331
12816D
331
12816E
331
128176
331
128177
331
12817F
331
128180
331
128188
331
128189
331
129104
331
129105
331
12910D
331
12910E
331
129116
331
129117
331
12911F
331
129120
331
12A0F1
331
12A0F2
331
12A0FA
331
12A0FB
331
12A103
331
12A104
331
12A119
331
12A11A
331
12B279
331
12B278
331
12AEEF
331
12AEEE
331
12AEE2
331
12AEE1
331
12AED5
331
12AED4
331
12DB4C
331
12DB4D
331
12DB55
331
12DB56
331
12DB5E
331
12DB5F
331
12DB67
331
12DB68
102
}
  0
BLOCK_RECORD
  5
89D
330
1
100
AcDbSymbolTableRecord
100
AcDbBlockTableRecord
  2
SUN
340
0
  0
BLOCK_RECORD
  5
1F1F
330
1
100
AcDbSymbolTableRecord
100
AcDbBlockTableRecord
  2
_OPEN30
340
0
  0
ENDTAB
  0
ENDSEC
  0
SECTION
  2
BLOCKS
  0
BLOCK
  5
39
330
18
100
AcDbEntity
  8
0
100
AcDbBlockBegin
  2
*MODEL_SPACE
 70
     0
 10
0.0
 20
0.0
 30
0.0
  3
*MODEL_SPACE
  1
*MODEL_SPACE
  0
ENDBLK
  5
3A
330
18
100
AcDbEntity
  8
0
100
AcDbBlockEnd
  0
BLOCK
  5
37
330
15
100
AcDbEntity
 67
     1
  8
0
100
AcDbBlockBegin
  2
*PAPER_SPACE
 70
     0
 10
0.0
 20
0.0
 30
0.0
  3
*PAPER_SPACE
  1
*PAPER_SPACE
  0
ENDBLK
  5
38
330
15
100
AcDbEntity
 67
     1
  8
0
100
AcDbBlockEnd
  0
BLOCK
  5
609
330
608
100
AcDbEntity
  8
0
100
AcDbBlockBegin
  2
_OPEN
 70
     0
 10
0.0
 20
0.0
 30
0.0
  3
_OPEN
  1
_OPEN
  0
LINE
  5
60A
330
608
100
AcDbEntity
  8
0
  6
ByBlock
 62
     0
100
AcDbLine
 10
-1.0
 20
0.1666666666666667
 30
0.0
 11
0.0
 21
0.0
 31
0.0
  0
LINE
  5
60B
330
608
100
AcDbEntity
  8
0
  6
ByBlock
 62
     0
100
AcDbLine
 10
0.0
 20
0.0
 30
0.0
 11
-1.0
 21
-0.1666666666666667
 31
0.0
  0
LINE
  5
60C
330
608
100
AcDbEntity
  8
0
  6
ByBlock
 62
     0
100
AcDbLine
 10
0.0
 20
0.0
 30
0.0
 11
-1.0
 21
0.0
 31
0.0
  0
ENDBLK
  5
60D
330
608
100
AcDbEntity
  8
0
100
AcDbBlockEnd
  0
BLOCK
  5
89E
330
89D
100
AcDbEntity
  8
0
100
AcDbBlockBegin
  2
SUN
 70
     0
 10
0.0
 20
0.0
 30
0.0
  3
SUN
  1
SUN
  0
LINE
  5
89F
330
89D
100
AcDbEntity
  8
0
100
AcDbLine
 10
-0.0000000000000568
 20
0.0
 30
0.0
 11
-1.500000000000057
 21
0.0
 31
0.0
  0
LINE
  5
8A0
330
89D
100
AcDbEntity
  8
0
100
AcDbLine
 10
-0.0000000000000568
 20
0.0000000000000284
 30
0.0
 11
-1.500000000000057
 21
0.401923788646684
 31
0.0
  0
LINE
  5
8A1
330
89D
100
AcDbEntity
  8
0
100
AcDbLine
 10
-0.0000000000000568
 20
0.0000000000000284
 30
0.0
 11
-1.500000000000057
 21
-0.4019237886466556
 31
0.0
  0
ENDBLK
  5
8A2
330
89D
100
AcDbEntity
  8
0
100
AcDbBlockEnd
  0
BLOCK
  5
1F20
330
1F1F
100
AcDbEntity
  8
0
100
AcDbBlockBegin
  2
_OPEN30
 70
     0
 10
0.0
 20
0.0
 30
0.0
  3
_OPEN30
  1
_OPEN30
  0
LINE
  5
1F21
330
1F1F
100
AcDbEntity
  8
0
  6
ByBlock
 62
     0
100
AcDbLine
 10
-1.0
 20
0.26794919
 30
0.0
 11
0.0
 21
0.0
 31
0.0
  0
LINE
  5
1F22
330
1F1F
100
AcDbEntity
  8
0
  6
ByBlock
 62
     0
100
AcDbLine
 10
0.0
 20
0.0
 30
0.0
 11
-1.0
 21
-0.26794919
 31
0.0
  0
LINE
  5
1F23
330
1F1F
100
AcDbEntity
  8
0
  6
ByBlock
 62
     0
100
AcDbLine
 10
0.0
 20
0.0
 30
0.0
 11
-1.0
 21
0.0
 31
0.0
  0
ENDBLK
  5
1F24
330
1F1F
100
AcDbEntity
  8
0
100
AcDbBlockEnd
  0
ENDSEC
  0
SECTION
  2
ENTITIES
  0
MTEXT
  5
D0CC6
330
18
100
AcDbEntity
  8
寸法線
100
AcDbMText
 10
2610.774875364868
 20
-2740.315466585338
 30
0.0
 40
2.500000000000003
 41
0.0
 71
     9
 72
     1
  1
\A1;
 73
     1
 44
1.0
  0
MTEXT
  5
F6D77
330
18
100
AcDbEntity
  8
文字
100
AcDbMText
 10
5821.057140836062
 20
-2842.341718131323
 30
0.0
 40
2.5
 41
64.39156592258223
 71
     1
 72
     5
  1
   
 73
     1
 44
1.0
  0
MTEXT
  5
F6D78
330
18
100
AcDbEntity
  8
寸法線
100
AcDbMText
 10
6222.662262480188
 20
-2968.738290481128
 30
0.0
 40
3.000000000000001
 41
0.0
 71
     7
 72
     1
  1
\A1;
 73
     1
 44
1.0
  0
HATCH
  5
12941D
330
18
100
AcDbEntity
  8
ﾊｯﾁﾝｸﾞ
100
AcDbHatch
 10
0.0
 20
0.0
 30
0.0
210
0.0
220
0.0
230
1.0
  2
SOLID
 70
     1
 71
     0
 91
        0
 75
     0
 76
     1
 98
        1
 10
10602.2827593126
 20
-4219.525363910313
1001
ACAD
1010
0.0
1020
0.0
1030
0.0
  0
TEXT
  5
12CC18
330
18
100
AcDbEntity
  8
文字
100
AcDbText
 10
10348.44667125733
 20
-4483.053008576631
 30
0.0
 40
6.5
  1
SL-B1652D/WC,NC
100
AcDbText
  0
SPLINE
  5
12D797
330
18
100
AcDbEntity
  8
姿図
100
AcDbSpline
210
0.0
220
0.0
230
1.0
 70
     8
 71
     3
 72
     8
 73
     4
 74
     0
 42
0.000000001
 43
0.0000000001
 40
35.0
 40
35.0
 40
35.0
 40
35.0
 40
36.0
 40
36.0
 40
36.0
 40
36.0
 10
10413.30420863144
 20
-4423.080467538923
 30
0.0
 10
10413.54347051295
 20
-4424.181864565832
 30
0.0
 10
10414.26866311278
 20
-4426.74587688137
 30
0.0
 10
10411.96372197779
 20
-4429.258040509843
 30
0.0
  0
SPLINE
  5
12D798
330
18
100
AcDbEntity
  8
姿図
100
AcDbSpline
210
0.0
220
0.0
230
1.0
 70
     8
 71
     3
 72
     8
 73
     4
 74
     0
 42
0.000000001
 43
0.0000000001
 40
0.3748330610719267
 40
0.3748330610719267
 40
0.3748330610719267
 40
0.3748330610719267
 40
0.9335741083362055
 40
0.9335741083362055
 40
0.9335741083362055
 40
0.9335741083362055
 10
10406.8760885151
 20
-4430.794064471113
 30
0.0
 10
10406.22238020868
 20
-4427.962177577333
 30
0.0
 10
10403.75130396821
 20
-4425.073325469861
 30
0.0
 10
10402.54350606958
 20
-4423.726631651803
 30
0.0
  0
LINE
  5
12D799
330
18
100
AcDbEntity
  8
姿図
100
AcDbLine
 10
10407.66769573513
 20
-4427.814461566918
 30
0.0
 11
10406.2505420844
 21
-4429.013332294689
 31
0.0
  0
LINE
  5
12D79A
330
18
100
AcDbEntity
  8
姿図
100
AcDbLine
 10
10407.88881293039
 20
-4428.363220441599
 30
0.0
 11
10406.49796827165
 21
-4429.592564922036
 31
0.0
  0
LINE
  5
12D79B
330
18
100
AcDbEntity
  8
姿図
100
AcDbLine
 10
10408.08319546895
 20
-4428.91939538277
 30
0.0
 11
10406.68646412888
 21
-4430.115918137845
 31
0.0
  0
SPLINE
  5
12D79C
330
18
100
AcDbEntity
  8
姿図
100
AcDbSpline
210
0.0
220
0.0
230
1.0
 70
     8
 71
     3
 72
     8
 73
     4
 74
     0
 42
0.000000001
 43
0.0000000001
 40
0.0
 40
0.0
 40
0.0
 40
0.0
 40
1.0
 40
1.0
 40
1.0
 40
1.0
 10
10399.86732882922
 20
-4432.972271916155
 30
0.0
 10
10399.4761908965
 20
-4428.71254656104
 30
0.0
 10
10400.01451438416
 20
-4427.819187881158
 30
0.0
 10
10400.41995954534
 20
-4427.054769110202
 30
0.0
  0
SPLINE
  5
12D79D
330
18
100
AcDbEntity
  8
姿図
100
AcDbSpline
210
0.0
220
0.0
230
1.0
 70
     8
 71
     3
 72
     8
 73
     4
 74
     0
 42
0.000000001
 43
0.0000000001
 40
0.0
 40
0.0
 40
0.0
 40
0.0
 40
1.0
 40
1.0
 40
1.0
 40
1.0
 10
10401.92781431721
 20
-4424.767530798472
 30
0.0
 10
10403.86809209498
 20
-4426.384314110103
 30
0.0
 10
10405.77167960583
 20
-4430.419382198211
 30
0.0
 10
10405.69137070523
 20
-4431.989176425224
 30
0.0
  0
SPLINE
  5
12D79E
330
18
100
AcDbEntity
  8
姿図
100
AcDbSpline
210
0.0
220
0.0
230
1.0
 70
     8
 71
     3
 72
     8
 73
     4
 74
     0
 42
0.000000001
 43
0.0000000001
 40
5.0
 40
5.0
 40
5.0
 40
5.0
 40
6.0
 40
6.0
 40
6.0
 40
6.0
 10
10373.71911409477
 20
-4429.648714337967
 30
0.0
 10
10374.59339320175
 20
-4428.098593623992
 30
0.0
 10
10375.86179123235
 20
-4426.748116193437
 30
0.0
 10
10376.27563332762
 20
-4426.282339283714
 30
0.0
  0
SPLINE
  5
12D79F
330
18
100
AcDbEntity
  8
姿図
100
AcDbSpline
210
0.0
220
0.0
230
1.0
 70
     8
 71
     3
 72
     8
 73
     4
 74
     0
 42
0.000000001
 43
0.0000000001
 40
0.0
 40
0.0
 40
0.0
 40
0.0
 40
1.0
 40
1.0
 40
1.0
 40
1.0
 10
10378.57833515054
 20
-4427.325169687359
 30
0.0
 10
10382.50298792832
 20
-4426.884197465138
 30
0.0
 10
10386.91271015054
 20
-4428.868572465138
 30
0.0
 10
10389.11757126165
 20
-4430.235586354027
 30
0.0
  0
SPLINE
  5
12D7A0
330
18
100
AcDbEntity
  8
姿図
100
AcDbSpline
210
0.0
220
0.0
230
1.0
 70
     8
 71
     3
 72
     8
 73
     4
 74
     0
 42
0.000000001
 43
0.0000000001
 40
0.0
 40
0.0
 40
0.0
 40
0.0
 40
1.0
 40
1.0
 40
1.0
 40
1.0
 10
10389.20576570609
 20
-4429.596176631805
 30
0.0
 10
10389.10060416638
 20
-4429.596176631805
 30
0.0
 10
10379.51643465141
 20
-4423.768883744435
 30
0.0
 10
10374.44792404485
 20
-4428.596754431284
 30
0.0
  0
SPLINE
  5
12D7A1
330
18
100
AcDbEntity
  8
姿図
100
AcDbSpline
210
0.0
220
0.0
230
1.0
 70
     8
 71
     3
 72
     8
 73
     4
 74
     0
 42
0.000000001
 43
0.0000000001
 40
0.0
 40
0.0
 40
0.0
 40
0.0
 40
1.0
 40
1.0
 40
1.0
 40
1.0
 10
10408.37051420252
 20
-4433.692704259915
 30
0.0
 10
10409.54267004734
 20
-4428.653595457032
 30
0.0
 10
10405.38135028726
 20
-4423.844848099903
 30
0.0
 10
10403.73511140922
 20
-4422.080959211014
 30
0.0
  0
SPLINE
  5
12D7A2
330
18
100
AcDbEntity
  8
姿図
100
AcDbSpline
210
0.0
220
0.0
230
1.0
 70
     8
 71
     3
 72
     8
 73
     4
 74
     0
 42
0.000000001
 43
0.0000000001
 40
0.0
 40
0.0
 40
0.0
 40
0.0
 40
0.9750653310466453
 40
0.9750653310466453
 40
0.9750653310466453
 40
0.9750653310466453
 10
10402.92000181721
 20
-4437.511628020693
 30
0.0
 10
10401.88805767518
 20
-4431.577949204053
 30
0.0
 10
10401.40114555124
 20
-4428.662909256807
 30
0.0
 10
10400.31462151431
 20
-4427.253942984311
 30
0.0
  0
SPLINE
  5
12D7A3
330
18
100
AcDbEntity
  8
姿図
100
AcDbSpline
210
0.0
220
0.0
230
1.0
 70
     8
 71
     3
 72
     8
 73
     4
 74
     0
 42
0.000000001
 43
0.0000000001
 40
0.0
 40
0.0
 40
0.0
 40
0.0
 40
1.0
 40
1.0
 40
1.0
 40
1.0
 10
10378.57833515054
 20
-4427.325169687359
 30
0.0
 10
10376.16530414468
 20
-4427.325169687359
 30
0.0
 10
10372.40472403943
 20
-4429.309544687359
 30
0.0
 10
10374.21271015054
 20
-4434.909891909582
 30
0.0
  0
SPLINE
  5
12D7A4
330
18
100
AcDbEntity
  8
姿図
100
AcDbSpline
210
0.0
220
0.0
230
1.0
 70
     8
 71
     3
 72
     8
 73
     4
 74
     0
 42
0.000000001
 43
0.0000000001
 40
0.0
 40
0.0
 40
0.0
 40
0.0
 40
1.0
 40
1.0
 40
1.0
 40
1.0
 10
10373.97215635822
 20
-4435.722245425208
 30
0.0
 10
10374.58064634846
 20
-4434.254290238576
 30
0.0
 10
10375.77084071152
 20
-4431.874590531545
 30
0.0
 10
10378.62243237276
 20
-4427.435412742916
 30
0.0
  0
SPLINE
  5
12D7A5
330
18
100
AcDbEntity
  8
姿図
100
AcDbSpline
210
0.0
220
0.0
230
1.0
 70
    11
 71
     3
 72
    20
 73
    16
 74
     0
 42
0.000000001
 43
0.0000000001
 40
0.0
 40
0.0
 40
0.0
 40
0.0
 40
1.0
 40
1.0
 40
1.0
 40
2.0
 40
2.0
 40
2.0
 40
3.0
 40
3.0
 40
3.0
 40
4.0
 40
4.0
 40
4.0
 40
5.0
 40
5.0
 40
5.0
 40
5.0
 10
10371.55309643526
 20
-4450.746134585364
 30
0.0
 10
10373.50103955049
 20
-4448.589332556284
 30
0.0
 10
10379.62064878986
 20
-4447.014579409582
 30
0.0
 10
10386.86861292832
 20
-4447.014579409582
 30
0.0
 10
10395.68478453205
 20
-4447.014579409582
 30
0.0
 10
10402.83180737276
 20
-4449.34449748684
 30
0.0
 10
10402.83180737276
 20
-4452.218051631804
 30
0.0
 10
10402.83180737276
 20
-4455.09160577677
 30
0.0
 10
10395.68478453205
 20
-4457.421523854027
 30
0.0
 10
10386.86861292832
 20
-4457.421523854027
 30
0.0
 10
10378.0523551972
 20
-4457.421523854027
 30
0.0
 10
10370.90541848387
 20
-4455.09160577677
 30
0.0
 10
10370.90541848387
 20
-4452.218051631804
 30
0.0
 10
10370.90541848387
 20
-4451.706799461665
 30
0.0
 10
10371.13158900254
 20
-4451.212772768957
 30
0.0
 10
10371.55309643526
 20
-4450.746134585364
 30
0.0
  0
ELLIPSE
  5
12D7A6
330
18
100
AcDbEntity
  8
姿図
100
AcDbEllipse
 10
10386.84656431721
 20
-4452.218051631804
 30
0.0
 11
17.21996527777777
 21
0.0
 31
0.0
210
0.0
220
0.0
230
1.0
 40
0.3329065300896287
 41
0.0
 42
6.283185307179586
  0
ELLIPSE
  5
12D7A7
330
18
100
AcDbEntity
  8
姿図
100
AcDbEllipse
 10
10386.84656431721
 20
-4451.328345250826
 30
0.0
 11
17.21996527777777
 21
0.0
 31
0.0
210
0.0
220
0.0
230
1.0
 40
0.3329065300896287
 41
0.0
 42
3.141592653589793
  0
SPLINE
  5
12D7A8
330
18
100
AcDbEntity
  8
姿図
100
AcDbSpline
210
0.0
220
0.0
230
1.0
 70
     8
 71
     3
 72
    17
 73
    13
 74
     0
 42
0.000000001
 43
0.0000000001
 40
0.0
 40
0.0
 40
0.0
 40
0.0
 40
1.0
 40
1.0
 40
1.0
 40
2.0
 40
2.0
 40
2.0
 40
3.0
 40
3.0
 40
3.0
 40
4.0
 40
4.0
 40
4.0
 40
4.0
 10
10370.81118537846
 20
-4442.245777661298
 30
0.0
 10
10370.78512196724
 20
-4442.116838670649
 30
0.0
 10
10370.77188055603
 20
-4441.986701362241
 30
0.0
 10
10370.77188055603
 20
-4441.855485567852
 30
0.0
 10
10370.77188055603
 20
-4438.789110259539
 30
0.0
 10
10378.00995947169
 20
-4436.302960409149
 30
0.0
 10
10386.93862507888
 20
-4436.302960409149
 30
0.0
 10
10395.86729068608
 20
-4436.302960409149
 30
0.0
 10
10403.10536960174
 20
-4438.789110259539
 30
0.0
 10
10403.10536960174
 20
-4441.855485567852
 30
0.0
 10
10403.10536960174
 20
-4441.986341866914
 30
0.0
 10
10403.09218810641
 20
-4442.116119679994
 30
0.0
 10
10403.06630444286
 20
-4442.244699175317
 30
0.0
  0
SPLINE
  5
12D7A9
330
18
100
AcDbEntity
  8
姿図
100
AcDbSpline
210
0.0
220
0.0
230
1.0
 70
     8
 71
     3
 72
    17
 73
    13
 74
     0
 42
0.000000001
 43
0.0000000001
 40
0.0
 40
0.0
 40
0.0
 40
0.0
 40
1.0
 40
1.0
 40
1.0
 40
2.0
 40
2.0
 40
2.0
 40
3.0
 40
3.0
 40
3.0
 40
4.0
 40
4.0
 40
4.0
 40
4.0
 10
10371.3524055934
 20
-4444.07153459582
 30
0.0
 10
10370.97403676163
 20
-4443.600356053779
 30
0.0
 10
10370.77188055603
 20
-4443.104132670616
 30
0.0
 10
10370.77188055603
 20
-4442.591731997736
 30
0.0
 10
10370.77188055603
 20
-4439.525356689421
 30
0.0
 10
10378.00995947169
 20
-4437.039206839032
 30
0.0
 10
10386.93862507888
 20
-4437.039206839032
 30
0.0
 10
10395.86729068608
 20
-4437.039206839032
 30
0.0
 10
10403.10536960174
 20
-4439.525356689421
 30
0.0
 10
10403.10536960174
 20
-4442.591731997736
 30
0.0
 10
10403.10536960174
 20
-4443.115157193981
 30
0.0
 10
10402.89446567651
 20
-4443.621686109853
 30
0.0
 10
10402.50009930269
 20
-4444.101852035072
 30
0.0
  0
SPLINE
  5
12D7AA
330
18
100
AcDbEntity
  8
姿図
100
AcDbSpline
210
0.0
220
0.0
230
1.0
 70
     8
 71
     3
 72
    11
 73
     7
 74
     0
 42
0.000000001
 43
0.0000000001
 40
0.0
 40
0.0
 40
0.0
 40
0.0
 40
1.0
 40
1.0
 40
1.0
 40
2.0
 40
2.0
 40
2.0
 40
2.0
 10
10371.68493877096
 20
-4442.683762801471
 30
0.0
 10
10371.68493877096
 20
-4439.769693680068
 30
0.0
 10
10378.52631459317
 20
-4437.407330053974
 30
0.0
 10
10386.96570706019
 20
-4437.407330053974
 30
0.0
 10
10395.40497969544
 20
-4437.407330053974
 30
0.0
 10
10402.24641543354
 20
-4439.769693680068
 30
0.0
 10
10402.24641543354
 20
-4442.683762801471
 30
0.0
  0
SPLINE
  5
12D7AB
330
18
100
AcDbEntity
  8
姿図
100
AcDbSpline
210
0.0
220
0.0
230
1.0
 70
     8
 71
     3
 72
     8
 73
     4
 74
     0
 42
0.000000001
 43
0.0000000001
 40
3.0
 40
3.0
 40
3.0
 40
3.0
 40
4.0
 40
4.0
 40
4.0
 40
4.0
 10
10372.59592683891
 20
-4439.293086896561
 30
0.0
 10
10372.59592683891
 20
-4439.293086896561
 30
0.0
 10
10373.65598271998
 20
-4436.150126284582
 30
0.0
 10
10373.97215635822
 20
-4435.722245425208
 30
0.0
  0
SPLINE
  5
12D7AC
330
18
100
AcDbEntity
  8
姿図
100
AcDbSpline
210
0.0
220
0.0
230
1.0
 70
     8
 71
     3
 72
     8
 73
     4
 74
     0
 42
0.000000001
 43
0.0000000001
 40
3.0
 40
3.0
 40
3.0
 40
3.0
 40
4.0
 40
4.0
 40
4.0
 40
4.0
 10
10372.59592683891
 20
-4439.293086896561
 30
0.0
 10
10372.59592683891
 20
-4439.293086896561
 30
0.0
 10
10373.65598271998
 20
-4436.150126284582
 30
0.0
 10
10373.97215635822
 20
-4435.722245425208
 30
0.0
  0
SPLINE
  5
12D7AD
330
18
100
AcDbEntity
  8
姿図
100
AcDbSpline
210
0.0
220
0.0
230
1.0
 70
     8
 71
     3
 72
     8
 73
     4
 74
     0
 42
0.000000001
 43
0.0000000001
 40
0.0
 40
0.0
 40
0.0
 40
0.0
 40
1.0
 40
1.0
 40
1.0
 40
1.0
 10
10371.70572958404
 20
-4442.419533736059
 30
0.0
 10
10371.16211273359
 20
-4445.176623231299
 30
0.0
 10
10370.73491245323
 20
-4448.011483548967
 30
0.0
 10
10370.57961047192
 20
-4449.526037362003
 30
0.0
  0
LINE
  5
12D7AE
330
18
100
AcDbEntity
  8
姿図
100
AcDbLine
 10
10369.62659903943
 20
-4451.328345250826
 30
0.0
 11
10369.62659903943
 21
-4452.218051631804
 31
0.0
  0
SPLINE
  5
12D7AF
330
18
100
AcDbEntity
  8
姿図
100
AcDbSpline
210
0.0
220
0.0
230
1.0
 70
     8
 71
     3
 72
     8
 73
     4
 74
     0
 42
0.000000001
 43
0.0000000001
 40
4.0
 40
4.0
 40
4.0
 40
4.0
 40
5.0
 40
5.0
 40
5.0
 40
5.0
 10
10373.97215635822
 20
-4435.722245425208
 30
0.0
 10
10373.525844238
 20
-4434.476154387881
 30
0.0
 10
10372.54209722194
 20
-4431.82360311835
 30
0.0
 10
10373.71911409477
 20
-4429.648714337967
 30
0.0
  0
ARC
  5
12D7B0
330
18
100
AcDbEntity
  8
姿図
100
AcDbCircle
 10
10361.13155906717
 20
-4474.184089296124
 30
0.0
 40
52.69006580149599
100
AcDbArc
 50
53.65151172586533
 51
57.80395715111857
  0
LINE
  5
12D7B1
330
18
100
AcDbEntity
  8
姿図
100
AcDbLine
 10
10408.25065350844
 20
-4429.489983368362
 30
0.0
 11
10406.8767369508
 21
-4430.778362207604
 31
0.0
  0
LINE
  5
12D7B2
330
18
100
AcDbEntity
  8
姿図
100
AcDbLine
 10
10408.36375025657
 20
-4429.960797758753
 30
0.0
 11
10406.98236028255
 21
-4431.312779984665
 31
0.0
  0
LINE
  5
12D7B3
330
18
100
AcDbEntity
  8
姿図
100
AcDbLine
 10
10399.86732882922
 20
-4432.972271916155
 30
0.0
 11
10398.12877667063
 21
-4430.97657815365
 31
0.0
  0
LINE
  5
12D7B4
330
18
100
AcDbEntity
  8
姿図
100
AcDbLine
 10
10394.43783222085
 20
-4433.195612395693
 30
0.0
 11
10392.36069802489
 21
-4431.746088469912
 31
0.0
  0
ARC
  5
12D7B5
330
18
100
AcDbEntity
  8
姿図
100
AcDbCircle
 10
10378.76056816944
 20
-4450.214331102888
 30
0.0
 40
22.50372757549571
100
AcDbArc
 50
52.7038768208471
 51
62.59772724790999
  0
LINE
  5
12D7B6
330
18
100
AcDbEntity
  8
姿図
100
AcDbLine
 10
10398.12877667063
 20
-4430.97657815365
 30
0.0
 11
10396.70531184322
 21
-4432.950454992973
 31
0.0
  0
LINE
  5
12D7B7
330
18
100
AcDbEntity
  8
姿図
100
AcDbLine
 10
10396.83663143765
 20
-4433.276513554581
 30
0.0
 11
10397.62758953343
 21
-4431.671559626489
 31
0.0
  0
LINE
  5
12D7B8
330
18
100
AcDbEntity
  8
姿図
100
AcDbLine
 10
10408.46581250752
 20
-4430.507959754004
 30
0.0
 11
10407.07970537127
 21
-4431.85020967902
 31
0.0
  0
LINE
  5
12D7B9
330
18
100
AcDbEntity
  8
姿図
100
AcDbLine
 10
10408.52491645985
 20
-4430.953807745069
 30
0.0
 11
10407.15352172487
 21
-4432.412628107999
 31
0.0
  0
LINE
  5
12D7BA
330
18
100
AcDbEntity
  8
姿図
100
AcDbLine
 10
10408.56746990344
 20
-4431.513389179805
 30
0.0
 11
10407.18418466833
 21
-4432.990826569727
 31
0.0
  0
ELLIPSE
  5
12D7BB
330
18
100
AcDbEntity
  8
姿図
100
AcDbEllipse
 10
10398.27003762058
 20
-4435.821356502622
 30
0.0
 11
0.2545226915807617
 21
-1.398316990610126
 31
0.0
210
0.0
220
0.0
230
1.0
 40
0.9496934526805805
 41
0.0
 42
6.283185307179586
  0
SPLINE
  5
12D7BC
330
18
100
AcDbEntity
  8
姿図
100
AcDbSpline
210
0.0
220
0.0
230
1.0
 70
     8
 71
     3
 72
     8
 73
     4
 74
     0
 42
0.000000001
 43
0.0000000001
 40
0.0
 40
0.0
 40
0.0
 40
0.0
 40
1.0
 40
1.0
 40
1.0
 40
1.0
 10
10402.98807496307
 20
-4437.656786942853
 30
0.0
 10
10402.24579663057
 20
-4436.637607295866
 30
0.0
 10
10401.2272541501
 20
-4436.033854311926
 30
0.0
 10
10399.61271015054
 20
-4435.725690520694
 30
0.0
  0
SPLINE
  5
12D7BD
330
18
100
AcDbEntity
  8
姿図
100
AcDbSpline
210
0.0
220
0.0
230
1.0
 70
     8
 71
     3
 72
     8
 73
     4
 74
     0
 42
0.000000001
 43
0.0000000001
 40
0.0
 40
0.0
 40
0.0
 40
0.0
 40
1.0
 40
1.0
 40
1.0
 40
1.0
 10
10402.95307473387
 20
-4437.602923051076
 30
0.0
 10
10402.24579663057
 20
-4436.637607295866
 30
0.0
 10
10401.2272541501
 20
-4436.033854311926
 30
0.0
 10
10399.61271015054
 20
-4435.725690520694
 30
0.0
  0
SPLINE
  5
12D7BE
330
18
100
AcDbEntity
  8
姿図
100
AcDbSpline
210
0.0
220
0.0
230
1.0
 70
     8
 71
     3
 72
     8
 73
     4
 74
     0
 42
0.000000001
 43
0.0000000001
 40
37.0
 40
37.0
 40
37.0
 40
37.0
 40
38.0
 40
38.0
 40
38.0
 40
38.0
 10
10407.32800149169
 20
-4434.748661440832
 30
0.0
 10
10405.78408043484
 20
-4436.204646728319
 30
0.0
 10
10404.21547424708
 20
-4436.122584967422
 30
0.0
 10
10402.82440041747
 20
-4435.865389142655
 30
0.0
  0
SPLINE
  5
12D7BF
330
18
100
AcDbEntity
  8
姿図
100
AcDbSpline
210
0.0
220
0.0
230
1.0
 70
     8
 71
     3
 72
     8
 73
     4
 74
     0
 42
0.000000001
 43
0.0000000001
 40
0.0
 40
0.0
 40
0.0
 40
0.0
 40
1.0
 40
1.0
 40
1.0
 40
1.0
 10
10402.18506156439
 20
-4442.244100016438
 30
0.0
 10
10402.91783287277
 20
-4445.963318838751
 30
0.0
 10
10403.09889868585
 20
-4447.389197137772
 30
0.0
 10
10403.31183975127
 20
-4449.70686351153
 30
0.0
  0
LINE
  5
12D7C0
330
18
100
AcDbEntity
  8
姿図
100
AcDbLine
 10
10404.06652959498
 20
-4451.328345250826
 30
0.0
 11
10404.06652959498
 21
-4452.218051631804
 31
0.0
  0
SPLINE
  5
12D7C1
330
18
100
AcDbEntity
  8
姿図
100
AcDbSpline
210
0.0
220
0.0
230
1.0
 70
     8
 71
     3
 72
     8
 73
     4
 74
     0
 42
0.000000001
 43
0.0000000001
 40
0.0
 40
0.0
 40
0.0
 40
0.0
 40
0.9026172482154069
 40
0.9026172482154069
 40
0.9026172482154069
 40
0.9026172482154069
 10
10403.27277959498
 20
-4442.199369448645
 30
0.0
 10
10403.27277959498
 20
-4440.021403782343
 30
0.0
 10
10403.27404264641
 20
-4437.994021913935
 30
0.0
 10
10402.96520787992
 20
-4437.62563931622
 30
0.0
  0
SPLINE
  5
12D7C2
330
18
100
AcDbEntity
  8
姿図
100
AcDbSpline
210
0.0
220
0.0
230
1.0
 70
     8
 71
     3
 72
     8
 73
     4
 74
     0
 42
0.000000001
 43
0.0000000001
 40
36.0
 40
36.0
 40
36.0
 40
36.0
 40
37.0
 40
37.0
 40
37.0
 40
37.0
 10
10411.96372197779
 20
-4429.258040509843
 30
0.0
 10
10409.71062952988
 20
-4432.210659596214
 30
0.0
 10
10408.00134540445
 20
-4434.20485311835
 30
0.0
 10
10407.32800149169
 20
-4434.748661440832
 30
0.0
  0
SPLINE
  5
12D7C3
330
18
100
AcDbEntity
  8
姿図
100
AcDbSpline
210
0.0
220
0.0
230
1.0
 70
     8
 71
     3
 72
     8
 73
     4
 74
     0
 42
0.000000001
 43
0.0000000001
 40
0.0
 40
0.0
 40
0.0
 40
0.0
 40
0.9159467568045536
 40
0.9159467568045536
 40
0.9159467568045536
 40
0.9159467568045536
 10
10394.372461534
 20
-4433.698251827117
 30
0.0
 10
10395.43121873664
 20
-4434.440115528307
 30
0.0
 10
10396.64077692481
 20
-4433.726428174235
 30
0.0
 10
10396.83663143765
 20
-4433.276513554581
 30
0.0
  0
LINE
  5
12D7C4
330
18
100
AcDbEntity
  8
姿図
100
AcDbLine
 10
10394.372461534
 20
-4433.698251827117
 30
0.0
 11
10392.39635476317
 21
-4432.312289913054
 31
0.0
  0
SPLINE
  5
12D7C5
330
18
100
AcDbEntity
  8
姿図
100
AcDbSpline
210
0.0
220
0.0
230
1.0
 70
     8
 71
     3
 72
     8
 73
     4
 74
     0
 42
0.000000001
 43
0.0000000001
 40
0.1333202216321579
 40
0.1333202216321579
 40
0.1333202216321579
 40
0.1333202216321579
 40
1.0
 40
1.0
 40
1.0
 40
1.0
 10
10396.78368537672
 20
-4432.841776717529
 30
0.0
 10
10396.51479186172
 20
-4433.291048453197
 30
0.0
 10
10395.43956630659
 20
-4433.897572704357
 30
0.0
 10
10394.43783222085
 20
-4433.195612395693
 30
0.0
  0
LINE
  5
12D7C6
330
18
100
AcDbEntity
  8
姿図
100
AcDbLine
 10
10398.015514929
 20
-4434.423039512012
 30
0.0
 11
10397.1088307778
 21
-4432.724186696139
 31
0.0
  0
LINE
  5
12D7C7
330
18
100
AcDbEntity
  8
姿図
100
AcDbLine
 10
10399.86732882922
 20
-4432.972271916155
 30
0.0
 11
10399.74544159509
 21
-4433.557550454974
 31
0.0
  0
LINE
  5
12D7C8
330
18
100
AcDbEntity
  8
姿図
100
AcDbLine
 10
10408.55446988858
 20
-4431.994082710846
 30
0.0
 11
10407.14437762335
 21
-4433.655331285339
 31
0.0
  0
LINE
  5
12D7C9
330
18
100
AcDbEntity
  8
姿図
100
AcDbLine
 10
10408.54979525849
 20
-4432.53660195643
 30
0.0
 11
10407.00103943397
 21
-4434.361211926407
 31
0.0
  0
LINE
  5
12D7CA
330
18
100
AcDbEntity
  8
姿図
100
AcDbLine
 10
10408.4883083879
 20
-4433.074418501283
 30
0.0
 11
10406.55010131707
 21
-4435.357846198116
 31
0.0
  0
SPLINE
  5
12D7CB
330
18
100
AcDbEntity
  8
姿図
100
AcDbSpline
210
0.0
220
0.0
230
1.0
 70
     8
 71
     3
 72
     8
 73
     4
 74
     0
 42
0.000000001
 43
0.0000000001
 40
0.0
 40
0.0
 40
0.0
 40
0.0
 40
1.0
 40
1.0
 40
1.0
 40
1.0
 10
10402.48557130936
 20
-4435.023246058319
 30
0.0
 10
10403.85176588877
 20
-4435.276424285861
 30
0.0
 10
10406.18312805641
 20
-4434.962799441988
 30
0.0
 10
10405.69137070523
 20
-4431.989176425224
 30
0.0
  0
LINE
  5
12D7CC
330
18
100
AcDbEntity
  8
姿図
100
AcDbLine
 10
10399.74544159509
 20
-4433.557550454974
 30
0.0
 11
10397.83346058773
 21
-4431.386084286216
 31
0.0
  0
SPLINE
  5
12D7CD
330
18
100
AcDbEntity
  8
姿図
100
AcDbSpline
210
0.0
220
0.0
230
1.0
 70
     8
 71
     3
 72
    12
 73
     8
 74
     6
 42
0.000000001
 43
0.0000000001
 44
0.0000000001
 40
0.0
 40
0.0
 40
0.0
 40
0.0
 40
2.34447205621724
 40
3.485069501827715
 40
4.152524498740895
 40
4.565337826234214
 40
5.186795096788576
 40
5.186795096788576
 40
5.186795096788576
 40
5.186795096788576
 10
10406.8760885151
 20
-4430.794064471113
 30
0.0
 10
10407.03728520804
 20
-4431.56636225623
 30
0.0
 10
10407.27690490276
 20
-4432.714386797659
 30
0.0
 10
10407.09786151697
 20
-4434.101688980188
 30
0.0
 10
10406.86040559267
 20
-4434.809812318614
 30
0.0
 10
10406.5328159167
 20
-4435.282291627243
 30
0.0
 10
10406.25392456757
 20
-4435.489240123784
 30
0.0
 10
10406.0863484449
 20
-4435.613588285713
 30
0.0
 11
10406.8760885151
 21
-4430.794064471113
 31
0.0
 11
10407.18323605419
 21
-4433.118329862933
 31
0.0
 11
10407.03155197776
 21
-4434.248796348014
 31
0.0
 11
10406.79788487769
 21
-4434.874012997863
 31
0.0
 11
10406.56026961421
 21
-4435.211583479271
 31
0.0
 11
10406.0863484449
 21
-4435.613588285713
 31
0.0
  0
SPLINE
  5
12D7CE
330
18
100
AcDbEntity
  8
姿図
100
AcDbSpline
210
0.0
220
0.0
230
1.0
 70
     8
 71
     3
 72
     8
 73
     4
 74
     0
 42
0.000000001
 43
0.0000000001
 40
7.0
 40
7.0
 40
7.0
 40
7.0
 40
8.0
 40
8.0
 40
8.0
 40
8.0
 10
10382.29843538383
 20
-4418.926113019608
 30
0.0
 10
10384.76943012124
 20
-4415.800291757672
 30
0.0
 10
10387.15757031221
 20
-4412.535977657195
 30
0.0
 10
10388.90819558348
 20
-4412.414451913923
 30
0.0
  0
SPLINE
  5
12D7CF
330
18
100
AcDbEntity
  8
姿図
100
AcDbSpline
210
0.0
220
0.0
230
1.0
 70
     8
 71
     3
 72
     8
 73
     4
 74
     0
 42
0.000000001
 43
0.0000000001
 40
6.0
 40
6.0
 40
6.0
 40
6.0
 40
7.0
 40
7.0
 40
7.0
 40
7.0
 10
10376.27563332762
 20
-4426.282339283714
 30
0.0
 10
10377.77941750731
 20
-4424.339477684322
 30
0.0
 10
10380.03225157307
 20
-4421.792776973602
 30
0.0
 10
10382.29843538383
 20
-4418.926113019608
 30
0.0
  0
SPLINE
  5
12D7D0
330
18
100
AcDbEntity
  8
姿図
100
AcDbSpline
210
0.0
220
0.0
230
1.0
 70
     8
 71
     3
 72
     8
 73
     4
 74
     0
 42
0.000000001
 43
0.0000000001
 40
0.0
 40
0.0
 40
0.0
 40
0.0
 40
1.0
 40
1.0
 40
1.0
 40
1.0
 10
10412.59865307589
 20
-4428.434662688662
 30
0.0
 10
10414.26332321477
 20
-4424.598204355329
 30
0.0
 10
10411.24266349255
 20
-4419.240391855328
 30
0.0
 10
10408.80629196477
 20
-4417.388308521995
 30
0.0
  0
ELLIPSE
  5
12D7D1
330
18
100
AcDbEntity
  8
姿図
100
AcDbEllipse
 10
10412.85470979789
 20
-4406.879173932694
 30
0.0
 11
-1.159877522786458
 21
0.9731964111328124
 31
0.0
210
0.0
220
0.0
230
1.0
 40
0.7351229721554959
 41
0.0
 42
6.283185307179586
  0
LINE
  5
12D7D2
330
18
100
AcDbEntity
  8
姿図
100
AcDbLine
 10
10411.87173792832
 20
-4402.785065520693
 30
0.0
 11
10408.16757126165
 21
-4408.635268293046
 31
0.0
  0
ELLIPSE
  5
12D7D3
330
18
100
AcDbEntity
  8
姿図
100
AcDbEllipse
 10
10410.68042390922
 20
-4410.274875362273
 30
0.0
 11
-1.128268771701389
 21
0.9467983669704861
 31
0.0
210
0.0
220
0.0
230
1.0
 40
0.7417511887598578
 41
0.0
 42
6.283185307179586
  0
SPLINE
  5
12D7D4
330
18
100
AcDbEntity
  8
姿図
100
AcDbSpline
210
0.0
220
0.0
230
1.0
 70
     8
 71
     3
 72
     8
 73
     4
 74
     0
 42
0.000000001
 43
0.0000000001
 40
0.0
 40
0.0
 40
0.0
 40
0.0
 40
0.8940086046754551
 40
0.8940086046754551
 40
0.8940086046754551
 40
0.8940086046754551
 10
10412.81439677942
 20
-4412.958252448834
 30
0.0
 10
10412.28426607362
 20
-4413.83758371092
 30
0.0
 10
10410.99423462257
 20
-4413.651855977845
 30
0.0
 10
10410.13568349662
 20
-4413.350041010362
 30
0.0
  0
SPLINE
  5
12D7D5
330
18
100
AcDbEntity
  8
姿図
100
AcDbSpline
210
0.0
220
0.0
230
1.0
 70
     8
 71
     3
 72
     8
 73
     4
 74
     0
 42
0.000000001
 43
0.0000000001
 40
0.0
 40
0.0
 40
0.0
 40
0.0
 40
1.0
 40
1.0
 40
1.0
 40
1.0
 10
10413.07717683891
 20
-4412.574648854026
 30
0.0
 10
10412.54801017224
 20
-4413.750546070823
 30
0.0
 10
10410.86525328205
 20
-4413.316808549122
 30
0.0
 10
10410.32833515054
 20
-4412.943963090138
 30
0.0
  0
SPLINE
  5
12D7D6
330
18
100
AcDbEntity
  8
姿図
100
AcDbSpline
210
0.0
220
0.0
230
1.0
 70
     8
 71
     3
 72
     8
 73
     4
 74
     0
 42
0.000000001
 43
0.0000000001
 40
0.0
 40
0.0
 40
0.0
 40
0.0
 40
0.9866995420590119
 40
0.9866995420590119
 40
0.9866995420590119
 40
0.9866995420590119
 10
10413.30420863144
 20
-4423.080467538923
 30
0.0
 10
10412.8981653356
 20
-4421.398081785928
 30
0.0
 10
10411.57612764316
 20
-4418.742514875219
 30
0.0
 10
10409.16513429472
 20
-4416.370173277306
 30
0.0
  0
SPLINE
  5
12D7D7
330
18
100
AcDbEntity
  8
姿図
100
AcDbSpline
210
0.0
220
0.0
230
1.0
 70
     8
 71
     3
 72
     8
 73
     4
 74
     0
 42
0.000000001
 43
0.0000000001
 40
0.0
 40
0.0
 40
0.0
 40
0.0
 40
1.0
 40
1.0
 40
1.0
 40
1.0
 10
10411.49789780187
 20
-4406.183095792338
 30
0.0
 10
10411.90252426671
 20
-4405.779847365688
 30
0.0
 10
10412.68111584657
 20
-4405.845476434699
 30
0.0
 10
10413.27883991341
 20
-4406.34699621009
 30
0.0
  0
SPLINE
  5
12D7D8
330
18
100
AcDbEntity
  8
姿図
100
AcDbSpline
210
0.0
220
0.0
230
1.0
 70
     8
 71
     3
 72
     8
 73
     4
 74
     0
 42
0.000000001
 43
0.0000000001
 40
0.0
 40
0.0
 40
0.0
 40
0.0
 40
1.0
 40
1.0
 40
1.0
 40
1.0
 10
10411.66038132024
 20
-4402.575517587751
 30
0.0
 10
10412.04244240965
 20
-4401.958328731414
 30
0.0
 10
10412.45395906547
 20
-4402.526252722299
 30
0.0
 10
10412.45395906547
 20
-4402.428756520043
 30
0.0
  0
LINE
  5
12D7D9
330
18
100
AcDbEntity
  8
姿図
100
AcDbLine
 10
10409.04951570609
 20
-4413.530059959712
 30
0.0
 11
10400.41995954534
 21
-4427.054769110202
 31
0.0
  0
LINE
  5
12D7DA
330
18
100
AcDbEntity
  8
姿図
100
AcDbLine
 10
10405.79337458822
 20
-4424.565138590311
 30
0.0
 11
10404.43740893645
 21
-4426.028277063522
 31
0.0
  0
LINE
  5
12D7DB
330
18
100
AcDbEntity
  8
姿図
100
AcDbLine
 10
10405.07761186472
 20
-4423.625269564096
 30
0.0
 11
10403.7165223676
 21
-4425.097337190993
 31
0.0
  0
LINE
  5
12D7DC
330
18
100
AcDbEntity
  8
姿図
100
AcDbLine
 10
10405.48434243847
 20
-4424.121132727084
 30
0.0
 11
10404.08918117006
 21
-4425.567964135233
 31
0.0
  0
LINE
  5
12D7DD
330
18
100
AcDbEntity
  8
姿図
100
AcDbLine
 10
10400.41995954534
 20
-4427.054769110202
 30
0.0
 11
10396.96039760283
 21
-4426.307490909316
 31
0.0
  0
LINE
  5
12D7DE
330
18
100
AcDbEntity
  8
姿図
100
AcDbLine
 10
10396.96039760283
 20
-4426.307490909316
 30
0.0
 11
10399.96628872717
 21
-4428.114147780467
 31
0.0
  0
LINE
  5
12D7DF
330
18
100
AcDbEntity
  8
姿図
100
AcDbLine
 10
10406.14813571295
 20
-4425.073014680774
 30
0.0
 11
10404.76783990296
 21
-4426.487142072632
 31
0.0
  0
LINE
  5
12D7E0
330
18
100
AcDbEntity
  8
姿図
100
AcDbLine
 10
10406.53549149939
 20
-4425.668717434519
 30
0.0
 11
10405.1264352509
 21
-4427.015096567535
 31
0.0
  0
LINE
  5
12D7E1
330
18
100
AcDbEntity
  8
姿図
100
AcDbLine
 10
10406.87313303073
 20
-4426.23229392229
 30
0.0
 11
10405.48115806695
 21
-4427.576674742922
 31
0.0
  0
LINE
  5
12D7E2
330
18
100
AcDbEntity
  8
姿図
100
AcDbLine
 10
10407.17069853376
 20
-4426.773584654858
 30
0.0
 11
10405.74543375384
 21
-4428.028539185349
 31
0.0
  0
LINE
  5
12D7E3
330
18
100
AcDbEntity
  8
姿図
100
AcDbLine
 10
10407.47000610227
 20
-4427.374816305424
 30
0.0
 11
10406.03365360266
 21
-4428.565987505295
 31
0.0
  0
SPLINE
  5
12D7E4
330
18
100
AcDbEntity
  8
姿図
100
AcDbSpline
210
0.0
220
0.0
230
1.0
 70
     8
 71
     3
 72
     8
 73
     4
 74
     0
 42
0.000000001
 43
0.0000000001
 40
0.0
 40
0.0
 40
0.0
 40
0.0
 40
1.0
 40
1.0
 40
1.0
 40
1.0
 10
10402.6995157061
 20
-4414.999996076249
 30
0.0
 10
10397.85347214056
 20
-4412.202061777203
 30
0.0
 10
10391.71939350015
 20
-4411.588662525902
 30
0.0
 10
10388.90819558348
 20
-4412.414451913923
 30
0.0
  0
SPLINE
  5
12D7E5
330
18
100
AcDbEntity
  8
姿図
100
AcDbSpline
210
0.0
220
0.0
230
1.0
 70
     8
 71
     3
 72
     8
 73
     4
 74
     0
 42
0.000000001
 43
0.0000000001
 40
0.0106763948050698
 40
0.0106763948050698
 40
0.0106763948050698
 40
0.0106763948050698
 40
1.0
 40
1.0
 40
1.0
 40
1.0
 10
10403.9008006236
 20
-4413.168036577059
 30
0.0
 10
10402.17361049028
 20
-4411.856853497213
 30
0.0
 10
10397.25383882386
 20
-4409.446610807076
 30
0.0
 10
10393.26202113144
 20
-4410.079193938662
 30
0.0
  0
SPLINE
  5
12D7E6
330
18
100
AcDbEntity
  8
姿図
100
AcDbSpline
210
0.0
220
0.0
230
1.0
 70
     8
 71
     3
 72
     8
 73
     4
 74
     0
 42
0.000000001
 43
0.0000000001
 40
0.0
 40
0.0
 40
0.0
 40
0.0
 40
0.9548759970193254
 40
0.9548759970193254
 40
0.9548759970193254
 40
0.9548759970193254
 10
10393.59275029811
 20
-4409.351589771995
 30
0.0
 10
10399.50883705256
 20
-4409.098945497784
 30
0.0
 10
10402.91196596087
 20
-4411.520088371859
 30
0.0
 10
10404.397228679
 20
-4412.410983792572
 30
0.0
  0
SPLINE
  5
12D7E7
330
18
100
AcDbEntity
  8
姿図
100
AcDbSpline
210
0.0
220
0.0
230
1.0
 70
     8
 71
     3
 72
     8
 73
     4
 74
     0
 42
0.000000001
 43
0.0000000001
 40
0.0
 40
0.0
 40
0.0
 40
0.0
 40
1.0
 40
1.0
 40
1.0
 40
1.0
 10
10389.16097946477
 20
-4412.173811994218
 30
0.0
 10
10389.800389187
 20
-4411.490305049773
 30
0.0
 10
10391.10125724255
 20
-4410.343777271995
 30
0.0
 10
10393.26202113144
 20
-4410.079193938662
 30
0.0
  0
SPLINE
  5
12D7E8
330
18
100
AcDbEntity
  8
姿図
100
AcDbSpline
210
0.0
220
0.0
230
1.0
 70
     8
 71
     3
 72
     8
 73
     4
 74
     0
 42
0.000000001
 43
0.0000000001
 40
0.0
 40
0.0
 40
0.0
 40
0.0
 40
1.0
 40
1.0
 40
1.0
 40
1.0
 10
10390.197264187
 20
-4410.894992549773
 30
0.0
 10
10390.92486835366
 20
-4410.321728660884
 30
0.0
 10
10391.80681279811
 20
-4409.792561994218
 30
0.0
 10
10393.59275029811
 20
-4409.351589771995
 30
0.0
  0
SPLINE
  5
12D7E9
330
18
100
AcDbEntity
  8
姿図
100
AcDbSpline
210
0.0
220
0.0
230
1.0
 70
     8
 71
     3
 72
     8
 73
     4
 74
     0
 42
0.000000001
 43
0.0000000001
 40
8.718707976915393
 40
8.718707976915393
 40
8.718707976915393
 40
8.718707976915393
 40
9.0
 40
9.0
 40
9.0
 40
9.0
 10
10388.99836085646
 20
-4412.388773164577
 30
0.0
 10
10389.29967155172
 20
-4411.964190276365
 30
0.0
 10
10389.5392574535
 20
-4411.645586224457
 30
0.0
 10
10390.197264187
 20
-4410.894992549773
 30
0.0
  0
LINE
  5
12D7EA
330
18
100
AcDbEntity
  8
姿図
100
AcDbLine
 10
10411.66038132024
 20
-4402.575517587751
 30
0.0
 11
10407.5095580238
 21
-4409.047215585797
 31
0.0
  0
SPLINE
  5
12D7EB
330
18
100
AcDbEntity
  8
姿図
100
AcDbSpline
210
0.0
220
0.0
230
1.0
 70
     8
 71
     3
 72
     8
 73
     4
 74
     0
 42
0.000000001
 43
0.0000000001
 40
0.0
 40
0.0
 40
0.0
 40
0.0
 40
1.0
 40
1.0
 40
1.0
 40
1.0
 10
10410.13568349662
 20
-4413.350041010362
 30
0.0
 10
10409.42795944524
 20
-4413.147912742916
 30
0.0
 10
10409.01644278943
 20
-4413.693615867915
 30
0.0
 10
10408.80121011643
 20
-4413.919217967159
 30
0.0
  0
SPLINE
  5
12D7EC
330
18
100
AcDbEntity
  8
姿図
100
AcDbSpline
210
0.0
220
0.0
230
1.0
 70
     8
 71
     3
 72
     8
 73
     4
 74
     0
 42
0.000000001
 43
0.0000000001
 40
0.0
 40
0.0
 40
0.0
 40
0.0
 40
1.0
 40
1.0
 40
1.0
 40
1.0
 10
10406.22729348387
 20
-4409.576037742916
 30
0.0
 10
10406.49187681721
 20
-4409.223259965138
 30
0.0
 10
10406.66120326035
 20
-4409.076240515268
 30
0.0
 10
10407.19743237276
 20
-4409.076240515268
 30
0.0
  0
SPLINE
  5
12D7ED
330
18
100
AcDbEntity
  8
姿図
100
AcDbSpline
210
0.0
220
0.0
230
1.0
 70
     8
 71
     3
 72
     8
 73
     4
 74
     0
 42
0.000000001
 43
0.0000000001
 40
0.0
 40
0.0
 40
0.0
 40
0.0
 40
1.0
 40
1.0
 40
1.0
 40
1.0
 10
10408.16757126165
 20
-4408.635268293046
 30
0.0
 10
10408.0793768172
 20
-4408.929221065398
 30
0.0
 10
10407.52092683891
 20
-4409.164434959713
 30
0.0
 10
10407.19743237276
 20
-4409.076240515268
 30
0.0
  0
SPLINE
  5
12D7EE
330
18
100
AcDbEntity
  8
姿図
100
AcDbSpline
210
0.0
220
0.0
230
1.0
 70
     8
 71
     3
 72
     8
 73
     4
 74
     0
 42
0.000000001
 43
0.0000000001
 40
0.0
 40
0.0
 40
0.0
 40
0.0
 40
1.0
 40
1.0
 40
1.0
 40
1.0
 10
10410.32833515054
 20
-4412.943963090138
 30
0.0
 10
10409.62639694524
 20
-4412.706940520693
 30
0.0
 10
10409.21488028943
 20
-4413.252643645694
 30
0.0
 10
10409.04951570609
 20
-4413.530059959712
 30
0.0
  0
LINE
  5
12D7EF
330
18
100
AcDbEntity
  8
姿図
100
AcDbLine
 10
10402.6995157061
 20
-4414.999996076249
 30
0.0
 11
10406.22729348387
 21
-4409.620134965138
 31
0.0
  0
LINE
  5
12D7F0
330
18
100
AcDbEntity
  8
姿図
100
AcDbLine
 10
10408.86963846334
 20
-4417.002666623526
 30
0.0
 11
10410.52098054688
 21
-4413.468055406494
 31
0.0
  0
LINE
  5
12D7F1
330
18
100
AcDbEntity
  8
姿図
100
AcDbLine
 10
10404.12571351174
 20
-4422.506960953147
 30
0.0
 11
10402.86204996984
 21
-4424.085457432488
 31
0.0
  0
LINE
  5
12D7F2
330
18
100
AcDbEntity
  8
姿図
100
AcDbLine
 10
10404.62423273025
 20
-4423.076657253159
 30
0.0
 11
10403.30241534042
 21
-4424.59663681516
 31
0.0
  0
ELLIPSE
  5
12D7F3
330
18
100
AcDbEntity
  8
姿図
100
AcDbEllipse
 10
10410.6324120934
 20
-4410.250713227565
 30
0.0
 11
-0.6214952256944444
 21
0.5215874565972222
 31
0.0
210
0.0
220
0.0
230
1.0
 40
0.7351581471724162
 41
0.0
 42
6.283185307179586
  0
SPLINE
  5
12D7F4
330
18
100
AcDbEntity
  8
姿図
100
AcDbSpline
210
0.0
220
0.0
230
1.0
 70
     8
 71
     3
 72
     8
 73
     4
 74
     0
 42
0.000000001
 43
0.0000000001
 40
0.134000468148693
 40
0.134000468148693
 40
0.134000468148693
 40
0.134000468148693
 40
1.0
 40
1.0
 40
1.0
 40
1.0
 10
10408.86963846334
 20
-4417.002666623526
 30
0.0
 10
10408.77225845563
 20
-4417.155096722336
 30
0.0
 10
10408.72326251675
 20
-4417.325590560606
 30
0.0
 10
10408.80629196477
 20
-4417.388308521995
 30
0.0
  0
LINE
  5
12D7F5
330
18
100
AcDbEntity
  8
姿図
100
AcDbLine
 10
10413.07717683891
 20
-4412.574648854026
 30
0.0
 11
10416.66369349472
 21
-4406.812554398732
 31
0.0
  0
LINE
  5
12D7F6
330
18
100
AcDbEntity
  8
姿図
100
AcDbLine
 10
10415.31132126165
 20
-4405.254509965138
 30
0.0
 11
10415.60536016139
 21
-4404.960471065398
 31
0.0
  0
SPLINE
  5
12D7F7
330
18
100
AcDbEntity
  8
姿図
100
AcDbSpline
210
0.0
220
0.0
230
1.0
 70
     8
 71
     3
 72
     8
 73
     4
 74
     0
 42
0.000000001
 43
0.0000000001
 40
0.0
 40
0.0
 40
0.0
 40
0.0
 40
1.0
 40
1.0
 40
1.0
 40
1.0
 10
10417.33910446478
 20
-4404.037874494217
 30
0.0
 10
10418.39743779811
 20
-4402.626763383107
 30
0.0
 10
10415.72955585366
 20
-4399.363568938663
 30
0.0
 10
10414.05386140922
 20
-4401.281798105329
 30
0.0
  0
SPLINE
  5
12D7F8
330
18
100
AcDbEntity
  8
姿図
100
AcDbSpline
210
0.0
220
0.0
230
1.0
 70
     8
 71
     3
 72
     8
 73
     4
 74
     0
 42
0.000000001
 43
0.0000000001
 40
1.0
 40
1.0
 40
1.0
 40
1.0
 40
2.0
 40
2.0
 40
2.0
 40
2.0
 10
10413.27883991341
 20
-4406.34699621009
 30
0.0
 10
10413.88638250239
 20
-4406.856784214647
 30
0.0
 10
10414.08292519987
 20
-4407.628830113084
 30
0.0
 10
10413.73290349848
 20
-4408.095468296678
 30
0.0
  0
SPLINE
  5
12D7F9
330
18
100
AcDbEntity
  8
姿図
100
AcDbSpline
210
0.0
220
0.0
230
1.0
 70
     8
 71
     3
 72
     8
 73
     4
 74
     0
 42
0.000000001
 43
0.0000000001
 40
0.0
 40
0.0
 40
0.0
 40
0.0
 40
1.0
 40
1.0
 40
1.0
 40
1.0
 10
10411.87173792832
 20
-4402.785065520693
 30
0.0
 10
10412.2539712725
 20
-4402.138248843175
 30
0.0
 10
10412.66548792832
 20
-4402.706172834061
 30
0.0
 10
10412.66548792832
 20
-4402.608676631804
 30
0.0
  0
LINE
  5
12D7FA
330
18
100
AcDbEntity
  8
姿図
100
AcDbLine
 10
10413.57688793917
 20
-4403.284776620954
 30
0.0
 11
10412.66548792832
 21
-4402.608676631804
 31
0.0
  0
LINE
  5
12D7FB
330
18
100
AcDbEntity
  8
姿図
100
AcDbLine
 10
10413.40049905028
 20
-4403.578815520694
 30
0.0
 11
10413.54743237276
 21
-4403.343601626379
 31
0.0
  0
LINE
  5
12D7FC
330
18
100
AcDbEntity
  8
姿図
100
AcDbLine
 10
10415.31132126165
 20
-4405.254509965138
 30
0.0
 11
10413.40049905028
 21
-4403.578815520694
 31
0.0
  0
LINE
  5
12D7FD
330
18
100
AcDbEntity
  8
姿図
100
AcDbLine
 10
10414.05386140922
 20
-4401.281798105329
 30
0.0
 11
10412.98170782034
 21
-4402.843256687787
 31
0.0
  0
LINE
  5
12D7FE
330
18
100
AcDbEntity
  8
姿図
100
AcDbLine
 10
10416.63423792832
 20
-4405.842415509843
 30
0.0
 11
10415.60536016139
 21
-4404.960471065398
 31
0.0
  0
SPLINE
  5
12D7FF
330
18
100
AcDbEntity
  8
姿図
100
AcDbSpline
210
0.0
220
0.0
230
1.0
 70
     8
 71
     3
 72
     8
 73
     4
 74
     0
 42
0.000000001
 43
0.0000000001
 40
0.0
 40
0.0
 40
0.0
 40
0.0
 40
1.0
 40
1.0
 40
1.0
 40
1.0
 10
10416.63423792832
 20
-4405.87187107625
 30
0.0
 10
10416.66679408066
 20
-4405.87187107625
 30
0.0
 10
10416.95773239446
 20
-4406.371582176509
 30
0.0
 10
10416.66369349472
 20
-4406.842009965138
 30
0.0
  0
LINE
  5
12D800
330
18
100
AcDbEntity
  8
姿図
100
AcDbLine
 10
10417.33910446478
 20
-4404.037874494217
 30
0.0
 11
10416.32465301802
 21
-4405.577042206529
 31
0.0
  0
SPLINE
  5
12D801
330
18
100
AcDbEntity
  8
姿図
100
AcDbSpline
210
0.0
220
0.0
230
1.0
 70
    24
 71
     3
 72
     8
 73
     4
 74
     0
 42
0.000000001
 43
0.0000000001
 40
0.0
 40
0.0
 40
0.0
 40
0.0
 40
1.0
 40
1.0
 40
1.0
 40
1.0
 10
10416.93364742515
 20
-4405.632127791161
 30
0.0
 10
10416.93364742515
 20
-4405.632127791161
 30
0.0
 10
10418.02571488897
 20
-4403.5133522353
 30
0.0
 10
10418.02571488897
 20
-4403.5133522353
 30
0.0
  0
SPLINE
  5
12D802
330
18
100
AcDbEntity
  8
姿図
100
AcDbSpline
210
0.0
220
0.0
230
1.0
 70
     8
 71
     3
 72
     8
 73
     4
 74
     0
 42
0.000000001
 43
0.0000000001
 40
1.0
 40
1.0
 40
1.0
 40
1.0
 40
2.0
 40
2.0
 40
2.0
 40
2.0
 10
10418.02571488897
 20
-4403.5133522353
 30
0.0
 10
10418.02571488897
 20
-4403.5133522353
 30
0.0
 10
10418.04985790605
 20
-4403.362509587067
 30
0.0
 10
10417.98448501257
 20
-4403.276525251194
 30
0.0
  0
SPLINE
  5
12D803
330
18
100
AcDbEntity
  8
姿図
100
AcDbSpline
210
0.0
220
0.0
230
1.0
 70
     8
 71
     3
 72
     8
 73
     4
 74
     0
 42
0.000000001
 43
0.0000000001
 40
1.471451898813356
 40
1.471451898813356
 40
1.471451898813356
 40
1.471451898813356
 40
1.773254205883107
 40
1.773254205883107
 40
1.773254205883107
 40
1.773254205883107
 10
10403.53023819882
 20
-4400.478700594373
 30
0.0000000000000015
 10
10404.62089449201
 20
-4398.923719607361
 30
0.0000000000000025
 10
10405.83276617076
 20
-4397.197513732854
 30
0.000000000000004
 10
10406.87409723421
 20
-4395.718090851688
 30
0.0000000000000066
  0
SPLINE
  5
12D804
330
18
100
AcDbEntity
  8
姿図
100
AcDbSpline
210
0.0
220
0.0
230
1.0
 70
     8
 71
     3
 72
     8
 73
     4
 74
     0
 42
0.000000001
 43
0.0000000001
 40
0.0
 40
0.0
 40
0.0
 40
0.0
 40
1.0
 40
1.0
 40
1.0
 40
1.0
 10
10421.9708642548
 20
-4406.120127106315
 30
0.0
 10
10421.9708642548
 20
-4406.120127106315
 30
0.0
 10
10422.38845707737
 20
-4406.412514753571
 30
0.0
 10
10422.29187094886
 20
-4406.65955579848
 30
0.0
  0
SPLINE
  5
12D805
330
18
100
AcDbEntity
  8
姿図
100
AcDbSpline
210
0.0
220
0.0
230
1.0
 70
     8
 71
     3
 72
     8
 73
     4
 74
     0
 42
0.000000001
 43
0.0000000001
 40
1.0
 40
1.0
 40
1.0
 40
1.0
 40
1.888883729132651
 40
1.888883729132651
 40
1.888883729132651
 40
1.888883729132651
 10
10422.29187094886
 20
-4406.65955579848
 30
0.0
 10
10422.29187094886
 20
-4406.65955579848
 30
0.0
 10
10418.14838780501
 20
-4412.985446144901
 30
0.0
 10
10415.43645496492
 20
-4416.97908872828
 30
0.0
  0
SPLINE
  5
12D806
330
18
100
AcDbEntity
  8
姿図
100
AcDbSpline
210
0.0
220
0.0
230
1.0
 70
     8
 71
     3
 72
    11
 73
     7
 74
     0
 42
0.000000001
 43
0.0000000001
 40
0.0
 40
0.0
 40
0.0
 40
0.0
 40
1.0
 40
1.0
 40
1.0
 40
1.788176320105198
 40
1.788176320105198
 40
1.788176320105198
 40
1.788176320105198
 10
10422.3324314668
 20
-4404.064419335533
 30
0.0
 10
10422.3324314668
 20
-4404.064419335533
 30
0.0
 10
10422.73031515994
 20
-4404.185148481123
 30
0.0
 10
10422.38397405602
 20
-4404.765109147783
 30
0.0
 10
10422.11099619923
 20
-4405.222220411835
 30
0.0
 10
10416.82244579798
 20
-4413.538054016019
 30
0.0
 10
10413.10889068781
 20
-4422.407076532959
 30
0.0
  0
SPLINE
  5
12D807
330
18
100
AcDbEntity
  8
姿図
100
AcDbSpline
210
0.0
220
0.0
230
1.0
 70
    24
 71
     3
 72
     8
 73
     4
 74
     0
 42
0.000000001
 43
0.0000000001
 40
0.0
 40
0.0
 40
0.0
 40
0.0
 40
1.0
 40
1.0
 40
1.0
 40
1.0
 10
10420.80473994298
 20
-4403.673034692332
 30
0.0
 10
10420.80473994298
 20
-4403.673034692332
 30
0.0
 10
10422.55845224722
 20
-4404.097352527708
 30
0.0
 10
10422.55845224722
 20
-4404.097352527708
 30
0.0
  0
SPLINE
  5
12D808
330
18
100
AcDbEntity
  8
姿図
100
AcDbSpline
210
0.0
220
0.0
230
1.0
 70
     8
 71
     3
 72
     8
 73
     4
 74
     0
 42
0.000000001
 43
0.0000000001
 40
1.0
 40
1.0
 40
1.0
 40
1.0
 40
2.0
 40
2.0
 40
2.0
 40
2.0
 10
10422.55845224722
 20
-4404.097352527708
 30
0.0
 10
10422.55845224722
 20
-4404.097352527708
 30
0.0
 10
10422.99867254077
 20
-4404.239398009224
 30
0.0
 10
10422.8037803266
 20
-4404.626475498679
 30
0.0
  0
SPLINE
  5
12D809
330
18
100
AcDbEntity
  8
姿図
100
AcDbSpline
210
0.0
220
0.0
230
1.0
 70
     8
 71
     3
 72
     8
 73
     4
 74
     0
 42
0.000000001
 43
0.0000000001
 40
2.0
 40
2.0
 40
2.0
 40
2.0
 40
2.733284138265212
 40
2.733284138265212
 40
2.733284138265212
 40
2.733284138265212
 10
10422.8037803266
 20
-4404.626475498679
 30
0.0
 10
10422.8037803266
 20
-4404.626475498679
 30
0.0
 10
10417.66539940181
 20
-4412.610519290001
 30
0.0
 10
10413.30420863144
 20
-4423.080467538923
 30
0.0
  0
SPLINE
  5
12D80A
330
18
100
AcDbEntity
  8
姿図
100
AcDbSpline
210
0.0
220
0.0
230
1.0
 70
     8
 71
     3
 72
    11
 73
     7
 74
     0
 42
0.000000001
 43
0.0000000001
 40
0.0
 40
0.0
 40
0.0
 40
0.0
 40
1.0
 40
1.0
 40
1.0
 40
1.768789991941922
 40
1.768789991941922
 40
1.768789991941922
 40
1.768789991941922
 10
10421.61793989373
 20
-4401.468183140207
 30
0.0
 10
10421.61793989373
 20
-4401.468183140207
 30
0.0
 10
10422.02673554958
 20
-4401.296207476833
 30
0.0
 10
10421.36748701641
 20
-4402.23162357583
 30
0.0
 10
10420.86066334191
 20
-4402.950762111042
 30
0.0
 10
10416.10319871657
 20
-4409.568048745528
 30
0.0
 10
10411.66887114042
 20
-4419.4622002057
 30
0.0
  0
SPLINE
  5
12D80B
330
18
100
AcDbEntity
  8
姿図
100
AcDbSpline
210
0.0
220
0.0
230
1.0
 70
     8
 71
     3
 72
     8
 73
     4
 74
     0
 42
0.000000001
 43
0.0000000001
 40
0.0
 40
0.0
 40
0.0
 40
0.0
 40
1.0
 40
1.0
 40
1.0
 40
1.0
 10
10419.60998260111
 20
-4399.189837877971
 30
0.0
 10
10419.60998260111
 20
-4399.189837877971
 30
0.0
 10
10420.10748351496
 20
-4399.062525013676
 30
0.0
 10
10419.8579329506
 20
-4399.502949718272
 30
0.0
  0
SPLINE
  5
12D80C
330
18
100
AcDbEntity
  8
姿図
100
AcDbSpline
210
0.0
220
0.0
230
1.0
 70
     8
 71
     3
 72
     8
 73
     4
 74
     0
 42
0.000000001
 43
0.0000000001
 40
1.0
 40
1.0
 40
1.0
 40
1.0
 40
1.309625444955235
 40
1.309625444955235
 40
1.309625444955235
 40
1.309625444955235
 10
10419.8579329506
 20
-4399.502949718272
 30
0.0
 10
10419.78066574607
 20
-4399.639316413402
 30
0.0
 10
10419.06491844006
 20
-4400.746290290735
 30
0.0
 10
10417.56880351138
 20
-4403.059004413475
 30
0.0
  0
SPLINE
  5
12D80D
330
18
100
AcDbEntity
  8
姿図
100
AcDbSpline
210
0.0
220
0.0
230
1.0
 70
     8
 71
     3
 72
     8
 73
     4
 74
     0
 42
0.000000001
 43
0.0000000001
 40
1.612607606405297
 40
1.612607606405297
 40
1.612607606405297
 40
1.612607606405297
 40
1.648289524194878
 40
1.648289524194878
 40
1.648289524194878
 40
1.648289524194878
 10
10410.80209115197
 20
-4413.53226811587
 30
0.0
 10
10410.4380148281
 20
-4414.096678958196
 30
0.0
 10
10410.06173068137
 20
-4414.680158698948
 30
0.0
 10
10409.6730215523
 20
-4415.283067210354
 30
0.0
  0
SPLINE
  5
12D80E
330
18
100
AcDbEntity
  8
姿図
100
AcDbSpline
210
0.0
220
0.0
230
1.0
 70
    24
 71
     3
 72
     8
 73
     4
 74
     0
 42
0.000000001
 43
0.0000000001
 40
0.0
 40
0.0
 40
0.0
 40
0.0
 40
1.0
 40
1.0
 40
1.0
 40
1.0
 10
10418.93571237091
 20
-4401.708506163935
 30
0.0
 10
10418.93571237091
 20
-4401.708506163935
 30
0.0
 10
10421.61793989373
 20
-4401.468183140207
 30
0.0
 10
10421.61793989373
 20
-4401.468183140207
 30
0.0
  0
SPLINE
  5
12D80F
330
18
100
AcDbEntity
  8
姿図
100
AcDbSpline
210
0.0
220
0.0
230
1.0
 70
     8
 71
     3
 72
    11
 73
     7
 74
     0
 42
0.000000001
 43
0.0000000001
 40
1.0
 40
1.0
 40
1.0
 40
1.0
 40
2.0
 40
2.0
 40
2.0
 40
2.814388548252564
 40
2.814388548252564
 40
2.814388548252564
 40
2.814388548252564
 10
10421.61793989373
 20
-4401.468183140207
 30
0.0
 10
10421.61793989373
 20
-4401.468183140207
 30
0.0
 10
10422.27377659449
 20
-4401.392793605341
 30
0.0
 10
10421.96107357628
 20
-4401.855754120526
 30
0.0
 10
10421.70641181925
 20
-4402.232783862386
 30
0.0
 10
10415.72239421622
 20
-4411.090620091629
 30
0.0
 10
10411.99469871476
 20
-4419.998083608864
 30
0.0
  0
SPLINE
  5
12D810
330
18
100
AcDbEntity
  8
姿図
100
AcDbSpline
210
0.0
220
0.0
230
1.0
 70
     8
 71
     3
 72
     8
 73
     4
 74
     0
 42
0.000000001
 43
0.0000000001
 40
1.0
 40
1.0
 40
1.0
 40
1.0
 40
1.201957035102942
 40
1.201957035102942
 40
1.201957035102942
 40
1.201957035102942
 10
10416.51575899269
 20
-4401.10920965487
 30
0.0
 10
10416.32282203915
 20
-4400.81072653577
 30
0.0
 10
10416.1016783277
 20
-4400.572768843868
 30
0.0
 10
10415.87159021557
 20
-4400.383063632238
 30
0.0
  0
SPLINE
  5
12D811
330
18
100
AcDbEntity
  8
姿図
100
AcDbSpline
210
0.0
220
0.0
230
1.0
 70
     8
 71
     3
 72
     8
 73
     4
 74
     0
 42
0.000000001
 43
0.0000000001
 40
1.371408514633379
 40
1.371408514633379
 40
1.371408514633379
 40
1.371408514633379
 40
2.0
 40
2.0
 40
2.0
 40
2.0
 10
10415.28491336562
 20
-4400.00020852973
 30
0.0
 10
10414.56425433969
 20
-4399.63488446432
 30
0.0
 10
10413.91351723829
 20
-4399.637254661813
 30
0.0
 10
10413.91351723829
 20
-4399.637254661813
 30
0.0
  0
SPLINE
  5
12D812
330
18
100
AcDbEntity
  8
姿図
100
AcDbSpline
210
0.0
220
0.0
230
1.0
 70
    24
 71
     3
 72
     8
 73
     4
 74
     0
 42
0.000000001
 43
0.0000000001
 40
2.0
 40
2.0
 40
2.0
 40
2.0
 40
3.0
 40
3.0
 40
3.0
 40
3.0
 10
10413.91351723829
 20
-4399.637254661813
 30
0.0
 10
10413.91351723829
 20
-4399.637254661813
 30
0.0
 10
10412.36704323408
 20
-4401.904409176646
 30
0.0
 10
10412.36704323408
 20
-4401.904409176646
 30
0.0
  0
SPLINE
  5
12D813
330
18
100
AcDbEntity
  8
姿図
100
AcDbSpline
210
0.0
220
0.0
230
1.0
 70
    24
 71
     3
 72
     8
 73
     4
 74
     0
 42
0.000000001
 43
0.0000000001
 40
0.1253663450285614
 40
0.1253663450285614
 40
0.1253663450285614
 40
0.1253663450285614
 40
1.0
 40
1.0
 40
1.0
 40
1.0
 10
10416.21912936255
 20
-4400.718254994028
 30
0.0
 10
10416.95969258728
 20
-4400.377624020708
 30
0.0
 10
10419.91328920271
 20
-4399.019081689259
 30
0.0
 10
10419.91328920271
 20
-4399.019081689259
 30
0.0
  0
SPLINE
  5
12D814
330
18
100
AcDbEntity
  8
姿図
100
AcDbSpline
210
0.0
220
0.0
230
1.0
 70
     8
 71
     3
 72
    11
 73
     7
 74
     0
 42
0.000000001
 43
0.0000000001
 40
1.0
 40
1.0
 40
1.0
 40
1.0
 40
2.0
 40
2.0
 40
2.0
 40
2.466205817988146
 40
2.466205817988146
 40
2.466205817988146
 40
2.466205817988146
 10
10419.91328920271
 20
-4399.019081689259
 30
0.0
 10
10419.91328920271
 20
-4399.019081689259
 30
0.0
 10
10420.84040162585
 20
-4398.675941015081
 30
0.0
 10
10420.30997451145
 20
-4399.568816102619
 30
0.0
 10
10420.0626863047
 20
-4399.985079663167
 30
0.0
 10
10418.69192014244
 20
-4402.167155296684
 30
0.0
 10
10416.46552284117
 20
-4405.697794507633
 30
0.0
  0
SPLINE
  5
12D815
330
18
100
AcDbEntity
  8
姿図
100
AcDbSpline
210
0.0
220
0.0
230
1.0
 70
     8
 71
     3
 72
     8
 73
     4
 74
     0
 42
0.000000001
 43
0.0000000001
 40
2.75154837122198
 40
2.75154837122198
 40
2.75154837122198
 40
2.75154837122198
 40
2.782200575022114
 40
2.782200575022114
 40
2.782200575022114
 40
2.782200575022114
 10
10411.47733676691
 20
-4413.600490425761
 30
0.0
 10
10411.26868857205
 20
-4413.930883030663
 30
0.0
 10
10411.05705029921
 20
-4414.266001289219
 30
0.0
 10
10409.54101781456
 20
-4416.751337475185
 30
0.0
  0
SPLINE
  5
12D816
330
18
100
AcDbEntity
  8
姿図
100
AcDbSpline
210
0.0
220
0.0
230
1.0
 70
    24
 71
     3
 72
     8
 73
     4
 74
     0
 42
0.000000001
 43
0.0000000001
 40
1.59391947097972
 40
1.59391947097972
 40
1.59391947097972
 40
1.59391947097972
 40
2.0
 40
2.0
 40
2.0
 40
2.0
 10
10414.74087922801
 20
-4400.783348872499
 30
0.0
 10
10416.37685396561
 20
-4398.428353609908
 30
0.0
 10
10417.47501550726
 20
-4396.847543607959
 30
0.0
 10
10417.47501550726
 20
-4396.847543607959
 30
0.0
  0
SPLINE
  5
12D817
330
18
100
AcDbEntity
  8
姿図
100
AcDbSpline
210
0.0
220
0.0
230
1.0
 70
     8
 71
     3
 72
     8
 73
     4
 74
     0
 42
0.000000001
 43
0.0000000001
 40
3.0
 40
3.0
 40
3.0
 40
3.0
 40
3.38639110915234
 40
3.38639110915234
 40
3.38639110915234
 40
3.38639110915234
 10
10417.90442959713
 20
-4397.06375215805
 30
0.0
 10
10417.91688502669
 20
-4397.142769152796
 30
0.0
 10
10416.97998869304
 20
-4398.64345922338
 30
0.0
 10
10415.62601393598
 20
-4400.743211072107
 30
0.0
  0
SPLINE
  5
12D818
330
18
100
AcDbEntity
  8
姿図
100
AcDbSpline
210
0.0
220
0.0
230
1.0
 70
     8
 71
     3
 72
     8
 73
     4
 74
     0
 42
0.000000001
 43
0.0000000001
 40
1.170835818589572
 40
1.170835818589572
 40
1.170835818589572
 40
1.170835818589572
 40
1.26068276038169
 40
1.26068276038169
 40
1.26068276038169
 40
1.26068276038169
 10
10410.56717488612
 20
-4402.160949153866
 30
0.0
 10
10411.5622557972
 20
-4400.692014099729
 30
0.0
 10
10413.02726897742
 20
-4398.527214519814
 30
0.0
 10
10415.18127611303
 20
-4395.34090859926
 30
0.0
  0
SPLINE
  5
12D819
330
18
100
AcDbEntity
  8
姿図
100
AcDbSpline
210
0.0
220
0.0
230
1.0
 70
    24
 71
     3
 72
     8
 73
     4
 74
     0
 42
0.000000001
 43
0.0000000001
 40
1.505104155280973
 40
1.505104155280973
 40
1.505104155280973
 40
1.505104155280973
 40
2.0
 40
2.0
 40
2.0
 40
2.0
 10
10409.91713210623
 20
-4402.046287378311
 30
0.0
 10
10413.0239450016
 20
-4397.634849969261
 30
0.0
 10
10414.66806930836
 20
-4395.300318822317
 30
0.0
 10
10414.66806930836
 20
-4395.300318822317
 30
0.0
  0
SPLINE
  5
12D81A
330
18
100
AcDbEntity
  8
姿図
100
AcDbSpline
210
0.0
220
0.0
230
1.0
 70
    24
 71
     3
 72
     8
 73
     4
 74
     0
 42
0.000000001
 43
0.0000000001
 40
3.0
 40
3.0
 40
3.0
 40
3.0
 40
4.0
 40
4.0
 40
4.0
 40
4.0
 10
10415.35820315817
 20
-4395.323697074722
 30
0.0
 10
10415.35820315817
 20
-4395.323697074722
 30
0.0
 10
10414.38687513506
 20
-4399.66078444575
 30
0.0
 10
10414.38687513506
 20
-4399.66078444575
 30
0.0
  0
SPLINE
  5
12D81B
330
18
100
AcDbEntity
  8
姿図
100
AcDbSpline
210
0.0
220
0.0
230
1.0
 70
    24
 71
     3
 72
     8
 73
     4
 74
     0
 42
0.000000001
 43
0.0000000001
 40
1.351290308159437
 40
1.351290308159437
 40
1.351290308159437
 40
1.351290308159437
 40
1.428242292534494
 40
1.428242292534494
 40
1.428242292534494
 40
1.428242292534494
 10
10407.17773774483
 20
-4401.473375727691
 30
0.0
 10
10407.41430806999
 20
-4401.13867017599
 30
0.0
 10
10407.66275802229
 20
-4400.787157033779
 30
0.0
 10
10407.91694031656
 20
-4400.427533632254
 30
0.0
  0
SPLINE
  5
12D81C
330
18
100
AcDbEntity
  8
姿図
100
AcDbSpline
210
0.0
220
0.0
230
1.0
 70
    24
 71
     3
 72
     8
 73
     4
 74
     0
 42
0.000000001
 43
0.0000000001
 40
1.615278216396081
 40
1.615278216396081
 40
1.615278216396081
 40
1.615278216396081
 40
2.0
 40
2.0
 40
2.0
 40
2.0
 10
10407.91694031656
 20
-4400.427533632254
 30
0.0
 10
10411.01221636937
 20
-4396.048260457547
 30
0.0
 10
10412.01057700319
 20
-4394.635755121104
 30
0.0
 10
10412.01057700319
 20
-4394.635755121104
 30
0.0
  0
SPLINE
  5
12D81D
330
18
100
AcDbEntity
  8
姿図
100
AcDbSpline
210
0.0
220
0.0
230
1.0
 70
    24
 71
     3
 72
     8
 73
     4
 74
     0
 42
0.000000001
 43
0.0000000001
 40
1.350323050295565
 40
1.350323050295565
 40
1.350323050295565
 40
1.350323050295565
 40
1.445359962748388
 40
1.445359962748388
 40
1.445359962748388
 40
1.445359962748388
 10
10406.77322131319
 20
-4401.37630668597
 30
0.0
 10
10407.07206050234
 20
-4400.951867507856
 30
0.0
 10
10407.38957718611
 20
-4400.500900816782
 30
0.0
 10
10407.71391214753
 20
-4400.040250174376
 30
0.0
  0
SPLINE
  5
12D81E
330
18
100
AcDbEntity
  8
姿図
100
AcDbSpline
210
0.0
220
0.0
230
1.0
 70
    24
 71
     3
 72
     8
 73
     4
 74
     0
 42
0.000000001
 43
0.0000000001
 40
1.629831745831646
 40
1.629831745831646
 40
1.629831745831646
 40
1.629831745831646
 40
2.0
 40
2.0
 40
2.0
 40
2.0
 10
10407.71391214753
 20
-4400.040250174376
 30
0.0
 10
10410.78524982044
 20
-4395.678051089003
 30
0.0
 10
10411.73180819983
 20
-4394.333660944852
 30
0.0
 10
10411.73180819983
 20
-4394.333660944852
 30
0.0
  0
SPLINE
  5
12D81F
330
18
100
AcDbEntity
  8
姿図
100
AcDbSpline
210
0.0
220
0.0
230
1.0
 70
     8
 71
     3
 72
    11
 73
     7
 74
     0
 42
0.000000001
 43
0.0000000001
 40
2.0
 40
2.0
 40
2.0
 40
2.0
 40
3.0
 40
3.0
 40
3.0
 40
4.0
 40
4.0
 40
4.0
 40
4.0
 10
10411.73180819983
 20
-4394.333660944852
 30
0.0
 10
10411.73180819983
 20
-4394.333660944852
 30
0.0
 10
10412.13009372343
 20
-4394.129858813313
 30
0.0
 10
10412.26897761378
 20
-4394.550422856946
 30
0.0
 10
10412.40786150413
 20
-4394.970986900581
 30
0.0
 10
10413.14477613713
 20
-4397.309375847318
 30
0.0
 10
10413.14477613713
 20
-4397.309375847318
 30
0.0
  0
SPLINE
  5
12D820
330
18
100
AcDbEntity
  8
姿図
100
AcDbSpline
210
0.0
220
0.0
230
1.0
 70
    24
 71
     3
 72
     8
 73
     4
 74
     0
 42
0.000000001
 43
0.0000000001
 40
1.393866661974843
 40
1.393866661974843
 40
1.393866661974843
 40
1.393866661974843
 40
1.573101002211188
 40
1.573101002211188
 40
1.573101002211188
 40
1.573101002211188
 10
10405.02871738427
 20
-4400.920131881101
 30
0.0
 10
10405.60884419662
 20
-4400.093414207822
 30
0.0
 10
10406.23519618667
 20
-4399.200822710831
 30
0.0
 10
10406.82970986012
 20
-4398.353602843741
 30
0.0
  0
SPLINE
  5
12D821
330
18
100
AcDbEntity
  8
姿図
100
AcDbSpline
210
0.0
220
0.0
230
1.0
 70
    24
 71
     3
 72
     8
 73
     4
 74
     0
 42
0.000000001
 43
0.0000000001
 40
1.799348189808347
 40
1.799348189808347
 40
1.799348189808347
 40
1.799348189808347
 40
2.0
 40
2.0
 40
2.0
 40
2.0
 10
10406.82970986012
 20
-4398.353602843741
 30
0.0
 10
10409.20818628211
 20
-4394.96412238584
 30
0.0
 10
10409.48110950517
 20
-4394.575189402298
 30
0.0
 10
10409.48110950517
 20
-4394.575189402298
 30
0.0
  0
SPLINE
  5
12D822
330
18
100
AcDbEntity
  8
姿図
100
AcDbSpline
210
0.0
220
0.0
230
1.0
 70
     8
 71
     3
 72
     8
 73
     4
 74
     0
 42
0.000000001
 43
0.0000000001
 40
2.0
 40
2.0
 40
2.0
 40
2.0
 40
3.0
 40
3.0
 40
3.0
 40
3.0
 10
10409.48110950517
 20
-4394.575189402298
 30
0.0
 10
10409.48110950517
 20
-4394.575189402298
 30
0.0
 10
10409.71819377984
 20
-4394.532193738547
 30
0.0
 10
10409.84576393469
 20
-4395.027928865056
 30
0.0
  0
SPLINE
  5
12D823
330
18
100
AcDbEntity
  8
姿図
100
AcDbSpline
210
0.0
220
0.0
230
1.0
 70
    24
 71
     3
 72
     8
 73
     4
 74
     0
 42
0.000000001
 43
0.0000000001
 40
1.391994967145553
 40
1.391994967145553
 40
1.391994967145553
 40
1.391994967145553
 40
1.583667207078013
 40
1.583667207078013
 40
1.583667207078013
 40
1.583667207078013
 10
10404.74961612353
 20
-4400.841422741442
 30
0.0
 10
10405.37376871766
 20
-4399.953852781362
 30
0.0
 10
10406.05213467198
 20
-4398.989189254109
 30
0.0
 10
10406.68850369047
 20
-4398.084247049822
 30
0.0
  0
SPLINE
  5
12D824
330
18
100
AcDbEntity
  8
姿図
100
AcDbSpline
210
0.0
220
0.0
230
1.0
 70
    24
 71
     3
 72
     8
 73
     4
 74
     0
 42
0.000000001
 43
0.0000000001
 40
1.815455566821609
 40
1.815455566821609
 40
1.815455566821609
 40
1.815455566821609
 40
2.0
 40
2.0
 40
2.0
 40
2.0
 10
10406.68850369047
 20
-4398.084247049822
 30
0.0
 10
10409.02222748768
 20
-4394.765598442059
 30
0.0
 10
10409.25488431369
 20
-4394.434751127278
 30
0.0
 10
10409.25488431369
 20
-4394.434751127278
 30
0.0
  0
SPLINE
  5
12D825
330
18
100
AcDbEntity
  8
姿図
100
AcDbSpline
210
0.0
220
0.0
230
1.0
 70
     8
 71
     3
 72
     8
 73
     4
 74
     0
 42
0.000000001
 43
0.0000000001
 40
2.0
 40
2.0
 40
2.0
 40
2.0
 40
3.0
 40
3.0
 40
3.0
 40
3.0
 10
10409.25488431369
 20
-4394.434751127278
 30
0.0
 10
10409.25488431369
 20
-4394.434751127278
 30
0.0
 10
10409.53616968583
 20
-4394.197310910027
 30
0.0
 10
10409.68560953862
 20
-4394.542954112035
 30
0.0
  0
SPLINE
  5
12D826
330
18
100
AcDbEntity
  8
姿図
100
AcDbSpline
210
0.0
220
0.0
230
1.0
 70
    24
 71
     3
 72
     8
 73
     4
 74
     0
 42
0.000000001
 43
0.0000000001
 40
3.0
 40
3.0
 40
3.0
 40
3.0
 40
4.0
 40
4.0
 40
4.0
 40
4.0
 10
10409.68560953862
 20
-4394.542954112035
 30
0.0
 10
10409.68560953862
 20
-4394.542954112035
 30
0.0
 10
10410.36791165162
 20
-4396.827942964117
 30
0.0
 10
10410.36791165162
 20
-4396.827942964117
 30
0.0
  0
SPLINE
  5
12D827
330
18
100
AcDbEntity
  8
姿図
100
AcDbSpline
210
0.0
220
0.0
230
1.0
 70
    24
 71
     3
 72
     8
 73
     4
 74
     0
 42
0.000000001
 43
0.0000000001
 40
1.477316060400323
 40
1.477316060400323
 40
1.477316060400323
 40
1.477316060400323
 40
1.790999460430504
 40
1.790999460430504
 40
1.790999460430504
 40
1.790999460430504
 10
10403.33973524579
 20
-4400.419235798608
 30
0.0
 10
10404.4771055284
 20
-4398.796934675102
 30
0.0
 10
10405.73108901088
 20
-4397.008300978943
 30
0.0
 10
10406.76374142803
 20
-4395.535365381681
 30
0.0
  0
ELLIPSE
  5
12D828
330
18
100
AcDbEntity
  8
姿図
100
AcDbEllipse
 10
10409.98253070653
 20
-4406.275876127667
 30
0.0
 11
7.455475481167281
 21
-3.953919751002641
 31
0.0
210
0.0
220
0.0
230
1.0
 40
0.5896757540129037
 41
2.589251650966877
 42
2.665769938206601
  0
ELLIPSE
  5
12D829
330
18
100
AcDbEntity
  8
姿図
100
AcDbEllipse
 10
10409.98253070653
 20
-4406.275876127667
 30
0.0
 11
7.455475481167281
 21
-3.953919751002641
 31
0.0
210
0.0
220
0.0
230
1.0
 40
0.5896757540129037
 41
6.96598111917236
 42
7.147828363455014
  0
ELLIPSE
  5
12D82A
330
18
100
AcDbEntity
  8
姿図
100
AcDbEllipse
 10
10409.98253070653
 20
-4406.275876127667
 30
0.0
 11
7.455475481167281
 21
-3.953919751002641
 31
0.0
210
0.0
220
0.0
230
1.0
 40
0.5896757540129037
 41
7.723477700805621
 42
7.896541804765815
  0
ELLIPSE
  5
12D82B
330
18
100
AcDbEntity
  8
姿図
100
AcDbEllipse
 10
10409.98253070653
 20
-4406.275876127667
 30
0.0
 11
7.455475481167281
 21
-3.953919751002641
 31
0.0
210
0.0
220
0.0
230
1.0
 40
0.5896757540129037
 41
8.489247713282603
 42
8.60769396429671
  0
ARC
  5
12D82C
330
18
100
AcDbEntity
  8
姿図
100
AcDbCircle
 10
10406.58711799211
 20
-4399.873546471641
 30
0.0
 40
0.4909226071316664
100
AcDbArc
 50
176.6035262431399
 51
269.2179010901226
  0
ARC
  5
12D82D
330
18
100
AcDbEntity
  8
姿図
100
AcDbCircle
 10
10412.26367328026
 20
-4401.193471263906
 30
0.0
 40
0.5870661458547285
100
AcDbArc
 50
178.6996333805868
 51
242.7355601294599
  0
ARC
  5
12D82E
330
18
100
AcDbEntity
  8
姿図
100
AcDbCircle
 10
10417.63684378314
 20
-4406.216123204869
 30
0.0
 40
0.5330746199154416
100
AcDbArc
 50
221.5153020365672
 51
291.9422318176752
  0
LINE
  5
12D82F
330
18
100
AcDbEntity
  8
姿図
100
AcDbLine
 10
10407.18540875654
 20
-4395.580529632525
 30
0.0000000000000062
 11
10407.81634235083
 21
-4396.480415351973
 31
0.0000000000000002
  0
ARC
  5
12D830
330
18
100
AcDbEntity
  8
姿図
100
AcDbCircle
 10
10406.95144288684
 20
-4395.773916887581
 30
-0.0000000000000118
 40
0.3035435036363659
100
AcDbArc
 50
30.49478329119179
 51
128.1970235673505
  0
ARC
  5
12D831
330
18
100
AcDbEntity
  8
姿図
100
AcDbCircle
 10
10407.07777386991
 20
-4395.893540109493
 30
0.0000000000000226
 40
0.2688245040821502
100
AcDbArc
 50
39.97839485125424
 51
150.4619100593407
  0
LINE
  5
12D832
330
18
100
AcDbEntity
  8
姿図
100
AcDbLine
 10
10411.99473948021
 20
-4401.715315369747
 30
0.0
 11
10411.54875248419
 21
-4402.318848152523
 31
0.0
  0
ARC
  5
12D833
330
18
100
AcDbEntity
  8
姿図
100
AcDbCircle
 10
10406.12396655636
 20
-4413.416771379449
 30
0.0000000000000072
 40
13.09160217354804
100
AcDbArc
 50
70.10507181514458
 51
78.98271778318279
  0
ARC
  5
12D834
330
18
100
AcDbEntity
  8
姿図
100
AcDbCircle
 10
10408.77270269039
 20
-4400.091434682568
 30
0.0000000000000072
 40
0.4972036399820605
100
AcDbArc
 50
188.0617757773451
 51
252.8196158441444
  0
LINE
  5
12D835
330
18
100
AcDbEntity
  8
姿図
100
AcDbLine
 10
10408.49140689148
 20
-4400.501415332272
 30
0.0000000000000072
 11
10407.67446191595
 21
-4401.588141061617
 31
0.0000000000000062
  0
LINE
  5
12D836
330
18
100
AcDbEntity
  8
姿図
100
AcDbLine
 10
10406.45725921802
 20
-4400.346982533832
 30
0.0
 11
10405.8474520244
 21
-4401.141867004328
 31
0.0
  0
LINE
  5
12D837
330
18
100
AcDbEntity
  8
姿図
100
AcDbLine
 10
10417.36226088725
 20
-4406.673039809602
 30
0.0
 11
10409.92905660136
 21
-4417.170112815225
 31
0.0
  0
ARC
  5
12D838
330
18
100
AcDbEntity
  8
姿図
100
AcDbCircle
 10
10428.75729343331
 20
-4437.288259727515
 30
0.000000000000007
 40
45.3095458750044
100
AcDbArc
 50
125.0955168657244
 51
142.2118279621176
  0
ARC
  5
12D839
330
18
100
AcDbEntity
  8
姿図
100
AcDbCircle
 10
10419.75802159953
 20
-4348.156072769359
 30
0.000000000000007
 40
54.78136851718089
100
AcDbArc
 50
251.865033589764
 51
261.6937835389782
  0
ENDSEC
  0
SECTION
  2
OBJECTS
  0
DICTIONARY
  5
C
330
0
100
AcDbDictionary
281
     1
  3
ACAD_GROUP
350
D
  3
ACAD_IMAGE_VARS
350
12A140
  3
ACAD_LAYOUT
350
617
  3
ACAD_MLINESTYLE
350
E
  3
ACAD_PLOTSETTINGS
350
618
  3
ACAD_PLOTSTYLENAME
350
615
  3
ACAD_SCALELIST
350
A36
  3
AcadDim
350
AB4
  3
AcDbVariableDictionary
350
6DE
  3
APPDATA
350
12A13F
  3
DWGPROPS
350
12DBA8
  0
DICTIONARY
  5
8BF
330
2
100
AcDbDictionary
280
     1
281
     1
  3
ACAD_LAYERSTATES
360
8C0
  0
DICTIONARY
  5
A60
330
F
100
AcDbDictionary
280
     1
281
     1
  3
ADSK_XREC_LAYER_RECONCILED
360
A61
  0
DICTIONARY
  5
A66
330
34
100
AcDbDictionary
280
     1
281
     1
  3
ADSK_XREC_LAYER_RECONCILED
360
A67
  0
DICTIONARY
  5
A6A
330
2A3
100
AcDbDictionary
280
     1
281
     1
  3
ADSK_XREC_LAYER_RECONCILED
360
A6B
  0
DICTIONARY
  5
A6E
330
2F4
100
AcDbDictionary
280
     1
281
     1
  3
ADSK_XREC_LAYER_RECONCILED
360
A6F
  0
DICTIONARY
  5
A72
330
305
100
AcDbDictionary
280
     1
281
     1
  3
ADSK_XREC_LAYER_RECONCILED
360
A73
  0
DICTIONARY
  5
143F
330
18
100
AcDbDictionary
280
     1
281
     1
  3
ACAD_SORTENTS
360
1440
  0
DICTIONARY
  5
D
102
{ACAD_REACTORS
330
C
102
}
330
C
100
AcDbDictionary
281
     1
  0
RASTERVARIABLES
  5
12A140
102
{ACAD_REACTORS
330
C
102
}
330
C
100
AcDbRasterVariables
 90
        0
 70
     1
 71
     1
 72
     0
  0
DICTIONARY
  5
617
102
{ACAD_REACTORS
330
C
102
}
330
C
100
AcDbDictionary
281
     1
  3
Model
350
619
  3
ﾚｲｱｳﾄ1
350
61A
  0
DICTIONARY
  5
E
102
{ACAD_REACTORS
330
C
102
}
330
C
100
AcDbDictionary
281
     1
  3
STANDARD
350
1B
  0
DICTIONARY
  5
618
102
{ACAD_REACTORS
330
C
102
}
330
C
100
AcDbDictionary
281
     1
  0
ACDBDICTIONARYWDFLT
  5
615
102
{ACAD_REACTORS
330
C
102
}
330
C
100
AcDbDictionary
281
     1
  3
Normal
350
616
100
AcDbDictionaryWithDefault
340
616
  0
DICTIONARY
  5
A36
102
{ACAD_REACTORS
330
C
102
}
330
C
100
AcDbDictionary
281
     1
  3
A0
350
A37
  3
A1
350
A38
  3
A2
350
A39
  3
A3
350
A3A
  3
A4
350
A3B
  3
A5
350
A3C
  3
A6
350
A3D
  3
A7
350
A3E
  3
A8
350
A3F
  3
A9
350
A40
  3
B0
350
A41
  3
B1
350
A42
  3
B2
350
A43
  3
B3
350
A44
  3
B4
350
A45
  3
B5
350
A46
  3
B6
350
A47
  3
B7
350
A48
  3
B8
350
A49
  3
B9
350
A4A
  3
C0
350
A4B
  3
C1
350
A4C
  3
C2
350
A4D
  3
C3
350
A4E
  3
C4
350
A4F
  3
C5
350
A50
  3
C6
350
A51
  3
C7
350
A52
  3
C8
350
A53
  3
C9
350
A54
  3
D0
350
A55
  3
D1
350
A56
  3
D2
350
A57
  0
XRECORD
  5
AB4
102
{ACAD_REACTORS
330
C
102
}
330
C
100
AcDbXrecord
280
     1
 90
   990106
  3
OPEN
 60
     0
 61
     0
 62
     1
 63
     3
 64
     1
 65
     0
 66
     0
 67
     3
 68
     1
 69
     0
 70
     0
 71
     0
 72
     0
 40
0.0
170
     2
  0
DICTIONARY
  5
6DE
102
{ACAD_REACTORS
330
C
102
}
330
C
100
AcDbDictionary
281
     1
  3
DIMASSOC
350
6DF
  3
INDEXCTL
350
A93
  3
PROJECTNAME
350
6E0
  3
SORTENTS
350
A92
  0
DICTIONARY
  5
12A13F
102
{ACAD_REACTORS
330
C
102
}
330
C
100
AcDbDictionary
281
     1
  0
XRECORD
  5
12DBA8
102
{ACAD_REACTORS
330
C
102
}
330
C
100
AcDbXrecord
280
     1
  1
DWGPROPS COOKIE
  2

  3

  4

  6

  7

  8
SPAX
  9

300
=
301
=
302
=
303
=
304
=
305
=
306
=
307
=
308
=
309
=
 40
0.0
 41
2448636.244629629
 42
2456821.217695428
  1

 90
        0
  0
DICTIONARY
  5
8C0
102
{ACAD_REACTORS
330
8BF
102
}
330
8BF
100
AcDbDictionary
281
     1
  0
XRECORD
  5
A61
102
{ACAD_REACTORS
330
A60
102
}
330
A60
100
AcDbXrecord
280
     1
290
     1
  0
XRECORD
  5
A67
102
{ACAD_REACTORS
330
A66
102
}
330
A66
100
AcDbXrecord
280
     1
290
     1
  0
XRECORD
  5
A6B
102
{ACAD_REACTORS
330
A6A
102
}
330
A6A
100
AcDbXrecord
280
     1
290
     1
  0
XRECORD
  5
A6F
102
{ACAD_REACTORS
330
A6E
102
}
330
A6E
100
AcDbXrecord
280
     1
290
     1
  0
XRECORD
  5
A73
102
{ACAD_REACTORS
330
A72
102
}
330
A72
100
AcDbXrecord
280
     1
290
     1
  0
SORTENTSTABLE
  5
1440
102
{ACAD_REACTORS
330
143F
102
}
330
143F
100
AcDbSortentsTable
330
18
331
0
  5
10467C
331
D0CC6
  5
D0CC6
331
F6D77
  5
F6D77
331
F6D78
  5
F6D78
  0
LAYOUT
  5
619
102
{ACAD_REACTORS
330
617
102
}
330
617
100
AcDbPlotSettings
  1

  2
JUST PDF 2
  4
A4
  6

 40
3.174999952316284
 41
3.174999952316284
 42
3.175003051757812
 43
3.17498779296875
 44
209.8886566162109
 45
297.0530090332031
 46
14.27171755861536
 47
9.855173074625782
 48
10345.39286971522
 49
-4891.661366896265
140
10695.38330670503
141
-4349.676016618932
142
1.0
143
2.0
 70
  3748
 72
     1
 73
     0
 74
     4
  7
spax form.ctb
 75
     0
147
2.049951397771953
148
-10345.39286971522
149
4891.661366896265
100
AcDbLayout
  1
Model
 70
     1
 71
     0
 10
0.0
 20
0.0
 11
12.0
 21
9.0
 12
0.0
 22
0.0
 32
0.0
 14
10348.44667125733
 24
-4484.136341909964
 34
-0.0000000000000118
 15
10443.78000459067
 25
-4394.284330384537
 35
0.0000000000000226
146
0.0
 13
0.0
 23
0.0
 33
0.0
 16
1.0
 26
0.0
 36
0.0
 17
0.0
 27
1.0
 37
0.0
 76
     0
330
18
331
129154
1001
ACAD_PSEXT
1000
JUST PDF 2
1000
JUST PDF 2
1000
JUST PDF 2 Port:
1000

1070
     0
  0
LAYOUT
  5
61A
102
{ACAD_REACTORS
330
617
102
}
330
617
100
AcDbPlotSettings
  1

  2
Canon LASER SHOT LBP-750
  4

  6

 40
0.0
 41
0.0
 42
0.0
 43
0.0
 44
0.0
 45
0.0
 46
0.0
 47
0.0
 48
0.0
 49
0.0
140
0.0
141
0.0
142
1.0
143
1.0
 70
   688
 72
     0
 73
     0
 74
     5
  7
spax form.ctb
 75
    16
147
1.0
148
0.0
149
0.0
100
AcDbLayout
  1
ﾚｲｱｳﾄ1
 70
     0
 71
     1
 10
0.0
 20
0.0
 11
12.0
 21
9.0
 12
0.0
 22
0.0
 32
0.0
 14
1.000000000000000E+20
 24
1.000000000000000E+20
 34
1.000000000000000E+20
 15
-1.000000000000000E+20
 25
-1.000000000000000E+20
 35
-1.000000000000000E+20
146
0.0
 13
0.0
 23
0.0
 33
0.0
 16
1.0
 26
0.0
 36
0.0
 17
0.0
 27
1.0
 37
0.0
 76
     0
330
15
  0
MLINESTYLE
  5
1B
102
{ACAD_REACTORS
330
E
102
}
330
E
100
AcDbMlineStyle
  2
STANDARD
 70
     0
  3

 62
     0
 51
90.0
 52
90.0
 71
     2
 49
0.5
 62
   256
  6
BYLAYER
 49
-0.5
 62
   256
  6
BYLAYER
  0
ACDBPLACEHOLDER
  5
616
102
{ACAD_REACTORS
330
615
102
}
330
615
  0
SCALE
  5
A37
102
{ACAD_REACTORS
330
A36
102
}
330
A36
100
AcDbScale
 70
     0
300
1:1
140
1.0
141
1.0
290
     1
1001
ACAD
1000
AcRTDxfName
1000
SCALE
  0
SCALE
  5
A38
102
{ACAD_REACTORS
330
A36
102
}
330
A36
100
AcDbScale
 70
     0
300
1:2
140
1.0
141
2.0
290
     0
1001
ACAD
1000
AcRTDxfName
1000
SCALE
  0
SCALE
  5
A39
102
{ACAD_REACTORS
330
A36
102
}
330
A36
100
AcDbScale
 70
     0
300
1:4
140
1.0
141
4.0
290
     0
1001
ACAD
1000
AcRTDxfName
1000
SCALE
  0
SCALE
  5
A3A
102
{ACAD_REACTORS
330
A36
102
}
330
A36
100
AcDbScale
 70
     0
300
1:5
140
1.0
141
5.0
290
     0
1001
ACAD
1000
AcRTDxfName
1000
SCALE
  0
SCALE
  5
A3B
102
{ACAD_REACTORS
330
A36
102
}
330
A36
100
AcDbScale
 70
     0
300
1:8
140
1.0
141
8.0
290
     0
1001
ACAD
1000
AcRTDxfName
1000
SCALE
  0
SCALE
  5
A3C
102
{ACAD_REACTORS
330
A36
102
}
330
A36
100
AcDbScale
 70
     0
300
1:10
140
1.0
141
10.0
290
     0
1001
ACAD
1000
AcRTDxfName
1000
SCALE
  0
SCALE
  5
A3D
102
{ACAD_REACTORS
330
A36
102
}
330
A36
100
AcDbScale
 70
     0
300
1:16
140
1.0
141
16.0
290
     0
1001
ACAD
1000
AcRTDxfName
1000
SCALE
  0
SCALE
  5
A3E
102
{ACAD_REACTORS
330
A36
102
}
330
A36
100
AcDbScale
 70
     0
300
1:20
140
1.0
141
20.0
290
     0
1001
ACAD
1000
AcRTDxfName
1000
SCALE
  0
SCALE
  5
A3F
102
{ACAD_REACTORS
330
A36
102
}
330
A36
100
AcDbScale
 70
     0
300
1:30
140
1.0
141
30.0
290
     0
1001
ACAD
1000
AcRTDxfName
1000
SCALE
  0
SCALE
  5
A40
102
{ACAD_REACTORS
330
A36
102
}
330
A36
100
AcDbScale
 70
     0
300
1:40
140
1.0
141
40.0
290
     0
1001
ACAD
1000
AcRTDxfName
1000
SCALE
  0
SCALE
  5
A41
102
{ACAD_REACTORS
330
A36
102
}
330
A36
100
AcDbScale
 70
     0
300
1:50
140
1.0
141
50.0
290
     0
1001
ACAD
1000
AcRTDxfName
1000
SCALE
  0
SCALE
  5
A42
102
{ACAD_REACTORS
330
A36
102
}
330
A36
100
AcDbScale
 70
     0
300
1:100
140
1.0
141
100.0
290
     0
1001
ACAD
1000
AcRTDxfName
1000
SCALE
  0
SCALE
  5
A43
102
{ACAD_REACTORS
330
A36
102
}
330
A36
100
AcDbScale
 70
     0
300
2:1
140
2.0
141
1.0
290
     0
1001
ACAD
1000
AcRTDxfName
1000
SCALE
  0
SCALE
  5
A44
102
{ACAD_REACTORS
330
A36
102
}
330
A36
100
AcDbScale
 70
     0
300
4:1
140
4.0
141
1.0
290
     0
1001
ACAD
1000
AcRTDxfName
1000
SCALE
  0
SCALE
  5
A45
102
{ACAD_REACTORS
330
A36
102
}
330
A36
100
AcDbScale
 70
     0
300
8:1
140
8.0
141
1.0
290
     0
1001
ACAD
1000
AcRTDxfName
1000
SCALE
  0
SCALE
  5
A46
102
{ACAD_REACTORS
330
A36
102
}
330
A36
100
AcDbScale
 70
     0
300
10:1
140
10.0
141
1.0
290
     0
1001
ACAD
1000
AcRTDxfName
1000
SCALE
  0
SCALE
  5
A47
102
{ACAD_REACTORS
330
A36
102
}
330
A36
100
AcDbScale
 70
     0
300
100:1
140
100.0
141
1.0
290
     0
1001
ACAD
1000
AcRTDxfName
1000
SCALE
  0
SCALE
  5
A48
102
{ACAD_REACTORS
330
A36
102
}
330
A36
100
AcDbScale
 70
     0
300
1/128" = 1'-0"
140
0.0078125
141
12.0
290
     0
1001
ACAD
1000
AcRTDxfName
1000
SCALE
  0
SCALE
  5
A49
102
{ACAD_REACTORS
330
A36
102
}
330
A36
100
AcDbScale
 70
     0
300
1/64" = 1'-0"
140
0.015625
141
12.0
290
     0
1001
ACAD
1000
AcRTDxfName
1000
SCALE
  0
SCALE
  5
A4A
102
{ACAD_REACTORS
330
A36
102
}
330
A36
100
AcDbScale
 70
     0
300
1/32" = 1'-0"
140
0.03125
141
12.0
290
     0
1001
ACAD
1000
AcRTDxfName
1000
SCALE
  0
SCALE
  5
A4B
102
{ACAD_REACTORS
330
A36
102
}
330
A36
100
AcDbScale
 70
     0
300
1/16" = 1'-0"
140
0.0625
141
12.0
290
     0
1001
ACAD
1000
AcRTDxfName
1000
SCALE
  0
SCALE
  5
A4C
102
{ACAD_REACTORS
330
A36
102
}
330
A36
100
AcDbScale
 70
     0
300
3/32" = 1'-0"
140
0.09375
141
12.0
290
     0
1001
ACAD
1000
AcRTDxfName
1000
SCALE
  0
SCALE
  5
A4D
102
{ACAD_REACTORS
330
A36
102
}
330
A36
100
AcDbScale
 70
     0
300
1/8" = 1'-0"
140
0.125
141
12.0
290
     0
1001
ACAD
1000
AcRTDxfName
1000
SCALE
  0
SCALE
  5
A4E
102
{ACAD_REACTORS
330
A36
102
}
330
A36
100
AcDbScale
 70
     0
300
3/16" = 1'-0"
140
0.1875
141
12.0
290
     0
1001
ACAD
1000
AcRTDxfName
1000
SCALE
  0
SCALE
  5
A4F
102
{ACAD_REACTORS
330
A36
102
}
330
A36
100
AcDbScale
 70
     0
300
1/4" = 1'-0"
140
0.25
141
12.0
290
     0
1001
ACAD
1000
AcRTDxfName
1000
SCALE
  0
SCALE
  5
A50
102
{ACAD_REACTORS
330
A36
102
}
330
A36
100
AcDbScale
 70
     0
300
3/8" = 1'-0"
140
0.375
141
12.0
290
     0
1001
ACAD
1000
AcRTDxfName
1000
SCALE
  0
SCALE
  5
A51
102
{ACAD_REACTORS
330
A36
102
}
330
A36
100
AcDbScale
 70
     0
300
1/2" = 1'-0"
140
0.5
141
12.0
290
     0
1001
ACAD
1000
AcRTDxfName
1000
SCALE
  0
SCALE
  5
A52
102
{ACAD_REACTORS
330
A36
102
}
330
A36
100
AcDbScale
 70
     0
300
3/4" = 1'-0"
140
0.75
141
12.0
290
     0
1001
ACAD
1000
AcRTDxfName
1000
SCALE
  0
SCALE
  5
A53
102
{ACAD_REACTORS
330
A36
102
}
330
A36
100
AcDbScale
 70
     0
300
1" = 1'-0"
140
1.0
141
12.0
290
     0
1001
ACAD
1000
AcRTDxfName
1000
SCALE
  0
SCALE
  5
A54
102
{ACAD_REACTORS
330
A36
102
}
330
A36
100
AcDbScale
 70
     0
300
1-1/2" = 1'-0"
140
1.5
141
12.0
290
     0
1001
ACAD
1000
AcRTDxfName
1000
SCALE
  0
SCALE
  5
A55
102
{ACAD_REACTORS
330
A36
102
}
330
A36
100
AcDbScale
 70
     0
300
3" = 1'-0"
140
3.0
141
12.0
290
     0
1001
ACAD
1000
AcRTDxfName
1000
SCALE
  0
SCALE
  5
A56
102
{ACAD_REACTORS
330
A36
102
}
330
A36
100
AcDbScale
 70
     0
300
6" = 1'-0"
140
6.0
141
12.0
290
     0
1001
ACAD
1000
AcRTDxfName
1000
SCALE
  0
SCALE
  5
A57
102
{ACAD_REACTORS
330
A36
102
}
330
A36
100
AcDbScale
 70
     0
300
1'-0" = 1'-0"
140
12.0
141
12.0
290
     0
1001
ACAD
1000
AcRTDxfName
1000
SCALE
  0
DICTIONARYVAR
  5
6DF
102
{ACAD_REACTORS
330
6DE
102
}
330
6DE
100
DictionaryVariables
280
     0
  1
1
  0
DICTIONARYVAR
  5
A93
102
{ACAD_REACTORS
330
6DE
102
}
330
6DE
100
DictionaryVariables
280
     0
  1
0
  0
DICTIONARYVAR
  5
6E0
102
{ACAD_REACTORS
330
6DE
102
}
330
6DE
100
DictionaryVariables
280
     0
  1

  0
DICTIONARYVAR
  5
A92
102
{ACAD_REACTORS
330
6DE
102
}
330
6DE
100
DictionaryVariables
280
     0
  1
127
  0
ENDSEC
  0
EOF
