  0
SECTION
  2
HEADER
  9
$ACADVER
  1
AC1015
  9
$ACADMAINTVER
 70
     6
  9
$DWGCODEPAGE
  3
ANSI_932
  9
$INSBASE
 10
0.0
 20
0.0
 30
0.0
  9
$EXTMIN
 10
14717.53959229571
 20
-4299.883381178958
 30
0.0
  9
$EXTMAX
 10
14831.28959229571
 20
-4186.761932404372
 30
0.0
  9
$LIMMIN
 10
0.0
 20
0.0
  9
$LIMMAX
 10
420.0
 20
297.0
  9
$ORTHOMODE
 70
     1
  9
$REGENMODE
 70
     1
  9
$FILLMODE
 70
     1
  9
$QTEXTMODE
 70
     0
  9
$MIRRTEXT
 70
     1
  9
$LTSCALE
 40
5.0
  9
$ATTMODE
 70
     0
  9
$TEXTSIZE
 40
3.5
  9
$TRACEWID
 40
1.0
  9
$TEXTSTYLE
  7
STANDARD
  9
$CLAYER
  8
0
  9
$CELTYPE
  6
BYLAYER
  9
$CECOLOR
 62
   256
  9
$CELTSCALE
 40
1.0
  9
$DISPSILH
 70
     0
  9
$DIMSCALE
 40
1.0
  9
$DIMASZ
 40
2.5
  9
$DIMEXO
 40
1.5
  9
$DIMDLI
 40
7.0
  9
$DIMRND
 40
0.0
  9
$DIMDLE
 40
0.0
  9
$DIMEXE
 40
1.0
  9
$DIMTP
 40
0.0
  9
$DIMTM
 40
0.0
  9
$DIMTXT
 40
3.0
  9
$DIMCEN
 40
0.0
  9
$DIMTSZ
 40
0.0
  9
$DIMTOL
 70
     0
  9
$DIMLIM
 70
     0
  9
$DIMTIH
 70
     0
  9
$DIMTOH
 70
     0
  9
$DIMSE1
 70
     0
  9
$DIMSE2
 70
     0
  9
$DIMTAD
 70
     3
  9
$DIMZIN
 70
     9
  9
$DIMBLK
  1
OPEN30
  9
$DIMASO
 70
     1
  9
$DIMSHO
 70
     0
  9
$DIMPOST
  1

  9
$DIMAPOST
  1

  9
$DIMALT
 70
     0
  9
$DIMALTD
 70
     0
  9
$DIMALTF
 40
25.4
  9
$DIMLFAC
 40
1.0
  9
$DIMTOFL
 70
     1
  9
$DIMTVP
 40
0.0
  9
$DIMTIX
 70
     0
  9
$DIMSOXD
 70
     0
  9
$DIMSAH
 70
     0
  9
$DIMBLK1
  1

  9
$DIMBLK2
  1

  9
$DIMSTYLE
  2
STANDARD
  9
$DIMCLRD
 70
     8
  9
$DIMCLRE
 70
     8
  9
$DIMCLRT
 70
   256
  9
$DIMTFAC
 40
0.6
  9
$DIMGAP
 40
1.0
  9
$DIMJUST
 70
     0
  9
$DIMSD1
 70
     0
  9
$DIMSD2
 70
     0
  9
$DIMTOLJ
 70
     1
  9
$DIMTZIN
 70
     9
  9
$DIMALTZ
 70
     9
  9
$DIMALTTZ
 70
     9
  9
$DIMUPT
 70
     0
  9
$DIMDEC
 70
     3
  9
$DIMTDEC
 70
     3
  9
$DIMALTU
 70
     2
  9
$DIMALTTD
 70
     0
  9
$DIMTXSTY
  7
STANDARD
  9
$DIMAUNIT
 70
     0
  9
$DIMADEC
 70
     3
  9
$DIMALTRND
 40
0.0
  9
$DIMAZIN
 70
     2
  9
$DIMDSEP
 70
    46
  9
$DIMATFIT
 70
     0
  9
$DIMFRAC
 70
     0
  9
$DIMLDRBLK
  1
OPEN30
  9
$DIMLUNIT
 70
     2
  9
$DIMLWD
 70
    -2
  9
$DIMLWE
 70
    -2
  9
$DIMTMOVE
 70
     0
  9
$LUNITS
 70
     2
  9
$LUPREC
 70
     2
  9
$SKETCHINC
 40
0.1
  9
$FILLETRAD
 40
1.0
  9
$AUNITS
 70
     0
  9
$AUPREC
 70
     1
  9
$MENU
  1
FM
  9
$ELEVATION
 40
0.0
  9
$PELEVATION
 40
0.0
  9
$THICKNESS
 40
0.0
  9
$LIMCHECK
 70
     0
  9
$CHAMFERA
 40
0.0
  9
$CHAMFERB
 40
0.0
  9
$CHAMFERC
 40
0.0
  9
$CHAMFERD
 40
0.0
  9
$SKPOLY
 70
     0
  9
$TDCREATE
 40
2448636.619629629
  9
$TDUCREATE
 40
2448636.244629629
  9
$TDUPDATE
 40
2456821.620741273
  9
$TDUUPDATE
 40
2456821.245741273
  9
$TDINDWG
 40
100.8815354051
  9
$TDUSRTIMER
 40
2456821.245591366
  9
$USRTIMER
 70
     1
  9
$ANGBASE
 50
0.0
  9
$ANGDIR
 70
     0
  9
$PDMODE
 70
     3
  9
$PDSIZE
 40
0.0
  9
$PLINEWID
 40
0.0
  9
$SPLFRAME
 70
     0
  9
$SPLINETYPE
 70
     6
  9
$SPLINESEGS
 70
     8
  9
$HANDSEED
  5
3582BF
  9
$SURFTAB1
 70
     6
  9
$SURFTAB2
 70
     6
  9
$SURFTYPE
 70
     6
  9
$SURFU
 70
     6
  9
$SURFV
 70
     6
  9
$UCSBASE
  2

  9
$UCSNAME
  2

  9
$UCSORG
 10
0.0
 20
0.0
 30
0.0
  9
$UCSXDIR
 10
1.0
 20
0.0
 30
0.0
  9
$UCSYDIR
 10
0.0
 20
1.0
 30
0.0
  9
$UCSORTHOREF
  2

  9
$UCSORTHOVIEW
 70
     0
  9
$UCSORGTOP
 10
0.0
 20
0.0
 30
0.0
  9
$UCSORGBOTTOM
 10
0.0
 20
0.0
 30
0.0
  9
$UCSORGLEFT
 10
0.0
 20
0.0
 30
0.0
  9
$UCSORGRIGHT
 10
0.0
 20
0.0
 30
0.0
  9
$UCSORGFRONT
 10
0.0
 20
0.0
 30
0.0
  9
$UCSORGBACK
 10
0.0
 20
0.0
 30
0.0
  9
$PUCSBASE
  2

  9
$PUCSNAME
  2

  9
$PUCSORG
 10
0.0
 20
0.0
 30
0.0
  9
$PUCSXDIR
 10
1.0
 20
0.0
 30
0.0
  9
$PUCSYDIR
 10
0.0
 20
1.0
 30
0.0
  9
$PUCSORTHOREF
  2

  9
$PUCSORTHOVIEW
 70
     0
  9
$PUCSORGTOP
 10
0.0
 20
0.0
 30
0.0
  9
$PUCSORGBOTTOM
 10
0.0
 20
0.0
 30
0.0
  9
$PUCSORGLEFT
 10
0.0
 20
0.0
 30
0.0
  9
$PUCSORGRIGHT
 10
0.0
 20
0.0
 30
0.0
  9
$PUCSORGFRONT
 10
0.0
 20
0.0
 30
0.0
  9
$PUCSORGBACK
 10
0.0
 20
0.0
 30
0.0
  9
$USERI1
 70
     0
  9
$USERI2
 70
     0
  9
$USERI3
 70
     0
  9
$USERI4
 70
     0
  9
$USERI5
 70
     0
  9
$USERR1
 40
0.0
  9
$USERR2
 40
0.0
  9
$USERR3
 40
0.0
  9
$USERR4
 40
0.0
  9
$USERR5
 40
0.0
  9
$WORLDVIEW
 70
     0
  9
$SHADEDGE
 70
     3
  9
$SHADEDIF
 70
    70
  9
$TILEMODE
 70
     1
  9
$MAXACTVP
 70
    16
  9
$PINSBASE
 10
0.0
 20
0.0
 30
0.0
  9
$PLIMCHECK
 70
     0
  9
$PEXTMIN
 10
1.000000000000000E+20
 20
1.000000000000000E+20
 30
1.000000000000000E+20
  9
$PEXTMAX
 10
-1.000000000000000E+20
 20
-1.000000000000000E+20
 30
-1.000000000000000E+20
  9
$PLIMMIN
 10
0.0
 20
0.0
  9
$PLIMMAX
 10
0.0
 20
0.0
  9
$UNITMODE
 70
     0
  9
$VISRETAIN
 70
     0
  9
$PLINEGEN
 70
     0
  9
$PSLTSCALE
 70
     0
  9
$TREEDEPTH
 70
  3020
  9
$CMLSTYLE
  2
STANDARD
  9
$CMLJUST
 70
     0
  9
$CMLSCALE
 40
1.0
  9
$PROXYGRAPHICS
 70
     1
  9
$MEASUREMENT
 70
     0
  9
$CELWEIGHT
370
    -1
  9
$ENDCAPS
280
     0
  9
$JOINSTYLE
280
     0
  9
$LWDISPLAY
290
     1
  9
$INSUNITS
 70
     0
  9
$HYPERLINKBASE
  1

  9
$STYLESHEET
  1
spax form.ctb
  9
$XEDIT
290
     1
  9
$CEPSNTYPE
380
     0
  9
$PSTYLEMODE
290
     1
  9
$FINGERPRINTGUID
  2
{E5B35D22-A717-11D3-9160-00E0294F7E09}
  9
$VERSIONGUID
  2
{7FBD270C-58F0-4BF5-8D60-D3A2D69BF29B}
  9
$EXTNAMES
290
     1
  9
$PSVPSCALE
 40
0.0
  9
$OLESTARTUP
290
     0
  0
ENDSEC
  0
SECTION
  2
CLASSES
  0
CLASS
  1
LWPOLYLINE
  2
AcDbPolyline
  3
ObjectDBX Classes
 90
        0
280
     0
281
     1
  0
CLASS
  1
ACDBDICTIONARYWDFLT
  2
AcDbDictionaryWithDefault
  3
ObjectDBX Classes
 90
        0
280
     0
281
     0
  0
CLASS
  1
ACDBPLACEHOLDER
  2
AcDbPlaceHolder
  3
ObjectDBX Classes
 90
        0
280
     0
281
     0
  0
CLASS
  1
LAYOUT
  2
AcDbLayout
  3
ObjectDBX Classes
 90
        0
280
     0
281
     0
  0
CLASS
  1
DICTIONARYVAR
  2
AcDbDictionaryVar
  3
ObjectDBX Classes
 90
        0
280
     0
281
     0
  0
CLASS
  1
MATERIAL
  2
AcDbMaterial
  3
ObjectDBX Classes
 90
     1153
280
     0
281
     0
  0
CLASS
  1
SORTENTSTABLE
  2
AcDbSortentsTable
  3
ObjectDBX Classes
 90
        0
280
     0
281
     0
  0
CLASS
  1
VISUALSTYLE
  2
AcDbVisualStyle
  3
ObjectDBX Classes
 90
     4095
280
     0
281
     0
  0
CLASS
  1
TABLESTYLE
  2
AcDbTableStyle
  3
ObjectDBX Classes
 90
     4095
280
     0
281
     0
  0
CLASS
  1
SCALE
  2
AcDbScale
  3
ObjectDBX Classes
 90
     1153
280
     0
281
     0
  0
CLASS
  1
MLEADERSTYLE
  2
AcDbMLeaderStyle
  3
ACDB_MLEADERSTYLE_CLASS
 90
     4095
280
     0
281
     0
  0
CLASS
  1
CELLSTYLEMAP
  2
AcDbCellStyleMap
  3
ObjectDBX Classes
 90
     1152
280
     0
281
     0
  0
CLASS
  1
MULTILEADER
  2
AcDbMLeader
  3
ACDB_MLEADER_CLASS
 90
     1025
280
     0
281
     1
  0
CLASS
  1
DIMASSOC
  2
AcDbDimAssoc
  3
"AcDbDimAssoc|Product Desc:     AcDim ARX App For Dimension|Company:          Autodesk, Inc.|WEB Address:      www.autodesk.com"
 90
        0
280
     0
281
     0
  0
CLASS
  1
LARGE_RADIAL_DIMENSION
  2
AcDbRadialDimensionLarge
  3
ObjectDBX Classes
 90
     1025
280
     0
281
     1
  0
CLASS
  1
RASTERVARIABLES
  2
AcDbRasterVariables
  3
ISM
 90
        0
280
     0
281
     0
  0
CLASS
  1
AEC_VARS_DWG_SETUP
  2
AecDbVarsDwgSetup
  3
AecBase60
 90
      129
280
     0
281
     0
  0
CLASS
  1
AEC_DISP_REP_2D_SECTION
  2
AecDbDispRep2dSection
  3
AecBase60
 90
      129
280
     0
281
     0
  0
CLASS
  1
AEC_DISP_PROPS_2D_SECTION
  2
AecDbDispProps2dSection
  3
AecBase60
 90
      129
280
     0
281
     0
  0
CLASS
  1
AEC_DISP_REP_CLIP_VOLUME_MODEL
  2
AecDbDispRepClipVolModel
  3
AecBase60
 90
      129
280
     0
281
     0
  0
CLASS
  1
AEC_DISP_PROPS_CLIP_VOLUME
  2
AecDbDispPropsClipVol
  3
AecBase60
 90
      129
280
     0
281
     0
  0
CLASS
  1
AEC_DISP_REP_CLIP_VOLUME_PLAN
  2
AecDbDispRepClipVolPlan
  3
AecBase60
 90
      129
280
     0
281
     0
  0
CLASS
  1
AEC_DISP_REP_CLIP_VOLUME_RESULT
  2
AecDbDispRepClipVolResult
  3
AecBase60
 90
      129
280
     0
281
     0
  0
CLASS
  1
AEC_DISP_REP_CLIP_VOLUME_RESULT_SUBDIV
  2
AecDbDispRepClipVolResSubDiv
  3
AecBase60
 90
      129
280
     0
281
     0
  0
CLASS
  1
AEC_DISP_PROPS_CLIP_VOLUME_RESULT
  2
AecDbDispPropsClipVolResSubDiv
  3
AecBase60
 90
      129
280
     0
281
     0
  0
CLASS
  1
AEC_DISP_REP_DISPLAYTHEME
  2
AecDbDispRepDisplayTheme
  3
AecBase60
 90
      129
280
     0
281
     0
  0
CLASS
  1
AEC_DISP_PROPS_DISPLAYTHEME
  2
AecDbDispPropsDisplayTheme
  3
AecBase60
 90
      129
280
     0
281
     0
  0
CLASS
  1
AEC_DISP_REP_ENT_REF
  2
AecDbDispRepEntRef
  3
AecBase60
 90
      129
280
     0
281
     0
  0
CLASS
  1
AEC_DISP_PROPS_ENT_REF
  2
AecDbDispPropsEntRef
  3
AecBase60
 90
      129
280
     0
281
     0
  0
CLASS
  1
AEC_DISP_REP_LAYOUT_CURVE
  2
AecDbDispRepLayoutCurve
  3
AecBase60
 90
      129
280
     0
281
     0
  0
CLASS
  1
AEC_DISP_PROPS_LAYOUT_CURVE
  2
AecDbDispPropsLayoutCurve
  3
AecBase60
 90
      129
280
     0
281
     0
  0
CLASS
  1
AEC_DISP_REP_LAYOUT_GRID2D
  2
AecDbDispRepLayoutGrid2d
  3
AecBase60
 90
      129
280
     0
281
     0
  0
CLASS
  1
AEC_DISP_PROPS_LAYOUT_GRID2D
  2
AecDbDispPropsLayoutGrid2d
  3
AecBase60
 90
      129
280
     0
281
     0
  0
CLASS
  1
AEC_DISP_REP_LAYOUT_GRID3D
  2
AecDbDispRepLayoutGrid3d
  3
AecBase60
 90
      129
280
     0
281
     0
  0
CLASS
  1
AEC_DISP_PROPS_LAYOUT_GRID3D
  2
AecDbDispPropsLayoutGrid3d
  3
AecBase60
 90
      129
280
     0
281
     0
  0
CLASS
  1
AEC_DISP_REP_MASKBLOCK_REF
  2
AecDbDispRepMaskBlockRef
  3
AecBase60
 90
      129
280
     0
281
     0
  0
CLASS
  1
AEC_DISP_PROPS_MASKBLOCK
  2
AecDbDispPropsMaskBlock
  3
AecBase60
 90
      129
280
     0
281
     0
  0
CLASS
  1
AEC_DISP_REP_MASKBLOCK_REF_RCP
  2
AecDbDispRepMaskBlockRefRcp
  3
AecArchBase60
 90
      129
280
     0
281
     0
  0
CLASS
  1
AEC_DISP_REP_MASS_ELEM_MODEL
  2
AecDbDispRepMassElemModel
  3
AecBase60
 90
      129
280
     0
281
     0
  0
CLASS
  1
AEC_DISP_PROPS_MASS_ELEM_MODEL
  2
AecDbDispPropsMassElem
  3
AecBase60
 90
      129
280
     0
281
     0
  0
CLASS
  1
AEC_DISP_REP_MASS_ELEM_SCHEM
  2
AecDbDispRepMassElemSchem
  3
AecBase60
 90
      129
280
     0
281
     0
  0
CLASS
  1
AEC_DISPREPAECDBDISPREPMASSELEMPLAN50
  2
AecDbDispRepMassElemPlan50
  3
AecArchDACHBase60
 90
      129
280
     0
281
     0
  0
CLASS
  1
AEC_DISPROPSMASSELEMPLANCOMMON
  2
AecDbDispPropsMassElemPlanCommon
  3
AecArchDACHBase60
 90
      129
280
     0
281
     0
  0
CLASS
  1
AEC_DISPREPAECDBDISPREPMASSELEMPLAN100
  2
AecDbDispRepMassElemPlan100
  3
AecArchDACHBase60
 90
      129
280
     0
281
     0
  0
CLASS
  1
AEC_DISP_REP_MASS_ELEM_RCP
  2
AecDbDispRepMassElemRcp
  3
AecArchBase60
 90
      129
280
     0
281
     0
  0
CLASS
  1
AEC_DISP_REP_MASS_GROUP_MODEL
  2
AecDbDispRepMassGroupModel
  3
AecBase60
 90
      129
280
     0
281
     0
  0
CLASS
  1
AEC_DISP_PROPS_MASS_GROUP
  2
AecDbDispPropsMassGroup
  3
AecBase60
 90
      129
280
     0
281
     0
  0
CLASS
  1
AEC_DISP_REP_MASS_GROUP_PLAN
  2
AecDbDispRepMassGroupPlan
  3
AecBase60
 90
      129
280
     0
281
     0
  0
CLASS
  1
AEC_DISPREPAECDBDISPREPMASSGROUPPLAN50
  2
AecDbDispRepMassGroupPlan50
  3
AecArchDACHBase60
 90
      129
280
     0
281
     0
  0
CLASS
  1
AEC_DISPROPSMASSGROUPPLANCOMMON
  2
AecDbDispPropsMassGroupPlanCommon
  3
AecArchDACHBase60
 90
      129
280
     0
281
     0
  0
CLASS
  1
AEC_DISPREPAECDBDISPREPMASSGROUPPLAN100
  2
AecDbDispRepMassGroupPlan100
  3
AecArchDACHBase60
 90
      129
280
     0
281
     0
  0
CLASS
  1
AEC_DISP_REP_MASS_GROUP_RCP
  2
AecDbDispRepMassGroupRcp
  3
AecArchBase60
 90
      129
280
     0
281
     0
  0
CLASS
  1
AEC_DISP_REP_MVBLOCK_REF
  2
AecDbDispRepMvBlockRef
  3
AecBase60
 90
      129
280
     0
281
     0
  0
CLASS
  1
AEC_DISP_REP_MVBLOCK_REF_MODEL
  2
AecDbDispRepMvBlockRefModel
  3
AecBase60
 90
      129
280
     0
281
     0
  0
CLASS
  1
AEC_AECDBDISPREPMVBLOCKREFPLAN100
  2
AecDbDispRepMvBlockRefPlan100
  3
AecBase60
 90
      129
280
     0
281
     0
  0
CLASS
  1
AEC_AECDBDISPREPMVBLOCKREFPLAN50
  2
AecDbDispRepMvBlockRefPlan50
  3
AecBase60
 90
      129
280
     0
281
     0
  0
CLASS
  1
AEC_DISP_REP_POLYGON_MODEL
  2
AecDbDispRepPolygonModel
  3
AecBase60
 90
      129
280
     0
281
     0
  0
CLASS
  1
AEC_DISP_PROPS_POLYGON_MODEL
  2
AecDbDispPropsPolygonModel
  3
AecBase60
 90
      129
280
     0
281
     0
  0
CLASS
  1
AEC_DISP_REP_POLYGON_TRUECOLOUR
  2
AecDbDispRepPolygonTrueColour
  3
AecBase60
 90
      129
280
     0
281
     0
  0
CLASS
  1
AEC_DISP_PROPS_POLYGON_TRUECOLOUR
  2
AecDbDispPropsPolygonTrueColour
  3
AecBase60
 90
      129
280
     0
281
     0
  0
CLASS
  1
AEC_DISP_REP_SLICE
  2
AecDbDispRepSlice
  3
AecBase60
 90
      129
280
     0
281
     0
  0
CLASS
  1
AEC_DISP_PROPS_SLICE
  2
AecDbDispPropsSlice
  3
AecBase60
 90
      129
280
     0
281
     0
  0
CLASS
  1
AEC_DISP_REP_ANCHOR
  2
AecDbDispRepAnchor
  3
AecBase60
 90
      129
280
     0
281
     0
  0
CLASS
  1
AEC_DISP_REP_ANCHOR_ENT_TO_NODE
  2
AecDbDispRepAnchorEntToNode
  3
AecBase60
 90
      129
280
     0
281
     0
  0
CLASS
  1
AEC_DISP_PROPS_ENT
  2
AecDbDispPropsEnt
  3
AecBase60
 90
      129
280
     0
281
     0
  0
CLASS
  1
AEC_DISP_REP_MATERIAL
  2
AecDbDispRepMaterial
  3
AecBase60
 90
      129
280
     0
281
     0
  0
CLASS
  1
AEC_DISP_PROPS_MATERIAL
  2
AecDbDispPropsMaterial
  3
AecBase60
 90
      129
280
     0
281
     0
  0
CLASS
  1
AEC_DISP_REP_EDITINPLACEPROFILE
  2
AecDbDispRepEditInPlaceProfile
  3
AecBase60
 90
      129
280
     0
281
     0
  0
CLASS
  1
AEC_DISP_PROPS_EDITINPLACEPROFILE_MODEL
  2
AecDbDispPropsEditInPlaceProfile
  3
AecBase60
 90
      129
280
     0
281
     0
  0
CLASS
  1
SUN
  2
AcDbSun
  3
SCENEOE
 90
     1153
280
     0
281
     0
  0
ENDSEC
  0
SECTION
  2
TABLES
  0
TABLE
  2
VPORT
  5
8
330
0
100
AcDbSymbolTable
 70
     1
  0
VPORT
  5
3523F0
330
8
100
AcDbSymbolTableRecord
100
AcDbViewportTableRecord
  2
*Active
 70
     0
 10
0.0
 20
0.0
 11
1.0
 21
1.0
 12
14774.41459229571
 22
-4243.322656791664
 13
0.0
 23
0.0
 14
1.0
 24
1.0
 15
20.0
 25
20.0
 16
0.0
 26
0.0
 36
1.0
 17
0.0
 27
0.0
 37
0.0
 40
115.3838777500782
 41
1.731829573934837
 42
50.0
 43
0.0
 44
0.0
 50
0.0
 51
0.0
 71
    16
 72
   100
 73
     1
 74
     0
 75
     0
 76
     0
 77
     0
 78
     0
281
     0
 65
     1
110
0.0
120
0.0
130
0.0
111
1.0
121
0.0
131
0.0
112
0.0
122
1.0
132
0.0
 79
     0
146
0.0
  0
ENDTAB
  0
TABLE
  2
LTYPE
  5
5
330
0
100
AcDbSymbolTable
 70
     4
  0
LTYPE
  5
12
330
5
100
AcDbSymbolTableRecord
100
AcDbLinetypeTableRecord
  2
BYBLOCK
 70
     0
  3

 72
    65
 73
     0
 40
0.0
  0
LTYPE
  5
13
330
5
100
AcDbSymbolTableRecord
100
AcDbLinetypeTableRecord
  2
BYLAYER
 70
     0
  3

 72
    65
 73
     0
 40
0.0
  0
LTYPE
  5
14
330
5
100
AcDbSymbolTableRecord
100
AcDbLinetypeTableRecord
  2
CONTINUOUS
 70
     0
  3
Solid line
 72
    65
 73
     0
 40
0.0
  0
LTYPE
  5
25
330
5
100
AcDbSymbolTableRecord
100
AcDbLinetypeTableRecord
  2
CENTER
 70
     0
  3
____ _ ____ _ ____ _ ____ _ ____ _ ____ _ ____
 72
    65
 73
     4
 40
2.0
 49
1.25
 74
     0
 49
-0.25
 74
     0
 49
0.25
 74
     0
 49
-0.25
 74
     0
  0
LTYPE
  5
26
330
5
100
AcDbSymbolTableRecord
100
AcDbLinetypeTableRecord
  2
PHANTOM
 70
     0
  3
_____ _ _ _____ _ _ _____ _ _ _____ _ _ ____
 72
    65
 73
     6
 40
2.5
 49
1.25
 74
     0
 49
-0.25
 74
     0
 49
0.25
 74
     0
 49
-0.25
 74
     0
 49
0.25
 74
     0
 49
-0.25
 74
     0
  0
LTYPE
  5
27
330
5
100
AcDbSymbolTableRecord
100
AcDbLinetypeTableRecord
  2
HIDDEN
 70
     0
  3
_ _ _ _ _ _ _ _ _ _ _ _ _ _ _ _ _ _ _ _ _ _ _
 72
    65
 73
     2
 40
0.375
 49
0.25
 74
     0
 49
-0.125
 74
     0
  0
ENDTAB
  0
TABLE
  2
LAYER
  5
2
102
{ACAD_XDICTIONARY
360
559E
102
}
330
0
100
AcDbSymbolTable
 70
    18
  0
LAYER
  5
F
102
{ACAD_XDICTIONARY
360
CD7F
102
}
330
2
100
AcDbSymbolTableRecord
100
AcDbLayerTableRecord
  2
0
 70
     0
 62
     7
  6
CONTINUOUS
370
    -3
390
352
  0
LAYER
  5
2F4
102
{ACAD_XDICTIONARY
360
CD8D
102
}
330
2
100
AcDbSymbolTableRecord
100
AcDbLayerTableRecord
  2
文字
 70
     0
 62
     7
  6
CONTINUOUS
370
    -3
390
352
  0
LAYER
  5
306B15
330
2
100
AcDbSymbolTableRecord
100
AcDbLayerTableRecord
  2
C-SUNPO
 70
     0
 62
     7
  6
CONTINUOUS
370
    -3
390
352
  0
LAYER
  5
31D3CB
330
2
100
AcDbSymbolTableRecord
100
AcDbLayerTableRecord
  2
姿図
 70
     0
 62
     8
  6
CONTINUOUS
370
    -3
390
352
  0
ENDTAB
  0
TABLE
  2
STYLE
  5
3
330
0
100
AcDbSymbolTable
 70
     1
  0
STYLE
  5
10
330
3
100
AcDbSymbolTableRecord
100
AcDbTextStyleTableRecord
  2
STANDARD
 70
     0
 40
0.0
 41
1.0
 50
0.0
 71
     0
 42
3.5
  3
MONOTXT
  4
BIGFONT
  0
ENDTAB
  0
TABLE
  2
VIEW
  5
6
330
0
100
AcDbSymbolTable
 70
     0
  0
ENDTAB
  0
TABLE
  2
UCS
  5
7
330
0
100
AcDbSymbolTable
 70
     0
  0
ENDTAB
  0
TABLE
  2
APPID
  5
9
330
0
100
AcDbSymbolTable
 70
    21
  0
APPID
  5
11
330
9
100
AcDbSymbolTableRecord
100
AcDbRegAppTableRecord
  2
ACAD
 70
     0
  0
APPID
  5
C058
330
9
100
AcDbSymbolTableRecord
100
AcDbRegAppTableRecord
  2
AcAecLayerStandard
 70
     0
  0
APPID
  5
CD77
330
9
100
AcDbSymbolTableRecord
100
AcDbRegAppTableRecord
  2
ACAD_MLEADERVER
 70
     0
  0
APPID
  5
D036
330
9
100
AcDbSymbolTableRecord
100
AcDbRegAppTableRecord
  2
ACAD_PSEXT
 70
     0
  0
APPID
  5
D28E
330
9
100
AcDbSymbolTableRecord
100
AcDbRegAppTableRecord
  2
ACAD_DSTYLE_DIMJAG
 70
     0
  0
APPID
  5
D28F
330
9
100
AcDbSymbolTableRecord
100
AcDbRegAppTableRecord
  2
ACAD_DSTYLE_DIMTALN
 70
     0
  0
APPID
  5
10E35
330
9
100
AcDbSymbolTableRecord
100
AcDbRegAppTableRecord
  2
ACAD_EXEMPT_FROM_CAD_STANDARDS
 70
     0
  0
APPID
  5
36B90
330
9
100
AcDbSymbolTableRecord
100
AcDbRegAppTableRecord
  2
ACAD_DSTYLE_DIMRADIAL_EXTENSION
 70
     0
  0
APPID
  5
4CBB9
330
9
100
AcDbSymbolTableRecord
100
AcDbRegAppTableRecord
  2
WACOM_STRING
 70
     0
  0
APPID
  5
4CBBA
330
9
100
AcDbSymbolTableRecord
100
AcDbRegAppTableRecord
  2
WACOM_DRSYM_ARROW
 70
     0
  0
APPID
  5
83B4C
330
9
100
AcDbSymbolTableRecord
100
AcDbRegAppTableRecord
  2
ACAD_DSTYLE_DIMRADIAL_EXTE
 70
     0
  0
APPID
  5
83B4D
330
9
100
AcDbSymbolTableRecord
100
AcDbRegAppTableRecord
  2
ACAD_DSTYLE_DIMBREAK
 70
     0
  0
APPID
  5
83B4E
330
9
100
AcDbSymbolTableRecord
100
AcDbRegAppTableRecord
  2
ACAD_DSTYLE_DIMARC_LENGTH_
 70
     0
  0
APPID
  5
8B472
330
9
100
AcDbSymbolTableRecord
100
AcDbRegAppTableRecord
  2
LAYER_SCALE
 70
     0
  0
APPID
  5
8B473
330
9
100
AcDbSymbolTableRecord
100
AcDbRegAppTableRecord
  2
KCAD_DIM_EXT
 70
     0
  0
APPID
  5
16ECBA
330
9
100
AcDbSymbolTableRecord
100
AcDbRegAppTableRecord
  2
GENIUS_GENDTOL_13
 70
     0
  0
APPID
  5
23CCFB
330
9
100
AcDbSymbolTableRecord
100
AcDbRegAppTableRecord
  2
AcadAnnotative
 70
     0
  0
APPID
  5
31A28D
330
9
100
AcDbSymbolTableRecord
100
AcDbRegAppTableRecord
  2
ACAD_DSTYLE_DIMFLIPARROW_WHICH_SYMBOL
 70
     0
  0
APPID
  5
35825B
330
9
100
AcDbSymbolTableRecord
100
AcDbRegAppTableRecord
  2
AECBASE
 70
     0
  0
APPID
  5
35825C
330
9
100
AcDbSymbolTableRecord
100
AcDbRegAppTableRecord
  2
AEC_2DSECTION_XDATA
 70
     0
  0
APPID
  5
35825D
330
9
100
AcDbSymbolTableRecord
100
AcDbRegAppTableRecord
  2
AEC_MASSGROUP_XDADA
 70
     0
  0
ENDTAB
  0
TABLE
  2
DIMSTYLE
  5
A
330
0
100
AcDbSymbolTable
 70
     3
100
AcDbDimStyleTable
  0
DIMSTYLE
105
1CC
330
A
100
AcDbSymbolTableRecord
100
AcDbDimStyleTableRecord
  2
STANDARD
 70
     0
 41
2.5
 42
1.5
 43
7.0
 44
1.0
 45
0.0
 73
     0
 74
     0
 77
     3
 78
     8
 79
     2
140
3.0
141
0.0
146
0.6
147
1.0
171
     0
172
     1
176
     8
177
     8
271
     3
178
   256
179
     3
271
     3
272
     3
274
     0
289
     0
340
10
341
265D
342
265D
1001
ACAD_DSTYLE_DIMJAG
1070
   388
1040
1.5
1001
ACAD_DSTYLE_DIMTALN
1070
   392
1070
     0
  0
ENDTAB
  0
TABLE
  2
BLOCK_RECORD
  5
1
330
0
100
AcDbSymbolTable
 70
    39
  0
BLOCK_RECORD
  5
18
102
{ACAD_XDICTIONARY
360
D25F
102
}
330
1
100
AcDbSymbolTableRecord
100
AcDbBlockTableRecord
  2
*MODEL_SPACE
340
355
  0
BLOCK_RECORD
  5
15
330
1
100
AcDbSymbolTableRecord
100
AcDbBlockTableRecord
  2
*PAPER_SPACE
340
356
  0
BLOCK_RECORD
  5
33F
330
1
100
AcDbSymbolTableRecord
100
AcDbBlockTableRecord
  2
_OPEN
340
0
102
{BLKREFS
331
35566C
331
35566D
331
355675
331
355676
331
358220
331
358221
331
358229
331
35822A
102
}
  0
BLOCK_RECORD
  5
416
330
1
100
AcDbSymbolTableRecord
100
AcDbBlockTableRecord
  2
SUN
340
0
  0
BLOCK_RECORD
  5
265D
330
1
100
AcDbSymbolTableRecord
100
AcDbBlockTableRecord
  2
_OPEN30
340
0
  0
ENDTAB
  0
ENDSEC
  0
SECTION
  2
BLOCKS
  0
BLOCK
  5
39
330
18
100
AcDbEntity
  8
0
100
AcDbBlockBegin
  2
*MODEL_SPACE
 70
     0
 10
0.0
 20
0.0
 30
0.0
  3
*MODEL_SPACE
  1
*MODEL_SPACE
  0
ENDBLK
  5
3A
330
18
100
AcDbEntity
  8
0
100
AcDbBlockEnd
  0
BLOCK
  5
37
330
15
100
AcDbEntity
 67
     1
  8
0
100
AcDbBlockBegin
  2
*PAPER_SPACE
 70
     0
 10
0.0
 20
0.0
 30
0.0
  3
*PAPER_SPACE
  1
*PAPER_SPACE
  0
ENDBLK
  5
38
330
15
100
AcDbEntity
 67
     1
  8
0
100
AcDbBlockEnd
  0
BLOCK
  5
340
330
33F
100
AcDbEntity
  8
0
100
AcDbBlockBegin
  2
_OPEN
 70
     0
 10
0.0
 20
0.0
 30
0.0
  3
_OPEN
  1
_OPEN
  0
LINE
  5
341
330
33F
100
AcDbEntity
  8
0
  6
ByBlock
 62
     0
100
AcDbLine
 10
-1.0
 20
0.1666666666666667
 30
0.0
 11
0.0
 21
0.0
 31
0.0
  0
LINE
  5
342
330
33F
100
AcDbEntity
  8
0
  6
ByBlock
 62
     0
100
AcDbLine
 10
0.0
 20
0.0
 30
0.0
 11
-1.0
 21
-0.1666666666666667
 31
0.0
  0
LINE
  5
343
330
33F
100
AcDbEntity
  8
0
  6
ByBlock
 62
     0
100
AcDbLine
 10
0.0
 20
0.0
 30
0.0
 11
-1.0
 21
0.0
 31
0.0
  0
ENDBLK
  5
344
330
33F
100
AcDbEntity
  8
0
100
AcDbBlockEnd
  0
BLOCK
  5
41A
330
416
100
AcDbEntity
  8
0
100
AcDbBlockBegin
  2
SUN
 70
     0
 10
0.0
 20
0.0
 30
0.0
  3
SUN
  1
SUN
  0
LINE
  5
417
330
416
100
AcDbEntity
  8
0
100
AcDbLine
 10
-0.0000000000000568
 20
0.0
 30
0.0
 11
-1.500000000000057
 21
0.0
 31
0.0
  0
LINE
  5
418
330
416
100
AcDbEntity
  8
0
100
AcDbLine
 10
-0.0000000000000568
 20
0.0000000000000284
 30
0.0
 11
-1.500000000000057
 21
0.401923788646684
 31
0.0
  0
LINE
  5
419
330
416
100
AcDbEntity
  8
0
100
AcDbLine
 10
-0.0000000000000568
 20
0.0000000000000284
 30
0.0
 11
-1.500000000000057
 21
-0.4019237886466556
 31
0.0
  0
ENDBLK
  5
41B
330
416
100
AcDbEntity
  8
0
100
AcDbBlockEnd
  0
BLOCK
  5
265E
330
265D
100
AcDbEntity
  8
0
100
AcDbBlockBegin
  2
_OPEN30
 70
     0
 10
0.0
 20
0.0
 30
0.0
  3
_OPEN30
  1
_OPEN30
  0
LINE
  5
265F
330
265D
100
AcDbEntity
  8
0
  6
ByBlock
 62
     0
100
AcDbLine
 10
-1.0
 20
0.26794919
 30
0.0
 11
0.0
 21
0.0
 31
0.0
  0
LINE
  5
2660
330
265D
100
AcDbEntity
  8
0
  6
ByBlock
 62
     0
100
AcDbLine
 10
0.0
 20
0.0
 30
0.0
 11
-1.0
 21
-0.26794919
 31
0.0
  0
LINE
  5
2661
330
265D
100
AcDbEntity
  8
0
  6
ByBlock
 62
     0
100
AcDbLine
 10
0.0
 20
0.0
 30
0.0
 11
-1.0
 21
0.0
 31
0.0
  0
ENDBLK
  5
2662
330
265D
100
AcDbEntity
  8
0
100
AcDbBlockEnd
  0
ENDSEC
  0
SECTION
  2
ENTITIES
  0
MTEXT
  5
8182F
330
18
100
AcDbEntity
  8
0
100
AcDbMText
 10
5598.734167156057
 20
-2635.335630549191
 30
0.0
 40
3.0
 41
0.0
 71
     7
 72
     1
  1
\A1;
 73
     1
 44
1.0
  0
MTEXT
  5
3073B9
330
18
100
AcDbEntity
  8
C-SUNPO
 62
     7
100
AcDbMText
 10
8897.245354628265
 20
-2466.345110988794
 30
0.0
 40
2.0
 41
0.0
 71
     5
 72
     1
  1
\A1;\P\P 
 11
0.999998667560571
 21
0.001632445123950444
 31
0.0
 73
     1
 44
1.0
  0
TEXT
  5
357A3A
330
18
100
AcDbEntity
  8
文字
100
AcDbText
 10
14717.53959229571
 20
-4299.883381178958
 30
0.0
 40
9.75
  1
SL-B9351D/NC
100
AcDbText
  0
SPLINE
  5
357FD8
330
18
100
AcDbEntity
  8
姿図
100
AcDbSpline
210
0.0
220
0.0
230
1.0
 70
     8
 71
     3
 72
     8
 73
     4
 74
     0
 42
0.000000001
 43
0.0000000001
 40
0.0
 40
0.0
 40
0.0
 40
0.0
 40
1.0
 40
1.0
 40
1.0
 40
1.0
 10
14777.12787691038
 20
-4202.448830038693
 30
0.0
 10
14776.01662617756
 20
-4203.022025403663
 30
0.0
 10
14775.54388986322
 20
-4203.398230078832
 30
0.0
 10
14774.58622158846
 20
-4204.33440094358
 30
0.0
  0
SPLINE
  5
357FD9
330
18
100
AcDbEntity
  8
姿図
100
AcDbSpline
210
0.0
220
0.0
230
1.0
 70
     8
 71
     3
 72
     8
 73
     4
 74
     0
 42
0.000000001
 43
0.0000000001
 40
0.0
 40
0.0
 40
0.0
 40
0.0
 40
1.0
 40
1.0
 40
1.0
 40
1.0
 10
14782.63018034353
 20
-4200.738132295999
 30
0.0
 10
14781.37361538729
 20
-4200.925201104257
 30
0.0
 10
14780.22143689311
 20
-4201.16456649648
 30
0.0
 10
14778.83154665364
 20
-4201.693113394507
 30
0.0
  0
SPLINE
  5
357FDA
330
18
100
AcDbEntity
  8
姿図
100
AcDbSpline
210
0.0
220
0.0
230
1.0
 70
     8
 71
     3
 72
     8
 73
     4
 74
     0
 42
0.000000001
 43
0.0000000001
 40
0.0
 40
0.0
 40
0.0
 40
0.0
 40
1.0
 40
1.0
 40
1.0
 40
1.0
 10
14786.57185449232
 20
-4200.453291613372
 30
0.0
 10
14786.57185449232
 20
-4200.453291613372
 30
0.0
 10
14785.62596845189
 20
-4200.415051028258
 30
0.0
 10
14784.06471904994
 20
-4200.571527368425
 30
0.0
  0
SPLINE
  5
357FDB
330
18
100
AcDbEntity
  8
姿図
100
AcDbSpline
210
0.0
220
0.0
230
1.0
 70
     8
 71
     3
 72
    11
 73
     7
 74
     0
 42
0.000000001
 43
0.0000000001
 40
0.0
 40
0.0
 40
0.0
 40
0.0
 40
1.0
 40
1.0
 40
1.0
 40
2.0
 40
2.0
 40
2.0
 40
2.0
 10
14786.40028862397
 20
-4192.543898376733
 30
0.0
 10
14786.40028862397
 20
-4192.543898376733
 30
0.0
 10
14785.08067837876
 20
-4192.598675431085
 30
0.0
 10
14784.78653593219
 20
-4192.786571062803
 30
0.0
 10
14784.78653593219
 20
-4192.786571062803
 30
0.0
 10
14784.95376097736
 20
-4200.490085257426
 30
0.0
 10
14784.95376097736
 20
-4200.490085257426
 30
0.0
  0
POLYLINE
  5
357FDC
330
18
100
AcDbEntity
  8
姿図
100
AcDb2dPolyline
 66
     1
 10
0.0
 20
0.0
 30
0.0
  0
VERTEX
  5
357FDD
330
357FDC
100
AcDbEntity
  8
姿図
100
AcDbVertex
100
AcDb2dVertex
 10
14783.83568895099
 20
-4201.762566565307
 30
0.0
  0
VERTEX
  5
357FDE
330
357FDC
100
AcDbEntity
  8
姿図
100
AcDbVertex
100
AcDb2dVertex
 10
14784.10461328198
 20
-4200.370402561315
 30
0.0
  0
VERTEX
  5
357FDF
330
357FDC
100
AcDbEntity
  8
姿図
100
AcDbVertex
100
AcDb2dVertex
 10
14784.63936135597
 20
-4200.519437490324
 30
0.0
  0
SEQEND
  5
357FE0
330
357FDC
100
AcDbEntity
  8
姿図
  0
SPLINE
  5
357FE1
330
18
100
AcDbEntity
  8
姿図
100
AcDbSpline
210
0.0
220
0.0
230
1.0
 70
     8
 71
     3
 72
    26
 73
    22
 74
     0
 42
0.000000001
 43
0.0000000001
 40
0.0
 40
0.0
 40
0.0
 40
0.0
 40
1.0
 40
1.0
 40
1.0
 40
2.0
 40
2.0
 40
2.0
 40
3.0
 40
3.0
 40
3.0
 40
4.0
 40
4.0
 40
4.0
 40
5.0
 40
5.0
 40
5.0
 40
6.0
 40
6.0
 40
6.0
 40
7.0
 40
7.0
 40
7.0
 40
7.0
 10
14785.9385077205
 20
-4192.573043903765
 30
0.0
 10
14785.9385077205
 20
-4192.573043903765
 30
0.0
 10
14783.09898924643
 20
-4187.11435540823
 30
0.0
 10
14783.09898924643
 20
-4187.11435540823
 30
0.0
 10
14782.61571093294
 20
-4186.648026975712
 30
0.0
 10
14782.49375447231
 20
-4187.145981405647
 30
0.0
 10
14782.49375447231
 20
-4187.145981405647
 30
0.0
 10
14782.49375447231
 20
-4187.145981405647
 30
0.0
 10
14782.59131964082
 20
-4200.67550041876
 30
0.0
 10
14782.59131964082
 20
-4200.67550041876
 30
0.0
 10
14782.59131964082
 20
-4200.67550041876
 30
0.0
 10
14783.32657240432
 20
-4201.870880438817
 30
0.0
 10
14783.32657240432
 20
-4201.870880438817
 30
0.0
 10
14783.32657240432
 20
-4201.870880438817
 30
0.0
 10
14783.88922577015
 20
-4201.94302078587
 30
0.0
 10
14783.83568895099
 20
-4201.762566565307
 30
0.0
 10
14783.7811186025
 20
-4201.581905638879
 30
0.0
 10
14783.23706876457
 20
-4200.593231484299
 30
0.0
 10
14783.23706876457
 20
-4200.593231484299
 30
0.0
 10
14783.23706876457
 20
-4200.593231484299
 30
0.0
 10
14783.09898924643
 20
-4187.11435540823
 30
0.0
 10
14783.09898924643
 20
-4187.11435540823
 30
0.0
  0
SPLINE
  5
357FE2
330
18
100
AcDbEntity
  8
姿図
100
AcDbSpline
210
0.0
220
0.0
230
1.0
 70
     8
 71
     3
 72
     8
 73
     4
 74
     0
 42
0.000000001
 43
0.0000000001
 40
0.0
 40
0.0
 40
0.0
 40
0.0
 40
1.0
 40
1.0
 40
1.0
 40
1.0
 10
14782.59131964082
 20
-4200.67550041876
 30
0.0
 10
14782.59131964082
 20
-4200.67550041876
 30
0.0
 10
14782.68495739787
 20
-4200.400995029406
 30
0.0
 10
14783.23706876457
 20
-4200.593231484299
 30
0.0
  0
SPLINE
  5
357FE3
330
18
100
AcDbEntity
  8
姿図
100
AcDbSpline
210
0.0
220
0.0
230
1.0
 70
     8
 71
     3
 72
    11
 73
     7
 74
     0
 42
0.000000001
 43
0.0000000001
 40
0.0
 40
0.0
 40
0.0
 40
0.0
 40
1.0
 40
1.0
 40
1.0
 40
2.0
 40
2.0
 40
2.0
 40
2.0
 10
14782.53778282166
 20
-4193.153060562296
 30
0.0
 10
14782.53778282166
 20
-4193.153060562296
 30
0.0
 10
14781.6603164227
 20
-4193.331654430068
 30
0.0
 10
14781.51541561101
 20
-4193.561924764211
 30
0.0
 10
14781.51541561101
 20
-4193.561924764211
 30
0.0
 10
14781.67499253915
 20
-4200.906184164633
 30
0.0
 10
14781.67499253915
 20
-4200.906184164633
 30
0.0
  0
SPLINE
  5
357FE4
330
18
100
AcDbEntity
  8
姿図
100
AcDbSpline
210
0.0
220
0.0
230
1.0
 70
     8
 71
     3
 72
    17
 73
    13
 74
     0
 42
0.000000001
 43
0.0000000001
 40
0.0
 40
0.0
 40
0.0
 40
0.0
 40
1.0
 40
1.0
 40
1.0
 40
2.0
 40
2.0
 40
2.0
 40
3.0
 40
3.0
 40
3.0
 40
4.0
 40
4.0
 40
4.0
 40
4.0
 10
14782.50346964799
 20
-4191.608761041312
 30
0.0
 10
14782.50346964799
 20
-4191.608761041312
 30
0.0
 10
14777.63575322186
 20
-4188.52264246973
 30
0.0
 10
14777.63575322186
 20
-4188.52264246973
 30
0.0
 10
14777.63575322186
 20
-4188.52264246973
 30
0.0
 10
14776.96933351155
 20
-4188.093934504729
 30
0.0
 10
14776.927165515
 20
-4188.868874794405
 30
0.0
 10
14776.927165515
 20
-4188.868874794405
 30
0.0
 10
14776.84096916909
 20
-4200.800350761509
 30
0.0
 10
14776.84096916909
 20
-4200.800350761509
 30
0.0
 10
14776.84096916909
 20
-4200.800350761509
 30
0.0
 10
14777.12787691038
 20
-4202.448830038693
 30
0.0
 10
14777.12787691038
 20
-4202.448830038693
 30
0.0
  0
SPLINE
  5
357FE5
330
18
100
AcDbEntity
  8
姿図
100
AcDbSpline
210
0.0
220
0.0
230
1.0
 70
     8
 71
     3
 72
    17
 73
    13
 74
     0
 42
0.000000001
 43
0.0000000001
 40
0.0
 40
0.0
 40
0.0
 40
0.0
 40
1.0
 40
1.0
 40
1.0
 40
2.0
 40
2.0
 40
2.0
 40
3.0
 40
3.0
 40
3.0
 40
4.0
 40
4.0
 40
4.0
 40
4.0
 10
14779.92646762308
 20
-4201.332204953382
 30
0.0
 10
14779.92646762308
 20
-4201.332204953382
 30
0.0
 10
14779.01551487392
 20
-4201.173868260426
 30
0.0
 10
14779.01551487392
 20
-4201.173868260426
 30
0.0
 10
14779.01551487392
 20
-4201.173868260426
 30
0.0
 10
14778.47642597675
 20
-4202.697497194864
 30
0.0
 10
14778.47642597675
 20
-4202.697497194864
 30
0.0
 10
14778.47642597675
 20
-4202.697497194864
 30
0.0
 10
14778.18290364777
 20
-4202.953399056325
 30
0.0
 10
14777.93216943295
 20
-4202.867822828017
 30
0.0
 10
14777.68102180639
 20
-4202.782246599709
 30
0.0
 10
14777.15784926087
 20
-4202.616468495596
 30
0.0
 10
14777.12808361624
 20
-4202.448830038693
 30
0.0
  0
SPLINE
  5
357FE6
330
18
100
AcDbEntity
  8
姿図
100
AcDbSpline
210
0.0
220
0.0
230
1.0
 70
     8
 71
     3
 72
    11
 73
     7
 74
     0
 42
0.000000001
 43
0.0000000001
 40
0.0
 40
0.0
 40
0.0
 40
0.0
 40
1.0
 40
1.0
 40
1.0
 40
2.0
 40
2.0
 40
2.0
 40
2.0
 10
14777.12787691038
 20
-4202.448830038693
 30
0.0
 10
14777.12787691038
 20
-4202.448830038693
 30
0.0
 10
14777.17521255357
 20
-4202.111486066233
 30
0.0
 10
14777.69921192256
 20
-4202.327493695658
 30
0.0
 10
14778.22362470327
 20
-4202.543501325083
 30
0.0
 10
14778.57605820391
 20
-4202.65925660975
 30
0.0
 10
14778.40242527691
 20
-4202.75248095508
 30
0.0
  0
SPLINE
  5
357FE7
330
18
100
AcDbEntity
  8
姿図
100
AcDbSpline
210
0.0
220
0.0
230
1.0
 70
     8
 71
     3
 72
    14
 73
    10
 74
     0
 42
0.000000001
 43
0.0000000001
 40
0.0
 40
0.0
 40
0.0
 40
0.0
 40
1.0
 40
1.0
 40
1.0
 40
2.0
 40
2.0
 40
2.0
 40
3.0
 40
3.0
 40
3.0
 40
3.0
 10
14777.52103146651
 20
-4188.463938003933
 30
0.0
 10
14777.52103146651
 20
-4188.463938003933
 30
0.0
 10
14777.38191841905
 20
-4188.67436457499
 30
0.0
 10
14777.41891876896
 20
-4189.400728986278
 30
0.0
 10
14777.45591911889
 20
-4190.126886691702
 30
0.0
 10
14777.47886346996
 20
-4200.63477936326
 30
0.0
 10
14777.47886346996
 20
-4200.63477936326
 30
0.0
 10
14777.47886346996
 20
-4200.63477936326
 30
0.0
 10
14777.51400346709
 20
-4202.268582523997
 30
0.0
 10
14777.51400346709
 20
-4202.268582523997
 30
0.0
  0
SPLINE
  5
357FE8
330
18
100
AcDbEntity
  8
姿図
100
AcDbSpline
210
0.0
220
0.0
230
1.0
 70
     8
 71
     3
 72
    32
 73
    28
 74
     0
 42
0.000000001
 43
0.0000000001
 40
0.0
 40
0.0
 40
0.0
 40
0.0
 40
1.0
 40
1.0
 40
1.0
 40
2.0
 40
2.0
 40
2.0
 40
3.0
 40
3.0
 40
3.0
 40
4.0
 40
4.0
 40
4.0
 40
5.0
 40
5.0
 40
5.0
 40
6.0
 40
6.0
 40
6.0
 40
7.0
 40
7.0
 40
7.0
 40
8.0
 40
8.0
 40
8.0
 40
9.0
 40
9.0
 40
9.0
 40
9.0
 10
14776.90711504604
 20
-4191.639146803536
 30
0.0
 10
14776.90711504604
 20
-4191.639146803536
 30
0.0
 10
14773.54545755578
 20
-4190.676930999738
 30
0.0
 10
14773.54545755578
 20
-4190.676930999738
 30
0.0
 10
14773.54545755578
 20
-4190.676930999738
 30
0.0
 10
14773.05081041969
 20
-4190.48717501523
 30
0.0
 10
14773.01401677564
 20
-4191.182740252561
 30
0.0
 10
14773.01401677564
 20
-4191.182740252561
 30
0.0
 10
14772.60143186814
 20
-4202.375449456449
 30
0.0
 10
14772.60143186814
 20
-4202.375449456449
 30
0.0
 10
14772.60143186814
 20
-4202.375449456449
 30
0.0
 10
14773.01670395189
 20
-4204.769723496276
 30
0.0
 10
14773.01670395189
 20
-4204.769723496276
 30
0.0
 10
14773.01670395189
 20
-4204.769723496276
 30
0.0
 10
14773.04626289065
 20
-4204.974362303099
 30
0.0
 10
14773.37141121705
 20
-4205.057871472753
 30
0.0
 10
14773.37141121705
 20
-4205.057871472753
 30
0.0
 10
14773.89789105642
 20
-4205.167632287322
 30
0.0
 10
14773.89789105642
 20
-4205.167632287322
 30
0.0
 10
14773.89789105642
 20
-4205.167632287322
 30
0.0
 10
14774.17074279885
 20
-4205.153989700199
 30
0.0
 10
14774.29125231842
 20
-4204.97022818579
 30
0.0
 10
14774.29125231842
 20
-4204.97022818579
 30
0.0
 10
14775.02877884645
 20
-4203.381073491997
 30
0.0
 10
14775.02877884645
 20
-4203.381073491997
 30
0.0
 10
14775.02877884645
 20
-4203.381073491997
 30
0.0
 10
14775.52569974706
 20
-4203.484013013005
 30
0.0
 10
14775.52569974706
 20
-4203.484013013005
 30
0.0
  0
SPLINE
  5
357FE9
330
18
100
AcDbEntity
  8
姿図
100
AcDbSpline
210
0.0
220
0.0
230
1.0
 70
     8
 71
     3
 72
    14
 73
    10
 74
     0
 42
0.000000001
 43
0.0000000001
 40
0.0
 40
0.0
 40
0.0
 40
0.0
 40
1.0
 40
1.0
 40
1.0
 40
2.0
 40
2.0
 40
2.0
 40
3.0
 40
3.0
 40
3.0
 40
3.0
 10
14773.77118036088
 20
-4190.741216523901
 30
0.0
 10
14773.77118036088
 20
-4190.741216523901
 30
0.0
 10
14773.30650557529
 20
-4190.580606066425
 30
0.0
 10
14773.29493004682
 20
-4191.194935898626
 30
0.0
 10
14773.28314781249
 20
-4191.808645613229
 30
0.0
 10
14773.20770017159
 20
-4202.10983241931
 30
0.0
 10
14773.20770017159
 20
-4202.10983241931
 30
0.0
 10
14773.20770017159
 20
-4202.10983241931
 30
0.0
 10
14773.38774098042
 20
-4204.606632568415
 30
0.0
 10
14773.38774098042
 20
-4204.606632568415
 30
0.0
  0
SPLINE
  5
357FEA
330
18
100
AcDbEntity
  8
姿図
100
AcDbSpline
210
0.0
220
0.0
230
1.0
 70
     8
 71
     3
 72
    20
 73
    16
 74
     0
 42
0.000000001
 43
0.0000000001
 40
0.0
 40
0.0
 40
0.0
 40
0.0
 40
1.0
 40
1.0
 40
1.0
 40
2.0
 40
2.0
 40
2.0
 40
3.0
 40
3.0
 40
3.0
 40
4.0
 40
4.0
 40
4.0
 40
5.0
 40
5.0
 40
5.0
 40
5.0
 10
14772.92658019454
 20
-4193.566472293251
 30
0.0
 10
14772.92658019454
 20
-4193.566472293251
 30
0.0
 10
14771.55425995363
 20
-4193.596031232014
 30
0.0
 10
14771.55425995363
 20
-4193.596031232014
 30
0.0
 10
14771.55425995363
 20
-4193.596031232014
 30
0.0
 10
14771.20844104069
 20
-4193.605953113557
 30
0.0
 10
14771.19934598261
 20
-4194.058432253087
 30
0.0
 10
14771.18983751279
 20
-4194.510497980888
 30
0.0
 10
14771.02302587935
 20
-4205.230057458696
 30
0.0
 10
14771.02302587935
 20
-4205.230057458696
 30
0.0
 10
14771.02302587935
 20
-4205.230057458696
 30
0.0
 10
14771.34155961806
 20
-4207.232623883444
 30
0.0
 10
14771.37235879201
 20
-4207.257428587302
 30
0.0
 10
14771.38124714423
 20
-4207.265076704323
 30
0.0
 10
14771.45938196138
 20
-4207.284920467409
 30
0.0
 10
14771.56831595249
 20
-4207.30910505367
 30
0.0
  0
SPLINE
  5
357FEB
330
18
100
AcDbEntity
  8
姿図
100
AcDbSpline
210
0.0
220
0.0
230
1.0
 70
     8
 71
     3
 72
    11
 73
     7
 74
     0
 42
0.000000001
 43
0.0000000001
 40
0.0
 40
0.0
 40
0.0
 40
0.0
 40
1.0
 40
1.0
 40
1.0
 40
2.0
 40
2.0
 40
2.0
 40
2.0
 10
14771.37235879201
 20
-4207.257428587302
 30
0.0
 10
14771.37235879201
 20
-4207.257428587302
 30
0.0
 10
14771.17908880779
 20
-4206.764641804002
 30
0.0
 10
14771.72375876333
 20
-4206.866961207414
 30
0.0
 10
14771.79445216932
 20
-4206.880190382804
 30
0.0
 10
14771.85584381136
 20
-4206.89176591127
 30
0.0
 10
14771.90938063052
 20
-4206.901687792813
 30
0.0
  0
POLYLINE
  5
357FEC
330
18
100
AcDbEntity
  8
姿図
100
AcDb2dPolyline
 66
     1
 10
0.0
 20
0.0
 30
0.0
  0
VERTEX
  5
357FED
330
357FEC
100
AcDbEntity
  8
姿図
100
AcDbVertex
100
AcDb2dVertex
 10
14771.55425995363
 20
-4193.596031232014
 30
0.0
  0
VERTEX
  5
357FEE
330
357FEC
100
AcDbEntity
  8
姿図
100
AcDbVertex
100
AcDb2dVertex
 10
14771.24606150821
 20
-4205.225509929654
 30
0.0
  0
VERTEX
  5
357FEF
330
357FEC
100
AcDbEntity
  8
姿図
100
AcDbVertex
100
AcDb2dVertex
 10
14771.42589561117
 20
-4206.893006146463
 30
0.0
  0
SEQEND
  5
357FF0
330
357FEC
100
AcDbEntity
  8
姿図
  0
SPLINE
  5
357FF1
330
18
100
AcDbEntity
  8
姿図
100
AcDbSpline
210
0.0
220
0.0
230
1.0
 70
     8
 71
     3
 72
    11
 73
     7
 74
     0
 42
0.000000001
 43
0.0000000001
 40
0.0
 40
0.0
 40
0.0
 40
0.0
 40
1.0
 40
1.0
 40
1.0
 40
2.0
 40
2.0
 40
2.0
 40
2.0
 10
14773.11323559107
 20
-4204.92681995404
 30
0.0
 10
14773.11323559107
 20
-4204.92681995404
 30
0.0
 10
14773.03654771497
 20
-4204.520022810779
 30
0.0
 10
14773.51176449971
 20
-4204.623169037653
 30
0.0
 10
14773.98698128444
 20
-4204.726315264526
 30
0.0
 10
14774.46219806918
 20
-4204.829254785534
 30
0.0
 10
14774.29125231842
 20
-4204.97022818579
 30
0.0
  0
SPLINE
  5
357FF2
330
18
100
AcDbEntity
  8
姿図
100
AcDbSpline
210
0.0
220
0.0
230
1.0
 70
     8
 71
     3
 72
     8
 73
     4
 74
     0
 42
0.000000001
 43
0.0000000001
 40
0.0
 40
0.0
 40
0.0
 40
0.0
 40
1.0
 40
1.0
 40
1.0
 40
1.0
 10
14796.09355347968
 20
-4202.037071954662
 30
0.0
 10
14797.22919550462
 20
-4202.561484735379
 30
0.0
 10
14797.71784817061
 20
-4202.917225529865
 30
0.0
 10
14798.71417044221
 20
-4203.810814986326
 30
0.0
  0
SPLINE
  5
357FF3
330
18
100
AcDbEntity
  8
姿図
100
AcDbSpline
210
0.0
220
0.0
230
1.0
 70
     8
 71
     3
 72
     8
 73
     4
 74
     0
 42
0.000000001
 43
0.0000000001
 40
0.0
 40
0.0
 40
0.0
 40
0.0
 40
1.0
 40
1.0
 40
1.0
 40
1.0
 10
14790.5220035816
 20
-4200.566566427653
 30
0.0
 10
14791.7853898314
 20
-4200.69927159329
 30
0.0
 10
14792.94707679538
 20
-4200.888407460203
 30
0.0
 10
14794.35805103314
 20
-4201.355976127913
 30
0.0
  0
SPLINE
  5
357FF4
330
18
100
AcDbEntity
  8
姿図
100
AcDbSpline
210
0.0
220
0.0
230
1.0
 70
     8
 71
     3
 72
     8
 73
     4
 74
     0
 42
0.000000001
 43
0.0000000001
 40
0.0
 40
0.0
 40
0.0
 40
0.0
 40
1.0
 40
1.0
 40
1.0
 40
1.0
 10
14786.57185449232
 20
-4200.453291613372
 30
0.0
 10
14786.57185449232
 20
-4200.453291613372
 30
0.0
 10
14787.51526006236
 20
-4200.373916561028
 30
0.0
 10
14789.08126369922
 20
-4200.462800083184
 30
0.0
  0
SPLINE
  5
357FF5
330
18
100
AcDbEntity
  8
姿図
100
AcDbSpline
210
0.0
220
0.0
230
1.0
 70
     8
 71
     3
 72
    11
 73
     7
 74
     0
 42
0.000000001
 43
0.0000000001
 40
0.0
 40
0.0
 40
0.0
 40
0.0
 40
1.0
 40
1.0
 40
1.0
 40
2.0
 40
2.0
 40
2.0
 40
2.0
 10
14786.40028862397
 20
-4192.543898376733
 30
0.0
 10
14786.40028862397
 20
-4192.543898376733
 30
0.0
 10
14787.72072569264
 20
-4192.541211200481
 30
0.0
 10
14788.0233430797
 20
-4192.716497774407
 30
0.0
 10
14788.0233430797
 20
-4192.716497774407
 30
0.0
 10
14788.18994800728
 20
-4200.420218674895
 30
0.0
 10
14788.18994800728
 20
-4200.420218674895
 30
0.0
  0
POLYLINE
  5
357FF6
330
18
100
AcDbEntity
  8
姿図
100
AcDb2dPolyline
 66
     1
 10
0.0
 20
0.0
 30
0.0
  0
VERTEX
  5
357FF7
330
357FF6
100
AcDbEntity
  8
姿図
100
AcDbVertex
100
AcDb2dVertex
 10
14789.36197026454
 20
-4201.64267716333
 30
0.0
  0
VERTEX
  5
357FF8
330
357FF6
100
AcDbEntity
  8
姿図
100
AcDbVertex
100
AcDb2dVertex
 10
14789.03330793843
 20
-4200.263535628863
 30
0.0
  0
VERTEX
  5
357FF9
330
357FF6
100
AcDbEntity
  8
姿図
100
AcDbVertex
100
AcDb2dVertex
 10
14788.50579456973
 20
-4200.435721614806
 30
0.0
  0
SEQEND
  5
357FFA
330
357FF6
100
AcDbEntity
  8
姿図
  0
SPLINE
  5
357FFB
330
18
100
AcDbEntity
  8
姿図
100
AcDbSpline
210
0.0
220
0.0
230
1.0
 70
     8
 71
     3
 72
    26
 73
    22
 74
     0
 42
0.000000001
 43
0.0000000001
 40
0.0
 40
0.0
 40
0.0
 40
0.0
 40
1.0
 40
1.0
 40
1.0
 40
2.0
 40
2.0
 40
2.0
 40
3.0
 40
3.0
 40
3.0
 40
4.0
 40
4.0
 40
4.0
 40
5.0
 40
5.0
 40
5.0
 40
6.0
 40
6.0
 40
6.0
 40
7.0
 40
7.0
 40
7.0
 40
7.0
 10
14786.86248293918
 20
-4192.552993434814
 30
0.0
 10
14786.86248293918
 20
-4192.552993434814
 30
0.0
 10
14789.46325613862
 20
-4186.976482595956
 30
0.0
 10
14789.46325613862
 20
-4186.976482595956
 30
0.0
 10
14789.92586386556
 20
-4186.48948357689
 30
0.0
 10
14790.0693177362
 20
-4186.981856948458
 30
0.0
 10
14790.0693177362
 20
-4186.981856948458
 30
0.0
 10
14790.0693177362
 20
-4186.981856948458
 30
0.0
 10
14790.55755699046
 20
-4200.502901021086
 30
0.0
 10
14790.55755699046
 20
-4200.502901021086
 30
0.0
 10
14790.55755699046
 20
-4200.502901021086
 30
0.0
 10
14789.87542763438
 20
-4201.7290802151
 30
0.0
 10
14789.87542763438
 20
-4201.7290802151
 30
0.0
 10
14789.87542763438
 20
-4201.7290802151
 30
0.0
 10
14789.31649497413
 20
-4201.825198442547
 30
0.0
 10
14789.36197026454
 20
-4201.64267716333
 30
0.0
 10
14789.40785896667
 20
-4201.459949178248
 30
0.0
 10
14789.90974080805
 20
-4200.448537378466
 30
0.0
 10
14789.90974080805
 20
-4200.448537378466
 30
0.0
 10
14789.90974080805
 20
-4200.448537378466
 30
0.0
 10
14789.46325613862
 20
-4186.976482595956
 30
0.0
 10
14789.46325613862
 20
-4186.976482595956
 30
0.0
  0
SPLINE
  5
357FFC
330
18
100
AcDbEntity
  8
姿図
100
AcDbSpline
210
0.0
220
0.0
230
1.0
 70
     8
 71
     3
 72
     8
 73
     4
 74
     0
 42
0.000000001
 43
0.0000000001
 40
0.0
 40
0.0
 40
0.0
 40
0.0
 40
1.0
 40
1.0
 40
1.0
 40
1.0
 10
14790.55755699046
 20
-4200.502901021086
 30
0.0
 10
14790.55755699046
 20
-4200.502901021086
 30
0.0
 10
14790.45296382253
 20
-4200.232736454906
 30
0.0
 10
14789.90974080805
 20
-4200.448537378466
 30
0.0
  0
SPLINE
  5
357FFD
330
18
100
AcDbEntity
  8
姿図
100
AcDbSpline
210
0.0
220
0.0
230
1.0
 70
     8
 71
     3
 72
    11
 73
     7
 74
     0
 42
0.000000001
 43
0.0000000001
 40
0.0
 40
0.0
 40
0.0
 40
0.0
 40
1.0
 40
1.0
 40
1.0
 40
2.0
 40
2.0
 40
2.0
 40
2.0
 10
14790.28511865976
 20
-4192.985215399527
 30
0.0
 10
14790.28511865976
 20
-4192.985215399527
 30
0.0
 10
14791.17064658747
 20
-4193.125361976322
 30
0.0
 10
14791.32484916311
 20
-4193.349224428634
 30
0.0
 10
14791.32484916311
 20
-4193.349224428634
 30
0.0
 10
14791.4835992678
 20
-4200.693483829056
 30
0.0
 10
14791.4835992678
 20
-4200.693483829056
 30
0.0
  0
SPLINE
  5
357FFE
330
18
100
AcDbEntity
  8
姿図
100
AcDbSpline
210
0.0
220
0.0
230
1.0
 70
     8
 71
     3
 72
    17
 73
    13
 74
     0
 42
0.000000001
 43
0.0000000001
 40
0.0
 40
0.0
 40
0.0
 40
0.0
 40
1.0
 40
1.0
 40
1.0
 40
2.0
 40
2.0
 40
2.0
 40
3.0
 40
3.0
 40
3.0
 40
4.0
 40
4.0
 40
4.0
 40
4.0
 10
14790.25245913301
 20
-4191.440502466812
 30
0.0
 10
14790.25245913301
 20
-4191.440502466812
 30
0.0
 10
14794.98106251168
 20
-4188.14643779456
 30
0.0
 10
14794.98106251168
 20
-4188.14643779456
 30
0.0
 10
14794.98106251168
 20
-4188.14643779456
 30
0.0
 10
14795.62887869409
 20
-4187.689204420123
 30
0.0
 10
14795.70535986432
 20
-4188.461457533548
 30
0.0
 10
14795.70535986432
 20
-4188.461457533548
 30
0.0
 10
14796.30894099151
 20
-4200.377843972472
 30
0.0
 10
14796.30894099151
 20
-4200.377843972472
 30
0.0
 10
14796.30894099151
 20
-4200.377843972472
 30
0.0
 10
14796.09355347968
 20
-4202.037071954662
 30
0.0
 10
14796.09355347968
 20
-4202.037071954662
 30
0.0
  0
SPLINE
  5
357FFF
330
18
100
AcDbEntity
  8
姿図
100
AcDbSpline
210
0.0
220
0.0
230
1.0
 70
     8
 71
     3
 72
    17
 73
    13
 74
     0
 42
0.000000001
 43
0.0000000001
 40
0.0
 40
0.0
 40
0.0
 40
0.0
 40
1.0
 40
1.0
 40
1.0
 40
2.0
 40
2.0
 40
2.0
 40
3.0
 40
3.0
 40
3.0
 40
4.0
 40
4.0
 40
4.0
 40
4.0
 10
14793.25010759417
 20
-4201.043230153444
 30
0.0
 10
14793.25010759417
 20
-4201.043230153444
 30
0.0
 10
14794.15175857939
 20
-4200.845619346048
 30
0.0
 10
14794.15175857939
 20
-4200.845619346048
 30
0.0
 10
14794.15175857939
 20
-4200.845619346048
 30
0.0
 10
14794.75657994177
 20
-4202.344030164896
 30
0.0
 10
14794.75657994177
 20
-4202.344030164896
 30
0.0
 10
14794.75657994177
 20
-4202.344030164896
 30
0.0
 10
14795.06126438749
 20
-4202.587322968564
 30
0.0
 10
14795.30765777914
 20
-4202.490791329385
 30
0.0
 10
14795.55446458252
 20
-4202.394259690207
 30
0.0
 10
14796.07122924621
 20
-4202.206157352623
 30
0.0
 10
14796.09272665622
 20
-4202.037278660528
 30
0.0
  0
SPLINE
  5
358000
330
18
100
AcDbEntity
  8
姿図
100
AcDbSpline
210
0.0
220
0.0
230
1.0
 70
     8
 71
     3
 72
    11
 73
     7
 74
     0
 42
0.000000001
 43
0.0000000001
 40
0.0
 40
0.0
 40
0.0
 40
0.0
 40
1.0
 40
1.0
 40
1.0
 40
2.0
 40
2.0
 40
2.0
 40
2.0
 10
14796.09355347968
 20
-4202.037071954662
 30
0.0
 10
14796.09355347968
 20
-4202.037071954662
 30
0.0
 10
14796.03195513177
 20
-4201.702001746722
 30
0.0
 10
14795.516844115
 20
-4201.940953727215
 30
0.0
 10
14795.00297333342
 20
-4202.179285590109
 30
0.0
 10
14794.65570747942
 20
-4202.310337108824
 30
0.0
 10
14794.83347452373
 20
-4202.396326748862
 30
0.0
  0
SPLINE
  5
358001
330
18
100
AcDbEntity
  8
姿図
100
AcDbSpline
210
0.0
220
0.0
230
1.0
 70
     8
 71
     3
 72
    14
 73
    10
 74
     0
 42
0.000000001
 43
0.0000000001
 40
0.0
 40
0.0
 40
0.0
 40
0.0
 40
1.0
 40
1.0
 40
1.0
 40
2.0
 40
2.0
 40
2.0
 40
3.0
 40
3.0
 40
3.0
 40
3.0
 10
14795.0935105025
 20
-4188.082565682127
 30
0.0
 10
14795.0935105025
 20
-4188.082565682127
 30
0.0
 10
14795.24151190218
 20
-4188.286791077218
 30
0.0
 10
14795.23572413795
 20
-4189.014189017835
 30
0.0
 10
14795.23034978545
 20
-4189.741380252586
 30
0.0
 10
14795.66443210295
 20
-4200.240177866064
 30
0.0
 10
14795.66443210295
 20
-4200.240177866064
 30
0.0
 10
14795.66443210295
 20
-4200.240177866064
 30
0.0
 10
14795.69957210008
 20
-4201.874187732665
 30
0.0
 10
14795.69957210008
 20
-4201.874187732665
 30
0.0
  0
SPLINE
  5
358002
330
18
100
AcDbEntity
  8
姿図
100
AcDbSpline
210
0.0
220
0.0
230
1.0
 70
     8
 71
     3
 72
    32
 73
    28
 74
     0
 42
0.000000001
 43
0.0000000001
 40
0.0
 40
0.0
 40
0.0
 40
0.0
 40
1.0
 40
1.0
 40
1.0
 40
2.0
 40
2.0
 40
2.0
 40
3.0
 40
3.0
 40
3.0
 40
4.0
 40
4.0
 40
4.0
 40
5.0
 40
5.0
 40
5.0
 40
6.0
 40
6.0
 40
6.0
 40
7.0
 40
7.0
 40
7.0
 40
8.0
 40
8.0
 40
8.0
 40
9.0
 40
9.0
 40
9.0
 40
9.0
 10
14795.84426620592
 20
-4191.228422248832
 30
0.0
 10
14795.84426620592
 20
-4191.228422248832
 30
0.0
 10
14799.16065511164
 20
-4190.120892221603
 30
0.0
 10
14799.16065511164
 20
-4190.120892221603
 30
0.0
 10
14799.16065511164
 20
-4190.120892221603
 30
0.0
 10
14799.64724071898
 20
-4189.910258944681
 30
0.0
 10
14799.71421341939
 20
-4190.603550417493
 30
0.0
 10
14799.71421341939
 20
-4190.603550417493
 30
0.0
 10
14800.61255711076
 20
-4201.767734211944
 30
0.0
 10
14800.61255711076
 20
-4201.767734211944
 30
0.0
 10
14800.61255711076
 20
-4201.767734211944
 30
0.0
 10
14800.30125807735
 20
-4204.177717897549
 30
0.0
 10
14800.30125807735
 20
-4204.177717897549
 30
0.0
 10
14800.30125807735
 20
-4204.177717897549
 30
0.0
 10
14800.27976066734
 20
-4204.383183527834
 30
0.0
 10
14799.95853975239
 20
-4204.48116210807
 30
0.0
 10
14799.95853975239
 20
-4204.48116210807
 30
0.0
 10
14799.43846779485
 20
-4204.61366056784
 30
0.0
 10
14799.43846779485
 20
-4204.61366056784
 30
0.0
 10
14799.43846779485
 20
-4204.61366056784
 30
0.0
 10
14799.16478922895
 20
-4204.612006920917
 30
0.0
 10
14799.03704500409
 20
-4204.433206347279
 30
0.0
 10
14799.03704500409
 20
-4204.433206347279
 30
0.0
 10
14798.23130554045
 20
-4202.877538003694
 30
0.0
 10
14798.23130554045
 20
-4202.877538003694
 30
0.0
 10
14798.23130554045
 20
-4202.877538003694
 30
0.0
 10
14797.73893216889
 20
-4203.001974934711
 30
0.0
 10
14797.73893216889
 20
-4203.001974934711
 30
0.0
  0
SPLINE
  5
358003
330
18
100
AcDbEntity
  8
姿図
100
AcDbSpline
210
0.0
220
0.0
230
1.0
 70
     8
 71
     3
 72
    14
 73
    10
 74
     0
 42
0.000000001
 43
0.0000000001
 40
0.0
 40
0.0
 40
0.0
 40
0.0
 40
1.0
 40
1.0
 40
1.0
 40
2.0
 40
2.0
 40
2.0
 40
3.0
 40
3.0
 40
3.0
 40
3.0
 10
14798.93823960039
 20
-4190.19509962731
 30
0.0
 10
14798.93823960039
 20
-4190.19509962731
 30
0.0
 10
14799.39629979829
 20
-4190.014645406747
 30
0.0
 10
14799.43474708927
 20
-4190.627735003754
 30
0.0
 10
14799.47319438025
 20
-4191.240617894896
 30
0.0
 10
14799.99574680817
 20
-4201.528782231451
 30
0.0
 10
14799.99574680817
 20
-4201.528782231451
 30
0.0
 10
14799.99574680817
 20
-4201.528782231451
 30
0.0
 10
14799.92422657872
 20
-4204.030750027194
 30
0.0
 10
14799.92422657872
 20
-4204.030750027194
 30
0.0
  0
SPLINE
  5
358004
330
18
100
AcDbEntity
  8
姿図
100
AcDbSpline
210
0.0
220
0.0
230
1.0
 70
     8
 71
     3
 72
    11
 73
     7
 74
     0
 42
0.000000001
 43
0.0000000001
 40
0.3992620324060756
 40
0.3992620324060756
 40
0.3992620324060756
 40
0.3992620324060756
 40
1.0
 40
1.0
 40
1.0
 40
2.0
 40
2.0
 40
2.0
 40
2.0
 10
14800.33009607101
 20
-4205.405056668939
 30
0.0
 10
14800.27037795107
 20
-4205.268937504876
 30
0.0
 10
14800.23263173001
 20
-4205.180241345115
 30
0.0
 10
14800.23263173001
 20
-4205.180241345115
 30
0.0
 10
14800.23263173001
 20
-4205.180241345115
 30
0.0
 10
14799.88784634639
 20
-4205.251968280436
 30
0.0
 10
14799.88784634639
 20
-4205.251968280436
 30
0.0
  0
SPLINE
  5
358005
330
18
100
AcDbEntity
  8
姿図
100
AcDbSpline
210
0.0
220
0.0
230
1.0
 70
     8
 71
     3
 72
    20
 73
    16
 74
     0
 42
0.000000001
 43
0.0000000001
 40
0.0
 40
0.0
 40
0.0
 40
0.0
 40
1.0
 40
1.0
 40
1.0
 40
2.0
 40
2.0
 40
2.0
 40
3.0
 40
3.0
 40
3.0
 40
4.0
 40
4.0
 40
4.0
 40
4.350547551466185
 40
4.350547551466185
 40
4.350547551466185
 40
4.350547551466185
 10
14799.90603646256
 20
-4192.981081282218
 30
0.0
 10
14799.90603646256
 20
-4192.981081282218
 30
0.0
 10
14801.27856340933
 20
-4192.95131563759
 30
0.0
 10
14801.27856340933
 20
-4192.95131563759
 30
0.0
 10
14801.27856340933
 20
-4192.95131563759
 30
0.0
 10
14801.62334879294
 20
-4192.946147990952
 30
0.0
 10
14801.65270102584
 20
-4193.39738689529
 30
0.0
 10
14801.68205325874
 20
-4193.849039211359
 30
0.0
 10
14802.31250614845
 20
-4204.551648808198
 30
0.0
 10
14802.31250614845
 20
-4204.551648808198
 30
0.0
 10
14802.31250614845
 20
-4204.551648808198
 30
0.0
 10
14802.08182240257
 20
-4206.565584055546
 30
0.0
 10
14802.05205675794
 20
-4206.592042406328
 30
0.0
 10
14802.04799898478
 20
-4206.595592957843
 30
0.0
 10
14802.03002159626
 20
-4206.602267802589
 30
0.0
 10
14802.00157941169
 20
-4206.61116761904
 30
0.0
  0
SPLINE
  5
358006
330
18
100
AcDbEntity
  8
姿図
100
AcDbSpline
210
0.0
220
0.0
230
1.0
 70
     8
 71
     3
 72
    11
 73
     7
 74
     0
 42
0.000000001
 43
0.0000000001
 40
0.0
 40
0.0
 40
0.0
 40
0.0
 40
1.0
 40
1.0
 40
1.0
 40
1.31927336622654
 40
1.31927336622654
 40
1.31927336622654
 40
1.31927336622654
 10
14802.05205675794
 20
-4206.592042406328
 30
0.0
 10
14802.05205675794
 20
-4206.592042406328
 30
0.0
 10
14802.22279580283
 20
-4206.091194094275
 30
0.0
 10
14801.68370690566
 20
-4206.216871260487
 30
0.0
 10
14801.63341819942
 20
-4206.228552495402
 30
0.0
 10
14801.58784932148
 20
-4206.239138055888
 30
0.0
 10
14801.54654281537
 20
-4206.248735578763
 30
0.0
  0
POLYLINE
  5
358007
330
18
100
AcDbEntity
  8
姿図
100
AcDb2dPolyline
 66
     1
 10
0.0
 20
0.0
 30
0.0
  0
VERTEX
  5
358008
330
358007
100
AcDbEntity
  8
姿図
100
AcDbVertex
100
AcDb2dVertex
 10
14801.27856340933
 20
-4192.95131563759
 30
0.0
  0
VERTEX
  5
358009
330
358007
100
AcDbEntity
  8
姿図
100
AcDbVertex
100
AcDb2dVertex
 10
14802.08926381373
 20
-4204.556196337238
 30
0.0
  0
VERTEX
  5
35800A
330
358007
100
AcDbEntity
  8
姿図
100
AcDbVertex
100
AcDb2dVertex
 10
14801.98301699887
 20
-4206.229893730011
 30
0.0
  0
SEQEND
  5
35800B
330
358007
100
AcDbEntity
  8
姿図
  0
SPLINE
  5
35800C
330
18
100
AcDbEntity
  8
姿図
100
AcDbSpline
210
0.0
220
0.0
230
1.0
 70
     8
 71
     3
 72
    11
 73
     7
 74
     0
 42
0.000000001
 43
0.0000000001
 40
0.0
 40
0.0
 40
0.0
 40
0.0
 40
1.0
 40
1.0
 40
1.0
 40
2.0
 40
2.0
 40
2.0
 40
2.0
 10
14800.21030749654
 20
-4204.338948472621
 30
0.0
 10
14800.21030749654
 20
-4204.338948472621
 30
0.0
 10
14800.27066560926
 20
-4203.929050741379
 30
0.0
 10
14799.80102988289
 20
-4204.052454143069
 30
0.0
 10
14799.3297405096
 20
-4204.17627095649
 30
0.0
 10
14798.85927795978
 20
-4204.299674358181
 30
0.0
 10
14799.03704500409
 20
-4204.433206347279
 30
0.0
  0
POLYLINE
  5
35800D
330
18
100
AcDbEntity
  8
姿図
100
AcDb2dPolyline
 66
     1
 10
0.0
 20
0.0
 30
0.0
  0
VERTEX
  5
35800E
330
35800D
100
AcDbEntity
  8
姿図
100
AcDbVertex
100
AcDb2dVertex
 10
14799.66419059995
 20
-4204.915451131439
 30
0.0
  0
VERTEX
  5
35800F
330
35800D
100
AcDbEntity
  8
姿図
100
AcDbVertex
100
AcDb2dVertex
 10
14800.06768044936
 20
-4204.819539609857
 30
0.0
  0
VERTEX
  5
358010
330
35800D
100
AcDbEntity
  8
姿図
100
AcDbVertex
100
AcDb2dVertex
 10
14800.23263173001
 20
-4205.180241345115
 30
0.0
  0
SEQEND
  5
358011
330
35800D
100
AcDbEntity
  8
姿図
  0
SPLINE
  5
358012
330
18
100
AcDbEntity
  8
姿図
100
AcDbSpline
210
0.0
220
0.0
230
1.0
 70
     8
 71
     3
 72
    17
 73
    13
 74
     0
 42
0.000000001
 43
0.0000000001
 40
0.0
 40
0.0
 40
0.0
 40
0.0
 40
1.0
 40
1.0
 40
1.0
 40
2.0
 40
2.0
 40
2.0
 40
3.0
 40
3.0
 40
3.0
 40
4.0
 40
4.0
 40
4.0
 40
4.0
 10
14805.06748192353
 20
-4230.898585127851
 30
0.0
 10
14805.06748192353
 20
-4230.898585127851
 30
0.0
 10
14804.7479146555
 20
-4226.717132175103
 30
0.0
 10
14804.7479146555
 20
-4226.717132175103
 30
0.0
 10
14804.7479146555
 20
-4226.717132175103
 30
0.0
 10
14804.04222083076
 20
-4226.223311862476
 30
0.0
 10
14804.04222083076
 20
-4226.223311862476
 30
0.0
 10
14804.04222083076
 20
-4226.223311862476
 30
0.0
 10
14801.35132387397
 20
-4221.213588506759
 30
0.0
 10
14789.36197026454
 20
-4221.072615106503
 30
0.0
 10
14789.36197026454
 20
-4221.072615106503
 30
0.0
 10
14788.84892630642
 20
-4221.631341060889
 30
0.0
 10
14788.84892630642
 20
-4221.631341060889
 30
0.0
  0
SPLINE
  5
358013
330
18
100
AcDbEntity
  8
姿図
100
AcDbSpline
210
0.0
220
0.0
230
1.0
 70
     8
 71
     3
 72
    11
 73
     7
 74
     0
 42
0.000000001
 43
0.0000000001
 40
0.0
 40
0.0
 40
0.0
 40
0.0
 40
1.0
 40
1.0
 40
1.0
 40
2.0
 40
2.0
 40
2.0
 40
2.0
 10
14788.934089123
 20
-4220.429966570733
 30
0.0
 10
14788.934089123
 20
-4220.429966570733
 30
0.0
 10
14798.75096408627
 20
-4220.437614687757
 30
0.0
 10
14804.395274449
 20
-4225.023797725109
 30
0.0
 10
14804.395274449
 20
-4225.023797725109
 30
0.0
 10
14805.03027486775
 20
-4225.658798143857
 30
0.0
 10
14804.7479146555
 20
-4226.717132175103
 30
0.0
  0
SPLINE
  5
358014
330
18
100
AcDbEntity
  8
姿図
100
AcDbSpline
210
0.0
220
0.0
230
1.0
 70
     8
 71
     3
 72
    23
 73
    19
 74
     0
 42
0.000000001
 43
0.0000000001
 40
0.0
 40
0.0
 40
0.0
 40
0.0
 40
1.0
 40
1.0
 40
1.0
 40
2.0
 40
2.0
 40
2.0
 40
3.0
 40
3.0
 40
3.0
 40
4.0
 40
4.0
 40
4.0
 40
5.0
 40
5.0
 40
5.0
 40
6.0
 40
6.0
 40
6.0
 40
6.0
 10
14807.34041962032
 20
-4233.13514259232
 30
0.0
 10
14803.23028019117
 20
-4226.994324740708
 30
0.0
 10
14788.50579456973
 20
-4226.858312281223
 30
0.0
 10
14788.50579456973
 20
-4226.858312281223
 30
0.0
 10
14787.71535134014
 20
-4226.646645474974
 30
0.0
 10
14787.82655909577
 20
-4225.799978249978
 30
0.0
 10
14787.82655909577
 20
-4225.799978249978
 30
0.0
 10
14787.82655909577
 20
-4225.799978249978
 30
0.0
 10
14788.934089123
 20
-4221.284281912753
 30
0.0
 10
14788.934089123
 20
-4221.284281912753
 30
0.0
 10
14788.934089123
 20
-4221.284281912753
 30
0.0
 10
14788.71001996482
 20
-4202.923840117561
 30
0.0
 10
14788.71001996482
 20
-4202.923840117561
 30
0.0
 10
14788.71001996482
 20
-4202.923840117561
 30
0.0
 10
14785.93478701492
 20
-4201.817757031389
 30
0.0
 10
14785.93478701492
 20
-4201.817757031389
 30
0.0
 10
14785.93478701492
 20
-4201.817757031389
 30
0.0
 10
14785.96877534422
 20
-4228.085788835192
 30
0.0
 10
14785.96877534422
 20
-4228.085788835192
 30
0.0
  0
SPLINE
  5
358015
330
18
100
AcDbEntity
  8
姿図
100
AcDbSpline
210
0.0
220
0.0
230
1.0
 70
     8
 71
     3
 72
    29
 73
    25
 74
     0
 42
0.000000001
 43
0.0000000001
 40
0.0
 40
0.0
 40
0.0
 40
0.0
 40
1.0
 40
1.0
 40
1.0
 40
2.0
 40
2.0
 40
2.0
 40
3.0
 40
3.0
 40
3.0
 40
4.0
 40
4.0
 40
4.0
 40
5.0
 40
5.0
 40
5.0
 40
6.0
 40
6.0
 40
6.0
 40
7.0
 40
7.0
 40
7.0
 40
8.0
 40
8.0
 40
8.0
 40
8.0
 10
14788.934089123
 20
-4220.429966570733
 30
0.0
 10
14788.934089123
 20
-4220.429966570733
 30
0.0
 10
14789.36197026454
 20
-4202.513528974589
 30
0.0
 10
14789.36197026454
 20
-4202.513528974589
 30
0.0
 10
14789.36197026454
 20
-4202.513528974589
 30
0.0
 10
14797.43507454663
 20
-4202.069318069676
 30
0.0
 10
14802.92600915718
 20
-4207.443463866231
 30
0.0
 10
14802.92600915718
 20
-4207.443463866231
 30
0.0
 10
14804.82026170842
 20
-4220.790461600127
 30
0.0
 10
14804.82026170842
 20
-4220.790461600127
 30
0.0
 10
14804.82026170842
 20
-4220.790461600127
 30
0.0
 10
14804.54038196656
 20
-4224.106643799985
 30
0.0
 10
14805.06748192353
 20
-4225.023797725109
 30
0.0
 10
14805.06748192353
 20
-4225.023797725109
 30
0.0
 10
14804.82026170842
 20
-4225.985600117177
 30
0.0
 10
14804.82026170842
 20
-4225.985600117177
 30
0.0
 10
14804.82026170842
 20
-4225.985600117177
 30
0.0
 10
14805.37836754521
 20
-4226.687573236339
 30
0.0
 10
14807.0034890596
 20
-4227.795930087031
 30
0.0
 10
14807.0034890596
 20
-4227.795930087031
 30
0.0
 10
14807.02415964615
 20
-4228.122938766217
 30
0.0
 10
14807.02415964615
 20
-4228.122938766217
 30
0.0
 10
14807.02415964615
 20
-4228.122938766217
 30
0.0
 10
14808.1974221386
 20
-4243.932630181414
 30
0.0
 10
14808.1974221386
 20
-4243.932630181414
 30
0.0
  0
POLYLINE
  5
358016
330
18
100
AcDbEntity
  8
姿図
100
AcDb2dPolyline
 66
     1
 10
0.0
 20
0.0
 30
0.0
  0
VERTEX
  5
358017
330
358016
100
AcDbEntity
  8
姿図
100
AcDbVertex
100
AcDb2dVertex
 10
14804.82026170842
 20
-4220.790461600127
 30
0.0
  0
VERTEX
  5
358018
330
358016
100
AcDbEntity
  8
姿図
100
AcDbVertex
100
AcDb2dVertex
 10
14805.83188021407
 20
-4220.371262104937
 30
0.0
  0
VERTEX
  5
358019
330
358016
100
AcDbEntity
  8
姿図
100
AcDbVertex
100
AcDb2dVertex
 10
14807.51611960598
 20
-4220.444435981317
 30
0.0
  0
VERTEX
  5
35801A
330
358016
100
AcDbEntity
  8
姿図
100
AcDbVertex
100
AcDb2dVertex
 10
14807.73605464685
 20
-4227.75934314884
 30
0.0
  0
VERTEX
  5
35801B
330
358016
100
AcDbEntity
  8
姿図
100
AcDbVertex
100
AcDb2dVertex
 10
14807.0034890596
 20
-4227.795930087031
 30
0.0
  0
SEQEND
  5
35801C
330
358016
100
AcDbEntity
  8
姿図
  0
POLYLINE
  5
35801D
330
18
100
AcDbEntity
  8
姿図
100
AcDb2dPolyline
 66
     1
 10
0.0
 20
0.0
 30
0.0
  0
VERTEX
  5
35801E
330
35801D
100
AcDbEntity
  8
姿図
100
AcDbVertex
100
AcDb2dVertex
 10
14805.83188021407
 20
-4220.371262104937
 30
0.0
  0
VERTEX
  5
35801F
330
35801D
100
AcDbEntity
  8
姿図
100
AcDbVertex
100
AcDb2dVertex
 10
14803.12940772881
 20
-4208.876142219857
 30
0.0
  0
SEQEND
  5
358020
330
35801D
100
AcDbEntity
  8
姿図
  0
SPLINE
  5
358021
330
18
100
AcDbEntity
  8
姿図
100
AcDbSpline
210
0.0
220
0.0
230
1.0
 70
     8
 71
     3
 72
    17
 73
    13
 74
     0
 42
0.000000001
 43
0.0000000001
 40
0.0
 40
0.0
 40
0.0
 40
0.0
 40
1.0
 40
1.0
 40
1.0
 40
2.0
 40
2.0
 40
2.0
 40
3.0
 40
3.0
 40
3.0
 40
4.0
 40
4.0
 40
4.0
 40
4.0
 10
14769.42849683306
 20
-4231.291739683989
 30
0.0
 10
14769.42849683306
 20
-4231.291739683989
 30
0.0
 10
14769.70713633972
 20
-4227.0536493241
 30
0.0
 10
14769.70713633972
 20
-4227.0536493241
 30
0.0
 10
14769.70713633972
 20
-4227.0536493241
 30
0.0
 10
14770.32332652471
 20
-4226.553007717913
 30
0.0
 10
14770.32332652471
 20
-4226.553007717913
 30
0.0
 10
14770.32332652471
 20
-4226.553007717913
 30
0.0
 10
14772.67253868587
 20
-4221.475484838318
 30
0.0
 10
14783.13909018433
 20
-4221.332651085273
 30
0.0
 10
14783.13909018433
 20
-4221.332651085273
 30
0.0
 10
14783.32319661434
 20
-4221.560112942541
 30
0.0
 10
14783.32319661434
 20
-4221.560112942541
 30
0.0
  0
SPLINE
  5
358022
330
18
100
AcDbEntity
  8
姿図
100
AcDbSpline
210
0.0
220
0.0
230
1.0
 70
     8
 71
     3
 72
    11
 73
     7
 74
     0
 42
0.000000001
 43
0.0000000001
 40
0.0
 40
0.0
 40
0.0
 40
0.0
 40
1.0
 40
1.0
 40
1.0
 40
2.0
 40
2.0
 40
2.0
 40
2.0
 10
14783.32551085944
 20
-4220.684563824405
 30
0.0
 10
14783.32551085944
 20
-4220.684563824405
 30
0.0
 10
14774.94258250054
 20
-4220.689175726042
 30
0.0
 10
14770.01512807929
 20
-4225.337370523039
 30
0.0
 10
14770.01512807929
 20
-4225.337370523039
 30
0.0
 10
14769.46074294807
 20
-4225.981052588137
 30
0.0
 10
14769.70713633972
 20
-4227.0536493241
 30
0.0
  0
SPLINE
  5
358023
330
18
100
AcDbEntity
  8
姿図
100
AcDbSpline
210
0.0
220
0.0
230
1.0
 70
     8
 71
     3
 72
    20
 73
    16
 74
     0
 42
0.000000001
 43
0.0000000001
 40
0.0
 40
0.0
 40
0.0
 40
0.0
 40
1.0
 40
1.0
 40
1.0
 40
2.0
 40
2.0
 40
2.0
 40
3.0
 40
3.0
 40
3.0
 40
4.0
 40
4.0
 40
4.0
 40
5.0
 40
5.0
 40
5.0
 40
5.0
 10
14767.24795665814
 20
-4233.558476204818
 30
0.0
 10
14770.8359570711
 20
-4227.334562595284
 30
0.0
 10
14783.69037472756
 20
-4227.196689783011
 30
0.0
 10
14783.69037472756
 20
-4227.196689783011
 30
0.0
 10
14784.38056561239
 20
-4226.982335800511
 30
0.0
 10
14784.28320714975
 20
-4226.124093047047
 30
0.0
 10
14784.28320714975
 20
-4226.124093047047
 30
0.0
 10
14784.28320714975
 20
-4226.124093047047
 30
0.0
 10
14783.31644381691
 20
-4221.547418479506
 30
0.0
 10
14783.31644381691
 20
-4221.547418479506
 30
0.0
 10
14783.31644381691
 20
-4221.547418479506
 30
0.0
 10
14783.51198756565
 20
-4202.938722939876
 30
0.0
 10
14783.51198756565
 20
-4202.938722939876
 30
0.0
 10
14783.51198756565
 20
-4202.938722939876
 30
0.0
 10
14785.93478701492
 20
-4201.817757031389
 30
0.0
 10
14785.93478701492
 20
-4201.817757031389
 30
0.0
  0
SPLINE
  5
358024
330
18
100
AcDbEntity
  8
姿図
100
AcDbSpline
210
0.0
220
0.0
230
1.0
 70
     8
 71
     3
 72
    20
 73
    16
 74
     0
 42
0.000000001
 43
0.0000000001
 40
0.0
 40
0.0
 40
0.0
 40
0.0
 40
1.0
 40
1.0
 40
1.0
 40
2.0
 40
2.0
 40
2.0
 40
3.0
 40
3.0
 40
3.0
 40
4.0
 40
4.0
 40
4.0
 40
5.0
 40
5.0
 40
5.0
 40
5.0
 10
14773.06238594816
 20
-4205.682536598226
 30
0.0
 10
14772.38439070939
 20
-4206.204675614423
 30
0.0
 10
14771.72417217506
 20
-4206.812390858928
 30
0.0
 10
14771.1017808141
 20
-4207.519531624726
 30
0.0
 10
14771.1017808141
 20
-4207.519531624726
 30
0.0
 10
14769.44792718442
 20
-4221.046983579183
 30
0.0
 10
14769.44792718442
 20
-4221.046983579183
 30
0.0
 10
14769.44792718442
 20
-4221.046983579183
 30
0.0
 10
14769.69225351741
 20
-4224.408020951852
 30
0.0
 10
14769.23233296672
 20
-4225.337577228906
 30
0.0
 10
14769.23233296672
 20
-4225.337577228906
 30
0.0
 10
14769.44792718442
 20
-4226.312195384632
 30
0.0
 10
14769.44792718442
 20
-4226.312195384632
 30
0.0
 10
14769.44792718442
 20
-4226.312195384632
 30
0.0
 10
14768.96072145949
 20
-4227.023676973606
 30
0.0
 10
14767.54189239885
 20
-4228.146916646612
 30
0.0
  0
SPLINE
  5
358025
330
18
100
AcDbEntity
  8
姿図
100
AcDbSpline
210
0.0
220
0.0
230
1.0
 70
     8
 71
     3
 72
    11
 73
     7
 74
     0
 42
0.000000001
 43
0.0000000001
 40
0.0
 40
0.0
 40
0.0
 40
0.0
 40
1.0
 40
1.0
 40
1.0
 40
2.0
 40
2.0
 40
2.0
 40
2.0
 10
14783.32551085944
 20
-4220.684563824405
 30
0.0
 10
14783.32551085944
 20
-4220.684563824405
 30
0.0
 10
14782.94292631799
 20
-4202.5230374444
 30
0.0
 10
14782.94292631799
 20
-4202.5230374444
 30
0.0
 10
14782.94292631799
 20
-4202.5230374444
 30
0.0
 10
14777.60640098895
 20
-4202.181972766362
 30
0.0
 10
14773.06238594816
 20
-4205.682536598226
 30
0.0
  0
POLYLINE
  5
358026
330
18
100
AcDbEntity
  8
姿図
100
AcDb2dPolyline
 66
     1
 10
0.0
 20
0.0
 30
0.0
  0
VERTEX
  5
358027
330
358026
100
AcDbEntity
  8
姿図
100
AcDbVertex
100
AcDb2dVertex
 10
14767.54271922231
 20
-4228.135754529876
 30
0.0
  0
VERTEX
  5
358028
330
358026
100
AcDbEntity
  8
姿図
100
AcDbVertex
100
AcDb2dVertex
 10
14767.73805626518
 20
-4228.146916646612
 30
0.0
  0
SEQEND
  5
358029
330
358026
100
AcDbEntity
  8
姿図
  0
POLYLINE
  5
35802A
330
18
100
AcDbEntity
  8
姿図
100
AcDb2dPolyline
 66
     1
 10
0.0
 20
0.0
 30
0.0
  0
VERTEX
  5
35802B
330
35802A
100
AcDbEntity
  8
姿図
100
AcDbVertex
100
AcDb2dVertex
 10
14769.64409105075
 20
-4221.046776873318
 30
0.0
  0
VERTEX
  5
35802C
330
35802A
100
AcDbEntity
  8
姿図
100
AcDbVertex
100
AcDb2dVertex
 10
14768.76104359343
 20
-4220.621789613897
 30
0.0
  0
VERTEX
  5
35802D
330
35802A
100
AcDbEntity
  8
姿図
100
AcDbVertex
100
AcDb2dVertex
 10
14767.29074477229
 20
-4220.695997019602
 30
0.0
  0
VERTEX
  5
35802E
330
35802A
100
AcDbEntity
  8
姿図
100
AcDbVertex
100
AcDb2dVertex
 10
14767.09871502326
 20
-4228.109709590826
 30
0.0
  0
VERTEX
  5
35802F
330
35802A
100
AcDbEntity
  8
姿図
100
AcDbVertex
100
AcDb2dVertex
 10
14767.54271922231
 20
-4228.135754529876
 30
0.0
  0
VERTEX
  5
358030
330
35802A
100
AcDbEntity
  8
姿図
100
AcDbVertex
100
AcDb2dVertex
 10
14766.36573602428
 20
-4243.932630181414
 30
0.0
  0
SEQEND
  5
358031
330
35802A
100
AcDbEntity
  8
姿図
  0
POLYLINE
  5
358032
330
18
100
AcDbEntity
  8
姿図
100
AcDb2dPolyline
 66
     1
 10
0.0
 20
0.0
 30
0.0
  0
VERTEX
  5
358033
330
358032
100
AcDbEntity
  8
姿図
100
AcDbVertex
100
AcDb2dVertex
 10
14768.76104359343
 20
-4220.621789613897
 30
0.0
  0
VERTEX
  5
358034
330
358032
100
AcDbEntity
  8
姿図
100
AcDbVertex
100
AcDb2dVertex
 10
14771.120384342
 20
-4208.971433623843
 30
0.0
  0
SEQEND
  5
358035
330
358032
100
AcDbEntity
  8
姿図
  0
SPLINE
  5
358036
330
18
100
AcDbEntity
  8
姿図
100
AcDbSpline
210
0.0
220
0.0
230
1.0
 70
     8
 71
     3
 72
    17
 73
    13
 74
     0
 42
0.000000001
 43
0.0000000001
 40
0.0
 40
0.0
 40
0.0
 40
0.0
 40
1.0
 40
1.0
 40
1.0
 40
2.0
 40
2.0
 40
2.0
 40
3.0
 40
3.0
 40
3.0
 40
4.0
 40
4.0
 40
4.0
 40
4.0
 10
14805.56667023836
 20
-4247.852934760173
 30
0.0
 10
14808.15277367165
 20
-4246.249389521687
 30
0.0
 10
14808.22925484188
 20
-4244.382835556424
 30
0.0
 10
14808.22925484188
 20
-4244.382835556424
 30
0.0
 10
14808.22925484188
 20
-4239.886156158822
 30
0.0
 10
14798.92128971942
 20
-4236.242345162182
 30
0.0
 10
14787.44043253906
 20
-4236.242345162182
 30
0.0
 10
14775.95998877043
 20
-4236.242345162182
 30
0.0
 10
14768.37140303701
 20
-4238.953499293786
 30
0.0
 10
14766.36573602428
 20
-4243.932630181414
 30
0.0
 10
14766.36573602428
 20
-4243.932630181414
 30
0.0
 10
14765.64226549511
 20
-4246.826512298101
 30
0.0
 10
14769.46700925327
 20
-4247.819116874316
 30
0.0
  0
SPLINE
  5
358037
330
18
100
AcDbEntity
  8
姿図
100
AcDbSpline
210
0.0
220
0.0
230
1.0
 70
     8
 71
     3
 72
    11
 73
     7
 74
     0
 42
0.000000001
 43
0.0000000001
 40
0.0
 40
0.0
 40
0.0
 40
0.0
 40
1.0
 40
1.0
 40
1.0
 40
2.0
 40
2.0
 40
2.0
 40
2.0
 10
14807.41814102575
 20
-4235.327051589846
 30
0.0
 10
14807.41814102575
 20
-4231.48232249196
 30
0.0
 10
14798.49960975384
 20
-4228.057619712727
 30
0.0
 10
14787.24261502579
 20
-4228.057619712727
 30
0.0
 10
14775.98624041534
 20
-4228.057619712727
 30
0.0
 10
14769.42849683306
 20
-4231.291739683989
 30
0.0
 10
14767.06708902584
 20
-4234.519658479289
 30
0.0
  0
SPLINE
  5
358038
330
18
100
AcDbEntity
  8
姿図
100
AcDbSpline
210
0.0
220
0.0
230
1.0
 70
     8
 71
     3
 72
    29
 73
    25
 74
     0
 42
0.000000001
 43
0.0000000001
 40
0.0
 40
0.0
 40
0.0
 40
0.0
 40
1.0
 40
1.0
 40
1.0
 40
2.0
 40
2.0
 40
2.0
 40
3.0
 40
3.0
 40
3.0
 40
4.0
 40
4.0
 40
4.0
 40
5.0
 40
5.0
 40
5.0
 40
6.0
 40
6.0
 40
6.0
 40
7.0
 40
7.0
 40
7.0
 40
7.161209560026494
 40
7.161209560026494
 40
7.161209560026494
 40
7.161209560026494
 10
14806.22390042238
 20
-4247.193485888591
 30
0.0
 10
14806.41682490027
 20
-4246.618334735826
 30
0.0
 10
14806.26861219871
 20
-4246.223347226504
 30
0.0
 10
14805.84758216997
 20
-4245.370623974381
 30
0.0
 10
14805.84758216997
 20
-4245.370623974381
 30
0.0
 10
14806.42709753227
 20
-4244.511858914207
 30
0.0
 10
14806.42709753227
 20
-4244.511858914207
 30
0.0
 10
14806.42709753227
 20
-4244.511858914207
 30
0.0
 10
14807.2813017428
 20
-4239.275960443931
 30
0.0
 10
14789.08126369922
 20
-4238.005959606437
 30
0.0
 10
14789.08126369922
 20
-4238.005959606437
 30
0.0
 10
14788.44957057432
 20
-4239.629014062168
 30
0.0
 10
14788.44957057432
 20
-4239.629014062168
 30
0.0
 10
14788.44957057432
 20
-4239.629014062168
 30
0.0
 10
14785.76859549907
 20
-4239.346653849925
 30
0.0
 10
14781.32359256784
 20
-4239.769987462423
 30
0.0
 10
14781.32359256784
 20
-4239.769987462423
 30
0.0
 10
14780.47692534284
 20
-4238.640960025185
 30
0.0
 10
14780.47692534284
 20
-4238.640960025185
 30
0.0
 10
14780.47692534284
 20
-4238.640960025185
 30
0.0
 10
14766.1075603983
 20
-4240.545961281427
 30
0.0
 10
14767.54189239885
 20
-4246.260965050154
 30
0.0
 10
14767.54189239885
 20
-4246.260965050154
 30
0.0
 10
14767.55500003
 20
-4246.28092732777
 30
0.0
 10
14767.58278018057
 20
-4246.316797202976
 30
0.0
  0
POLYLINE
  5
358039
330
18
100
AcDbEntity
  8
姿図
100
AcDb2dPolyline
 66
     1
 10
0.0
 20
0.0
 30
0.0
  0
VERTEX
  5
35803A
330
358039
100
AcDbEntity
  8
姿図
100
AcDbVertex
100
AcDb2dVertex
 10
14803.12940772881
 20
-4246.616912550506
 30
0.0
  0
VERTEX
  5
35803B
330
358039
100
AcDbEntity
  8
姿図
100
AcDbVertex
100
AcDb2dVertex
 10
14803.12940772881
 20
-4246.616912550506
 30
0.0
  0
SEQEND
  5
35803C
330
358039
100
AcDbEntity
  8
姿図
  0
SPLINE
  5
35803D
330
18
100
AcDbEntity
  8
姿図
100
AcDbSpline
210
0.0
220
0.0
230
1.0
 70
     8
 71
     3
 72
    11
 73
     7
 74
     0
 42
0.000000001
 43
0.0000000001
 40
0.0
 40
0.0
 40
0.0
 40
0.0
 40
1.0
 40
1.0
 40
1.0
 40
2.0
 40
2.0
 40
2.0
 40
2.0
 10
14805.86743912865
 20
-4245.390468341501
 30
0.0
 10
14805.86743912865
 20
-4245.390468341501
 30
0.0
 10
14804.24453210324
 20
-4245.546238494054
 30
0.0
 10
14802.88583251419
 20
-4245.557101442564
 30
0.0
 10
14802.88583251419
 20
-4245.557101442564
 30
0.0
 10
14803.12940772881
 20
-4246.616912550506
 30
0.0
 10
14803.12940772881
 20
-4246.616912550506
 30
0.0
  0
POLYLINE
  5
35803E
330
18
100
AcDbEntity
  8
姿図
100
AcDb2dPolyline
 66
     1
 10
0.0
 20
0.0
 30
0.0
  0
VERTEX
  5
35803F
330
35803E
100
AcDbEntity
  8
姿図
100
AcDbVertex
100
AcDb2dVertex
 10
14806.42709753227
 20
-4244.511858914207
 30
0.0
  0
VERTEX
  5
358040
330
35803E
100
AcDbEntity
  8
姿図
100
AcDbVertex
100
AcDb2dVertex
 10
14803.12940772881
 20
-4244.709017412148
 30
0.0
  0
VERTEX
  5
358041
330
35803E
100
AcDbEntity
  8
姿図
100
AcDbVertex
100
AcDb2dVertex
 10
14802.88583251419
 20
-4245.557101442564
 30
0.0
  0
SEQEND
  5
358042
330
35803E
100
AcDbEntity
  8
姿図
  0
SPLINE
  5
358043
330
18
100
AcDbEntity
  8
姿図
100
AcDbSpline
210
0.0
220
0.0
230
1.0
 70
     8
 71
     3
 72
     8
 73
     4
 74
     0
 42
0.000000001
 43
0.0000000001
 40
0.0
 40
0.0
 40
0.0
 40
0.0
 40
1.0
 40
1.0
 40
1.0
 40
1.0
 10
14803.12940772881
 20
-4244.709017412148
 30
0.0
 10
14803.12940772881
 20
-4244.709017412148
 30
0.0
 10
14799.38596450501
 20
-4239.987028621175
 30
0.0
 10
14788.9591464354
 20
-4240.199968550802
 30
0.0
  0
SPLINE
  5
358044
330
18
100
AcDbEntity
  8
姿図
100
AcDbSpline
210
0.0
220
0.0
230
1.0
 70
     8
 71
     3
 72
    14
 73
    10
 74
     0
 42
0.000000001
 43
0.0000000001
 40
0.0
 40
0.0
 40
0.0
 40
0.0
 40
1.0
 40
1.0
 40
1.0
 40
2.0
 40
2.0
 40
2.0
 40
3.0
 40
3.0
 40
3.0
 40
3.0
 10
14781.32359256784
 20
-4239.769987462423
 30
0.0
 10
14781.32359256784
 20
-4239.769987462423
 30
0.0
 10
14781.8878995806
 20
-4241.322348512161
 30
0.0
 10
14781.8878995806
 20
-4241.322348512161
 30
0.0
 10
14781.8878995806
 20
-4241.322348512161
 30
0.0
 10
14785.27755482423
 20
-4240.95746503155
 30
0.0
 10
14788.60135545146
 20
-4241.217199396344
 30
0.0
 10
14788.60135545146
 20
-4241.217199396344
 30
0.0
 10
14788.44957057432
 20
-4239.629014062168
 30
0.0
 10
14788.44957057432
 20
-4239.629014062168
 30
0.0
  0
SPLINE
  5
358045
330
18
100
AcDbEntity
  8
姿図
100
AcDbSpline
210
0.0
220
0.0
230
1.0
 70
     8
 71
     3
 72
    20
 73
    16
 74
     0
 42
0.000000001
 43
0.0000000001
 40
0.0
 40
0.0
 40
0.0
 40
0.0
 40
1.0
 40
1.0
 40
1.0
 40
2.0
 40
2.0
 40
2.0
 40
3.0
 40
3.0
 40
3.0
 40
4.0
 40
4.0
 40
4.0
 40
5.0
 40
5.0
 40
5.0
 40
5.0
 10
14781.21777081338
 20
-4240.433622903413
 30
0.0
 10
14781.15835996936
 20
-4240.196655866528
 30
0.0
 10
14771.120384342
 20
-4242.016053396703
 30
0.0
 10
14771.120384342
 20
-4245.837631437655
 30
0.0
 10
14771.120384342
 20
-4245.837631437655
 30
0.0
 10
14767.46584641488
 20
-4245.863102109297
 30
0.0
 10
14767.46584641488
 20
-4245.863102109297
 30
0.0
 10
14767.46584641488
 20
-4245.863102109297
 30
0.0
 10
14767.65568755313
 20
-4246.599672872178
 30
0.0
 10
14767.65568755313
 20
-4246.599672872178
 30
0.0
 10
14767.65568755313
 20
-4246.599672872178
 30
0.0
 10
14771.120384342
 20
-4246.616912550506
 30
0.0
 10
14771.120384342
 20
-4246.616912550506
 30
0.0
 10
14771.120384342
 20
-4246.616912550506
 30
0.0
 10
14771.15097681009
 20
-4245.482097349034
 30
0.0
 10
14771.15097681009
 20
-4245.482097349034
 30
0.0
  0
POLYLINE
  5
358046
330
18
100
AcDbEntity
  8
姿図
100
AcDb2dPolyline
 66
     1
 10
0.0
 20
0.0
 30
0.0
  0
VERTEX
  5
358047
330
358046
100
AcDbEntity
  8
姿図
100
AcDbVertex
100
AcDb2dVertex
 10
14775.80176035546
 20
-4222.665463372815
 30
0.0
  0
VERTEX
  5
358048
330
358046
100
AcDbEntity
  8
姿図
100
AcDbVertex
100
AcDb2dVertex
 10
14774.29661086497
 20
-4228.900917032244
 30
0.0
  0
SEQEND
  5
358049
330
358046
100
AcDbEntity
  8
姿図
  0
SPLINE
  5
35804A
330
18
100
AcDbEntity
  8
姿図
100
AcDbSpline
210
0.0
220
0.0
230
1.0
 70
     8
 71
     3
 72
     8
 73
     4
 74
     0
 42
0.000000001
 43
0.0000000001
 40
0.0
 40
0.0
 40
0.0
 40
0.0
 40
1.0
 40
1.0
 40
1.0
 40
1.0
 10
14798.99859771311
 20
-4222.65742897712
 30
0.0
 10
14798.99859771311
 20
-4222.65742897712
 30
0.0
 10
14799.80929811751
 20
-4226.336586676758
 30
0.0
 10
14800.23263173001
 20
-4228.714117541484
 30
0.0
  0
LINE
  5
35804B
330
18
100
AcDbEntity
  8
姿図
100
AcDbLine
 10
14789.08816411314
 20
-4238.057630906804
 30
0.0
 11
14788.92186519959
 21
-4240.273568449884
 31
0.0
  0
LINE
  5
35804C
330
18
100
AcDbEntity
  8
姿図
100
AcDbLine
 10
14788.92186519959
 20
-4240.273568449884
 30
0.0
 11
14788.60774516709
 21
-4241.307672518715
 31
0.0
  0
LINE
  5
35804D
330
18
100
AcDbEntity
  8
姿図
100
AcDbLine
 10
14780.51453054885
 20
-4238.685479749573
 30
0.0
 11
14781.40145808781
 21
-4240.864485088725
 31
0.0
  0
LINE
  5
35804E
330
18
100
AcDbEntity
  8
姿図
100
AcDbLine
 10
14781.40145808781
 20
-4240.864485088725
 30
0.0
 11
14781.86339965189
 21
-4241.363070922892
 31
0.0
  0
LINE
  5
35804F
330
18
100
AcDbEntity
  8
姿図
100
AcDbLine
 10
14771.12130115921
 20
-4246.626348034866
 30
0.0
 11
14771.24719856879
 21
-4246.877986304646
 31
0.0
  0
LINE
  5
358050
330
18
100
AcDbEntity
  8
姿図
100
AcDbLine
 10
14767.65166119752
 20
-4246.60963915866
 30
0.0
 11
14769.46700925327
 21
-4247.819116874316
 31
0.0
  0
LINE
  5
358051
330
18
100
AcDbEntity
  8
姿図
100
AcDbLine
 10
14806.21917445029
 20
-4247.20170052
 30
0.0
 11
14806.68827106296
 21
-4246.993934873852
 31
0.0
  0
LINE
  5
358052
330
18
100
AcDbEntity
  8
姿図
100
AcDbLine
 10
14804.66037659148
 20
-4247.233290478187
 30
0.0
 11
14806.23068712105
 21
-4247.233290478187
 31
0.0
  0
SPLINE
  5
358053
330
18
100
AcDbEntity
  8
姿図
100
AcDbSpline
210
0.0
220
0.0
230
1.0
 70
     8
 71
     3
 72
     8
 73
     4
 74
     0
 42
0.000000001
 43
0.0000000001
 40
0.0
 40
0.0
 40
0.0
 40
0.0
 40
1.0
 40
1.0
 40
1.0
 40
1.0
 10
14787.45138794993
 20
-4259.168682569843
 30
0.0
 10
14775.41097799172
 20
-4259.168682569843
 30
0.0
 10
14765.65032702386
 20
-4261.355217214867
 30
0.0
 10
14765.65032702386
 20
-4264.053142171082
 30
0.0
  0
SPLINE
  5
358054
330
18
100
AcDbEntity
  8
姿図
100
AcDbSpline
210
0.0
220
0.0
230
1.0
 70
     8
 71
     3
 72
    11
 73
     7
 74
     0
 42
0.000000001
 43
0.0000000001
 40
0.0
 40
0.0
 40
0.0
 40
0.0
 40
1.0
 40
1.0
 40
1.0
 40
2.0
 40
2.0
 40
2.0
 40
2.0
 10
14787.45138794993
 20
-4269.24021915938
 30
0.0
 10
14799.49179790814
 20
-4269.24021915938
 30
0.0
 10
14809.25244887599
 20
-4266.985884990479
 30
0.0
 10
14809.25244887599
 20
-4264.204450864612
 30
0.0
 10
14809.25244887599
 20
-4261.423016738744
 30
0.0
 10
14799.49179790814
 20
-4259.168682569843
 30
0.0
 10
14787.45138794993
 20
-4259.168682569843
 30
0.0
  0
SPLINE
  5
358055
330
18
100
AcDbEntity
  8
姿図
100
AcDbSpline
210
0.0
220
0.0
230
1.0
 70
     8
 71
     3
 72
     8
 73
     4
 74
     0
 42
0.000000001
 43
0.0000000001
 40
0.0
 40
0.0
 40
0.0
 40
0.0
 40
1.0
 40
1.0
 40
1.0
 40
1.0
 10
14765.65032702386
 20
-4264.096963814563
 30
0.0
 10
14765.65032702386
 20
-4266.922632995644
 30
0.0
 10
14775.41097799172
 20
-4269.213760808599
 30
0.0
 10
14787.45138794993
 20
-4269.213760808599
 30
0.0
  0
SPLINE
  5
358056
330
18
100
AcDbEntity
  8
姿図
100
AcDbSpline
210
0.0
220
0.0
230
1.0
 70
     8
 71
     3
 72
     8
 73
     4
 74
     0
 42
0.000000001
 43
0.0000000001
 40
0.0
 40
0.0
 40
0.0
 40
0.0
 40
1.0
 40
1.0
 40
1.0
 40
1.0
 10
14787.45138794993
 20
-4258.578744029772
 30
0.0
 10
14774.65050711262
 20
-4258.578744029772
 30
0.0
 10
14764.27345925391
 20
-4261.010845242981
 30
0.0
 10
14764.27345925391
 20
-4264.011387586255
 30
0.0
  0
SPLINE
  5
358057
330
18
100
AcDbEntity
  8
姿図
100
AcDbSpline
210
0.0
220
0.0
230
1.0
 70
     8
 71
     3
 72
    11
 73
     7
 74
     0
 42
0.000000001
 43
0.0000000001
 40
0.0
 40
0.0
 40
0.0
 40
0.0
 40
1.0
 40
1.0
 40
1.0
 40
2.0
 40
2.0
 40
2.0
 40
2.0
 10
14787.45138794993
 20
-4269.744581471145
 30
0.0
 10
14800.25206208136
 20
-4269.744581471145
 30
0.0
 10
14810.62910994008
 20
-4267.244267322327
 30
0.0
 10
14810.62910994008
 20
-4264.161869456324
 30
0.0
 10
14810.62910994008
 20
-4261.078231355127
 30
0.0
 10
14800.25206208136
 20
-4258.578744029772
 30
0.0
 10
14787.45138794993
 20
-4258.578744029772
 30
0.0
  0
SPLINE
  5
358058
330
18
100
AcDbEntity
  8
姿図
100
AcDbSpline
210
0.0
220
0.0
230
1.0
 70
     8
 71
     3
 72
     8
 73
     4
 74
     0
 42
0.000000001
 43
0.0000000001
 40
0.0
 40
0.0
 40
0.0
 40
0.0
 40
1.0
 40
1.0
 40
1.0
 40
1.0
 10
14764.27345925391
 20
-4264.054795818007
 30
0.0
 10
14764.27345925391
 20
-4267.250468498291
 30
0.0
 10
14774.65050711262
 20
-4269.842973463114
 30
0.0
 10
14787.45138794993
 20
-4269.842973463114
 30
0.0
  0
SPLINE
  5
358059
330
18
100
AcDbEntity
  8
姿図
100
AcDbSpline
210
0.0
220
0.0
230
1.0
 70
     8
 71
     3
 72
    11
 73
     7
 74
     0
 42
0.000000001
 43
0.0000000001
 40
0.0
 40
0.0
 40
0.0
 40
0.0
 40
1.0
 40
1.0
 40
1.0
 40
2.0
 40
2.0
 40
2.0
 40
2.0
 10
14785.93478701492
 20
-4244.070886155354
 30
0.0
 10
14806.76701754949
 20
-4244.070886155354
 30
0.0
 10
14807.72447911838
 20
-4250.446935281878
 30
0.0
 10
14807.72447911838
 20
-4250.446935281878
 30
0.0
 10
14807.72447911838
 20
-4250.446935281878
 30
0.0
 10
14808.06264991431
 20
-4251.783908819788
 30
0.0
 10
14808.06264991431
 20
-4251.783908819788
 30
0.0
  0
SPLINE
  5
35805A
330
18
100
AcDbEntity
  8
姿図
100
AcDbSpline
210
0.0
220
0.0
230
1.0
 70
     8
 71
     3
 72
    11
 73
     7
 74
     0
 42
0.000000001
 43
0.0000000001
 40
0.0
 40
0.0
 40
0.0
 40
0.0
 40
1.0
 40
1.0
 40
1.0
 40
2.0
 40
2.0
 40
2.0
 40
2.0
 10
14785.93478701492
 20
-4244.890681617837
 30
0.0
 10
14785.93478701492
 20
-4244.890681617837
 30
0.0
 10
14806.79264907681
 20
-4244.989073609804
 30
0.0
 10
14808.06264991431
 20
-4251.783908819788
 30
0.0
 10
14808.06264991431
 20
-4251.783908819788
 30
0.0
 10
14808.2015562559
 20
-4253.236637642365
 30
0.0
 10
14807.82411134554
 20
-4253.799704419926
 30
0.0
  0
SPLINE
  5
35805B
330
18
100
AcDbEntity
  8
姿図
100
AcDbSpline
210
0.0
220
0.0
230
1.0
 70
     8
 71
     3
 72
    11
 73
     7
 74
     0
 42
0.000000001
 43
0.0000000001
 40
0.0
 40
0.0
 40
0.0
 40
0.0
 40
1.0
 40
1.0
 40
1.0
 40
2.0
 40
2.0
 40
2.0
 40
2.0
 10
14785.93478701492
 20
-4244.070886155354
 30
0.0
 10
14785.93478701492
 20
-4244.070886155354
 30
0.0
 10
14769.99921172765
 20
-4243.76206759233
 30
0.0
 10
14766.3045510881
 20
-4251.287814742641
 30
0.0
 10
14766.3045510881
 20
-4251.287814742641
 30
0.0
 10
14766.13298521975
 20
-4252.211376549596
 30
0.0
 10
14766.23055038825
 20
-4252.898880258175
 30
0.0
  0
SPLINE
  5
35805C
330
18
100
AcDbEntity
  8
姿図
100
AcDbSpline
210
0.0
220
0.0
230
1.0
 70
     8
 71
     3
 72
    11
 73
     7
 74
     0
 42
0.000000001
 43
0.0000000001
 40
0.0
 40
0.0
 40
0.0
 40
0.0
 40
1.0
 40
1.0
 40
1.0
 40
2.0
 40
2.0
 40
2.0
 40
2.0
 10
14785.93478701492
 20
-4244.890681617837
 30
0.0
 10
14785.93478701492
 20
-4244.890681617837
 30
0.0
 10
14769.64409105075
 20
-4244.890681617837
 30
0.0
 10
14766.40769731497
 20
-4251.783908819788
 30
0.0
 10
14766.40769731497
 20
-4251.783908819788
 30
0.0
 10
14765.83656900866
 20
-4253.110547064423
 30
0.0
 10
14766.7452479933
 20
-4254.561208828346
 30
0.0
  0
SPLINE
  5
35805D
330
18
100
AcDbEntity
  8
姿図
100
AcDbSpline
210
0.0
220
0.0
230
1.0
 70
     8
 71
     3
 72
     8
 73
     4
 74
     0
 42
0.000000001
 43
0.0000000001
 40
0.0
 40
0.0
 40
0.0
 40
0.0
 40
1.0
 40
1.0
 40
1.0
 40
1.0
 10
14787.45159465579
 20
-4257.961106903724
 30
0.0
 10
14774.65050711262
 20
-4257.961106903724
 30
0.0
 10
14764.27345925391
 20
-4260.393208116933
 30
0.0
 10
14764.27345925391
 20
-4263.393750460209
 30
0.0
  0
SPLINE
  5
35805E
330
18
100
AcDbEntity
  8
姿図
100
AcDbSpline
210
0.0
220
0.0
230
1.0
 70
     8
 71
     3
 72
     8
 73
     4
 74
     0
 42
0.000000001
 43
0.0000000001
 40
0.0
 40
0.0
 40
0.0
 40
0.0
 40
1.0
 40
1.0
 40
1.0
 40
1.0
 10
14810.62910994008
 20
-4263.544232330276
 30
0.0
 10
14810.62910994008
 20
-4260.46059422908
 30
0.0
 10
14800.25206208136
 20
-4257.961106903724
 30
0.0
 10
14787.45159465579
 20
-4257.961106903724
 30
0.0
  0
SPLINE
  5
35805F
330
18
100
AcDbEntity
  8
姿図
100
AcDbSpline
210
0.0
220
0.0
230
1.0
 70
     8
 71
     3
 72
     8
 73
     4
 74
     0
 42
0.000000001
 43
0.0000000001
 40
0.7737379171080607
 40
0.7737379171080607
 40
0.7737379171080607
 40
0.7737379171080607
 40
1.0
 40
1.0
 40
1.0
 40
1.0
 10
14767.10954724919
 20
-4253.273274027473
 30
0.0
 10
14766.65125912237
 20
-4254.76275782543
 30
0.0
 10
14766.24142408144
 20
-4256.527486858718
 30
0.0
 10
14765.94757005842
 20
-4258.601068263242
 30
0.0
  0
SPLINE
  5
358060
330
18
100
AcDbEntity
  8
姿図
100
AcDbSpline
210
0.0
220
0.0
230
1.0
 70
     8
 71
     3
 72
    11
 73
     7
 74
     0
 42
0.000000001
 43
0.0000000001
 40
0.0
 40
0.0
 40
0.0
 40
0.0
 40
1.0
 40
1.0
 40
1.0
 40
2.0
 40
2.0
 40
2.0
 40
2.0
 10
14807.72447911838
 20
-4253.412337628021
 30
0.0
 10
14807.45534808153
 20
-4249.939679087996
 30
0.0
 10
14799.24457769303
 20
-4246.617089006308
 30
0.0
 10
14787.24261502579
 20
-4246.617089006308
 30
0.0
 10
14768.5810027846
 20
-4246.617089006308
 30
0.0
 10
14767.06708902584
 20
-4253.412337628021
 30
0.0
 10
14767.06708902584
 20
-4253.412337628021
 30
0.0
  0
SPLINE
  5
358061
330
18
100
AcDbEntity
  8
姿図
100
AcDbSpline
210
0.0
220
0.0
230
1.0
 70
     8
 71
     3
 72
     8
 73
     4
 74
     0
 42
0.000000001
 43
0.0000000001
 40
0.0
 40
0.0
 40
0.0
 40
0.0
 40
1.0
 40
1.0
 40
1.0
 40
1.0
 10
14787.42844359886
 20
-4253.72777077874
 30
0.0
 10
14776.26177933402
 20
-4253.72777077874
 30
0.0
 10
14767.07701090739
 20
-4255.865109427779
 30
0.0
 10
14765.97237476228
 20
-4258.604788968822
 30
0.0
  0
SPLINE
  5
358062
330
18
100
AcDbEntity
  8
姿図
100
AcDbSpline
210
0.0
220
0.0
230
1.0
 70
     8
 71
     3
 72
     8
 73
     4
 74
     0
 42
0.000000001
 43
0.0000000001
 40
0.0
 40
0.0
 40
0.0
 40
0.0
 40
1.0
 40
1.0
 40
1.0
 40
1.0
 10
14808.80431055964
 20
-4258.565101442649
 30
0.0
 10
14807.39581679227
 20
-4255.834103547959
 30
0.0
 10
14798.36235705917
 20
-4253.72777077874
 30
0.0
 10
14787.42844359886
 20
-4253.72777077874
 30
0.0
  0
SPLINE
  5
358063
330
18
100
AcDbEntity
  8
姿図
100
AcDbSpline
210
0.0
220
0.0
230
1.0
 70
     8
 71
     3
 72
    11
 73
     7
 74
     0
 42
0.000000001
 43
0.0000000001
 40
0.0
 40
0.0
 40
0.0
 40
0.0
 40
1.0
 40
1.0
 40
1.0
 40
2.0
 40
2.0
 40
2.0
 40
2.0
 10
14765.65032702386
 20
-4261.545386611107
 30
0.0
 10
14765.65032702386
 20
-4261.545386611107
 30
0.0
 10
14765.65032702386
 20
-4259.168682569843
 30
0.0
 10
14765.65032702386
 20
-4259.168682569843
 30
0.0
 10
14765.65032702386
 20
-4259.168682569843
 30
0.0
 10
14765.8057698347
 20
-4258.568822148229
 30
0.0
 10
14765.97237476228
 20
-4258.430742630089
 30
0.0
  0
SPLINE
  5
358064
330
18
100
AcDbEntity
  8
姿図
100
AcDbSpline
210
0.0
220
0.0
230
1.0
 70
     8
 71
     3
 72
    14
 73
    10
 74
     0
 42
0.000000001
 43
0.0000000001
 40
0.0
 40
0.0
 40
0.0
 40
0.0
 40
1.0
 40
1.0
 40
1.0
 40
2.0
 40
2.0
 40
2.0
 40
2.303368034729788
 40
2.303368034729788
 40
2.303368034729788
 40
2.303368034729788
 10
14809.09452559477
 20
-4261.545386611107
 30
0.0
 10
14809.09452559477
 20
-4261.545386611107
 30
0.0
 10
14809.09452559477
 20
-4259.168682569843
 30
0.0
 10
14809.09452559477
 20
-4259.168682569843
 30
0.0
 10
14809.09452559477
 20
-4259.168682569843
 30
0.0
 10
14808.7890907064
 20
-4258.527904159939
 30
0.0
 10
14808.7890907064
 20
-4258.527904159939
 30
0.0
 10
14808.45045730679
 20
-4256.323083141948
 30
0.0
 10
14807.9549536915
 20
-4254.171611504401
 30
0.0
 10
14807.47663602552
 20
-4252.511465884209
 30
0.0
  0
ENDSEC
  0
SECTION
  2
OBJECTS
  0
DICTIONARY
  5
C
330
0
100
AcDbDictionary
281
     1
  3
ACAD_GROUP
350
D
  3
ACAD_IMAGE_VARS
350
2F1759
  3
ACAD_LAYOUT
350
353
  3
ACAD_MLINESTYLE
350
E
  3
ACAD_PLOTSETTINGS
350
354
  3
ACAD_PLOTSTYLENAME
350
351
  3
ACAD_SCALELIST
350
CD53
  3
AcadDim
350
5182D
  3
AcDbVariableDictionary
350
E0D
  3
AEC_DISP_REPS
350
358260
  3
AEC_DISPLAY_PROPS_DEFAULTS
350
358262
  3
AEC_VARS
350
35825E
  3
APPDATA
350
2F1758
  3
DWGPROPS
350
3582BE
  0
DICTIONARY
  5
559E
330
2
100
AcDbDictionary
280
     1
281
     1
  3
ACAD_LAYERFILTERS
360
29A509
  3
ACAD_LAYERSTATES
360
559F
  3
ACLYDICTIONARY
360
29A508
  0
DICTIONARY
  5
CD7F
330
F
100
AcDbDictionary
280
     1
281
     1
  3
ADSK_XREC_LAYER_RECONCILED
360
CD80
  0
DICTIONARY
  5
CD8D
330
2F4
100
AcDbDictionary
280
     1
281
     1
  3
ADSK_XREC_LAYER_RECONCILED
360
CD8E
  0
DICTIONARY
  5
D25F
330
18
100
AcDbDictionary
280
     1
281
     1
  3
ACAD_SORTENTS
360
D260
  0
DICTIONARY
  5
D
102
{ACAD_REACTORS
330
C
102
}
330
C
100
AcDbDictionary
281
     1
  0
RASTERVARIABLES
  5
2F1759
102
{ACAD_REACTORS
330
C
102
}
330
C
100
AcDbRasterVariables
 90
        0
 70
     1
 71
     1
 72
     0
  0
DICTIONARY
  5
353
102
{ACAD_REACTORS
330
C
102
}
330
C
100
AcDbDictionary
281
     1
  3
Model
350
355
  3
ﾚｲｱｳﾄ1
350
356
  0
DICTIONARY
  5
E
102
{ACAD_REACTORS
330
C
102
}
330
C
100
AcDbDictionary
281
     1
  3
STANDARD
350
1B
  0
DICTIONARY
  5
354
102
{ACAD_REACTORS
330
C
102
}
330
C
100
AcDbDictionary
281
     1
  0
ACDBDICTIONARYWDFLT
  5
351
102
{ACAD_REACTORS
330
C
102
}
330
C
100
AcDbDictionary
281
     1
  3
Normal
350
352
100
AcDbDictionaryWithDefault
340
352
  0
DICTIONARY
  5
CD53
102
{ACAD_REACTORS
330
C
102
}
330
C
100
AcDbDictionary
281
     1
  3
A0
350
CD54
  3
A1
350
35DF8
  3
A2
350
35DF9
  3
A3
350
35DFA
  3
A4
350
35DFB
  3
A5
350
35DFC
  3
A6
350
35DFD
  3
A7
350
35DFE
  3
A8
350
35DFF
  3
A9
350
35E00
  3
B0
350
35E01
  3
B1
350
35E02
  3
B2
350
35E03
  3
B3
350
35E04
  3
B4
350
35E05
  3
B5
350
35E06
  3
B6
350
35E07
  3
B7
350
35E08
  3
B8
350
35E09
  3
B9
350
35E0A
  3
C0
350
35E0B
  3
C1
350
35E0C
  3
C2
350
35E0D
  3
C3
350
35E0E
  3
C4
350
35E0F
  3
C5
350
35E10
  3
C6
350
35E11
  3
C7
350
35E12
  3
C8
350
35E13
  3
C9
350
35E14
  3
D0
350
35E15
  3
D1
350
35E16
  3
D2
350
35E17
  0
XRECORD
  5
5182D
102
{ACAD_REACTORS
330
C
102
}
330
C
100
AcDbXrecord
280
     1
 90
   990106
  3
OPEN30
 60
     0
 61
     0
 62
     4
 63
     4
 64
     1
 65
     0
 66
     0
 67
     3
 68
     1
 69
     0
 70
     0
 71
     0
 72
     0
 40
0.0
170
     0
340
0
  0
DICTIONARY
  5
E0D
102
{ACAD_REACTORS
330
C
102
}
330
C
100
AcDbDictionary
281
     1
  3
DIMASSOC
350
E0E
  3
INDEXCTL
350
D04A
  3
PROJECTNAME
350
E0F
  3
SORTENTS
350
D049
  0
DICTIONARY
  5
358260
102
{ACAD_REACTORS
330
C
102
}
330
C
100
AcDbDictionary
281
     1
  3
AecDbDispRep2dSection
350
358261
  3
AecDbDispRepAnchor
350
35829B
  3
AecDbDispRepAnchorEntToNode
350
35829C
  3
AecDbDispRepClipVolModel
350
358268
  3
AecDbDispRepClipVolPlan
350
35826A
  3
AecDbDispRepClipVolResSubDiv
350
35826D
  3
AecDbDispRepClipVolResult
350
35826C
  3
AecDbDispRepDisplayTheme
350
35826F
  3
AecDbDispRepEditInPlaceProfile
350
3582A0
  3
AecDbDispRepEntRef
350
358271
  3
AecDbDispRepLayoutCurve
350
358273
  3
AecDbDispRepLayoutGrid2d
350
358275
  3
AecDbDispRepLayoutGrid3d
350
358277
  3
AecDbDispRepMaskBlockRef
350
358279
  3
AecDbDispRepMaskBlockRefRcp
350
35827B
  3
AecDbDispRepMassElemModel
350
35827D
  3
AecDbDispRepMassElemPlan100
350
358283
  3
AecDbDispRepMassElemPlan50
350
358281
  3
AecDbDispRepMassElemRcp
350
358285
  3
AecDbDispRepMassElemSchem
350
35827F
  3
AecDbDispRepMassGroupModel
350
358287
  3
AecDbDispRepMassGroupPlan
350
358289
  3
AecDbDispRepMassGroupPlan100
350
35828D
  3
AecDbDispRepMassGroupPlan50
350
35828B
  3
AecDbDispRepMassGroupRcp
350
35828F
  3
AecDbDispRepMaterial
350
35829E
  3
AecDbDispRepMvBlockRef
350
358291
  3
AecDbDispRepMvBlockRefModel
350
358292
  3
AecDbDispRepMvBlockRefPlan100
350
358293
  3
AecDbDispRepMvBlockRefPlan50
350
358294
  3
AecDbDispRepPolygonModel
350
358295
  3
AecDbDispRepPolygonTrueColour
350
358297
  3
AecDbDispRepSlice
350
358299
  0
DICTIONARY
  5
358262
102
{ACAD_REACTORS
330
C
102
}
330
C
100
AcDbDictionary
281
     1
  3
*A1
350
358263
  3
*A10
350
35827A
  3
*A11
350
35827C
  3
*A12
350
35827E
  3
*A13
350
358280
  3
*A14
350
358282
  3
*A15
350
358284
  3
*A16
350
358286
  3
*A17
350
358288
  3
*A18
350
35828A
  3
*A19
350
35828C
  3
*A2
350
358269
  3
*A20
350
35828E
  3
*A21
350
358290
  3
*A22
350
358296
  3
*A23
350
358298
  3
*A24
350
35829A
  3
*A25
350
35829D
  3
*A26
350
35829F
  3
*A27
350
3582A1
  3
*A3
350
35826B
  3
*A4
350
35826E
  3
*A5
350
358270
  3
*A6
350
358272
  3
*A7
350
358274
  3
*A8
350
358276
  3
*A9
350
358278
  0
DICTIONARY
  5
35825E
102
{ACAD_REACTORS
330
C
102
}
330
C
100
AcDbDictionary
281
     1
  3
AEC_VARS_DWG_SETUP
350
35825F
  0
DICTIONARY
  5
2F1758
102
{ACAD_REACTORS
330
C
102
}
330
C
100
AcDbDictionary
281
     1
  0
XRECORD
  5
3582BE
102
{ACAD_REACTORS
330
C
102
}
330
C
100
AcDbXrecord
280
     1
  1
DWGPROPS COOKIE
  2

  3

  4

  6

  7

  8
SPAX
  9

300
=
301
=
302
=
303
=
304
=
305
=
306
=
307
=
308
=
309
=
 40
0.0
 41
2448636.244629629
 42
2456821.245741273
  1

 90
        0
  0
DICTIONARY
  5
29A509
102
{ACAD_REACTORS
330
559E
102
}
330
559E
100
AcDbDictionary
281
     1
  0
DICTIONARY
  5
559F
102
{ACAD_REACTORS
330
559E
102
}
330
559E
100
AcDbDictionary
281
     1
  0
DICTIONARY
  5
29A508
102
{ACAD_REACTORS
330
559E
102
}
330
559E
100
AcDbDictionary
281
     1
1001
ACAD
1000
<All
  0
XRECORD
  5
CD80
102
{ACAD_REACTORS
330
CD7F
102
}
330
CD7F
100
AcDbXrecord
280
     1
290
     1
  0
XRECORD
  5
CD8E
102
{ACAD_REACTORS
330
CD8D
102
}
330
CD8D
100
AcDbXrecord
280
     1
290
     1
  0
SORTENTSTABLE
  5
D260
102
{ACAD_REACTORS
330
D25F
102
}
330
D25F
100
AcDbSortentsTable
330
18
331
0
  5
33C6BA
331
8182F
  5
2FEC53
331
3073B9
  5
307455
  0
LAYOUT
  5
355
102
{ACAD_REACTORS
330
353
102
}
330
353
100
AcDbPlotSettings
  1

  2
JUST PDF 2
  4
A4
  6

 40
3.174999952316284
 41
3.174999952316284
 42
3.175003051757812
 43
3.17498779296875
 44
209.8886566162109
 45
297.0530090332031
 46
14.27171755861522
 47
9.85517307462564
 48
14707.59459432893
 49
-4918.42969398957
140
15232.58024981365
141
-4105.45166857357
142
1.0
143
3.0
 70
  3748
 72
     1
 73
     0
 74
     4
  7
spax form.ctb
 75
     0
147
0.547045008312821
148
-14707.59459432893
149
4918.42969398957
100
AcDbLayout
  1
Model
 70
     1
 71
     0
 10
0.0
 20
0.0
 11
12.0
 21
9.0
 12
0.0
 22
0.0
 32
0.0
 14
14717.53959229571
 24
-4299.883381178958
 34
0.0
 15
14831.28959229571
 25
-4186.761932404372
 35
0.0
146
0.0
 13
0.0
 23
0.0
 33
0.0
 16
1.0
 26
0.0
 36
0.0
 17
0.0
 27
1.0
 37
0.0
 76
     0
330
18
331
3523F0
1001
ACAD_PSEXT
1000
JUST PDF 2
1000
JUST PDF 2
1000
JUST PDF 2 Port:
1000

1070
     0
  0
LAYOUT
  5
356
102
{ACAD_REACTORS
330
353
102
}
330
353
100
AcDbPlotSettings
  1

  2
Canon LASER SHOT LBP-750
  4

  6

 40
0.0
 41
0.0
 42
0.0
 43
0.0
 44
0.0
 45
0.0
 46
0.0
 47
0.0
 48
0.0
 49
0.0
140
0.0
141
0.0
142
1.0
143
1.0
 70
   688
 72
     0
 73
     0
 74
     5
  7
spax form.ctb
 75
    16
147
1.0
148
0.0
149
0.0
100
AcDbLayout
  1
ﾚｲｱｳﾄ1
 70
     0
 71
     1
 10
0.0
 20
0.0
 11
12.0
 21
9.0
 12
0.0
 22
0.0
 32
0.0
 14
1.000000000000000E+20
 24
1.000000000000000E+20
 34
1.000000000000000E+20
 15
-1.000000000000000E+20
 25
-1.000000000000000E+20
 35
-1.000000000000000E+20
146
0.0
 13
0.0
 23
0.0
 33
0.0
 16
1.0
 26
0.0
 36
0.0
 17
0.0
 27
1.0
 37
0.0
 76
     0
330
15
  0
MLINESTYLE
  5
1B
102
{ACAD_REACTORS
330
E
102
}
330
E
100
AcDbMlineStyle
  2
STANDARD
 70
     0
  3

 62
     0
 51
90.0
 52
90.0
 71
     2
 49
0.5
 62
   256
  6
BYLAYER
 49
-0.5
 62
   256
  6
BYLAYER
  0
ACDBPLACEHOLDER
  5
352
102
{ACAD_REACTORS
330
351
102
}
330
351
  0
SCALE
  5
CD54
102
{ACAD_REACTORS
330
CD53
102
}
330
CD53
100
AcDbScale
 70
     0
300
1:1
140
1.0
141
1.0
290
     1
1001
ACAD
1000
AcRTDxfName
1000
SCALE
1000
AcRTDxfName
1000
SCALE
  0
SCALE
  5
35DF8
102
{ACAD_REACTORS
330
CD53
102
}
330
CD53
100
AcDbScale
 70
     0
300
1:2
140
1.0
141
2.0
290
     0
1001
ACAD
1000
AcRTDxfName
1000
SCALE
1000
AcRTDxfName
1000
SCALE
  0
SCALE
  5
35DF9
102
{ACAD_REACTORS
330
CD53
102
}
330
CD53
100
AcDbScale
 70
     0
300
1:4
140
1.0
141
4.0
290
     0
1001
ACAD
1000
AcRTDxfName
1000
SCALE
1000
AcRTDxfName
1000
SCALE
  0
SCALE
  5
35DFA
102
{ACAD_REACTORS
330
CD53
102
}
330
CD53
100
AcDbScale
 70
     0
300
1:5
140
1.0
141
5.0
290
     0
1001
ACAD
1000
AcRTDxfName
1000
SCALE
1000
AcRTDxfName
1000
SCALE
  0
SCALE
  5
35DFB
102
{ACAD_REACTORS
330
CD53
102
}
330
CD53
100
AcDbScale
 70
     0
300
1:8
140
1.0
141
8.0
290
     0
1001
ACAD
1000
AcRTDxfName
1000
SCALE
1000
AcRTDxfName
1000
SCALE
  0
SCALE
  5
35DFC
102
{ACAD_REACTORS
330
CD53
102
}
330
CD53
100
AcDbScale
 70
     0
300
1:10
140
1.0
141
10.0
290
     0
1001
ACAD
1000
AcRTDxfName
1000
SCALE
1000
AcRTDxfName
1000
SCALE
  0
SCALE
  5
35DFD
102
{ACAD_REACTORS
330
CD53
102
}
330
CD53
100
AcDbScale
 70
     0
300
1:16
140
1.0
141
16.0
290
     0
1001
ACAD
1000
AcRTDxfName
1000
SCALE
1000
AcRTDxfName
1000
SCALE
  0
SCALE
  5
35DFE
102
{ACAD_REACTORS
330
CD53
102
}
330
CD53
100
AcDbScale
 70
     0
300
1:20
140
1.0
141
20.0
290
     0
1001
ACAD
1000
AcRTDxfName
1000
SCALE
1000
AcRTDxfName
1000
SCALE
  0
SCALE
  5
35DFF
102
{ACAD_REACTORS
330
CD53
102
}
330
CD53
100
AcDbScale
 70
     0
300
1:30
140
1.0
141
30.0
290
     0
1001
ACAD
1000
AcRTDxfName
1000
SCALE
1000
AcRTDxfName
1000
SCALE
  0
SCALE
  5
35E00
102
{ACAD_REACTORS
330
CD53
102
}
330
CD53
100
AcDbScale
 70
     0
300
1:40
140
1.0
141
40.0
290
     0
1001
ACAD
1000
AcRTDxfName
1000
SCALE
1000
AcRTDxfName
1000
SCALE
  0
SCALE
  5
35E01
102
{ACAD_REACTORS
330
CD53
102
}
330
CD53
100
AcDbScale
 70
     0
300
1:50
140
1.0
141
50.0
290
     0
1001
ACAD
1000
AcRTDxfName
1000
SCALE
1000
AcRTDxfName
1000
SCALE
  0
SCALE
  5
35E02
102
{ACAD_REACTORS
330
CD53
102
}
330
CD53
100
AcDbScale
 70
     0
300
1:100
140
1.0
141
100.0
290
     0
1001
ACAD
1000
AcRTDxfName
1000
SCALE
1000
AcRTDxfName
1000
SCALE
  0
SCALE
  5
35E03
102
{ACAD_REACTORS
330
CD53
102
}
330
CD53
100
AcDbScale
 70
     0
300
2:1
140
2.0
141
1.0
290
     0
1001
ACAD
1000
AcRTDxfName
1000
SCALE
1000
AcRTDxfName
1000
SCALE
  0
SCALE
  5
35E04
102
{ACAD_REACTORS
330
CD53
102
}
330
CD53
100
AcDbScale
 70
     0
300
4:1
140
4.0
141
1.0
290
     0
1001
ACAD
1000
AcRTDxfName
1000
SCALE
1000
AcRTDxfName
1000
SCALE
  0
SCALE
  5
35E05
102
{ACAD_REACTORS
330
CD53
102
}
330
CD53
100
AcDbScale
 70
     0
300
8:1
140
8.0
141
1.0
290
     0
1001
ACAD
1000
AcRTDxfName
1000
SCALE
1000
AcRTDxfName
1000
SCALE
  0
SCALE
  5
35E06
102
{ACAD_REACTORS
330
CD53
102
}
330
CD53
100
AcDbScale
 70
     0
300
10:1
140
10.0
141
1.0
290
     0
1001
ACAD
1000
AcRTDxfName
1000
SCALE
1000
AcRTDxfName
1000
SCALE
  0
SCALE
  5
35E07
102
{ACAD_REACTORS
330
CD53
102
}
330
CD53
100
AcDbScale
 70
     0
300
100:1
140
100.0
141
1.0
290
     0
1001
ACAD
1000
AcRTDxfName
1000
SCALE
1000
AcRTDxfName
1000
SCALE
  0
SCALE
  5
35E08
102
{ACAD_REACTORS
330
CD53
102
}
330
CD53
100
AcDbScale
 70
     0
300
1/128" = 1'-0"
140
0.0078125
141
12.0
290
     0
1001
ACAD
1000
AcRTDxfName
1000
SCALE
1000
AcRTDxfName
1000
SCALE
  0
SCALE
  5
35E09
102
{ACAD_REACTORS
330
CD53
102
}
330
CD53
100
AcDbScale
 70
     0
300
1/64" = 1'-0"
140
0.015625
141
12.0
290
     0
1001
ACAD
1000
AcRTDxfName
1000
SCALE
1000
AcRTDxfName
1000
SCALE
  0
SCALE
  5
35E0A
102
{ACAD_REACTORS
330
CD53
102
}
330
CD53
100
AcDbScale
 70
     0
300
1/32" = 1'-0"
140
0.03125
141
12.0
290
     0
1001
ACAD
1000
AcRTDxfName
1000
SCALE
1000
AcRTDxfName
1000
SCALE
  0
SCALE
  5
35E0B
102
{ACAD_REACTORS
330
CD53
102
}
330
CD53
100
AcDbScale
 70
     0
300
1/16" = 1'-0"
140
0.0625
141
12.0
290
     0
1001
ACAD
1000
AcRTDxfName
1000
SCALE
1000
AcRTDxfName
1000
SCALE
  0
SCALE
  5
35E0C
102
{ACAD_REACTORS
330
CD53
102
}
330
CD53
100
AcDbScale
 70
     0
300
3/32" = 1'-0"
140
0.09375
141
12.0
290
     0
1001
ACAD
1000
AcRTDxfName
1000
SCALE
1000
AcRTDxfName
1000
SCALE
  0
SCALE
  5
35E0D
102
{ACAD_REACTORS
330
CD53
102
}
330
CD53
100
AcDbScale
 70
     0
300
1/8" = 1'-0"
140
0.125
141
12.0
290
     0
1001
ACAD
1000
AcRTDxfName
1000
SCALE
1000
AcRTDxfName
1000
SCALE
  0
SCALE
  5
35E0E
102
{ACAD_REACTORS
330
CD53
102
}
330
CD53
100
AcDbScale
 70
     0
300
3/16" = 1'-0"
140
0.1875
141
12.0
290
     0
1001
ACAD
1000
AcRTDxfName
1000
SCALE
1000
AcRTDxfName
1000
SCALE
  0
SCALE
  5
35E0F
102
{ACAD_REACTORS
330
CD53
102
}
330
CD53
100
AcDbScale
 70
     0
300
1/4" = 1'-0"
140
0.25
141
12.0
290
     0
1001
ACAD
1000
AcRTDxfName
1000
SCALE
1000
AcRTDxfName
1000
SCALE
  0
SCALE
  5
35E10
102
{ACAD_REACTORS
330
CD53
102
}
330
CD53
100
AcDbScale
 70
     0
300
3/8" = 1'-0"
140
0.375
141
12.0
290
     0
1001
ACAD
1000
AcRTDxfName
1000
SCALE
1000
AcRTDxfName
1000
SCALE
  0
SCALE
  5
35E11
102
{ACAD_REACTORS
330
CD53
102
}
330
CD53
100
AcDbScale
 70
     0
300
1/2" = 1'-0"
140
0.5
141
12.0
290
     0
1001
ACAD
1000
AcRTDxfName
1000
SCALE
1000
AcRTDxfName
1000
SCALE
  0
SCALE
  5
35E12
102
{ACAD_REACTORS
330
CD53
102
}
330
CD53
100
AcDbScale
 70
     0
300
3/4" = 1'-0"
140
0.75
141
12.0
290
     0
1001
ACAD
1000
AcRTDxfName
1000
SCALE
1000
AcRTDxfName
1000
SCALE
  0
SCALE
  5
35E13
102
{ACAD_REACTORS
330
CD53
102
}
330
CD53
100
AcDbScale
 70
     0
300
1" = 1'-0"
140
1.0
141
12.0
290
     0
1001
ACAD
1000
AcRTDxfName
1000
SCALE
1000
AcRTDxfName
1000
SCALE
  0
SCALE
  5
35E14
102
{ACAD_REACTORS
330
CD53
102
}
330
CD53
100
AcDbScale
 70
     0
300
1-1/2" = 1'-0"
140
1.5
141
12.0
290
     0
1001
ACAD
1000
AcRTDxfName
1000
SCALE
1000
AcRTDxfName
1000
SCALE
  0
SCALE
  5
35E15
102
{ACAD_REACTORS
330
CD53
102
}
330
CD53
100
AcDbScale
 70
     0
300
3" = 1'-0"
140
3.0
141
12.0
290
     0
1001
ACAD
1000
AcRTDxfName
1000
SCALE
1000
AcRTDxfName
1000
SCALE
  0
SCALE
  5
35E16
102
{ACAD_REACTORS
330
CD53
102
}
330
CD53
100
AcDbScale
 70
     0
300
6" = 1'-0"
140
6.0
141
12.0
290
     0
1001
ACAD
1000
AcRTDxfName
1000
SCALE
1000
AcRTDxfName
1000
SCALE
  0
SCALE
  5
35E17
102
{ACAD_REACTORS
330
CD53
102
}
330
CD53
100
AcDbScale
 70
     0
300
1'-0" = 1'-0"
140
12.0
141
12.0
290
     0
1001
ACAD
1000
AcRTDxfName
1000
SCALE
1000
AcRTDxfName
1000
SCALE
  0
DICTIONARYVAR
  5
E0E
102
{ACAD_REACTORS
330
E0D
102
}
330
E0D
100
DictionaryVariables
280
     0
  1
1
  0
DICTIONARYVAR
  5
D04A
102
{ACAD_REACTORS
330
E0D
102
}
330
E0D
100
DictionaryVariables
280
     0
  1
0
  0
DICTIONARYVAR
  5
E0F
102
{ACAD_REACTORS
330
E0D
102
}
330
E0D
100
DictionaryVariables
280
     0
  1

  0
DICTIONARYVAR
  5
D049
102
{ACAD_REACTORS
330
E0D
102
}
330
E0D
100
DictionaryVariables
280
     0
  1
127
  0
ENDSEC
  0
EOF
