  0
SECTION
  2
HEADER
  9
$ACADVER
  1
AC1015
  9
$ACADMAINTVER
 70
     6
  9
$DWGCODEPAGE
  3
ANSI_932
  9
$INSBASE
 10
0.0
 20
0.0
 30
0.0
  9
$EXTMIN
 10
11107.58382100729
 20
8320.17473273887
 30
-0.0000000000000103
  9
$EXTMAX
 10
11205.08382100729
 20
8409.813450539943
 30
0.0000000000000118
  9
$LIMMIN
 10
0.0
 20
0.0
  9
$LIMMAX
 10
594.0
 20
420.0
  9
$ORTHOMODE
 70
     0
  9
$REGENMODE
 70
     1
  9
$FILLMODE
 70
     1
  9
$QTEXTMODE
 70
     0
  9
$MIRRTEXT
 70
     1
  9
$LTSCALE
 40
0.7
  9
$ATTMODE
 70
     1
  9
$TEXTSIZE
 40
3.5
  9
$TRACEWID
 40
1.0
  9
$TEXTSTYLE
  7
ROMANS
  9
$CLAYER
  8
0
  9
$CELTYPE
  6
ByLayer
  9
$CECOLOR
 62
   256
  9
$CELTSCALE
 40
2.0
  9
$DISPSILH
 70
     0
  9
$DIMSCALE
 40
0.0
  9
$DIMASZ
 40
2.5
  9
$DIMEXO
 40
1.0
  9
$DIMDLI
 40
8.5
  9
$DIMRND
 40
0.0
  9
$DIMDLE
 40
0.0
  9
$DIMEXE
 40
1.5
  9
$DIMTP
 40
0.0
  9
$DIMTM
 40
0.0
  9
$DIMTXT
 40
3.0
  9
$DIMCEN
 40
2.5
  9
$DIMTSZ
 40
0.0
  9
$DIMTOL
 70
     0
  9
$DIMLIM
 70
     0
  9
$DIMTIH
 70
     0
  9
$DIMTOH
 70
     1
  9
$DIMSE1
 70
     0
  9
$DIMSE2
 70
     0
  9
$DIMTAD
 70
     3
  9
$DIMZIN
 70
     8
  9
$DIMBLK
  1

  9
$DIMASO
 70
     1
  9
$DIMSHO
 70
     1
  9
$DIMPOST
  1

  9
$DIMAPOST
  1

  9
$DIMALT
 70
     0
  9
$DIMALTD
 70
     2
  9
$DIMALTF
 40
25.4
  9
$DIMLFAC
 40
1.0
  9
$DIMTOFL
 70
     1
  9
$DIMTVP
 40
0.0
  9
$DIMTIX
 70
     0
  9
$DIMSOXD
 70
     0
  9
$DIMSAH
 70
     0
  9
$DIMBLK1
  1

  9
$DIMBLK2
  1

  9
$DIMSTYLE
  2
1／1
  9
$DIMCLRD
 70
     8
  9
$DIMCLRE
 70
     8
  9
$DIMCLRT
 70
     7
  9
$DIMTFAC
 40
1.0
  9
$DIMGAP
 40
0.6
  9
$DIMJUST
 70
     0
  9
$DIMSD1
 70
     0
  9
$DIMSD2
 70
     0
  9
$DIMTOLJ
 70
     1
  9
$DIMTZIN
 70
     8
  9
$DIMALTZ
 70
     0
  9
$DIMALTTZ
 70
     0
  9
$DIMUPT
 70
     0
  9
$DIMDEC
 70
     3
  9
$DIMTDEC
 70
     3
  9
$DIMALTU
 70
     2
  9
$DIMALTTD
 70
     2
  9
$DIMTXSTY
  7
ROMANS
  9
$DIMAUNIT
 70
     0
  9
$DIMADEC
 70
     2
  9
$DIMALTRND
 40
0.0
  9
$DIMAZIN
 70
     2
  9
$DIMDSEP
 70
    46
  9
$DIMATFIT
 70
     0
  9
$DIMFRAC
 70
     0
  9
$DIMLDRBLK
  1

  9
$DIMLUNIT
 70
     2
  9
$DIMLWD
 70
    18
  9
$DIMLWE
 70
    18
  9
$DIMTMOVE
 70
     0
  9
$LUNITS
 70
     2
  9
$LUPREC
 70
     1
  9
$SKETCHINC
 40
1.0
  9
$FILLETRAD
 40
2.0
  9
$AUNITS
 70
     0
  9
$AUPREC
 70
     0
  9
$MENU
  1
.
  9
$ELEVATION
 40
0.0
  9
$PELEVATION
 40
0.0
  9
$THICKNESS
 40
0.0
  9
$LIMCHECK
 70
     0
  9
$CHAMFERA
 40
0.5
  9
$CHAMFERB
 40
0.5
  9
$CHAMFERC
 40
20.0
  9
$CHAMFERD
 40
0.0
  9
$SKPOLY
 70
     0
  9
$TDCREATE
 40
2451877.780813542
  9
$TDUCREATE
 40
2451877.405813542
  9
$TDUPDATE
 40
2456822.446019294
  9
$TDUUPDATE
 40
2456822.071019294
  9
$TDINDWG
 40
28.1108559954
  9
$TDUSRTIMER
 40
2456822.070763912
  9
$USRTIMER
 70
     1
  9
$ANGBASE
 50
0.0
  9
$ANGDIR
 70
     0
  9
$PDMODE
 70
     3
  9
$PDSIZE
 40
5.0
  9
$PLINEWID
 40
0.0
  9
$SPLFRAME
 70
     0
  9
$SPLINETYPE
 70
     6
  9
$SPLINESEGS
 70
     8
  9
$HANDSEED
  5
66D00
  9
$SURFTAB1
 70
     6
  9
$SURFTAB2
 70
     6
  9
$SURFTYPE
 70
     6
  9
$SURFU
 70
     6
  9
$SURFV
 70
     6
  9
$UCSBASE
  2

  9
$UCSNAME
  2

  9
$UCSORG
 10
0.0
 20
0.0
 30
0.0
  9
$UCSXDIR
 10
1.0
 20
0.0
 30
0.0
  9
$UCSYDIR
 10
0.0
 20
1.0
 30
0.0
  9
$UCSORTHOREF
  2

  9
$UCSORTHOVIEW
 70
     0
  9
$UCSORGTOP
 10
0.0
 20
0.0
 30
0.0
  9
$UCSORGBOTTOM
 10
0.0
 20
0.0
 30
0.0
  9
$UCSORGLEFT
 10
0.0
 20
0.0
 30
0.0
  9
$UCSORGRIGHT
 10
0.0
 20
0.0
 30
0.0
  9
$UCSORGFRONT
 10
0.0
 20
0.0
 30
0.0
  9
$UCSORGBACK
 10
0.0
 20
0.0
 30
0.0
  9
$PUCSBASE
  2

  9
$PUCSNAME
  2

  9
$PUCSORG
 10
0.0
 20
0.0
 30
0.0
  9
$PUCSXDIR
 10
1.0
 20
0.0
 30
0.0
  9
$PUCSYDIR
 10
0.0
 20
1.0
 30
0.0
  9
$PUCSORTHOREF
  2

  9
$PUCSORTHOVIEW
 70
     0
  9
$PUCSORGTOP
 10
0.0
 20
0.0
 30
0.0
  9
$PUCSORGBOTTOM
 10
0.0
 20
0.0
 30
0.0
  9
$PUCSORGLEFT
 10
0.0
 20
0.0
 30
0.0
  9
$PUCSORGRIGHT
 10
0.0
 20
0.0
 30
0.0
  9
$PUCSORGFRONT
 10
0.0
 20
0.0
 30
0.0
  9
$PUCSORGBACK
 10
0.0
 20
0.0
 30
0.0
  9
$USERI1
 70
    60
  9
$USERI2
 70
    20
  9
$USERI3
 70
     0
  9
$USERI4
 70
     0
  9
$USERI5
 70
     0
  9
$USERR1
 40
0.0
  9
$USERR2
 40
0.0
  9
$USERR3
 40
0.0
  9
$USERR4
 40
0.0
  9
$USERR5
 40
52.0
  9
$WORLDVIEW
 70
     1
  9
$SHADEDGE
 70
     3
  9
$SHADEDIF
 70
    70
  9
$TILEMODE
 70
     1
  9
$MAXACTVP
 70
    48
  9
$PINSBASE
 10
0.0
 20
0.0
 30
0.0
  9
$PLIMCHECK
 70
     0
  9
$PEXTMIN
 10
1742.828589271307
 20
21.35496017198057
 30
0.0
  9
$PEXTMAX
 10
2289.828589271307
 20
406.3549601719806
 30
0.0
  9
$PLIMMIN
 10
1719.458700723913
 20
3.943312316830253
  9
$PLIMMAX
 10
2313.18367630985
 20
423.7418047484709
  9
$UNITMODE
 70
     0
  9
$VISRETAIN
 70
     1
  9
$PLINEGEN
 70
     0
  9
$PSLTSCALE
 70
     1
  9
$TREEDEPTH
 70
  3020
  9
$CMLSTYLE
  2
Standard
  9
$CMLJUST
 70
     0
  9
$CMLSCALE
 40
20.0
  9
$PROXYGRAPHICS
 70
     1
  9
$MEASUREMENT
 70
     1
  9
$CELWEIGHT
370
    -1
  9
$ENDCAPS
280
     0
  9
$JOINSTYLE
280
     0
  9
$LWDISPLAY
290
     0
  9
$INSUNITS
 70
     4
  9
$HYPERLINKBASE
  1

  9
$STYLESHEET
  1
spax form.ctb
  9
$XEDIT
290
     1
  9
$CEPSNTYPE
380
     0
  9
$PSTYLEMODE
290
     1
  9
$FINGERPRINTGUID
  2
{467F878D-4FC9-11D3-A22F-0000F4631048}
  9
$VERSIONGUID
  2
{4292300E-2E18-4BD9-BE72-B868EA4734B6}
  9
$EXTNAMES
290
     1
  9
$PSVPSCALE
 40
0.1
  9
$OLESTARTUP
290
     0
  0
ENDSEC
  0
SECTION
  2
CLASSES
  0
CLASS
  1
ACDBDICTIONARYWDFLT
  2
AcDbDictionaryWithDefault
  3
ObjectDBX Classes
 90
        0
280
     0
281
     0
  0
CLASS
  1
ACDBPLACEHOLDER
  2
AcDbPlaceHolder
  3
ObjectDBX Classes
 90
        0
280
     0
281
     0
  0
CLASS
  1
LAYOUT
  2
AcDbLayout
  3
ObjectDBX Classes
 90
        0
280
     0
281
     0
  0
CLASS
  1
DICTIONARYVAR
  2
AcDbDictionaryVar
  3
ObjectDBX Classes
 90
        0
280
     0
281
     0
  0
CLASS
  1
LONG_TRANSACTION
  2
AcDbLongTransaction
  3
ObjectDBX Classes
 90
        0
280
     0
281
     0
  0
CLASS
  1
LWPOLYLINE
  2
AcDbPolyline
  3
ObjectDBX Classes
 90
        0
280
     0
281
     1
  0
CLASS
  1
HATCH
  2
AcDbHatch
  3
ObjectDBX Classes
 90
        0
280
     0
281
     1
  0
CLASS
  1
XRECORD
  2
AcDbXrecord
  3
ObjectDBX Classes
 90
        0
280
     0
281
     0
  0
CLASS
  1
SORTENTSTABLE
  2
AcDbSortentsTable
  3
ObjectDBX Classes
 90
        0
280
     0
281
     0
  0
CLASS
  1
LONG_TRANSACTION
  2
AcDbLongTransaction
  3
ObjectDBX Classes
 90
        0
280
     0
281
     0
  0
CLASS
  1
LWPOLYLINE
  2
AcDbPolyline
  3
ObjectDBX Classes
 90
        0
280
     0
281
     1
  0
CLASS
  1
HATCH
  2
AcDbHatch
  3
ObjectDBX Classes
 90
        0
280
     0
281
     1
  0
CLASS
  1
XRECORD
  2
AcDbXrecord
  3
ObjectDBX Classes
 90
        0
280
     0
281
     0
  0
CLASS
  1
LONG_TRANSACTION
  2
AcDbLongTransaction
  3
ObjectDBX Classes
 90
        0
280
     0
281
     0
  0
CLASS
  1
LWPOLYLINE
  2
AcDbPolyline
  3
ObjectDBX Classes
 90
        0
280
     0
281
     1
  0
CLASS
  1
HATCH
  2
AcDbHatch
  3
ObjectDBX Classes
 90
        0
280
     0
281
     1
  0
CLASS
  1
XRECORD
  2
AcDbXrecord
  3
ObjectDBX Classes
 90
        0
280
     0
281
     0
  0
CLASS
  1
LONG_TRANSACTION
  2
AcDbLongTransaction
  3
ObjectDBX Classes
 90
        0
280
     0
281
     0
  0
CLASS
  1
LWPOLYLINE
  2
AcDbPolyline
  3
ObjectDBX Classes
 90
        0
280
     0
281
     1
  0
CLASS
  1
HATCH
  2
AcDbHatch
  3
ObjectDBX Classes
 90
        0
280
     0
281
     1
  0
CLASS
  1
XRECORD
  2
AcDbXrecord
  3
ObjectDBX Classes
 90
        0
280
     0
281
     0
  0
CLASS
  1
LONG_TRANSACTION
  2
AcDbLongTransaction
  3
ObjectDBX Classes
 90
        0
280
     0
281
     0
  0
CLASS
  1
LWPOLYLINE
  2
AcDbPolyline
  3
ObjectDBX Classes
 90
        0
280
     0
281
     1
  0
CLASS
  1
HATCH
  2
AcDbHatch
  3
ObjectDBX Classes
 90
        0
280
     0
281
     1
  0
CLASS
  1
XRECORD
  2
AcDbXrecord
  3
ObjectDBX Classes
 90
        0
280
     0
281
     0
  0
CLASS
  1
LONG_TRANSACTION
  2
AcDbLongTransaction
  3
ObjectDBX Classes
 90
        0
280
     0
281
     0
  0
CLASS
  1
LWPOLYLINE
  2
AcDbPolyline
  3
ObjectDBX Classes
 90
        0
280
     0
281
     1
  0
CLASS
  1
HATCH
  2
AcDbHatch
  3
ObjectDBX Classes
 90
        0
280
     0
281
     1
  0
CLASS
  1
XRECORD
  2
AcDbXrecord
  3
ObjectDBX Classes
 90
        0
280
     0
281
     0
  0
CLASS
  1
LONG_TRANSACTION
  2
AcDbLongTransaction
  3
ObjectDBX Classes
 90
        0
280
     0
281
     0
  0
CLASS
  1
LWPOLYLINE
  2
AcDbPolyline
  3
ObjectDBX Classes
 90
        0
280
     0
281
     1
  0
CLASS
  1
HATCH
  2
AcDbHatch
  3
ObjectDBX Classes
 90
        0
280
     0
281
     1
  0
CLASS
  1
XRECORD
  2
AcDbXrecord
  3
ObjectDBX Classes
 90
        0
280
     0
281
     0
  0
CLASS
  1
LONG_TRANSACTION
  2
AcDbLongTransaction
  3
ObjectDBX Classes
 90
        0
280
     0
281
     0
  0
CLASS
  1
LWPOLYLINE
  2
AcDbPolyline
  3
ObjectDBX Classes
 90
        0
280
     0
281
     1
  0
CLASS
  1
HATCH
  2
AcDbHatch
  3
ObjectDBX Classes
 90
        0
280
     0
281
     1
  0
CLASS
  1
XRECORD
  2
AcDbXrecord
  3
ObjectDBX Classes
 90
        0
280
     0
281
     0
  0
CLASS
  1
LONG_TRANSACTION
  2
AcDbLongTransaction
  3
ObjectDBX Classes
 90
        0
280
     0
281
     0
  0
CLASS
  1
LWPOLYLINE
  2
AcDbPolyline
  3
ObjectDBX Classes
 90
        0
280
     0
281
     1
  0
CLASS
  1
HATCH
  2
AcDbHatch
  3
ObjectDBX Classes
 90
        0
280
     0
281
     1
  0
CLASS
  1
XRECORD
  2
AcDbXrecord
  3
ObjectDBX Classes
 90
        0
280
     0
281
     0
  0
CLASS
  1
LONG_TRANSACTION
  2
AcDbLongTransaction
  3
ObjectDBX Classes
 90
        0
280
     0
281
     0
  0
CLASS
  1
LWPOLYLINE
  2
AcDbPolyline
  3
ObjectDBX Classes
 90
        0
280
     0
281
     1
  0
CLASS
  1
HATCH
  2
AcDbHatch
  3
ObjectDBX Classes
 90
        0
280
     0
281
     1
  0
CLASS
  1
XRECORD
  2
AcDbXrecord
  3
ObjectDBX Classes
 90
        0
280
     0
281
     0
  0
CLASS
  1
LONG_TRANSACTION
  2
AcDbLongTransaction
  3
ObjectDBX Classes
 90
        0
280
     0
281
     0
  0
CLASS
  1
LWPOLYLINE
  2
AcDbPolyline
  3
ObjectDBX Classes
 90
        0
280
     0
281
     1
  0
CLASS
  1
HATCH
  2
AcDbHatch
  3
ObjectDBX Classes
 90
        0
280
     0
281
     1
  0
CLASS
  1
XRECORD
  2
AcDbXrecord
  3
ObjectDBX Classes
 90
        0
280
     0
281
     0
  0
CLASS
  1
MATERIAL
  2
AcDbMaterial
  3
ObjectDBX Classes
 90
     1153
280
     0
281
     0
  0
CLASS
  1
VISUALSTYLE
  2
AcDbVisualStyle
  3
ObjectDBX Classes
 90
     4095
280
     0
281
     0
  0
CLASS
  1
TABLESTYLE
  2
AcDbTableStyle
  3
ObjectDBX Classes
 90
     4095
280
     0
281
     0
  0
CLASS
  1
SCALE
  2
AcDbScale
  3
ObjectDBX Classes
 90
     1153
280
     0
281
     0
  0
CLASS
  1
MLEADERSTYLE
  2
AcDbMLeaderStyle
  3
ACDB_MLEADERSTYLE_CLASS
 90
     4095
280
     0
281
     0
  0
CLASS
  1
CELLSTYLEMAP
  2
AcDbCellStyleMap
  3
ObjectDBX Classes
 90
     1152
280
     0
281
     0
  0
CLASS
  1
RASTERVARIABLES
  2
AcDbRasterVariables
  3
ISM
 90
        0
280
     0
281
     0
  0
CLASS
  1
SUN
  2
AcDbSun
  3
SCENEOE
 90
     1153
280
     0
281
     0
  0
ENDSEC
  0
SECTION
  2
TABLES
  0
TABLE
  2
VPORT
  5
8
330
0
100
AcDbSymbolTable
 70
     1
  0
VPORT
  5
616AA
330
8
100
AcDbSymbolTableRecord
100
AcDbViewportTableRecord
  2
*Active
 70
     0
 10
0.0
 20
0.0
 11
1.0
 21
1.0
 12
11156.33382100729
 22
8364.994091639406
 13
0.0
 23
0.0
 14
10.0
 24
10.0
 15
0.0
 25
0.0
 16
0.0
 26
0.0
 36
1.0
 17
0.0
 27
0.0
 37
0.0
 40
91.43149215709512
 41
1.731829573934837
 42
50.0
 43
0.0
 44
0.0
 50
0.0
 51
0.0
 71
    16
 72
   100
 73
     1
 74
     1
 75
     0
 76
     0
 77
     0
 78
     0
281
     0
 65
     1
110
0.0
120
0.0
130
0.0
111
1.0
121
0.0
131
0.0
112
0.0
122
1.0
132
0.0
 79
     0
146
0.0
  0
ENDTAB
  0
TABLE
  2
LTYPE
  5
5
330
0
100
AcDbSymbolTable
 70
     9
  0
LTYPE
  5
14
330
5
100
AcDbSymbolTableRecord
100
AcDbLinetypeTableRecord
  2
ByBlock
 70
     0
  3

 72
    65
 73
     0
 40
0.0
  0
LTYPE
  5
15
330
5
100
AcDbSymbolTableRecord
100
AcDbLinetypeTableRecord
  2
ByLayer
 70
     0
  3

 72
    65
 73
     0
 40
0.0
  0
LTYPE
  5
16
330
5
100
AcDbSymbolTableRecord
100
AcDbLinetypeTableRecord
  2
Continuous
 70
     0
  3
Solid line
 72
    65
 73
     0
 40
0.0
  0
LTYPE
  5
94
330
5
100
AcDbSymbolTableRecord
100
AcDbLinetypeTableRecord
  2
DASHDOT
 70
     0
  3
Dash dot __ . __ . __ . __ . __ . __ . __ . __
 72
    65
 73
     4
 40
1.0
 49
0.5
 74
     0
 49
-0.25
 74
     0
 49
0.0
 74
     0
 49
-0.25
 74
     0
  0
LTYPE
  5
9A
330
5
100
AcDbSymbolTableRecord
100
AcDbLinetypeTableRecord
  2
DIVIDE
 70
     0
  3
Divide ____ . . ____ . . ____ . . ____ . . ____
 72
    65
 73
     6
 40
1.25
 49
0.5
 74
     0
 49
-0.25
 74
     0
 49
0.0
 74
     0
 49
-0.25
 74
     0
 49
0.0
 74
     0
 49
-0.25
 74
     0
  0
LTYPE
  5
9D
330
5
100
AcDbSymbolTableRecord
100
AcDbLinetypeTableRecord
  2
DOT
 70
     0
  3
Dot . . . . . . . . . . . . . . . . . . . . . .
 72
    65
 73
     2
 40
0.25
 49
0.0
 74
     0
 49
-0.25
 74
     0
  0
ENDTAB
  0
TABLE
  2
LAYER
  5
2
102
{ACAD_XDICTIONARY
360
10AC0
102
}
330
0
100
AcDbSymbolTable
 70
    17
  0
LAYER
  5
10
102
{ACAD_XDICTIONARY
360
27D34
102
}
330
2
100
AcDbSymbolTableRecord
100
AcDbLayerTableRecord
  2
0
 70
     0
 62
     7
  6
Continuous
370
    -3
390
F
  0
LAYER
  5
29A
102
{ACAD_XDICTIONARY
360
27D3C
102
}
330
2
100
AcDbSymbolTableRecord
100
AcDbLayerTableRecord
  2
GAWA
 70
     0
 62
     2
  6
Continuous
370
    -3
390
F
  0
LAYER
  5
8CA
102
{ACAD_XDICTIONARY
360
27D42
102
}
330
2
100
AcDbSymbolTableRecord
100
AcDbLayerTableRecord
  2
J
 70
     0
 62
     7
  6
Continuous
370
    25
390
F
  0
LAYER
  5
C023
102
{ACAD_XDICTIONARY
360
27D48
102
}
330
2
100
AcDbSymbolTableRecord
100
AcDbLayerTableRecord
  2
文字
 70
     0
 62
     7
  6
Continuous
370
    -3
390
F
  0
LAYER
  5
EADE
102
{ACAD_XDICTIONARY
360
27D4A
102
}
330
2
100
AcDbSymbolTableRecord
100
AcDbLayerTableRecord
  2
ﾋﾞｭｰﾎﾟｰﾄ
 70
     0
 62
     2
  6
Continuous
290
     0
370
    -3
390
F
  0
LAYER
  5
F2F7
102
{ACAD_XDICTIONARY
360
27D4E
102
}
330
2
100
AcDbSymbolTableRecord
100
AcDbLayerTableRecord
  2
C-SUNPO
 70
     0
 62
     7
  6
Continuous
370
    -3
390
F
  0
LAYER
  5
10765
102
{ACAD_XDICTIONARY
360
27D54
102
}
330
2
100
AcDbSymbolTableRecord
100
AcDbLayerTableRecord
  2
CONT-2
 70
     0
 62
     3
  6
Continuous
370
    -3
390
F
  0
LAYER
  5
1B577
102
{ACAD_XDICTIONARY
360
27D6A
102
}
330
2
100
AcDbSymbolTableRecord
100
AcDbLayerTableRecord
  2
寸法線
 70
     0
 62
     7
  6
Continuous
370
    -3
390
F
  0
LAYER
  5
1BA0F
102
{ACAD_XDICTIONARY
360
27D70
102
}
330
2
100
AcDbSymbolTableRecord
100
AcDbLayerTableRecord
  2
姿図
 70
     0
 62
     8
  6
Continuous
370
    -3
390
F
  0
ENDTAB
  0
TABLE
  2
STYLE
  5
3
330
0
100
AcDbSymbolTable
 70
     3
  0
STYLE
  5
11
330
3
100
AcDbSymbolTableRecord
100
AcDbTextStyleTableRecord
  2
Standard
 70
     0
 40
0.0
 41
1.0
 50
0.0
 71
     0
 42
2.5
  3
romans.shx
  4
BIGFONT.shx
  0
STYLE
  5
29C
330
3
100
AcDbSymbolTableRecord
100
AcDbTextStyleTableRecord
  2
ROMANS
 70
     0
 40
0.0
 41
1.0
 50
0.0
 71
     0
 42
3.5
  3
romans.shx
  4
bigfont.shx
  0
STYLE
  5
242D4
330
3
100
AcDbSymbolTableRecord
100
AcDbTextStyleTableRecord
  2
EXTFONT
 70
     0
 40
2.5
 41
1.0
 50
0.0
 71
     0
 42
2.5
  3
txt.shx
  4
extfont
  0
ENDTAB
  0
TABLE
  2
VIEW
  5
6
330
0
100
AcDbSymbolTable
 70
     0
  0
ENDTAB
  0
TABLE
  2
UCS
  5
7
330
0
100
AcDbSymbolTable
 70
     0
  0
ENDTAB
  0
TABLE
  2
APPID
  5
9
330
0
100
AcDbSymbolTable
 70
    19
  0
APPID
  5
12
330
9
100
AcDbSymbolTableRecord
100
AcDbRegAppTableRecord
  2
ACAD
 70
     0
  0
APPID
  5
2C
330
9
100
AcDbSymbolTableRecord
100
AcDbRegAppTableRecord
  2
X_OBJNAME
 70
     0
  0
APPID
  5
AB
330
9
100
AcDbSymbolTableRecord
100
AcDbRegAppTableRecord
  2
X_PARAM_BALLOON
 70
     0
  0
APPID
  5
AC
330
9
100
AcDbSymbolTableRecord
100
AcDbRegAppTableRecord
  2
X_PARAM_TXTPATERN
 70
     0
  0
APPID
  5
AD
330
9
100
AcDbSymbolTableRecord
100
AcDbRegAppTableRecord
  2
X_PARAM_CTXTPATERN
 70
     0
  0
APPID
  5
B9
330
9
100
AcDbSymbolTableRecord
100
AcDbRegAppTableRecord
  2
X_PARAM_SYSVAL
 70
     0
  0
APPID
  5
BD
330
9
100
AcDbSymbolTableRecord
100
AcDbRegAppTableRecord
  2
X_DEFINELIST
 70
     0
  0
APPID
  5
385
330
9
100
AcDbSymbolTableRecord
100
AcDbRegAppTableRecord
  2
CONTENTTABDATA
 70
     0
  0
APPID
  5
386
330
9
100
AcDbSymbolTableRecord
100
AcDbRegAppTableRecord
  2
CONTENTCURRENTTAB
 70
     0
  0
APPID
  5
3B8
330
9
100
AcDbSymbolTableRecord
100
AcDbRegAppTableRecord
  2
CONTENTBLOCKDESCRIPTION
 70
     0
  0
APPID
  5
5C7
330
9
100
AcDbSymbolTableRecord
100
AcDbRegAppTableRecord
  2
DRAWINGVARIABLESXDATA
 70
     0
  0
APPID
  5
8EA
330
9
100
AcDbSymbolTableRecord
100
AcDbRegAppTableRecord
  2
CONTENTBLOCKICON
 70
     0
  0
APPID
  5
27D24
330
9
100
AcDbSymbolTableRecord
100
AcDbRegAppTableRecord
  2
ACAD_MLEADERVER
 70
     0
  0
APPID
  5
293EB
330
9
100
AcDbSymbolTableRecord
100
AcDbRegAppTableRecord
  2
ACAD_EXEMPT_FROM_CAD_STANDARDS
 70
     0
  0
APPID
  5
2DDA8
330
9
100
AcDbSymbolTableRecord
100
AcDbRegAppTableRecord
  2
ACAD_DSTYLE_DIMJAG
 70
     0
  0
APPID
  5
2DDA9
330
9
100
AcDbSymbolTableRecord
100
AcDbRegAppTableRecord
  2
ACAD_DSTYLE_DIMTALN
 70
     0
  0
APPID
  5
2E8E5
330
9
100
AcDbSymbolTableRecord
100
AcDbRegAppTableRecord
  2
ACAD_DSTYLE_DIMRADIAL_EXTENSION
 70
     0
  0
APPID
  5
33B56
330
9
100
AcDbSymbolTableRecord
100
AcDbRegAppTableRecord
  2
ACAD_PSEXT
 70
     0
  0
APPID
  5
61721
330
9
100
AcDbSymbolTableRecord
100
AcDbRegAppTableRecord
  2
ACAD_DSTYLE_DIMBREAK
 70
     0
  0
ENDTAB
  0
TABLE
  2
DIMSTYLE
  5
A
330
0
100
AcDbSymbolTable
 70
     5
100
AcDbDimStyleTable
  0
DIMSTYLE
105
2E
330
A
100
AcDbSymbolTableRecord
100
AcDbDimStyleTableRecord
  2
STANDARD
 70
     0
 40
0.0
 41
3.0
 42
1.0
 43
10.0
 44
1.5
 73
     0
 74
     0
 77
     3
 78
     8
 79
     2
140
3.5
141
0.1
147
1.0
172
     1
174
     1
176
     8
177
     8
271
     2
178
     7
271
     2
272
     2
284
     8
289
     0
340
11
1001
ACAD_DSTYLE_DIMJAG
1070
   388
1040
1.5
1001
ACAD_DSTYLE_DIMTALN
1070
   392
1070
     0
  0
DIMSTYLE
105
E3D0
330
A
100
AcDbSymbolTableRecord
100
AcDbDimStyleTableRecord
  2
1／1
 70
     0
 40
0.0
 41
2.5
 42
1.0
 43
8.5
 44
1.5
 73
     0
 77
     3
 78
     8
 79
     2
140
3.0
141
2.5
147
0.6
172
     1
176
     8
177
     8
271
     3
178
     7
179
     2
271
     3
272
     3
284
     8
289
     0
340
29C
371
    18
372
    18
1001
ACAD_DSTYLE_DIMJAG
1070
   388
1040
1.5
1001
ACAD_DSTYLE_DIMTALN
1070
   392
1070
     0
  0
DIMSTYLE
105
61720
330
A
100
AcDbSymbolTableRecord
100
AcDbDimStyleTableRecord
  2
STANDARD-4
 70
     0
 41
2.5
 42
1.5
 44
1.0
 73
     0
 74
     0
 77
     3
 78
     8
 79
     2
140
2.500000000000003
141
0.0
144
0.25
147
1.0
171
     0
172
     1
173
     1
176
     8
177
     8
271
     2
178
   256
179
     2
271
     2
272
     2
274
     0
289
     0
340
11
341
B97
343
B97
344
B97
1001
ACAD_DSTYLE_DIMBREAK
1070
   391
1040
0.125
1001
ACAD_DSTYLE_DIMJAG
1070
   388
1040
1.5
1001
ACAD_DSTYLE_DIMTALN
1070
   392
1070
     0
  0
ENDTAB
  0
TABLE
  2
BLOCK_RECORD
  5
1
330
0
100
AcDbSymbolTable
 70
    34
  0
BLOCK_RECORD
  5
1F
102
{ACAD_XDICTIONARY
360
33D
102
}
330
1
100
AcDbSymbolTableRecord
100
AcDbBlockTableRecord
  2
*Model_Space
340
22
  0
BLOCK_RECORD
  5
BFE6
330
1
100
AcDbSymbolTableRecord
100
AcDbBlockTableRecord
  2
*Paper_Space
340
BFE5
  0
BLOCK_RECORD
  5
B97
330
1
100
AcDbSymbolTableRecord
100
AcDbBlockTableRecord
  2
_OPEN
340
0
102
{BLKREFS
331
5DB48
331
5DB49
331
5DB51
331
5DB52
331
5DB5A
331
5DB5B
331
5DB64
331
5DB65
331
5DB6D
331
5DB6E
331
5F1A6
331
5F1A7
331
60121
331
60122
331
6012A
331
6012B
331
60133
331
60134
331
6013C
331
6013D
331
60145
331
60146
331
6014E
331
6014F
331
60BC1
331
60BC2
331
60BCA
331
60BCB
331
60BD3
331
60BD4
331
60BDC
331
60BDD
331
60BE5
331
60BE6
331
60BEE
331
60BEF
331
61669
331
6166A
331
61672
331
61673
331
6167B
331
6167C
331
61684
331
61685
331
6168D
331
6168E
331
61696
331
61697
331
628A5
331
628A6
331
628AE
331
628AF
331
628B7
331
628B8
331
628C0
331
628C1
331
628C9
331
628CA
331
66B9C
331
66B9D
102
}
  0
BLOCK_RECORD
  5
F22D
330
1
100
AcDbSymbolTableRecord
100
AcDbBlockTableRecord
  2
YA
340
0
102
{BLKREFS
331
10759
102
}
  0
BLOCK_RECORD
  5
10757
330
1
100
AcDbSymbolTableRecord
100
AcDbBlockTableRecord
  2
SUN
340
0
  0
ENDTAB
  0
ENDSEC
  0
SECTION
  2
BLOCKS
  0
BLOCK
  5
20
330
1F
100
AcDbEntity
  8
0
100
AcDbBlockBegin
  2
*Model_Space
 70
     2
 10
0.0
 20
0.0
 30
0.0
  3
*Model_Space
  1
*Model_Space
  0
ENDBLK
  5
21
330
1F
100
AcDbEntity
  8
0
100
AcDbBlockEnd
  0
BLOCK
  5
BFEF
330
BFE6
100
AcDbEntity
 67
     1
  8
0
100
AcDbBlockBegin
  2
*Paper_Space
 70
     0
 10
0.0
 20
0.0
 30
0.0
  3
*Paper_Space
  1
*Paper_Space
  0
ENDBLK
  5
BFF0
330
BFE6
100
AcDbEntity
 67
     1
  8
0
100
AcDbBlockEnd
  0
BLOCK
  5
B98
330
B97
100
AcDbEntity
  8
0
100
AcDbBlockBegin
  2
_OPEN
 70
     0
 10
0.0
 20
0.0
 30
0.0
  3
_OPEN
  1
_OPEN
  0
LINE
  5
B99
330
B97
100
AcDbEntity
  8
0
  6
ByBlock
 62
     0
100
AcDbLine
 10
-1.0
 20
0.1666666666666667
 30
0.0
 11
0.0
 21
0.0
 31
0.0
  0
LINE
  5
B9A
330
B97
100
AcDbEntity
  8
0
  6
ByBlock
 62
     0
100
AcDbLine
 10
0.0
 20
0.0
 30
0.0
 11
-1.0
 21
-0.1666666666666667
 31
0.0
  0
LINE
  5
B9B
330
B97
100
AcDbEntity
  8
0
  6
ByBlock
 62
     0
100
AcDbLine
 10
0.0
 20
0.0
 30
0.0
 11
-1.0
 21
0.0
 31
0.0
  0
ENDBLK
  5
B9C
330
B97
100
AcDbEntity
  8
0
100
AcDbBlockEnd
  0
BLOCK
  5
F230
330
F22D
100
AcDbEntity
  8
0
100
AcDbBlockBegin
  2
YA
 70
     0
 10
0.0
 20
0.0
 30
0.0
  3
YA
  1
YA
  0
LINE
  5
F22E
330
F22D
100
AcDbEntity
  8
C-SUNPO
100
AcDbLine
 10
0.0
 20
0.0
 30
0.0
 11
-10.92357602975926
 21
2.926963375633989
 31
0.0
  0
LINE
  5
F22F
330
F22D
100
AcDbEntity
  8
C-SUNPO
100
AcDbLine
 10
0.0
 20
0.0
 30
0.0
 11
-10.92357602975926
 21
-2.926963375633989
 31
0.0
  0
ENDBLK
  5
F231
330
F22D
100
AcDbEntity
  8
0
100
AcDbBlockEnd
  0
BLOCK
  5
10758
330
10757
100
AcDbEntity
  8
0
100
AcDbBlockBegin
  2
SUN
 70
     0
 10
0.0
 20
0.0
 30
0.0
  3
SUN
  1
SUN
  0
INSERT
  5
10759
330
10757
100
AcDbEntity
  8
CONT-2
100
AcDbBlockReference
  2
YA
 10
0.0
 20
0.0
 30
0.0
 41
0.4753510464194477
 42
-0.4753510464194477
 43
0.4753510464194477
  0
ENDBLK
  5
1075A
330
10757
100
AcDbEntity
  8
0
100
AcDbBlockEnd
  0
ENDSEC
  0
SECTION
  2
ENTITIES
  0
POINT
  5
2B
330
1F
100
AcDbEntity
  8
0
 60
     1
100
AcDbPoint
 10
0.0
 20
0.0
 30
0.0
1001
X_OBJNAME
1000
PARAMETER
1001
X_PARAM_BALLOON
1040
10.0
1040
3.0
1000
NULL
1070
     1
1040
0.0
1070
     1
1070
     0
1000
AR_OPEN
1070
     0
1001
X_PARAM_TXTPATERN
1002
{
1040
5.0
1040
0.0
1040
0.0
1040
0.0
1002
}
1002
{
1040
7.0
1040
0.0
1040
0.0
1040
0.0
1002
}
1002
{
1040
10.0
1040
0.0
1040
0.0
1040
0.0
1002
}
1002
{
1040
15.0
1040
0.0
1040
0.0
1040
0.0
1002
}
1002
{
1040
20.0
1040
0.0
1040
0.0
1040
0.0
1002
}
1001
X_PARAM_CTXTPATERN
1002
{
1000
No.
1000
NULL
1000
01
1070
     1
1002
}
1002
{
1000
PROJ-
1000
A
1000
100
1070
     1
1002
}
1002
{
1000
PROJ-
1000
B
1000
200
1070
     1
1002
}
1002
{
1000
PROJ-
1000
C
1000
300
1070
    10
1002
}
1002
{
1000
PROJ-
1000
C
1000
300
1070
    10
1002
}
1001
X_PARAM_SYSVAL
1070
    10
1070
     1
1070
     1
1070
     3
1070
    20
1070
    97
1070
     1
1040
1.0
1040
5.0
1070
     0
  0
POINT
  5
BC
330
1F
100
AcDbEntity
  8
0
 60
     1
100
AcDbPoint
 10
0.0
 20
0.0
 30
0.0
1001
X_OBJNAME
1000
DEFINEVALUE
1001
X_DEFINELIST
1000
DEF_PARAMFILE
1000
C:\SRD\Mech2000\PARAM\AMP.PRM
1000
DEF_FRAMEFILE
1000
C:\SRD\Mech2000\Frame\ZW1A2.DWG
1000
DEF_TEXTPATERN
1070
     0
1000
DEF_TXTH
1040
5.0
1000
DEF_TXTA
1040
0.0
1000
DEF_TXTRP
1010
0.0
1020
0.0
1030
0.0
1000
DEF_CTEXTPATERN
1070
     0
1000
DEF_CTHEAD
1000
No.
1000
DEF_CTEND
1000

1000
DEF_CTINIT
1000
01
1000
DEF_CTPITCH
1070
     1
1000
DEF_HPSPACE
1040
1.0
1000
DEF_CENJUT
1040
5.0
1000
DEF_RCENT
1070
     0
  0
RAY
  5
577D
330
1F
100
AcDbEntity
  8
J
 62
     0
100
AcDbRay
 10
1201091.639958263
 20
826.5647439435861
 30
0.0
 11
1.0
 21
0.0
 31
0.0
  0
TEXT
  5
1DD9D
330
1F
100
AcDbEntity
  8
C-SUNPO
100
AcDbText
 10
1588.249822770656
 20
2546.6294439187
 30
0.0
 40
3.6
  1

100
AcDbText
  0
MTEXT
  5
206E9
330
1F
100
AcDbEntity
  8
C-SUNPO
 62
     7
 48
2.0
100
AcDbMText
 10
2815.423801653236
 20
3104.41156377513
 30
0.0
 40
3.0
 41
0.0
 71
     7
 72
     1
  1
\A1;
  7
ROMANS
 73
     1
 44
1.0
  0
MTEXT
  5
208DB
330
1F
100
AcDbEntity
  8
C-SUNPO
 62
     7
 48
2.0
100
AcDbMText
 10
3335.944654120049
 20
2247.728252640686
 30
0.0
 40
3.0
 41
0.0
 71
     7
 72
     1
  1
\A1;
  7
ROMANS
 73
     1
 44
1.0
  0
MTEXT
  5
208DD
330
1F
100
AcDbEntity
  8
C-SUNPO
 62
     7
 48
2.0
100
AcDbMText
 10
3335.258349408145
 20
2247.122442807792
 30
0.0
 40
3.0
 41
0.0
 71
     7
 72
     1
  1
\A1;
  7
ROMANS
 73
     1
 44
1.0
  0
MTEXT
  5
208DF
330
1F
100
AcDbEntity
  8
C-SUNPO
 62
     7
 48
2.0
100
AcDbMText
 10
3335.907312637475
 20
2247.897591240865
 30
0.0
 40
3.0
 41
0.0
 71
     7
 72
     1
  1
\A1;
  7
ROMANS
 73
     1
 44
1.0
  0
MTEXT
  5
208E1
330
1F
100
AcDbEntity
  8
C-SUNPO
 62
     7
 48
2.0
100
AcDbMText
 10
3336.231781854571
 20
2247.23297725271
 30
0.0
 40
3.0
 41
0.0
 71
     7
 72
     1
  1
\A1;
  7
ROMANS
 73
     1
 44
1.0
  0
MTEXT
  5
2409E
330
1F
100
AcDbEntity
  8
C-SUNPO
 62
     7
 48
2.0
100
AcDbMText
 10
3808.107739077488
 20
2765.004734644484
 30
0.0
 40
3.0
 41
0.0
 71
     7
 72
     1
  1
\A1;
  7
ROMANS
 73
     1
 44
1.0
  0
MTEXT
  5
24827
330
1F
100
AcDbEntity
  8
C-SUNPO
 62
     7
 48
2.0
100
AcDbMText
 10
16.32762472600006
 20
2497.364677825138
 30
0.0
 40
3.0
 41
0.0
 71
     7
 72
     1
  1
\A1;
  7
ROMANS
 73
     1
 44
1.0
  0
MTEXT
  5
24835
330
1F
100
AcDbEntity
  8
C-SUNPO
 62
     7
 48
2.0
100
AcDbMText
 10
72.64738866550033
 20
2497.268515303196
 30
0.0
 40
3.0
 41
0.0
 71
     7
 72
     1
  1
\A1;
  7
ROMANS
 73
     1
 44
1.0
  0
MTEXT
  5
25BAF
330
1F
100
AcDbEntity
  8
C-SUNPO
 62
     7
 48
2.0
100
AcDbMText
 10
767.5031880762945
 20
2506.1407347721
 30
0.0
 40
3.0
 41
0.0
 71
     7
 72
     1
  1
\A1;
  7
ROMANS
 73
     1
 44
1.0
  0
MTEXT
  5
25BB3
330
1F
100
AcDbEntity
  8
C-SUNPO
 62
     7
 48
2.0
100
AcDbMText
 10
767.3971880703612
 20
2507.011027469142
 30
0.0
 40
3.0
 41
0.0
 71
     7
 72
     1
  1
\A1;
  7
ROMANS
 73
     1
 44
1.0
  0
MTEXT
  5
39134
330
1F
100
AcDbEntity
  8
寸法線
 48
2.0
100
AcDbMText
 10
7632.0
 20
6841.843365686539
 30
0.0
 40
5.0
 41
0.0
 71
     7
 72
     1
  1
\A1;
 73
     1
 44
1.0
  0
MTEXT
  5
395AE
330
1F
100
AcDbEntity
  8
寸法線
 48
2.0
100
AcDbMText
 10
7949.458803371053
 20
6663.858903360086
 30
0.0
 40
5.0
 41
0.0
 71
     7
 72
     1
  1
\A1;
 73
     1
 44
1.0
  0
MTEXT
  5
3A44F
330
1F
100
AcDbEntity
  8
寸法線
 48
2.0
100
AcDbMText
 10
3695.044191490299
 20
8934.953939942543
 30
0.0
 40
5.0
 41
0.0
 71
     7
 72
     1
  1
\A1;
 73
     1
 44
1.0
  0
MTEXT
  5
3A452
330
1F
100
AcDbEntity
  8
寸法線
 48
2.0
100
AcDbMText
 10
3694.502202062205
 20
9119.927226444435
 30
0.0
 40
5.0
 41
0.0
 71
     7
 72
     1
  1
\A1;
 73
     1
 44
1.0
  0
MTEXT
  5
3A456
330
1F
100
AcDbEntity
  8
寸法線
 48
2.0
100
AcDbMText
 10
3633.323159429099
 20
9116.43497606803
 30
0.0
 40
5.0
 41
0.0
 71
     7
 72
     1
  1
\A1;
 73
     1
 44
1.0
  0
MTEXT
  5
3A45E
330
1F
100
AcDbEntity
  8
寸法線
 48
2.0
100
AcDbMText
 10
3739.853666431351
 20
9092.208631853175
 30
0.0
 40
5.0
 41
0.0
 71
     7
 72
     1
  1
\A1;
 73
     1
 44
1.0
  0
MTEXT
  5
44773
330
1F
100
AcDbEntity
  8
寸法線
 62
     7
 48
2.0
100
AcDbMText
 10
8342.52532723806
 20
8713.755263716905
 30
0.0
 40
3.0
 41
0.0
 71
     7
 72
     1
  1
\A1;
  7
ROMANS
 73
     1
 44
1.0
  0
MTEXT
  5
44777
330
1F
100
AcDbEntity
  8
寸法線
 62
     7
 48
2.0
100
AcDbMText
 10
8252.808573762539
 20
8761.542957252139
 30
0.0
 40
3.0
 41
0.0
 71
     7
 72
     1
  1
\A1;
  7
ROMANS
 73
     1
 44
1.0
  0
MTEXT
  5
4477B
330
1F
100
AcDbEntity
  8
寸法線
 62
     7
 48
2.0
100
AcDbMText
 10
8123.508147289131
 20
8762.537989698021
 30
0.0
 40
3.0
 41
0.0
 71
     7
 72
     1
  1
\A1;
  7
ROMANS
 73
     1
 44
1.0
  0
MTEXT
  5
4477F
330
1F
100
AcDbEntity
  8
寸法線
 62
     7
 48
2.0
100
AcDbMText
 10
8160.516964765831
 20
8763.442599994418
 30
0.0
 40
3.0
 41
0.0
 71
     7
 72
     1
  1
\A1;
  7
ROMANS
 73
     1
 44
1.0
  0
MTEXT
  5
44789
330
1F
100
AcDbEntity
  8
寸法線
 62
     7
 48
2.0
100
AcDbMText
 10
8051.994188869799
 20
8732.813930770397
 30
0.0
 40
3.0
 41
0.0
 71
     7
 72
     1
  1
\A1;
  7
ROMANS
 73
     1
 44
1.0
  0
SPLINE
  5
61E99
330
1F
100
AcDbEntity
  8
姿図
100
AcDbSpline
210
0.0
220
0.0
230
1.0
 70
     8
 71
     3
 72
    10
 73
     6
 74
     0
 42
0.000000001
 43
0.0000000001
 40
0.0507684683112425
 40
0.0507684683112425
 40
0.0507684683112425
 40
0.0507684683112425
 40
16.17239265914957
 40
16.17239265914957
 40
20.69749416200302
 40
20.69749416200302
 40
20.69749416200302
 40
20.69749416200302
 10
11166.30256703105
 20
8379.466708082175
 30
0.0000000000000039
 10
11165.77492270654
 20
8379.849013686837
 30
0.0000000000000078
 10
11164.72297059646
 20
8380.431777565973
 30
0.0000000000000039
 10
11163.30936574385
 20
8381.020287270136
 30
0.0000000000000015
 10
11162.96697514234
 20
8381.151304377867
 30
0.0000000000000014
 10
11162.58949294724
 20
8381.27832691202
 30
0.0000000000000015
  0
SPLINE
  5
61E9A
330
1F
100
AcDbEntity
  8
姿図
100
AcDbSpline
210
0.0
220
0.0
230
1.0
 70
     8
 71
     3
 72
    18
 73
    14
 74
     0
 42
0.000000001
 43
0.0000000001
 40
29.90463456496951
 40
29.90463456496951
 40
29.90463456496951
 40
29.90463456496951
 40
33.44137084920912
 40
33.44137084920912
 40
41.29196149669883
 40
41.29196149669883
 40
50.54402678597219
 40
50.54402678597219
 40
58.56297097631615
 40
58.56297097631615
 40
66.12555618457822
 40
66.12555618457822
 40
66.63663448405963
 40
66.63663448405963
 40
66.63663448405963
 40
66.63663448405963
 10
11159.99809495995
 20
8381.921462439232
 30
0.0000000000000035
 10
11159.62703885596
 20
8381.980332846068
 30
0.0000000000000037
 10
11159.24268056416
 20
8382.027158743778
 30
0.0000000000000039
 10
11157.96779193188
 20
8382.128126894424
 30
0.0000000000000039
 10
11157.0924292269
 20
8382.117793231177
 30
0.0
 10
11155.25827381908
 20
8381.920121395106
 30
0.0000000000000039
 10
11154.31717962713
 20
8381.701494312236
 30
0.0
 10
11152.67212300128
 20
8381.099122102272
 30
0.0000000000000039
 10
11152.04889003546
 20
8380.77780540825
 30
0.0000000000000039
 10
11151.06390458434
 20
8380.161369228801
 30
0.0000000000000039
 10
11150.49836913027
 20
8379.746006274907
 30
0.0000000000000039
 10
11149.93280141175
 20
8379.183977022321
 30
0.0000000000000039
 10
11149.89735133025
 20
8379.148085735183
 30
0.0000000000000039
 10
11149.86225873998
 20
8379.111894149248
 30
0.000000000000004
  0
ELLIPSE
  5
61E9B
330
1F
100
AcDbEntity
  8
姿図
100
AcDbEllipse
 10
11159.89634256522
 20
8371.02391888213
 30
0.0000000000000028
 11
-11.53041605061245
 21
5.656932243057266
 31
1.113982151309669E-15
210
-7.786947847486992E-17
220
3.820350988213534E-17
230
-1.0
 40
0.7445887407026734
 41
2.121095593058011
 42
2.942897457598437
  0
SPLINE
  5
61E9C
330
1F
100
AcDbEntity
  8
姿図
100
AcDbSpline
210
0.0
220
0.0
230
1.0
 70
     8
 71
     3
 72
    20
 73
    16
 74
     0
 42
0.000000001
 43
0.0000000001
 40
61.91009950387845
 40
61.91009950387845
 40
61.91009950387845
 40
61.91009950387845
 40
63.27662545801321
 40
63.27662545801321
 40
65.63207741714923
 40
65.63207741714923
 40
66.46294226239624
 40
66.46294226239624
 40
68.78483332584179
 40
68.78483332584179
 40
78.37384755292882
 40
78.37384755292882
 40
82.12808435629299
 40
82.12808435629299
 40
85.66477676586585
 40
85.66477676586585
 40
85.66477676586585
 40
85.66477676586585
 10
11172.21870539096
 20
8367.577914187723
 30
-0.0000000000000013
 10
11172.26593645892
 20
8367.778363608792
 30
-0.000000000000002
 10
11172.30234315131
 20
8367.966432201461
 30
-0.0000000000000023
 10
11172.37868051022
 20
8368.434173119105
 30
0.0
 10
11172.40685934706
 20
8368.71934587766
 30
-0.000000000000004
 10
11172.42504871704
 20
8368.98301471289
 30
0.0
 10
11172.42918250702
 20
8369.056671003756
 30
-0.000000000000004
 10
11172.44174349701
 20
8369.3455324922
 30
0.0000000000000039
 10
11172.44265185699
 20
8369.533601919495
 30
-0.000000000000004
 10
11172.41720233128
 20
8370.542747304205
 30
-0.000000000000004
 10
11172.27760054918
 20
8371.731420483517
 30
-0.000000000000004
 10
11171.50624461615
 20
8373.678879951529
 30
-0.000000000000004
 10
11171.24334721767
 20
8374.21479877493
 30
0.0000000000000039
 10
11170.64223626327
 20
8375.240302994942
 30
0.0000000000000039
 10
11169.78645422102
 20
8376.399999384508
 30
-0.000000000000004
 10
11169.78645422102
 20
8376.399999384508
 30
-0.000000000000004
  0
TEXT
  5
6211F
330
1F
100
AcDbEntity
  8
文字
100
AcDbText
 10
11107.58382100729
 20
8320.17473273887
 30
0.0
 40
9.0
  1
SX-504KH/V2
  7
EXTFONT
100
AcDbText
  0
ELLIPSE
  5
62154
330
1F
100
AcDbEntity
  8
姿図
100
AcDbEllipse
 10
11160.61953129484
 20
8400.348993847014
 30
0.0
 11
-29.9281468397998
 21
0.0
 31
0.0
210
0.0
220
0.0
230
1.0
 40
0.3162393162393342
 41
3.141592653589793
 42
6.283185307179586
  0
SPLINE
  5
62155
330
1F
100
AcDbEntity
  8
姿図
100
AcDbSpline
210
0.0
220
0.0
230
1.0
 70
     8
 71
     3
 72
    38
 73
    34
 74
     0
 42
0.000000001
 43
0.0000000001
 40
2.738560322738704
 40
2.738560322738704
 40
2.738560322738704
 40
2.738560322738704
 40
2.828726728502814
 40
2.828726728502814
 40
2.935055276349026
 40
2.935055276349026
 40
3.005077107470267
 40
3.005077107470267
 40
3.073936795897682
 40
3.073936795897682
 40
3.157988052531479
 40
3.157988052531479
 40
3.225839156113563
 40
3.225839156113563
 40
3.269732088010313
 40
3.269732088010313
 40
3.325387713629903
 40
3.325387713629903
 40
3.381043339249494
 40
3.381043339249494
 40
3.489765511489012
 40
3.489765511489012
 40
3.598487683728531
 40
3.598487683728531
 40
3.707209855968049
 40
3.707209855968049
 40
3.980799305892633
 40
3.980799305892633
 40
4.254388755817216
 40
4.254388755817216
 40
4.5279782057418
 40
4.5279782057418
 40
4.632319406408223
 40
4.632319406408223
 40
4.632319406408223
 40
4.632319406408223
 10
11187.07794504081
 20
8375.794006246826
 30
0.0
 10
11187.35176436511
 20
8375.99702667753
 30
0.0
 10
11187.58017852955
 20
8376.19148889796
 30
0.0
 10
11187.97773875324
 20
8376.581022222063
 30
0.0
 10
11188.13233929865
 20
8376.772147119947
 30
0.0
 10
11188.30114833156
 20
8377.025793791396
 30
0.0
 10
11188.34387560824
 20
8377.107240576586
 30
0.0
 10
11188.40238038738
 20
8377.241444386087
 30
0.0
 10
11188.41617694563
 20
8377.289116184491
 30
0.0
 10
11188.43261545407
 20
8377.365958201211
 30
0.0
 10
11188.43468492188
 20
8377.40128012249
 30
0.0
 10
11188.4317637765
 20
8377.45929874706
 30
0.0
 10
11188.42811423753
 20
8377.487293026434
 30
0.0
 10
11188.41062614302
 20
8377.552458401493
 30
0.0
 10
11188.4003287182
 20
8377.584309728072
 30
0.0
 10
11188.3612131165
 20
8377.68009607947
 30
0.0
 10
11188.33308104801
 20
8377.738136213542
 30
0.0
 10
11188.24951884372
 20
8377.880091639947
 30
0.0
 10
11188.19448470339
 20
8377.96249488718
 30
0.0
 10
11187.98726765584
 20
8378.23100178246
 30
0.0
 10
11187.79197275737
 20
8378.440648319734
 30
0.0
 10
11187.26307386868
 20
8378.90107984951
 30
0.0
 10
11186.93377602766
 20
8379.149074572055
 30
0.0
 10
11186.14684694493
 20
8379.6551276079
 30
0.0
 10
11185.68901755293
 20
8379.91437469699
 30
0.0
 10
11183.87530686051
 20
8380.818258596653
 30
0.0
 10
11182.2053143849
 20
8381.448375670056
 30
0.0
 10
11178.31092480369
 20
8382.553594042069
 30
0.0
 10
11176.08580299688
 20
8383.031873379648
 30
0.0
 10
11171.27649080278
 20
8383.781304090555
 30
0.0
 10
11168.69283688097
 20
8384.0540112477
 30
0.0
 10
11165.02159160907
 20
8384.270381581631
 30
0.0
 10
11163.99736101613
 20
8384.313263631302
 30
0.0
 10
11162.96850478083
 20
8384.33924944812
 30
0.0
  0
SPLINE
  5
62156
330
1F
100
AcDbEntity
  8
姿図
100
AcDbSpline
210
0.0
220
0.0
230
1.0
 70
     8
 71
     3
 72
    26
 73
    22
 74
     0
 42
0.000000001
 43
0.0000000001
 40
4.732508529947624
 40
4.732508529947624
 40
4.732508529947624
 40
4.732508529947624
 40
4.876782162743083
 40
4.876782162743083
 40
5.167354927147022
 40
5.167354927147022
 40
5.45792769155096
 40
5.45792769155096
 40
5.665320540210745
 40
5.665320540210745
 40
5.836365821431989
 40
5.836365821431989
 40
5.964914474929378
 40
5.964914474929378
 40
6.093463128426767
 40
6.093463128426767
 40
6.222011781924156
 40
6.222011781924156
 40
6.273158440482626
 40
6.273158440482626
 40
6.283185307179586
 40
6.283185307179586
 40
6.283185307179586
 40
6.283185307179586
 10
11159.99730206974
 20
8384.367333101756
 30
0.0
 10
11158.57009300364
 20
8384.358345140947
 30
0.0
 10
11157.14510480822
 20
8384.316977201788
 30
0.0
 10
11152.90485128904
 20
8384.09436697904
 30
0.0
 10
11150.14610120744
 20
8383.814846097293
 30
0.0
 10
11145.0297334389
 20
8383.023070153786
 30
0.0
 10
11142.67335773003
 20
8382.511229225043
 30
0.0
 10
11139.18072240509
 20
8381.4906723552
 30
0.0
 10
11137.88785059269
 20
8381.024784933763
 30
0.0
 10
11135.90237422731
 20
8380.140702133811
 30
0.0
 10
11135.14003221497
 20
8379.727244577447
 30
0.0
 10
11134.09025489852
 20
8379.034679701423
 30
0.0
 10
11133.72922773941
 20
8378.74470860702
 30
0.0
 10
11133.18829698437
 20
8378.226579605542
 30
0.0
 10
11133.0152728504
 20
8378.003040353311
 30
0.0
 10
11132.80798762731
 20
8377.66185876051
 30
0.0
 10
11132.7752026851
 20
8377.552065054007
 30
0.0
 10
11132.75827581829
 20
8377.464710719156
 30
0.0
 10
11132.75634579229
 20
8377.446895014771
 30
0.0
 10
11132.7555754624
 20
8377.42148660924
 30
0.0
 10
11132.7555066291
 20
8377.417690296472
 30
0.0
 10
11132.7555066291
 20
8377.412401214819
 30
0.0
  0
ELLIPSE
  5
62157
330
1F
100
AcDbEntity
  8
姿図
100
AcDbEllipse
 10
11160.46941272891
 20
8377.475409170444
 30
0.0
 11
0.0
 21
-26.8168898298989
 31
0.0
210
0.0
220
0.0
230
1.0
 40
0.9941864669745836
 41
4.719626491807221
 42
7.836514099397998
  0
SPLINE
  5
62158
330
1F
100
AcDbEntity
  8
姿図
100
AcDbSpline
210
0.0
220
0.0
230
1.0
 70
     8
 71
     3
 72
     8
 73
     4
 74
     0
 42
0.000000001
 43
0.0000000001
 40
0.2097007835722609
 40
0.2097007835722609
 40
0.2097007835722609
 40
0.2097007835722609
 40
0.2510836869134597
 40
0.2510836869134597
 40
0.2510836869134597
 40
0.2510836869134597
 10
11133.71112368614
 20
8377.412341976165
 30
0.0
 10
11133.73567967927
 20
8377.375891194317
 30
0.0
 10
11133.76800331084
 20
8377.331890195708
 30
0.0
 10
11133.80912204288
 20
8377.28132331841
 30
0.0
  0
SPLINE
  5
62159
330
1F
100
AcDbEntity
  8
姿図
100
AcDbSpline
210
0.0
220
0.0
230
1.0
 70
     8
 71
     3
 72
    20
 73
    16
 74
     0
 42
0.000000001
 43
0.0000000001
 40
3.351327104104422
 40
3.351327104104422
 40
3.351327104104422
 40
3.351327104104422
 40
3.462842996285111
 40
3.462842996285111
 40
3.5743588884658
 40
3.5743588884658
 40
3.736801532016718
 40
3.736801532016718
 40
3.959449063157833
 40
3.959449063157833
 40
4.182096594298947
 40
4.182096594298947
 40
4.518618569114177
 40
4.518618569114177
 40
4.631543533424836
 40
4.631543533424836
 40
4.631543533424836
 40
4.631543533424836
 10
11187.47753822113
 20
8377.412800656237
 30
0.0
 10
11187.41016547586
 20
8377.512849135592
 30
0.0
 10
11187.28800759752
 20
8377.664664205884
 30
0.0
 10
11186.89509189063
 20
8378.03793137393
 30
0.0
 10
11186.62397838451
 20
8378.25908872937
 30
0.0
 10
11185.78859420491
 20
8378.831726606379
 30
0.0
 10
11185.1394471445
 20
8379.200790736906
 30
0.0
 10
11183.28848668334
 20
8380.064259913963
 30
0.0
 10
11181.9664586412
 20
8380.558629891944
 30
0.0
 10
11178.93961173706
 20
8381.456077212175
 30
0.0
 10
11177.23079414304
 20
8381.860695118323
 30
0.0
 10
11172.59186285215
 20
8382.72165103176
 30
0.0
 10
11169.48124668793
 20
8383.095544064274
 30
0.0
 10
11165.1682944958
 20
8383.36311820205
 30
0.0
 10
11164.07120557027
 20
8383.410817732081
 30
0.0
 10
11162.96851423751
 20
8383.438929996886
 30
0.0
  0
SPLINE
  5
6215A
330
1F
100
AcDbEntity
  8
姿図
100
AcDbSpline
210
0.0
220
0.0
230
1.0
 70
     8
 71
     3
 72
    24
 73
    20
 74
     0
 42
0.000000001
 43
0.0000000001
 40
4.732702678832413
 40
4.732702678832413
 40
4.732702678832413
 40
4.732702678832413
 40
4.855140543929407
 40
4.855140543929407
 40
5.132383725851286
 40
5.132383725851286
 40
5.397981570621475
 40
5.397981570621475
 40
5.663579415391665
 40
5.663579415391665
 40
5.805301648609044
 40
5.805301648609044
 40
5.906844270358045
 40
5.906844270358045
 40
5.98871824581656
 40
5.98871824581656
 40
6.070592221275076
 40
6.070592221275076
 40
6.07353420961016
 40
6.07353420961016
 40
6.07353420961016
 40
6.07353420961016
 10
11159.99726451658
 20
8383.467283210886
 30
0.0
 10
11158.79762309821
 20
8383.45966412589
 30
0.0
 10
11157.59965569999
 20
8383.428957652457
 30
0.0
 10
11153.72716133377
 20
8383.253114113188
 30
0.0
 10
11151.10023088584
 20
8383.012107049793
 30
0.0
 10
11146.29458711231
 20
8382.33374505445
 30
0.0
 10
11144.10171627906
 20
8381.903593287023
 30
0.0
 10
11140.2214885324
 20
8380.90034801368
 30
0.0
 10
11138.53114043878
 20
8380.323752175049
 30
0.0
 10
11136.47766239944
 20
8379.412858588918
 30
0.0
 10
11135.85702183494
 20
8379.08848373685
 30
0.0
 10
11134.98959355688
 20
8378.559675991528
 30
0.0
 10
11134.68832759077
 20
8378.34741147174
 30
0.0
 10
11134.24605787538
 20
8377.99295696792
 30
0.0
 10
11134.08678064249
 20
8377.846436777865
 30
0.0
 10
11133.84885086008
 20
8377.598427379271
 30
0.0
 10
11133.76746273057
 20
8377.494749220255
 30
0.0
 10
11133.71466827063
 20
8377.417579310113
 30
0.0
 10
11133.71287641933
 20
8377.414941058803
 30
0.0
 10
11133.71112368614
 20
8377.412341976167
 30
0.0
  0
SPLINE
  5
6215B
330
1F
100
AcDbEntity
  8
姿図
100
AcDbSpline
210
0.0
220
0.0
230
1.0
 70
     8
 71
     3
 72
    14
 73
    10
 74
     0
 42
0.000000001
 43
0.0000000001
 40
0.0
 40
0.0
 40
0.0
 40
0.0
 40
0.085082542331743
 40
0.085082542331743
 40
0.1701650846634861
 40
0.1701650846634861
 40
0.2552476269952291
 40
0.2552476269952291
 40
0.3725508738152958
 40
0.3725508738152958
 40
0.3725508738152958
 40
0.3725508738152958
 10
11132.7555066291
 20
8377.412401214819
 30
0.0
 10
11132.7555066291
 20
8377.367520941936
 30
0.0
 10
11132.75707289036
 20
8377.350331059684
 30
0.0
 10
11132.78561906846
 20
8377.24600514469
 30
0.0
 10
11132.81392781649
 20
8377.167573488176
 30
0.0
 10
11132.92417517578
 20
8376.964712171597
 30
0.0
 10
11133.00653157129
 20
8376.839325842073
 30
0.0
 10
11133.29485440023
 20
8376.490428307536
 30
0.0
 10
11133.5330351733
 20
8376.252135496221
 30
0.0
 10
11133.84901490376
 20
8375.996179926775
 30
0.0
  0
ELLIPSE
  5
6215C
330
1F
100
AcDbEntity
  8
姿図
100
AcDbEllipse
 10
11160.61953129484
 20
8399.177071668559
 30
0.0
 11
-29.9281468397998
 21
0.0
 31
0.0
210
0.0
220
0.0
230
1.0
 40
0.3162393162393342
 41
3.141592653589793
 42
6.283185307179586
  0
ELLIPSE
  5
6215D
330
1F
100
AcDbEntity
  8
姿図
100
AcDbEllipse
 10
11160.59443197583
 20
8377.412401214819
 30
0.0
 11
-30.5389253467345
 21
0.0
 31
0.0
210
0.0
220
0.0
230
1.0
 40
0.3162393162393341
 41
2.618134997042513
 42
6.57783654570895
  0
LINE
  5
6215E
330
1F
100
AcDbEntity
  8
姿図
100
AcDbLine
 10
11134.70711217686
 20
8382.535796660623
 30
0.0
 11
11135.34133679146
 21
8404.243881401493
 31
0.0
  0
LINE
  5
6215F
330
1F
100
AcDbEntity
  8
姿図
100
AcDbLine
 10
11132.87507393236
 20
8381.465488317715
 30
0.0
 11
11133.50967856973
 21
8403.186580385129
 31
0.0
  0
LINE
  5
62160
330
1F
100
AcDbEntity
  8
姿図
100
AcDbLine
 10
11131.95421255259
 20
8380.764594542317
 30
0.0
 11
11132.58904858409
 21
8402.493606711256
 31
0.0
  0
LINE
  5
62161
330
1F
100
AcDbEntity
  8
姿図
100
AcDbLine
 10
11131.02647394059
 20
8379.828308546852
 30
0.0
 11
11131.66160440109
 21
8401.567398359271
 31
0.0
  0
LINE
  5
62162
330
1F
100
AcDbEntity
  8
姿図
100
AcDbLine
 10
11130.0555066291
 20
8377.41240121482
 30
0.0
 11
11130.69138445504
 21
8399.177071668559
 31
0.0
  0
LINE
  5
62163
330
1F
100
AcDbEntity
  8
姿図
100
AcDbLine
 10
11136.53193781625
 20
8383.359233722502
 30
0.0
 11
11137.16583808935
 21
8405.056216982026
 31
0.0
  0
LINE
  5
62165
330
1F
100
AcDbEntity
  8
姿図
100
AcDbLine
 10
11187.40765932267
 20
8382.035088852546
 30
0.0
 11
11186.82333288269
 21
8403.74948927134
 31
0.0
  0
LINE
  5
62166
330
1F
100
AcDbEntity
  8
姿図
100
AcDbLine
 10
11189.24268436299
 20
8380.7577228915
 30
0.0
 11
11188.65796077071
 21
8402.486882053907
 31
0.0
  0
LINE
  5
62167
330
1F
100
AcDbEntity
  8
姿図
100
AcDbLine
 10
11190.1682124301
 20
8379.821170801788
 30
0.0
 11
11189.58321759784
 21
8401.560409626945
 31
0.0
  0
LINE
  5
62168
330
1F
100
AcDbEntity
  8
姿図
100
AcDbLine
 10
11191.13335732257
 20
8377.41240121482
 30
0.0
 11
11190.54334376956
 21
8399.33814283087
 31
0.0
  0
LWPOLYLINE
  5
62169
330
1F
100
AcDbEntity
  8
姿図
100
AcDbPolyline
 90
        4
 70
     0
 43
0.0
 10
11163.95642374867
 20
8380.82401556947
 10
11164.47364576094
 20
8382.03642504498
 10
11164.64761633577
 20
8382.250259011586
 10
11165.45131083974
 20
8383.341882455321
  0
LWPOLYLINE
  5
6216A
330
1F
100
AcDbEntity
  8
姿図
100
AcDbPolyline
 90
        4
 70
     0
 43
0.0
 10
11163.48878781759
 20
8380.954504209574
 10
11164.00600982987
 20
8382.166913685087
 10
11164.1799804047
 20
8382.380747651692
 10
11164.9231096042
 20
8383.368245552054
  0
LINE
  5
6216B
330
1F
100
AcDbEntity
  8
姿図
100
AcDbLine
 10
11165.92825463781
 20
8383.315366792067
 30
0.0
 11
11165.68494202664
 21
8381.01076829254
 31
0.0
  0
LWPOLYLINE
  5
6216C
330
1F
100
AcDbEntity
  8
姿図
100
AcDbPolyline
 90
        4
 70
     0
 43
0.0
 10
11159.43894693437
 20
8382.022095711964
 10
11159.6410524782
 20
8382.399169297561
 10
11159.84422765479
 20
8382.646160531167
 10
11159.99808561949
 20
8382.81071723137
  0
LWPOLYLINE
  5
6216D
330
1F
100
AcDbEntity
  8
姿図
100
AcDbPolyline
 90
        2
 70
     0
 43
0.0
 10
11159.80801277448
 20
8381.951352688564
 10
11159.99809092103
 20
8382.305986445279
  0
ARC
  5
6216E
330
1F
100
AcDbEntity
  8
姿図
100
AcDbCircle
 10
11164.25106280453
 20
8378.032456746056
 30
0.0
 40
7.79267183923402
100
AcDbArc
 50
135.9666610599888
 51
148.4227187509985
  0
SPLINE
  5
6216F
330
1F
100
AcDbEntity
  8
姿図
100
AcDbSpline
210
0.0
220
0.0
230
1.0
 70
     8
 71
     3
 72
    14
 73
    10
 74
     0
 42
0.000000001
 43
0.0000000001
 40
-12.4176878319165
 40
-12.4176878319165
 40
-12.4176878319165
 40
-12.4176878319165
 40
-9.929941621284126
 40
-9.929941621284126
 40
-7.882361304732088
 40
-7.882361304732088
 40
-6.55536423551068
 40
-6.55536423551068
 40
-6.54232051596743
 40
-6.54232051596743
 40
-6.54232051596743
 40
-6.54232051596743
 10
11167.62026055317
 20
8382.005095464727
 30
-0.0000000000000037
 10
11167.725015914
 20
8382.140164478422
 30
-0.0000000000000037
 10
11167.85043469767
 20
8382.303106791353
 30
-0.0000000000000037
 10
11168.07571065368
 20
8382.581278016954
 30
-0.0000000000000037
 10
11168.18114241255
 20
8382.707267375903
 30
-0.0000000000000103
 10
11168.36052662658
 20
8382.899872117947
 30
-0.0000000000000037
 10
11168.44391950604
 20
8382.983627744714
 30
-0.0000000000000103
 10
11168.52826323946
 20
8383.05454516398
 30
-0.0000000000000037
 10
11168.52908345157
 20
8383.055233531375
 30
-0.0000000000000103
 10
11168.52990294093
 20
8383.0559199253
 30
-0.0000000000000037
  0
SPLINE
  5
62170
330
1F
100
AcDbEntity
  8
姿図
100
AcDbSpline
210
0.0
220
0.0
230
1.0
 70
     8
 71
     3
 72
    14
 73
    10
 74
     0
 42
0.000000001
 43
0.0000000001
 40
-12.4176878319165
 40
-12.4176878319165
 40
-12.4176878319165
 40
-12.4176878319165
 40
-9.929941621284126
 40
-9.929941621284126
 40
-7.882361304732088
 40
-7.882361304732088
 40
-6.55536423551068
 40
-6.55536423551068
 40
-6.54232051596743
 40
-6.54232051596743
 40
-6.54232051596743
 40
-6.54232051596743
 10
11167.62023302083
 20
8382.005090311886
 30
-0.0000000000000037
 10
11167.72498924765
 20
8382.14016044217
 30
-0.0000000000000037
 10
11167.85040906814
 20
8382.30310410211
 30
-0.0000000000000037
 10
11168.07568688645
 20
8382.581277627296
 30
-0.0000000000000037
 10
11168.18111951691
 20
8382.70726802777
 30
-0.0000000000000103
 10
11168.36050521387
 20
8382.899874362038
 30
-0.0000000000000037
 10
11168.44389878273
 20
8382.983630681196
 30
-0.0000000000000103
 10
11168.5282432134
 20
8383.054548686721
 30
-0.0000000000000037
 10
11168.52906343228
 20
8383.055237059807
 30
-0.0000000000000103
 10
11168.52988292842
 20
8383.055923459406
 30
-0.0000000000000037
  0
ARC
  5
62171
330
1F
100
AcDbEntity
  8
姿図
100
AcDbCircle
 10
11164.72420624965
 20
8373.302114090395
 30
0.0
 40
13.17277208097486
100
AcDbArc
 50
130.1803087188279
 51
139.6371495464574
  0
ARC
  5
62172
330
1F
100
AcDbEntity
  8
姿図
100
AcDbCircle
 10
11163.81423140013
 20
8378.014826898177
 30
0.0
 40
7.79267183923402
100
AcDbArc
 50
135.8880452872002
 51
148.4227187509985
  0
SPLINE
  5
62173
330
1F
100
AcDbEntity
  8
姿図
100
AcDbSpline
210
0.0
220
0.0
230
1.0
 70
     8
 71
     1
 72
    95
 73
    93
 74
     0
 42
0.000000001
 43
0.0000000001
 40
4.868828357704044
 40
4.868828357704044
 40
4.899304006515187
 40
4.929779655326332
 40
4.960255304137476
 40
4.99073095294862
 40
5.021206601759763
 40
5.051682250570908
 40
5.082157899382052
 40
5.112633548193195
 40
5.141866847195869
 40
5.171100146198544
 40
5.200333445201219
 40
5.229566744203892
 40
5.258800043206566
 40
5.288033342209241
 40
5.317266641211915
 40
5.346499940214589
 40
5.375733239217263
 40
5.410288874003569
 40
5.444844508789874
 40
5.479400143576179
 40
5.513955778362485
 40
5.548511413148789
 40
5.583067047935096
 40
5.617622682721401
 40
5.652178317507706
 40
5.686733952294011
 40
5.721773394811629
 40
5.756812837329247
 40
5.791852279846864
 40
5.826891722364483
 40
5.861931164882101
 40
5.896970607399719
 40
5.932010049917338
 40
5.967049492434954
 40
6.002088934952573
 40
6.037128377470191
 40
6.072869040478575
 40
6.108609703486958
 40
6.144350366495342
 40
6.180091029503725
 40
6.215831692512109
 40
6.251572355520493
 40
6.287313018528875
 40
6.323053681537259
 40
6.358794344545643
 40
6.394535007554026
 40
6.434056964704096
 40
6.473578921854168
 40
6.51310087900424
 40
6.55262283615431
 40
6.59214479330438
 40
6.631666750454452
 40
6.671188707604522
 40
6.710710664754592
 40
6.750232621904663
 40
6.785926488730394
 40
6.821620355556124
 40
6.857314222381854
 40
6.893008089207585
 40
6.928701956033316
 40
6.964395822859046
 40
7.000089689684777
 40
7.035783556510507
 40
7.071477423336238
 40
7.107171290161968
 40
7.142623453249049
 40
7.178075616336131
 40
7.213527779423211
 40
7.248979942510293
 40
7.284432105597374
 40
7.319884268684455
 40
7.355336431771536
 40
7.390788594858618
 40
7.426240757945699
 40
7.46169292103278
 40
7.497078312165116
 40
7.532463703297453
 40
7.567849094429789
 40
7.603234485562125
 40
7.638619876694462
 40
7.674005267826798
 40
7.709390658959135
 40
7.74477605009147
 40
7.780161441223807
 40
7.808943887482561
 40
7.837726333741315
 40
7.866508780000069
 40
7.895291226258823
 40
7.924073672517576
 40
7.952856118776331
 40
7.981638565035084
 40
8.010421011293838
 40
8.010421011293838
 10
11170.21101123135
 20
8380.853394070487
 30
-0.0000000000000037
 10
11170.22863966444
 20
8380.868895903663
 30
-0.0000000000000037
 10
11170.24549567299
 20
8380.885217676818
 30
-0.0000000000000037
 10
11170.26153696298
 20
8380.902309716548
 30
-0.0000000000000037
 10
11170.27672759727
 20
8380.920118759543
 30
-0.0000000000000037
 10
11170.29103843583
 20
8380.938589148927
 30
-0.0000000000000037
 10
11170.30444730779
 20
8380.95766404826
 30
-0.0000000000000103
 10
11170.31693892576
 20
8380.977286606256
 30
-0.0000000000000103
 10
11170.32850457044
 20
8380.997401014987
 30
-0.0000000000000037
 10
11170.33872610303
 20
8381.017107692549
 30
-0.0000000000000037
 10
11170.34809549926
 20
8381.03717213974
 30
-0.0000000000000037
 10
11170.35661911242
 20
8381.057551846232
 30
-0.0000000000000037
 10
11170.36430666589
 20
8381.078207314402
 30
-0.0000000000000037
 10
11170.37117062565
 20
8381.09910222062
 30
-0.0000000000000037
 10
11170.37722559836
 20
8381.120203456712
 30
-0.0000000000000103
 10
11170.38248777443
 20
8381.141481071047
 30
-0.0000000000000103
 10
11170.38697442936
 20
8381.162908130073
 30
-0.0000000000000103
 10
11170.39070349076
 20
8381.184460520824
 30
-0.0000000000000037
 10
11170.39415935392
 20
8381.210069161625
 30
-0.0000000000000037
 10
11170.39661212762
 20
8381.235791529338
 30
-0.0000000000000037
 10
11170.39809129571
 20
8381.261600112957
 30
-0.0000000000000037
 10
11170.39862542008
 20
8381.287470695584
 30
-0.0000000000000037
 10
11170.39824189114
 20
8381.313381771837
 30
-0.0000000000000037
 10
11170.3969667844
 20
8381.33931401391
 30
-0.0000000000000103
 10
11170.39482480106
 20
8381.36524979521
 30
-0.0000000000000103
 10
11170.39183927262
 20
8381.391172775084
 30
-0.0000000000000037
 10
11170.38803221225
 20
8381.417067544298
 30
-0.0000000000000103
 10
11170.38335429598
 20
8381.443280900774
 30
-0.0000000000000037
 10
11170.37787352192
 20
8381.46943506565
 30
-0.0000000000000037
 10
11170.37160929749
 20
8381.495515247167
 30
-0.0000000000000037
 10
11170.36458008914
 20
8381.52150669224
 30
-0.0000000000000037
 10
11170.35680355106
 20
8381.547394560788
 30
-0.0000000000000037
 10
11170.34829664915
 20
8381.5731638332
 30
-0.0000000000000037
 10
11170.33907577752
 20
8381.59879924549
 30
-0.0000000000000037
 10
11170.32915686592
 20
8381.624285247382
 30
-0.0000000000000103
 10
11170.31855547685
 20
8381.649605979042
 30
-0.0000000000000103
 10
11170.30728689215
 20
8381.674745262864
 30
-0.0000000000000037
 10
11170.29512107513
 20
8381.700183606159
 30
-0.0000000000000037
 10
11170.28229262918
 20
8381.725398183005
 30
-0.0000000000000103
 10
11170.26881731671
 20
8381.75037086567
 30
-0.0000000000000037
 10
11170.25471086111
 20
8381.775083250977
 30
-0.0000000000000037
 10
11170.23998898719
 20
8381.79951669252
 30
-0.0000000000000037
 10
11170.22466745238
 20
8381.823652335495
 30
-0.0000000000000037
 10
11170.20876206924
 20
8381.847471152943
 30
-0.0000000000000037
 10
11170.19228871999
 20
8381.870953982321
 30
-0.0000000000000037
 10
11170.1752633637
 20
8381.894081561586
 30
-0.0000000000000037
 10
11170.15770203666
 20
8381.916834563954
 30
-0.0000000000000103
 10
11170.13767814479
 20
8381.941535338836
 30
-0.0000000000000103
 10
11170.11704043567
 20
8381.965728237046
 30
-0.0000000000000103
 10
11170.09581083496
 20
8381.989387123956
 30
-0.0000000000000037
 10
11170.07401129305
 20
8382.012485944182
 30
-0.0000000000000037
 10
11170.05166374087
 20
8382.034998751082
 30
-0.0000000000000037
 10
11170.02879003902
 20
8382.05689972704
 30
-0.0000000000000037
 10
11170.00541192133
 20
8382.07816319331
 30
-0.0000000000000103
 10
11169.9815509339
 20
8382.098763608063
 30
-0.0000000000000037
 10
11169.95722837102
 20
8382.118675551234
 30
-0.0000000000000037
 10
11169.93488246201
 20
8382.136046088002
 30
-0.0000000000000103
 10
11169.91219236473
 20
8382.152815780119
 30
-0.0000000000000037
 10
11169.88917297328
 20
8382.168965995172
 30
-0.0000000000000037
 10
11169.86583885438
 20
8382.184478043557
 30
-0.0000000000000103
 10
11169.84220421723
 20
8382.199333117345
 30
-0.0000000000000103
 10
11169.8182828901
 20
8382.213512216342
 30
-0.0000000000000037
 10
11169.79408830635
 20
8382.226996060514
 30
-0.0000000000000037
 10
11169.76963350301
 20
8382.239764988075
 30
-0.0000000000000037
 10
11169.74493113585
 20
8382.251798838783
 30
-0.0000000000000037
 10
11169.71999351524
 20
8382.263076822464
 30
-0.0000000000000037
 10
11169.6950037711
 20
8382.273508932169
 30
-0.0000000000000037
 10
11169.66980541383
 20
8382.283152061313
 30
-0.0000000000000037
 10
11169.64440998937
 20
8382.291983096266
 30
-0.0000000000000037
 10
11169.61882916468
 20
8382.299977683564
 30
-0.0000000000000103
 10
11169.59307495634
 20
8382.307110062175
 30
-0.0000000000000103
 10
11169.56716002106
 20
8382.313352904739
 30
-0.0000000000000103
 10
11169.54109801646
 20
8382.31867717929
 30
-0.0000000000000103
 10
11169.51490403898
 20
8382.32305204646
 30
-0.0000000000000037
 10
11169.48859514422
 20
8382.326444811111
 30
-0.0000000000000037
 10
11169.46219095088
 20
8382.328820951416
 30
-0.0000000000000103
 10
11169.43576424343
 20
8382.33014277311
 30
-0.0000000000000103
 10
11169.40929208174
 20
8382.330378291703
 30
-0.0000000000000037
 10
11169.38280593132
 20
8382.329489096783
 30
-0.0000000000000037
 10
11169.35634281687
 20
8382.327436418718
 30
-0.0000000000000037
 10
11169.32994608722
 20
8382.324181972564
 30
-0.0000000000000037
 10
11169.30366608133
 20
8382.319689035503
 30
-0.0000000000000103
 10
11169.27756062005
 20
8382.313923755593
 30
-0.0000000000000037
 10
11169.25169523903
 20
8382.306856666522
 30
-0.0000000000000103
 10
11169.22614307698
 20
8382.298464354506
 30
-0.0000000000000103
 10
11169.20564524177
 20
8382.290649589828
 30
-0.0000000000000037
 10
11169.18545377719
 20
8382.28194365651
 30
-0.0000000000000037
 10
11169.16561701567
 20
8382.272347388882
 30
-0.0000000000000103
 10
11169.14618477891
 20
8382.261866770554
 30
-0.0000000000000037
 10
11169.12720759917
 20
8382.250513263863
 30
-0.0000000000000037
 10
11169.10873584641
 20
8382.238303983535
 30
-0.0000000000000103
 10
11169.09081879806
 20
8382.225261691501
 30
-0.0000000000000103
 10
11169.07350369581
 20
8382.211414600515
 30
-0.0000000000000037
  0
LINE
  5
62174
330
1F
100
AcDbEntity
  8
姿図
100
AcDbLine
 10
11168.51963539056
 20
8363.476039363719
 30
0.0
 11
11169.62283045784
 21
8365.876052084634
 31
0.0
  0
LINE
  5
62175
330
1F
100
AcDbEntity
  8
姿図
100
AcDbLine
 10
11168.46067392631
 20
8362.584261717542
 30
0.0
 11
11169.73085921806
 21
8364.966963309877
 31
0.0
  0
LINE
  5
62176
330
1F
100
AcDbEntity
  8
姿図
100
AcDbLine
 10
11169.6713452837
 20
8363.860062235057
 30
0.0
 11
11168.43822907157
 21
8362.141219375146
 31
0.0
  0
ARC
  5
62177
330
1F
100
AcDbEntity
  8
姿図
100
AcDbCircle
 10
11120.04252083891
 20
8391.475660726024
 30
0.0
 40
57.3886445563827
100
AcDbArc
 50
327.8255365203397
 51
335.3912635250212
  0
ARC
  5
62178
330
1F
100
AcDbEntity
  8
姿図
100
AcDbCircle
 10
11163.56491192855
 20
8380.0214091434
 30
0.0
 40
23.07276142824737
100
AcDbArc
 50
177.7199488899154
 51
220.9463472728329
  0
ARC
  5
62179
330
1F
100
AcDbEntity
  8
姿図
100
AcDbCircle
 10
11166.94767739773
 20
8380.415951410849
 30
0.0
 40
27.72602798751958
100
AcDbArc
 50
186.4591937975243
 51
230.9369369997695
  0
SPLINE
  5
6217A
330
1F
100
AcDbEntity
  8
姿図
100
AcDbSpline
210
0.0
220
0.0
230
1.0
 70
     8
 71
     3
 72
     8
 73
     4
 74
     0
 42
0.000000001
 43
0.0000000001
 40
20.17474574740567
 40
20.17474574740567
 40
20.17474574740567
 40
20.17474574740567
 40
20.51051228626665
 40
20.51051228626665
 40
20.51051228626665
 40
20.51051228626665
 10
11165.83269672534
 20
8378.724031481308
 30
-0.0000000000000037
 10
11165.81189806337
 20
8378.737305999872
 30
-0.0000000000000037
 10
11165.79103982308
 20
8378.750554284281
 30
-0.0000000000000037
 10
11165.77012091059
 20
8378.763776856264
 30
-0.0000000000000037
  0
LINE
  5
6217B
330
1F
100
AcDbEntity
  8
姿図
100
AcDbLine
 10
11163.55664163094
 20
8371.496435613419
 30
0.0
 11
11164.04309684971
 21
8374.042197426692
 31
0.0
  0
ARC
  5
6217C
330
1F
100
AcDbEntity
  8
姿図
100
AcDbCircle
 10
11157.9994006744
 20
8366.038671304635
 30
0.0
 40
16.24345985646618
100
AcDbArc
 50
69.73273210019128
 51
72.308396021958
  0
SPLINE
  5
6217D
330
1F
100
AcDbEntity
  8
姿図
100
AcDbSpline
210
1.405857329745993E-5
220
-1.090343244805159E-5
230
-0.9999999998417359
 70
     8
 71
     3
 72
     8
 73
     4
 74
     0
 42
0.000000001
 43
0.0000000001
 40
110.2937215201613
 40
110.2937215201613
 40
110.2937215201613
 40
110.2937215201613
 40
110.302956437032
 40
110.302956437032
 40
110.302956437032
 40
110.302956437032
 10
11167.62026055317
 20
8382.005095464727
 30
-0.0000000000000037
 10
11167.62021405481
 20
8382.005035510876
 30
-0.0000000000000103
 10
11167.62016755769
 20
8382.004975559024
 30
-0.0000000000000037
 10
11167.62012106171
 20
8382.004915609035
 30
-0.0000000000000103
  0
SPLINE
  5
6217E
330
1F
100
AcDbEntity
  8
姿図
100
AcDbSpline
210
0.0
220
0.0
230
1.0
 70
     8
 71
     3
 72
     8
 73
     4
 74
     0
 42
0.000000001
 43
0.0000000001
 40
-5.558709854342928
 40
-5.558709854342928
 40
-5.558709854342928
 40
-5.558709854342928
 40
-5.251204385375416
 40
-5.251204385375416
 40
-5.251204385375416
 40
-5.251204385375416
 10
11167.6123869903
 20
8381.953686188934
 30
-0.0000000000000037
 10
11167.61464752944
 20
8381.970934115752
 30
-0.0000000000000037
 10
11167.61722236958
 20
8381.988018799282
 30
-0.0000000000000103
 10
11167.62012106171
 20
8382.004915609035
 30
-0.0000000000000103
  0
SPLINE
  5
6217F
330
1F
100
AcDbEntity
  8
姿図
100
AcDbSpline
210
1.398299514151755E-5
220
-1.084481601891635E-5
230
-0.999999999843433
 70
     8
 71
     3
 72
     8
 73
     4
 74
     0
 42
0.000000001
 43
0.0000000001
 40
110.2937215201613
 40
110.2937215201613
 40
110.2937215201613
 40
110.2937215201613
 40
110.302956437032
 40
110.302956437032
 40
110.302956437032
 40
110.302956437032
 10
11167.62023302083
 20
8382.005090311886
 30
-0.0000000000000037
 10
11167.62018652209
 20
8382.005030357539
 30
-0.0000000000000103
 10
11167.62014002459
 20
8382.004970405193
 30
-0.0000000000000037
 10
11167.62009352822
 20
8382.004910454709
 30
-0.0000000000000103
  0
SPLINE
  5
62180
330
1F
100
AcDbEntity
  8
姿図
100
AcDbSpline
210
0.0
220
0.0
230
1.0
 70
     8
 71
     3
 72
     8
 73
     4
 74
     0
 42
0.000000001
 43
0.0000000001
 40
-5.558709854342928
 40
-5.558709854342928
 40
-5.558709854342928
 40
-5.558709854342928
 40
-5.251204385375416
 40
-5.251204385375416
 40
-5.251204385375416
 40
-5.251204385375416
 10
11167.61235939288
 20
8381.953680611105
 30
-0.0000000000000037
 10
11167.61461995071
 20
8381.970928680506
 30
-0.0000000000000037
 10
11167.61719481212
 20
8381.988013505274
 30
-0.0000000000000103
 10
11167.62009352822
 20
8382.004910454709
 30
-0.0000000000000103
  0
ARC
  5
62181
330
1F
100
AcDbEntity
  8
姿図
100
AcDbCircle
 10
11180.79534485814
 20
8361.4647952804
 30
0.0
 40
35.62217636590402
100
AcDbArc
 50
150.6124595519428
 51
161.9934507892619
  0
LINE
  5
62182
330
1F
100
AcDbEntity
  8
姿図
100
AcDbLine
 10
11146.89435202055
 20
8371.689961492226
 30
0.0
 11
11147.0793987047
 21
8372.658364675108
 31
0.0
  0
SPLINE
  5
62183
330
1F
100
AcDbEntity
  8
姿図
100
AcDbSpline
210
0.0
220
0.0
230
1.0
 70
     8
 71
     1
 72
    15
 73
    13
 74
     0
 42
0.000000001
 43
0.0000000001
 40
7.20717324291482
 40
7.20717324291482
 40
7.217570874922297
 40
7.231882583709728
 40
7.24619429249716
 40
7.260506001284593
 40
7.274817710072025
 40
7.289129418859456
 40
7.30344112764689
 40
7.317752836434321
 40
7.332064545221754
 40
7.346376254009186
 40
7.360687962796618
 40
7.37499967158405
 40
7.37499967158405
 10
11146.26002402149
 20
8369.63539189949
 30
-0.0000000000000044
 10
11146.26316950763
 20
8369.734839047664
 30
-0.0000000000000092
 10
11146.26991772199
 20
8369.871209764638
 30
-0.0000000000000092
 10
11146.27908382956
 20
8370.00703970973
 30
-0.0000000000000092
 10
11146.29066655636
 20
8370.142300417785
 30
-0.0000000000000026
 10
11146.30466410214
 20
8370.27696349645
 30
-0.0000000000000092
 10
11146.32107413752
 20
8370.411000633456
 30
-0.0000000000000026
 10
11146.33989380147
 20
8370.544383604174
 30
-0.0000000000000026
 10
11146.36111969883
 20
8370.677084279425
 30
-0.0000000000000092
 10
11146.3847478982
 20
8370.809074633564
 30
-0.0000000000000026
 10
11146.41077392991
 20
8370.940326752829
 30
-0.0000000000000026
 10
11146.43919278448
 20
8371.070812843915
 30
-0.0000000000000092
 10
11146.46999891123
 20
8371.200505242807
 30
-0.0000000000000026
  0
LINE
  5
62184
330
1F
100
AcDbEntity
  8
姿図
100
AcDbLine
 10
11149.17948427535
 20
8373.93848629134
 30
0.0
 11
11149.42213482744
 21
8375.208347289086
 31
0.0
  0
LINE
  5
62185
330
1F
100
AcDbEntity
  8
姿図
100
AcDbLine
 10
11149.69323843545
 20
8374.199551986416
 30
0.0
 11
11149.94863960511
 21
8375.536140678878
 31
0.0
  0
LINE
  5
62186
330
1F
100
AcDbEntity
  8
姿図
100
AcDbLine
 10
11150.19724803093
 20
8374.409621537283
 30
0.0
 11
11150.46463078609
 21
8375.808913355639
 31
0.0
  0
LINE
  5
62187
330
1F
100
AcDbEntity
  8
姿図
100
AcDbLine
 10
11150.69341484807
 20
8374.578647545288
 30
0.0
 11
11150.97212444737
 21
8376.037216037364
 31
0.0
  0
LINE
  5
62188
330
1F
100
AcDbEntity
  8
姿図
100
AcDbLine
 10
11151.1830315894
 20
8374.713395099248
 30
0.0
 11
11151.47250251887
 21
8376.228280765717
 31
0.0
  0
LINE
  5
62189
330
1F
100
AcDbEntity
  8
姿図
100
AcDbLine
 10
11151.66702363873
 20
8374.8187070021
 30
0.0
 11
11151.96676062097
 21
8376.38731791215
 31
0.0
  0
LINE
  5
6218A
330
1F
100
AcDbEntity
  8
姿図
100
AcDbLine
 10
11152.14607938001
 20
8374.898185767479
 30
0.0
 11
11152.45564326363
 21
8376.518223714018
 31
0.0
  0
LINE
  5
6218B
330
1F
100
AcDbEntity
  8
姿図
100
AcDbLine
 10
11152.62072613062
 20
8374.954591000831
 30
0.0
 11
11152.93972334175
 21
8376.623996297116
 31
0.0
  0
LINE
  5
6218C
330
1F
100
AcDbEntity
  8
姿図
100
AcDbLine
 10
11153.09137711239
 20
8374.990085212263
 30
0.0
 11
11153.41945166441
 21
8376.706994876738
 31
0.0
  0
LINE
  5
6218D
330
1F
100
AcDbEntity
  8
姿図
100
AcDbLine
 10
11153.55836191581
 20
8375.00639324481
 30
0.0
 11
11153.89518926886
 21
8376.769108865894
 31
0.0
  0
LINE
  5
6218E
330
1F
100
AcDbEntity
  8
姿図
100
AcDbLine
 10
11154.02194702942
 20
8375.00490971062
 30
0.0
 11
11154.36722930669
 21
8376.811872412174
 31
0.0
  0
LINE
  5
6218F
330
1F
100
AcDbEntity
  8
姿図
100
AcDbLine
 10
11154.48235011485
 20
8374.986773696413
 30
0.0
 11
11154.83581233138
 21
8376.836544402013
 31
0.0
  0
LINE
  5
62190
330
1F
100
AcDbEntity
  8
姿図
100
AcDbLine
 10
11154.93975019239
 20
8374.952922067409
 30
0.0
 11
11155.30113725328
 21
8376.844165791243
 31
0.0
  0
LINE
  5
62191
330
1F
100
AcDbEntity
  8
姿図
100
AcDbLine
 10
11155.39429506355
 20
8374.904128312026
 30
0.0
 11
11155.76336935797
 21
8376.835601567407
 31
0.0
  0
LINE
  5
62192
330
1F
100
AcDbEntity
  8
姿図
100
AcDbLine
 10
11155.84610681222
 20
8374.841031330727
 30
0.0
 11
11156.22264627767
 21
8376.811571999951
 31
0.0
  0
LINE
  5
62193
330
1F
100
AcDbEntity
  8
姿図
100
AcDbLine
 10
11156.29528593369
 20
8374.764157044723
 30
0.0
 11
11156.67908249943
 21
8376.772676233004
 31
0.0
  0
LINE
  5
62194
330
1F
100
AcDbEntity
  8
姿図
100
AcDbLine
 10
11156.74191445948
 20
8374.6739347488
 30
0.0
 11
11157.13277280265
 21
8376.719410274718
 31
0.0
  0
LINE
  5
62195
330
1F
100
AcDbEntity
  8
姿図
100
AcDbLine
 10
11157.18605832865
 20
8374.570709521266
 30
0.0
 11
11157.58379489512
 21
8376.652180792642
 31
0.0
  0
LINE
  5
62196
330
1F
100
AcDbEntity
  8
姿図
100
AcDbLine
 10
11157.6277691794
 20
8374.454751599878
 30
0.0
 11
11158.03221143557
 21
8376.571315698104
 31
0.0
  0
LINE
  5
62197
330
1F
100
AcDbEntity
  8
姿図
100
AcDbLine
 10
11158.06708568199
 20
8374.326263357325
 30
0.0
 11
11158.47807157503
 21
8376.477072212714
 31
0.0
  0
LINE
  5
62198
330
1F
100
AcDbEntity
  8
姿図
100
AcDbLine
 10
11158.50403449709
 20
8374.185384316645
 30
0.0
 11
11158.92141211084
 21
8376.369642907779
 31
0.0
  0
LINE
  5
62199
330
1F
100
AcDbEntity
  8
姿図
100
AcDbLine
 10
11158.93863091685
 20
8374.032194506211
 30
0.0
 11
11159.36225831938
 21
8376.249160061905
 31
0.0
  0
LINE
  5
6219A
330
1F
100
AcDbEntity
  8
姿図
100
AcDbLine
 10
11159.37087922549
 20
8373.866716346489
 30
0.0
 11
11159.8006245126
 21
8376.115698573707
 31
0.0
  0
LINE
  5
6219B
330
1F
100
AcDbEntity
  8
姿図
100
AcDbLine
 10
11159.8007727993
 20
8373.688915173716
 30
0.0
 11
11160.23651434766
 21
8375.969277582159
 31
0.0
  0
LINE
  5
6219C
330
1F
100
AcDbEntity
  8
姿図
100
AcDbLine
 10
11160.22829395179
 20
8373.498698429343
 30
0.0
 11
11160.66992090541
 21
8375.809860877289
 31
0.0
  0
LINE
  5
6219D
330
1F
100
AcDbEntity
  8
姿図
100
AcDbLine
 10
11147.53442290198
 20
8372.61207937287
 30
0.0
 11
11147.73294349251
 21
8373.650995431375
 31
0.0
  0
LINE
  5
6219E
330
1F
100
AcDbEntity
  8
姿図
100
AcDbLine
 10
11148.1083975595
 20
8373.188296466871
 30
0.0
 11
11148.32265680667
 21
8374.309577498587
 31
0.0
  0
LINE
  5
6219F
330
1F
100
AcDbEntity
  8
姿図
100
AcDbLine
 10
11148.6529760819
 20
8373.610675025828
 30
0.0
 11
11148.88196352993
 21
8374.809033021418
 31
0.0
  0
LINE
  5
621A0
330
1F
100
AcDbEntity
  8
姿図
100
AcDbLine
 10
11162.74104404547
 20
8372.083294805503
 30
0.0
 11
11163.21640154915
 21
8374.57097904414
 31
0.0
  0
LINE
  5
621A1
330
1F
100
AcDbEntity
  8
姿図
100
AcDbLine
 10
11163.15036208205
 20
8371.797815854941
 30
0.0
 11
11163.63124665657
 21
8374.314424864675
 31
0.0
  0
LINE
  5
621A2
330
1F
100
AcDbEntity
  8
姿図
100
AcDbLine
 10
11160.65341351531
 20
8373.295913470543
 30
0.0
 11
11161.10082654167
 21
8375.637356122
 31
0.0
  0
LINE
  5
621A3
330
1F
100
AcDbEntity
  8
姿図
100
AcDbLine
 10
11161.07609013575
 20
8373.08034387921
 30
0.0
 11
11161.52920250384
 21
8375.451612845629
 31
0.0
  0
LINE
  5
621A4
330
1F
100
AcDbEntity
  8
姿図
100
AcDbLine
 10
11161.49626923959
 20
8372.851704056298
 30
0.0
 11
11161.95500829313
 21
8375.252419106102
 31
0.0
  0
LINE
  5
621A5
330
1F
100
AcDbEntity
  8
姿図
100
AcDbLine
 10
11161.913881611
 20
8372.609631775127
 30
0.0
 11
11162.37819073854
 21
8375.039496644176
 31
0.0
  0
LINE
  5
621A6
330
1F
100
AcDbEntity
  8
姿図
100
AcDbLine
 10
11162.32884148776
 20
8372.3536782171
 30
0.0
 11
11162.79868273177
 21
8374.812494262502
 31
0.0
  0
SPLINE
  5
621A7
330
1F
100
AcDbEntity
  8
姿図
100
AcDbSpline
210
0.0
220
0.0
230
1.0
 70
     8
 71
     3
 72
    20
 73
    16
 74
     0
 42
0.000000001
 43
0.0000000001
 40
0.0507684683112425
 40
0.0507684683112425
 40
0.0507684683112425
 40
0.0507684683112425
 40
16.17239265914957
 40
16.17239265914957
 40
33.44137084920912
 40
33.44137084920912
 40
41.29196149669883
 40
41.29196149669883
 40
50.54402678597219
 40
50.54402678597219
 40
58.56297097631615
 40
58.56297097631615
 40
66.12555618457822
 40
66.12555618457822
 40
66.75214355035303
 40
66.75214355035303
 40
66.75214355035303
 40
66.75214355035303
 10
11165.77013145133
 20
8378.763785685418
 30
-0.0000000000000037
 10
11164.76897848392
 20
8379.396828947958
 30
-0.0000000000000037
 10
11163.69101414213
 20
8379.934089625816
 30
-0.0000000000000037
 10
11161.37853373791
 20
8380.795867799083
 30
-0.0000000000000037
 10
11159.71879539534
 20
8381.25727463813
 30
-0.0000000000000037
 10
11156.96499440734
 20
8381.396149646305
 30
-0.0000000000000037
 10
11156.11548145059
 20
8381.361970683516
 30
-0.0000000000000037
 10
11154.35236916671
 20
8381.119318073761
 30
-0.0000000000000037
 10
11153.45896628454
 20
8380.880929226161
 30
-0.0000000000000037
 10
11151.91839262474
 20
8380.25024622219
 30
-0.0000000000000037
 10
11151.34367198352
 20
8379.920839454555
 30
0.0000000000000028
 10
11150.4457733354
 20
8379.2946918062
 30
-0.0000000000000037
 10
11149.93613053649
 20
8378.875491886698
 30
-0.0000000000000037
 10
11149.43343075107
 20
8378.30573998237
 30
-0.0000000000000037
 10
11149.39552558427
 20
8378.261702212025
 30
-0.0000000000000037
 10
11149.35818735055
 20
8378.217245157552
 30
-0.0000000000000037
  0
LINE
  5
621A8
330
1F
100
AcDbEntity
  8
姿図
100
AcDbLine
 10
11165.53424889768
 20
8369.708033172703
 30
0.0
 11
11166.0511477569
 21
8372.413115421477
 31
0.0
  0
LINE
  5
621A9
330
1F
100
AcDbEntity
  8
姿図
100
AcDbLine
 10
11165.91646486988
 20
8369.280721227193
 30
0.0
 11
11166.44066059755
 21
8372.023990113437
 31
0.0
  0
LINE
  5
621AA
330
1F
100
AcDbEntity
  8
姿図
100
AcDbLine
 10
11166.29288134593
 20
8368.823058829603
 30
0.0
 11
11166.82520935113
 21
8371.60888629216
 31
0.0
  0
LINE
  5
621AB
330
1F
100
AcDbEntity
  8
姿図
100
AcDbLine
 10
11166.66250786914
 20
8368.329862631532
 30
0.0
 11
11167.2041746192
 21
8371.164562465356
 31
0.0
  0
LINE
  5
621AC
330
1F
100
AcDbEntity
  8
姿図
100
AcDbLine
 10
11167.02394725366
 20
8367.793820752677
 30
0.0
 11
11167.57674494565
 21
8370.68677204694
 31
0.0
  0
LINE
  5
621AD
330
1F
100
AcDbEntity
  8
姿図
100
AcDbLine
 10
11167.37511614262
 20
8367.204030379833
 30
0.0
 11
11167.94182383636
 21
8370.16977676374
 31
0.0
  0
LINE
  5
621AE
330
1F
100
AcDbEntity
  8
姿図
100
AcDbLine
 10
11167.71265240888
 20
8366.542896522627
 30
0.0
 11
11168.29786827856
 21
8369.605501580756
 31
0.0
  0
LINE
  5
621AF
330
1F
100
AcDbEntity
  8
姿図
100
AcDbLine
 10
11168.0304277417
 20
8365.778347946445
 30
0.0
 11
11168.64258438852
 21
8368.981941936363
 31
0.0
  0
LINE
  5
621B0
330
1F
100
AcDbEntity
  8
姿図
100
AcDbLine
 10
11168.31458786059
 20
8364.837881167196
 30
0.0
 11
11168.97228564909
 21
8368.2798052129
 31
0.0
  0
LINE
  5
621B1
330
1F
100
AcDbEntity
  8
姿図
100
AcDbLine
 10
11168.44004188781
 20
8364.09838345075
 30
0.0
 11
11169.43032367555
 21
8366.956558884964
 31
0.0
  0
SPLINE
  5
621B2
330
1F
100
AcDbEntity
  8
姿図
100
AcDbSpline
210
0.0
220
0.0
230
1.0
 70
     8
 71
     1
 72
     8
 73
     6
 74
     0
 42
0.000000001
 43
0.0000000001
 40
4.553485832398614
 40
4.553485832398614
 40
4.559001824165762
 40
4.564517815932909
 40
4.570033807700057
 40
4.575549799467204
 40
4.581065791234352
 40
4.581065791234352
 10
11168.25286914032
 20
8360.513621104716
 30
-0.0000000000000092
 10
11168.22085224835
 20
8360.473475203547
 30
-0.0000000000000092
 10
11168.18852342629
 20
8360.433535636319
 30
-0.0000000000000026
 10
11168.15588370904
 20
8360.393803641866
 30
-0.0000000000000092
 10
11168.12293414125
 20
8360.354280451462
 30
-0.0000000000000092
 10
11168.08967577729
 20
8360.314967288761
 30
-0.0000000000000092
  0
SPLINE
  5
621B3
330
1F
100
AcDbEntity
  8
姿図
100
AcDbSpline
210
0.0
220
0.0
230
1.0
 70
     8
 71
     1
 72
     8
 73
     6
 74
     0
 42
0.000000001
 43
0.0000000001
 40
4.584727753645457
 40
4.584727753645457
 40
4.584891353986822
 40
4.585054954328187
 40
4.585218554669551
 40
4.585382155010916
 40
4.585545755352282
 40
4.585545755352282
 10
11168.03941614386
 20
8360.256404040092
 30
-0.0000000000000092
 10
11168.03604232475
 20
8360.252484017365
 30
-0.0000000000000092
 10
11168.03266798582
 20
8360.248565083277
 30
-0.0000000000000092
 10
11168.02929312765
 20
8360.244647238103
 30
-0.0000000000000092
 10
11168.02591775081
 20
8360.240730482126
 30
-0.0000000000000092
 10
11168.0225418559
 20
8360.236814815618
 30
-0.0000000000000092
  0
SPLINE
  5
621B4
330
1F
100
AcDbEntity
  8
姿図
100
AcDbSpline
210
0.0
220
0.0
230
1.0
 70
     8
 71
     3
 72
     8
 73
     4
 74
     0
 42
0.000000001
 43
0.0000000001
 40
-0.691446024632862
 40
-0.691446024632862
 40
-0.691446024632862
 40
-0.691446024632862
 40
-0.6779385051869151
 40
-0.6779385051869151
 40
-0.6779385051869151
 40
-0.6779385051869151
 10
11168.08967577729
 20
8360.314967288761
 30
-0.0000000000000092
 10
11168.08922866197
 20
8360.31444262188
 30
-0.0000000000000092
 10
11168.08876946687
 20
8360.31392415028
 30
-0.0000000000000092
 10
11168.08829833459
 20
8360.313412003055
 30
-0.0000000000000092
  0
SPLINE
  5
621B5
330
1F
100
AcDbEntity
  8
姿図
100
AcDbSpline
210
0.0
220
0.0
230
1.0
 70
     8
 71
     3
 72
     8
 73
     4
 74
     0
 42
0.000000001
 43
0.0000000001
 40
211.7706370983692
 40
211.7706370983692
 40
211.7706370983692
 40
211.7706370983692
 40
212.1566911252955
 40
212.1566911252955
 40
212.1566911252955
 40
212.1566911252955
 10
11168.05914585157
 20
8360.279604234565
 30
-0.0000000000000092
 10
11168.06930424531
 20
8360.291331848071
 30
-0.0000000000000092
 10
11168.0794665692
 20
8360.303123229698
 30
-0.0000000000000026
 10
11168.08963222639
 20
8360.314977655491
 30
-0.0000000000000092
  0
SPLINE
  5
621B6
330
1F
100
AcDbEntity
  8
姿図
100
AcDbSpline
210
0.0
220
0.0
230
1.0
 70
     8
 71
     3
 72
    12
 73
     8
 74
     0
 42
0.000000001
 43
0.0000000001
 40
-1.090507445860422
 40
-1.090507445860422
 40
-1.090507445860422
 40
-1.090507445860422
 40
-0.9471425154221369
 40
-0.9471425154221369
 40
-0.7528206779009274
 40
-0.7528206779009274
 40
-0.6501188551225207
 40
-0.6501188551225207
 40
-0.6501188551225207
 40
-0.6501188551225207
 10
11168.08829833459
 20
8360.313412003055
 30
-0.0000000000000092
 10
11168.08425842012
 20
8360.308691793885
 30
-0.0000000000000092
 10
11168.07956707348
 20
8360.303210355902
 30
-0.0000000000000092
 10
11168.06732066969
 20
8360.288908812314
 30
-0.0000000000000092
 10
11168.05967991583
 20
8360.27999175062
 30
-0.0000000000000092
 10
11168.04793178827
 20
8360.26630716173
 30
-0.0000000000000092
 10
11168.04372914621
 20
8360.261416320645
 30
-0.0000000000000092
 10
11168.03941614386
 20
8360.256404040092
 30
-0.0000000000000092
  0
SPLINE
  5
621B7
330
1F
100
AcDbEntity
  8
姿図
100
AcDbSpline
210
-7.278069394337013E-10
220
6.225226245360163E-10
230
-1.0
 70
     8
 71
     3
 72
     8
 73
     4
 74
     0
 42
0.000000001
 43
0.0000000001
 40
104.4616887805064
 40
104.4616887805064
 40
104.4616887805064
 40
104.4616887805064
 40
104.5558158786619
 40
104.5558158786619
 40
104.5558158786619
 40
104.5558158786619
 10
11168.10492947059
 20
8360.332860783958
 30
-0.0000000000000026
 10
11168.10245008349
 20
8360.329955060093
 30
-0.0000000000000026
 10
11168.09997088824
 20
8360.327053048859
 30
-0.0000000000000092
 10
11168.09749188983
 20
8360.324154789143
 30
-0.0000000000000092
  0
ARC
  5
621B8
330
1F
100
AcDbEntity
  8
姿図
100
AcDbCircle
 10
11161.89859048527
 20
8365.779834476469
 30
-0.0000000000000026
 40
8.26182069299634
100
AcDbArc
 50
305.972466319751
 51
317.3125816644935
  0
LINE
  5
621B9
330
1F
100
AcDbEntity
  8
姿図
100
AcDbLine
 10
11169.48471589417
 20
8362.93609571924
 30
0.0
 11
11168.29326460876
 21
8361.66561743402
 31
0.0
  0
LINE
  5
621BA
330
1F
100
AcDbEntity
  8
姿図
100
AcDbLine
 10
11169.16323227936
 20
8362.02808679869
 30
0.0
 11
11168.14155824383
 21
8361.145316129488
 31
0.0
  0
ELLIPSE
  5
621BB
330
1F
100
AcDbEntity
  8
姿図
100
AcDbEllipse
 10
11157.32086135739
 20
8365.774371555432
 30
0.0
 11
-9.750137713575025
 21
5.113965535592285
 31
0.0
210
0.0
220
0.0
230
1.0
 40
0.6621621934316991
 41
0.0
 42
6.283185307179586
  0
ELLIPSE
  5
621BC
330
1F
100
AcDbEntity
  8
姿図
100
AcDbEllipse
 10
11157.37099051613
 20
8366.088124399375
 30
0.0
 11
-10.52132999494103
 21
5.518457334998312
 31
0.0
210
0.0
220
0.0
230
1.0
 40
0.6660508930180213
 41
0.0
 42
6.283185307179586
  0
LINE
  5
621BD
330
1F
100
AcDbEntity
  8
姿図
100
AcDbLine
 10
11163.95969610261
 20
8371.178177603762
 30
0.0
 11
11164.45180652032
 21
8373.75353471987
 31
0.0
  0
LINE
  5
621BE
330
1F
100
AcDbEntity
  8
姿図
100
AcDbLine
 10
11164.35929835418
 20
8370.841853121019
 30
0.0
 11
11164.85720074652
 21
8373.44752132694
 31
0.0
  0
LINE
  5
621BF
330
1F
100
AcDbEntity
  8
姿図
100
AcDbLine
 10
11164.75516976158
 20
8370.486004044327
 30
0.0
 11
11165.25906876459
 21
8373.123054260046
 31
0.0
  0
LINE
  5
621C0
330
1F
100
AcDbEntity
  8
姿図
100
AcDbLine
 10
11165.14696482594
 20
8370.108822277503
 30
0.0
 11
11165.65715515972
 21
8372.778796859184
 31
0.0
  0
LINE
  5
621C1
330
1F
100
AcDbEntity
  8
姿図
100
AcDbLine
 10
11156.86859626935
 20
8372.182195572965
 30
0.0
 11
11155.88421197402
 21
8366.530424629693
 31
0.0
  0
LINE
  5
621C2
330
1F
100
AcDbEntity
  8
姿図
100
AcDbLine
 10
11157.73536824894
 20
8370.21272757095
 30
0.0
 11
11156.7509839536
 21
8364.560956627676
 31
0.0
  0
LINE
  5
621C3
330
1F
100
AcDbEntity
  8
姿図
100
AcDbLine
 10
11159.77700606823
 20
8369.061625850101
 30
0.0
 11
11158.7926217729
 21
8363.40985490683
 31
0.0
  0
ARC
  5
621C4
330
1F
100
AcDbEntity
  8
姿図
100
AcDbCircle
 10
11161.03128951409
 20
8374.607000741184
 30
0.0
 40
19.68330968855415
100
AcDbArc
 50
298.6123990733935
 51
2.914615195460183
  0
SPLINE
  5
621C5
330
1F
100
AcDbEntity
  8
姿図
100
AcDbSpline
210
0.0
220
0.0
230
1.0
 70
     8
 71
     3
 72
    10
 73
     6
 74
     0
 42
0.000000001
 43
0.0000000001
 40
2.827419403083658
 40
2.827419403083658
 40
2.827419403083658
 40
2.827419403083658
 40
2.869480933888199
 40
2.869480933888199
 40
2.930906669443938
 40
2.930906669443938
 40
2.930906669443938
 40
2.930906669443938
 10
11187.12633445688
 20
8377.007008040304
 30
0.0
 10
11187.19637008256
 20
8377.075278376113
 30
0.0
 10
11187.25652458279
 20
8377.13887646807
 30
0.0
 10
11187.38352707405
 20
8377.283172510779
 30
0.0
 10
11187.44000104248
 20
8377.35755348709
 30
0.0
 10
11187.47753822113
 20
8377.412800656235
 30
0.0
  0
LWPOLYLINE
  5
621C6
330
1F
100
AcDbEntity
  8
姿図
100
AcDbPolyline
 90
        2
 70
     0
 43
0.0
 10
11172.21366240762
 20
8382.711154361423
 10
11172.12522727903
 20
8380.813164938634
  0
ARC
  5
621C7
330
1F
100
AcDbEntity
  8
姿図
100
AcDbCircle
 10
11141.06721091879
 20
8381.038144350325
 30
0.0
 40
32.80601713594661
100
AcDbArc
 50
342.2494399373835
 51
2.501189925151709
  0
LWPOLYLINE
  5
621C8
330
1F
100
AcDbEntity
  8
姿図
100
AcDbPolyline
 90
        4
 70
     0
 43
0.0
 10
11171.17609105196
 20
8374.35543811958
 10
11171.77800482865
 20
8375.692839777286
 10
11171.88115806092
 20
8376.111126578628
 10
11171.63404524506
 20
8380.238151530488
  0
LWPOLYLINE
  5
621C9
330
1F
100
AcDbEntity
  8
姿図
100
AcDbPolyline
 90
        4
 70
     0
 43
0.0
 10
11170.9170137132
 20
8374.77122208567
 10
11171.3861721673
 20
8375.813652610668
 10
11171.48932539957
 20
8376.231939412008
 10
11171.24221258371
 20
8380.35896436387
  0
SPLINE
  5
621CA
330
1F
100
AcDbEntity
  8
姿図
100
AcDbSpline
210
0.0
220
0.0
230
1.0
 70
     8
 71
     3
 72
    20
 73
    16
 74
     0
 42
0.000000001
 43
0.0000000001
 40
60.97286850367482
 40
60.97286850367482
 40
60.97286850367482
 40
60.97286850367482
 40
63.27662545801321
 40
63.27662545801321
 40
65.63207741714923
 40
65.63207741714923
 40
66.46294226239624
 40
66.46294226239624
 40
68.78483332584179
 40
68.78483332584179
 40
78.37384755292882
 40
78.37384755292882
 40
82.12808435629299
 40
82.12808435629299
 40
84.32250915659358
 40
84.32250915659358
 40
84.32250915659358
 40
84.32250915659358
 10
11172.06433031663
 20
8367.243701195624
 30
-0.0000000000000041
 10
11172.13304643983
 20
8367.599773765596
 30
-0.0000000000000045
 10
11172.16987667199
 20
8367.928169057173
 30
-0.0000000000000055
 10
11172.20657240123
 20
8368.499752715088
 30
-0.0000000000000103
 10
11172.20660353882
 20
8368.777630253458
 30
-0.0000000000000037
 10
11172.19899107409
 20
8369.034337113282
 30
-0.0000000000000037
 10
11172.19594398782
 20
8369.106022440448
 30
-0.0000000000000037
 10
11172.18044705666
 20
8369.387053637225
 30
-0.0000000000000037
 10
11172.16329415712
 20
8369.569824525826
 30
-0.0000000000000103
 10
11172.04179242733
 20
8370.549702779834
 30
-0.0000000000000037
 10
11171.79216382677
 20
8371.700879318638
 30
-0.0000000000000103
 10
11170.85595577567
 20
8373.57194317376
 30
-0.0000000000000037
 10
11170.54913071273
 20
8374.085442712936
 30
-0.0000000000000037
 10
11169.99237418437
 20
8374.884942413531
 30
-0.0000000000000037
 10
11169.77104753719
 20
8375.17786169774
 30
-0.0000000000000037
 10
11169.5361770721
 20
8375.464746227275
 30
-0.0000000000000037
  0
LINE
  5
621CB
330
1F
100
AcDbEntity
  8
姿図
100
AcDbLine
 10
11142.89079172256
 20
8385.28165986499
 30
0.0
 11
11143.52372115371
 21
8406.945413383888
 31
0.0
  0
LINE
  5
621CC
330
1F
100
AcDbEntity
  8
姿図
100
AcDbLine
 10
11139.26124571235
 20
8384.322943948544
 30
0.0
 11
11139.89471068122
 21
8406.005027721218
 31
0.0
  0
LINE
  5
621CD
330
1F
100
AcDbEntity
  8
姿図
100
AcDbLine
 10
11179.22319064332
 20
8385.06510067562
 30
0.0
 11
11178.64010232305
 21
8406.733490807092
 31
0.0
  0
LINE
  5
621CE
330
1F
100
AcDbEntity
  8
姿図
100
AcDbLine
 10
11183.76142428177
 20
8383.704820074543
 30
0.0
 11
11183.17770095091
 21
8405.396808101672
 31
0.0
  0
ELLIPSE
  5
6245F
330
1F
100
AcDbEntity
  8
姿図
100
AcDbEllipse
 10
11170.03614228395
 20
8381.8623308288
 30
0.0000000000000028
 11
-0.9242248726230655
 21
1.103391680647263
 31
8.322786350725861E-17
210
-3.713016746290833E-17
220
4.432808409855615E-17
230
-1.0
 40
0.6338586263934509
 41
4.868828357704053
 42
11.15201366488364
  0
ELLIPSE
  5
62460
330
1F
100
AcDbEntity
  8
姿図
100
AcDbEllipse
 10
11170.03614228395
 20
8381.8623308288
 30
0.0000000000000028
 11
-1.208601756507086
 21
1.442896813154114
 31
1.088364368941076E-16
210
-3.713016746290833E-17
220
4.432808409855622E-17
230
-1.0
 40
0.6338586263934506
 41
7.651085124277098
 42
12.35490035918894
  0
ARC
  5
62461
330
1F
100
AcDbEntity
  8
姿図
100
AcDbCircle
 10
11192.38961651806
 20
8349.03948124347
 30
0.0000000000000039
 40
51.5312165682045
100
AcDbArc
 50
138.4488307339676
 51
142.4172184088907
  0
LINE
  5
62462
330
1F
100
AcDbEntity
  8
姿図
100
AcDbLine
 10
11170.61065469326
 20
8379.858547226582
 30
0.0000000000000039
 11
11169.51633461459
 21
8375.383605580038
 31
0.0000000000000039
  0
ELLIPSE
  5
62463
330
1F
100
AcDbEntity
  8
姿図
100
AcDbEllipse
 10
11169.57660999352
 20
8381.477416586618
 30
0.0000000000000028
 11
-0.8531306516520025
 21
1.018515397520644
 31
5.761929012041138E-17
210
-2.784762559718136E-17
220
3.324606307391706E-17
230
-1.0
 40
0.6338586263934136
 41
0.2361340123154301
 42
2.425367404911971
  0
ELLIPSE
  5
62464
330
1F
100
AcDbEntity
  8
姿図
100
AcDbEllipse
 10
11169.11707770309
 20
8381.092502344436
 30
0.0000000000000028
 11
-1.20860175650736
 21
1.442896813153832
 31
1.088364368941053E-16
210
-3.713016746290830E-17
220
4.432808409855626E-17
230
-1.0
 40
0.6338586263935189
 41
3.141592653589996
 42
5.180284413961087
  0
ELLIPSE
  5
62465
330
1F
100
AcDbEntity
  8
姿図
100
AcDbEllipse
 10
11169.11706254463
 20
8381.09248964738
 30
0.0000000000000028
 11
-1.208611747764829
 21
1.442908741281346
 31
1.088373366222080E-16
210
-3.713016746290841E-17
220
4.432808409855623E-17
230
-1.0
 40
0.6338586263931412
 41
3.141592653589124
 42
3.809748048092986
  0
ELLIPSE
  5
62466
330
1F
100
AcDbEntity
  8
姿図
100
AcDbEllipse
 10
11157.98861552458
 20
8367.006685672875
 30
0.0000000000000039
 11
-11.03241833128649
 21
5.412609805507249
 31
3.552897846555709E-16
210
-2.595649282495664E-17
220
1.273450329404512E-17
230
-1.0
 40
0.7445887407027569
 41
-0.1600394095493287
 42
2.858287793139967
  0
ELLIPSE
  5
62467
330
1F
100
AcDbEntity
  8
姿図
100
AcDbEllipse
 10
11158.00366999918
 20
8367.166120400765
 30
0.0000000000000039
 11
-11.03241833128511
 21
5.41260980551094
 31
3.552897846555820E-16
210
-2.595649282495663E-17
220
1.273450329404511E-17
230
-1.0
 40
0.7445887407027175
 41
-0.160039409549761
 42
3.301632058444413
  0
LINE
  5
62468
330
1F
100
AcDbEntity
  8
姿図
100
AcDbLine
 10
11167.65750234981
 20
8381.355951669904
 30
0.0000000000000039
 11
11165.78718480159
 21
8378.658389557968
 31
0.0000000000000039
  0
ELLIPSE
  5
62469
330
1F
100
AcDbEntity
  8
姿図
100
AcDbEllipse
 10
11169.11707770309
 20
8381.092502344436
 30
0.0000000000000028
 11
-1.208601756505809
 21
1.442896813156423
 31
1.088364368941625E-16
210
-3.713016746290833E-17
220
4.432808409855624E-17
230
-1.0
 40
0.6338586263935342
 41
-1.249552989790042
 42
-0.5274645292557247
  0
ELLIPSE
  5
6246A
330
1F
100
AcDbEntity
  8
姿図
100
AcDbEllipse
 10
11169.11706254463
 20
8381.09248964738
 30
0.0000000000000028
 11
-1.208611747765839
 21
1.442908741280231
 31
1.088373366221959E-16
210
-3.713016746290832E-17
220
4.432808409855628E-17
230
-1.0
 40
0.6338586263935218
 41
-1.249552989788739
 42
-0.52746452925353
  0
ELLIPSE
  5
6246B
330
1F
100
AcDbEntity
  8
姿図
100
AcDbEllipse
 10
11169.4453150534
 20
8381.367441088853
 30
0.0000000000000028
 11
-0.9242248725656095
 21
1.103391680675229
 31
8.322786350636498E-17
210
-3.713016746290830E-17
220
4.432808409855622E-17
230
-1.0
 40
0.6338586263759958
 41
0.4360748564000962
 42
0.5096415832883365
  0
ELLIPSE
  5
6246C
330
1F
100
AcDbEntity
  8
姿図
100
AcDbEllipse
 10
11169.57660999352
 20
8381.477416586618
 30
0.0000000000000028
 11
-0.5687537677653445
 21
0.6790102650160512
 31
3.841286008027634E-17
210
-2.784762559718126E-17
220
3.324606307391716E-17
230
-1.0
 40
0.6338586264024265
 41
-0.2366574283618756
 42
-0.000000000006624
  0
ELLIPSE
  5
6246D
330
1F
100
AcDbEntity
  8
姿図
100
AcDbEllipse
 10
11169.4453026084
 20
8381.367430664657
 30
0.0000000000000028
 11
-0.9242325130684943
 21
1.103400802120758
 31
8.322855153572116E-17
210
-3.713016746290829E-17
220
4.432808409855624E-17
230
-1.0
 40
0.633858626415972
 41
0.4360748565125947
 42
0.5096415833923702
  0
ELLIPSE
  5
6246E
330
1F
100
AcDbEntity
  8
姿図
100
AcDbEllipse
 10
11169.57659863392
 20
8381.477407071568
 30
0.0000000000000028
 11
-0.5687584695394684
 21
0.6790158782473653
 31
3.841317763136411E-17
210
-2.784762559718126E-17
220
3.324606307391718E-17
230
-1.0
 40
0.6338586263859887
 41
-0.2366574283554155
 42
0.0000000000066163
  0
LINE
  5
6246F
330
1F
100
AcDbEntity
  8
姿図
100
AcDbLine
 10
11169.07350369581
 20
8382.211414600515
 30
0.0000000000000028
 11
11169.00785622575
 21
8382.156426851632
 31
0.0000000000000028
  0
LINE
  5
62470
330
1F
100
AcDbEntity
  8
姿図
100
AcDbLine
 10
11169.07348817714
 20
8382.211411153272
 30
0.0000000000000028
 11
11169.00784016438
 21
8382.156422949816
 31
0.0000000000000028
  0
ELLIPSE
  5
62471
330
1F
100
AcDbEntity
  8
姿図
100
AcDbEllipse
 10
11160.22590090775
 20
8370.398804022172
 30
0.0000000000000039
 11
-11.08996356537636
 21
4.275897443920203
 31
5.134619846974846E-16
210
-3.893473923743496E-17
220
1.910175494106769E-17
230
-1.0
 40
0.7846158028916362
 41
-0.5798433882897603
 42
-0.2849668007490926
  0
LINE
  5
62472
330
1F
100
AcDbEntity
  8
姿図
100
AcDbLine
 10
11152.2343556404
 20
8365.516302958871
 30
0.0000000000000039
 11
11151.64568527007
 21
8364.942555648064
 31
0.0000000000000041
  0
LINE
  5
62473
330
1F
100
AcDbEntity
  8
姿図
100
AcDbLine
 10
11149.10902718909
 20
8369.212613536763
 30
0.0000000000000039
 11
11149.63237272795
 21
8369.453416892931
 31
0.0000000000000039
  0
SPLINE
  5
62474
330
1F
100
AcDbEntity
  8
姿図
100
AcDbSpline
210
0.0
220
0.0
230
1.0
 70
    24
 71
     1
 72
     4
 73
     2
 74
     0
 42
0.000000001
 43
0.0000000001
 40
0.500003153875532
 40
0.500003153875532
 40
1.000006307751064
 40
1.000006307751064
 10
11149.80494384246
 20
8379.034047200776
 30
0.000000000000004
 10
11149.75537414034
 20
8378.941974374306
 30
0.0000000000000118
  0
SPLINE
  5
62475
330
1F
100
AcDbEntity
  8
姿図
100
AcDbSpline
210
0.0
220
0.0
230
1.0
 70
    24
 71
     1
 72
     4
 73
     2
 74
     0
 42
0.000000001
 43
0.0000000001
 40
0.0
 40
0.0
 40
0.500003153875532
 40
0.500003153875532
 10
11149.86225873998
 20
8379.111894149248
 30
0.000000000000004
 10
11149.80494384246
 20
8379.034047200776
 30
0.000000000000004
  0
ELLIPSE
  5
62476
330
1F
100
AcDbEntity
  8
姿図
100
AcDbEllipse
 10
11158.30124993491
 20
8367.772671853028
 30
0.0000000000000039
 11
-10.53641665750074
 21
5.169266643709913
 31
1.696582332366465E-16
210
-1.297824641247833E-17
220
6.367251647022551E-18
230
-1.0
 40
0.7445887377144084
 41
-0.019715365650429
 42
-0.0169158927453148
  0
ELLIPSE
  5
62477
330
1F
100
AcDbEntity
  8
姿図
100
AcDbEllipse
 10
11160.02095211221
 20
8370.309390963212
 30
0.0000000000000039
 11
-10.30147212116359
 21
5.054000613476025
 31
6.635005493197795E-16
210
-5.191298564991325E-17
220
2.546900658809016E-17
230
-1.0
 40
0.7445887407026283
 41
-1.020444988478582
 42
-0.6754224664370412
  0
ELLIPSE
  5
62478
330
1F
100
AcDbEntity
  8
姿図
100
AcDbEllipse
 10
11160.02095211221
 20
8370.309390963212
 30
0.0000000000000039
 11
-10.30147212116583
 21
5.054000613458154
 31
3.317502746597206E-16
210
-2.595649282495664E-17
220
1.273450329404510E-17
230
-1.0
 40
0.7445887407027731
 41
-0.6754224664352997
 42
-0.3300486139803771
  0
LINE
  5
62479
330
1F
100
AcDbEntity
  8
姿図
100
AcDbLine
 10
11149.03710331356
 20
8372.026201585957
 30
0.0000000000000039
 11
11148.64002606986
 21
8372.056083578904
 31
0.0000000000000044
  0
ELLIPSE
  5
6247A
330
1F
100
AcDbEntity
  8
姿図
100
AcDbEllipse
 10
11159.89634256522
 20
8371.02391888213
 30
0.0000000000000028
 11
-11.53041605061144
 21
5.656932243059395
 31
1.113982151309672E-15
210
-7.786947847486992E-17
220
3.820350988213536E-17
230
-1.0
 40
0.7445887407026985
 41
0.1816174140284592
 42
1.721396946041301
  0
ELLIPSE
  5
6247B
330
1F
100
AcDbEntity
  8
姿図
100
AcDbEllipse
 10
11159.12198377648
 20
8368.887435212117
 30
0.0000000000000039
 11
-10.46648061642022
 21
4.612768566669565
 31
3.304144455295806E-16
210
-2.595649282495665E-17
220
1.273450329404509E-17
230
-1.0
 40
0.7569365384830412
 41
3.552643368148173
 42
5.078668158851169
  0
ELLIPSE
  5
6247C
330
1F
100
AcDbEntity
  8
姿図
100
AcDbEllipse
 10
11157.97572098181
 20
8367.10915245691
 30
0.0000000000000039
 11
-11.0179174070331
 21
5.405495513133536
 31
7.096455890791292E-16
210
-5.191298564991331E-17
220
2.546900658809023E-17
230
-1.0
 40
0.7445887407386323
 41
3.32761543422472
 42
3.342055807969123
  0
ELLIPSE
  5
6247D
330
1F
100
AcDbEntity
  8
姿図
100
AcDbEllipse
 10
11158.00204821747
 20
8367.162814754336
 30
0.0000000000000039
 11
-11.03157772911893
 21
5.412208661790451
 31
3.552628572054569E-16
210
-2.595649282495661E-17
220
1.273450329404514E-17
230
-1.0
 40
0.744587809067659
 41
3.329003987917414
 42
3.329225720040131
  0
ELLIPSE
  5
6247E
330
1F
100
AcDbEntity
  8
姿図
100
AcDbEllipse
 10
11158.75699046926
 20
8368.701599007594
 30
0.0000000000000039
 11
-9.983391617979404
 21
4.897947281348828
 31
1.607533793446054E-16
210
-1.297824641247833E-17
220
6.367251647022554E-18
230
-1.0
 40
0.7445887406479538
 41
3.384599285846378
 42
3.389850225848271
  0
ELLIPSE
  5
6247F
330
1F
100
AcDbEntity
  8
姿図
100
AcDbEllipse
 10
11160.02095211221
 20
8370.309390963212
 30
0.0000000000000039
 11
-10.30147212116642
 21
5.05400061345619
 31
1.658751373298555E-16
210
-1.297824641247831E-17
220
6.367251647022588E-18
230
-1.0
 40
0.7445887407027165
 41
4.327427167059564
 42
4.752891862258742
  0
ELLIPSE
  5
62480
330
1F
100
AcDbEntity
  8
姿図
100
AcDbEllipse
 10
11160.02095211221
 20
8370.309390963212
 30
0.0000000000000039
 11
-10.24086820833526
 21
5.1341323338224
 31
8.279941182202652E-16
210
-6.489123206239168E-17
220
3.183625823511276E-17
230
-1.0
 40
0.7430302579573315
 41
3.587432645584934
 42
4.013845773911598
  0
ELLIPSE
  5
62481
330
1F
100
AcDbEntity
  8
姿図
100
AcDbEllipse
 10
11161.11723841387
 20
8389.715338440994
 30
0.0000000000000042
 11
-1.745559833948461
 21
29.21788688153884
 31
6.260758320651150E-16
210
-3.893473923743502E-17
220
1.910175494106769E-17
230
-1.0
 40
0.6410056557819603
 41
3.099784278963576
 42
3.266368125798957
  0
ELLIPSE
  5
62482
330
1F
100
AcDbEntity
  8
姿図
100
AcDbEllipse
 10
11159.07868603063
 20
8369.037906346526
 30
0.0000000000000039
 11
-10.26452980446621
 21
4.87193854432288
 31
9.854187349867376E-16
210
-7.786947847486991E-17
220
3.820350988213537E-17
230
-1.0
 40
0.7056022756696182
 41
3.486045950244565
 42
5.025651057886397
  0
LINE
  5
62483
330
1F
100
AcDbEntity
  8
姿図
100
AcDbLine
 10
11163.68557395695
 20
8361.180586590603
 30
0.0000000000000034
 11
11163.6440667822
 21
8360.569749736804
 31
0.0000000000000036
  0
LINE
  5
62484
330
1F
100
AcDbEntity
  8
姿図
100
AcDbLine
 10
11160.40166220599
 20
8361.302505957978
 30
0.0000000000000039
 11
11160.51838804145
 21
8360.585351071975
 31
0.0000000000000037
  0
LINE
  5
62485
330
1F
100
AcDbEntity
  8
姿図
100
AcDbLine
 10
11155.2556682038
 20
8362.197855485114
 30
0.000000000000004
 11
11155.84376119342
 21
8362.849967124652
 31
0.0000000000000039
  0
ELLIPSE
  5
62486
330
1F
100
AcDbEntity
  8
姿図
100
AcDbEllipse
 10
11158.17103835367
 20
8367.50726409458
 30
0.0000000000000039
 11
-10.73521697049427
 21
5.266799979295092
 31
1.037155991863192E-15
210
-7.786947847486996E-17
220
3.820350988213527E-17
230
-1.0
 40
0.7445887407027045
 41
3.636283805279216
 42
5.673615026346977
  0
ELLIPSE
  5
62487
330
1F
100
AcDbEntity
  8
姿図
100
AcDbEllipse
 10
11159.79839599629
 20
8369.971268278226
 30
0.0000000000000039
 11
-9.972011408550838
 21
4.99256701689545
 31
1.612081518494159E-16
210
-1.297824641247833E-17
220
6.367251647022551E-18
230
-1.0
 40
0.721029119218622
 41
3.532257842056294
 42
5.995539524716962
  0
ELLIPSE
  5
62488
330
1F
100
AcDbEntity
  8
姿図
100
AcDbEllipse
 10
11158.76390192807
 20
8368.157563876386
 30
0.0000000000000039
 11
-10.60033651680646
 21
4.247930694503525
 31
4.938642692439646E-16
210
-3.893473923743495E-17
220
1.910175494106767E-17
230
-1.0
 40
0.7212488145120731
 41
3.547863408263924
 42
6.141197072414585
  0
ELLIPSE
  5
62489
330
1F
100
AcDbEntity
  8
姿図
100
AcDbEllipse
 10
11159.12198377648
 20
8368.887435212117
 30
0.0000000000000039
 11
-10.81668055417811
 21
3.651561221760875
 31
3.272639096012935E-16
210
-2.595649282495664E-17
220
1.273450329404513E-17
230
-1.0
 40
0.7419878916067
 41
-1.136589550032932
 42
-0.1258430338670486
  0
ELLIPSE
  5
6248A
330
1F
100
AcDbEntity
  8
姿図
100
AcDbEllipse
 10
11160.02095211221
 20
8370.309390963212
 30
0.0000000000000039
 11
-10.30147212116958
 21
5.054000613465816
 31
1.658751373299576E-16
210
-1.297824641247831E-17
220
6.367251647022544E-18
230
-1.0
 40
0.7445887407022687
 41
-1.53029344492134
 42
-1.020444988477863
  0
ELLIPSE
  5
6248B
330
1F
100
AcDbEntity
  8
姿図
100
AcDbEllipse
 10
11159.75648078354
 20
8369.954811890328
 30
0.0000000000000039
 11
-10.14104925994177
 21
3.08962082372993
 31
4.538562883655243E-16
210
-3.893473923743496E-17
220
1.910175494106768E-17
230
-1.0
 40
0.8394320487858438
 41
-1.37670196156322
 42
-0.9346820271869077
  0
ELLIPSE
  5
6248C
330
1F
100
AcDbEntity
  8
姿図
100
AcDbEllipse
 10
11159.07868603063
 20
8369.037906346526
 30
0.0000000000000039
 11
-9.754742494672158
 21
5.98958641680999
 31
9.884199345812770E-16
210
-7.786947847486997E-17
220
3.820350988213535E-17
230
-1.0
 40
0.7148769796037755
 41
-1.336025501013361
 42
-0.3740805824018341
  0
ELLIPSE
  5
6248D
330
1F
100
AcDbEntity
  8
姿図
100
AcDbEllipse
 10
11169.57660999352
 20
8381.477416586618
 30
0.0000000000000028
 11
-0.5687537677679034
 21
0.679010265013908
 31
3.841286008027635E-17
210
-2.784762559718125E-17
220
3.324606307391717E-17
230
-1.0
 40
0.633858626391594
 41
3.141592653589115
 42
3.378250081949307
  0
ELLIPSE
  5
6248E
330
1F
100
AcDbEntity
  8
姿図
100
AcDbEllipse
 10
11169.57660999352
 20
8381.477416586618
 30
0.0000000000000028
 11
-0.8531306516548434
 21
1.01851539751732
 31
5.761929012037997E-17
210
-2.784762559718118E-17
220
3.324606307391721E-17
230
-1.0
 40
0.6338586263919848
 41
2.425367404914656
 42
2.90545864127894
  0
ELLIPSE
  5
6248F
330
1F
100
AcDbEntity
  8
姿図
100
AcDbEllipse
 10
11169.4453150534
 20
8381.367441088853
 30
0.0000000000000028
 11
-0.9242248726275492
 21
1.103391680639824
 31
8.322786350709542E-17
210
-3.713016746290828E-17
220
4.432808409855625E-17
230
-1.0
 40
0.6338586263928144
 41
2.631951070262136
 42
2.705517797147201
  0
ELLIPSE
  5
62490
330
1F
100
AcDbEntity
  8
姿図
100
AcDbEllipse
 10
11169.57659863392
 20
8381.477407071568
 30
0.0000000000000028
 11
-0.5687584695356357
 21
0.6790158782505755
 31
3.841317763136411E-17
210
-2.784762559718125E-17
220
3.324606307391717E-17
230
-1.0
 40
0.6338586263915972
 41
3.141592653587503
 42
3.378250081946796
  0
ELLIPSE
  5
62491
330
1F
100
AcDbEntity
  8
姿図
100
AcDbEllipse
 10
11169.57659863392
 20
8381.477407071568
 30
0.0000000000000028
 11
-0.8531377043072513
 21
1.018523817372132
 31
5.761976644702786E-17
210
-2.784762559718127E-17
220
3.324606307391717E-17
230
-1.0
 40
0.6338586263920022
 41
2.425367404913896
 42
2.905458641278171
  0
ELLIPSE
  5
62492
330
1F
100
AcDbEntity
  8
姿図
100
AcDbEllipse
 10
11169.4453026084
 20
8381.367430664657
 30
0.0000000000000028
 11
-0.9242325129264524
 21
1.103400802251035
 31
8.322855153622202E-17
210
-3.713016746290822E-17
220
4.432808409855630E-17
230
-1.0
 40
0.6338586264284999
 41
2.631951070170127
 42
2.705517797047795
  0
ARC
  5
62493
330
1F
100
AcDbEntity
  8
姿図
100
AcDbCircle
 10
11169.75624482055
 20
8379.882087497068
 30
0.0000000000000021
 40
2.23866170046689
100
AcDbArc
 50
351.7055936084358
 51
36.70333558537851
  0
LINE
  5
62494
330
1F
100
AcDbEntity
  8
姿図
100
AcDbLine
 10
11170.21101123135
 20
8380.853394070487
 30
0.0000000000000028
 11
11170.14536376129
 21
8380.798406321604
 31
0.0000000000000028
  0
LINE
  5
62495
330
1F
100
AcDbEntity
  8
姿図
100
AcDbLine
 10
11170.21100511621
 20
8380.853379396773
 30
0.0000000000000028
 11
11170.14535710345
 21
8380.798391193317
 31
0.0000000000000028
  0
LINE
  5
62496
330
1F
100
AcDbEntity
  8
姿図
100
AcDbLine
 10
11171.24474404045
 20
8380.419434015646
 30
0.0000000000000028
 11
11170.3256794596
 21
8379.649605531282
 31
0.0000000000000028
  0
LINE
  5
62497
330
1F
100
AcDbEntity
  8
姿図
100
AcDbLine
 10
11171.24474647097
 20
8380.419415754473
 30
0.0000000000000028
 11
11170.32567429239
 21
8379.6495809061
 31
0.0000000000000028
  0
ARC
  5
62498
330
1F
100
AcDbEntity
  8
姿図
100
AcDbCircle
 10
11163.00568557937
 20
8376.097730812635
 30
0.0000000000000021
 40
9.610774850098466
100
AcDbArc
 50
338.1529540563183
 51
21.10996869899826
  0
LINE
  5
62499
330
1F
100
AcDbEntity
  8
姿図
100
AcDbLine
 10
11168.82754052744
 20
8383.305227641955
 30
0.0000000000000028
 11
11168.52990294093
 21
8383.055919925298
 31
0.0000000000000028
  0
LINE
  5
6249A
330
1F
100
AcDbEntity
  8
姿図
100
AcDbLine
 10
11168.82752297544
 20
8383.305233237035
 30
0.0000000000000028
 11
11168.52988292842
 21
8383.055923459406
 31
0.0000000000000028
  0
ELLIPSE
  5
626F7
330
1F
100
AcDbEntity
  8
姿図
100
AcDbEllipse
 10
11161.48326995808
 20
8381.621370582965
 30
0.0
 11
-1.485217608285893
 21
0.0
 31
0.0
210
0.0
220
0.0
230
1.0
 40
0.346148345442898
 41
0.0
 42
6.283185307179586
  0
ELLIPSE
  5
626F8
330
1F
100
AcDbEntity
  8
姿図
100
AcDbEllipse
 10
11161.48326995808
 20
8385.978147635971
 30
0.0
 11
-1.485217608285893
 21
0.0
 31
0.0
210
0.0
220
0.0
230
1.0
 40
0.346148345442898
 41
3.141589017755946
 42
6.283188943013434
  0
ELLIPSE
  5
626F9
330
1F
100
AcDbEntity
  8
姿図
100
AcDbEllipse
 10
11161.48326995808
 20
8381.560493367251
 30
0.0
 11
1.378338008471474
 21
0.0
 31
0.0
210
0.0
220
0.0
230
1.0
 40
0.2371786109951774
 41
0.0
 42
6.283185307179586
  0
LINE
  5
626FA
330
1F
100
AcDbEntity
  8
姿図
100
AcDbLine
 10
11159.99809806965
 20
8381.62540444828
 30
0.0
 11
11159.9980523498
 21
8385.978145766769
 31
0.0
  0
LINE
  5
626FB
330
1F
100
AcDbEntity
  8
姿図
100
AcDbLine
 10
11162.96853328622
 20
8381.62540444828
 30
0.0
 11
11162.96848756638
 21
8385.978145766769
 31
0.0
  0
LINE
  5
626FC
330
1F
100
AcDbEntity
  8
姿図
100
AcDbLine
 10
11160.11377463118
 20
8381.597464495866
 30
0.0
 11
11162.85276528498
 21
8381.597464495866
 31
0.0
  0
LINE
  5
626FD
330
1F
100
AcDbEntity
  8
姿図
100
AcDbLine
 10
11160.11377463118
 20
8381.467762401673
 30
0.0
 11
11162.85276528498
 21
8381.467762401673
 31
0.0
  0
ELLIPSE
  5
626FE
330
1F
100
AcDbEntity
  8
姿図
100
AcDbEllipse
 10
11132.85683943942
 20
8370.833053245784
 30
0.0
 11
-1.485217608285893
 21
0.0
 31
0.0
210
0.0
220
0.0
230
1.0
 40
0.346148345442898
 41
0.0
 42
6.283185307179586
  0
ELLIPSE
  5
626FF
330
1F
100
AcDbEntity
  8
姿図
100
AcDbEllipse
 10
11132.85683943942
 20
8375.18983029879
 30
0.0
 11
-1.485217608285893
 21
0.0
 31
0.0
210
0.0
220
0.0
230
1.0
 40
0.346148345442898
 41
3.955898311845443
 42
6.283188943013434
  0
ELLIPSE
  5
62700
330
1F
100
AcDbEntity
  8
姿図
100
AcDbEllipse
 10
11132.85683943942
 20
8370.77217603007
 30
0.0
 11
1.378338008471474
 21
0.0
 31
0.0
210
0.0
220
0.0
230
1.0
 40
0.2371786109951774
 41
0.0
 42
6.283185307179586
  0
LINE
  5
62701
330
1F
100
AcDbEntity
  8
姿図
100
AcDbLine
 10
11131.37166755099
 20
8370.837087111098
 30
0.0
 11
11131.37162183114
 21
8375.189828429588
 31
0.0
  0
LINE
  5
62702
330
1F
100
AcDbEntity
  8
姿図
100
AcDbLine
 10
11134.34210276756
 20
8370.837087111098
 30
0.0
 11
11134.34208911674
 21
8372.136708855625
 31
0.0
  0
LINE
  5
62703
330
1F
100
AcDbEntity
  8
姿図
100
AcDbLine
 10
11131.48734411252
 20
8370.809147158685
 30
0.0
 11
11134.22633476631
 21
8370.809147158685
 31
0.0
  0
LINE
  5
62704
330
1F
100
AcDbEntity
  8
姿図
100
AcDbLine
 10
11131.48734411252
 20
8370.679445064492
 30
0.0
 11
11134.22633476631
 21
8370.679445064492
 31
0.0
  0
ELLIPSE
  5
62705
330
1F
100
AcDbEntity
  8
姿図
100
AcDbEllipse
 10
11185.55884888267
 20
8368.721937687282
 30
0.0
 11
-1.485217608285893
 21
0.0
 31
0.0
210
0.0
220
0.0
230
1.0
 40
0.346148345442898
 41
1.523036450779594
 42
4.523395008955261
  0
ELLIPSE
  5
62706
330
1F
100
AcDbEntity
  8
姿図
100
AcDbEllipse
 10
11185.55884888267
 20
8373.078714740288
 30
0.0
 11
-1.485217608285893
 21
0.0
 31
0.0
210
0.0
220
0.0
230
1.0
 40
0.346148345442898
 41
3.141589017755946
 42
3.706120449458524
  0
ELLIPSE
  5
62707
330
1F
100
AcDbEntity
  8
姿図
100
AcDbEllipse
 10
11185.55884888267
 20
8368.661060471568
 30
0.0
 11
1.378338008471474
 21
0.0
 31
0.0
210
0.0
220
0.0
230
1.0
 40
0.2371786109951774
 41
4.694097807293383
 42
7.70846198179726
  0
LINE
  5
62708
330
1F
100
AcDbEntity
  8
姿図
100
AcDbLine
 10
11187.04411221081
 20
8368.725971552596
 30
0.0
 11
11187.04406649096
 21
8373.078712871085
 31
0.0
  0
LINE
  5
62709
330
1F
100
AcDbEntity
  8
姿図
100
AcDbLine
 10
11185.66185500473
 20
8368.698031600183
 30
0.0
 11
11186.92834420957
 21
8368.698031600183
 31
0.0
  0
LINE
  5
6270A
330
1F
100
AcDbEntity
  8
姿図
100
AcDbLine
 10
11185.61681872421
 20
8368.56832950599
 30
0.0
 11
11186.92834420957
 21
8368.56832950599
 31
0.0
  0
VIEWPORT
  5
BFE7
102
{ACAD_XDICTIONARY
360
66CCC
102
}
330
BFE6
100
AcDbEntity
 67
     1
  8
0
100
AcDbViewport
 10
2225.59117781585
 20
106.2841330506263
 30
0.0
 40
1257.477387762737
 41
655.3966943458317
 68
     1
 69
     1
 12
2225.59117781585
 22
106.2841330506263
 13
0.0
 23
0.0
 14
10.0
 24
10.0
 15
0.0
 25
0.0
 16
0.0
 26
0.0
 36
1.0
 17
0.0
 27
0.0
 37
0.0
 42
50.0
 43
0.0
 44
0.0
 45
655.3966943458317
 50
0.0
 51
0.0
 72
   100
 90
    32800
  1

281
     0
 71
     1
 74
     0
110
0.0
120
0.0
130
0.0
111
1.0
121
0.0
131
0.0
112
0.0
122
1.0
132
0.0
 79
     0
146
0.0
  0
MTEXT
  5
111D2
330
BFE6
100
AcDbEntity
 67
     1
  8
文字
 48
10.0
100
AcDbMText
 10
2201.143418383504
 20
37.81017533739418
 30
0.0
 40
2.5
 41
24.1
 71
     1
 72
     5
  1
2006.09.13
  7
ROMANS
 73
     1
 44
1.0
  0
MTEXT
  5
111D9
330
BFE6
100
AcDbEntity
 67
     1
  8
文字
 48
10.0
100
AcDbMText
 10
2201.522620687308
 20
61.11156819993107
 30
0.0
 40
2.5
 41
59.32834394882029
 71
     1
 72
     5
  1
フードライト
  7
ROMANS
 73
     1
 44
1.0
  0
LINE
  5
12324
330
BFE6
100
AcDbEntity
 67
     1
  8
GAWA
 62
     8
100
AcDbLine
 10
2189.790577123586
 20
63.35496017198056
 30
0.0
 11
2289.828589271307
 21
63.35496017198057
 31
0.0
  0
LINE
  5
12325
330
BFE6
100
AcDbEntity
 67
     1
  8
J
100
AcDbLine
 10
2289.828589271307
 20
406.3549601719806
 30
0.0
 11
1742.828589271307
 21
406.3549601719806
 31
0.0
  0
LINE
  5
12326
330
BFE6
100
AcDbEntity
 67
     1
  8
J
100
AcDbLine
 10
1742.828589271307
 20
21.35496017198057
 30
0.0
 11
2289.828589271307
 21
21.35496017198057
 31
0.0
  0
LINE
  5
12327
330
BFE6
100
AcDbEntity
 67
     1
  8
J
100
AcDbLine
 10
1742.828589271307
 20
406.3549601719806
 30
0.0
 11
1742.828589271307
 21
21.35496017198057
 31
0.0
  0
LINE
  5
12372
330
BFE6
100
AcDbEntity
 67
     1
  8
J
100
AcDbLine
 10
2289.828589271307
 20
21.35496017198057
 30
0.0
 11
2289.828589271307
 21
406.3549601719806
 31
0.0
  0
LINE
  5
12375
330
BFE6
100
AcDbEntity
 67
     1
  8
GAWA
 62
     8
100
AcDbLine
 10
2189.828589271307
 20
39.35496017198057
 30
0.0
 11
2275.828589271307
 21
39.35496017198057
 31
0.0
  0
LINE
  5
12376
330
BFE6
100
AcDbEntity
 67
     1
  8
GAWA
 62
     8
100
AcDbLine
 10
2189.828589271307
 20
45.35496017198057
 30
0.0
 11
2275.828589271307
 21
45.35496017198057
 31
0.0
  0
LINE
  5
12377
330
BFE6
100
AcDbEntity
 67
     1
  8
GAWA
 62
     8
100
AcDbLine
 10
2189.828589271307
 20
51.35496017198057
 30
0.0
 11
2275.828589271307
 21
51.35496017198057
 31
0.0
  0
LINE
  5
12378
330
BFE6
100
AcDbEntity
 67
     1
  8
GAWA
 62
     8
100
AcDbLine
 10
2191.551016241648
 20
57.35496017198057
 30
0.0
 11
2273.828589271307
 21
57.35496017198057
 31
0.0
  0
LINE
  5
12379
330
BFE6
100
AcDbEntity
 67
     1
  8
GAWA
 62
     8
100
AcDbLine
 10
2189.828589271307
 20
33.35496017198057
 30
0.0
 11
2275.828589271307
 21
33.35496017198057
 31
0.0
  0
LINE
  5
123B4
330
BFE6
100
AcDbEntity
 67
     1
  8
GAWA
 62
     8
100
AcDbLine
 10
2189.828589271307
 20
21.35496017198057
 30
0.0
 11
2189.828589271307
 21
63.35496017198057
 31
0.0
  0
TEXT
  5
123B5
330
BFE6
100
AcDbEntity
 67
     1
  8
文字
100
AcDbText
 10
2190.850912439793
 20
35.03986794532511
 30
0.0
 40
2.5
  1
年月日
100
AcDbText
  0
TEXT
  5
123B6
330
BFE6
100
AcDbEntity
 67
     1
  8
文字
100
AcDbText
 10
2190.850912439793
 20
41.03986794532511
 30
0.0
 40
2.5
  1
図名
100
AcDbText
  0
TEXT
  5
123B7
330
BFE6
100
AcDbEntity
 67
     1
  8
文字
100
AcDbText
 10
2190.850912439793
 20
47.03986794532511
 30
0.0
 40
2.5
  1
図番
100
AcDbText
  0
TEXT
  5
123B8
330
BFE6
100
AcDbEntity
 67
     1
  8
文字
100
AcDbText
 10
2190.415659518156
 20
60.2368773663793
 30
0.0
 40
2.5
  1
名称
100
AcDbText
  0
TEXT
  5
123CC
330
BFE6
100
AcDbEntity
 67
     1
  8
GAWA
 62
    40
100
AcDbText
 10
2239.058103436713
 20
35.07196104736465
 30
0.0
 40
2.5
  1
改訂
100
AcDbText
  0
TEXT
  5
123D8
330
BFE6
100
AcDbEntity
 67
     1
  8
文字
100
AcDbText
 10
2239.155425468742
 20
41.03986794532511
 30
0.0
 40
2.5
  1
尺度
100
AcDbText
  0
TEXT
  5
123D9
330
BFE6
100
AcDbEntity
 67
     1
  8
文字
100
AcDbText
 10
2239.094222521581
 20
47.03986794532511
 30
0.0
 40
2.5
  1
連番
100
AcDbText
  0
LINE
  5
123DA
330
BFE6
100
AcDbEntity
 67
     1
  8
GAWA
 62
     8
100
AcDbLine
 10
2275.828589271307
 20
21.35496017198057
 30
0.0
 11
2275.828589271307
 21
63.35496017198057
 31
0.0
  0
MTEXT
  5
123DD
330
BFE6
100
AcDbEntity
 67
     1
  8
文字
 48
10.0
100
AcDbMText
 10
2246.730937107925
 20
44.06947864621441
 30
0.0
 40
2.3
 41
43.52883771757843
 71
     1
 72
     5
  1
1/1
  7
ROMANS
 73
     1
 44
1.0
  0
TEXT
  5
123DE
330
BFE6
100
AcDbEntity
 67
     1
  8
文字
100
AcDbText
 10
2276.618335813182
 20
32.17827202567423
 30
0.0
 40
2.5
  1
製図
100
AcDbText
  0
TEXT
  5
123DF
330
BFE6
100
AcDbEntity
 67
     1
  8
文字
100
AcDbText
 10
2276.618335813182
 20
46.17827202567423
 30
0.0
 40
2.5
  1
設計
100
AcDbText
  0
LINE
  5
123E0
330
BFE6
100
AcDbEntity
 67
     1
  8
GAWA
 62
     8
100
AcDbLine
 10
2275.828589271307
 20
49.35496017198057
 30
0.0
 11
2289.828589271307
 21
49.35496017198057
 31
0.0
  0
LINE
  5
123E1
330
BFE6
100
AcDbEntity
 67
     1
  8
GAWA
 62
     8
100
AcDbLine
 10
2275.828589271307
 20
35.35496017198057
 30
0.0
 11
2289.828589271307
 21
35.35496017198057
 31
0.0
  0
TEXT
  5
123EC
330
BFE6
100
AcDbEntity
 67
     1
  8
文字
100
AcDbText
 10
2276.618335813182
 20
60.17827202567423
 30
0.0
 40
2.5
  1
検図
100
AcDbText
  0
VIEWPORT
  5
124CD
102
{ACAD_XDICTIONARY
360
66CCE
102
}
330
BFE6
100
AcDbEntity
 67
     1
  8
ﾋﾞｭｰﾎﾟｰﾄ
 48
10.0
100
AcDbViewport
 10
2016.328589271307
 20
234.8549601719806
 30
0.0
 40
547.0
 41
343.0
 68
     2
 69
     2
 12
-1327.996497466838
 22
3455.635926653686
 13
0.0
 23
0.0
 14
10.0
 24
10.0
 15
0.0
 25
0.0
 16
0.0
 26
0.0
 36
1.0
 17
0.0
 27
0.0
 37
0.0
 42
50.0
 43
0.0
 44
0.0
 45
343.0000035968635
 50
0.0
 51
0.0
 72
   100
 90
    32800
  1

281
     0
 71
     1
 74
     0
110
0.0
120
0.0
130
0.0
111
1.0
121
0.0
131
0.0
112
0.0
122
1.0
132
0.0
 79
     0
146
0.0
  0
MTEXT
  5
13922
330
BFE6
100
AcDbEntity
 67
     1
  8
文字
 48
10.0
100
AcDbMText
 10
2199.343852151236
 20
43.11156819993118
 30
0.0
 40
2.5
 41
59.32834394882029
 71
     1
 72
     5
  1
ベース{\fArial|b0|i0|c0|p32;A}
  7
ROMANS
 73
     1
 44
1.0
  0
MTEXT
  5
13937
330
BFE6
100
AcDbEntity
 67
     1
  8
文字
 48
2.0
100
AcDbMText
 10
2181.471146595712
 20
80.0138217475801
 30
0.0
 40
5.0
 41
113.5184576866395
 71
     1
 72
     5
  1
材質：　　　{\fArial|b0|i0|c0|p32;AP t1.5\P}表面仕上：　アクリルエポキシ焼付塗装
  7
ROMANS
 73
     1
 44
1.0
  0
LINE
  5
13AAC
330
BFE6
100
AcDbEntity
 67
     1
  8
文字
100
AcDbLine
 10
2250.443412512459
 20
30.27176795380024
 30
0.0
 11
2248.99784914573
 21
28.02311382777862
 31
0.0
  0
LINE
  5
13AAD
330
BFE6
100
AcDbEntity
 67
     1
  8
文字
100
AcDbLine
 10
2248.99784914573
 20
28.02311382777862
 30
0.0
 11
2250.443412512459
 21
25.77445970175677
 31
0.0
  0
LINE
  5
13AAE
330
BFE6
100
AcDbEntity
 67
     1
  8
文字
100
AcDbLine
 10
2249.008252204173
 20
30.27176795380024
 30
0.0
 11
2250.443412512459
 21
30.27176795380024
 31
0.0
  0
LINE
  5
13AAF
330
BFE6
100
AcDbEntity
 67
     1
  8
文字
100
AcDbLine
 10
2249.028184986232
 20
25.77445970175677
 30
0.0
 11
2250.443412512459
 21
25.77445970175677
 31
0.0
  0
SOLID
  5
13AB0
330
BFE6
100
AcDbEntity
 67
     1
  8
文字
100
AcDbTrace
 10
2241.430918786576
 20
27.22002306848503
 30
0.0
 11
2241.058786638476
 21
28.18387066366404
 31
0.0
 12
2240.651689282517
 22
27.22002306848503
 32
0.0
 13
2240.527720952326
 23
28.18373197963729
 33
0.0
  0
SOLID
  5
13AB1
330
BFE6
100
AcDbEntity
 67
     1
  8
文字
100
AcDbTrace
 10
2240.049557393016
 20
30.11114980194156
 30
0.0
 11
2240.057100745486
 21
29.14855359309058
 31
0.0
 12
2241.076723557458
 22
30.11114980194156
 32
0.0
 13
2241.154177544463
 23
29.13537607496596
 33
0.0
  0
LINE
  5
13AB2
330
BFE6
100
AcDbEntity
 67
     1
  8
文字
100
AcDbLine
 10
2240.083541717573
 20
29.14744089078931
 30
0.0
 11
2241.047250628725
 21
29.14744089078931
 31
0.0
  0
LINE
  5
13AB3
330
BFE6
100
AcDbEntity
 67
     1
  8
文字
100
AcDbLine
 10
2240.083541717573
 20
28.18373197963729
 30
0.0
 11
2241.047250628725
 21
28.18373197963729
 31
0.0
  0
LINE
  5
13AB4
330
BFE6
100
AcDbEntity
 67
     1
  8
文字
100
AcDbLine
 10
2240.083541717573
 20
27.22002306848503
 30
0.0
 11
2241.529105084301
 21
27.22002306848503
 31
0.0
  0
LINE
  5
13AB5
330
BFE6
100
AcDbEntity
 67
     1
  8
文字
100
AcDbLine
 10
2240.083541717573
 20
29.14744089078931
 30
0.0
 11
2241.047250628725
 21
29.14744089078931
 31
0.0
  0
LINE
  5
13AB6
330
BFE6
100
AcDbEntity
 67
     1
  8
文字
100
AcDbLine
 10
2238.798596502703
 20
30.11114980194156
 30
0.0
 11
2241.529105084301
 21
30.11114980194156
 31
0.0
  0
SOLID
  5
13AB7
330
BFE6
100
AcDbEntity
 67
     1
  8
文字
100
AcDbTrace
 10
2240.651689282517
 20
27.22002306848503
 30
0.0
 11
2240.527720952326
 21
28.18373197963729
 31
0.0
 12
2240.083541717573
 22
27.22002306848503
 32
0.0
 13
2240.083541717573
 23
28.18373197963729
 33
0.0
  0
SOLID
  5
13AB8
330
BFE6
100
AcDbEntity
 67
     1
  8
文字
100
AcDbTrace
 10
2238.798596502703
 20
30.11114980194156
 30
0.0
 11
2238.798596502703
 21
25.77445970175677
 31
0.0
 12
2240.049557393016
 22
30.11114980194156
 32
0.0
 13
2240.083541717573
 23
25.77445970175677
 33
0.0
  0
LINE
  5
13AB9
330
BFE6
100
AcDbEntity
 67
     1
  8
文字
100
AcDbLine
 10
2238.798596502703
 20
30.11114980194156
 30
0.0
 11
2238.798596502703
 21
25.77445970175677
 31
0.0
  0
LINE
  5
13ABA
330
BFE6
100
AcDbEntity
 67
     1
  8
文字
100
AcDbLine
 10
2240.083541717573
 20
29.14744089078931
 30
0.0
 11
2240.083541717573
 21
28.18373197963729
 31
0.0
  0
LINE
  5
13ABB
330
BFE6
100
AcDbEntity
 67
     1
  8
文字
100
AcDbLine
 10
2240.083541717573
 20
27.22002306848503
 30
0.0
 11
2240.083541717573
 21
25.77445970175677
 31
0.0
  0
LINE
  5
13ABC
330
BFE6
100
AcDbEntity
 67
     1
  8
文字
100
AcDbLine
 10
2238.798596502703
 20
25.77445970175677
 30
0.0
 11
2240.083541717573
 21
25.77445970175677
 31
0.0
  0
ARC
  5
13ABD
330
BFE6
100
AcDbEntity
 67
     1
  8
文字
100
AcDbCircle
 10
2237.284887246999
 20
28.89151235251984
 30
0.0
 40
1.098663084622787
100
AcDbArc
 50
0.0
 51
0.0
  0
ARC
  5
13ABE
330
BFE6
100
AcDbEntity
 67
     1
  8
文字
100
AcDbCircle
 10
2237.582748612068
 20
27.01424068478264
 30
0.0
 40
0.9960073035396372
100
AcDbArc
 50
0.0
 51
31.31771708329941
  0
ARC
  5
13ABF
330
BFE6
100
AcDbEntity
 67
     1
  8
文字
100
AcDbCircle
 10
2237.582748612068
 20
27.01424068478264
 30
0.0
 40
0.9960073035396382
100
AcDbArc
 50
328.6822829167006
 51
0.0
  0
SOLID
  5
13AC0
330
BFE6
100
AcDbEntity
 67
     1
  8
文字
100
AcDbTrace
 10
2235.725601306901
 20
26.79859656879285
 30
0.0
 11
2234.470775689249
 21
26.56267576347295
 31
0.0
 12
2235.657536551953
 22
27.21839888036857
 32
0.0
 13
2234.362647221087
 23
27.21839888036857
 33
0.0
  0
SOLID
  5
13AC1
330
BFE6
100
AcDbEntity
 67
     1
  8
文字
100
AcDbTrace
 10
2235.851467430906
 20
26.64745629667959
 30
0.0
 11
2235.058692426512
 21
25.94821119380322
 31
0.0
 12
2235.725601306901
 22
26.79859656879285
 32
0.0
 13
2234.470775689249
 23
26.56267576347295
 33
0.0
  0
SOLID
  5
13AC2
330
BFE6
100
AcDbEntity
 67
     1
  8
文字
100
AcDbTrace
 10
2236.073567137874
 20
26.53530509314714
 30
0.0
 11
2235.633118621668
 21
25.69489259889542
 31
0.0
 12
2235.851467430906
 22
26.64745629667959
 32
0.0
 13
2235.058692426512
 23
25.94821119380322
 33
0.0
  0
SOLID
  5
13AC3
330
BFE6
100
AcDbEntity
 67
     1
  8
文字
100
AcDbTrace
 10
2236.525815280486
 20
26.47885013149062
 30
0.0
 11
2236.418901796555
 21
25.57949774369263
 31
0.0
 12
2236.073567137874
 22
26.53530509314714
 32
0.0
 13
2235.633118621668
 23
25.69489259889542
 33
0.0
  0
SOLID
  5
13AC4
330
BFE6
100
AcDbEntity
 67
     1
  8
文字
100
AcDbTrace
 10
2237.035374646351
 20
26.61004123137013
 30
0.0
 11
2237.308166723256
 21
25.69489259889542
 31
0.0
 12
2236.525815280486
 22
26.47885013149062
 32
0.0
 13
2236.418901796555
 23
25.57949774369263
 33
0.0
  0
SOLID
  5
13AC5
330
BFE6
100
AcDbEntity
 67
     1
  8
文字
100
AcDbTrace
 10
2237.122188301772
 20
26.67479970882027
 30
0.0
 11
2237.994079205637
 21
26.0223275537237
 31
0.0
 12
2237.035374646351
 22
26.61004123137013
 32
0.0
 13
2237.308166723256
 23
25.69489259889542
 33
0.0
  0
SOLID
  5
13AC6
330
BFE6
100
AcDbEntity
 67
     1
  8
文字
100
AcDbTrace
 10
2236.52973664742
 20
27.31229040536937
 30
0.0
 11
2237.146139511325
 21
28.3803413771941
 31
0.0
 12
2237.089518293756
 22
27.10356408295729
 32
0.0
 13
2238.016433655443
 23
27.98982257284615
 33
0.0
  0
SOLID
  5
13AC7
330
BFE6
100
AcDbEntity
 67
     1
  8
文字
100
AcDbTrace
 10
2235.638842773211
 20
27.56931941093512
 30
0.0
 11
2236.539171809896
 21
28.55029233359414
 31
0.0
 12
2236.52973664742
 22
27.31229040536937
 32
0.0
 13
2237.146139511325
 23
28.3803413771941
 33
0.0
  0
SOLID
  5
13AC8
330
BFE6
100
AcDbEntity
 67
     1
  8
文字
100
AcDbTrace
 10
2235.066426987947
 20
27.87021797517514
 30
0.0
 11
2236.216089304125
 21
28.63834246314718
 31
0.0
 12
2235.638842773211
 22
27.56931941093512
 32
0.0
 13
2236.539171809896
 23
28.55029233359414
 33
0.0
  0
SOLID
  5
13AC9
330
BFE6
100
AcDbEntity
 67
     1
  8
文字
100
AcDbTrace
 10
2234.62076551543
 20
28.39986619932938
 30
0.0
 11
2236.006413172946
 21
28.73375752184188
 31
0.0
 12
2235.066426987947
 22
27.87021797517514
 32
0.0
 13
2236.216089304125
 23
28.63834246314718
 33
0.0
  0
SOLID
  5
13ACA
330
BFE6
100
AcDbEntity
 67
     1
  8
文字
100
AcDbTrace
 10
2234.504885545552
 20
28.915576945883
 30
0.0
 11
2235.889241107203
 21
28.85899359190398
 31
0.0
 12
2234.62076551543
 22
28.39986619932938
 32
0.0
 13
2236.006413172946
 23
28.73375752184188
 33
0.0
  0
SOLID
  5
13ACB
330
BFE6
100
AcDbEntity
 67
     1
  8
文字
100
AcDbTrace
 10
2234.62786194864
 20
29.39709157388484
 30
0.0
 11
2235.863920901518
 21
28.91644714800077
 31
0.0
 12
2234.504885545552
 22
28.915576945883
 32
0.0
 13
2235.889241107203
 23
28.85899359190398
 33
0.0
  0
SOLID
  5
13ACC
330
BFE6
100
AcDbEntity
 67
     1
  8
文字
100
AcDbTrace
 10
2235.040856883693
 20
29.89305719465642
 30
0.0
 11
2235.921878630287
 21
29.15932967083472
 31
0.0
 12
2234.62786194864
 22
29.39709157388484
 32
0.0
 13
2235.863920901518
 23
28.91644714800077
 33
0.0
  0
SOLID
  5
13ACD
330
BFE6
100
AcDbEntity
 67
     1
  8
文字
100
AcDbTrace
 10
2235.736784160872
 20
30.24379750659205
 30
0.0
 11
2236.100112167256
 21
29.29296101228078
 31
0.0
 12
2235.040856883693
 22
29.89305719465642
 32
0.0
 13
2235.921878630287
 23
29.15932967083472
 33
0.0
  0
SOLID
  5
13ACE
330
BFE6
100
AcDbEntity
 67
     1
  8
文字
100
AcDbTrace
 10
2236.436745061913
 20
30.34247844508536
 30
0.0
 11
2236.417479463591
 21
29.36250705111343
 31
0.0
 12
2235.736784160872
 22
30.24379750659205
 32
0.0
 13
2236.100112167256
 23
29.29296101228078
 33
0.0
  0
SOLID
  5
13ACF
330
BFE6
100
AcDbEntity
 67
     1
  8
文字
100
AcDbTrace
 10
2237.147048452209
 20
30.24502850962699
 30
0.0
 11
2236.548622910202
 21
29.3569456720229
 31
0.0
 12
2236.436745061913
 22
30.34247844508536
 32
0.0
 13
2236.417479463591
 23
29.36250705111343
 33
0.0
  0
SOLID
  5
13AD0
330
BFE6
100
AcDbEntity
 67
     1
  8
文字
100
AcDbTrace
 10
2237.815494424086
 20
29.91750768982183
 30
0.0
 11
2236.791510785861
 21
29.29133375712172
 31
0.0
 12
2237.147048452209
 22
30.24502850962699
 32
0.0
 13
2236.548622910202
 23
29.3569456720229
 33
0.0
  0
LINE
  5
13AD1
330
BFE6
100
AcDbEntity
 67
     1
  8
文字
100
AcDbLine
 10
2236.26242837011
 20
28.62778049673443
 30
0.0
 11
2237.297417193118
 21
28.33798362629204
 31
0.0
  0
LINE
  5
13AD2
330
BFE6
100
AcDbEntity
 67
     1
  8
文字
100
AcDbLine
 10
2235.688689425065
 20
27.54778362762863
 30
0.0
 11
2236.825498092817
 21
27.22947720065804
 31
0.0
  0
ARC
  5
13AD3
330
BFE6
100
AcDbEntity
 67
     1
  8
文字
100
AcDbCircle
 10
2236.616439913448
 20
28.31477791155726
 30
0.0
 40
2.001617960955279
100
AcDbArc
 50
53.19863737908722
 51
72.78248651547209
  0
ARC
  5
13AD4
330
BFE6
100
AcDbEntity
 67
     1
  8
文字
100
AcDbCircle
 10
2236.444086147928
 20
27.75859474496292
 30
0.0
 40
2.583894128501092
100
AcDbArc
 50
72.78248651547209
 51
90.0
  0
ARC
  5
13AD5
330
BFE6
100
AcDbEntity
 67
     1
  8
文字
100
AcDbCircle
 10
2236.444086147928
 20
27.75859474496269
 30
0.0
 40
2.583894128501139
100
AcDbArc
 50
90.0
 51
107.2175134845279
  0
ARC
  5
13AD6
330
BFE6
100
AcDbEntity
 67
     1
  8
文字
100
AcDbCircle
 10
2236.271732382408
 20
28.31477791155726
 30
0.0
 40
2.001617960955313
100
AcDbArc
 50
107.2175134845552
 51
126.8013626209128
  0
ARC
  5
13AD7
330
BFE6
100
AcDbEntity
 67
     1
  8
文字
100
AcDbCircle
 10
2236.007824041722
 20
28.66753398110768
 30
0.0
 40
1.561067785733174
100
AcDbArc
 50
126.8013626209128
 51
151.0283127865047
  0
ARC
  5
13AD8
330
BFE6
100
AcDbEntity
 67
     1
  8
文字
100
AcDbCircle
 10
2235.603285048857
 20
28.89151235251984
 30
0.0
 40
1.098663084622669
100
AcDbArc
 50
151.0283127865047
 51
180.0
  0
ARC
  5
13AD9
330
BFE6
100
AcDbEntity
 67
     1
  8
文字
100
AcDbCircle
 10
2235.603285048857
 20
28.89151235251984
 30
0.0
 40
1.098663084622785
100
AcDbArc
 50
180.0
 51
208.9716872134953
  0
ARC
  5
13ADA
330
BFE6
100
AcDbEntity
 67
     1
  8
文字
100
AcDbCircle
 10
2236.007824041722
 20
29.11549072393245
 30
0.0
 40
1.561067785733366
100
AcDbArc
 50
208.9716872134953
 51
233.1986373790872
  0
ARC
  5
13ADB
330
BFE6
100
AcDbEntity
 67
     1
  8
文字
100
AcDbCircle
 10
2236.271732382408
 20
29.46824679348265
 30
0.0
 40
2.001617960955157
100
AcDbArc
 50
233.1986373790872
 51
252.7824865154721
  0
ARC
  5
13ADC
330
BFE6
100
AcDbEntity
 67
     1
  8
文字
100
AcDbCircle
 10
2236.444086147928
 20
30.02442996007721
 30
0.0
 40
2.583894128501039
100
AcDbArc
 50
252.7824865154721
 51
253.0305394630238
  0
ARC
  5
13ADD
330
BFE6
100
AcDbEntity
 67
     1
  8
文字
100
AcDbCircle
 10
2236.699734012155
 20
26.17595968090882
 30
0.0
 40
2.241774665955539
100
AcDbArc
 50
55.75346293909732
 51
74.25200790362582
  0
ARC
  5
13ADE
330
BFE6
100
AcDbEntity
 67
     1
  8
文字
100
AcDbCircle
 10
2236.470642672462
 20
25.36355408581767
 30
0.0
 40
3.085863341899881
100
AcDbArc
 50
74.25200790362582
 51
74.46352284178525
  0
ARC
  5
13ADF
330
BFE6
100
AcDbEntity
 67
     1
  8
文字
100
AcDbCircle
 10
2235.358536732856
 20
27.01424068478264
 30
0.0
 40
0.9960073035396948
100
AcDbArc
 50
179.1188129153423
 51
180.0
  0
ARC
  5
13AE0
330
BFE6
100
AcDbEntity
 67
     1
  8
文字
100
AcDbCircle
 10
2235.358536732857
 20
27.01424068478264
 30
0.0
 40
0.9960073035397714
100
AcDbArc
 50
180.0
 51
211.3177170832994
  0
ARC
  5
13AE1
330
BFE6
100
AcDbEntity
 67
     1
  8
文字
100
AcDbCircle
 10
2235.891706349997
 20
27.33863875064094
 30
0.0
 40
1.620109815771301
100
AcDbArc
 50
211.3177170832994
 51
235.7534629390973
  0
ARC
  5
13AE2
330
BFE6
100
AcDbEntity
 67
     1
  8
文字
100
AcDbCircle
 10
2236.241551332769
 20
27.85252168865622
 30
0.0
 40
2.241774665955273
100
AcDbArc
 50
235.7534629390973
 51
254.2520079036259
  0
ARC
  5
13AE3
330
BFE6
100
AcDbEntity
 67
     1
  8
文字
100
AcDbCircle
 10
2236.470642672462
 20
28.66492728374715
 30
0.0
 40
3.085863341899527
100
AcDbArc
 50
254.2520079036259
 51
270.0
  0
ARC
  5
13AE4
330
BFE6
100
AcDbEntity
 67
     1
  8
文字
100
AcDbCircle
 10
2236.470642672462
 20
28.66492728374737
 30
0.0
 40
3.085863341899771
100
AcDbArc
 50
270.0
 51
285.7479920963742
  0
ARC
  5
13AE5
330
BFE6
100
AcDbEntity
 67
     1
  8
文字
100
AcDbCircle
 10
2236.699734012156
 20
27.85252168865645
 30
0.0
 40
2.241774665955463
100
AcDbArc
 50
285.7479920963742
 51
304.2465370609027
  0
ARC
  5
13AE6
330
BFE6
100
AcDbEntity
 67
     1
  8
文字
100
AcDbCircle
 10
2237.010159624299
 20
26.87539337670205
 30
0.0
 40
0.2194038156955813
100
AcDbArc
 50
0.0
 51
38.33119880317881
  0
ARC
  5
13AE7
330
BFE6
100
AcDbEntity
 67
     1
  8
文字
100
AcDbCircle
 10
2236.753803715538
 20
26.6727089260196
 30
0.0
 40
0.5462054963909073
100
AcDbArc
 50
38.33119880317881
 51
62.35002120582487
  0
ARC
  5
13AE8
330
BFE6
100
AcDbEntity
 67
     1
  8
文字
100
AcDbCircle
 10
2236.583049082649
 20
26.34677821702962
 30
0.0
 40
0.9141565416614456
100
AcDbArc
 50
62.35002120582487
 51
74.65355682384427
  0
ARC
  5
13AE9
330
BFE6
100
AcDbEntity
 67
     1
  8
文字
100
AcDbCircle
 10
2235.931125720625
 20
26.87539337670205
 30
0.0
 40
0.2194038156955828
100
AcDbArc
 50
178.5303417347493
 51
180.0
  0
ARC
  5
13AEA
330
BFE6
100
AcDbEntity
 67
     1
  8
文字
100
AcDbCircle
 10
2235.931125720625
 20
26.87539337670205
 30
0.0
 40
0.2194038156955046
100
AcDbArc
 50
180.0
 51
218.3311988031836
  0
ARC
  5
13AEB
330
BFE6
100
AcDbEntity
 67
     1
  8
文字
100
AcDbCircle
 10
2236.187481629387
 20
27.0780778273845
 30
0.0
 40
0.546205496390737
100
AcDbArc
 50
218.3311988031788
 51
242.3500212058249
  0
ARC
  5
13AEC
330
BFE6
100
AcDbEntity
 67
     1
  8
文字
100
AcDbCircle
 10
2236.358236262276
 20
27.40400853637448
 30
0.0
 40
0.9141565416614584
100
AcDbArc
 50
242.3500212058249
 51
257.756313864722
  0
ARC
  5
13AED
330
BFE6
100
AcDbEntity
 67
     1
  8
文字
100
AcDbCircle
 10
2236.470642672462
 20
27.92199635819225
 30
0.0
 40
1.444200487577805
100
AcDbArc
 50
257.756313864722
 51
270.0
  0
ARC
  5
13AEE
330
BFE6
100
AcDbEntity
 67
     1
  8
文字
100
AcDbCircle
 10
2236.470642672462
 20
27.9219963581927
 30
0.0
 40
1.444200487578011
100
AcDbArc
 50
270.0
 51
282.243686135278
  0
ARC
  5
13AEF
330
BFE6
100
AcDbEntity
 67
     1
  8
文字
100
AcDbCircle
 10
2236.583049082649
 20
27.4040085363747
 30
0.0
 40
0.9141565416615925
100
AcDbArc
 50
282.243686135278
 51
297.6499787941751
  0
ARC
  5
13AF0
330
BFE6
100
AcDbEntity
 67
     1
  8
文字
100
AcDbCircle
 10
2236.753803715538
 20
27.0780778273845
 30
0.0
 40
0.5462054963907993
100
AcDbArc
 50
297.6499787941751
 51
321.6688011968211
  0
ARC
  5
13AF1
330
BFE6
100
AcDbEntity
 67
     1
  8
文字
100
AcDbCircle
 10
2237.010159624299
 20
26.87539337670205
 30
0.0
 40
0.2194038156955255
100
AcDbArc
 50
321.6688011968164
 51
0.0
  0
ARC
  5
13AF2
330
BFE6
100
AcDbEntity
 67
     1
  8
文字
100
AcDbCircle
 10
2236.787907613782
 20
28.98629941558147
 30
0.0
 40
0.246450242226801
100
AcDbArc
 50
0.0
 51
32.99326751648657
  0
ARC
  5
13AF3
330
BFE6
100
AcDbEntity
 67
     1
  8
文字
100
AcDbCircle
 10
2236.623463918963
 20
28.87953590121469
 30
0.0
 40
0.4425119079488389
100
AcDbArc
 50
32.99326751649049
 51
57.46224401373549
  0
ARC
  5
13AF4
330
BFE6
100
AcDbEntity
 67
     1
  8
文字
100
AcDbCircle
 10
2236.515135122153
 20
28.70974076730249
 30
0.0
 40
0.6439207352592713
100
AcDbArc
 50
57.46224401373549
 51
75.19702014465207
  0
ARC
  5
13AF5
330
BFE6
100
AcDbEntity
 67
     1
  8
文字
100
AcDbCircle
 10
2236.444086147928
 20
28.44088781010987
 30
0.0
 40
0.9220032218160942
100
AcDbArc
 50
75.19702014465207
 51
90.0
  0
ARC
  5
13AF6
330
BFE6
100
AcDbEntity
 67
     1
  8
文字
100
AcDbCircle
 10
2236.444086147928
 20
28.4408878101101
 30
0.0
 40
0.9220032218158113
100
AcDbArc
 50
90.0
 51
104.8029798553479
  0
ARC
  5
13AF7
330
BFE6
100
AcDbEntity
 67
     1
  8
文字
100
AcDbCircle
 10
2236.373037173703
 20
28.70974076730272
 30
0.0
 40
0.6439207352590673
100
AcDbArc
 50
104.8029798553479
 51
122.5377559862645
  0
ARC
  5
13AF8
330
BFE6
100
AcDbEntity
 67
     1
  8
文字
100
AcDbCircle
 10
2236.264708376893
 20
28.87953590121469
 30
0.0
 40
0.4425119079487279
100
AcDbArc
 50
122.5377559862645
 51
147.0067324835095
  0
ARC
  5
13AF9
330
BFE6
100
AcDbEntity
 67
     1
  8
文字
100
AcDbCircle
 10
2236.100264682074
 20
28.98629941558147
 30
0.0
 40
0.2464502422267249
100
AcDbArc
 50
147.0067324835095
 51
180.0
  0
ARC
  5
13AFA
330
BFE6
100
AcDbEntity
 67
     1
  8
文字
100
AcDbCircle
 10
2236.100264682074
 20
28.98629941558147
 30
0.0
 40
0.246450242226801
100
AcDbArc
 50
180.0
 51
212.9932675164866
  0
ARC
  5
13AFB
330
BFE6
100
AcDbEntity
 67
     1
  8
文字
100
AcDbCircle
 10
2236.264708376893
 20
29.09306292994847
 30
0.0
 40
0.4425119079488733
100
AcDbArc
 50
212.9932675164905
 51
237.4622440137355
  0
ARC
  5
13AFC
330
BFE6
100
AcDbEntity
 67
     1
  8
文字
100
AcDbCircle
 10
2236.373037173703
 20
29.26285806386022
 30
0.0
 40
0.6439207352589827
100
AcDbArc
 50
237.4622440137355
 51
255.197020144652
  0
ARC
  5
13AFD
330
BFE6
100
AcDbEntity
 67
     1
  8
文字
100
AcDbCircle
 10
2236.444086147928
 20
29.53171102105284
 30
0.0
 40
0.9220032218156865
100
AcDbArc
 50
255.197020144652
 51
258.6369513063841
  0
ARC
  5
13AFE
330
BFE6
100
AcDbEntity
 67
     1
  8
文字
100
AcDbCircle
 10
2236.787907613782
 20
28.98629941558147
 30
0.0
 40
0.246450242226687
100
AcDbArc
 50
337.3805107328442
 51
0.0
  0
LINE
  5
13AFF
330
BFE6
100
AcDbEntity
 67
     1
  8
文字
100
AcDbLine
 10
2234.362647221087
 20
27.21839888036857
 30
0.0
 11
2235.711794078438
 21
27.21839888036857
 31
0.0
  0
LINE
  5
13B00
330
BFE6
100
AcDbEntity
 67
     1
  8
文字
100
AcDbLine
 10
2234.362647221087
 20
27.02955829071789
 30
0.0
 11
2234.362647221087
 21
27.21839888036857
 31
0.0
  0
LINE
  5
13B01
330
BFE6
100
AcDbEntity
 67
     1
  8
文字
100
AcDbLine
 10
2235.711794078438
 20
26.8697662036177
 30
0.0
 11
2235.711794078438
 21
27.21839888036857
 31
0.0
  0
SOLID
  5
13B02
330
BFE6
100
AcDbEntity
 67
     1
  8
文字
100
AcDbTrace
 10
2237.815494424086
 20
29.91750768982183
 30
0.0
 11
2238.383550331621
 21
28.89151235251984
 31
0.0
 12
2238.278250649228
 22
29.36086267437554
 32
0.0
 13
2238.278250649228
 23
29.36086267437554
 33
0.0
  0
SOLID
  5
13B03
330
BFE6
100
AcDbEntity
 67
     1
  8
文字
100
AcDbTrace
 10
2237.173284713064
 20
26.72825481927657
 30
0.0
 11
2238.401343156952
 21
26.44561609391576
 31
0.0
 12
2237.122188301772
 22
26.67479970882027
 32
0.0
 13
2237.994079205637
 23
26.0223275537237
 33
0.0
  0
SOLID
  5
13B04
330
BFE6
100
AcDbEntity
 67
     1
  8
文字
100
AcDbTrace
 10
2237.226402079783
 20
26.83828226262563
 30
0.0
 11
2238.577669275161
 21
26.96772807515163
 31
0.0
 12
2237.173284713064
 22
26.72825481927657
 32
0.0
 13
2238.401343156952
 23
26.44561609391576
 33
0.0
  0
SOLID
  5
13B05
330
BFE6
100
AcDbEntity
 67
     1
  8
文字
100
AcDbTrace
 10
2237.210094299425
 20
26.9657491182129
 30
0.0
 11
2238.471017045692
 21
27.46480670495248
 31
0.0
 12
2237.226402079783
 22
26.83828226262563
 32
0.0
 13
2238.577669275161
 23
26.96772807515163
 33
0.0
  0
SOLID
  5
13B06
330
BFE6
100
AcDbEntity
 67
     1
  8
文字
100
AcDbTrace
 10
2237.089518293756
 20
27.10356408295729
 30
0.0
 11
2238.016433655443
 21
27.98982257284615
 31
0.0
 12
2237.210094299425
 22
26.9657491182129
 32
0.0
 13
2238.471017045692
 23
27.46480670495248
 33
0.0
  0
SOLID
  5
13B07
330
BFE6
100
AcDbEntity
 67
     1
  8
文字
100
AcDbTrace
 10
2238.383550331621
 20
28.89151235251984
 30
0.0
 11
2237.015400766582
 21
28.89151235251984
 31
0.0
 12
2237.815494424086
 22
29.91750768982183
 32
0.0
 13
2236.791510785861
 23
29.29133375712172
 33
0.0
  0
LINE
  5
13B08
330
BFE6
100
AcDbEntity
 67
     1
  8
文字
100
AcDbLine
 10
2237.015400766582
 20
28.89151235251984
 30
0.0
 11
2238.383550331621
 21
28.89151235251984
 31
0.0
  0
ARC
  5
13B09
330
BFE6
100
AcDbEntity
 67
     1
  8
文字
100
AcDbCircle
 10
2237.284887246999
 20
28.89151235251984
 30
0.0
 40
1.098663084622823
100
AcDbArc
 50
0.0
 51
28.97168721349529
  0
ARC
  5
13B0A
330
BFE6
100
AcDbEntity
 67
     1
  8
文字
100
AcDbCircle
 10
2236.880348254133
 20
28.66753398110745
 30
0.0
 40
1.561067785733397
100
AcDbArc
 50
28.97168721349529
 51
53.19863737908722
  0
ARC
  5
13B0B
330
BFE6
100
AcDbEntity
 67
     1
  8
文字
100
AcDbCircle
 10
2237.049578994928
 20
26.68984261892433
 30
0.0
 40
1.620109815771092
100
AcDbArc
 50
31.31771708329941
 51
55.75346293909732
  0
ARC
  5
13B0C
330
BFE6
100
AcDbEntity
 67
     1
  8
文字
100
AcDbCircle
 10
2237.049578994928
 20
27.33863875064071
 30
0.0
 40
1.620109815771097
100
AcDbArc
 50
304.2465370609027
 51
328.6822829167006
  0
SOLID
  5
13B0D
330
BFE6
100
AcDbEntity
 67
     1
  8
文字
100
AcDbTrace
 10
2246.106722412273
 20
30.27176795380024
 30
0.0
 11
2247.552285779002
 21
28.02311382777862
 31
0.0
 12
2247.524672187573
 22
30.27176795380024
 32
0.0
 13
2248.294326980877
 23
28.95649877815868
 33
0.0
  0
SOLID
  5
13B0E
330
BFE6
100
AcDbEntity
 67
     1
  8
文字
100
AcDbTrace
 10
2246.416485990858
 20
26.25631415733278
 30
0.0
 11
2247.552285779002
 21
28.02311382777862
 31
0.0
 12
2247.5219499385
 22
25.77445970175677
 32
0.0
 13
2248.252976015538
 23
27.11773866349904
 33
0.0
  0
SOLID
  5
13B0F
330
BFE6
100
AcDbEntity
 67
     1
  8
文字
100
AcDbTrace
 10
2246.416485990858
 20
26.25631415733278
 30
0.0
 11
2245.143013501121
 21
25.77445970175677
 31
0.0
 12
2247.5219499385
 22
25.77445970175677
 32
0.0
 13
2247.5219499385
 23
25.77445970175677
 33
0.0
  0
SOLID
  5
13B10
330
BFE6
100
AcDbEntity
 67
     1
  8
文字
100
AcDbTrace
 10
2244.259613665899
 20
28.6655864352133
 30
0.0
 11
2244.982395349263
 21
30.27176795380024
 31
0.0
 12
2245.143013501121
 22
25.77445970175677
 32
0.0
 13
2246.416485990858
 23
26.25631415733278
 33
0.0
  0
SOLID
  5
13B11
330
BFE6
100
AcDbEntity
 67
     1
  8
文字
100
AcDbTrace
 10
2243.536831982535
 20
30.27176795380024
 30
0.0
 11
2241.930650463948
 21
25.77445970175677
 31
0.0
 12
2244.982395349263
 22
30.27176795380024
 32
0.0
 13
2243.376213830676
 23
25.77445970175677
 33
0.0
  0
SOLID
  5
13B12
330
BFE6
100
AcDbEntity
 67
     1
  8
文字
100
AcDbTrace
 10
2241.848003111033
 20
27.28277925806287
 30
0.0
 11
2241.222580345924
 21
28.21690939659493
 31
0.0
 12
2241.430918786576
 22
27.22002306848503
 32
0.0
 13
2241.058786638476
 23
28.18387066366404
 33
0.0
  0
SOLID
  5
13B13
330
BFE6
100
AcDbEntity
 67
     1
  8
文字
100
AcDbTrace
 10
2242.262339310534
 20
27.59078338336781
 30
0.0
 11
2241.403813735448
 21
28.34230110277076
 31
0.0
 12
2241.848003111033
 22
27.28277925806287
 32
0.0
 13
2241.222580345924
 23
28.21690939659493
 33
0.0
  0
SOLID
  5
13B14
330
BFE6
100
AcDbEntity
 67
     1
  8
文字
100
AcDbTrace
 10
2242.494635118103
 20
27.97493108464437
 30
0.0
 11
2241.470313189782
 21
28.43655194140501
 31
0.0
 12
2242.262339310534
 22
27.59078338336781
 32
0.0
 13
2241.403813735448
 23
28.34230110277076
 33
0.0
  0
SOLID
  5
13B15
330
BFE6
100
AcDbEntity
 67
     1
  8
文字
100
AcDbTrace
 10
2242.625748589214
 20
28.63504560156002
 30
0.0
 11
2241.527089036841
 21
28.63440056767649
 31
0.0
 12
2242.494635118103
 22
27.97493108464437
 32
0.0
 13
2241.470313189782
 23
28.43655194140501
 33
0.0
  0
SOLID
  5
13B16
330
BFE6
100
AcDbEntity
 67
     1
  8
文字
100
AcDbTrace
 10
2242.547160180769
 20
29.20705074250873
 30
0.0
 11
2241.484783473064
 21
28.86546310998301
 31
0.0
 12
2242.625748589214
 22
28.63504560156002
 32
0.0
 13
2241.527089036841
 23
28.63440056767649
 33
0.0
  0
SOLID
  5
13B17
330
BFE6
100
AcDbEntity
 67
     1
  8
文字
100
AcDbTrace
 10
2242.265082378807
 20
29.73716519411255
 30
0.0
 11
2241.416554937362
 21
28.97417528121355
 31
0.0
 12
2242.547160180769
 22
29.20705074250873
 32
0.0
 13
2241.484783473064
 23
28.86546310998301
 33
0.0
  0
SOLID
  5
13B18
330
BFE6
100
AcDbEntity
 67
     1
  8
文字
100
AcDbTrace
 10
2241.841512215174
 20
30.05101975561365
 30
0.0
 11
2241.316143440532
 21
29.06505177837789
 31
0.0
 12
2242.265082378807
 22
29.73716519411255
 32
0.0
 13
2241.416554937362
 23
28.97417528121355
 33
0.0
  0
SOLID
  5
13B19
330
BFE6
100
AcDbEntity
 67
     1
  8
文字
100
AcDbTrace
 10
2241.076723557458
 20
30.11114980194156
 30
0.0
 11
2241.154177544463
 21
29.13537607496596
 31
0.0
 12
2241.841512215174
 22
30.05101975561365
 32
0.0
 13
2241.316143440532
 23
29.06505177837789
 33
0.0
  0
ARC
  5
13B1A
330
BFE6
100
AcDbEntity
 67
     1
  8
文字
100
AcDbCircle
 10
2241.529105084301
 20
29.26952532239466
 30
0.0
 40
0.8416244795470437
100
AcDbArc
 50
90.0
 51
90.3965664695486
  0
ARC
  5
13B1B
330
BFE6
100
AcDbEntity
 67
     1
  8
文字
100
AcDbCircle
 10
2241.529105084301
 20
28.06164754803194
 30
0.0
 40
0.8416244795469753
100
AcDbArc
 50
269.6034335304514
 51
270.0
  0
ARC
  5
13B1C
330
BFE6
100
AcDbEntity
 67
     1
  8
文字
100
AcDbCircle
 10
2241.529105084301
 20
28.06164754803194
 30
0.0
 40
0.8416244795470166
100
AcDbArc
 50
270.0
 51
298.6293287668244
  0
ARC
  5
13B1D
330
BFE6
100
AcDbEntity
 67
     1
  8
文字
100
AcDbCircle
 10
2241.370399029031
 20
28.35238084758385
 30
0.0
 40
1.172854706801952
100
AcDbArc
 50
298.6293287668244
 51
322.8088829497902
  0
ARC
  5
13B1E
330
BFE6
100
AcDbEntity
 67
     1
  8
文字
100
AcDbCircle
 10
2241.120660033753
 20
28.54188204340107
 30
0.0
 40
1.486351547262469
100
AcDbArc
 50
322.8088829497902
 51
342.5518580247065
  0
ARC
  5
13B1F
330
BFE6
100
AcDbEntity
 67
     1
  8
文字
100
AcDbCircle
 10
2240.72707805114
 20
28.6655864352133
 30
0.0
 40
1.898916152616918
100
AcDbArc
 50
342.5518580247065
 51
0.0
  0
ARC
  5
13B20
330
BFE6
100
AcDbEntity
 67
     1
  8
文字
100
AcDbCircle
 10
2240.72707805114
 20
28.6655864352133
 30
0.0
 40
1.898916152617009
100
AcDbArc
 50
0.0
 51
17.44814197529331
  0
ARC
  5
13B21
330
BFE6
100
AcDbEntity
 67
     1
  8
文字
100
AcDbCircle
 10
2241.120660033753
 20
28.78929082702552
 30
0.0
 40
1.486351547262538
100
AcDbArc
 50
17.44814197529331
 51
37.19111705020978
  0
ARC
  5
13B22
330
BFE6
100
AcDbEntity
 67
     1
  8
文字
100
AcDbCircle
 10
2241.370399029031
 20
28.97879202284275
 30
0.0
 40
1.172854706802003
100
AcDbArc
 50
37.19111705020978
 51
61.37067123317567
  0
ARC
  5
13B23
330
BFE6
100
AcDbEntity
 67
     1
  8
文字
100
AcDbCircle
 10
2241.529105084301
 20
29.26952532239466
 30
0.0
 40
0.8416244795470441
100
AcDbArc
 50
61.37067123317567
 51
90.0
  0
ARC
  5
13B24
330
BFE6
100
AcDbEntity
 67
     1
  8
文字
100
AcDbCircle
 10
2241.047250628725
 20
28.66757757337223
 30
0.0
 40
0.4798633174172086
100
AcDbArc
 50
90.0
 51
90.4991978431114
  0
ARC
  5
13B25
330
BFE6
100
AcDbEntity
 67
     1
  8
文字
100
AcDbCircle
 10
2241.047250628725
 20
28.66359529705437
 30
0.0
 40
0.4798633174172086
100
AcDbArc
 50
269.5008021568885
 51
270.0
  0
ARC
  5
13B26
330
BFE6
100
AcDbEntity
 67
     1
  8
文字
100
AcDbCircle
 10
2241.047250628725
 20
28.6635952970546
 30
0.0
 40
0.4798633174172999
100
AcDbArc
 50
270.0
 51
292.5424468031108
  0
ARC
  5
13B27
330
BFE6
100
AcDbEntity
 67
     1
  8
文字
100
AcDbCircle
 10
2241.046848662922
 20
28.66456369853495
 30
0.0
 40
0.4809118296652413
100
AcDbArc
 50
292.5424468031108
 51
315.0599843950754
  0
ARC
  5
13B28
330
BFE6
100
AcDbEntity
 67
     1
  8
文字
100
AcDbCircle
 10
2241.04622583206
 20
28.66518522664501
 30
0.0
 40
0.4817917248144167
100
AcDbArc
 50
315.0599843950754
 51
337.542384003886
  0
ARC
  5
13B29
330
BFE6
100
AcDbEntity
 67
     1
  8
文字
100
AcDbCircle
 10
2241.045255198656
 20
28.6655864352133
 30
0.0
 40
0.4828420093090011
100
AcDbArc
 50
337.542384003886
 51
0.0
  0
ARC
  5
13B2A
330
BFE6
100
AcDbEntity
 67
     1
  8
文字
100
AcDbCircle
 10
2241.045255198656
 20
28.6655864352133
 30
0.0
 40
0.4828420093089823
100
AcDbArc
 50
0.0
 51
22.45761599611397
  0
ARC
  5
13B2B
330
BFE6
100
AcDbEntity
 67
     1
  8
文字
100
AcDbCircle
 10
2241.04622583206
 20
28.66598764378159
 30
0.0
 40
0.4817917248143846
100
AcDbArc
 50
22.45761599612168
 51
44.94001560492463
  0
ARC
  5
13B2C
330
BFE6
100
AcDbEntity
 67
     1
  8
文字
100
AcDbCircle
 10
2241.046848662922
 20
28.66660917189188
 30
0.0
 40
0.480911829665131
100
AcDbArc
 50
44.94001560492463
 51
67.45755319688922
  0
ARC
  5
13B2D
330
BFE6
100
AcDbEntity
 67
     1
  8
文字
100
AcDbCircle
 10
2241.047250628725
 20
28.66757757337223
 30
0.0
 40
0.4798633174171355
100
AcDbArc
 50
67.45755319688922
 51
90.0
  0
LINE
  5
13B2E
330
BFE6
100
AcDbEntity
 67
     1
  8
文字
100
AcDbLine
 10
2243.536831982535
 20
30.27176795380024
 30
0.0
 11
2244.982395349263
 21
30.27176795380024
 31
0.0
  0
LINE
  5
13B2F
330
BFE6
100
AcDbEntity
 67
     1
  8
文字
100
AcDbLine
 10
2241.930650463948
 20
25.77445970175677
 30
0.0
 11
2243.376213830676
 21
25.77445970175677
 31
0.0
  0
LINE
  5
13B30
330
BFE6
100
AcDbEntity
 67
     1
  8
文字
100
AcDbLine
 10
2243.536831982535
 20
30.27176795380024
 30
0.0
 11
2241.930650463948
 21
25.77445970175677
 31
0.0
  0
LINE
  5
13B31
330
BFE6
100
AcDbEntity
 67
     1
  8
文字
100
AcDbLine
 10
2244.982395349263
 20
30.27176795380024
 30
0.0
 11
2246.416485990858
 21
26.25631415733278
 31
0.0
  0
LINE
  5
13B32
330
BFE6
100
AcDbEntity
 67
     1
  8
文字
100
AcDbLine
 10
2244.259613665899
 20
28.6655864352133
 30
0.0
 11
2243.376213830676
 21
25.77445970175677
 31
0.0
  0
LINE
  5
13B33
330
BFE6
100
AcDbEntity
 67
     1
  8
文字
100
AcDbLine
 10
2244.259613665899
 20
28.6655864352133
 30
0.0
 11
2245.143013501121
 21
25.77445970175677
 31
0.0
  0
LINE
  5
13B34
330
BFE6
100
AcDbEntity
 67
     1
  8
文字
100
AcDbLine
 10
2246.106722412273
 20
30.27176795380024
 30
0.0
 11
2247.524672187573
 21
30.27176795380024
 31
0.0
  0
LINE
  5
13B35
330
BFE6
100
AcDbEntity
 67
     1
  8
文字
100
AcDbLine
 10
2245.143013501121
 20
25.77445970175677
 30
0.0
 11
2247.5219499385
 21
25.77445970175677
 31
0.0
  0
LINE
  5
13B36
330
BFE6
100
AcDbEntity
 67
     1
  8
文字
100
AcDbLine
 10
2246.106722412273
 20
30.27176795380024
 30
0.0
 11
2247.552285779002
 21
28.02311382777862
 31
0.0
  0
LINE
  5
13B37
330
BFE6
100
AcDbEntity
 67
     1
  8
文字
100
AcDbLine
 10
2247.552285779002
 20
28.02311382777862
 30
0.0
 11
2246.416485990858
 21
26.25631415733278
 31
0.0
  0
LINE
  5
13B38
330
BFE6
100
AcDbEntity
 67
     1
  8
文字
100
AcDbLine
 10
2247.523952940642
 20
30.27299708058081
 30
0.0
 11
2248.294326980877
 21
28.95649877815868
 31
0.0
  0
LINE
  5
13B39
330
BFE6
100
AcDbEntity
 67
     1
  8
文字
100
AcDbLine
 10
2248.252976015538
 20
27.11773866349904
 30
0.0
 11
2247.5219499385
 21
25.77445970175677
 31
0.0
  0
SOLID
  5
13B3A
330
BFE6
100
AcDbEntity
 67
     1
  8
文字
100
AcDbTrace
 10
2247.552285779002
 20
28.02311382777862
 30
0.0
 11
2248.294326980877
 21
28.95649877815868
 31
0.0
 12
2248.252976015538
 22
27.11773866349904
 32
0.0
 13
2248.99784914573
 23
28.02311382777862
 33
0.0
  0
SOLID
  5
13B3B
330
BFE6
100
AcDbEntity
 67
     1
  8
文字
100
AcDbTrace
 10
2249.028184986232
 20
25.77445970175677
 30
0.0
 11
2248.252976015538
 21
27.11773866349904
 31
0.0
 12
2250.443412512459
 22
25.77445970175677
 32
0.0
 13
2248.99784914573
 23
28.02311382777862
 33
0.0
  0
SOLID
  5
13B3C
330
BFE6
100
AcDbEntity
 67
     1
  8
文字
100
AcDbTrace
 10
2249.008252204173
 20
30.27176795380024
 30
0.0
 11
2248.294326980877
 21
28.95649877815868
 31
0.0
 12
2250.443412512459
 22
30.27176795380024
 32
0.0
 13
2248.99784914573
 23
28.02311382777862
 33
0.0
  0
LINE
  5
13B3D
330
BFE6
100
AcDbEntity
 67
     1
  8
文字
100
AcDbLine
 10
2249.008252204173
 20
30.27176795380024
 30
0.0
 11
2248.294326980877
 21
28.95649877815868
 31
0.0
  0
LINE
  5
13B3E
330
BFE6
100
AcDbEntity
 67
     1
  8
文字
100
AcDbLine
 10
2248.252976015538
 20
27.11773866349904
 30
0.0
 11
2249.028184986232
 21
25.77445970175677
 31
0.0
  0
LINE
  5
13B3F
330
BFE6
100
AcDbEntity
 67
     1
  8
文字
100
AcDbLine
 10
2221.18674863973
 20
30.11114980194156
 30
0.0
 11
2221.18674863973
 21
27.22002306848503
 31
0.0
  0
LINE
  5
13B40
330
BFE6
100
AcDbEntity
 67
     1
  8
文字
100
AcDbLine
 10
2222.015605614565
 20
26.90432575723412
 30
0.0
 11
2222.015605614565
 21
26.67907096295926
 31
0.0
  0
LINE
  5
13B41
330
BFE6
100
AcDbEntity
 67
     1
  8
文字
100
AcDbLine
 10
2225.62790805029
 20
30.11114980194156
 30
0.0
 11
2225.62790805029
 21
25.77445970175677
 31
0.0
  0
LINE
  5
13B42
330
BFE6
100
AcDbEntity
 67
     1
  8
文字
100
AcDbLine
 10
2228.519034783746
 20
30.11114980194156
 30
0.0
 11
2228.519034783746
 21
25.77445970175677
 31
0.0
  0
LINE
  5
13B43
330
BFE6
100
AcDbEntity
 67
     1
  8
文字
100
AcDbLine
 10
2229.402434618969
 20
30.11114980194156
 30
0.0
 11
2229.402434618969
 21
25.77445970175677
 31
0.0
  0
LINE
  5
13B44
330
BFE6
100
AcDbEntity
 67
     1
  8
文字
100
AcDbLine
 10
2225.62790805029
 20
28.05132418010999
 30
0.0
 11
2228.519034783746
 21
28.05132418010999
 31
0.0
  0
LINE
  5
13B45
330
BFE6
100
AcDbEntity
 67
     1
  8
文字
100
AcDbLine
 10
2222.97257926842
 20
28.09333744371997
 30
0.0
 11
2223.833304102363
 21
27.89362439614956
 31
0.0
  0
ARC
  5
13B46
330
BFE6
100
AcDbEntity
 67
     1
  8
文字
100
AcDbCircle
 10
2222.945136978776
 20
26.73475656616824
 30
0.0
 40
0.9295313642105705
100
AcDbArc
 50
180.0
 51
208.0057214144352
  0
ARC
  5
13B47
330
BFE6
100
AcDbEntity
 67
     1
  8
文字
100
AcDbCircle
 10
2223.228629008558
 20
26.88552826626619
 30
0.0
 40
1.250622996770875
100
AcDbArc
 50
208.0057214144095
 51
232.087301109356
  0
ARC
  5
13B48
330
BFE6
100
AcDbEntity
 67
     1
  8
文字
100
AcDbCircle
 10
2223.413117916845
 20
27.12240637382047
 30
0.0
 40
1.55086855480544
100
AcDbArc
 50
232.087301109356
 51
252.1200951426887
  0
ARC
  5
13B49
330
BFE6
100
AcDbEntity
 67
     1
  8
文字
100
AcDbCircle
 10
2223.53344714963
 20
27.49540007412861
 30
0.0
 40
1.942791282817221
100
AcDbArc
 50
252.1200951426887
 51
270.0
  0
ARC
  5
13B4A
330
BFE6
100
AcDbEntity
 67
     1
  8
文字
100
AcDbCircle
 10
2223.53344714963
 20
27.49540007412861
 30
0.0
 40
1.942791282817162
100
AcDbArc
 50
270.0
 51
287.8799048573113
  0
ARC
  5
13B4B
330
BFE6
100
AcDbEntity
 67
     1
  8
文字
100
AcDbCircle
 10
2223.653776382415
 20
27.12240637382024
 30
0.0
 40
1.550868554805371
100
AcDbArc
 50
287.8799048573113
 51
307.912698890644
  0
ARC
  5
13B4C
330
BFE6
100
AcDbEntity
 67
     1
  8
文字
100
AcDbCircle
 10
2223.838265290702
 20
26.88552826626642
 30
0.0
 40
1.250622996771017
100
AcDbArc
 50
307.912698890644
 51
331.9942785855648
  0
ARC
  5
13B4D
330
BFE6
100
AcDbEntity
 67
     1
  8
文字
100
AcDbCircle
 10
2224.121757320484
 20
26.73475656616824
 30
0.0
 40
0.9295313642106091
100
AcDbArc
 50
331.9942785855648
 51
0.0
  0
ARC
  5
13B4E
330
BFE6
100
AcDbEntity
 67
     1
  8
文字
100
AcDbCircle
 10
2224.121757320484
 20
26.73475656616824
 30
0.0
 40
0.9295313642105705
100
AcDbArc
 50
0.0
 51
28.00572141443518
  0
ARC
  5
13B4F
330
BFE6
100
AcDbEntity
 67
     1
  8
文字
100
AcDbCircle
 10
2223.838265290702
 20
26.58398486607007
 30
0.0
 40
1.250622996770959
100
AcDbArc
 50
28.00572141443518
 51
52.08730110935603
  0
ARC
  5
13B50
330
BFE6
100
AcDbEntity
 67
     1
  8
文字
100
AcDbCircle
 10
2223.653776382415
 20
26.34710675851602
 30
0.0
 40
1.550868554805375
100
AcDbArc
 50
52.08730110935603
 51
72.1200951426887
  0
ARC
  5
13B51
330
BFE6
100
AcDbEntity
 67
     1
  8
文字
100
AcDbCircle
 10
2223.53344714963
 20
25.97411305820788
 30
0.0
 40
1.942791282817162
100
AcDbArc
 50
72.1200951426887
 51
81.12128416944603
  0
ARC
  5
13B52
330
BFE6
100
AcDbEntity
 67
     1
  8
文字
100
AcDbCircle
 10
2222.831430827408
 20
29.12128569894526
 30
0.0
 40
0.8158252128423871
100
AcDbArc
 50
180.0
 51
209.6367492217114
  0
ARC
  5
13B53
330
BFE6
100
AcDbEntity
 67
     1
  8
文字
100
AcDbCircle
 10
2223.168845997579
 20
29.31325055464617
 30
0.0
 40
1.204025551438954
100
AcDbArc
 50
209.6367492217114
 51
233.9431336555642
  0
ARC
  5
13B54
330
BFE6
100
AcDbEntity
 67
     1
  8
文字
100
AcDbCircle
 10
2223.38933240557
 20
29.61609152554411
 30
0.0
 40
1.578627886939834
100
AcDbArc
 50
233.9431336555642
 51
253.2181415782111
  0
ARC
  5
13B55
330
BFE6
100
AcDbEntity
 67
     1
  8
文字
100
AcDbCircle
 10
2223.53344714963
 20
30.09396938277473
 30
0.0
 40
2.077763445567843
100
AcDbArc
 50
253.2181415782111
 51
259.5343478066429
  0
ARC
  5
13B56
330
BFE6
100
AcDbEntity
 67
     1
  8
文字
100
AcDbCircle
 10
2224.235463471852
 20
29.12128569894526
 30
0.0
 40
0.8158252128425213
100
AcDbArc
 50
6.15850260846281
 51
29.63674922171137
  0
ARC
  5
13B57
330
BFE6
100
AcDbEntity
 67
     1
  8
文字
100
AcDbCircle
 10
2223.89804830168
 20
28.92932084324411
 30
0.0
 40
1.204025551439257
100
AcDbArc
 50
29.63674922171137
 51
53.94313365556423
  0
ARC
  5
13B58
330
BFE6
100
AcDbEntity
 67
     1
  8
文字
100
AcDbCircle
 10
2223.67756189369
 20
28.62647987234641
 30
0.0
 40
1.578627886939916
100
AcDbArc
 50
53.94313365556423
 51
73.21814157821109
  0
ARC
  5
13B59
330
BFE6
100
AcDbEntity
 67
     1
  8
文字
100
AcDbCircle
 10
2223.53344714963
 20
28.14860201511578
 30
0.0
 40
2.077763445567933
100
AcDbArc
 50
73.21814157821109
 51
90.0
  0
ARC
  5
13B5A
330
BFE6
100
AcDbEntity
 67
     1
  8
文字
100
AcDbCircle
 10
2223.53344714963
 20
28.14860201511601
 30
0.0
 40
2.077763445567762
100
AcDbArc
 50
90.0
 51
106.7818584217889
  0
ARC
  5
13B5B
330
BFE6
100
AcDbEntity
 67
     1
  8
文字
100
AcDbCircle
 10
2223.38933240557
 20
28.62647987234641
 30
0.0
 40
1.578627886939828
100
AcDbArc
 50
106.7818584217889
 51
126.0568663444358
  0
ARC
  5
13B5C
330
BFE6
100
AcDbEntity
 67
     1
  8
文字
100
AcDbCircle
 10
2223.168845997579
 20
28.92932084324434
 30
0.0
 40
1.204025551439055
100
AcDbArc
 50
126.0568663444358
 51
150.3632507782886
  0
ARC
  5
13B5D
330
BFE6
100
AcDbEntity
 67
     1
  8
文字
100
AcDbCircle
 10
2222.831430827408
 20
29.12128569894526
 30
0.0
 40
0.8158252128424722
100
AcDbArc
 50
150.3632507782886
 51
180.0
  0
LINE
  5
13B5E
330
BFE6
100
AcDbEntity
 67
     1
  8
文字
100
AcDbLine
 10
2218.135003754414
 20
30.11114980194156
 30
0.0
 11
2218.135003754414
 21
27.22002306848503
 31
0.0
  0
LWPOLYLINE
  5
13B5F
330
BFE6
100
AcDbEntity
 67
     1
  8
文字
100
AcDbPolyline
 90
        9
 70
     0
 43
0.0
 10
2218.135003754414
 20
27.22002306848503
 42
0.0923219353436481
 10
2218.252733410968
 20
26.58785365902213
 42
0.0957182338510311
 10
2218.581921445643
 20
26.06173780533254
 42
0.1009485239107641
 10
2219.082291084771
 20
25.70480108605898
 42
0.1049860968126234
 10
2219.660876197072
 20
25.58196034023808
 42
0.104986096812617
 10
2220.239461309373
 20
25.70480108605898
 42
0.1009485239107563
 10
2220.739830948501
 20
26.06173780533254
 42
0.0957182338510336
 10
2221.069018983175
 20
26.58785365902213
 42
0.0923219353436505
 10
2221.18674863973
 20
27.22002306848503
 42
0.0923219353436547
  0
TEXT
  5
13B60
330
BFE6
100
AcDbEntity
 67
     1
  8
文字
100
AcDbText
 10
2217.916383329853
 20
22.57520439636392
 30
0.0
 40
2.321460776907874
  1
株式会社ウシオスペックス
 72
     1
 11
2234.243990794105
 21
22.57520439636392
 31
0.0
100
AcDbText
  0
LWPOLYLINE
  5
13B61
330
BFE6
100
AcDbEntity
 67
     1
  8
文字
100
AcDbPolyline
 90
       16
 70
     1
 43
0.0
 10
2232.128451435664
 20
30.27176795380024
 42
0.1206879656732585
 10
2231.442770059384
 20
30.1038146346375
 42
0.1050859555082978
 10
2230.81955657431
 20
29.58963042508276
 42
0.0886109863889524
 10
2230.423905678396
 20
28.85636101304431
 42
0.0796781609300725
 10
2230.277394571017
 20
27.94280475184928
 42
0.0796781609300792
 10
2230.423905678396
 20
27.02924849065403
 42
0.0886109863889567
 10
2230.81955657431
 20
26.29597907861557
 42
0.1050859555082907
 10
2231.442770059384
 20
25.78179486906083
 42
0.1206879656732598
 10
2232.128451435664
 20
25.6138415498981
 42
0.1206879656732597
 10
2232.814132811945
 20
25.78179486906083
 42
0.1050859555083005
 10
2233.437346297019
 20
26.29597907861557
 42
0.0886109863889622
 10
2233.832997192933
 20
27.02924849065403
 42
0.0796781609300822
 10
2233.979508300313
 20
27.94280475184928
 42
0.079678160930075
 10
2233.832997192933
 20
28.85636101304431
 42
0.0886109863889625
 10
2233.437346297019
 20
29.58963042508276
 42
0.1050859555083039
 10
2232.814132811945
 20
30.1038146346375
 42
0.1206879656732544
  0
VIEWPORT
  5
16C79
102
{ACAD_XDICTIONARY
360
66CD0
102
}
330
BFE6
100
AcDbEntity
 67
     1
  8
ﾋﾞｭｰﾎﾟｰﾄ
 48
2.0
100
AcDbViewport
 10
1982.124860808844
 20
88.55773909383709
 30
0.0
 40
174.0892799188889
 41
94.65930358363607
 68
     3
 69
     3
 12
-1406.536863354748
 22
3213.00911097305
 13
0.0
 23
0.0
 14
10.0
 24
10.0
 15
0.0
 25
0.0
 16
0.0
 26
0.0
 36
1.0
 17
0.0
 27
0.0
 37
0.0
 42
50.0
 43
0.0
 44
0.0
 45
47.32965271733263
 50
0.0
 51
0.0
 72
   100
 90
    32800
  1

281
     0
 71
     1
 74
     0
110
0.0
120
0.0
130
0.0
111
1.0
121
0.0
131
0.0
112
0.0
122
1.0
132
0.0
 79
     0
146
0.0
  0
MTEXT
  5
176D5
330
BFE6
100
AcDbEntity
 67
     1
  8
文字
 48
2.0
100
AcDbMText
 10
1967.323199590525
 20
37.49572142104614
 30
0.0
 40
3.5
 41
71.75893426363609
 71
     1
 72
     5
  1
ネジ部断面詳細 S=2/1
  7
ROMANS
 73
     1
 44
1.0
  0
LWPOLYLINE
  5
176D6
330
BFE6
100
AcDbEntity
 67
     1
  8
文字
 48
2.0
100
AcDbPolyline
 90
        4
 70
     1
 43
0.0
 10
1964.738418454562
 20
38.51977812531788
 10
2018.755130871589
 20
38.51977812531788
 10
2018.755130871589
 20
30.94856862843301
 10
1964.738418454562
 20
30.94856862843301
  0
MTEXT
  5
17E41
330
BFE6
100
AcDbEntity
 67
     1
  8
文字
 48
10.0
100
AcDbMText
 10
2255.5367742941
 20
44.06947864621441
 30
0.0
 40
2.3
 41
43.52883771757843
 71
     1
 72
     5
  1
2/1
  7
ROMANS
 73
     1
 44
1.0
  0
ENDSEC
  0
SECTION
  2
OBJECTS
  0
DICTIONARY
  5
C
330
0
100
AcDbDictionary
281
     1
  3
ACAD_GROUP
350
D
  3
ACAD_IMAGE_VARS
350
66CD7
  3
ACAD_LAYOUT
350
1A
  3
ACAD_MLINESTYLE
350
17
  3
ACAD_PLOTSETTINGS
350
19
  3
ACAD_PLOTSTYLENAME
350
E
  3
ACAD_SCALELIST
350
27D00
  3
AcadDim
350
27B93
  3
AcDbVariableDictionary
350
BA
  3
APPDATA
350
66CD6
  3
CONTENTDICTIONARY
350
384
  3
DRAWINGVARIABLESDICT
350
5C6
  3
DWGPROPS
350
66CFF
  0
DICTIONARY
  5
10AC0
330
2
100
AcDbDictionary
280
     1
281
     1
  3
ACAD_LAYERSTATES
360
10AC1
  0
DICTIONARY
  5
27D34
330
10
100
AcDbDictionary
280
     1
281
     1
  3
ADSK_XREC_LAYER_RECONCILED
360
27D35
  0
DICTIONARY
  5
27D3C
330
29A
100
AcDbDictionary
280
     1
281
     1
  3
ADSK_XREC_LAYER_RECONCILED
360
27D3D
  0
DICTIONARY
  5
27D42
330
8CA
100
AcDbDictionary
280
     1
281
     1
  3
ADSK_XREC_LAYER_RECONCILED
360
27D43
  0
DICTIONARY
  5
27D48
330
C023
100
AcDbDictionary
280
     1
281
     1
  3
ADSK_XREC_LAYER_RECONCILED
360
27D49
  0
DICTIONARY
  5
27D4A
330
EADE
100
AcDbDictionary
280
     1
281
     1
  3
ADSK_XREC_LAYER_RECONCILED
360
27D4B
  0
DICTIONARY
  5
27D4E
330
F2F7
100
AcDbDictionary
280
     1
281
     1
  3
ADSK_XREC_LAYER_RECONCILED
360
27D4F
  0
DICTIONARY
  5
27D54
330
10765
100
AcDbDictionary
280
     1
281
     1
  3
ADSK_XREC_LAYER_RECONCILED
360
27D55
  0
DICTIONARY
  5
27D6A
330
1B577
100
AcDbDictionary
280
     1
281
     1
  3
ADSK_XREC_LAYER_RECONCILED
360
27D6B
  0
DICTIONARY
  5
27D70
330
1BA0F
100
AcDbDictionary
280
     1
281
     1
  3
ADSK_XREC_LAYER_RECONCILED
360
27D71
  0
DICTIONARY
  5
33D
330
1F
100
AcDbDictionary
280
     1
281
     1
  3
ACAD_SORTENTS
360
A3BA
  0
DICTIONARY
  5
66CCC
330
BFE7
100
AcDbDictionary
280
     1
281
     1
  3
ACAD_XREC_ROUNDTRIP
360
66CCD
  0
DICTIONARY
  5
66CCE
330
124CD
100
AcDbDictionary
280
     1
281
     1
  3
ACAD_XREC_ROUNDTRIP
360
66CCF
  0
DICTIONARY
  5
66CD0
330
16C79
100
AcDbDictionary
280
     1
281
     1
  3
ACAD_XREC_ROUNDTRIP
360
66CD1
  0
DICTIONARY
  5
D
102
{ACAD_REACTORS
330
C
102
}
330
C
100
AcDbDictionary
281
     1
  0
RASTERVARIABLES
  5
66CD7
102
{ACAD_REACTORS
330
C
102
}
330
C
100
AcDbRasterVariables
 90
        0
 70
     1
 71
     1
 72
     1
  0
DICTIONARY
  5
1A
102
{ACAD_REACTORS
330
C
102
}
330
C
100
AcDbDictionary
281
     1
  3
Model
350
22
  3
ﾚｲｱｳﾄ1
350
BFE5
  0
DICTIONARY
  5
17
102
{ACAD_REACTORS
330
C
102
}
330
C
100
AcDbDictionary
281
     1
  3
Standard
350
18
  0
DICTIONARY
  5
19
102
{ACAD_REACTORS
330
C
102
}
330
C
100
AcDbDictionary
281
     1
  0
ACDBDICTIONARYWDFLT
  5
E
102
{ACAD_REACTORS
330
C
102
}
330
C
100
AcDbDictionary
281
     1
  3
Normal
350
F
100
AcDbDictionaryWithDefault
340
F
  0
DICTIONARY
  5
27D00
102
{ACAD_REACTORS
330
C
102
}
330
C
100
AcDbDictionary
281
     1
  3
A0
350
27D01
  3
A1
350
27D02
  3
A2
350
27D03
  3
A3
350
27D04
  3
A4
350
27D05
  3
A5
350
27D06
  3
A6
350
27D07
  3
A7
350
27D08
  3
A8
350
27D09
  3
A9
350
27D0A
  3
B0
350
27D0B
  3
B1
350
27D0C
  3
B2
350
27D0D
  3
B3
350
27D0E
  3
B4
350
27D0F
  3
B5
350
27D10
  3
B6
350
27D11
  3
B7
350
27D12
  3
B8
350
27D13
  3
B9
350
27D14
  3
C0
350
27D15
  3
C1
350
27D16
  3
C2
350
27D17
  3
C3
350
27D18
  3
C4
350
27D19
  3
C5
350
27D1A
  3
C6
350
27D1B
  3
C7
350
27D1C
  3
C8
350
27D1D
  3
C9
350
27D1E
  3
D0
350
27D1F
  3
D1
350
27D20
  3
D2
350
27D21
  0
XRECORD
  5
27B93
102
{ACAD_REACTORS
330
C
102
}
330
C
100
AcDbXrecord
280
     1
 90
   990106
  3

 60
     0
 61
     0
 62
     4
 63
     4
 64
     1
 65
     0
 66
     0
 67
     3
 68
     0
 69
     1
 70
     4
 71
     1
 72
     0
 40
0.0
170
     1
340
44789
  0
DICTIONARY
  5
BA
102
{ACAD_REACTORS
330
C
102
}
330
C
100
AcDbDictionary
281
     1
  3
DIMASSOC
350
10720
  3
INDEXCTL
350
27E26
  3
PROJECTNAME
350
10721
  3
SORTENTS
350
BB
  0
DICTIONARY
  5
66CD6
102
{ACAD_REACTORS
330
C
102
}
330
C
100
AcDbDictionary
281
     1
  0
DICTIONARY
  5
384
102
{ACAD_REACTORS
330
C
102
}
330
C
100
AcDbDictionary
281
     1
  0
DICTIONARY
  5
5C6
102
{ACAD_REACTORS
330
C
102
}
330
C
100
AcDbDictionary
281
     1
1001
DRAWINGVARIABLESXDATA
1000
POLARANG
1000
0.087266462599716474000000
1000
POLARMODE
1000
3
  0
XRECORD
  5
66CFF
102
{ACAD_REACTORS
330
C
102
}
330
C
100
AcDbXrecord
280
     1
  1
DWGPROPS COOKIE
  2

  3

  4

  6

  7

  8
SPAX
  9

300
=
301
=
302
=
303
=
304
=
305
=
306
=
307
=
308
=
309
=
 40
0.0
 41
2451877.405813542
 42
2456822.071019294
  1

 90
        0
  0
DICTIONARY
  5
10AC1
102
{ACAD_REACTORS
330
10AC0
102
}
330
10AC0
100
AcDbDictionary
281
     1
  0
XRECORD
  5
27D35
102
{ACAD_REACTORS
330
27D34
102
}
330
27D34
100
AcDbXrecord
280
     1
290
     1
  0
XRECORD
  5
27D3D
102
{ACAD_REACTORS
330
27D3C
102
}
330
27D3C
100
AcDbXrecord
280
     1
290
     1
  0
XRECORD
  5
27D43
102
{ACAD_REACTORS
330
27D42
102
}
330
27D42
100
AcDbXrecord
280
     1
290
     1
  0
XRECORD
  5
27D49
102
{ACAD_REACTORS
330
27D48
102
}
330
27D48
100
AcDbXrecord
280
     1
290
     1
  0
XRECORD
  5
27D4B
102
{ACAD_REACTORS
330
27D4A
102
}
330
27D4A
100
AcDbXrecord
280
     1
290
     1
  0
XRECORD
  5
27D4F
102
{ACAD_REACTORS
330
27D4E
102
}
330
27D4E
100
AcDbXrecord
280
     1
290
     1
  0
XRECORD
  5
27D55
102
{ACAD_REACTORS
330
27D54
102
}
330
27D54
100
AcDbXrecord
280
     1
290
     1
  0
XRECORD
  5
27D6B
102
{ACAD_REACTORS
330
27D6A
102
}
330
27D6A
100
AcDbXrecord
280
     1
290
     1
  0
XRECORD
  5
27D71
102
{ACAD_REACTORS
330
27D70
102
}
330
27D70
100
AcDbXrecord
280
     1
290
     1
  0
SORTENTSTABLE
  5
A3BA
102
{ACAD_REACTORS
330
33D
102
}
330
33D
100
AcDbSortentsTable
330
1F
331
0
  5
45E38
331
2B
  5
2B
331
BC
  5
BC
331
577D
  5
577D
331
1DD9D
  5
1DD9D
331
206E9
  5
206E9
331
208DB
  5
208DB
331
208DD
  5
208DD
331
208DF
  5
208DF
331
208E1
  5
208E1
331
2409E
  5
2409E
331
24827
  5
24827
331
24835
  5
24835
331
25BAF
  5
25BAF
331
25BB3
  5
25BB3
331
39134
  5
39139
331
395AE
  5
395AE
331
3A44F
  5
3A44F
331
3A452
  5
3A452
331
3A456
  5
3A456
331
3A45E
  5
3A45E
331
44773
  5
44776
331
44777
  5
4477A
331
4477B
  5
4477E
331
4477F
  5
44782
331
44789
  5
4478C
331
61E99
  5
61E99
331
61E9A
  5
61E9A
331
61E9B
  5
61E9B
331
61E9C
  5
61E9C
331
6211F
  5
6211F
331
62154
  5
62154
331
62155
  5
62155
331
62156
  5
62156
331
62157
  5
62157
331
62158
  5
62158
331
62159
  5
62159
331
6215A
  5
6215A
331
6215B
  5
6215B
331
6215C
  5
6215C
331
6215D
  5
6215D
331
6215E
  5
6215E
331
6215F
  5
6215F
331
62160
  5
62160
331
62161
  5
62161
331
62162
  5
62162
331
62163
  5
62163
331
62165
  5
62165
331
62166
  5
62166
331
62167
  5
62167
331
62168
  5
62168
331
62169
  5
62169
331
6216A
  5
6216A
331
6216B
  5
6216B
331
6216C
  5
6216C
331
6216D
  5
6216D
331
6216E
  5
6216E
331
6216F
  5
6216F
331
62170
  5
62170
331
62171
  5
62171
331
62172
  5
62172
331
62173
  5
62173
331
62174
  5
62174
331
62175
  5
62175
331
62176
  5
62176
331
62177
  5
62177
331
62178
  5
62178
331
62179
  5
62179
331
6217A
  5
6217A
331
6217B
  5
6217B
331
6217C
  5
6217C
331
6217D
  5
6217D
331
6217E
  5
6217E
331
6217F
  5
6217F
331
62180
  5
62180
331
62181
  5
62181
331
62182
  5
62182
331
62183
  5
62183
331
62184
  5
62184
331
62185
  5
62185
331
62186
  5
62186
331
62187
  5
62187
331
62188
  5
62188
331
62189
  5
62189
331
6218A
  5
6218A
331
6218B
  5
6218B
331
6218C
  5
6218C
331
6218D
  5
6218D
331
6218E
  5
6218E
331
6218F
  5
6218F
331
62190
  5
62190
331
62191
  5
62191
331
62192
  5
62192
331
62193
  5
62193
331
62194
  5
62194
331
62195
  5
62195
331
62196
  5
62196
331
62197
  5
62197
331
62198
  5
62198
331
62199
  5
62199
331
6219A
  5
6219A
331
6219B
  5
6219B
331
6219C
  5
6219C
331
6219D
  5
6219D
331
6219E
  5
6219E
331
6219F
  5
6219F
331
621A0
  5
621A0
331
621A1
  5
621A1
331
621A2
  5
621A2
331
621A3
  5
621A3
331
621A4
  5
621A4
331
621A5
  5
621A5
331
621A6
  5
621A6
331
621A7
  5
621A7
331
621A8
  5
621A8
331
621A9
  5
621A9
331
621AA
  5
621AA
331
621AB
  5
621AB
331
621AC
  5
621AC
331
621AD
  5
621AD
331
621AE
  5
621AE
331
621AF
  5
621AF
331
621B0
  5
621B0
331
621B1
  5
621B1
331
621B2
  5
621B2
331
621B3
  5
621B3
331
621B4
  5
621B4
331
621B5
  5
621B5
331
621B6
  5
621B6
331
621B7
  5
621B7
331
621B8
  5
621B8
331
621B9
  5
621B9
331
621BA
  5
621BA
331
621BB
  5
621BB
331
621BC
  5
621BC
331
621BD
  5
621BD
331
621BE
  5
621BE
331
621BF
  5
621BF
331
621C0
  5
621C0
331
621C1
  5
621C1
331
621C2
  5
621C2
331
621C3
  5
621C3
331
621C4
  5
621C4
331
621C5
  5
621C5
331
621C6
  5
621C6
331
621C7
  5
621C7
331
621C8
  5
621C8
331
621C9
  5
621C9
331
621CA
  5
621CA
331
621CB
  5
621CB
331
621CC
  5
621CC
331
621CD
  5
621CD
331
621CE
  5
621CE
331
0
  5
62247
331
6245F
  5
62474
331
62460
  5
62475
331
62461
  5
62476
331
62462
  5
62477
331
62463
  5
62478
331
62464
  5
62479
331
62465
  5
6247A
331
62466
  5
6247B
331
62467
  5
6247C
331
62468
  5
6247D
331
62469
  5
6247E
331
6246A
  5
6247F
331
6246B
  5
62480
331
6246C
  5
62481
331
6246D
  5
62482
331
6246E
  5
62483
331
6246F
  5
62484
331
62470
  5
62485
331
62471
  5
62486
331
62472
  5
62487
331
62473
  5
62488
331
62474
  5
62489
331
62475
  5
6248A
331
62476
  5
6248B
331
62477
  5
6248C
331
62478
  5
6248D
331
62479
  5
6248E
331
6247A
  5
6248F
331
6247B
  5
62490
331
6247C
  5
62491
331
6247D
  5
62492
331
6247E
  5
62493
331
6247F
  5
62494
331
62480
  5
62495
331
62481
  5
62496
331
62482
  5
62497
331
62483
  5
62498
331
62484
  5
62499
331
62485
  5
6249A
331
62486
  5
6249B
331
62487
  5
6249C
331
62488
  5
6249D
331
62489
  5
6249E
331
6248A
  5
6249F
331
6248B
  5
624A0
331
6248C
  5
624A1
331
6248D
  5
624A2
331
6248E
  5
624A3
331
6248F
  5
624A4
331
62490
  5
624A5
331
62491
  5
624A6
331
62492
  5
624A7
331
62493
  5
624A8
331
62494
  5
624A9
331
62495
  5
624AA
331
62496
  5
624AB
331
62497
  5
624AC
331
62498
  5
624AD
331
62499
  5
624AE
331
6249A
  5
624AF
331
626F7
  5
62716
331
626F8
  5
62717
331
626F9
  5
62718
331
626FA
  5
62719
331
626FB
  5
6271A
331
626FC
  5
6271B
331
626FD
  5
6271C
331
626FE
  5
6271D
331
626FF
  5
6271E
331
62700
  5
6271F
331
62701
  5
62720
331
62702
  5
62721
331
62703
  5
62722
331
62704
  5
62723
331
62705
  5
62724
331
62706
  5
62725
331
62707
  5
62726
331
62708
  5
62727
331
62709
  5
62728
331
6270A
  5
62729
  0
XRECORD
  5
66CCD
102
{ACAD_REACTORS
330
66CCC
102
}
330
66CCC
100
AcDbXrecord
280
     1
102
VISUALSTYLE
340
0
102
GRIDDISPLAY
 70
     0
102
GRIDMAJOR
 70
     5
102
DEFAULTLIGHTING
280
     1
102
DEFAULTLIGHTINGTYPE
 70
     1
102
BRIGHTNESS
141
0.0
102
CONTRAST
142
0.0
  0
XRECORD
  5
66CCF
102
{ACAD_REACTORS
330
66CCE
102
}
330
66CCE
100
AcDbXrecord
280
     1
102
VISUALSTYLE
340
0
102
GRIDDISPLAY
 70
     0
102
GRIDMAJOR
 70
     5
102
DEFAULTLIGHTING
280
     1
102
DEFAULTLIGHTINGTYPE
 70
     1
102
BRIGHTNESS
141
0.0
102
CONTRAST
142
0.0
  0
XRECORD
  5
66CD1
102
{ACAD_REACTORS
330
66CD0
102
}
330
66CD0
100
AcDbXrecord
280
     1
102
VISUALSTYLE
340
0
102
GRIDDISPLAY
 70
     0
102
GRIDMAJOR
 70
     5
102
DEFAULTLIGHTING
280
     1
102
DEFAULTLIGHTINGTYPE
 70
     1
102
BRIGHTNESS
141
0.0
102
CONTRAST
142
0.0
  0
LAYOUT
  5
22
102
{ACAD_REACTORS
330
1A
102
}
330
1A
100
AcDbPlotSettings
  1

  2
JUST PDF 2
  4
A4
  6

 40
3.174999952316284
 41
3.174999952316284
 42
3.175003051757812
 43
3.17498779296875
 44
209.8886566162109
 45
297.0530090332031
 46
14.27171755861552
 47
9.855173074625498
 48
11097.83258478701
 49
7675.09767706978
140
11622.81824027173
141
8488.075702485781
142
1.0
143
3.0
 70
 11940
 72
     1
 73
     0
 74
     4
  7
spax form.ctb
 75
    16
147
1.0
148
-11097.83258478701
149
-7675.09767706978
100
AcDbLayout
  1
Model
 70
     1
 71
     0
 10
0.0
 20
0.0
 11
12.0
 21
9.0
 12
0.0
 22
0.0
 32
0.0
 14
11107.58382100729
 24
8320.17473273887
 34
-0.0000000000000103
 15
11205.08382100729
 25
8409.813450539943
 35
0.0000000000000118
146
0.0
 13
0.0
 23
0.0
 33
0.0
 16
1.0
 26
0.0
 36
0.0
 17
0.0
 27
1.0
 37
0.0
 76
     0
330
1F
331
616AA
1001
ACAD_PSEXT
1000
JUST PDF 2
1000
JUST PDF 2
1000
JUST PDF 2 Port:
1000

1070
     0
  0
LAYOUT
  5
BFE5
102
{ACAD_REACTORS
330
1A
102
}
330
1A
100
AcDbPlotSettings
  1

  2
Fuji Xerox DW2050
  4
User66
  6

 40
3.174999952316284
 41
3.174999952316284
 42
3.17498779296875
 43
3.17498779296875
 44
419.7984924316406
 45
593.7249755859375
 46
11.88
 47
-81.02
 48
0.0
 49
0.0
140
0.0
141
0.0
142
1.0
143
1.0
 70
   692
 72
     1
 73
     1
 74
     0
  7
spax form.ctb
 75
    16
147
1.0
148
-1641.613688516881
149
-18.99831226914654
100
AcDbLayout
  1
ﾚｲｱｳﾄ1
 70
     1
 71
     1
 10
1719.458700723913
 20
3.943312316830253
 11
2313.18367630985
 21
423.7418047484709
 12
0.0
 22
0.0
 32
0.0
 14
1742.828589271307
 24
21.35496017198057
 34
0.0
 15
2289.828589271307
 25
406.3549601719806
 35
0.0
146
0.0
 13
0.0
 23
0.0
 33
0.0
 16
1.0
 26
0.0
 36
0.0
 17
0.0
 27
1.0
 37
0.0
 76
     0
330
BFE6
331
BFE7
  0
MLINESTYLE
  5
18
102
{ACAD_REACTORS
330
17
102
}
330
17
100
AcDbMlineStyle
  2
STANDARD
 70
     0
  3

 62
   256
 51
90.0
 52
90.0
 71
     2
 49
0.5
 62
   256
  6
BYLAYER
 49
-0.5
 62
   256
  6
BYLAYER
  0
ACDBPLACEHOLDER
  5
F
102
{ACAD_REACTORS
330
E
102
}
330
E
  0
SCALE
  5
27D01
102
{ACAD_REACTORS
330
27D00
102
}
330
27D00
100
AcDbScale
 70
     0
300
1:1
140
1.0
141
1.0
290
     1
  0
SCALE
  5
27D02
102
{ACAD_REACTORS
330
27D00
102
}
330
27D00
100
AcDbScale
 70
     0
300
1:2
140
1.0
141
2.0
290
     0
  0
SCALE
  5
27D03
102
{ACAD_REACTORS
330
27D00
102
}
330
27D00
100
AcDbScale
 70
     0
300
1:4
140
1.0
141
4.0
290
     0
  0
SCALE
  5
27D04
102
{ACAD_REACTORS
330
27D00
102
}
330
27D00
100
AcDbScale
 70
     0
300
1:5
140
1.0
141
5.0
290
     0
  0
SCALE
  5
27D05
102
{ACAD_REACTORS
330
27D00
102
}
330
27D00
100
AcDbScale
 70
     0
300
1:8
140
1.0
141
8.0
290
     0
  0
SCALE
  5
27D06
102
{ACAD_REACTORS
330
27D00
102
}
330
27D00
100
AcDbScale
 70
     0
300
1:10
140
1.0
141
10.0
290
     0
  0
SCALE
  5
27D07
102
{ACAD_REACTORS
330
27D00
102
}
330
27D00
100
AcDbScale
 70
     0
300
1:16
140
1.0
141
16.0
290
     0
  0
SCALE
  5
27D08
102
{ACAD_REACTORS
330
27D00
102
}
330
27D00
100
AcDbScale
 70
     0
300
1:20
140
1.0
141
20.0
290
     0
  0
SCALE
  5
27D09
102
{ACAD_REACTORS
330
27D00
102
}
330
27D00
100
AcDbScale
 70
     0
300
1:30
140
1.0
141
30.0
290
     0
  0
SCALE
  5
27D0A
102
{ACAD_REACTORS
330
27D00
102
}
330
27D00
100
AcDbScale
 70
     0
300
1:40
140
1.0
141
40.0
290
     0
  0
SCALE
  5
27D0B
102
{ACAD_REACTORS
330
27D00
102
}
330
27D00
100
AcDbScale
 70
     0
300
1:50
140
1.0
141
50.0
290
     0
  0
SCALE
  5
27D0C
102
{ACAD_REACTORS
330
27D00
102
}
330
27D00
100
AcDbScale
 70
     0
300
1:100
140
1.0
141
100.0
290
     0
  0
SCALE
  5
27D0D
102
{ACAD_REACTORS
330
27D00
102
}
330
27D00
100
AcDbScale
 70
     0
300
2:1
140
2.0
141
1.0
290
     0
  0
SCALE
  5
27D0E
102
{ACAD_REACTORS
330
27D00
102
}
330
27D00
100
AcDbScale
 70
     0
300
4:1
140
4.0
141
1.0
290
     0
  0
SCALE
  5
27D0F
102
{ACAD_REACTORS
330
27D00
102
}
330
27D00
100
AcDbScale
 70
     0
300
8:1
140
8.0
141
1.0
290
     0
  0
SCALE
  5
27D10
102
{ACAD_REACTORS
330
27D00
102
}
330
27D00
100
AcDbScale
 70
     0
300
10:1
140
10.0
141
1.0
290
     0
  0
SCALE
  5
27D11
102
{ACAD_REACTORS
330
27D00
102
}
330
27D00
100
AcDbScale
 70
     0
300
100:1
140
100.0
141
1.0
290
     0
  0
SCALE
  5
27D12
102
{ACAD_REACTORS
330
27D00
102
}
330
27D00
100
AcDbScale
 70
     0
300
1/128" = 1'-0"
140
0.0078125
141
12.0
290
     0
  0
SCALE
  5
27D13
102
{ACAD_REACTORS
330
27D00
102
}
330
27D00
100
AcDbScale
 70
     0
300
1/64" = 1'-0"
140
0.015625
141
12.0
290
     0
  0
SCALE
  5
27D14
102
{ACAD_REACTORS
330
27D00
102
}
330
27D00
100
AcDbScale
 70
     0
300
1/32" = 1'-0"
140
0.03125
141
12.0
290
     0
  0
SCALE
  5
27D15
102
{ACAD_REACTORS
330
27D00
102
}
330
27D00
100
AcDbScale
 70
     0
300
1/16" = 1'-0"
140
0.0625
141
12.0
290
     0
  0
SCALE
  5
27D16
102
{ACAD_REACTORS
330
27D00
102
}
330
27D00
100
AcDbScale
 70
     0
300
3/32" = 1'-0"
140
0.09375
141
12.0
290
     0
  0
SCALE
  5
27D17
102
{ACAD_REACTORS
330
27D00
102
}
330
27D00
100
AcDbScale
 70
     0
300
1/8" = 1'-0"
140
0.125
141
12.0
290
     0
  0
SCALE
  5
27D18
102
{ACAD_REACTORS
330
27D00
102
}
330
27D00
100
AcDbScale
 70
     0
300
3/16" = 1'-0"
140
0.1875
141
12.0
290
     0
  0
SCALE
  5
27D19
102
{ACAD_REACTORS
330
27D00
102
}
330
27D00
100
AcDbScale
 70
     0
300
1/4" = 1'-0"
140
0.25
141
12.0
290
     0
  0
SCALE
  5
27D1A
102
{ACAD_REACTORS
330
27D00
102
}
330
27D00
100
AcDbScale
 70
     0
300
3/8" = 1'-0"
140
0.375
141
12.0
290
     0
  0
SCALE
  5
27D1B
102
{ACAD_REACTORS
330
27D00
102
}
330
27D00
100
AcDbScale
 70
     0
300
1/2" = 1'-0"
140
0.5
141
12.0
290
     0
  0
SCALE
  5
27D1C
102
{ACAD_REACTORS
330
27D00
102
}
330
27D00
100
AcDbScale
 70
     0
300
3/4" = 1'-0"
140
0.75
141
12.0
290
     0
  0
SCALE
  5
27D1D
102
{ACAD_REACTORS
330
27D00
102
}
330
27D00
100
AcDbScale
 70
     0
300
1" = 1'-0"
140
1.0
141
12.0
290
     0
  0
SCALE
  5
27D1E
102
{ACAD_REACTORS
330
27D00
102
}
330
27D00
100
AcDbScale
 70
     0
300
1-1/2" = 1'-0"
140
1.5
141
12.0
290
     0
  0
SCALE
  5
27D1F
102
{ACAD_REACTORS
330
27D00
102
}
330
27D00
100
AcDbScale
 70
     0
300
3" = 1'-0"
140
3.0
141
12.0
290
     0
  0
SCALE
  5
27D20
102
{ACAD_REACTORS
330
27D00
102
}
330
27D00
100
AcDbScale
 70
     0
300
6" = 1'-0"
140
6.0
141
12.0
290
     0
  0
SCALE
  5
27D21
102
{ACAD_REACTORS
330
27D00
102
}
330
27D00
100
AcDbScale
 70
     0
300
1'-0" = 1'-0"
140
12.0
141
12.0
290
     0
  0
DICTIONARYVAR
  5
10720
102
{ACAD_REACTORS
330
BA
102
}
330
BA
100
DictionaryVariables
280
     0
  1
1
  0
DICTIONARYVAR
  5
27E26
102
{ACAD_REACTORS
330
BA
102
}
330
BA
100
DictionaryVariables
280
     0
  1
0
  0
DICTIONARYVAR
  5
10721
102
{ACAD_REACTORS
330
BA
102
}
330
BA
100
DictionaryVariables
280
     0
  1

  0
DICTIONARYVAR
  5
BB
102
{ACAD_REACTORS
330
BA
102
}
330
BA
100
DictionaryVariables
280
     0
  1
1
  0
ENDSEC
  0
EOF
