  0
SECTION
  2
HEADER
  9
$ACADVER
  1
AC1015
  9
$ACADMAINTVER
 70
     6
  9
$DWGCODEPAGE
  3
ANSI_932
  9
$INSBASE
 10
0.0
 20
0.0
 30
0.0
  9
$EXTMIN
 10
8729.800840943808
 20
-3898.317130992241
 30
-0.0000000000000131
  9
$EXTMAX
 10
8796.807920741703
 20
-3822.543755990454
 30
0.0000000000000108
  9
$LIMMIN
 10
0.0
 20
0.0
  9
$LIMMAX
 10
420.0
 20
297.0
  9
$ORTHOMODE
 70
     1
  9
$REGENMODE
 70
     1
  9
$FILLMODE
 70
     1
  9
$QTEXTMODE
 70
     0
  9
$MIRRTEXT
 70
     1
  9
$LTSCALE
 40
5.0
  9
$ATTMODE
 70
     0
  9
$TEXTSIZE
 40
53.44730959687513
  9
$TRACEWID
 40
1.0
  9
$TEXTSTYLE
  7
STANDARD
  9
$CLAYER
  8
寸法線
  9
$CELTYPE
  6
BYLAYER
  9
$CECOLOR
 62
   256
  9
$CELTSCALE
 40
1.0
  9
$DISPSILH
 70
     0
  9
$DIMSCALE
 40
1.0
  9
$DIMASZ
 40
2.5
  9
$DIMEXO
 40
1.5
  9
$DIMDLI
 40
0.38
  9
$DIMRND
 40
0.0
  9
$DIMDLE
 40
0.0
  9
$DIMEXE
 40
1.0
  9
$DIMTP
 40
0.0
  9
$DIMTM
 40
0.0
  9
$DIMTXT
 40
2.500000000000003
  9
$DIMCEN
 40
0.0
  9
$DIMTSZ
 40
0.0
  9
$DIMTOL
 70
     0
  9
$DIMLIM
 70
     0
  9
$DIMTIH
 70
     0
  9
$DIMTOH
 70
     0
  9
$DIMSE1
 70
     0
  9
$DIMSE2
 70
     0
  9
$DIMTAD
 70
     3
  9
$DIMZIN
 70
     8
  9
$DIMBLK
  1

  9
$DIMASO
 70
     1
  9
$DIMSHO
 70
     0
  9
$DIMPOST
  1

  9
$DIMAPOST
  1

  9
$DIMALT
 70
     0
  9
$DIMALTD
 70
     0
  9
$DIMALTF
 40
25.4
  9
$DIMLFAC
 40
1.0
  9
$DIMTOFL
 70
     1
  9
$DIMTVP
 40
0.0
  9
$DIMTIX
 70
     0
  9
$DIMSOXD
 70
     0
  9
$DIMSAH
 70
     1
  9
$DIMBLK1
  1
OPEN
  9
$DIMBLK2
  1
OPEN
  9
$DIMSTYLE
  2
STANDARD
  9
$DIMCLRD
 70
     8
  9
$DIMCLRE
 70
     8
  9
$DIMCLRT
 70
   256
  9
$DIMTFAC
 40
1.0
  9
$DIMGAP
 40
1.0
  9
$DIMJUST
 70
     0
  9
$DIMSD1
 70
     0
  9
$DIMSD2
 70
     0
  9
$DIMTOLJ
 70
     1
  9
$DIMTZIN
 70
     0
  9
$DIMALTZ
 70
     0
  9
$DIMALTTZ
 70
     0
  9
$DIMUPT
 70
     0
  9
$DIMDEC
 70
     2
  9
$DIMTDEC
 70
     2
  9
$DIMALTU
 70
     2
  9
$DIMALTTD
 70
     0
  9
$DIMTXSTY
  7
STANDARD
  9
$DIMAUNIT
 70
     0
  9
$DIMADEC
 70
     2
  9
$DIMALTRND
 40
0.0
  9
$DIMAZIN
 70
     2
  9
$DIMDSEP
 70
    46
  9
$DIMATFIT
 70
     1
  9
$DIMFRAC
 70
     0
  9
$DIMLDRBLK
  1
OPEN
  9
$DIMLUNIT
 70
     2
  9
$DIMLWD
 70
    -2
  9
$DIMLWE
 70
    -2
  9
$DIMTMOVE
 70
     0
  9
$LUNITS
 70
     2
  9
$LUPREC
 70
     2
  9
$SKETCHINC
 40
0.1
  9
$FILLETRAD
 40
15.5
  9
$AUNITS
 70
     0
  9
$AUPREC
 70
     1
  9
$MENU
  1
FM
  9
$ELEVATION
 40
0.0
  9
$PELEVATION
 40
0.0
  9
$THICKNESS
 40
0.0
  9
$LIMCHECK
 70
     0
  9
$CHAMFERA
 40
0.0
  9
$CHAMFERB
 40
0.0
  9
$CHAMFERC
 40
0.0
  9
$CHAMFERD
 40
0.0
  9
$SKPOLY
 70
     0
  9
$TDCREATE
 40
2448636.619629629
  9
$TDUCREATE
 40
2448636.244629629
  9
$TDUPDATE
 40
2456826.439052373
  9
$TDUUPDATE
 40
2456826.064052373
  9
$TDINDWG
 40
48.8379684028
  9
$TDUSRTIMER
 40
2456826.063929167
  9
$USRTIMER
 70
     1
  9
$ANGBASE
 50
0.0
  9
$ANGDIR
 70
     0
  9
$PDMODE
 70
     3
  9
$PDSIZE
 40
0.0
  9
$PLINEWID
 40
0.0
  9
$SPLFRAME
 70
     0
  9
$SPLINETYPE
 70
     6
  9
$SPLINESEGS
 70
     8
  9
$HANDSEED
  5
12DA89
  9
$SURFTAB1
 70
     6
  9
$SURFTAB2
 70
     6
  9
$SURFTYPE
 70
     6
  9
$SURFU
 70
     6
  9
$SURFV
 70
     6
  9
$UCSBASE
  2

  9
$UCSNAME
  2

  9
$UCSORG
 10
0.0
 20
0.0
 30
0.0
  9
$UCSXDIR
 10
1.0
 20
0.0
 30
0.0
  9
$UCSYDIR
 10
0.0
 20
1.0
 30
0.0
  9
$UCSORTHOREF
  2

  9
$UCSORTHOVIEW
 70
     0
  9
$UCSORGTOP
 10
0.0
 20
0.0
 30
0.0
  9
$UCSORGBOTTOM
 10
0.0
 20
0.0
 30
0.0
  9
$UCSORGLEFT
 10
0.0
 20
0.0
 30
0.0
  9
$UCSORGRIGHT
 10
0.0
 20
0.0
 30
0.0
  9
$UCSORGFRONT
 10
0.0
 20
0.0
 30
0.0
  9
$UCSORGBACK
 10
0.0
 20
0.0
 30
0.0
  9
$PUCSBASE
  2

  9
$PUCSNAME
  2

  9
$PUCSORG
 10
0.0
 20
0.0
 30
0.0
  9
$PUCSXDIR
 10
1.0
 20
0.0
 30
0.0
  9
$PUCSYDIR
 10
0.0
 20
1.0
 30
0.0
  9
$PUCSORTHOREF
  2

  9
$PUCSORTHOVIEW
 70
     0
  9
$PUCSORGTOP
 10
0.0
 20
0.0
 30
0.0
  9
$PUCSORGBOTTOM
 10
0.0
 20
0.0
 30
0.0
  9
$PUCSORGLEFT
 10
0.0
 20
0.0
 30
0.0
  9
$PUCSORGRIGHT
 10
0.0
 20
0.0
 30
0.0
  9
$PUCSORGFRONT
 10
0.0
 20
0.0
 30
0.0
  9
$PUCSORGBACK
 10
0.0
 20
0.0
 30
0.0
  9
$USERI1
 70
     0
  9
$USERI2
 70
     0
  9
$USERI3
 70
     0
  9
$USERI4
 70
     0
  9
$USERI5
 70
     0
  9
$USERR1
 40
0.0
  9
$USERR2
 40
0.0
  9
$USERR3
 40
0.0
  9
$USERR4
 40
0.0
  9
$USERR5
 40
0.0
  9
$WORLDVIEW
 70
     0
  9
$SHADEDGE
 70
     3
  9
$SHADEDIF
 70
    70
  9
$TILEMODE
 70
     1
  9
$MAXACTVP
 70
    16
  9
$PINSBASE
 10
0.0
 20
0.0
 30
0.0
  9
$PLIMCHECK
 70
     0
  9
$PEXTMIN
 10
1.000000000000000E+20
 20
1.000000000000000E+20
 30
1.000000000000000E+20
  9
$PEXTMAX
 10
-1.000000000000000E+20
 20
-1.000000000000000E+20
 30
-1.000000000000000E+20
  9
$PLIMMIN
 10
0.0
 20
0.0
  9
$PLIMMAX
 10
0.0
 20
0.0
  9
$UNITMODE
 70
     0
  9
$VISRETAIN
 70
     0
  9
$PLINEGEN
 70
     0
  9
$PSLTSCALE
 70
     0
  9
$TREEDEPTH
 70
  3020
  9
$CMLSTYLE
  2
STANDARD
  9
$CMLJUST
 70
     0
  9
$CMLSCALE
 40
1.0
  9
$PROXYGRAPHICS
 70
     1
  9
$MEASUREMENT
 70
     0
  9
$CELWEIGHT
370
    -1
  9
$ENDCAPS
280
     0
  9
$JOINSTYLE
280
     0
  9
$LWDISPLAY
290
     0
  9
$INSUNITS
 70
     0
  9
$HYPERLINKBASE
  1

  9
$STYLESHEET
  1
spax form.ctb
  9
$XEDIT
290
     1
  9
$CEPSNTYPE
380
     0
  9
$PSTYLEMODE
290
     1
  9
$FINGERPRINTGUID
  2
{BBAEEBA6-8B94-11D3-9160-00E0294F7E09}
  9
$VERSIONGUID
  2
{7C3D12A8-BAA4-4159-810F-0D603181D578}
  9
$EXTNAMES
290
     1
  9
$PSVPSCALE
 40
0.0
  9
$OLESTARTUP
290
     0
  0
ENDSEC
  0
SECTION
  2
CLASSES
  0
CLASS
  1
LWPOLYLINE
  2
AcDbPolyline
  3
ObjectDBX Classes
 90
        0
280
     0
281
     1
  0
CLASS
  1
ACDBDICTIONARYWDFLT
  2
AcDbDictionaryWithDefault
  3
ObjectDBX Classes
 90
        0
280
     0
281
     0
  0
CLASS
  1
ACDBPLACEHOLDER
  2
AcDbPlaceHolder
  3
ObjectDBX Classes
 90
        0
280
     0
281
     0
  0
CLASS
  1
LAYOUT
  2
AcDbLayout
  3
ObjectDBX Classes
 90
        0
280
     0
281
     0
  0
CLASS
  1
DICTIONARYVAR
  2
AcDbDictionaryVar
  3
ObjectDBX Classes
 90
        0
280
     0
281
     0
  0
CLASS
  1
MATERIAL
  2
AcDbMaterial
  3
ObjectDBX Classes
 90
     1153
280
     0
281
     0
  0
CLASS
  1
VISUALSTYLE
  2
AcDbVisualStyle
  3
ObjectDBX Classes
 90
     4095
280
     0
281
     0
  0
CLASS
  1
TABLESTYLE
  2
AcDbTableStyle
  3
ObjectDBX Classes
 90
     4095
280
     0
281
     0
  0
CLASS
  1
SCALE
  2
AcDbScale
  3
ObjectDBX Classes
 90
     1153
280
     0
281
     0
  0
CLASS
  1
MLEADERSTYLE
  2
AcDbMLeaderStyle
  3
ACDB_MLEADERSTYLE_CLASS
 90
     4095
280
     0
281
     0
  0
CLASS
  1
CELLSTYLEMAP
  2
AcDbCellStyleMap
  3
ObjectDBX Classes
 90
     1152
280
     0
281
     0
  0
CLASS
  1
SORTENTSTABLE
  2
AcDbSortentsTable
  3
ObjectDBX Classes
 90
        0
280
     0
281
     0
  0
CLASS
  1
MULTILEADER
  2
AcDbMLeader
  3
ACDB_MLEADER_CLASS
 90
     1025
280
     0
281
     1
  0
CLASS
  1
DIMASSOC
  2
AcDbDimAssoc
  3
"AcDbDimAssoc|Product Desc:     AcDim ARX App For Dimension|Company:          Autodesk, Inc.|WEB Address:      www.autodesk.com"
 90
        0
280
     0
281
     0
  0
CLASS
  1
RASTERVARIABLES
  2
AcDbRasterVariables
  3
ISM
 90
        0
280
     0
281
     0
  0
CLASS
  1
SUN
  2
AcDbSun
  3
SCENEOE
 90
     1153
280
     0
281
     0
  0
ENDSEC
  0
SECTION
  2
TABLES
  0
TABLE
  2
VPORT
  5
8
330
0
100
AcDbSymbolTable
 70
     1
  0
VPORT
  5
12C66F
330
8
100
AcDbSymbolTableRecord
100
AcDbViewportTableRecord
  2
*Active
 70
     0
 10
0.0
 20
0.0
 11
1.0
 21
1.0
 12
8763.304380842756
 22
-3860.430443491347
 13
0.0
 23
0.0
 14
1.0
 24
1.0
 15
20.0
 25
20.0
 16
0.0
 26
0.0
 36
1.0
 17
0.0
 27
0.0
 37
0.0
 40
77.28884250182313
 41
2.027568922305764
 42
50.0
 43
0.0
 44
0.0
 50
0.0
 51
0.0
 71
    16
 72
   100
 73
     1
 74
     0
 75
     0
 76
     0
 77
     0
 78
     0
281
     0
 65
     1
110
0.0
120
0.0
130
0.0
111
1.0
121
0.0
131
0.0
112
0.0
122
1.0
132
0.0
 79
     0
146
0.0
  0
ENDTAB
  0
TABLE
  2
LTYPE
  5
5
330
0
100
AcDbSymbolTable
 70
     3
  0
LTYPE
  5
12
330
5
100
AcDbSymbolTableRecord
100
AcDbLinetypeTableRecord
  2
BYBLOCK
 70
     0
  3

 72
    65
 73
     0
 40
0.0
  0
LTYPE
  5
13
330
5
100
AcDbSymbolTableRecord
100
AcDbLinetypeTableRecord
  2
BYLAYER
 70
     0
  3

 72
    65
 73
     0
 40
0.0
  0
LTYPE
  5
14
330
5
100
AcDbSymbolTableRecord
100
AcDbLinetypeTableRecord
  2
CONTINUOUS
 70
     0
  3
Solid line
 72
    65
 73
     0
 40
0.0
  0
LTYPE
  5
27
330
5
100
AcDbSymbolTableRecord
100
AcDbLinetypeTableRecord
  2
HIDDEN
 70
     0
  3
_ _ _ _ _ _ _ _ _ _ _ _ _ _ _ _ _ _ _ _ _ _ _
 72
    65
 73
     2
 40
0.375
 49
0.25
 74
     0
 49
-0.125
 74
     0
  0
LTYPE
  5
514
330
5
100
AcDbSymbolTableRecord
100
AcDbLinetypeTableRecord
  2
CENTER
 70
     0
  3
Center ____ _ ____ _ ____ _ ____ _ ____ _ ____
 72
    65
 73
     4
 40
2.0
 49
1.25
 74
     0
 49
-0.25
 74
     0
 49
0.25
 74
     0
 49
-0.25
 74
     0
  0
ENDTAB
  0
TABLE
  2
LAYER
  5
2
102
{ACAD_XDICTIONARY
360
8BF
102
}
330
0
100
AcDbSymbolTable
 70
    14
  0
LAYER
  5
F
102
{ACAD_XDICTIONARY
360
A60
102
}
330
2
100
AcDbSymbolTableRecord
100
AcDbLayerTableRecord
  2
0
 70
     0
 62
     7
  6
CONTINUOUS
370
    -3
390
616
  0
LAYER
  5
34
102
{ACAD_XDICTIONARY
360
A66
102
}
330
2
100
AcDbSymbolTableRecord
100
AcDbLayerTableRecord
  2
寸法線
 70
     0
 62
     7
  6
CONTINUOUS
370
    -3
390
616
  0
LAYER
  5
2F4
102
{ACAD_XDICTIONARY
360
A6E
102
}
330
2
100
AcDbSymbolTableRecord
100
AcDbLayerTableRecord
  2
文字
 70
     0
 62
     7
  6
CONTINUOUS
370
    -3
390
616
  0
LAYER
  5
305
102
{ACAD_XDICTIONARY
360
A72
102
}
330
2
100
AcDbSymbolTableRecord
100
AcDbLayerTableRecord
  2
姿図
 70
     0
 62
     8
  6
CONTINUOUS
370
    -3
390
616
  0
ENDTAB
  0
TABLE
  2
STYLE
  5
3
330
0
100
AcDbSymbolTable
 70
     1
  0
STYLE
  5
10
330
3
100
AcDbSymbolTableRecord
100
AcDbTextStyleTableRecord
  2
STANDARD
 70
     0
 40
0.0
 41
1.0
 50
0.0
 71
     0
 42
53.44730959687513
  3
MONOTXT
  4
BIGFONT
  0
ENDTAB
  0
TABLE
  2
VIEW
  5
6
330
0
100
AcDbSymbolTable
 70
     0
  0
ENDTAB
  0
TABLE
  2
UCS
  5
7
330
0
100
AcDbSymbolTable
 70
     0
  0
ENDTAB
  0
TABLE
  2
APPID
  5
9
330
0
100
AcDbSymbolTable
 70
    15
  0
APPID
  5
11
330
9
100
AcDbSymbolTableRecord
100
AcDbRegAppTableRecord
  2
ACAD
 70
     0
  0
APPID
  5
8BB
330
9
100
AcDbSymbolTableRecord
100
AcDbRegAppTableRecord
  2
ACAD_PSEXT
 70
     0
  0
APPID
  5
A5A
330
9
100
AcDbSymbolTableRecord
100
AcDbRegAppTableRecord
  2
ACAD_MLEADERVER
 70
     0
  0
APPID
  5
A5E
330
9
100
AcDbSymbolTableRecord
100
AcDbRegAppTableRecord
  2
ACAD_DSTYLE_DIMJAG
 70
     0
  0
APPID
  5
A5F
330
9
100
AcDbSymbolTableRecord
100
AcDbRegAppTableRecord
  2
ACAD_DSTYLE_DIMTALN
 70
     0
  0
APPID
  5
12C0
330
9
100
AcDbSymbolTableRecord
100
AcDbRegAppTableRecord
  2
ACAD_EXEMPT_FROM_CAD_STANDARDS
 70
     0
  0
APPID
  5
1C50
330
9
100
AcDbSymbolTableRecord
100
AcDbRegAppTableRecord
  2
AcAecLayerStandard
 70
     0
  0
APPID
  5
5088
330
9
100
AcDbSymbolTableRecord
100
AcDbRegAppTableRecord
  2
ACAD_DSTYLE_DIMRADIAL_EXTENSION
 70
     0
  0
APPID
  5
14AF3
330
9
100
AcDbSymbolTableRecord
100
AcDbRegAppTableRecord
  2
WACOM_STRING
 70
     0
  0
APPID
  5
14AF4
330
9
100
AcDbSymbolTableRecord
100
AcDbRegAppTableRecord
  2
WACOM_DRSYM_ARROW
 70
     0
  0
APPID
  5
1E1A8
330
9
100
AcDbSymbolTableRecord
100
AcDbRegAppTableRecord
  2
GENIUS_GENODEF_13
 70
     0
  0
APPID
  5
1E1A9
330
9
100
AcDbSymbolTableRecord
100
AcDbRegAppTableRecord
  2
GENIUS_GENREC_14
 70
     0
  0
APPID
  5
1E1AA
330
9
100
AcDbSymbolTableRecord
100
AcDbRegAppTableRecord
  2
GENIUS_GENOBJ-N-REC_13
 70
     0
  0
APPID
  5
27C72
330
9
100
AcDbSymbolTableRecord
100
AcDbRegAppTableRecord
  2
ASK_MEN_XD
 70
     0
  0
APPID
  5
29316
330
9
100
AcDbSymbolTableRecord
100
AcDbRegAppTableRecord
  2
ACAD_DSTYLE_DIMBREAK
 70
     0
  0
ENDTAB
  0
TABLE
  2
DIMSTYLE
  5
A
330
0
100
AcDbSymbolTable
 70
     2
100
AcDbDimStyleTable
  0
DIMSTYLE
105
1CC
330
A
100
AcDbSymbolTableRecord
100
AcDbDimStyleTableRecord
  2
STANDARD
 70
     0
 41
2.5
 42
1.5
 44
1.0
 73
     0
 74
     0
 77
     3
 78
     8
 79
     2
140
2.500000000000003
141
0.0
147
1.0
171
     0
172
     1
173
     1
176
     8
177
     8
271
     2
178
   256
179
     2
271
     2
272
     2
274
     0
289
     1
340
10
341
608
343
608
344
608
1001
ACAD_DSTYLE_DIMJAG
1070
   388
1040
1.5
1001
ACAD_DSTYLE_DIMTALN
1070
   392
1070
     0
  0
ENDTAB
  0
TABLE
  2
BLOCK_RECORD
  5
1
330
0
100
AcDbSymbolTable
 70
    82
  0
BLOCK_RECORD
  5
18
102
{ACAD_XDICTIONARY
360
143F
102
}
330
1
100
AcDbSymbolTableRecord
100
AcDbBlockTableRecord
  2
*MODEL_SPACE
340
619
  0
BLOCK_RECORD
  5
15
330
1
100
AcDbSymbolTableRecord
100
AcDbBlockTableRecord
  2
*PAPER_SPACE
340
61A
  0
BLOCK_RECORD
  5
608
330
1
100
AcDbSymbolTableRecord
100
AcDbBlockTableRecord
  2
_OPEN
340
0
102
{BLKREFS
331
FC91E
331
FC91F
331
FC927
331
FC928
331
FC930
331
FC931
331
FC939
331
FC93A
331
FC942
331
FC943
331
FC94B
331
FC94C
331
FC95D
331
FC95E
331
FC966
331
FC967
331
FC96F
331
FC970
331
FC9A9
331
FC9AA
331
126278
331
126279
331
126281
331
126282
331
12628A
331
12628B
331
126295
331
126296
331
1262A8
331
1262A9
331
1262BA
331
1262BB
331
12761F
331
127620
331
127628
331
127629
331
127631
331
127632
331
12763A
331
12763B
331
127645
331
127646
331
12764E
331
12764F
331
127657
331
127658
331
127660
331
127661
331
127669
331
12766A
331
127674
331
127675
331
12767D
331
12767E
331
127686
331
127687
331
12768F
331
127690
331
127698
331
127699
331
1276A1
331
1276A2
331
1276AA
331
1276AB
331
129E50
331
129E51
331
129E59
331
129E5A
331
129E62
331
129E63
331
129E6D
331
129E6E
331
129E76
331
129E77
331
129E7F
331
129E80
331
129E88
331
129E89
331
129E91
331
129E92
331
129E9A
331
129E9B
331
129EA3
331
129EA4
331
129EAC
331
129EAD
331
129EB5
331
129EB6
331
129EBE
331
129EBF
331
129EC7
331
129EC8
331
129ED2
331
129ED3
331
129EDB
331
129EDC
331
12C5C4
331
12C5C5
331
12C5CD
331
12C5CE
331
12C5D6
331
12C5D7
331
12C5DF
331
12C5E0
331
12C5E8
331
12C5E9
331
12C5F1
331
12C5F2
331
12C5FC
331
12C5FD
331
12C605
331
12C606
331
12C60E
331
12C60F
331
12C617
331
12C618
331
12C620
331
12C621
331
12C62B
331
12C62C
331
12C634
331
12C635
331
12C63D
331
12C63E
331
12C646
331
12C647
331
12C64F
331
12C650
331
12D9B6
331
12D9B7
331
12D9BF
331
12D9C0
331
12D9C8
331
12D9C9
331
12D9D3
331
12D9D4
331
12D9DC
331
12D9DD
331
12D9E5
331
12D9E6
331
12D9EE
331
12D9EF
331
12D9F7
331
12D9F8
331
12DA00
331
12DA01
331
12DA09
331
12DA0A
331
12DA12
331
12DA13
331
12DA1B
331
12DA1C
331
12DA24
331
12DA25
331
12DA2D
331
12DA2E
331
12DA38
331
12DA39
331
12DA41
331
12DA42
102
}
  0
BLOCK_RECORD
  5
89D
330
1
100
AcDbSymbolTableRecord
100
AcDbBlockTableRecord
  2
SUN
340
0
  0
ENDTAB
  0
ENDSEC
  0
SECTION
  2
BLOCKS
  0
BLOCK
  5
39
330
18
100
AcDbEntity
  8
0
100
AcDbBlockBegin
  2
*MODEL_SPACE
 70
     0
 10
0.0
 20
0.0
 30
0.0
  3
*MODEL_SPACE
  1
*MODEL_SPACE
  0
ENDBLK
  5
3A
330
18
100
AcDbEntity
  8
0
100
AcDbBlockEnd
  0
BLOCK
  5
37
330
15
100
AcDbEntity
 67
     1
  8
0
100
AcDbBlockBegin
  2
*PAPER_SPACE
 70
     0
 10
0.0
 20
0.0
 30
0.0
  3
*PAPER_SPACE
  1
*PAPER_SPACE
  0
ENDBLK
  5
38
330
15
100
AcDbEntity
 67
     1
  8
0
100
AcDbBlockEnd
  0
BLOCK
  5
609
330
608
100
AcDbEntity
  8
0
100
AcDbBlockBegin
  2
_OPEN
 70
     0
 10
0.0
 20
0.0
 30
0.0
  3
_OPEN
  1
_OPEN
  0
LINE
  5
60A
330
608
100
AcDbEntity
  8
0
  6
ByBlock
 62
     0
100
AcDbLine
 10
-1.0
 20
0.1666666666666667
 30
0.0
 11
0.0
 21
0.0
 31
0.0
  0
LINE
  5
60B
330
608
100
AcDbEntity
  8
0
  6
ByBlock
 62
     0
100
AcDbLine
 10
0.0
 20
0.0
 30
0.0
 11
-1.0
 21
-0.1666666666666667
 31
0.0
  0
LINE
  5
60C
330
608
100
AcDbEntity
  8
0
  6
ByBlock
 62
     0
100
AcDbLine
 10
0.0
 20
0.0
 30
0.0
 11
-1.0
 21
0.0
 31
0.0
  0
ENDBLK
  5
60D
330
608
100
AcDbEntity
  8
0
100
AcDbBlockEnd
  0
BLOCK
  5
89E
330
89D
100
AcDbEntity
  8
0
100
AcDbBlockBegin
  2
SUN
 70
     0
 10
0.0
 20
0.0
 30
0.0
  3
SUN
  1
SUN
  0
LINE
  5
89F
330
89D
100
AcDbEntity
  8
0
100
AcDbLine
 10
-0.0000000000000568
 20
0.0
 30
0.0
 11
-1.500000000000057
 21
0.0
 31
0.0
  0
LINE
  5
8A0
330
89D
100
AcDbEntity
  8
0
100
AcDbLine
 10
-0.0000000000000568
 20
0.0000000000000284
 30
0.0
 11
-1.500000000000057
 21
0.401923788646684
 31
0.0
  0
LINE
  5
8A1
330
89D
100
AcDbEntity
  8
0
100
AcDbLine
 10
-0.0000000000000568
 20
0.0000000000000284
 30
0.0
 11
-1.500000000000057
 21
-0.4019237886466556
 31
0.0
  0
ENDBLK
  5
8A2
330
89D
100
AcDbEntity
  8
0
100
AcDbBlockEnd
  0
ENDSEC
  0
SECTION
  2
ENTITIES
  0
MTEXT
  5
D0CC6
330
18
100
AcDbEntity
  8
寸法線
100
AcDbMText
 10
2610.774875364868
 20
-2740.315466585338
 30
0.0
 40
2.500000000000003
 41
0.0
 71
     9
 72
     1
  1
\A1;
 73
     1
 44
1.0
  0
MTEXT
  5
F6D77
330
18
100
AcDbEntity
  8
文字
100
AcDbMText
 10
5821.057140836062
 20
-2842.341718131323
 30
0.0
 40
2.5
 41
64.39156592258223
 71
     1
 72
     5
  1
   
 73
     1
 44
1.0
  0
MTEXT
  5
F6D78
330
18
100
AcDbEntity
  8
寸法線
100
AcDbMText
 10
6222.662262480188
 20
-2968.738290481128
 30
0.0
 40
3.000000000000001
 41
0.0
 71
     7
 72
     1
  1
\A1;
 73
     1
 44
1.0
  0
TEXT
  5
12C6A6
330
18
100
AcDbEntity
  8
文字
100
AcDbText
 10
8729.800840943808
 20
-3898.317130992241
 30
0.0
 40
6.5
  1
SX-535CBPC
100
AcDbText
  0
LINE
  5
12D801
330
18
100
AcDbEntity
  8
姿図
100
AcDbLine
 10
8752.146954028514
 20
-3827.958789663053
 30
-0.000000000000002
 11
8796.807920741703
 21
-3827.958789663053
 31
-0.000000000000002
  0
SPLINE
  5
12D802
330
18
100
AcDbEntity
  8
姿図
100
AcDbSpline
210
0.0
220
0.0
230
1.0
 70
    24
 71
     3
 72
     8
 73
     4
 74
     0
 42
0.000000001
 43
0.0000000001
 40
0.0
 40
0.0
 40
0.0
 40
0.0
 40
1.0
 40
1.0
 40
1.0
 40
1.0
 10
8753.577912489814
 20
-3842.682599093792
 30
-0.000000000000002
 10
8753.577912489814
 20
-3842.682599093792
 30
-0.000000000000002
 10
8761.67412483664
 20
-3842.607285490566
 30
-0.000000000000002
 10
8761.67412483664
 20
-3842.607285490566
 30
-0.000000000000002
  0
SPLINE
  5
12D803
330
18
100
AcDbEntity
  8
姿図
100
AcDbSpline
210
0.0
220
0.0
230
1.0
 70
    24
 71
     3
 72
     8
 73
     4
 74
     0
 42
0.000000001
 43
0.0000000001
 40
1.0
 40
1.0
 40
1.0
 40
1.0
 40
2.0
 40
2.0
 40
2.0
 40
2.0
 10
8761.67412483664
 20
-3842.607285490566
 30
-0.000000000000002
 10
8761.67412483664
 20
-3842.607285490566
 30
-0.000000000000002
 10
8765.176207386661
 20
-3840.38553419539
 30
-0.000000000000002
 10
8765.176207386661
 20
-3840.38553419539
 30
-0.000000000000002
  0
SPLINE
  5
12D804
330
18
100
AcDbEntity
  8
姿図
100
AcDbSpline
210
0.0
220
0.0
230
1.0
 70
     8
 71
     3
 72
     8
 73
     4
 74
     0
 42
0.000000001
 43
0.0000000001
 40
2.0
 40
2.0
 40
2.0
 40
2.0
 40
3.0
 40
3.0
 40
3.0
 40
3.0
 10
8765.176207386661
 20
-3840.38553419539
 30
-0.000000000000002
 10
8765.176207386661
 20
-3840.38553419539
 30
-0.000000000000002
 10
8765.816373014084
 20
-3840.197250187325
 30
-0.000000000000002
 10
8766.192941030215
 20
-3840.197250187325
 30
-0.000000000000002
  0
SPLINE
  5
12D805
330
18
100
AcDbEntity
  8
姿図
100
AcDbSpline
210
0.0
220
0.0
230
1.0
 70
    24
 71
     3
 72
     8
 73
     4
 74
     0
 42
0.000000001
 43
0.0000000001
 40
0.0
 40
0.0
 40
0.0
 40
0.0
 40
1.0
 40
1.0
 40
1.0
 40
1.0
 10
8754.938191155781
 20
-3844.356957734204
 30
-0.0000000000000049
 10
8754.938191155781
 20
-3844.356957734204
 30
-0.0000000000000049
 10
8754.975847957394
 20
-3843.151940082584
 30
-0.0000000000000049
 10
8754.975847957394
 20
-3843.151940082584
 30
-0.0000000000000049
  0
SPLINE
  5
12D806
330
18
100
AcDbEntity
  8
姿図
100
AcDbSpline
210
0.0
220
0.0
230
1.0
 70
     8
 71
     3
 72
     8
 73
     4
 74
     0
 42
0.000000001
 43
0.0000000001
 40
1.0
 40
1.0
 40
1.0
 40
1.0
 40
2.0
 40
2.0
 40
2.0
 40
2.0
 10
8754.975847957394
 20
-3843.151940082584
 30
-0.0000000000000049
 10
8754.975847957394
 20
-3843.151940082584
 30
-0.0000000000000049
 10
8757.122285649344
 20
-3842.775372066451
 30
-0.0000000000000049
 10
8759.381693746132
 20
-3842.888342471291
 30
-0.0000000000000049
  0
SPLINE
  5
12D807
330
18
100
AcDbEntity
  8
姿図
100
AcDbSpline
210
0.0
220
0.0
230
1.0
 70
    24
 71
     3
 72
     8
 73
     4
 74
     0
 42
0.000000001
 43
0.0000000001
 40
2.0
 40
2.0
 40
2.0
 40
2.0
 40
3.0
 40
3.0
 40
3.0
 40
3.0
 10
8759.381693746132
 20
-3842.888342471291
 30
-0.0000000000000049
 10
8760.90312782291
 20
-3842.95189522343
 30
-0.000000000000002
 10
8760.90312782291
 20
-3842.95189522343
 30
-0.000000000000002
 10
8760.90312782291
 20
-3842.95189522343
 30
-0.000000000000002
  0
LINE
  5
12D808
330
18
100
AcDbEntity
  8
姿図
100
AcDbLine
 10
8752.297581234967
 20
-3840.197250187325
 30
-0.000000000000002
 11
8796.54432313041
 21
-3840.046622980872
 31
-0.000000000000002
  0
LINE
  5
12D809
330
18
100
AcDbEntity
  8
姿図
100
AcDbLine
 10
8772.862828723639
 20
-3866.95103870209
 30
-0.0000000000000049
 11
8773.804248763965
 21
-3871.130943681149
 31
-0.0000000000000049
  0
LINE
  5
12D80A
330
18
100
AcDbEntity
  8
姿図
100
AcDbLine
 10
8773.653621557514
 20
-3864.804601010141
 30
-0.0000000000000049
 11
8774.369100788164
 21
-3868.306683560163
 31
-0.0000000000000049
  0
SPLINE
  5
12D80B
330
18
100
AcDbEntity
  8
姿図
100
AcDbSpline
210
0.0
220
0.0
230
1.0
 70
    24
 71
     3
 72
     8
 73
     4
 74
     0
 42
0.000000001
 43
0.0000000001
 40
0.0
 40
0.0
 40
0.0
 40
0.0
 40
1.0
 40
1.0
 40
1.0
 40
1.0
 10
8768.268698926835
 20
-3869.812955624689
 30
-0.0000000000000049
 10
8768.268698926835
 20
-3869.812955624689
 30
-0.0000000000000049
 10
8772.410947104281
 20
-3867.327606718221
 30
-0.0000000000000049
 10
8772.410947104281
 20
-3867.327606718221
 30
-0.0000000000000049
  0
SPLINE
  5
12D80C
330
18
100
AcDbEntity
  8
姿図
100
AcDbSpline
210
0.0
220
0.0
230
1.0
 70
     8
 71
     3
 72
    11
 73
     7
 74
     0
 42
0.000000001
 43
0.0000000001
 40
1.0
 40
1.0
 40
1.0
 40
1.0
 40
2.0
 40
2.0
 40
2.0
 40
3.0
 40
3.0
 40
3.0
 40
3.0
 10
8772.410947104281
 20
-3867.327606718221
 30
-0.0000000000000049
 10
8772.410947104281
 20
-3867.327606718221
 30
-0.0000000000000049
 10
8772.938142326864
 20
-3866.988695503704
 30
-0.0000000000000049
 10
8772.938142326864
 20
-3866.649784289185
 30
-0.0000000000000049
 10
8772.938142326864
 20
-3866.310873074667
 30
-0.0000000000000049
 10
8773.01345593009
 20
-3865.294139431112
 30
-0.0000000000000049
 10
8773.01345593009
 20
-3865.294139431112
 30
-0.0000000000000049
  0
SPLINE
  5
12D80D
330
18
100
AcDbEntity
  8
姿図
100
AcDbSpline
210
0.0
220
0.0
230
1.0
 70
     8
 71
     3
 72
    11
 73
     7
 74
     0
 42
0.000000001
 43
0.0000000001
 40
3.0
 40
3.0
 40
3.0
 40
3.0
 40
4.0
 40
4.0
 40
4.0
 40
5.0
 40
5.0
 40
5.0
 40
5.0
 10
8773.01345593009
 20
-3865.294139431112
 30
-0.0000000000000049
 10
8773.01345593009
 20
-3865.294139431112
 30
-0.0000000000000049
 10
8773.427680747835
 20
-3864.541003398849
 30
-0.0000000000000049
 10
8773.766591962354
 20
-3864.390376192397
 30
-0.0000000000000049
 10
8774.105503176872
 20
-3864.239748985944
 30
-0.0000000000000049
 10
8778.51134896561
 20
-3862.093311293995
 30
-0.0000000000000049
 10
8778.51134896561
 20
-3862.093311293995
 30
-0.0000000000000049
  0
SPLINE
  5
12D80E
330
18
100
AcDbEntity
  8
姿図
100
AcDbSpline
210
0.0
220
0.0
230
1.0
 70
     8
 71
     3
 72
     8
 73
     4
 74
     0
 42
0.000000001
 43
0.0000000001
 40
5.0
 40
5.0
 40
5.0
 40
5.0
 40
6.0
 40
6.0
 40
6.0
 40
6.0
 10
8778.51134896561
 20
-3862.093311293995
 30
-0.0000000000000049
 10
8778.51134896561
 20
-3862.093311293995
 30
-0.0000000000000049
 10
8779.603396212391
 20
-3861.867370484316
 30
-0.0000000000000049
 10
8779.603396212391
 20
-3862.28159530206
 30
-0.0000000000000049
  0
SPLINE
  5
12D80F
330
18
100
AcDbEntity
  8
姿図
100
AcDbSpline
210
0.0
220
0.0
230
1.0
 70
    24
 71
     3
 72
     8
 73
     4
 74
     0
 42
0.000000001
 43
0.0000000001
 40
0.0
 40
0.0
 40
0.0
 40
0.0
 40
1.0
 40
1.0
 40
1.0
 40
1.0
 10
8768.306355728448
 20
-3869.511701211783
 30
-0.0000000000000049
 10
8768.306355728448
 20
-3869.511701211783
 30
-0.0000000000000049
 10
8772.335633501054
 20
-3867.026352305317
 30
-0.0000000000000049
 10
8772.335633501054
 20
-3867.026352305317
 30
-0.0000000000000049
  0
SPLINE
  5
12D810
330
18
100
AcDbEntity
  8
姿図
100
AcDbSpline
210
0.0
220
0.0
230
1.0
 70
     8
 71
     3
 72
    11
 73
     7
 74
     0
 42
0.000000001
 43
0.0000000001
 40
1.0
 40
1.0
 40
1.0
 40
1.0
 40
2.0
 40
2.0
 40
2.0
 40
3.0
 40
3.0
 40
3.0
 40
3.0
 10
8772.335633501054
 20
-3867.026352305317
 30
-0.0000000000000049
 10
8772.335633501054
 20
-3867.026352305317
 30
-0.0000000000000049
 10
8772.636887913959
 20
-3866.913381900476
 30
-0.0000000000000049
 10
8772.599231112345
 20
-3866.46150028112
 30
-0.0000000000000049
 10
8772.56157431073
 20
-3866.009618661762
 30
-0.0000000000000049
 10
8772.636887913959
 20
-3865.256482629498
 30
-0.0000000000000049
 10
8772.636887913959
 20
-3865.256482629498
 30
-0.0000000000000049
  0
SPLINE
  5
12D811
330
18
100
AcDbEntity
  8
姿図
100
AcDbSpline
210
0.0
220
0.0
230
1.0
 70
     8
 71
     3
 72
    11
 73
     7
 74
     0
 42
0.000000001
 43
0.0000000001
 40
3.0
 40
3.0
 40
3.0
 40
3.0
 40
4.0
 40
4.0
 40
4.0
 40
5.0
 40
5.0
 40
5.0
 40
5.0
 10
8772.636887913959
 20
-3865.256482629498
 30
-0.0000000000000049
 10
8772.636887913959
 20
-3865.256482629498
 30
-0.0000000000000049
 10
8773.23939673977
 20
-3864.428032994009
 30
-0.0000000000000049
 10
8773.540651152674
 20
-3864.277405787557
 30
-0.0000000000000049
 10
8773.84190556558
 20
-3864.126778581105
 30
-0.0000000000000049
 10
8778.28540815593
 20
-3861.867370484316
 30
-0.0000000000000049
 10
8778.28540815593
 20
-3861.867370484316
 30
-0.0000000000000049
  0
SPLINE
  5
12D812
330
18
100
AcDbEntity
  8
姿図
100
AcDbSpline
210
0.0
220
0.0
230
1.0
 70
     8
 71
     3
 72
    11
 73
     7
 74
     0
 42
0.000000001
 43
0.0000000001
 40
5.0
 40
5.0
 40
5.0
 40
5.0
 40
6.0
 40
6.0
 40
6.0
 40
7.0
 40
7.0
 40
7.0
 40
7.0
 10
8778.28540815593
 20
-3861.867370484316
 30
-0.0000000000000049
 10
8778.28540815593
 20
-3861.867370484316
 30
-0.0000000000000049
 10
8779.528082609166
 20
-3861.716743277863
 30
-0.0000000000000049
 10
8779.603396212391
 20
-3862.28159530206
 30
-0.0000000000000049
 10
8779.678709815616
 20
-3862.846447326257
 30
-0.0000000000000049
 10
8779.82933702207
 20
-3864.616317002075
 30
-0.0000000000000049
 10
8779.82933702207
 20
-3864.616317002075
 30
-0.0000000000000049
  0
SPLINE
  5
12D813
330
18
100
AcDbEntity
  8
姿図
100
AcDbSpline
210
0.0
220
0.0
230
1.0
 70
     8
 71
     3
 72
    11
 73
     7
 74
     0
 42
0.000000001
 43
0.0000000001
 40
7.0
 40
7.0
 40
7.0
 40
7.0
 40
8.0
 40
8.0
 40
8.0
 40
9.0
 40
9.0
 40
9.0
 40
9.0
 10
8779.82933702207
 20
-3864.616317002075
 30
-0.0000000000000049
 10
8779.82933702207
 20
-3864.616317002075
 30
-0.0000000000000049
 10
8780.092934633361
 20
-3865.143512224659
 30
-0.0000000000000049
 10
8779.264484997871
 20
-3865.670707447243
 30
-0.0000000000000049
 10
8778.436035362383
 20
-3866.197902669827
 30
-0.0000000000000049
 10
8778.436035362383
 20
-3866.197902669827
 30
-0.0000000000000049
 10
8778.436035362383
 20
-3866.197902669827
 30
-0.0000000000000049
  0
SPLINE
  5
12D814
330
18
100
AcDbEntity
  8
姿図
100
AcDbSpline
210
0.0
220
0.0
230
1.0
 70
    24
 71
     3
 72
     8
 73
     4
 74
     0
 42
0.000000001
 43
0.0000000001
 40
9.0
 40
9.0
 40
9.0
 40
9.0
 40
10.0
 40
10.0
 40
10.0
 40
10.0
 10
8778.436035362383
 20
-3866.197902669827
 30
-0.0000000000000049
 10
8778.436035362383
 20
-3866.197902669827
 30
-0.0000000000000049
 10
8774.896296010747
 20
-3868.118399552098
 30
-0.0000000000000049
 10
8774.896296010747
 20
-3868.118399552098
 30
-0.0000000000000049
  0
SPLINE
  5
12D815
330
18
100
AcDbEntity
  8
姿図
100
AcDbSpline
210
0.0
220
0.0
230
1.0
 70
     8
 71
     3
 72
    11
 73
     7
 74
     0
 42
0.000000001
 43
0.0000000001
 40
10.0
 40
10.0
 40
10.0
 40
10.0
 40
11.0
 40
11.0
 40
11.0
 40
12.0
 40
12.0
 40
12.0
 40
12.0
 10
8774.896296010747
 20
-3868.118399552098
 30
-0.0000000000000049
 10
8774.896296010747
 20
-3868.118399552098
 30
-0.0000000000000049
 10
8774.33144398655
 20
-3868.419653965003
 30
-0.0000000000000049
 10
8774.33144398655
 20
-3868.909192385974
 30
-0.0000000000000049
 10
8774.33144398655
 20
-3869.398730806945
 30
-0.0000000000000049
 10
8774.21847358171
 20
-3870.490778053726
 30
-0.0000000000000049
 10
8774.21847358171
 20
-3870.490778053726
 30
-0.0000000000000049
  0
SPLINE
  5
12D816
330
18
100
AcDbEntity
  8
姿図
100
AcDbSpline
210
0.0
220
0.0
230
1.0
 70
     8
 71
     3
 72
    11
 73
     7
 74
     0
 42
0.000000001
 43
0.0000000001
 40
12.0
 40
12.0
 40
12.0
 40
12.0
 40
13.0
 40
13.0
 40
13.0
 40
14.0
 40
14.0
 40
14.0
 40
14.0
 10
8774.21847358171
 20
-3870.490778053726
 30
-0.0000000000000049
 10
8774.21847358171
 20
-3870.490778053726
 30
-0.0000000000000049
 10
8774.293787184937
 20
-3871.093286879536
 30
-0.0000000000000049
 10
8773.50299435106
 20
-3871.545168498894
 30
-0.0000000000000049
 10
8772.712201517184
 20
-3871.997050118252
 30
-0.0000000000000049
 10
8767.779160505865
 20
-3875.160221453756
 30
-0.0000000000000049
 10
8767.779160505865
 20
-3875.160221453756
 30
-0.0000000000000049
  0
LINE
  5
12D817
330
18
100
AcDbEntity
  8
姿図
100
AcDbLine
 10
8759.532320952585
 20
-3844.168673726138
 30
-0.0000000000000049
 11
8759.569977754196
 21
-3844.921809758402
 31
-0.0000000000000049
  0
SPLINE
  5
12D818
330
18
100
AcDbEntity
  8
姿図
100
AcDbSpline
210
0.0
220
0.0
230
1.0
 70
    24
 71
     3
 72
     8
 73
     4
 74
     0
 42
0.000000001
 43
0.0000000001
 40
0.0
 40
0.0
 40
0.0
 40
0.0
 40
1.0
 40
1.0
 40
1.0
 40
1.0
 10
8763.749882733257
 20
-3845.072436964853
 30
-0.0000000000000049
 10
8763.749882733257
 20
-3845.072436964853
 30
-0.0000000000000049
 10
8763.674569130031
 20
-3844.281644130978
 30
-0.0000000000000049
 10
8763.674569130031
 20
-3844.281644130978
 30
-0.0000000000000049
  0
SPLINE
  5
12D819
330
18
100
AcDbEntity
  8
姿図
100
AcDbSpline
210
0.0
220
0.0
230
1.0
 70
     8
 71
     3
 72
     8
 73
     4
 74
     0
 42
0.000000001
 43
0.0000000001
 40
1.0
 40
1.0
 40
1.0
 40
1.0
 40
2.0
 40
2.0
 40
2.0
 40
2.0
 10
8763.674569130031
 20
-3844.281644130978
 30
-0.0000000000000049
 10
8763.674569130031
 20
-3844.281644130978
 30
-0.0000000000000049
 10
8764.013480344549
 20
-3844.018046519685
 30
-0.0000000000000049
 10
8762.69549228809
 20
-3843.980389718072
 30
-0.0000000000000049
  0
SPLINE
  5
12D81A
330
18
100
AcDbEntity
  8
姿図
100
AcDbSpline
210
0.0
220
0.0
230
1.0
 70
    24
 71
     3
 72
     8
 73
     4
 74
     0
 42
0.000000001
 43
0.0000000001
 40
2.0
 40
2.0
 40
2.0
 40
2.0
 40
3.0
 40
3.0
 40
3.0
 40
3.0
 10
8762.69549228809
 20
-3843.980389718072
 30
-0.0000000000000049
 10
8762.69549228809
 20
-3843.980389718072
 30
-0.0000000000000049
 10
8754.709431803993
 20
-3844.365260102848
 30
-0.0000000000000049
 10
8754.709431803993
 20
-3844.365260102848
 30
-0.0000000000000049
  0
LINE
  5
12D81B
330
18
100
AcDbEntity
  8
姿図
100
AcDbLine
 10
8754.97129173953
 20
-3843.297739054238
 30
-0.0000000000000049
 11
8753.577912489814
 21
-3842.682599093792
 31
-0.000000000000002
  0
LINE
  5
12D81C
330
18
100
AcDbEntity
  8
姿図
100
AcDbLine
 10
8753.577912489814
 20
-3842.682599093792
 30
-0.000000000000002
 11
8752.22226763174
 21
-3840.423190997003
 31
-0.000000000000002
  0
LINE
  5
12D81D
330
18
100
AcDbEntity
  8
姿図
100
AcDbLine
 10
8752.22226763174
 20
-3840.423190997003
 30
-0.000000000000002
 11
8752.146954028514
 21
-3827.958789663053
 31
-0.000000000000002
  0
LINE
  5
12D81E
330
18
100
AcDbEntity
  8
姿図
100
AcDbLine
 10
8796.807920741703
 20
-3827.958789663053
 30
-0.000000000000002
 11
8796.657293535249
 21
-3840.159593385712
 31
-0.000000000000002
  0
LINE
  5
12D81F
330
18
100
AcDbEntity
  8
姿図
100
AcDbLine
 10
8796.657293535249
 20
-3840.159593385712
 30
-0.000000000000002
 11
8795.904157502988
 21
-3840.988043021201
 31
-0.000000000000002
  0
LINE
  5
12D820
330
18
100
AcDbEntity
  8
姿図
100
AcDbLine
 10
8795.904157502988
 20
-3840.988043021201
 30
-0.000000000000002
 11
8765.213864188274
 21
-3841.025699822813
 31
-0.000000000000002
  0
LINE
  5
12D821
330
18
100
AcDbEntity
  8
姿図
100
AcDbLine
 10
8765.213864188274
 20
-3841.025699822813
 30
-0.000000000000002
 11
8761.43254058183
 21
-3843.073699416248
 31
-0.0000000000000049
  0
SPLINE
  5
12D822
330
18
100
AcDbEntity
  8
姿図
100
AcDbSpline
210
0.0
220
0.0
230
1.0
 70
    24
 71
     3
 72
     8
 73
     4
 74
     0
 42
0.000000001
 43
0.0000000001
 40
0.0
 40
0.0
 40
0.0
 40
0.0
 40
0.7095565745219787
 40
0.7095565745219787
 40
0.7095565745219787
 40
0.7095565745219787
 10
8761.15156342195
 20
-3845.712602592277
 30
-0.0000000000000049
 10
8761.15156342195
 20
-3845.712602592277
 30
-0.0000000000000049
 10
8758.630004457478
 20
-3845.883234401903
 30
-0.0000000000000049
 10
8757.165264011106
 20
-3845.982352176469
 30
-0.0000000000000049
  0
SPLINE
  5
12D823
330
18
100
AcDbEntity
  8
姿図
100
AcDbSpline
210
0.0
220
0.0
230
1.0
 70
     8
 71
     3
 72
     8
 73
     4
 74
     0
 42
0.000000001
 43
0.0000000001
 40
0.0
 40
0.0
 40
0.0
 40
0.0
 40
1.0
 40
1.0
 40
1.0
 40
1.0
 10
8752.58541814827
 20
-3873.011820563035
 30
-0.0000000000000049
 10
8752.58541814827
 20
-3873.011820563035
 30
-0.0000000000000049
 10
8751.958193399438
 20
-3872.951336485533
 30
0.0000000000000001
 10
8751.807566192985
 20
-3871.934602841979
 30
0.0000000000000001
  0
SPLINE
  5
12D824
330
18
100
AcDbEntity
  8
姿図
100
AcDbSpline
210
0.0
220
0.0
230
1.0
 70
    24
 71
     3
 72
     8
 73
     4
 74
     0
 42
0.000000001
 43
0.0000000001
 40
1.0
 40
1.0
 40
1.0
 40
1.0
 40
2.0
 40
2.0
 40
2.0
 40
2.0
 10
8751.807566192985
 20
-3871.934602841979
 30
0.0000000000000001
 10
8751.807566192985
 20
-3871.934602841979
 30
0.0000000000000001
 10
8751.393341375238
 20
-3860.675219159648
 30
0.0000000000000001
 10
8751.393341375238
 20
-3860.675219159648
 30
0.0000000000000001
  0
SPLINE
  5
12D825
330
18
100
AcDbEntity
  8
姿図
100
AcDbSpline
210
0.0
220
0.0
230
1.0
 70
    24
 71
     3
 72
     8
 73
     4
 74
     0
 42
0.000000001
 43
0.0000000001
 40
2.0
 40
2.0
 40
2.0
 40
2.0
 40
3.0
 40
3.0
 40
3.0
 40
3.0
 10
8751.393341375238
 20
-3860.675219159648
 30
0.0000000000000001
 10
8751.393341375238
 20
-3860.675219159648
 30
0.0000000000000001
 10
8752.987705993288
 20
-3846.253466478214
 30
0.0000000000000001
 10
8752.987705993288
 20
-3846.253466478214
 30
0.0000000000000001
  0
SPLINE
  5
12D826
330
18
100
AcDbEntity
  8
姿図
100
AcDbSpline
210
0.0
220
0.0
230
1.0
 70
     8
 71
     3
 72
     8
 73
     4
 74
     0
 42
0.000000001
 43
0.0000000001
 40
3.0
 40
3.0
 40
3.0
 40
3.0
 40
4.0
 40
4.0
 40
4.0
 40
4.0
 10
8752.987705993288
 20
-3846.253466478214
 30
0.0000000000000001
 10
8752.987705993288
 20
-3846.253466478214
 30
0.0000000000000001
 10
8753.032892406096
 20
-3845.844734835104
 30
0.0000000000000001
 10
8753.953592880214
 20
-3845.819490727803
 30
-0.0000000000000074
  0
SPLINE
  5
12D827
330
18
100
AcDbEntity
  8
姿図
100
AcDbSpline
210
0.0
220
0.0
230
1.0
 70
     8
 71
     3
 72
     8
 73
     4
 74
     0
 42
0.000000001
 43
0.0000000001
 40
4.0
 40
4.0
 40
4.0
 40
4.0
 40
5.0
 40
5.0
 40
5.0
 40
5.0
 10
8753.953592880214
 20
-3845.819490727803
 30
-0.0000000000000074
 10
8755.632321310277
 20
-3845.697812873826
 30
-0.0000000000000049
 10
8760.662025000978
 20
-3845.298377774532
 30
-0.0000000000000049
 10
8760.662025000978
 20
-3845.298377774532
 30
-0.0000000000000049
  0
SPLINE
  5
12D828
330
18
100
AcDbEntity
  8
姿図
100
AcDbSpline
210
0.0
220
0.0
230
1.0
 70
     8
 71
     3
 72
    11
 73
     7
 74
     0
 42
0.000000001
 43
0.0000000001
 40
5.0
 40
5.0
 40
5.0
 40
5.0
 40
6.0
 40
6.0
 40
6.0
 40
7.0
 40
7.0
 40
7.0
 40
7.0
 10
8760.662025000978
 20
-3845.298377774532
 30
-0.0000000000000049
 10
8760.662025000978
 20
-3845.298377774532
 30
-0.0000000000000049
 10
8761.076249818723
 20
-3845.223064171306
 30
-0.0000000000000049
 10
8761.226877025176
 20
-3845.938543401956
 30
-0.0000000000000049
 10
8761.37750423163
 20
-3846.654022632605
 30
-0.0000000000000049
 10
8764.201764352614
 20
-3858.177003926227
 30
-0.0000000000000049
 10
8764.201764352614
 20
-3858.177003926227
 30
-0.0000000000000049
  0
SPLINE
  5
12D829
330
18
100
AcDbEntity
  8
姿図
100
AcDbSpline
210
0.0
220
0.0
230
1.0
 70
     8
 71
     3
 72
    11
 73
     7
 74
     0
 42
0.000000001
 43
0.0000000001
 40
7.0
 40
7.0
 40
7.0
 40
7.0
 40
8.0
 40
8.0
 40
8.0
 40
9.0
 40
9.0
 40
9.0
 40
9.0
 10
8764.201764352614
 20
-3858.177003926227
 30
-0.0000000000000049
 10
8764.201764352614
 20
-3858.177003926227
 30
-0.0000000000000049
 10
8764.427705162296
 20
-3859.64561918914
 30
-0.0000000000000049
 10
8764.465361963907
 20
-3860.662352832695
 30
-0.0000000000000049
 10
8764.503018765521
 20
-3861.679086476251
 30
-0.0000000000000049
 10
8764.691302773586
 20
-3873.804576595682
 30
-0.0000000000000049
 10
8764.691302773586
 20
-3873.804576595682
 30
-0.0000000000000049
  0
SPLINE
  5
12D82A
330
18
100
AcDbEntity
  8
姿図
100
AcDbSpline
210
0.0
220
0.0
230
1.0
 70
    24
 71
     3
 72
     8
 73
     4
 74
     0
 42
0.000000001
 43
0.0000000001
 40
9.0
 40
9.0
 40
9.0
 40
9.0
 40
10.0
 40
10.0
 40
10.0
 40
10.0
 10
8764.691302773586
 20
-3873.804576595682
 30
-0.0000000000000049
 10
8764.691302773586
 20
-3873.804576595682
 30
-0.0000000000000049
 10
8764.728959575197
 20
-3874.331771818266
 30
-0.0000000000000049
 10
8764.728959575197
 20
-3874.331771818266
 30
-0.0000000000000049
  0
SPLINE
  5
12D82B
330
18
100
AcDbEntity
  8
姿図
100
AcDbSpline
210
0.0
220
0.0
230
1.0
 70
     8
 71
     3
 72
     8
 73
     4
 74
     0
 42
0.000000001
 43
0.0000000001
 40
10.0
 40
10.0
 40
10.0
 40
10.0
 40
11.0
 40
11.0
 40
11.0
 40
11.0
 10
8764.728959575197
 20
-3874.331771818266
 30
-0.0000000000000049
 10
8764.728959575197
 20
-3874.331771818266
 30
-0.0000000000000049
 10
8765.067870789717
 20
-3875.386162263434
 30
-0.0000000000000049
 10
8766.800083663922
 20
-3875.423819065048
 30
-0.0000000000000049
  0
SPLINE
  5
12D82C
330
18
100
AcDbEntity
  8
姿図
100
AcDbSpline
210
0.0
220
0.0
230
1.0
 70
    24
 71
     3
 72
     8
 73
     4
 74
     0
 42
0.000000001
 43
0.0000000001
 40
0.3703683580158987
 40
0.3703683580158987
 40
0.3703683580158987
 40
0.3703683580158987
 40
1.0
 40
1.0
 40
1.0
 40
1.0
 10
8754.657812922886
 20
-3863.324767970263
 30
0.0000000000000001
 10
8754.646754825948
 20
-3862.053086822492
 30
0.0000000000000001
 10
8754.63182631397
 20
-3860.33630794513
 30
0.0000000000000001
 10
8754.63182631397
 20
-3860.33630794513
 30
0.0000000000000001
  0
SPLINE
  5
12D82D
330
18
100
AcDbEntity
  8
姿図
100
AcDbSpline
210
0.0
220
0.0
230
1.0
 70
     8
 71
     3
 72
    11
 73
     7
 74
     0
 42
0.000000001
 43
0.0000000001
 40
1.0
 40
1.0
 40
1.0
 40
1.0
 40
2.0
 40
2.0
 40
2.0
 40
2.926031263162359
 40
2.926031263162359
 40
2.926031263162359
 40
2.926031263162359
 10
8754.63182631397
 20
-3860.33630794513
 30
0.0000000000000001
 10
8754.63182631397
 20
-3860.33630794513
 30
0.0000000000000001
 10
8754.744796718809
 20
-3859.055976690282
 30
0.0000000000000001
 10
8754.895423925263
 20
-3858.001586245115
 30
0.0000000000000001
 10
8755.034909427519
 20
-3857.025187729309
 30
0.0000000000000001
 10
8756.727185659382
 20
-3847.559397870692
 30
-0.0000000000000042
 10
8756.97677355253
 20
-3846.164395074149
 30
-0.0000000000000048
  0
SPLINE
  5
12D82E
330
18
100
AcDbEntity
  8
姿図
100
AcDbSpline
210
0.0
220
0.0
230
1.0
 70
    24
 71
     3
 72
     8
 73
     4
 74
     0
 42
0.000000001
 43
0.0000000001
 40
0.0
 40
0.0
 40
0.0
 40
0.0
 40
1.0
 40
1.0
 40
1.0
 40
1.0
 10
8761.226877025176
 20
-3844.997123361627
 30
-0.0000000000000049
 10
8761.226877025176
 20
-3844.997123361627
 30
-0.0000000000000049
 10
8765.256154797782
 20
-3845.14775056808
 30
-0.0000000000000049
 10
8765.256154797782
 20
-3845.14775056808
 30
-0.0000000000000049
  0
SPLINE
  5
12D82F
330
18
100
AcDbEntity
  8
姿図
100
AcDbSpline
210
0.0
220
0.0
230
1.0
 70
     8
 71
     3
 72
     8
 73
     4
 74
     0
 42
0.000000001
 43
0.0000000001
 40
1.0
 40
1.0
 40
1.0
 40
1.0
 40
2.0
 40
2.0
 40
2.0
 40
2.0
 10
8765.256154797782
 20
-3845.14775056808
 30
-0.0000000000000049
 10
8765.708036417142
 20
-3845.223064171306
 30
-0.0000000000000049
 10
8765.896320425207
 20
-3846.202141013248
 30
-0.0000000000000049
 10
8765.896320425207
 20
-3846.202141013248
 30
-0.0000000000000049
  0
SPLINE
  5
12D830
330
18
100
AcDbEntity
  8
姿図
100
AcDbSpline
210
0.0
220
0.0
230
1.0
 70
     8
 71
     3
 72
    11
 73
     7
 74
     0
 42
0.000000001
 43
0.0000000001
 40
2.0
 40
2.0
 40
2.0
 40
2.0
 40
3.0
 40
3.0
 40
3.0
 40
4.0
 40
4.0
 40
4.0
 40
4.0
 10
8765.896320425207
 20
-3846.202141013248
 30
-0.0000000000000049
 10
8765.896320425207
 20
-3846.202141013248
 30
-0.0000000000000049
 10
8767.553219696185
 20
-3855.879939027825
 30
-0.0000000000000049
 10
8767.816817307477
 20
-3857.197927084286
 30
-0.0000000000000049
 10
8768.080414918768
 20
-3858.515915140746
 30
-0.0000000000000049
 10
8768.268698926835
 20
-3860.888293642374
 30
-0.0000000000000049
 10
8768.268698926835
 20
-3860.888293642374
 30
-0.0000000000000049
  0
SPLINE
  5
12D831
330
18
100
AcDbEntity
  8
姿図
100
AcDbSpline
210
0.0
220
0.0
230
1.0
 70
    24
 71
     3
 72
     8
 73
     4
 74
     0
 42
0.000000001
 43
0.0000000001
 40
4.0
 40
4.0
 40
4.0
 40
4.0
 40
5.0
 40
5.0
 40
5.0
 40
5.0
 10
8768.268698926835
 20
-3860.888293642374
 30
-0.0000000000000049
 10
8768.268698926835
 20
-3860.888293642374
 30
-0.0000000000000049
 10
8768.306355728448
 20
-3874.294115016653
 30
-0.0000000000000049
 10
8768.306355728448
 20
-3874.294115016653
 30
-0.0000000000000049
  0
SPLINE
  5
12D832
330
18
100
AcDbEntity
  8
姿図
100
AcDbSpline
210
0.0
220
0.0
230
1.0
 70
     8
 71
     3
 72
    11
 73
     7
 74
     0
 42
0.000000001
 43
0.0000000001
 40
5.0
 40
5.0
 40
5.0
 40
5.0
 40
6.0
 40
6.0
 40
6.0
 40
7.0
 40
7.0
 40
7.0
 40
7.0
 10
8768.306355728448
 20
-3874.294115016653
 30
-0.0000000000000049
 10
8768.306355728448
 20
-3874.294115016653
 30
-0.0000000000000049
 10
8768.268698926835
 20
-3875.160221453756
 30
-0.0000000000000049
 10
8767.026024473602
 20
-3875.348505461821
 30
-0.0000000000000049
 10
8765.783350020367
 20
-3875.536789469887
 30
-0.0000000000000049
 10
8765.143184392942
 20
-3874.407085421492
 30
-0.0000000000000049
 10
8765.143184392942
 20
-3874.407085421492
 30
-0.0000000000000049
  0
SPLINE
  5
12D833
330
18
100
AcDbEntity
  8
姿図
100
AcDbSpline
210
0.0
220
0.0
230
1.0
 70
    24
 71
     3
 72
     8
 73
     4
 74
     0
 42
0.000000001
 43
0.0000000001
 40
7.0
 40
7.0
 40
7.0
 40
7.0
 40
8.0
 40
8.0
 40
8.0
 40
8.0
 10
8765.143184392942
 20
-3874.407085421492
 30
-0.0000000000000049
 10
8765.143184392942
 20
-3874.407085421492
 30
-0.0000000000000049
 10
8764.879586781652
 20
-3861.566116071411
 30
-0.0000000000000049
 10
8764.879586781652
 20
-3861.566116071411
 30
-0.0000000000000049
  0
SPLINE
  5
12D834
330
18
100
AcDbEntity
  8
姿図
100
AcDbSpline
210
0.0
220
0.0
230
1.0
 70
     8
 71
     3
 72
     8
 73
     4
 74
     0
 42
0.000000001
 43
0.0000000001
 40
8.0
 40
8.0
 40
8.0
 40
8.0
 40
9.0
 40
9.0
 40
9.0
 40
9.0
 10
8764.879586781652
 20
-3861.566116071411
 30
-0.0000000000000049
 10
8764.879586781652
 20
-3860.24812801495
 30
-0.0000000000000049
 10
8764.615989170357
 20
-3858.32763113268
 30
-0.0000000000000049
 10
8764.615989170357
 20
-3858.32763113268
 30
-0.0000000000000049
  0
SPLINE
  5
12D835
330
18
100
AcDbEntity
  8
姿図
100
AcDbSpline
210
0.0
220
0.0
230
1.0
 70
    24
 71
     3
 72
     8
 73
     4
 74
     0
 42
0.000000001
 43
0.0000000001
 40
9.0
 40
9.0
 40
9.0
 40
9.0
 40
10.0
 40
10.0
 40
10.0
 40
10.0
 10
8764.615989170357
 20
-3858.32763113268
 30
-0.0000000000000049
 10
8764.615989170357
 20
-3858.32763113268
 30
-0.0000000000000049
 10
8761.52813143808
 20
-3845.75025939389
 30
-0.0000000000000049
 10
8761.52813143808
 20
-3845.75025939389
 30
-0.0000000000000049
  0
SPLINE
  5
12D836
330
18
100
AcDbEntity
  8
姿図
100
AcDbSpline
210
0.0
220
0.0
230
1.0
 70
     8
 71
     3
 72
     8
 73
     4
 74
     0
 42
0.000000001
 43
0.0000000001
 40
10.0
 40
10.0
 40
10.0
 40
10.0
 40
11.0
 40
11.0
 40
11.0
 40
11.0
 10
8761.52813143808
 20
-3845.75025939389
 30
-0.0000000000000049
 10
8761.37750423163
 20
-3844.808839353561
 30
-0.0000000000000049
 10
8760.887965810656
 20
-3844.959466560013
 30
-0.0000000000000049
 10
8760.887965810656
 20
-3844.959466560013
 30
-0.0000000000000049
  0
SPLINE
  5
12D837
330
18
100
AcDbEntity
  8
姿図
100
AcDbSpline
210
0.0
220
0.0
230
1.0
 70
    24
 71
     3
 72
     8
 73
     4
 74
     0
 42
0.000000001
 43
0.0000000001
 40
11.0
 40
11.0
 40
11.0
 40
11.0
 40
12.0
 40
12.0
 40
12.0
 40
12.0
 10
8760.887965810656
 20
-3844.959466560013
 30
-0.0000000000000049
 10
8760.887965810656
 20
-3844.959466560013
 30
-0.0000000000000049
 10
8753.52079413053
 20
-3845.503996640719
 30
-0.0000000000000049
 10
8753.52079413053
 20
-3845.503996640719
 30
-0.0000000000000049
  0
SPLINE
  5
12D838
330
18
100
AcDbEntity
  8
姿図
100
AcDbSpline
210
0.0
220
0.0
230
1.0
 70
     8
 71
     3
 72
     8
 73
     4
 74
     0
 42
0.000000001
 43
0.0000000001
 40
12.0
 40
12.0
 40
12.0
 40
12.0
 40
13.0
 40
13.0
 40
13.0
 40
13.0
 10
8753.52079413053
 20
-3845.503996640719
 30
-0.0000000000000049
 10
8752.738853397686
 20
-3845.583484030897
 30
-0.0000000000000049
 10
8752.749210676131
 20
-3846.250644156456
 30
0.0000000000000001
 10
8752.749210676131
 20
-3846.250644156456
 30
0.0000000000000001
  0
SPLINE
  5
12D839
330
18
100
AcDbEntity
  8
姿図
100
AcDbSpline
210
0.0
220
0.0
230
1.0
 70
    24
 71
     3
 72
     8
 73
     4
 74
     0
 42
0.000000001
 43
0.0000000001
 40
13.08533307708275
 40
13.08533307708275
 40
13.08533307708275
 40
13.08533307708275
 40
14.0
 40
14.0
 40
14.0
 40
14.0
 10
8752.762592533692
 20
-3846.130207438411
 30
0.0000000000000001
 10
8752.595914459376
 20
-3847.630310107251
 30
0.0000000000000001
 10
8751.619282184918
 20
-3856.420000577363
 30
0.0000000000000001
 10
8751.619282184918
 20
-3856.420000577363
 30
0.0000000000000001
  0
SPLINE
  5
12D83A
330
18
100
AcDbEntity
  8
姿図
100
AcDbSpline
210
0.0
220
0.0
230
1.0
 70
     8
 71
     3
 72
     8
 73
     4
 74
     0
 42
0.000000001
 43
0.0000000001
 40
14.0
 40
14.0
 40
14.0
 40
14.0
 40
15.0
 40
15.0
 40
15.0
 40
15.0
 10
8751.619282184918
 20
-3856.420000577363
 30
0.0000000000000001
 10
8751.468654978466
 20
-3858.001586245115
 30
0.0000000000000001
 10
8751.242714168788
 20
-3860.712875961261
 30
0.0000000000000001
 10
8751.242714168788
 20
-3860.712875961261
 30
0.0000000000000001
  0
SPLINE
  5
12D83B
330
18
100
AcDbEntity
  8
姿図
100
AcDbSpline
210
0.0
220
0.0
230
1.0
 70
    24
 71
     3
 72
     8
 73
     4
 74
     0
 42
0.000000001
 43
0.0000000001
 40
15.0
 40
15.0
 40
15.0
 40
15.0
 40
16.0
 40
16.0
 40
16.0
 40
16.0
 10
8751.242714168788
 20
-3860.712875961261
 30
0.0000000000000001
 10
8751.242714168788
 20
-3860.712875961261
 30
0.0000000000000001
 10
8751.619282184918
 20
-3871.48272122262
 30
0.0000000000000001
 10
8751.619282184918
 20
-3871.48272122262
 30
0.0000000000000001
  0
SPLINE
  5
12D83C
330
18
100
AcDbEntity
  8
姿図
100
AcDbSpline
210
0.0
220
0.0
230
1.0
 70
     8
 71
     3
 72
     8
 73
     4
 74
     0
 42
0.000000001
 43
0.0000000001
 40
16.0
 40
16.0
 40
16.0
 40
16.0
 40
17.0
 40
17.0
 40
17.0
 40
17.0
 10
8751.619282184918
 20
-3871.48272122262
 30
0.0000000000000001
 10
8751.619282184918
 20
-3873.139620493599
 30
0.0000000000000001
 10
8752.660583350173
 20
-3873.184641795811
 30
-0.0000000000000049
 10
8752.660583350173
 20
-3873.184641795811
 30
-0.0000000000000049
  0
LINE
  5
12D83D
330
18
100
AcDbEntity
  8
姿図
100
AcDbLine
 10
8756.927240359539
 20
-3842.65144255547
 30
-0.000000000000002
 11
8756.890572656954
 21
-3841.661414585649
 31
-0.000000000000002
  0
LINE
  5
12D83E
330
18
100
AcDbEntity
  8
姿図
100
AcDbLine
 10
8756.890572656954
 20
-3841.661414585649
 30
-0.000000000000002
 11
8757.953936031947
 21
-3841.624746883063
 31
-0.000000000000002
  0
LINE
  5
12D83F
330
18
100
AcDbEntity
  8
姿図
100
AcDbLine
 10
8757.953936031947
 20
-3841.624746883063
 30
-0.000000000000002
 11
8757.917268329362
 21
-3842.614774852883
 31
-0.000000000000002
  0
SPLINE
  5
12D840
330
18
100
AcDbEntity
  8
姿図
100
AcDbSpline
210
0.0
220
0.0
230
1.0
 70
    24
 71
     3
 72
     8
 73
     4
 74
     0
 42
0.000000001
 43
0.0000000001
 40
3.0
 40
3.0
 40
3.0
 40
3.0
 40
4.0
 40
4.0
 40
4.0
 40
4.0
 10
8760.90312782291
 20
-3842.95189522343
 30
-0.000000000000002
 10
8760.90312782291
 20
-3842.95189522343
 30
-0.000000000000002
 10
8760.951338474966
 20
-3844.066259853284
 30
-0.000000000000002
 10
8760.951338474966
 20
-3844.066259853284
 30
-0.000000000000002
  0
LINE
  5
12D841
330
18
100
AcDbEntity
  8
姿図
100
AcDbLine
 10
8761.43254058183
 20
-3843.073699416248
 30
-0.0000000000000049
 11
8761.67412483664
 21
-3842.607285490566
 31
-0.000000000000002
  0
LINE
  5
12D842
330
18
100
AcDbEntity
  8
姿図
100
AcDbLine
 10
8761.43254058183
 20
-3843.073699416248
 30
-0.0000000000000049
 11
8760.909043614509
 21
-3843.088635728583
 31
-0.0000000000000038
  0
ELLIPSE
  5
12D843
330
18
100
AcDbEntity
  8
姿図
100
AcDbEllipse
 10
8766.936791785123
 20
-3873.421435946513
 30
-0.0000000000000049
 11
0.01776091844005903
 21
-0.8361954988150361
 31
0.0
210
0.0
220
0.0
230
1.0
 40
0.8831958179658854
 41
0.0
 42
6.283185307179586
  0
ELLIPSE
  5
12D844
330
18
100
AcDbEntity
  8
姿図
100
AcDbEllipse
 10
8766.853000355386
 20
-3873.433181069998
 30
-0.0000000000000049
 11
0.02105528234426349
 21
-0.9779963799090556
 31
0.0
210
0.0
220
0.0
230
1.0
 40
0.8835743841866799
 41
0.0
 42
6.283185307179586
  0
ELLIPSE
  5
12D845
330
18
100
AcDbEntity
  8
姿図
100
AcDbEllipse
 10
8766.754455904687
 20
-3873.406253225911
 30
-0.0000000000000049
 11
0.02391994660878913
 21
-1.100031077577847
 31
0.0
210
0.0
220
0.0
230
1.0
 40
0.8832045568248491
 41
0.0
 42
6.283185307179586
  0
ELLIPSE
  5
12D846
330
18
100
AcDbEntity
  8
姿図
100
AcDbEllipse
 10
8778.645656625155
 20
-3864.196329857551
 30
-0.0000000000000049
 11
0.08622639436222194
 21
-0.8318985024182478
 31
0.0
210
0.0
220
0.0
230
1.0
 40
0.8833402404600682
 41
0.0
 42
6.283185307179586
  0
ELLIPSE
  5
12D847
330
18
100
AcDbEntity
  8
姿図
100
AcDbEllipse
 10
8778.563154294337
 20
-3864.21495017527
 30
-0.0000000000000049
 11
0.1011226485377554
 21
-0.973126450659362
 31
0.0
210
0.0
220
0.0
230
1.0
 40
0.883461432307781
 41
0.0
 42
6.283185307179586
  0
ELLIPSE
  5
12D848
330
18
100
AcDbEntity
  8
姿図
100
AcDbEllipse
 10
8778.462604578654
 20
-3864.196329857551
 30
-0.0000000000000049
 11
0.1140136377281207
 21
-1.094301749048796
 31
0.0
210
0.0
220
0.0
230
1.0
 40
0.8832587106904691
 41
0.0
 42
6.283185307179586
  0
SPLINE
  5
12D849
330
18
100
AcDbEntity
  8
姿図
100
AcDbSpline
210
0.0
220
0.0
230
1.0
 70
     8
 71
     3
 72
     8
 73
     4
 74
     0
 42
0.000000001
 43
0.0000000001
 40
49.0
 40
49.0
 40
49.0
 40
49.0
 40
49.66101424066932
 40
49.66101424066932
 40
49.66101424066932
 40
49.66101424066932
 10
8762.399793828212
 20
-3827.776785197667
 30
-0.000000000000002
 10
8762.399793828212
 20
-3827.776785197667
 30
-0.000000000000002
 10
8763.157317683614
 20
-3827.837994300407
 30
-0.000000000000002
 10
8763.828691627674
 20
-3827.971093969252
 30
-0.000000000000002
  0
SPLINE
  5
12D84A
330
18
100
AcDbEntity
  8
姿図
100
AcDbSpline
210
0.0
220
0.0
230
1.0
 70
     8
 71
     3
 72
    14
 73
    10
 74
     0
 42
0.000000001
 43
0.0000000001
 40
46.0
 40
46.0
 40
46.0
 40
46.0
 40
47.0
 40
47.0
 40
47.0
 40
48.0
 40
48.0
 40
48.0
 40
49.0
 40
49.0
 40
49.0
 40
49.0
 10
8757.383598420245
 20
-3823.630803313904
 30
-0.000000000000002
 10
8757.383598420245
 20
-3823.630803313904
 30
-0.000000000000002
 10
8757.427865560241
 20
-3822.531409280114
 30
-0.000000000000002
 10
8759.75161023817
 20
-3822.531409280114
 30
-0.000000000000002
 10
8762.075354916102
 20
-3822.531409280114
 30
-0.000000000000002
 10
8762.399793828212
 20
-3823.357355664322
 30
-0.000000000000002
 10
8762.399793828212
 20
-3823.578691364289
 30
-0.000000000000002
 10
8762.399793828212
 20
-3823.807311530335
 30
-0.000000000000002
 10
8762.399793828212
 20
-3827.776785197667
 30
-0.000000000000002
 10
8762.399793828212
 20
-3827.776785197667
 30
-0.000000000000002
  0
SPLINE
  5
12D84B
330
18
100
AcDbEntity
  8
姿図
100
AcDbSpline
210
0.0
220
0.0
230
1.0
 70
     8
 71
     3
 72
     8
 73
     4
 74
     0
 42
0.000000001
 43
0.0000000001
 40
41.0
 40
41.0
 40
41.0
 40
41.0
 40
42.0
 40
42.0
 40
42.0
 40
42.0
 10
8757.414030375281
 20
-3827.958789663053
 30
-0.000000000000002
 10
8757.426682625568
 20
-3827.459070408102
 30
-0.000000000000002
 10
8757.427865560241
 20
-3827.097648822064
 30
-0.000000000000002
 10
8757.427865560241
 20
-3827.097648822064
 30
-0.000000000000002
  0
SPLINE
  5
12D84C
330
18
100
AcDbEntity
  8
姿図
100
AcDbSpline
210
0.0
220
0.0
230
1.0
 70
    24
 71
     3
 72
     8
 73
     4
 74
     0
 42
0.000000001
 43
0.0000000001
 40
42.0
 40
42.0
 40
42.0
 40
42.0
 40
43.0
 40
43.0
 40
43.0
 40
43.0
 10
8757.427865560241
 20
-3827.097648822064
 30
-0.000000000000002
 10
8757.427865560241
 20
-3827.097648822064
 30
-0.000000000000002
 10
8757.103426648131
 20
-3827.001830076004
 30
-0.000000000000002
 10
8757.103426648131
 20
-3827.001830076004
 30
-0.000000000000002
  0
SPLINE
  5
12D84D
330
18
100
AcDbEntity
  8
姿図
100
AcDbSpline
210
0.0
220
0.0
230
1.0
 70
    24
 71
     3
 72
     8
 73
     4
 74
     0
 42
0.000000001
 43
0.0000000001
 40
43.0
 40
43.0
 40
43.0
 40
43.0
 40
44.0
 40
44.0
 40
44.0
 40
44.0
 10
8757.103426648131
 20
-3827.001830076004
 30
-0.000000000000002
 10
8757.103426648131
 20
-3827.001830076004
 30
-0.000000000000002
 10
8757.103426648131
 20
-3826.094633877897
 30
-0.000000000000002
 10
8757.103426648131
 20
-3826.094633877897
 30
-0.000000000000002
  0
SPLINE
  5
12D84E
330
18
100
AcDbEntity
  8
姿図
100
AcDbSpline
210
0.0
220
0.0
230
1.0
 70
    24
 71
     3
 72
     8
 73
     4
 74
     0
 42
0.000000001
 43
0.0000000001
 40
44.0
 40
44.0
 40
44.0
 40
44.0
 40
45.0
 40
45.0
 40
45.0
 40
45.0
 10
8757.103426648131
 20
-3826.094633877897
 30
-0.000000000000002
 10
8757.103426648131
 20
-3826.094633877897
 30
-0.000000000000002
 10
8757.472132700237
 20
-3826.043082271824
 30
-0.000000000000002
 10
8757.472132700237
 20
-3826.043082271824
 30
-0.000000000000002
  0
SPLINE
  5
12D84F
330
18
100
AcDbEntity
  8
姿図
100
AcDbSpline
210
0.0
220
0.0
230
1.0
 70
    24
 71
     3
 72
     8
 73
     4
 74
     0
 42
0.000000001
 43
0.0000000001
 40
45.0
 40
45.0
 40
45.0
 40
45.0
 40
46.0
 40
46.0
 40
46.0
 40
46.0
 10
8757.472132700237
 20
-3826.043082271824
 30
-0.000000000000002
 10
8757.472132700237
 20
-3826.043082271824
 30
-0.000000000000002
 10
8757.383598420245
 20
-3823.630803313904
 30
-0.000000000000002
 10
8757.383598420245
 20
-3823.630803313904
 30
-0.000000000000002
  0
ARC
  5
12D850
330
18
100
AcDbEntity
  8
姿図
100
AcDbCircle
 10
8759.79733671826
 20
-3838.119101269702
 30
-0.000000000000002
 40
12.32253900470606
100
AcDbArc
 50
81.46547474948558
 51
102.6277850518686
  0
ARC
  5
12D851
330
18
100
AcDbEntity
  8
姿図
100
AcDbCircle
 10
8759.79733671826
 20
-3839.026297467545
 30
-0.000000000000002
 40
12.32253900470606
100
AcDbArc
 50
81.46547474948558
 51
102.6277850518686
  0
LINE
  5
12D852
330
18
100
AcDbEntity
  8
姿図
100
AcDbLine
 10
8757.814038245318
 20
-3827.201123481347
 30
-0.000000000000002
 11
8761.955725117523
 21
-3827.201123481347
 31
-0.000000000000002
  0
LINE
  5
12D853
330
18
100
AcDbEntity
  8
姿図
100
AcDbLine
 10
8757.427865560241
 20
-3827.097648822233
 30
-0.000000000000002
 11
8757.814038245318
 21
-3827.201123481347
 31
-0.000000000000002
  0
LINE
  5
12D854
330
18
100
AcDbEntity
  8
姿図
100
AcDbLine
 10
8761.626067367375
 20
-3825.933014459911
 30
-0.000000000000002
 11
8761.626067367375
 21
-3826.840210657769
 31
-0.000000000000002
  0
LINE
  5
12D855
330
18
100
AcDbEntity
  8
姿図
100
AcDbLine
 10
8758.489050184839
 20
-3824.595624795232
 30
-0.000000000000002
 11
8758.489050184839
 21
-3825.078765597938
 31
-0.000000000000002
  0
LINE
  5
12D856
330
18
100
AcDbEntity
  8
姿図
100
AcDbLine
 10
8758.489050184839
 20
-3825.078765597938
 30
-0.000000000000002
 11
8760.601155454387
 21
-3825.078765597938
 31
-0.000000000000002
  0
LINE
  5
12D857
330
18
100
AcDbEntity
  8
姿図
100
AcDbLine
 10
8760.601155454387
 20
-3825.078765597938
 30
-0.000000000000002
 11
8760.601155454387
 21
-3824.564115666806
 31
-0.000000000000002
  0
LINE
  5
12D858
330
18
100
AcDbEntity
  8
姿図
100
AcDbLine
 10
8760.601155454387
 20
-3824.564115666806
 30
-0.000000000000002
 11
8758.489050184839
 21
-3824.564115666806
 31
-0.000000000000002
  0
LINE
  5
12D859
330
18
100
AcDbEntity
  8
姿図
100
AcDbLine
 10
8758.489050184839
 20
-3824.564115666806
 30
-0.000000000000002
 11
8758.905885066953
 21
-3824.32345593541
 31
-0.000000000000002
  0
LINE
  5
12D85A
330
18
100
AcDbEntity
  8
姿図
100
AcDbLine
 10
8758.905885066953
 20
-3824.32345593541
 30
-0.000000000000002
 11
8760.941448779013
 21
-3824.32345593541
 31
-0.000000000000002
  0
LINE
  5
12D85B
330
18
100
AcDbEntity
  8
姿図
100
AcDbLine
 10
8760.941448779013
 20
-3824.32345593541
 30
-0.000000000000002
 11
8760.941448779013
 21
-3825.258778281474
 31
-0.000000000000002
  0
LINE
  5
12D85C
330
18
100
AcDbEntity
  8
姿図
100
AcDbLine
 10
8760.941448779013
 20
-3825.258778281474
 30
-0.000000000000002
 11
8758.912931147825
 21
-3825.258778281474
 31
-0.000000000000002
  0
LINE
  5
12D85D
330
18
100
AcDbEntity
  8
姿図
100
AcDbLine
 10
8758.912931147825
 20
-3825.258778281474
 30
-0.000000000000002
 11
8758.489050184839
 21
-3825.078765597938
 31
-0.000000000000002
  0
LINE
  5
12D85E
330
18
100
AcDbEntity
  8
姿図
100
AcDbLine
 10
8760.601155454387
 20
-3824.564115666806
 30
-0.000000000000002
 11
8760.941448779013
 21
-3824.32345593541
 31
-0.000000000000002
  0
LINE
  5
12D85F
330
18
100
AcDbEntity
  8
姿図
100
AcDbLine
 10
8760.601155454387
 20
-3825.078765597938
 30
-0.000000000000002
 11
8760.941448779013
 21
-3825.258778281474
 31
-0.000000000000002
  0
LINE
  5
12D860
330
18
100
AcDbEntity
  8
姿図
100
AcDbLine
 10
8761.955725117523
 20
-3827.201123481347
 30
-0.000000000000002
 11
8761.626067367375
 21
-3826.840210657769
 31
-0.000000000000002
  0
LINE
  5
12D861
330
18
100
AcDbEntity
  8
姿図
100
AcDbLine
 10
8761.626067367375
 20
-3825.933014459911
 30
-0.000000000000002
 11
8761.960804002483
 21
-3826.126274746308
 31
-0.000000000000002
  0
LINE
  5
12D862
330
18
100
AcDbEntity
  8
姿図
100
AcDbLine
 10
8761.960804002483
 20
-3826.126274746308
 30
-0.000000000000002
 11
8761.955725117523
 21
-3827.201123481347
 31
-0.000000000000002
  0
LINE
  5
12D863
330
18
100
AcDbEntity
  8
姿図
100
AcDbLine
 10
8773.83077040947
 20
-3863.716407703831
 30
-0.0000000000000049
 11
8776.631991421695
 21
-3862.650055269428
 31
-0.0000000000000049
  0
SPLINE
  5
12D864
330
18
100
AcDbEntity
  8
姿図
100
AcDbSpline
210
0.0
220
0.0
230
1.0
 70
    24
 71
     3
 72
     8
 73
     4
 74
     0
 42
0.000000001
 43
0.0000000001
 40
0.0
 40
0.0
 40
0.0
 40
0.0
 40
1.0
 40
1.0
 40
1.0
 40
1.0
 10
8780.352921514375
 20
-3860.524315780709
 30
-0.0000000000000049
 10
8780.352921514375
 20
-3860.524315780709
 30
-0.0000000000000049
 10
8781.534438872033
 20
-3859.364965728075
 30
-0.0000000000000049
 10
8781.534438872033
 20
-3859.364965728075
 30
-0.0000000000000049
  0
SPLINE
  5
12D865
330
18
100
AcDbEntity
  8
姿図
100
AcDbSpline
210
0.0
220
0.0
230
1.0
 70
     8
 71
     3
 72
     8
 73
     4
 74
     0
 42
0.000000001
 43
0.0000000001
 40
1.0
 40
1.0
 40
1.0
 40
1.0
 40
2.0
 40
2.0
 40
2.0
 40
2.0
 10
8781.534438872033
 20
-3859.364965728075
 30
-0.0000000000000049
 10
8781.534438872033
 20
-3859.364965728075
 30
-0.0000000000000049
 10
8781.58320694308
 20
-3859.270754681733
 30
-0.0000000000000049
 10
8781.558822907557
 20
-3859.199819305663
 30
-0.0000000000000049
  0
SPLINE
  5
12D866
330
18
100
AcDbEntity
  8
姿図
100
AcDbSpline
210
0.0
220
0.0
230
1.0
 70
     8
 71
     3
 72
     8
 73
     4
 74
     0
 42
0.000000001
 43
0.0000000001
 40
1.471451898813356
 40
1.471451898813356
 40
1.471451898813356
 40
1.471451898813356
 40
1.773254205883107
 40
1.773254205883107
 40
1.773254205883107
 40
1.773254205883107
 10
8772.636680450842
 20
-3854.207303627639
 30
-0.0000000000000038
 10
8773.694494533254
 20
-3853.419422964649
 30
-0.0000000000000032
 10
8774.869526488856
 20
-3852.545029445095
 30
-0.0000000000000021
 10
8775.878360949122
 20
-3851.796232077356
 30
-0.0000000000000003
  0
SPLINE
  5
12D867
330
18
100
AcDbEntity
  8
姿図
100
AcDbSpline
210
0.0
220
0.0
230
1.0
 70
     8
 71
     3
 72
     8
 73
     4
 74
     0
 42
0.000000001
 43
0.0000000001
 40
0.0
 40
0.0
 40
0.0
 40
0.0
 40
1.0
 40
1.0
 40
1.0
 40
1.0
 10
8783.568289107772
 20
-3861.943023302097
 30
-0.0000000000000049
 10
8783.568289107772
 20
-3861.943023302097
 30
-0.0000000000000049
 10
8783.77998687073
 20
-3862.226764806374
 30
-0.0000000000000049
 10
8783.662500154114
 20
-3862.368635558513
 30
-0.0000000000000049
  0
SPLINE
  5
12D868
330
18
100
AcDbEntity
  8
姿図
100
AcDbSpline
210
0.0
220
0.0
230
1.0
 70
    24
 71
     3
 72
     8
 73
     4
 74
     0
 42
0.000000001
 43
0.0000000001
 40
1.0
 40
1.0
 40
1.0
 40
1.0
 40
1.888883729132651
 40
1.888883729132651
 40
1.888883729132651
 40
1.888883729132651
 10
8783.662500154114
 20
-3862.368635558513
 30
-0.0000000000000049
 10
8783.662500154114
 20
-3862.368635558513
 30
-0.0000000000000049
 10
8779.55267478224
 20
-3865.637755122374
 30
-0.0000000000000049
 10
8778.639337843764
 20
-3866.364259872286
 30
-0.0000000000000049
  0
SPLINE
  5
12D869
330
18
100
AcDbEntity
  8
姿図
100
AcDbSpline
210
0.0
220
0.0
230
1.0
 70
     8
 71
     3
 72
    11
 73
     7
 74
     0
 42
0.000000001
 43
0.0000000001
 40
0.0
 40
0.0
 40
0.0
 40
0.0
 40
1.0
 40
1.0
 40
1.0
 40
1.788176320105198
 40
1.788176320105198
 40
1.788176320105198
 40
1.788176320105198
 10
8784.254367198195
 20
-3860.666186532848
 30
-0.0000000000000049
 10
8784.254367198195
 20
-3860.666186532848
 30
-0.0000000000000049
 10
8784.490448996674
 20
-3860.83244132051
 30
-0.0000000000000049
 10
8784.135772116326
 20
-3861.13945849506
 30
-0.0000000000000049
 10
8783.856224197949
 20
-3861.381442161906
 30
-0.0000000000000049
 10
8781.020812904208
 20
-3863.665637782236
 30
-0.0000000000000049
 10
8779.832141507104
 20
-3864.622473595219
 30
-0.0000000000000049
  0
SPLINE
  5
12D86A
330
18
100
AcDbEntity
  8
姿図
100
AcDbSpline
210
0.0
220
0.0
230
1.0
 70
    24
 71
     3
 72
     8
 73
     4
 74
     0
 42
0.000000001
 43
0.0000000001
 40
0.0
 40
0.0
 40
0.0
 40
0.0
 40
1.0
 40
1.0
 40
1.0
 40
1.0
 10
8783.332207309291
 20
-3860.07542785402
 30
-0.0000000000000049
 10
8783.332207309291
 20
-3860.07542785402
 30
-0.0000000000000049
 10
8784.396237950332
 20
-3860.737121908917
 30
-0.0000000000000049
 10
8784.396237950332
 20
-3860.737121908917
 30
-0.0000000000000049
  0
SPLINE
  5
12D86B
330
18
100
AcDbEntity
  8
姿図
100
AcDbSpline
210
0.0
220
0.0
230
1.0
 70
     8
 71
     3
 72
     8
 73
     4
 74
     0
 42
0.000000001
 43
0.0000000001
 40
1.0
 40
1.0
 40
1.0
 40
1.0
 40
2.0
 40
2.0
 40
2.0
 40
2.0
 10
8784.396237950332
 20
-3860.737121908917
 30
-0.0000000000000049
 10
8784.396237950332
 20
-3860.737121908917
 30
-0.0000000000000049
 10
8784.655595419084
 20
-3860.926652366853
 30
-0.0000000000000049
 10
8784.442789290877
 20
-3861.13945849506
 30
-0.0000000000000049
  0
SPLINE
  5
12D86C
330
18
100
AcDbEntity
  8
姿図
100
AcDbSpline
210
0.0
220
0.0
230
1.0
 70
    24
 71
     3
 72
     8
 73
     4
 74
     0
 42
0.000000001
 43
0.0000000001
 40
2.0
 40
2.0
 40
2.0
 40
2.0
 40
2.733284138265212
 40
2.733284138265212
 40
2.733284138265212
 40
2.733284138265212
 10
8784.442789290877
 20
-3861.13945849506
 30
-0.0000000000000049
 10
8784.442789290877
 20
-3861.13945849506
 30
-0.0000000000000049
 10
8781.404214665163
 20
-3863.758169273796
 30
-0.0000000000000049
 10
8779.783342565679
 20
-3865.155072677766
 30
-0.0000000000000049
  0
SPLINE
  5
12D86D
330
18
100
AcDbEntity
  8
姿図
100
AcDbSpline
210
0.0
220
0.0
230
1.0
 70
     8
 71
     3
 72
    11
 73
     7
 74
     0
 42
0.000000001
 43
0.0000000001
 40
0.0
 40
0.0
 40
0.0
 40
0.0
 40
1.0
 40
1.0
 40
1.0
 40
1.768789991941922
 40
1.768789991941922
 40
1.768789991941922
 40
1.768789991941922
 10
8784.348578244535
 20
-3858.798591084771
 30
-0.0000000000000049
 10
8784.348578244535
 20
-3858.798591084771
 30
-0.0000000000000049
 10
8784.655595419084
 20
-3858.774207049247
 30
-0.0000000000000049
 10
8784.017177034462
 20
-3859.24747901146
 30
-0.0000000000000049
 10
8783.52636736969
 20
-3859.611325759476
 30
-0.0000000000000049
 10
8780.855758911532
 20
-3861.707875079546
 30
-0.0000000000000049
 10
8779.64705384162
 20
-3862.657910905788
 30
-0.0000000000000049
  0
SPLINE
  5
12D86E
330
18
100
AcDbEntity
  8
姿図
100
AcDbSpline
210
0.0
220
0.0
230
1.0
 70
     8
 71
     3
 72
     8
 73
     4
 74
     0
 42
0.000000001
 43
0.0000000001
 40
0.0
 40
0.0
 40
0.0
 40
0.0
 40
1.0
 40
1.0
 40
1.0
 40
1.0
 10
8783.520629401974
 20
-3856.858951895373
 30
-0.0000000000000049
 10
8783.520629401974
 20
-3856.858951895373
 30
-0.0000000000000049
 10
8783.876414647573
 20
-3856.883335930897
 30
-0.0000000000000049
 10
8783.615948813569
 20
-3857.119417729378
 30
-0.0000000000000049
  0
SPLINE
  5
12D86F
330
18
100
AcDbEntity
  8
姿図
100
AcDbSpline
210
0.0
220
0.0
230
1.0
 70
     8
 71
     3
 72
     8
 73
     4
 74
     0
 42
0.000000001
 43
0.0000000001
 40
1.0
 40
1.0
 40
1.0
 40
1.0
 40
1.675127286579802
 40
1.675127286579802
 40
1.675127286579802
 40
1.675127286579802
 10
8783.615948813569
 20
-3857.119417729378
 30
-0.0000000000000049
 10
8783.440101221811
 20
-3857.278802993398
 30
-0.0000000000000049
 10
8780.257618954562
 20
-3859.820156247829
 30
-0.0000000000000049
 10
8776.770494332019
 20
-3862.637514810475
 30
-0.0000000000000049
  0
SPLINE
  5
12D870
330
18
100
AcDbEntity
  8
姿図
100
AcDbSpline
210
0.0
220
0.0
230
1.0
 70
    24
 71
     3
 72
     8
 73
     4
 74
     0
 42
0.000000001
 43
0.0000000001
 40
0.0
 40
0.0
 40
0.0
 40
0.0
 40
1.0
 40
1.0
 40
1.0
 40
1.0
 10
8782.527534137005
 20
-3858.372978828354
 30
-0.0000000000000049
 10
8782.527534137005
 20
-3858.372978828354
 30
-0.0000000000000049
 10
8784.348578244535
 20
-3858.798591084771
 30
-0.0000000000000049
 10
8784.348578244535
 20
-3858.798591084771
 30
-0.0000000000000049
  0
SPLINE
  5
12D871
330
18
100
AcDbEntity
  8
姿図
100
AcDbSpline
210
0.0
220
0.0
230
1.0
 70
     8
 71
     3
 72
    11
 73
     7
 74
     0
 42
0.000000001
 43
0.0000000001
 40
1.0
 40
1.0
 40
1.0
 40
1.0
 40
2.0
 40
2.0
 40
2.0
 40
2.814388548252564
 40
2.814388548252564
 40
2.814388548252564
 40
2.814388548252564
 10
8784.348578244535
 20
-3858.798591084771
 30
-0.0000000000000049
 10
8784.348578244535
 20
-3858.798591084771
 30
-0.0000000000000049
 10
8784.797466171225
 20
-3858.891693765862
 30
-0.0000000000000049
 10
8784.490448996674
 20
-3859.128883929594
 30
-0.0000000000000049
 10
8784.240417725603
 20
-3859.322048882696
 30
-0.0000000000000049
 10
8780.908848709401
 20
-3861.999850662741
 30
-0.0000000000000049
 10
8779.680707966105
 20
-3862.987257170686
 30
-0.0000000000000049
  0
SPLINE
  5
12D872
330
18
100
AcDbEntity
  8
姿図
100
AcDbSpline
210
0.0
220
0.0
230
1.0
 70
    24
 71
     3
 72
     8
 73
     4
 74
     0
 42
0.000000001
 43
0.0000000001
 40
0.0
 40
0.0
 40
0.0
 40
0.0
 40
1.0
 40
1.0
 40
1.0
 40
1.0
 10
8779.548248342091
 20
-3858.86952646084
 30
-0.0000000000000049
 10
8779.548248342091
 20
-3858.86952646084
 30
-0.0000000000000049
 10
8781.062275275071
 20
-3857.450818939452
 30
-0.0000000000000049
 10
8781.062275275071
 20
-3857.450818939452
 30
-0.0000000000000049
  0
SPLINE
  5
12D873
330
18
100
AcDbEntity
  8
姿図
100
AcDbSpline
210
0.0
220
0.0
230
1.0
 70
     8
 71
     3
 72
     8
 73
     4
 74
     0
 42
0.000000001
 43
0.0000000001
 40
1.0
 40
1.0
 40
1.0
 40
1.0
 40
1.201957035102942
 40
1.201957035102942
 40
1.201957035102942
 40
1.201957035102942
 10
8781.062275275071
 20
-3857.450818939452
 30
-0.0000000000000049
 10
8781.000047154614
 20
-3857.211979354818
 30
-0.0000000000000049
 10
8780.906038865396
 20
-3857.006909024898
 30
-0.0000000000000049
 10
8780.795624940929
 20
-3856.831709537691
 30
-0.0000000000000049
  0
SPLINE
  5
12D874
330
18
100
AcDbEntity
  8
姿図
100
AcDbSpline
210
0.0
220
0.0
230
1.0
 70
     8
 71
     3
 72
     8
 73
     4
 74
     0
 42
0.000000001
 43
0.0000000001
 40
1.371408514633379
 40
1.371408514633379
 40
1.371408514633379
 40
1.371408514633379
 40
2.0
 40
2.0
 40
2.0
 40
2.0
 10
8780.492130330731
 20
-3856.451492117623
 30
-0.0000000000000049
 10
8780.096467782607
 20
-3856.053658838511
 30
-0.0000000000000049
 10
8779.666843423956
 20
-3855.913516336199
 30
-0.0000000000000049
 10
8779.666843423956
 20
-3855.913516336199
 30
-0.0000000000000049
  0
SPLINE
  5
12D875
330
18
100
AcDbEntity
  8
姿図
100
AcDbSpline
210
0.0
220
0.0
230
1.0
 70
    24
 71
     3
 72
     8
 73
     4
 74
     0
 42
0.000000001
 43
0.0000000001
 40
2.0
 40
2.0
 40
2.0
 40
2.0
 40
3.0
 40
3.0
 40
3.0
 40
3.0
 10
8779.666843423956
 20
-3855.913516336199
 30
-0.0000000000000049
 10
8779.666843423956
 20
-3855.913516336199
 30
-0.0000000000000049
 10
8778.1533706736
 20
-3857.071758023581
 30
-0.0000000000000049
 10
8778.1533706736
 20
-3857.071758023581
 30
-0.0000000000000049
  0
SPLINE
  5
12D876
330
18
100
AcDbEntity
  8
姿図
100
AcDbSpline
210
0.0
220
0.0
230
1.0
 70
    24
 71
     3
 72
     8
 73
     4
 74
     0
 42
0.000000001
 43
0.0000000001
 40
0.1253663450285614
 40
0.1253663450285614
 40
0.1253663450285614
 40
0.1253663450285614
 40
1.0
 40
1.0
 40
1.0
 40
1.0
 10
8780.951807000434
 20
-3857.12842162227
 30
-0.0000000000000049
 10
8781.514324542686
 20
-3857.065069306476
 30
-0.0000000000000049
 10
8783.757819565708
 20
-3856.812400554828
 30
-0.0000000000000049
 10
8783.757819565708
 20
-3856.812400554828
 30
-0.0000000000000049
  0
SPLINE
  5
12D877
330
18
100
AcDbEntity
  8
姿図
100
AcDbSpline
210
0.0
220
0.0
230
1.0
 70
     8
 71
     3
 72
    11
 73
     7
 74
     0
 42
0.000000001
 43
0.0000000001
 40
1.0
 40
1.0
 40
1.0
 40
1.0
 40
2.0
 40
2.0
 40
2.0
 40
2.782200575022114
 40
2.782200575022114
 40
2.782200575022114
 40
2.782200575022114
 10
8783.757819565708
 20
-3856.812400554828
 30
-0.0000000000000049
 10
8783.757819565708
 20
-3856.812400554828
 30
-0.0000000000000049
 10
8784.443897656129
 20
-3856.788016519304
 30
-0.0000000000000049
 10
8783.899690317845
 20
-3857.261288481517
 30
-0.0000000000000049
 10
8783.474011024911
 20
-3857.631482082503
 30
-0.0000000000000049
 10
8779.880402170907
 20
-3860.590813019279
 30
-0.0000000000000049
 10
8778.3352230608
 20
-3861.862333450084
 30
-0.0000000000000049
  0
SPLINE
  5
12D878
330
18
100
AcDbEntity
  8
姿図
100
AcDbSpline
210
0.0
220
0.0
230
1.0
 70
    24
 71
     3
 72
     8
 73
     4
 74
     0
 42
0.000000001
 43
0.0000000001
 40
1.497644491992662
 40
1.497644491992662
 40
1.497644491992662
 40
1.497644491992662
 40
2.0
 40
2.0
 40
2.0
 40
2.0
 10
8778.749840721943
 20
-3857.761450689281
 30
-0.0000000000000049
 10
8780.987819115451
 20
-3856.078803346972
 30
-0.0000000000000049
 10
8782.622853548597
 20
-3854.849485695157
 30
-0.0000000000000049
 10
8782.622853548597
 20
-3854.849485695157
 30
-0.0000000000000049
  0
SPLINE
  5
12D879
330
18
100
AcDbEntity
  8
姿図
100
AcDbSpline
210
0.0
220
0.0
230
1.0
 70
     8
 71
     3
 72
     8
 73
     4
 74
     0
 42
0.000000001
 43
0.0000000001
 40
2.0
 40
2.0
 40
2.0
 40
2.0
 40
3.0
 40
3.0
 40
3.0
 40
3.0
 10
8782.622853548597
 20
-3854.849485695157
 30
-0.0000000000000049
 10
8782.622853548597
 20
-3854.849485695157
 30
-0.0000000000000049
 10
8782.906595052875
 20
-3854.792959067353
 30
-0.0000000000000049
 10
8782.858935347078
 20
-3855.085567493639
 30
-0.0000000000000049
  0
SPLINE
  5
12D87A
330
18
100
AcDbEntity
  8
姿図
100
AcDbSpline
210
0.0
220
0.0
230
1.0
 70
     8
 71
     3
 72
     8
 73
     4
 74
     0
 42
0.000000001
 43
0.0000000001
 40
3.0
 40
3.0
 40
3.0
 40
3.0
 40
3.496884023461582
 40
3.496884023461582
 40
3.496884023461582
 40
3.496884023461582
 10
8782.858935347078
 20
-3855.085567493639
 30
-0.0000000000000049
 10
8782.847370038384
 20
-3855.156060803773
 30
-0.0000000000000049
 10
8781.28859648321
 20
-3856.434985598956
 30
-0.0000000000000049
 10
8779.3099710292
 20
-3858.015273356572
 30
-0.0000000000000049
  0
SPLINE
  5
12D87B
330
18
100
AcDbEntity
  8
姿図
100
AcDbSpline
210
0.0
220
0.0
230
1.0
 70
     8
 71
     3
 72
     8
 73
     4
 74
     0
 42
0.000000001
 43
0.0000000001
 40
1.170835818589572
 40
1.170835818589572
 40
1.170835818589572
 40
1.170835818589572
 40
1.26068276038169
 40
1.26068276038169
 40
1.26068276038169
 40
1.26068276038169
 10
8776.910639289039
 20
-3856.848983343246
 30
-0.0000000000000049
 10
8777.886691688995
 20
-3856.097030344643
 30
-0.0000000000000049
 10
8779.324158688685
 20
-3854.988544389407
 30
-0.0000000000000049
 10
8781.438405896859
 20
-3853.356494362009
 30
-0.0000000000000049
  0
SPLINE
  5
12D87C
330
18
100
AcDbEntity
  8
姿図
100
AcDbSpline
210
0.0
220
0.0
230
1.0
 70
    24
 71
     3
 72
     8
 73
     4
 74
     0
 42
0.000000001
 43
0.0000000001
 40
1.505104155280973
 40
1.505104155280973
 40
1.505104155280973
 40
1.505104155280973
 40
2.0
 40
2.0
 40
2.0
 40
2.0
 10
8776.506957831152
 20
-3856.631818964507
 30
-0.0000000000000049
 10
8779.516289395451
 20
-3854.399378673392
 30
-0.0000000000000049
 10
8781.108826615617
 20
-3853.217972045562
 30
-0.0000000000000049
 10
8781.108826615617
 20
-3853.217972045562
 30
-0.0000000000000049
  0
SPLINE
  5
12D87D
330
18
100
AcDbEntity
  8
姿図
100
AcDbSpline
210
0.0
220
0.0
230
1.0
 70
     8
 71
     3
 72
     8
 73
     4
 74
     0
 42
0.000000001
 43
0.0000000001
 40
2.0
 40
2.0
 40
2.0
 40
2.0
 40
3.0
 40
3.0
 40
3.0
 40
3.0
 10
8781.108826615617
 20
-3853.217972045562
 30
-0.0000000000000049
 10
8781.108826615617
 20
-3853.217972045562
 30
-0.0000000000000049
 10
8781.58320694308
 20
-3853.029549952877
 30
-0.0000000000000049
 10
8781.558822907557
 20
-3853.383672650599
 30
-0.0000000000000049
  0
SPLINE
  5
12D87E
330
18
100
AcDbEntity
  8
姿図
100
AcDbSpline
210
0.0
220
0.0
230
1.0
 70
    24
 71
     3
 72
     8
 73
     4
 74
     0
 42
0.000000001
 43
0.0000000001
 40
3.0
 40
3.0
 40
3.0
 40
3.0
 40
4.0
 40
4.0
 40
4.0
 40
4.0
 10
8781.558822907557
 20
-3853.383672650599
 30
-0.0000000000000049
 10
8781.558822907557
 20
-3853.383672650599
 30
-0.0000000000000049
 10
8779.973860598506
 20
-3856.032111418065
 30
-0.0000000000000049
 10
8779.973860598506
 20
-3856.032111418065
 30
-0.0000000000000049
  0
SPLINE
  5
12D87F
330
18
100
AcDbEntity
  8
姿図
100
AcDbSpline
210
0.0
220
0.0
230
1.0
 70
    24
 71
     3
 72
     8
 73
     4
 74
     0
 42
0.000000001
 43
0.0000000001
 40
1.351290308159437
 40
1.351290308159437
 40
1.351290308159437
 40
1.351290308159437
 40
1.428242292534494
 40
1.428242292534494
 40
1.428242292534494
 40
1.428242292534494
 10
8774.825308002612
 20
-3855.657495813219
 30
-0.0000000000000049
 10
8775.05419286796
 20
-3855.488300606623
 30
-0.0000000000000049
 10
8775.294571427012
 20
-3855.310609085179
 30
-0.0000000000000049
 10
8775.54049610145
 20
-3855.128817790088
 30
-0.0000000000000049
  0
SPLINE
  5
12D880
330
18
100
AcDbEntity
  8
姿図
100
AcDbSpline
210
0.0
220
0.0
230
1.0
 70
    24
 71
     3
 72
     8
 73
     4
 74
     0
 42
0.000000001
 43
0.0000000001
 40
1.615278216396081
 40
1.615278216396081
 40
1.615278216396081
 40
1.615278216396081
 40
2.0
 40
2.0
 40
2.0
 40
2.0
 10
8775.54049610145
 20
-3855.128817790088
 30
-0.0000000000000049
 10
8778.53521592558
 20
-3852.915074917377
 30
-0.0000000000000049
 10
8779.50114281892
 20
-3852.201046927692
 30
-0.0000000000000049
 10
8779.50114281892
 20
-3852.201046927692
 30
-0.0000000000000049
  0
SPLINE
  5
12D881
330
18
100
AcDbEntity
  8
姿図
100
AcDbSpline
210
0.0
220
0.0
230
1.0
 70
     8
 71
     3
 72
     8
 73
     4
 74
     0
 42
0.000000001
 43
0.0000000001
 40
2.0
 40
2.0
 40
2.0
 40
2.0
 40
3.0
 40
3.0
 40
3.0
 40
3.0
 10
8779.50114281892
 20
-3852.201046927692
 30
-0.0000000000000049
 10
8779.50114281892
 20
-3852.201046927692
 30
-0.0000000000000049
 10
8779.713394764502
 20
-3852.035900505281
 30
-0.0000000000000049
 10
8779.690119094228
 20
-3852.721424413076
 30
-0.0000000000000049
  0
SPLINE
  5
12D882
330
18
100
AcDbEntity
  8
姿図
100
AcDbSpline
210
0.0
220
0.0
230
1.0
 70
    24
 71
     3
 72
     8
 73
     4
 74
     0
 42
0.000000001
 43
0.0000000001
 40
1.350323050295565
 40
1.350323050295565
 40
1.350323050295565
 40
1.350323050295565
 40
1.445359962748388
 40
1.445359962748388
 40
1.445359962748388
 40
1.445359962748388
 10
8774.579700193719
 20
-3855.505398586011
 30
-0.0000000000000049
 10
8774.869186837754
 20
-3855.29059110522
 30
-0.0000000000000049
 10
8775.176766440916
 20
-3855.062358124324
 30
-0.0000000000000049
 10
8775.490950935227
 20
-3854.829224122746
 30
-0.0000000000000049
  0
SPLINE
  5
12D883
330
18
100
AcDbEntity
  8
姿図
100
AcDbSpline
210
0.0
220
0.0
230
1.0
 70
    24
 71
     3
 72
     8
 73
     4
 74
     0
 42
0.000000001
 43
0.0000000001
 40
1.629831745831646
 40
1.629831745831646
 40
1.629831745831646
 40
1.629831745831646
 40
2.0
 40
2.0
 40
2.0
 40
2.0
 10
8775.490950935227
 20
-3854.829224122746
 30
-0.0000000000000049
 10
8778.466167265267
 20
-3852.621527367703
 30
-0.0000000000000049
 10
8779.383101919679
 20
-3851.941135276314
 30
-0.0000000000000049
 10
8779.383101919679
 20
-3851.941135276314
 30
-0.0000000000000049
  0
SPLINE
  5
12D884
330
18
100
AcDbEntity
  8
姿図
100
AcDbSpline
210
0.0
220
0.0
230
1.0
 70
     8
 71
     3
 72
    11
 73
     7
 74
     0
 42
0.000000001
 43
0.0000000001
 40
2.0
 40
2.0
 40
2.0
 40
2.0
 40
3.0
 40
3.0
 40
3.0
 40
4.0
 40
4.0
 40
4.0
 40
4.0
 10
8779.383101919679
 20
-3851.941135276314
 30
-0.0000000000000049
 10
8779.383101919679
 20
-3851.941135276314
 30
-0.0000000000000049
 10
8779.690119094228
 20
-3851.893475570517
 30
-0.0000000000000049
 10
8779.690119094228
 20
-3852.201046927692
 30
-0.0000000000000049
 10
8779.690119094228
 20
-3852.508618284868
 30
-0.0000000000000049
 10
8779.666843423956
 20
-3854.211067310534
 30
-0.0000000000000049
 10
8779.666843423956
 20
-3854.211067310534
 30
-0.0000000000000049
  0
SPLINE
  5
12D885
330
18
100
AcDbEntity
  8
姿図
100
AcDbSpline
210
0.0
220
0.0
230
1.0
 70
    24
 71
     3
 72
     8
 73
     4
 74
     0
 42
0.000000001
 43
0.0000000001
 40
1.393866661974843
 40
1.393866661974843
 40
1.393866661974843
 40
1.393866661974843
 40
1.573101002211188
 40
1.573101002211188
 40
1.573101002211188
 40
1.573101002211188
 10
8773.528678947547
 20
-3854.824702678498
 30
-0.0000000000000049
 10
8774.091252662143
 20
-3854.405878831459
 30
-0.0000000000000049
 10
8774.698652903251
 20
-3853.953682614191
 30
-0.0000000000000049
 10
8775.27517817072
 20
-3853.524472140661
 30
-0.0000000000000049
  0
SPLINE
  5
12D886
330
18
100
AcDbEntity
  8
姿図
100
AcDbSpline
210
0.0
220
0.0
230
1.0
 70
    24
 71
     3
 72
     8
 73
     4
 74
     0
 42
0.000000001
 43
0.0000000001
 40
1.799348189808347
 40
1.799348189808347
 40
1.799348189808347
 40
1.799348189808347
 40
2.0
 40
2.0
 40
2.0
 40
2.0
 10
8775.27517817072
 20
-3853.524472140661
 30
-0.0000000000000049
 10
8777.581688208407
 20
-3851.807325778935
 30
-0.0000000000000049
 10
8777.84635349905
 20
-3851.610288248864
 30
-0.0000000000000049
 10
8777.84635349905
 20
-3851.610288248864
 30
-0.0000000000000049
  0
SPLINE
  5
12D887
330
18
100
AcDbEntity
  8
姿図
100
AcDbSpline
210
0.0
220
0.0
230
1.0
 70
     8
 71
     3
 72
     8
 73
     4
 74
     0
 42
0.000000001
 43
0.0000000001
 40
2.0
 40
2.0
 40
2.0
 40
2.0
 40
3.0
 40
3.0
 40
3.0
 40
3.0
 10
8777.84635349905
 20
-3851.610288248864
 30
-0.0000000000000049
 10
8777.84635349905
 20
-3851.610288248864
 30
-0.0000000000000049
 10
8778.012054104089
 20
-3851.633563919137
 30
-0.0000000000000049
 10
8777.988224251189
 20
-3851.988240799485
 30
-0.0000000000000049
  0
SPLINE
  5
12D888
330
18
100
AcDbEntity
  8
姿図
100
AcDbSpline
210
0.0
220
0.0
230
1.0
 70
    24
 71
     3
 72
     8
 73
     4
 74
     0
 42
0.000000001
 43
0.0000000001
 40
1.391994967145553
 40
1.391994967145553
 40
1.391994967145553
 40
1.391994967145553
 40
1.583667207078013
 40
1.583667207078013
 40
1.583667207078013
 40
1.583667207078013
 10
8773.361774170171
 20
-3854.712022903744
 30
-0.0000000000000049
 10
8773.96663059129
 20
-3854.262659038229
 30
-0.0000000000000049
 10
8774.62402432353
 20
-3853.774263811911
 30
-0.0000000000000049
 10
8775.240719488556
 20
-3853.316104629789
 30
-0.0000000000000049
  0
SPLINE
  5
12D889
330
18
100
AcDbEntity
  8
姿図
100
AcDbSpline
210
0.0
220
0.0
230
1.0
 70
    24
 71
     3
 72
     8
 73
     4
 74
     0
 42
0.000000001
 43
0.0000000001
 40
1.815455566821609
 40
1.815455566821609
 40
1.815455566821609
 40
1.815455566821609
 40
2.0
 40
2.0
 40
2.0
 40
2.0
 10
8775.240719488556
 20
-3853.316104629789
 30
-0.0000000000000049
 10
8777.502294361664
 20
-3851.635920718953
 30
-0.0000000000000049
 10
8777.727758417182
 20
-3851.468417496726
 30
-0.0000000000000049
 10
8777.727758417182
 20
-3851.468417496726
 30
-0.0000000000000049
  0
SPLINE
  5
12D88A
330
18
100
AcDbEntity
  8
姿図
100
AcDbSpline
210
0.0
220
0.0
230
1.0
 70
     8
 71
     3
 72
     8
 73
     4
 74
     0
 42
0.000000001
 43
0.0000000001
 40
2.0
 40
2.0
 40
2.0
 40
2.0
 40
3.0
 40
3.0
 40
3.0
 40
3.0
 10
8777.727758417182
 20
-3851.468417496726
 30
-0.0000000000000049
 10
8777.727758417182
 20
-3851.468417496726
 30
-0.0000000000000049
 10
8777.964948580917
 20
-3851.373098085132
 30
-0.0000000000000049
 10
8777.988224251189
 20
-3851.633563919137
 30
-0.0000000000000049
  0
SPLINE
  5
12D88B
330
18
100
AcDbEntity
  8
姿図
100
AcDbSpline
210
0.0
220
0.0
230
1.0
 70
    24
 71
     3
 72
     8
 73
     4
 74
     0
 42
0.000000001
 43
0.0000000001
 40
3.0
 40
3.0
 40
3.0
 40
3.0
 40
4.0
 40
4.0
 40
4.0
 40
4.0
 10
8777.988224251189
 20
-3851.633563919137
 30
-0.0000000000000049
 10
8777.988224251189
 20
-3851.633563919137
 30
-0.0000000000000049
 10
8777.940564545392
 20
-3853.288907421632
 30
-0.0000000000000049
 10
8777.940564545392
 20
-3853.288907421632
 30
-0.0000000000000049
  0
SPLINE
  5
12D88C
330
18
100
AcDbEntity
  8
姿図
100
AcDbSpline
210
0.0
220
0.0
230
1.0
 70
    24
 71
     3
 72
     8
 73
     4
 74
     0
 42
0.000000001
 43
0.0000000001
 40
1.477316060400323
 40
1.477316060400323
 40
1.477316060400323
 40
1.477316060400323
 40
1.790999460430504
 40
1.790999460430504
 40
1.790999460430504
 40
1.790999460430504
 10
8772.524008379158
 20
-3854.126607229315
 30
-0.0000000000000049
 10
8773.627286270841
 20
-3853.304506914731
 30
-0.0000000000000049
 10
8774.843681910772
 20
-3852.398117648904
 30
-0.0000000000000049
 10
8775.845380828923
 20
-3851.651708242953
 30
-0.0000000000000049
  0
SPLINE
  5
12D88D
330
18
100
AcDbEntity
  8
姿図
100
AcDbSpline
210
0.0
220
0.0
230
1.0
 70
     8
 71
     3
 72
     8
 73
     4
 74
     0
 42
0.000000001
 43
0.0000000001
 40
0.3537168008125633
 40
0.3537168008125633
 40
0.3537168008125633
 40
0.3537168008125633
 40
1.0
 40
1.0
 40
1.0
 40
1.0
 10
8774.035304243596
 20
-3875.014928591446
 30
-0.0000000000000049
 10
8773.20223526707
 20
-3875.811166774846
 30
-0.0000000000000049
 10
8771.621987733015
 20
-3877.137849286565
 30
-0.0000000000000049
 10
8769.192237618587
 20
-3878.375646514671
 30
-0.0000000000000049
  0
SPLINE
  5
12D88E
330
18
100
AcDbEntity
  8
姿図
100
AcDbSpline
210
0.0
220
0.0
230
1.0
 70
     8
 71
     3
 72
     8
 73
     4
 74
     0
 42
0.000000001
 43
0.0000000001
 40
1.0
 40
1.0
 40
1.0
 40
1.000000000000004
 40
1.288768352431942
 40
1.288768352431942
 40
1.288768352431942
 40
1.288768352431942
 10
8760.689392144224
 20
-3857.726483501679
 30
-0.0000000000000049
 10
8761.592609937119
 20
-3857.070770846814
 30
-0.0000000000000049
 10
8762.682244003736
 20
-3856.772063360692
 30
-0.0000000000000049
 10
8763.862881820743
 20
-3856.793351119328
 30
-0.0000000000000049
  0
SPLINE
  5
12D88F
330
18
100
AcDbEntity
  8
姿図
100
AcDbSpline
210
0.0
220
0.0
230
1.0
 70
     8
 71
     3
 72
     8
 73
     4
 74
     0
 42
0.000000001
 43
0.0000000001
 40
1.60529487433178
 40
1.60529487433178
 40
1.60529487433178
 40
1.60529487433178
 40
2.0
 40
2.0
 40
2.0
 40
2.0
 10
8767.947629396802
 20
-3857.968027273596
 30
-0.0000000000000049
 10
8769.677392161957
 20
-3858.895208781186
 30
-0.0000000000000049
 10
8771.381782672863
 20
-3860.344444738
 30
-0.0000000000000049
 10
8772.817146172256
 20
-3862.221222980119
 30
-0.0000000000000049
  0
SPLINE
  5
12D890
330
18
100
AcDbEntity
  8
姿図
100
AcDbSpline
210
0.0
220
0.0
230
1.0
 70
     8
 71
     3
 72
     8
 73
     4
 74
     0
 42
0.000000001
 43
0.0000000001
 40
2.0
 40
2.0
 40
2.0
 40
2.0
 40
2.10277645146085
 40
2.10277645146085
 40
2.10277645146085
 40
2.10277645146085
 10
8772.817146172256
 20
-3862.221222980119
 30
-0.0000000000000049
 10
8773.191125333364
 20
-3862.709913385589
 30
-0.0000000000000049
 10
8773.532328897474
 20
-3863.208660671868
 30
-0.0000000000000049
 10
8773.840333984723
 20
-3863.712767097929
 30
-0.0000000000000049
  0
SPLINE
  5
12D891
330
18
100
AcDbEntity
  8
姿図
100
AcDbSpline
210
0.0
220
0.0
230
1.0
 70
     8
 71
     3
 72
     8
 73
     4
 74
     0
 42
0.000000001
 43
0.0000000001
 40
2.529370585629382
 40
2.529370585629382
 40
2.529370585629382
 40
2.529370585629382
 40
2.999999999999997
 40
3.0
 40
3.0
 40
3.0
 10
8775.929543121678
 20
-3869.931003027416
 30
-0.0000000000000049
 10
8776.044598092565
 20
-3872.072494239876
 30
-0.0000000000000049
 10
8775.426719940926
 20
-3873.917493271138
 30
-0.0000000000000049
 10
8774.035304243478
 20
-3875.014928591559
 30
-0.0000000000000049
  0
SPLINE
  5
12D892
330
18
100
AcDbEntity
  8
姿図
100
AcDbSpline
210
0.0
220
0.0
230
1.0
 70
     8
 71
     3
 72
     8
 73
     4
 74
     0
 42
0.000000001
 43
0.0000000001
 40
0.0
 40
0.0
 40
0.0
 40
0.0
 40
0.6954798433709158
 40
0.6954798433709158
 40
0.6954798433709158
 40
0.6954798433709158
 10
8756.449930533174
 20
-3861.228619540701
 30
-0.0000000000000049
 10
8758.415191869757
 20
-3859.965161497821
 30
-0.0000000000000049
 10
8761.563381498458
 20
-3860.368282575026
 30
-0.0000000000000049
 10
8764.50114656132
 20
-3862.303280345926
 30
-0.0000000000000049
  0
SPLINE
  5
12D893
330
18
100
AcDbEntity
  8
姿図
100
AcDbSpline
210
0.0
220
0.0
230
1.0
 70
     8
 71
     3
 72
     8
 73
     4
 74
     0
 42
0.000000001
 43
0.0000000001
 40
1.015182115487075
 40
1.015182115487075
 40
1.015182115487075
 40
1.015182115487075
 40
1.196450029701192
 40
1.196450029701192
 40
1.196450029701192
 40
1.196450029701192
 10
8768.282856392088
 20
-3865.928351271374
 30
-0.0000000000000049
 10
8768.914199038356
 20
-3866.780732943608
 30
-0.0000000000000049
 10
8769.44516932972
 20
-3867.661526836776
 30
-0.0000000000000049
 10
8769.873347799235
 20
-3868.545145355034
 30
-0.0000000000000049
  0
SPLINE
  5
12D894
330
18
100
AcDbEntity
  8
姿図
100
AcDbSpline
210
0.0
220
0.0
230
1.0
 70
     8
 71
     3
 72
     8
 73
     4
 74
     0
 42
0.000000001
 43
0.0000000001
 40
1.508657354191098
 40
1.508657354191098
 40
1.508657354191098
 40
1.508657354191098
 40
2.0
 40
2.0
 40
2.0
 40
2.0
 10
8771.158613499429
 20
-3873.005255731594
 30
-0.0000000000000049
 10
8771.339988513195
 20
-3875.221006777776
 30
-0.0000000000000049
 10
8770.735504999058
 20
-3877.133709790251
 30
-0.0000000000000049
 10
8769.296978134811
 20
-3878.233775762532
 30
-0.0000000000000049
  0
SPLINE
  5
12D895
330
18
100
AcDbEntity
  8
姿図
100
AcDbSpline
210
0.0
220
0.0
230
1.0
 70
    24
 71
     3
 72
     8
 73
     4
 74
     0
 42
0.000000001
 43
0.0000000001
 40
2.0
 40
2.0
 40
2.0
 40
2.0
 40
3.0
 40
3.0
 40
3.0
 40
3.0
 10
8769.296978134811
 20
-3878.233775762532
 30
-0.0000000000000049
 10
8769.284231934424
 20
-3878.243751049791
 30
-0.0000000000000049
 10
8769.271485734038
 20
-3878.253726337051
 30
-0.0000000000000049
 10
8769.25873953365
 20
-3878.263701624311
 30
-0.0000000000000049
  0
ELLIPSE
  5
12D896
330
18
100
AcDbEntity
  8
姿図
100
AcDbEllipse
 10
8775.629041512162
 20
-3859.435130222328
 30
-0.0000000000000049
 11
4.055268737407109
 21
-4.23080382064514
 31
0.0
210
0.0
220
0.0
230
1.0
 40
0.589675754012904
 41
2.589251650966877
 42
2.665769938206601
  0
ELLIPSE
  5
12D897
330
18
100
AcDbEntity
  8
姿図
100
AcDbEllipse
 10
8775.629041512162
 20
-3859.435130222328
 30
-0.0000000000000049
 11
4.055268737407109
 21
-4.23080382064514
 31
0.0
210
0.0
220
0.0
230
1.0
 40
0.589675754012904
 41
6.96598111917236
 42
7.147828363455014
  0
ELLIPSE
  5
12D898
330
18
100
AcDbEntity
  8
姿図
100
AcDbEllipse
 10
8775.629041512162
 20
-3859.435130222328
 30
-0.0000000000000049
 11
4.055268737407109
 21
-4.23080382064514
 31
0.0
210
0.0
220
0.0
230
1.0
 40
0.589675754012904
 41
7.339249712863026
 42
7.522317431001255
  0
ELLIPSE
  5
12D899
330
18
100
AcDbEntity
  8
姿図
100
AcDbEllipse
 10
8775.629041512162
 20
-3859.435130222328
 30
-0.0000000000000049
 11
4.055268737407109
 21
-4.23080382064514
 31
0.0
210
0.0
220
0.0
230
1.0
 40
0.589675754012904
 41
7.690618598159064
 42
7.896541804765815
  0
ELLIPSE
  5
12D89A
330
18
100
AcDbEntity
  8
姿図
100
AcDbEllipse
 10
8775.629041512162
 20
-3859.435130222328
 30
-0.0000000000000049
 11
4.055268737407109
 21
-4.23080382064514
 31
0.0
210
0.0
220
0.0
230
1.0
 40
0.589675754012904
 41
8.489247713282603
 42
8.60769396429671
  0
ARC
  5
12D89B
330
18
100
AcDbEntity
  8
姿図
100
AcDbCircle
 10
8774.78422342506
 20
-3854.473924252524
 30
-0.0000000000000049
 40
0.3409184771747684
100
AcDbArc
 50
158.3286271790616
 51
250.9430020259657
  0
ARC
  5
12D89C
330
18
100
AcDbEntity
  8
姿図
100
AcDbCircle
 10
8778.240021462703
 20
-3856.580442270071
 30
-0.0000000000000049
 40
0.4076848235102282
100
AcDbArc
 50
160.4247343164952
 51
224.4606610653978
  0
ARC
  5
12D89D
330
18
100
AcDbEntity
  8
姿図
100
AcDbCircle
 10
8780.334879624761
 20
-3859.125298300604
 30
-0.0000000000000049
 40
0.6214336759953889
100
AcDbArc
 50
210.0537915452814
 51
255.6920591719379
  0
ARC
  5
12D89E
330
18
100
AcDbEntity
  8
姿図
100
AcDbCircle
 10
8780.68945066259
 20
-3861.06254234269
 30
-0.0000000000000049
 40
0.3701907082746123
100
AcDbArc
 50
203.2404029724889
 51
273.6673327535192
  0
SPLINE
  5
12D89F
330
18
100
AcDbEntity
  8
姿図
100
AcDbSpline
210
0.0
220
0.0
230
1.0
 70
     8
 71
     3
 72
     8
 73
     4
 74
     0
 42
0.000000001
 43
0.0000000001
 40
0.0
 40
0.0
 40
0.0
 40
0.0
 40
0.5686588660320964
 40
0.5686588660320964
 40
0.5686588660320964
 40
0.5686588660320964
 10
8764.655644877545
 20
-3880.097098176206
 30
-0.0000000000000049
 10
8766.70403332612
 20
-3879.640472852151
 30
-0.0000000000000049
 10
8767.858517238947
 20
-3879.169234803775
 30
-0.0000000000000049
 10
8769.236675862852
 20
-3878.314376963649
 30
-0.0000000000000049
  0
SPLINE
  5
12D8A0
330
18
100
AcDbEntity
  8
姿図
100
AcDbSpline
210
0.0
220
0.0
230
1.0
 70
     8
 71
     3
 72
     8
 73
     4
 74
     0
 42
0.000000001
 43
0.0000000001
 40
0.0345848742755237
 40
0.0345848742755237
 40
0.0345848742755237
 40
0.0345848742755237
 40
1.0
 40
1.0
 40
1.0
 40
1.0
 10
8762.076208883973
 20
-3878.826040884042
 30
-0.0000000000000049
 10
8760.402071732296
 20
-3878.671896544338
 30
-0.0000000000000049
 10
8758.179592181456
 20
-3877.070328186263
 30
-0.0000000000000049
 10
8756.448836075315
 20
-3874.596959564969
 30
-0.0000000000000049
  0
SPLINE
  5
12D8A1
330
18
100
AcDbEntity
  8
姿図
100
AcDbSpline
210
0.0
220
0.0
230
1.0
 70
     8
 71
     3
 72
     8
 73
     4
 74
     0
 42
0.000000001
 43
0.0000000001
 40
1.0
 40
1.0
 40
1.0
 40
1.0
 40
1.97362383066519
 40
1.97362383066519
 40
1.97362383066519
 40
1.97362383066519
 10
8756.448836075315
 20
-3874.596959564969
 30
-0.0000000000000049
 10
8754.501791564588
 20
-3871.814427098689
 30
-0.0000000000000049
 10
8753.804920432798
 20
-3868.825415938679
 30
-0.0000000000000049
 10
8754.619921323443
 20
-3867.30317575995
 30
-0.0000000000000049
  0
SPLINE
  5
12D8A2
330
18
100
AcDbEntity
  8
姿図
100
AcDbSpline
210
0.0
220
0.0
230
1.0
 70
     8
 71
     3
 72
     8
 73
     4
 74
     0
 42
0.000000001
 43
0.0000000001
 40
0.0486180101854806
 40
0.0486180101854806
 40
0.0486180101854806
 40
0.0486180101854806
 40
1.0
 40
1.0
 40
1.0
 40
1.0
 10
8761.959699852752
 20
-3879.012583118785
 30
-0.0000000000000049
 10
8760.264799218632
 20
-3878.985750249729
 30
-0.0000000000000049
 10
8757.921906978256
 20
-3877.353090411677
 30
-0.0000000000000049
 10
8756.115235325724
 20
-3874.771642164693
 30
-0.0000000000000049
  0
SPLINE
  5
12D8A3
330
18
100
AcDbEntity
  8
姿図
100
AcDbSpline
210
0.0
220
0.0
230
1.0
 70
     8
 71
     3
 72
     8
 73
     4
 74
     0
 42
0.000000001
 43
0.0000000001
 40
1.0
 40
1.0
 40
1.0
 40
1.0
 40
1.97067420936857
 40
1.97067420936857
 40
1.97067420936857
 40
1.97067420936857
 10
8756.115235325724
 20
-3874.771642164693
 30
-0.0000000000000049
 10
8754.072192370844
 20
-3871.851943146046
 30
-0.0000000000000049
 10
8753.405463198924
 20
-3868.704375697969
 30
-0.0000000000000049
 10
8754.418390950666
 20
-3867.262960040994
 30
-0.0000000000000049
  0
SPLINE
  5
12D8A4
330
18
100
AcDbEntity
  8
姿図
100
AcDbSpline
210
0.0
220
0.0
230
1.0
 70
     8
 71
     3
 72
     8
 73
     4
 74
     0
 42
0.000000001
 43
0.0000000001
 40
0.0353979527042438
 40
0.0353979527042438
 40
0.0353979527042438
 40
0.0353979527042438
 40
1.0
 40
1.0
 40
1.0
 40
1.0
 10
8762.23007641186
 20
-3878.368466752846
 30
-0.0000000000000049
 10
8760.531070468449
 20
-3878.312917403698
 30
-0.0000000000000049
 10
8758.221304864714
 20
-3876.574857394397
 30
-0.0000000000000049
 10
8756.501118221067
 20
-3873.886549790623
 30
-0.0000000000000049
  0
SPLINE
  5
12D8A5
330
18
100
AcDbEntity
  8
姿図
100
AcDbSpline
210
0.0
220
0.0
230
1.0
 70
     8
 71
     3
 72
     8
 73
     4
 74
     0
 42
0.000000001
 43
0.0000000001
 40
1.0
 40
1.0
 40
1.0
 40
1.0
 40
1.963858018535161
 40
1.963858018535161
 40
1.963858018535161
 40
1.963858018535161
 10
8756.501118221067
 20
-3873.886549790623
 30
-0.0000000000000049
 10
8754.954331216799
 20
-3871.469026990571
 30
-0.0000000000000049
 10
8754.305841658846
 20
-3868.940550489247
 30
-0.0000000000000049
 10
8754.672250477748
 20
-3867.317713624047
 30
-0.0000000000000049
  0
SPLINE
  5
12D8A6
330
18
100
AcDbEntity
  8
姿図
100
AcDbSpline
210
0.0
220
0.0
230
1.0
 70
     8
 71
     3
 72
     8
 73
     4
 74
     0
 42
0.000000001
 43
0.0000000001
 40
0.0533072557788984
 40
0.0533072557788984
 40
0.0533072557788984
 40
0.0533072557788984
 40
1.0
 40
1.0
 40
1.0
 40
1.0
 10
8761.891395133056
 20
-3879.104042183118
 30
-0.0000000000000049
 10
8760.182662462616
 20
-3879.249113004465
 30
-0.0000000000000049
 10
8757.69224516668
 20
-3877.584628066602
 30
-0.0000000000000049
 10
8755.793717450131
 20
-3874.871986732516
 30
-0.0000000000000049
  0
SPLINE
  5
12D8A7
330
18
100
AcDbEntity
  8
姿図
100
AcDbSpline
210
0.0
220
0.0
230
1.0
 70
     8
 71
     3
 72
     8
 73
     4
 74
     0
 42
0.000000001
 43
0.0000000001
 40
1.0
 40
1.0
 40
1.0
 40
1.0
 40
1.951403248137341
 40
1.951403248137341
 40
1.951403248137341
 40
1.951403248137341
 10
8755.793717450131
 20
-3874.871986732516
 30
-0.0000000000000049
 10
8753.706078915264
 20
-3871.888655057776
 30
-0.0000000000000049
 10
8753.05544742736
 20
-3868.66730184023
 30
-0.0000000000000049
 10
8754.165582332069
 20
-3867.271371202966
 30
-0.0000000000000049
  0
SPLINE
  5
12D8A8
330
18
100
AcDbEntity
  8
姿図
100
AcDbSpline
210
0.0
220
0.0
230
1.0
 70
     8
 71
     3
 72
     8
 73
     4
 74
     0
 42
0.000000001
 43
0.0000000001
 40
0.0651965595715052
 40
0.0651965595715052
 40
0.0651965595715052
 40
0.0651965595715052
 40
1.0
 40
1.0
 40
1.0
 40
1.0
 10
8761.744523410154
 20
-3879.268066886625
 30
-0.0000000000000049
 10
8760.034016010028
 20
-3879.527535896051
 30
-0.0000000000000049
 10
8757.451915407562
 20
-3877.846254720474
 30
-0.0000000000000049
 10
8755.49728571649
 20
-3875.052710769238
 30
-0.0000000000000049
  0
SPLINE
  5
12D8A9
330
18
100
AcDbEntity
  8
姿図
100
AcDbSpline
210
0.0
220
0.0
230
1.0
 70
     8
 71
     3
 72
     8
 73
     4
 74
     0
 42
0.000000001
 43
0.0000000001
 40
1.0
 40
1.0
 40
1.0
 40
1.0
 40
1.971095784903659
 40
1.971095784903659
 40
1.971095784903659
 40
1.971095784903659
 10
8755.49728571649
 20
-3875.052710769238
 30
-0.0000000000000049
 10
8753.324111787144
 20
-3871.947492563138
 30
-0.0000000000000049
 10
8752.7081222626
 20
-3868.584386789267
 30
-0.0000000000000049
 10
8754.014236781903
 20
-3867.289278588415
 30
-0.0000000000000049
  0
SPLINE
  5
12D8AA
330
18
100
AcDbEntity
  8
姿図
100
AcDbSpline
210
0.0
220
0.0
230
1.0
 70
     8
 71
     3
 72
     8
 73
     4
 74
     0
 42
0.000000001
 43
0.0000000001
 40
0.0830380048434791
 40
0.0830380048434791
 40
0.0830380048434791
 40
0.0830380048434791
 40
1.0
 40
1.0
 40
1.0
 40
1.0
 10
8761.64862580351
 20
-3879.356299224369
 30
-0.0000000000000049
 10
8759.946901797335
 20
-3879.818643868585
 30
-0.0000000000000049
 10
8757.214887197379
 20
-3878.112479687297
 30
-0.0000000000000049
 10
8755.1697264039
 20
-3875.190224353011
 30
-0.0000000000000049
  0
SPLINE
  5
12D8AB
330
18
100
AcDbEntity
  8
姿図
100
AcDbSpline
210
0.0
220
0.0
230
1.0
 70
     8
 71
     3
 72
     8
 73
     4
 74
     0
 42
0.000000001
 43
0.0000000001
 40
1.0
 40
1.0
 40
1.0
 40
1.0
 40
1.971016508087028
 40
1.971016508087028
 40
1.971016508087028
 40
1.971016508087028
 10
8755.1697264039
 20
-3875.190224353011
 30
-0.0000000000000049
 10
8752.944392398062
 20
-3872.010187066419
 30
-0.0000000000000049
 10
8752.351912660528
 20
-3868.559914555769
 30
-0.0000000000000049
 10
8753.784115560029
 20
-3867.337752015062
 30
-0.0000000000000049
  0
SPLINE
  5
12D8AC
330
18
100
AcDbEntity
  8
姿図
100
AcDbSpline
210
0.0
220
0.0
230
1.0
 70
     8
 71
     3
 72
    11
 73
     7
 74
     0
 42
0.000000001
 43
0.0000000001
 40
1.005060628197603
 40
1.005060628197603
 40
1.005060628197603
 40
1.005060628197603
 40
2.0
 40
2.0
 40
2.0
 40
2.924554902239563
 40
2.924554902239563
 40
2.924554902239563
 40
2.924554902239563
 10
8761.839534269375
 20
-3879.166540406717
 30
-0.0000000000000049
 10
8760.231581968466
 20
-3880.251889304486
 30
-0.0000000000000049
 10
8757.097240348681
 20
-3878.505742103879
 30
-0.0000000000000049
 10
8754.817080949351
 20
-3875.247358467886
 30
-0.0000000000000049
 10
8752.698225659988
 20
-3872.219480941462
 30
-0.0000000000000049
 10
8752.0597040178
 20
-3868.946610152265
 30
-0.0000000000000049
 10
8753.239747601852
 20
-3867.585351664015
 30
-0.0000000000000049
  0
SPLINE
  5
12D8AD
330
18
100
AcDbEntity
  8
姿図
100
AcDbSpline
210
0.0
220
0.0
230
1.0
 70
    24
 71
     3
 72
     8
 73
     4
 74
     0
 42
0.000000001
 43
0.0000000001
 40
0.0
 40
0.0
 40
0.0
 40
0.0
 40
1.0
 40
1.0
 40
1.0
 40
1.0
 10
8752.340873166702
 20
-3867.787539843203
 30
-0.0000000000000049
 10
8752.340873166702
 20
-3867.787539843203
 30
-0.0000000000000049
 10
8753.659511715203
 20
-3866.246925345404
 30
-0.0000000000000049
 10
8753.659511715203
 20
-3866.246925345404
 30
-0.0000000000000049
  0
SPLINE
  5
12D8AE
330
18
100
AcDbEntity
  8
姿図
100
AcDbSpline
210
0.0
220
0.0
230
1.0
 70
     8
 71
     3
 72
    11
 73
     7
 74
     0
 42
0.000000001
 43
0.0000000001
 40
1.0
 40
1.0
 40
1.0
 40
1.0
 40
2.0
 40
2.0
 40
2.0
 40
3.0
 40
3.0
 40
3.0
 40
3.0
 10
8753.659511715203
 20
-3866.246925345404
 30
-0.0000000000000049
 10
8753.659511715203
 20
-3866.246925345404
 30
-0.0000000000000049
 10
8754.200362110638
 20
-3865.266607268761
 30
-0.0000000000000049
 10
8755.61882615376
 20
-3865.459012858714
 30
-0.0000000000000049
 10
8757.03729019688
 20
-3865.651418448667
 30
-0.0000000000000049
 10
8760.63996276319
 20
-3866.980343578294
 30
-0.0000000000000049
 10
8763.391115631628
 20
-3872.330513023864
 30
-0.0000000000000049
  0
SPLINE
  5
12D8AF
330
18
100
AcDbEntity
  8
姿図
100
AcDbSpline
210
0.0
220
0.0
230
1.0
 70
     8
 71
     3
 72
     8
 73
     4
 74
     0
 42
0.000000001
 43
0.0000000001
 40
3.0
 40
3.0
 40
3.0
 40
3.0
 40
4.0
 40
4.0
 40
4.0
 40
4.0
 10
8763.391115631628
 20
-3872.330513023864
 30
-0.0000000000000049
 10
8764.78253499242
 20
-3875.036488036532
 30
-0.0000000000000049
 10
8765.00342039581
 20
-3877.937291469832
 30
-0.0000000000000049
 10
8764.24064645058
 20
-3878.83981053749
 30
-0.0000000000000049
  0
SPLINE
  5
12D8B0
330
18
100
AcDbEntity
  8
姿図
100
AcDbSpline
210
0.0
220
0.0
230
1.0
 70
     8
 71
     3
 72
     8
 73
     4
 74
     0
 42
0.000000001
 43
0.0000000001
 40
4.0
 40
4.0
 40
4.0
 40
4.0
 40
5.0
 40
5.0
 40
5.0
 40
5.0
 10
8764.24064645058
 20
-3878.83981053749
 30
-0.0000000000000049
 10
8763.815503752063
 20
-3879.342972843772
 30
-0.0000000000000049
 10
8761.292612637251
 20
-3880.077432791451
 30
-0.0000000000000049
 10
8761.292612637251
 20
-3880.077432791451
 30
-0.0000000000000049
  0
SPLINE
  5
12D8B1
330
18
100
AcDbEntity
  8
姿図
100
AcDbSpline
210
0.0
220
0.0
230
1.0
 70
     8
 71
     3
 72
     8
 73
     4
 74
     0
 42
0.000000001
 43
0.0000000001
 40
0.0
 40
0.0
 40
0.0
 40
0.0
 40
1.0
 40
1.0
 40
1.0
 40
1.0
 10
8752.938857677012
 20
-3867.159867221108
 30
-0.0000000000000049
 10
8752.859917675281
 20
-3866.002506683608
 30
-0.0000000000000049
 10
8753.342189062785
 20
-3864.863639898796
 30
-0.0000000000000049
 10
8754.014180669466
 20
-3864.358276562295
 30
-0.0000000000000049
  0
SPLINE
  5
12D8B2
330
18
100
AcDbEntity
  8
姿図
100
AcDbSpline
210
0.0
220
0.0
230
1.0
 70
     8
 71
     3
 72
     8
 73
     4
 74
     0
 42
0.000000001
 43
0.0000000001
 40
1.0
 40
1.0
 40
1.0
 40
1.0
 40
2.0
 40
2.0
 40
2.0
 40
2.0
 10
8754.014180669466
 20
-3864.358276562295
 30
-0.0000000000000049
 10
8756.090143437605
 20
-3862.797691032833
 30
-0.0000000000000049
 10
8760.34969932464
 20
-3864.964811701469
 30
-0.0000000000000049
 10
8763.531557657596
 20
-3869.19813442684
 30
-0.0000000000000049
  0
SPLINE
  5
12D8B3
330
18
100
AcDbEntity
  8
姿図
100
AcDbSpline
210
0.0
220
0.0
230
1.0
 70
     8
 71
     3
 72
     8
 73
     4
 74
     0
 42
0.000000001
 43
0.0000000001
 40
2.0
 40
2.0
 40
2.0
 40
2.0
 40
2.094714460930565
 40
2.094714460930565
 40
2.094714460930565
 40
2.094714460930565
 10
8763.531557657596
 20
-3869.19813442684
 30
-0.0000000000000049
 10
8763.832686382942
 20
-3869.598826574992
 30
-0.0000000000000049
 10
8764.236460650667
 20
-3870.222988046556
 30
-0.0000000000000049
 10
8764.646041710246
 20
-3870.933466295387
 30
-0.0000000000000049
  0
SPLINE
  5
12D8B4
330
18
100
AcDbEntity
  8
姿図
100
AcDbSpline
210
0.0
220
0.0
230
1.0
 70
     8
 71
     3
 72
     8
 73
     4
 74
     0
 42
0.000000001
 43
0.0000000001
 40
2.496841126255541
 40
2.496841126255541
 40
2.496841126255541
 40
2.496841126255541
 40
3.0
 40
3.0
 40
3.0
 40
3.0
 10
8766.494605552314
 20
-3875.405672811899
 30
-0.0000000000000049
 10
8766.866912454934
 20
-3877.31921931511
 30
-0.0000000000000049
 10
8766.574470105526
 20
-3878.897808190242
 30
-0.0000000000000049
 10
8765.52968991459
 20
-3879.683591334176
 30
-0.0000000000000049
  0
SPLINE
  5
12D8B5
330
18
100
AcDbEntity
  8
姿図
100
AcDbSpline
210
0.0
220
0.0
230
1.0
 70
     8
 71
     3
 72
     8
 73
     4
 74
     0
 42
0.000000001
 43
0.0000000001
 40
3.0
 40
3.0
 40
3.0
 40
3.0
 40
4.0
 40
4.0
 40
4.0
 40
4.0
 10
8765.52968991459
 20
-3879.683591334176
 30
-0.0000000000000049
 10
8765.27026716431
 20
-3879.87867632504
 30
-0.0000000000000049
 10
8764.97684987853
 20
-3880.015182139023
 30
-0.0000000000000049
 10
8764.655644877545
 20
-3880.097098176206
 30
-0.0000000000000049
  0
SPLINE
  5
12D8B6
330
18
100
AcDbEntity
  8
姿図
100
AcDbSpline
210
0.0
220
0.0
230
1.0
 70
     8
 71
     3
 72
     8
 73
     4
 74
     0
 42
0.000000001
 43
0.0000000001
 40
4.0
 40
4.0
 40
4.0
 40
4.0
 40
4.957822154171585
 40
4.957822154171585
 40
4.957822154171585
 40
4.957822154171585
 10
8764.655644877545
 20
-3880.097098176206
 30
-0.0000000000000049
 10
8764.655644877545
 20
-3880.097098176206
 30
-0.0000000000000049
 10
8763.649559371326
 20
-3880.207011667905
 30
-0.0000000000000049
 10
8762.192099911334
 20
-3879.792037067858
 30
-0.0000000000000049
  0
ELLIPSE
  5
12D8B7
330
18
100
AcDbEntity
  8
姿図
100
AcDbEllipse
 10
8757.025290193702
 20
-3873.738669796939
 30
-0.0000000000000049
 11
4.364416532281536
 21
-6.236515007581956
 31
0.0
210
0.0
220
0.0
230
1.0
 40
0.4645252947541932
 41
0.0
 42
6.283185307179586
  0
SPLINE
  5
12D8B8
330
18
100
AcDbEntity
  8
姿図
100
AcDbSpline
210
0.0
220
0.0
230
1.0
 70
     8
 71
     3
 72
    11
 73
     7
 74
     0
 42
0.000000001
 43
0.0000000001
 40
1.0
 40
1.0
 40
1.0
 40
1.0
 40
2.0
 40
2.0
 40
2.0
 40
3.0
 40
3.0
 40
3.0
 40
3.0
 10
8761.514548484174
 20
-3879.460170473726
 30
-0.0000000000000049
 10
8759.914085982557
 20
-3880.580024732948
 30
-0.0000000000000049
 10
8756.75943516241
 20
-3878.832726899298
 30
-0.0000000000000049
 10
8754.467678032324
 20
-3875.557769923688
 30
-0.0000000000000049
 10
8752.175920902238
 20
-3872.282812948078
 30
-0.0000000000000049
 10
8751.61594967139
 20
-3868.7212476942
 30
-0.0000000000000049
 10
8753.215737009681
 20
-3867.601879803399
 30
-0.0000000000000049
  0
SPLINE
  5
12D8B9
330
18
100
AcDbEntity
  8
姿図
100
AcDbSpline
210
0.0
220
0.0
230
1.0
 70
     8
 71
     3
 72
     8
 73
     4
 74
     0
 42
0.000000001
 43
0.0000000001
 40
3.0
 40
3.0
 40
3.0
 40
3.0
 40
3.728979391355297
 40
3.728979391355297
 40
3.728979391355297
 40
3.728979391355297
 10
8753.215737009681
 20
-3867.601879803399
 30
-0.0000000000000049
 10
8753.56563449245
 20
-3867.356738832505
 30
-0.0000000000000049
 10
8753.989847988967
 20
-3867.248804844914
 30
-0.0000000000000049
 10
8754.463064649353
 20
-3867.264033710871
 30
-0.0000000000000049
  0
ARC
  5
12D8BA
330
18
100
AcDbEntity
  8
姿図
100
AcDbCircle
 10
8775.179632509171
 20
-3879.386583452862
 30
-0.0000000000000049
 40
26.06006515205127
100
AcDbArc
 50
123.7818528605623
 51
146.4986655481818
  0
SPLINE
  5
12D8BB
330
18
100
AcDbEntity
  8
姿図
100
AcDbSpline
210
0.0
220
0.0
230
1.0
 70
     8
 71
     3
 72
     8
 73
     4
 74
     0
 42
0.000000001
 43
0.0000000001
 40
0.184123280855877
 40
0.184123280855877
 40
0.184123280855877
 40
0.184123280855877
 40
1.0
 40
1.0
 40
1.0
 40
1.0
 10
8762.263531852797
 20
-3877.77319290244
 30
-0.0000000000000028
 10
8760.691320105423
 20
-3877.302097348639
 30
-0.0000000000000028
 10
8758.814568694688
 20
-3875.708094386045
 30
-0.0000000000000028
 10
8757.359605750054
 20
-3873.434278366302
 30
-0.0000000000000028
  0
SPLINE
  5
12D8BC
330
18
100
AcDbEntity
  8
姿図
100
AcDbSpline
210
0.0
220
0.0
230
1.0
 70
     8
 71
     3
 72
     8
 73
     4
 74
     0
 42
0.000000001
 43
0.0000000001
 40
1.0
 40
1.0
 40
1.0
 40
1.0
 40
1.827384432039179
 40
1.827384432039179
 40
1.827384432039179
 40
1.827384432039179
 10
8757.359605750054
 20
-3873.434278366302
 30
-0.0000000000000028
 10
8756.031829809612
 20
-3871.359054951238
 30
-0.0000000000000028
 10
8755.365978780115
 20
-3869.202073518119
 30
-0.0000000000000028
 10
8755.435806538993
 20
-3867.606362386368
 30
-0.0000000000000028
  0
SPLINE
  5
12D8BD
330
18
100
AcDbEntity
  8
姿図
100
AcDbSpline
210
0.0
220
0.0
230
1.0
 70
     8
 71
     3
 72
     8
 73
     4
 74
     0
 42
0.000000001
 43
0.0000000001
 40
0.0
 40
0.0
 40
0.0
 40
0.0
 40
1.0
 40
1.0
 40
1.0
 40
1.0
 10
8775.56662722641
 20
-3870.428549455449
 30
-0.0000000000000049
 10
8775.95437401545
 20
-3869.863401386344
 30
-0.0000000000000049
 10
8778.872322423413
 20
-3866.06026167142
 30
-0.0000000000000049
 10
8778.872322423413
 20
-3866.06026167142
 30
-0.0000000000000049
  0
LINE
  5
12D8BE
330
18
100
AcDbEntity
  8
姿図
100
AcDbLine
 10
8773.83077040947
 20
-3863.716407703831
 30
-0.0000000000000049
 11
8773.770371829216
 21
-3864.161335972527
 31
-0.0000000000000037
  0
SPLINE
  5
12D8BF
330
18
100
AcDbEntity
  8
姿図
100
AcDbSpline
210
0.0
220
0.0
230
1.0
 70
     8
 71
     3
 72
     8
 73
     4
 74
     0
 42
0.000000001
 43
0.0000000001
 40
1.0
 40
1.0
 40
1.0
 40
1.000000000000004
 40
1.3232756381818
 40
1.3232756381818
 40
1.3232756381818
 40
1.3232756381818
 10
8760.327900993965
 20
-3857.972731236847
 30
-0.0000000000000049
 10
8761.33905164796
 20
-3857.23866212858
 30
-0.0000000000000049
 10
8762.58383336661
 20
-3856.952019073816
 30
-0.0000000000000049
 10
8763.928378533761
 20
-3857.060875657395
 30
-0.0000000000000049
  0
SPLINE
  5
12D8C0
330
18
100
AcDbEntity
  8
姿図
100
AcDbSpline
210
0.0
220
0.0
230
1.0
 70
     8
 71
     3
 72
     8
 73
     4
 74
     0
 42
0.000000001
 43
0.0000000001
 40
1.637973628497519
 40
1.637973628497519
 40
1.637973628497519
 40
1.637973628497519
 40
2.0
 40
2.0
 40
2.0
 40
2.0
 10
8768.015114075568
 20
-3858.45524881865
 30
-0.0000000000000049
 10
8769.596279550875
 20
-3859.384359861105
 30
-0.0000000000000049
 10
8771.139129328054
 20
-3860.746076254145
 30
-0.0000000000000049
 10
8772.455655021995
 20
-3862.467470715286
 30
-0.0000000000000049
  0
SPLINE
  5
12D8C1
330
18
100
AcDbEntity
  8
姿図
100
AcDbSpline
210
0.0
220
0.0
230
1.0
 70
     8
 71
     3
 72
     8
 73
     4
 74
     0
 42
0.000000001
 43
0.0000000001
 40
2.0
 40
2.0
 40
2.0
 40
2.0
 40
2.120984681128046
 40
2.120984681128046
 40
2.120984681128046
 40
2.120984681128046
 10
8772.455655021995
 20
-3862.467470715286
 30
-0.0000000000000049
 10
8772.895889617685
 20
-3863.042739193967
 30
-0.0000000000000049
 10
8773.290706617492
 20
-3863.631943630808
 30
-0.0000000000000049
 10
8773.63929756019
 20
-3864.227683623043
 30
-0.0000000000000049
  0
SPLINE
  5
12D8C2
330
18
100
AcDbEntity
  8
姿図
100
AcDbSpline
210
0.0
220
0.0
230
1.0
 70
     8
 71
     3
 72
     8
 73
     4
 74
     0
 42
0.000000001
 43
0.0000000001
 40
2.546094283791052
 40
2.546094283791052
 40
2.546094283791052
 40
2.546094283791052
 40
2.999999999999997
 40
3.0
 40
3.0
 40
3.0
 10
8775.56662722641
 20
-3870.428549455448
 30
-0.0000000000000049
 10
8775.618236347516
 20
-3872.493144359587
 30
-0.0000000000000049
 10
8774.979195265976
 20
-3874.283718967703
 30
-0.0000000000000049
 10
8773.606810163386
 20
-3875.409467336228
 30
-0.0000000000000049
  0
LINE
  5
12D8C3
330
18
100
AcDbEntity
  8
姿図
100
AcDbLine
 10
8776.113601122664
 20
-3851.773313284009
 30
-0.0000000000000006
 11
8776.33369012126
 21
-3852.504107780193
 31
-0.0000000000000047
  0
ARC
  5
12D8C4
330
18
100
AcDbEntity
  8
姿図
100
AcDbCircle
 10
8775.917207361199
 20
-3851.849887711503
 30
-0.0000000000000131
 40
0.2107940997474763
100
AcDbArc
 50
12.21988422707157
 51
109.9221245032034
  0
ARC
  5
12D8C5
330
18
100
AcDbEntity
  8
姿図
100
AcDbCircle
 10
8775.97446304901
 20
-3851.956279520451
 30
0.0000000000000108
 40
0.1866836833903821
100
AcDbArc
 50
21.70349578701435
 51
132.1870109952145
  0
LINE
  5
12D8C6
330
18
100
AcDbEntity
  8
姿図
100
AcDbLine
 10
8754.413690105346
 20
-3845.438000021608
 30
-0.0000000000000099
 11
8754.709431803993
 21
-3844.365260102848
 31
-0.0000000000000049
  0
ARC
  5
12D8C7
330
18
100
AcDbEntity
  8
姿図
100
AcDbCircle
 10
8757.203272093844
 20
-3846.210311060141
 30
0.0000000000000053
 40
0.2311057484940988
100
AcDbArc
 50
99.4659745679147
 51
168.5402467014683
  0
LINE
  5
12D8C8
330
18
100
AcDbEntity
  8
姿図
100
AcDbLine
 10
8777.94904395351
 20
-3856.86599262371
 30
-0.0000000000000049
 11
8777.523525609184
 21
-3857.166854658732
 31
-0.0000000000000049
  0
ARC
  5
12D8C9
330
18
100
AcDbEntity
  8
姿図
100
AcDbCircle
 10
8771.529620405909
 20
-3863.303723644092
 30
0.0000000000000001
 40
9.091390398297248
100
AcDbArc
 50
51.83017275106009
 51
60.70781871909286
  0
ARC
  5
12D8CA
330
18
100
AcDbEntity
  8
姿図
100
AcDbCircle
 10
8776.177991218141
 20
-3855.093539909248
 30
0.0000000000000001
 40
0.3452803055430976
100
AcDbArc
 50
169.7868767132635
 51
234.5447167800267
  0
LINE
  5
12D8CB
330
18
100
AcDbEntity
  8
姿図
100
AcDbLine
 10
8775.903221524019
 20
-3855.302633439965
 30
0.0000000000000001
 11
8775.127865750012
 21
-3855.841341597697
 31
-0.0000000000000006
  0
LINE
  5
12D8CC
330
18
100
AcDbEntity
  8
姿図
100
AcDbLine
 10
8774.59549599608
 20
-3854.757838615722
 30
-0.0000000000000049
 11
8774.020282527103
 21
-3855.149207810327
 31
-0.0000000000000049
  0
LINE
  5
12D8CD
330
18
100
AcDbEntity
  8
姿図
100
AcDbLine
 10
8779.796994224984
 20
-3859.436520263786
 30
-0.0000000000000049
 11
8774.90854023687
 21
-3863.306128588346
 31
-0.0000000000000049
  0
LINE
  5
12D8CE
330
18
100
AcDbEntity
  8
姿図
100
AcDbLine
 10
8780.40888674069
 20
-3861.304048131896
 30
-0.0000000000000049
 11
8779.433116978982
 21
-3862.018630696825
 31
-0.0000000000000049
  0
ARC
  5
12D8CF
330
18
100
AcDbEntity
  8
姿図
100
AcDbCircle
 10
8781.256169734024
 20
-3883.973695818227
 30
0.0
 40
31.4649624131975
100
AcDbArc
 50
106.8206178016378
 51
115.8532184889598
  0
ARC
  5
12D8D0
330
18
100
AcDbEntity
  8
姿図
100
AcDbCircle
 10
8802.06813364591
 20
-3892.124395616775
 30
-0.0000000000000049
 40
40.56018356058101
100
AcDbArc
 50
123.5328987203369
 51
134.5035428112339
  0
ARC
  5
12D8D1
330
18
100
AcDbEntity
  8
姿図
100
AcDbCircle
 10
8794.731435786009
 20
-3823.238569445366
 30
0.0
 40
38.04261702582006
100
AcDbArc
 50
233.5901345256738
 51
246.6642495118394
  0
ARC
  5
12D8D2
330
18
100
AcDbEntity
  8
姿図
100
AcDbCircle
 10
8779.605296652619
 20
-3858.241985421124
 30
0.0
 40
0.0922363223659767
100
AcDbArc
 50
307.9750042488748
 51
52.02499575112518
  0
ENDSEC
  0
SECTION
  2
OBJECTS
  0
DICTIONARY
  5
C
330
0
100
AcDbDictionary
281
     1
  3
ACAD_GROUP
350
D
  3
ACAD_IMAGE_VARS
350
12DA64
  3
ACAD_LAYOUT
350
617
  3
ACAD_MLINESTYLE
350
E
  3
ACAD_PLOTSETTINGS
350
618
  3
ACAD_PLOTSTYLENAME
350
615
  3
ACAD_SCALELIST
350
A36
  3
AcadDim
350
AB4
  3
AcDbVariableDictionary
350
6DE
  3
APPDATA
350
12DA63
  3
DWGPROPS
350
12DA88
  0
DICTIONARY
  5
8BF
330
2
100
AcDbDictionary
280
     1
281
     1
  3
ACAD_LAYERSTATES
360
8C0
  0
DICTIONARY
  5
A60
330
F
100
AcDbDictionary
280
     1
281
     1
  3
ADSK_XREC_LAYER_RECONCILED
360
A61
  0
DICTIONARY
  5
A66
330
34
100
AcDbDictionary
280
     1
281
     1
  3
ADSK_XREC_LAYER_RECONCILED
360
A67
  0
DICTIONARY
  5
A6E
330
2F4
100
AcDbDictionary
280
     1
281
     1
  3
ADSK_XREC_LAYER_RECONCILED
360
A6F
  0
DICTIONARY
  5
A72
330
305
100
AcDbDictionary
280
     1
281
     1
  3
ADSK_XREC_LAYER_RECONCILED
360
A73
  0
DICTIONARY
  5
143F
330
18
100
AcDbDictionary
280
     1
281
     1
  3
ACAD_SORTENTS
360
1440
  0
DICTIONARY
  5
D
102
{ACAD_REACTORS
330
C
102
}
330
C
100
AcDbDictionary
281
     1
  0
RASTERVARIABLES
  5
12DA64
102
{ACAD_REACTORS
330
C
102
}
330
C
100
AcDbRasterVariables
 90
        0
 70
     1
 71
     1
 72
     0
  0
DICTIONARY
  5
617
102
{ACAD_REACTORS
330
C
102
}
330
C
100
AcDbDictionary
281
     1
  3
Model
350
619
  3
ﾚｲｱｳﾄ1
350
61A
  0
DICTIONARY
  5
E
102
{ACAD_REACTORS
330
C
102
}
330
C
100
AcDbDictionary
281
     1
  3
STANDARD
350
1B
  0
DICTIONARY
  5
618
102
{ACAD_REACTORS
330
C
102
}
330
C
100
AcDbDictionary
281
     1
  0
ACDBDICTIONARYWDFLT
  5
615
102
{ACAD_REACTORS
330
C
102
}
330
C
100
AcDbDictionary
281
     1
  3
Normal
350
616
100
AcDbDictionaryWithDefault
340
616
  0
DICTIONARY
  5
A36
102
{ACAD_REACTORS
330
C
102
}
330
C
100
AcDbDictionary
281
     1
  3
A0
350
A37
  3
A1
350
A38
  3
A2
350
A39
  3
A3
350
A3A
  3
A4
350
A3B
  3
A5
350
A3C
  3
A6
350
A3D
  3
A7
350
A3E
  3
A8
350
A3F
  3
A9
350
A40
  3
B0
350
A41
  3
B1
350
A42
  3
B2
350
A43
  3
B3
350
A44
  3
B4
350
A45
  3
B5
350
A46
  3
B6
350
A47
  3
B7
350
A48
  3
B8
350
A49
  3
B9
350
A4A
  3
C0
350
A4B
  3
C1
350
A4C
  3
C2
350
A4D
  3
C3
350
A4E
  3
C4
350
A4F
  3
C5
350
A50
  3
C6
350
A51
  3
C7
350
A52
  3
C8
350
A53
  3
C9
350
A54
  3
D0
350
A55
  3
D1
350
A56
  3
D2
350
A57
  0
XRECORD
  5
AB4
102
{ACAD_REACTORS
330
C
102
}
330
C
100
AcDbXrecord
280
     1
 90
   990106
  3
OPEN
 60
     0
 61
     0
 62
     1
 63
     3
 64
     1
 65
     0
 66
     0
 67
     3
 68
     1
 69
     0
 70
     0
 71
     0
 72
     0
 40
0.0
170
     2
  0
DICTIONARY
  5
6DE
102
{ACAD_REACTORS
330
C
102
}
330
C
100
AcDbDictionary
281
     1
  3
DIMASSOC
350
6DF
  3
INDEXCTL
350
A93
  3
PROJECTNAME
350
6E0
  3
SORTENTS
350
A92
  0
DICTIONARY
  5
12DA63
102
{ACAD_REACTORS
330
C
102
}
330
C
100
AcDbDictionary
281
     1
  0
XRECORD
  5
12DA88
102
{ACAD_REACTORS
330
C
102
}
330
C
100
AcDbXrecord
280
     1
  1
DWGPROPS COOKIE
  2

  3

  4

  6

  7

  8
SPAX
  9

300
=
301
=
302
=
303
=
304
=
305
=
306
=
307
=
308
=
309
=
 40
0.0
 41
2448636.244629629
 42
2456826.064052373
  1

 90
        0
  0
DICTIONARY
  5
8C0
102
{ACAD_REACTORS
330
8BF
102
}
330
8BF
100
AcDbDictionary
281
     1
  0
XRECORD
  5
A61
102
{ACAD_REACTORS
330
A60
102
}
330
A60
100
AcDbXrecord
280
     1
290
     1
  0
XRECORD
  5
A67
102
{ACAD_REACTORS
330
A66
102
}
330
A66
100
AcDbXrecord
280
     1
290
     1
  0
XRECORD
  5
A6F
102
{ACAD_REACTORS
330
A6E
102
}
330
A6E
100
AcDbXrecord
280
     1
290
     1
  0
XRECORD
  5
A73
102
{ACAD_REACTORS
330
A72
102
}
330
A72
100
AcDbXrecord
280
     1
290
     1
  0
SORTENTSTABLE
  5
1440
102
{ACAD_REACTORS
330
143F
102
}
330
143F
100
AcDbSortentsTable
330
18
331
0
  5
FC15E
331
D0CC6
  5
D0CC6
331
F6D77
  5
F6D77
331
F6D78
  5
F6D78
  0
LAYOUT
  5
619
102
{ACAD_REACTORS
330
617
102
}
330
617
100
AcDbPlotSettings
  1

  2
JUST PDF 2
  4
A4
  6

 40
3.174999952316284
 41
3.174999952316284
 42
3.175003051757812
 43
3.17498779296875
 44
209.8886566162109
 45
297.0530090332031
 46
14.27171755861491
 47
9.855173074625668
 48
8719.499794734113
 49
-4311.034703001
140
9069.490231723927
141
-3769.049352723666
142
1.0
143
2.0
 70
  3748
 72
     1
 73
     0
 74
     4
  7
spax form.ctb
 75
     0
147
2.049951397771953
148
-8719.499794734113
149
4311.034703001
100
AcDbLayout
  1
Model
 70
     1
 71
     0
 10
0.0
 20
0.0
 11
12.0
 21
9.0
 12
0.0
 22
0.0
 32
0.0
 14
8729.800840943808
 24
-3898.317130992241
 34
-0.0000000000000131
 15
8796.807920741703
 25
-3822.543755990454
 35
0.0000000000000108
146
0.0
 13
0.0
 23
0.0
 33
0.0
 16
1.0
 26
0.0
 36
0.0
 17
0.0
 27
1.0
 37
0.0
 76
     0
330
18
331
12C66F
1001
ACAD_PSEXT
1000
JUST PDF 2
1000
JUST PDF 2
1000
JUST PDF 2 Port:
1000

1070
     0
  0
LAYOUT
  5
61A
102
{ACAD_REACTORS
330
617
102
}
330
617
100
AcDbPlotSettings
  1

  2
Canon LASER SHOT LBP-750
  4

  6

 40
0.0
 41
0.0
 42
0.0
 43
0.0
 44
0.0
 45
0.0
 46
0.0
 47
0.0
 48
0.0
 49
0.0
140
0.0
141
0.0
142
1.0
143
1.0
 70
   688
 72
     0
 73
     0
 74
     5
  7
spax form.ctb
 75
    16
147
1.0
148
0.0
149
0.0
100
AcDbLayout
  1
ﾚｲｱｳﾄ1
 70
     0
 71
     1
 10
0.0
 20
0.0
 11
12.0
 21
9.0
 12
0.0
 22
0.0
 32
0.0
 14
1.000000000000000E+20
 24
1.000000000000000E+20
 34
1.000000000000000E+20
 15
-1.000000000000000E+20
 25
-1.000000000000000E+20
 35
-1.000000000000000E+20
146
0.0
 13
0.0
 23
0.0
 33
0.0
 16
1.0
 26
0.0
 36
0.0
 17
0.0
 27
1.0
 37
0.0
 76
     0
330
15
  0
MLINESTYLE
  5
1B
102
{ACAD_REACTORS
330
E
102
}
330
E
100
AcDbMlineStyle
  2
STANDARD
 70
     0
  3

 62
     0
 51
90.0
 52
90.0
 71
     2
 49
0.5
 62
   256
  6
BYLAYER
 49
-0.5
 62
   256
  6
BYLAYER
  0
ACDBPLACEHOLDER
  5
616
102
{ACAD_REACTORS
330
615
102
}
330
615
  0
SCALE
  5
A37
102
{ACAD_REACTORS
330
A36
102
}
330
A36
100
AcDbScale
 70
     0
300
1:1
140
1.0
141
1.0
290
     1
  0
SCALE
  5
A38
102
{ACAD_REACTORS
330
A36
102
}
330
A36
100
AcDbScale
 70
     0
300
1:2
140
1.0
141
2.0
290
     0
  0
SCALE
  5
A39
102
{ACAD_REACTORS
330
A36
102
}
330
A36
100
AcDbScale
 70
     0
300
1:4
140
1.0
141
4.0
290
     0
  0
SCALE
  5
A3A
102
{ACAD_REACTORS
330
A36
102
}
330
A36
100
AcDbScale
 70
     0
300
1:5
140
1.0
141
5.0
290
     0
  0
SCALE
  5
A3B
102
{ACAD_REACTORS
330
A36
102
}
330
A36
100
AcDbScale
 70
     0
300
1:8
140
1.0
141
8.0
290
     0
  0
SCALE
  5
A3C
102
{ACAD_REACTORS
330
A36
102
}
330
A36
100
AcDbScale
 70
     0
300
1:10
140
1.0
141
10.0
290
     0
  0
SCALE
  5
A3D
102
{ACAD_REACTORS
330
A36
102
}
330
A36
100
AcDbScale
 70
     0
300
1:16
140
1.0
141
16.0
290
     0
  0
SCALE
  5
A3E
102
{ACAD_REACTORS
330
A36
102
}
330
A36
100
AcDbScale
 70
     0
300
1:20
140
1.0
141
20.0
290
     0
  0
SCALE
  5
A3F
102
{ACAD_REACTORS
330
A36
102
}
330
A36
100
AcDbScale
 70
     0
300
1:30
140
1.0
141
30.0
290
     0
  0
SCALE
  5
A40
102
{ACAD_REACTORS
330
A36
102
}
330
A36
100
AcDbScale
 70
     0
300
1:40
140
1.0
141
40.0
290
     0
  0
SCALE
  5
A41
102
{ACAD_REACTORS
330
A36
102
}
330
A36
100
AcDbScale
 70
     0
300
1:50
140
1.0
141
50.0
290
     0
  0
SCALE
  5
A42
102
{ACAD_REACTORS
330
A36
102
}
330
A36
100
AcDbScale
 70
     0
300
1:100
140
1.0
141
100.0
290
     0
  0
SCALE
  5
A43
102
{ACAD_REACTORS
330
A36
102
}
330
A36
100
AcDbScale
 70
     0
300
2:1
140
2.0
141
1.0
290
     0
  0
SCALE
  5
A44
102
{ACAD_REACTORS
330
A36
102
}
330
A36
100
AcDbScale
 70
     0
300
4:1
140
4.0
141
1.0
290
     0
  0
SCALE
  5
A45
102
{ACAD_REACTORS
330
A36
102
}
330
A36
100
AcDbScale
 70
     0
300
8:1
140
8.0
141
1.0
290
     0
  0
SCALE
  5
A46
102
{ACAD_REACTORS
330
A36
102
}
330
A36
100
AcDbScale
 70
     0
300
10:1
140
10.0
141
1.0
290
     0
  0
SCALE
  5
A47
102
{ACAD_REACTORS
330
A36
102
}
330
A36
100
AcDbScale
 70
     0
300
100:1
140
100.0
141
1.0
290
     0
  0
SCALE
  5
A48
102
{ACAD_REACTORS
330
A36
102
}
330
A36
100
AcDbScale
 70
     0
300
1/128" = 1'-0"
140
0.0078125
141
12.0
290
     0
  0
SCALE
  5
A49
102
{ACAD_REACTORS
330
A36
102
}
330
A36
100
AcDbScale
 70
     0
300
1/64" = 1'-0"
140
0.015625
141
12.0
290
     0
  0
SCALE
  5
A4A
102
{ACAD_REACTORS
330
A36
102
}
330
A36
100
AcDbScale
 70
     0
300
1/32" = 1'-0"
140
0.03125
141
12.0
290
     0
  0
SCALE
  5
A4B
102
{ACAD_REACTORS
330
A36
102
}
330
A36
100
AcDbScale
 70
     0
300
1/16" = 1'-0"
140
0.0625
141
12.0
290
     0
  0
SCALE
  5
A4C
102
{ACAD_REACTORS
330
A36
102
}
330
A36
100
AcDbScale
 70
     0
300
3/32" = 1'-0"
140
0.09375
141
12.0
290
     0
  0
SCALE
  5
A4D
102
{ACAD_REACTORS
330
A36
102
}
330
A36
100
AcDbScale
 70
     0
300
1/8" = 1'-0"
140
0.125
141
12.0
290
     0
  0
SCALE
  5
A4E
102
{ACAD_REACTORS
330
A36
102
}
330
A36
100
AcDbScale
 70
     0
300
3/16" = 1'-0"
140
0.1875
141
12.0
290
     0
  0
SCALE
  5
A4F
102
{ACAD_REACTORS
330
A36
102
}
330
A36
100
AcDbScale
 70
     0
300
1/4" = 1'-0"
140
0.25
141
12.0
290
     0
  0
SCALE
  5
A50
102
{ACAD_REACTORS
330
A36
102
}
330
A36
100
AcDbScale
 70
     0
300
3/8" = 1'-0"
140
0.375
141
12.0
290
     0
  0
SCALE
  5
A51
102
{ACAD_REACTORS
330
A36
102
}
330
A36
100
AcDbScale
 70
     0
300
1/2" = 1'-0"
140
0.5
141
12.0
290
     0
  0
SCALE
  5
A52
102
{ACAD_REACTORS
330
A36
102
}
330
A36
100
AcDbScale
 70
     0
300
3/4" = 1'-0"
140
0.75
141
12.0
290
     0
  0
SCALE
  5
A53
102
{ACAD_REACTORS
330
A36
102
}
330
A36
100
AcDbScale
 70
     0
300
1" = 1'-0"
140
1.0
141
12.0
290
     0
  0
SCALE
  5
A54
102
{ACAD_REACTORS
330
A36
102
}
330
A36
100
AcDbScale
 70
     0
300
1-1/2" = 1'-0"
140
1.5
141
12.0
290
     0
  0
SCALE
  5
A55
102
{ACAD_REACTORS
330
A36
102
}
330
A36
100
AcDbScale
 70
     0
300
3" = 1'-0"
140
3.0
141
12.0
290
     0
  0
SCALE
  5
A56
102
{ACAD_REACTORS
330
A36
102
}
330
A36
100
AcDbScale
 70
     0
300
6" = 1'-0"
140
6.0
141
12.0
290
     0
  0
SCALE
  5
A57
102
{ACAD_REACTORS
330
A36
102
}
330
A36
100
AcDbScale
 70
     0
300
1'-0" = 1'-0"
140
12.0
141
12.0
290
     0
  0
DICTIONARYVAR
  5
6DF
102
{ACAD_REACTORS
330
6DE
102
}
330
6DE
100
DictionaryVariables
280
     0
  1
1
  0
DICTIONARYVAR
  5
A93
102
{ACAD_REACTORS
330
6DE
102
}
330
6DE
100
DictionaryVariables
280
     0
  1
0
  0
DICTIONARYVAR
  5
6E0
102
{ACAD_REACTORS
330
6DE
102
}
330
6DE
100
DictionaryVariables
280
     0
  1

  0
DICTIONARYVAR
  5
A92
102
{ACAD_REACTORS
330
6DE
102
}
330
6DE
100
DictionaryVariables
280
     0
  1
127
  0
ENDSEC
  0
EOF
