  0
SECTION
  2
HEADER
  9
$ACADVER
  1
AC1015
  9
$ACADMAINTVER
 70
     6
  9
$DWGCODEPAGE
  3
ANSI_932
  9
$INSBASE
 10
0.0
 20
0.0
 30
0.0
  9
$EXTMIN
 10
9492.540145241495
 20
-5067.542411734034
 30
-0.0000000000000117
  9
$EXTMAX
 10
9561.87347857483
 20
-4978.100408748693
 30
0.0000000000000222
  9
$LIMMIN
 10
0.0
 20
0.0
  9
$LIMMAX
 10
420.0
 20
297.0
  9
$ORTHOMODE
 70
     1
  9
$REGENMODE
 70
     1
  9
$FILLMODE
 70
     1
  9
$QTEXTMODE
 70
     0
  9
$MIRRTEXT
 70
     1
  9
$LTSCALE
 40
5.0
  9
$ATTMODE
 70
     0
  9
$TEXTSIZE
 40
53.44730959687513
  9
$TRACEWID
 40
1.0
  9
$TEXTSTYLE
  7
STANDARD
  9
$CLAYER
  8
寸法線
  9
$CELTYPE
  6
BYLAYER
  9
$CECOLOR
 62
   256
  9
$CELTSCALE
 40
1.0
  9
$DISPSILH
 70
     0
  9
$DIMSCALE
 40
1.0
  9
$DIMASZ
 40
2.5
  9
$DIMEXO
 40
1.5
  9
$DIMDLI
 40
0.38
  9
$DIMRND
 40
0.0
  9
$DIMDLE
 40
0.0
  9
$DIMEXE
 40
1.0
  9
$DIMTP
 40
0.0
  9
$DIMTM
 40
0.0
  9
$DIMTXT
 40
2.500000000000003
  9
$DIMCEN
 40
0.0
  9
$DIMTSZ
 40
0.0
  9
$DIMTOL
 70
     0
  9
$DIMLIM
 70
     0
  9
$DIMTIH
 70
     0
  9
$DIMTOH
 70
     0
  9
$DIMSE1
 70
     0
  9
$DIMSE2
 70
     0
  9
$DIMTAD
 70
     3
  9
$DIMZIN
 70
     8
  9
$DIMBLK
  1

  9
$DIMASO
 70
     1
  9
$DIMSHO
 70
     0
  9
$DIMPOST
  1

  9
$DIMAPOST
  1

  9
$DIMALT
 70
     0
  9
$DIMALTD
 70
     0
  9
$DIMALTF
 40
25.4
  9
$DIMLFAC
 40
1.0
  9
$DIMTOFL
 70
     1
  9
$DIMTVP
 40
0.0
  9
$DIMTIX
 70
     0
  9
$DIMSOXD
 70
     0
  9
$DIMSAH
 70
     1
  9
$DIMBLK1
  1
OPEN
  9
$DIMBLK2
  1
OPEN
  9
$DIMSTYLE
  2
STANDARD
  9
$DIMCLRD
 70
     8
  9
$DIMCLRE
 70
     8
  9
$DIMCLRT
 70
   256
  9
$DIMTFAC
 40
1.0
  9
$DIMGAP
 40
1.0
  9
$DIMJUST
 70
     0
  9
$DIMSD1
 70
     0
  9
$DIMSD2
 70
     0
  9
$DIMTOLJ
 70
     1
  9
$DIMTZIN
 70
     0
  9
$DIMALTZ
 70
     0
  9
$DIMALTTZ
 70
     0
  9
$DIMUPT
 70
     0
  9
$DIMDEC
 70
     2
  9
$DIMTDEC
 70
     2
  9
$DIMALTU
 70
     2
  9
$DIMALTTD
 70
     0
  9
$DIMTXSTY
  7
STANDARD
  9
$DIMAUNIT
 70
     0
  9
$DIMADEC
 70
     2
  9
$DIMALTRND
 40
0.0
  9
$DIMAZIN
 70
     2
  9
$DIMDSEP
 70
    46
  9
$DIMATFIT
 70
     1
  9
$DIMFRAC
 70
     0
  9
$DIMLDRBLK
  1
OPEN
  9
$DIMLUNIT
 70
     2
  9
$DIMLWD
 70
    -2
  9
$DIMLWE
 70
    -2
  9
$DIMTMOVE
 70
     0
  9
$LUNITS
 70
     2
  9
$LUPREC
 70
     2
  9
$SKETCHINC
 40
0.1
  9
$FILLETRAD
 40
15.5
  9
$AUNITS
 70
     0
  9
$AUPREC
 70
     1
  9
$MENU
  1
FM
  9
$ELEVATION
 40
0.0
  9
$PELEVATION
 40
0.0
  9
$THICKNESS
 40
0.0
  9
$LIMCHECK
 70
     0
  9
$CHAMFERA
 40
0.0
  9
$CHAMFERB
 40
0.0
  9
$CHAMFERC
 40
0.0
  9
$CHAMFERD
 40
0.0
  9
$SKPOLY
 70
     0
  9
$TDCREATE
 40
2448636.619629629
  9
$TDUCREATE
 40
2448636.244629629
  9
$TDUPDATE
 40
2456821.60827809
  9
$TDUUPDATE
 40
2456821.23327809
  9
$TDINDWG
 40
48.7886864352
  9
$TDUSRTIMER
 40
2456821.233124398
  9
$USRTIMER
 70
     1
  9
$ANGBASE
 50
0.0
  9
$ANGDIR
 70
     0
  9
$PDMODE
 70
     3
  9
$PDSIZE
 40
0.0
  9
$PLINEWID
 40
0.0
  9
$SPLFRAME
 70
     0
  9
$SPLINETYPE
 70
     6
  9
$SPLINESEGS
 70
     8
  9
$HANDSEED
  5
12E505
  9
$SURFTAB1
 70
     6
  9
$SURFTAB2
 70
     6
  9
$SURFTYPE
 70
     6
  9
$SURFU
 70
     6
  9
$SURFV
 70
     6
  9
$UCSBASE
  2

  9
$UCSNAME
  2

  9
$UCSORG
 10
0.0
 20
0.0
 30
0.0
  9
$UCSXDIR
 10
1.0
 20
0.0
 30
0.0
  9
$UCSYDIR
 10
0.0
 20
1.0
 30
0.0
  9
$UCSORTHOREF
  2

  9
$UCSORTHOVIEW
 70
     0
  9
$UCSORGTOP
 10
0.0
 20
0.0
 30
0.0
  9
$UCSORGBOTTOM
 10
0.0
 20
0.0
 30
0.0
  9
$UCSORGLEFT
 10
0.0
 20
0.0
 30
0.0
  9
$UCSORGRIGHT
 10
0.0
 20
0.0
 30
0.0
  9
$UCSORGFRONT
 10
0.0
 20
0.0
 30
0.0
  9
$UCSORGBACK
 10
0.0
 20
0.0
 30
0.0
  9
$PUCSBASE
  2

  9
$PUCSNAME
  2

  9
$PUCSORG
 10
0.0
 20
0.0
 30
0.0
  9
$PUCSXDIR
 10
1.0
 20
0.0
 30
0.0
  9
$PUCSYDIR
 10
0.0
 20
1.0
 30
0.0
  9
$PUCSORTHOREF
  2

  9
$PUCSORTHOVIEW
 70
     0
  9
$PUCSORGTOP
 10
0.0
 20
0.0
 30
0.0
  9
$PUCSORGBOTTOM
 10
0.0
 20
0.0
 30
0.0
  9
$PUCSORGLEFT
 10
0.0
 20
0.0
 30
0.0
  9
$PUCSORGRIGHT
 10
0.0
 20
0.0
 30
0.0
  9
$PUCSORGFRONT
 10
0.0
 20
0.0
 30
0.0
  9
$PUCSORGBACK
 10
0.0
 20
0.0
 30
0.0
  9
$USERI1
 70
     0
  9
$USERI2
 70
     0
  9
$USERI3
 70
     0
  9
$USERI4
 70
     0
  9
$USERI5
 70
     0
  9
$USERR1
 40
0.0
  9
$USERR2
 40
0.0
  9
$USERR3
 40
0.0
  9
$USERR4
 40
0.0
  9
$USERR5
 40
0.0
  9
$WORLDVIEW
 70
     0
  9
$SHADEDGE
 70
     3
  9
$SHADEDIF
 70
    70
  9
$TILEMODE
 70
     1
  9
$MAXACTVP
 70
    16
  9
$PINSBASE
 10
0.0
 20
0.0
 30
0.0
  9
$PLIMCHECK
 70
     0
  9
$PEXTMIN
 10
1.000000000000000E+20
 20
1.000000000000000E+20
 30
1.000000000000000E+20
  9
$PEXTMAX
 10
-1.000000000000000E+20
 20
-1.000000000000000E+20
 30
-1.000000000000000E+20
  9
$PLIMMIN
 10
0.0
 20
0.0
  9
$PLIMMAX
 10
0.0
 20
0.0
  9
$UNITMODE
 70
     0
  9
$VISRETAIN
 70
     0
  9
$PLINEGEN
 70
     0
  9
$PSLTSCALE
 70
     0
  9
$TREEDEPTH
 70
  3020
  9
$CMLSTYLE
  2
STANDARD
  9
$CMLJUST
 70
     0
  9
$CMLSCALE
 40
1.0
  9
$PROXYGRAPHICS
 70
     1
  9
$MEASUREMENT
 70
     0
  9
$CELWEIGHT
370
    -1
  9
$ENDCAPS
280
     0
  9
$JOINSTYLE
280
     0
  9
$LWDISPLAY
290
     0
  9
$INSUNITS
 70
     0
  9
$HYPERLINKBASE
  1

  9
$STYLESHEET
  1
spax form.ctb
  9
$XEDIT
290
     1
  9
$CEPSNTYPE
380
     0
  9
$PSTYLEMODE
290
     1
  9
$FINGERPRINTGUID
  2
{BBAEEBA6-8B94-11D3-9160-00E0294F7E09}
  9
$VERSIONGUID
  2
{8B9EF4C5-4FB4-4897-A111-0C19AFD0BBE4}
  9
$EXTNAMES
290
     1
  9
$PSVPSCALE
 40
0.0
  9
$OLESTARTUP
290
     0
  0
ENDSEC
  0
SECTION
  2
CLASSES
  0
CLASS
  1
LWPOLYLINE
  2
AcDbPolyline
  3
ObjectDBX Classes
 90
        0
280
     0
281
     1
  0
CLASS
  1
ACDBDICTIONARYWDFLT
  2
AcDbDictionaryWithDefault
  3
ObjectDBX Classes
 90
        0
280
     0
281
     0
  0
CLASS
  1
ACDBPLACEHOLDER
  2
AcDbPlaceHolder
  3
ObjectDBX Classes
 90
        0
280
     0
281
     0
  0
CLASS
  1
LAYOUT
  2
AcDbLayout
  3
ObjectDBX Classes
 90
        0
280
     0
281
     0
  0
CLASS
  1
DICTIONARYVAR
  2
AcDbDictionaryVar
  3
ObjectDBX Classes
 90
        0
280
     0
281
     0
  0
CLASS
  1
MATERIAL
  2
AcDbMaterial
  3
ObjectDBX Classes
 90
     1153
280
     0
281
     0
  0
CLASS
  1
VISUALSTYLE
  2
AcDbVisualStyle
  3
ObjectDBX Classes
 90
     4095
280
     0
281
     0
  0
CLASS
  1
TABLESTYLE
  2
AcDbTableStyle
  3
ObjectDBX Classes
 90
     4095
280
     0
281
     0
  0
CLASS
  1
SCALE
  2
AcDbScale
  3
ObjectDBX Classes
 90
     1153
280
     0
281
     0
  0
CLASS
  1
MLEADERSTYLE
  2
AcDbMLeaderStyle
  3
ACDB_MLEADERSTYLE_CLASS
 90
     4095
280
     0
281
     0
  0
CLASS
  1
CELLSTYLEMAP
  2
AcDbCellStyleMap
  3
ObjectDBX Classes
 90
     1152
280
     0
281
     0
  0
CLASS
  1
SORTENTSTABLE
  2
AcDbSortentsTable
  3
ObjectDBX Classes
 90
        0
280
     0
281
     0
  0
CLASS
  1
MULTILEADER
  2
AcDbMLeader
  3
ACDB_MLEADER_CLASS
 90
     1025
280
     0
281
     1
  0
CLASS
  1
DIMASSOC
  2
AcDbDimAssoc
  3
"AcDbDimAssoc|Product Desc:     AcDim ARX App For Dimension|Company:          Autodesk, Inc.|WEB Address:      www.autodesk.com"
 90
        0
280
     0
281
     0
  0
CLASS
  1
RASTERVARIABLES
  2
AcDbRasterVariables
  3
ISM
 90
        0
280
     0
281
     0
  0
CLASS
  1
SUN
  2
AcDbSun
  3
SCENEOE
 90
     1153
280
     0
281
     0
  0
ENDSEC
  0
SECTION
  2
TABLES
  0
TABLE
  2
VPORT
  5
8
330
0
100
AcDbSymbolTable
 70
     1
  0
VPORT
  5
12A20F
330
8
100
AcDbSymbolTableRecord
100
AcDbViewportTableRecord
  2
*Active
 70
     0
 10
0.0
 20
0.0
 11
1.0
 21
1.0
 12
9527.206811908163
 22
-5022.821410241363
 13
0.0
 23
0.0
 14
1.0
 24
1.0
 15
20.0
 25
20.0
 16
0.0
 26
0.0
 36
1.0
 17
0.0
 27
0.0
 37
0.0
 40
91.23084304504769
 41
1.731829573934837
 42
50.0
 43
0.0
 44
0.0
 50
0.0
 51
0.0
 71
    16
 72
   100
 73
     1
 74
     0
 75
     0
 76
     0
 77
     0
 78
     0
281
     0
 65
     1
110
0.0
120
0.0
130
0.0
111
1.0
121
0.0
131
0.0
112
0.0
122
1.0
132
0.0
 79
     0
146
0.0
  0
ENDTAB
  0
TABLE
  2
LTYPE
  5
5
330
0
100
AcDbSymbolTable
 70
     4
  0
LTYPE
  5
12
330
5
100
AcDbSymbolTableRecord
100
AcDbLinetypeTableRecord
  2
BYBLOCK
 70
     0
  3

 72
    65
 73
     0
 40
0.0
  0
LTYPE
  5
13
330
5
100
AcDbSymbolTableRecord
100
AcDbLinetypeTableRecord
  2
BYLAYER
 70
     0
  3

 72
    65
 73
     0
 40
0.0
  0
LTYPE
  5
14
330
5
100
AcDbSymbolTableRecord
100
AcDbLinetypeTableRecord
  2
CONTINUOUS
 70
     0
  3
Solid line
 72
    65
 73
     0
 40
0.0
  0
LTYPE
  5
26
330
5
100
AcDbSymbolTableRecord
100
AcDbLinetypeTableRecord
  2
PHANTOM
 70
     0
  3
_____ _ _ _____ _ _ _____ _ _ _____ _ _ ____
 72
    65
 73
     6
 40
2.5
 49
1.25
 74
     0
 49
-0.25
 74
     0
 49
0.25
 74
     0
 49
-0.25
 74
     0
 49
0.25
 74
     0
 49
-0.25
 74
     0
  0
LTYPE
  5
27
330
5
100
AcDbSymbolTableRecord
100
AcDbLinetypeTableRecord
  2
HIDDEN
 70
     0
  3
_ _ _ _ _ _ _ _ _ _ _ _ _ _ _ _ _ _ _ _ _ _ _
 72
    65
 73
     2
 40
0.375
 49
0.25
 74
     0
 49
-0.125
 74
     0
  0
LTYPE
  5
514
330
5
100
AcDbSymbolTableRecord
100
AcDbLinetypeTableRecord
  2
CENTER
 70
     0
  3
Center ____ _ ____ _ ____ _ ____ _ ____ _ ____
 72
    65
 73
     4
 40
2.0
 49
1.25
 74
     0
 49
-0.25
 74
     0
 49
0.25
 74
     0
 49
-0.25
 74
     0
  0
ENDTAB
  0
TABLE
  2
LAYER
  5
2
102
{ACAD_XDICTIONARY
360
8BF
102
}
330
0
100
AcDbSymbolTable
 70
    13
  0
LAYER
  5
F
102
{ACAD_XDICTIONARY
360
A60
102
}
330
2
100
AcDbSymbolTableRecord
100
AcDbLayerTableRecord
  2
0
 70
     0
 62
     7
  6
CONTINUOUS
370
    -3
390
616
  0
LAYER
  5
34
102
{ACAD_XDICTIONARY
360
A66
102
}
330
2
100
AcDbSymbolTableRecord
100
AcDbLayerTableRecord
  2
寸法線
 70
     0
 62
     7
  6
CONTINUOUS
370
    -3
390
616
  0
LAYER
  5
2F4
102
{ACAD_XDICTIONARY
360
A6E
102
}
330
2
100
AcDbSymbolTableRecord
100
AcDbLayerTableRecord
  2
文字
 70
     0
 62
     7
  6
CONTINUOUS
370
    -3
390
616
  0
LAYER
  5
305
102
{ACAD_XDICTIONARY
360
A72
102
}
330
2
100
AcDbSymbolTableRecord
100
AcDbLayerTableRecord
  2
姿図
 70
     0
 62
     8
  6
CONTINUOUS
370
    -3
390
616
  0
ENDTAB
  0
TABLE
  2
STYLE
  5
3
330
0
100
AcDbSymbolTable
 70
     1
  0
STYLE
  5
10
330
3
100
AcDbSymbolTableRecord
100
AcDbTextStyleTableRecord
  2
STANDARD
 70
     0
 40
0.0
 41
1.0
 50
0.0
 71
     0
 42
53.44730959687513
  3
MONOTXT
  4
BIGFONT
  0
ENDTAB
  0
TABLE
  2
VIEW
  5
6
330
0
100
AcDbSymbolTable
 70
     0
  0
ENDTAB
  0
TABLE
  2
UCS
  5
7
330
0
100
AcDbSymbolTable
 70
     0
  0
ENDTAB
  0
TABLE
  2
APPID
  5
9
330
0
100
AcDbSymbolTable
 70
    15
  0
APPID
  5
11
330
9
100
AcDbSymbolTableRecord
100
AcDbRegAppTableRecord
  2
ACAD
 70
     0
  0
APPID
  5
8BB
330
9
100
AcDbSymbolTableRecord
100
AcDbRegAppTableRecord
  2
ACAD_PSEXT
 70
     0
  0
APPID
  5
A5A
330
9
100
AcDbSymbolTableRecord
100
AcDbRegAppTableRecord
  2
ACAD_MLEADERVER
 70
     0
  0
APPID
  5
A5E
330
9
100
AcDbSymbolTableRecord
100
AcDbRegAppTableRecord
  2
ACAD_DSTYLE_DIMJAG
 70
     0
  0
APPID
  5
A5F
330
9
100
AcDbSymbolTableRecord
100
AcDbRegAppTableRecord
  2
ACAD_DSTYLE_DIMTALN
 70
     0
  0
APPID
  5
12C0
330
9
100
AcDbSymbolTableRecord
100
AcDbRegAppTableRecord
  2
ACAD_EXEMPT_FROM_CAD_STANDARDS
 70
     0
  0
APPID
  5
1C50
330
9
100
AcDbSymbolTableRecord
100
AcDbRegAppTableRecord
  2
AcAecLayerStandard
 70
     0
  0
APPID
  5
5088
330
9
100
AcDbSymbolTableRecord
100
AcDbRegAppTableRecord
  2
ACAD_DSTYLE_DIMRADIAL_EXTENSION
 70
     0
  0
APPID
  5
14AF3
330
9
100
AcDbSymbolTableRecord
100
AcDbRegAppTableRecord
  2
WACOM_STRING
 70
     0
  0
APPID
  5
14AF4
330
9
100
AcDbSymbolTableRecord
100
AcDbRegAppTableRecord
  2
WACOM_DRSYM_ARROW
 70
     0
  0
APPID
  5
1E1A8
330
9
100
AcDbSymbolTableRecord
100
AcDbRegAppTableRecord
  2
GENIUS_GENODEF_13
 70
     0
  0
APPID
  5
1E1A9
330
9
100
AcDbSymbolTableRecord
100
AcDbRegAppTableRecord
  2
GENIUS_GENREC_14
 70
     0
  0
APPID
  5
1E1AA
330
9
100
AcDbSymbolTableRecord
100
AcDbRegAppTableRecord
  2
GENIUS_GENOBJ-N-REC_13
 70
     0
  0
APPID
  5
27C72
330
9
100
AcDbSymbolTableRecord
100
AcDbRegAppTableRecord
  2
ASK_MEN_XD
 70
     0
  0
APPID
  5
29316
330
9
100
AcDbSymbolTableRecord
100
AcDbRegAppTableRecord
  2
ACAD_DSTYLE_DIMBREAK
 70
     0
  0
ENDTAB
  0
TABLE
  2
DIMSTYLE
  5
A
330
0
100
AcDbSymbolTable
 70
     3
100
AcDbDimStyleTable
  0
DIMSTYLE
105
1CC
330
A
100
AcDbSymbolTableRecord
100
AcDbDimStyleTableRecord
  2
STANDARD
 70
     0
 41
2.5
 42
1.5
 44
1.0
 73
     0
 74
     0
 77
     3
 78
     8
 79
     2
140
2.500000000000003
141
0.0
147
1.0
171
     0
172
     1
173
     1
176
     8
177
     8
271
     2
178
   256
179
     2
271
     2
272
     2
274
     0
289
     1
340
10
341
608
343
608
344
608
1001
ACAD_DSTYLE_DIMJAG
1070
   388
1040
1.5
1001
ACAD_DSTYLE_DIMTALN
1070
   392
1070
     0
  0
ENDTAB
  0
TABLE
  2
BLOCK_RECORD
  5
1
330
0
100
AcDbSymbolTable
 70
    54
  0
BLOCK_RECORD
  5
18
102
{ACAD_XDICTIONARY
360
143F
102
}
330
1
100
AcDbSymbolTableRecord
100
AcDbBlockTableRecord
  2
*MODEL_SPACE
340
619
  0
BLOCK_RECORD
  5
15
330
1
100
AcDbSymbolTableRecord
100
AcDbBlockTableRecord
  2
*PAPER_SPACE
340
61A
  0
BLOCK_RECORD
  5
608
330
1
100
AcDbSymbolTableRecord
100
AcDbBlockTableRecord
  2
_OPEN
340
0
102
{BLKREFS
331
107E12
331
107E13
331
107E1B
331
107E1C
331
107EC8
331
107EC9
331
1111D4
331
1111D5
331
1111E6
331
1111E7
331
1111FE
331
1111FF
331
11AA06
331
11AA07
331
127740
331
127741
331
127749
331
12774A
331
127752
331
127753
331
12775B
331
12775C
331
127766
331
127767
331
12776F
331
127770
331
127778
331
127779
331
128C39
331
128C3A
331
128C42
331
128C43
331
128C4D
331
128C4E
331
128C56
331
128C57
331
128C5F
331
128C60
331
128C68
331
128C69
331
128C71
331
128C72
331
12A1AD
331
12A1AE
331
12A1B6
331
12A1B7
331
12A1BF
331
12A1C0
331
12A1C8
331
12A1C9
331
12A1D3
331
12A1D4
331
12A1DC
331
12A1DD
331
12A1E5
331
12A1E6
331
12B6B3
331
12B6B4
331
12B6BC
331
12B6BD
331
12B6C5
331
12B6C6
331
12B6CE
331
12B6CF
331
12B6D7
331
12B6D8
331
12B6E0
331
12B6E1
331
12B6EB
331
12B6EC
331
12CB8F
331
12CB90
331
12CB98
331
12CB99
331
12CBA3
331
12CBA4
331
12CBAC
331
12CBAD
331
12CBB5
331
12CBB6
331
12CBBE
331
12CBBF
331
12CBC7
331
12CBC8
331
12E480
331
12E481
331
12E489
331
12E48A
331
12E492
331
12E493
331
12E49B
331
12E49C
331
12E4A4
331
12E4A5
331
12E4AD
331
12E4AE
331
12E4B8
331
12E4B9
102
}
  0
BLOCK_RECORD
  5
89D
330
1
100
AcDbSymbolTableRecord
100
AcDbBlockTableRecord
  2
SUN
340
0
  0
BLOCK_RECORD
  5
1F1F
330
1
100
AcDbSymbolTableRecord
100
AcDbBlockTableRecord
  2
_OPEN30
340
0
  0
ENDTAB
  0
ENDSEC
  0
SECTION
  2
BLOCKS
  0
BLOCK
  5
39
330
18
100
AcDbEntity
  8
0
100
AcDbBlockBegin
  2
*MODEL_SPACE
 70
     0
 10
0.0
 20
0.0
 30
0.0
  3
*MODEL_SPACE
  1
*MODEL_SPACE
  0
ENDBLK
  5
3A
330
18
100
AcDbEntity
  8
0
100
AcDbBlockEnd
  0
BLOCK
  5
37
330
15
100
AcDbEntity
 67
     1
  8
0
100
AcDbBlockBegin
  2
*PAPER_SPACE
 70
     0
 10
0.0
 20
0.0
 30
0.0
  3
*PAPER_SPACE
  1
*PAPER_SPACE
  0
ENDBLK
  5
38
330
15
100
AcDbEntity
 67
     1
  8
0
100
AcDbBlockEnd
  0
BLOCK
  5
609
330
608
100
AcDbEntity
  8
0
100
AcDbBlockBegin
  2
_OPEN
 70
     0
 10
0.0
 20
0.0
 30
0.0
  3
_OPEN
  1
_OPEN
  0
LINE
  5
60A
330
608
100
AcDbEntity
  8
0
  6
ByBlock
 62
     0
100
AcDbLine
 10
-1.0
 20
0.1666666666666667
 30
0.0
 11
0.0
 21
0.0
 31
0.0
  0
LINE
  5
60B
330
608
100
AcDbEntity
  8
0
  6
ByBlock
 62
     0
100
AcDbLine
 10
0.0
 20
0.0
 30
0.0
 11
-1.0
 21
-0.1666666666666667
 31
0.0
  0
LINE
  5
60C
330
608
100
AcDbEntity
  8
0
  6
ByBlock
 62
     0
100
AcDbLine
 10
0.0
 20
0.0
 30
0.0
 11
-1.0
 21
0.0
 31
0.0
  0
ENDBLK
  5
60D
330
608
100
AcDbEntity
  8
0
100
AcDbBlockEnd
  0
BLOCK
  5
89E
330
89D
100
AcDbEntity
  8
0
100
AcDbBlockBegin
  2
SUN
 70
     0
 10
0.0
 20
0.0
 30
0.0
  3
SUN
  1
SUN
  0
LINE
  5
89F
330
89D
100
AcDbEntity
  8
0
100
AcDbLine
 10
-0.0000000000000568
 20
0.0
 30
0.0
 11
-1.500000000000057
 21
0.0
 31
0.0
  0
LINE
  5
8A0
330
89D
100
AcDbEntity
  8
0
100
AcDbLine
 10
-0.0000000000000568
 20
0.0000000000000284
 30
0.0
 11
-1.500000000000057
 21
0.401923788646684
 31
0.0
  0
LINE
  5
8A1
330
89D
100
AcDbEntity
  8
0
100
AcDbLine
 10
-0.0000000000000568
 20
0.0000000000000284
 30
0.0
 11
-1.500000000000057
 21
-0.4019237886466556
 31
0.0
  0
ENDBLK
  5
8A2
330
89D
100
AcDbEntity
  8
0
100
AcDbBlockEnd
  0
BLOCK
  5
1F20
330
1F1F
100
AcDbEntity
  8
0
100
AcDbBlockBegin
  2
_OPEN30
 70
     0
 10
0.0
 20
0.0
 30
0.0
  3
_OPEN30
  1
_OPEN30
  0
LINE
  5
1F21
330
1F1F
100
AcDbEntity
  8
0
  6
ByBlock
 62
     0
100
AcDbLine
 10
-1.0
 20
0.26794919
 30
0.0
 11
0.0
 21
0.0
 31
0.0
  0
LINE
  5
1F22
330
1F1F
100
AcDbEntity
  8
0
  6
ByBlock
 62
     0
100
AcDbLine
 10
0.0
 20
0.0
 30
0.0
 11
-1.0
 21
-0.26794919
 31
0.0
  0
LINE
  5
1F23
330
1F1F
100
AcDbEntity
  8
0
  6
ByBlock
 62
     0
100
AcDbLine
 10
0.0
 20
0.0
 30
0.0
 11
-1.0
 21
0.0
 31
0.0
  0
ENDBLK
  5
1F24
330
1F1F
100
AcDbEntity
  8
0
100
AcDbBlockEnd
  0
ENDSEC
  0
SECTION
  2
ENTITIES
  0
MTEXT
  5
D0CC6
330
18
100
AcDbEntity
  8
寸法線
100
AcDbMText
 10
2610.774875364868
 20
-2740.315466585338
 30
0.0
 40
2.500000000000003
 41
0.0
 71
     9
 72
     1
  1
\A1;
 73
     1
 44
1.0
  0
MTEXT
  5
F6D77
330
18
100
AcDbEntity
  8
文字
100
AcDbMText
 10
5821.057140836062
 20
-2842.341718131323
 30
0.0
 40
2.5
 41
64.39156592258223
 71
     1
 72
     5
  1
   
 73
     1
 44
1.0
  0
MTEXT
  5
F6D78
330
18
100
AcDbEntity
  8
寸法線
100
AcDbMText
 10
6222.662262480188
 20
-2968.738290481128
 30
0.0
 40
3.000000000000001
 41
0.0
 71
     7
 72
     1
  1
\A1;
 73
     1
 44
1.0
  0
TEXT
  5
12D001
330
18
100
AcDbEntity
  8
文字
100
AcDbText
 10
9492.540145241495
 20
-5067.542411734034
 30
0.0
 40
6.5
  1
SX-535/80DF
100
AcDbText
  0
LINE
  5
12E063
330
18
100
AcDbEntity
  8
姿図
100
AcDbLine
 10
9535.703510698153
 20
-4992.756067534264
 30
-0.0000000000000061
 11
9535.7649605242
 21
-4995.099836193627
 31
-0.0000000000000061
  0
LINE
  5
12E064
330
18
100
AcDbEntity
  8
姿図
100
AcDbLine
 10
9540.946988207825
 20
-4991.738169239266
 30
-0.0000000000000061
 11
9541.009160973
 21
-4994.483169115762
 31
-0.0000000000000061
  0
SPLINE
  5
12E065
330
18
100
AcDbEntity
  8
姿図
100
AcDbSpline
210
0.0
220
0.0
230
1.0
 70
    24
 71
     3
 72
     8
 73
     4
 74
     0
 42
0.000000001
 43
0.0000000001
 40
0.0
 40
0.0
 40
0.0
 40
0.0
 40
1.0
 40
1.0
 40
1.0
 40
1.0
 10
9528.794381433028
 20
-5016.290627971308
 30
-0.0000000000000061
 10
9528.794381433028
 20
-5016.290627971308
 30
-0.0000000000000061
 10
9533.081410473751
 20
-4993.465270820764
 30
-0.0000000000000061
 10
9533.081410473751
 20
-4993.465270820764
 30
-0.0000000000000061
  0
SPLINE
  5
12E066
330
18
100
AcDbEntity
  8
姿図
100
AcDbSpline
210
0.0
220
0.0
230
1.0
 70
     8
 71
     3
 72
    11
 73
     7
 74
     0
 42
0.000000001
 43
0.0000000001
 40
1.0
 40
1.0
 40
1.0
 40
1.0
 40
2.0
 40
2.0
 40
2.0
 40
3.0
 40
3.0
 40
3.0
 40
3.0
 10
9533.081410473751
 20
-4993.465270820764
 30
-0.0000000000000061
 10
9533.081410473751
 20
-4993.465270820764
 30
-0.0000000000000061
 10
9533.29756927361
 20
-4992.910776508078
 30
-0.0000000000000061
 10
9534.222931359975
 20
-4992.8486037429
 30
-0.0000000000000061
 10
9535.148293446335
 20
-4992.786430977723
 30
-0.0000000000000061
 10
9535.703510698153
 20
-4992.756067534264
 30
-0.0000000000000061
 10
9535.703510698153
 20
-4992.756067534264
 30
-0.0000000000000061
  0
SPLINE
  5
12E067
330
18
100
AcDbEntity
  8
姿図
100
AcDbSpline
210
0.0
220
0.0
230
1.0
 70
     8
 71
     3
 72
     8
 73
     4
 74
     0
 42
0.000000001
 43
0.0000000001
 40
3.0
 40
3.0
 40
3.0
 40
3.0
 40
4.0
 40
4.0
 40
4.0
 40
4.0
 10
9535.703510698153
 20
-4992.756067534264
 30
-0.0000000000000061
 10
9535.703510698153
 20
-4992.756067534264
 30
-0.0000000000000061
 10
9536.595617584535
 20
-4990.293013918456
 30
-0.0000000000000061
 10
9541.009160973
 20
-4991.768532682725
 30
-0.0000000000000061
  0
SPLINE
  5
12E068
330
18
100
AcDbEntity
  8
姿図
100
AcDbSpline
210
0.0
220
0.0
230
1.0
 70
    24
 71
     3
 72
     8
 73
     4
 74
     0
 42
0.000000001
 43
0.0000000001
 40
4.0
 40
4.0
 40
4.0
 40
4.0
 40
5.0
 40
5.0
 40
5.0
 40
5.0
 10
9541.009160973
 20
-4991.768532682725
 30
-0.0000000000000061
 10
9541.009160973
 20
-4991.768532682725
 30
-0.0000000000000061
 10
9545.173290361628
 20
-4991.460560613357
 30
-0.0000000000000061
 10
9545.173290361628
 20
-4991.460560613357
 30
-0.0000000000000061
  0
SPLINE
  5
12E069
330
18
100
AcDbEntity
  8
姿図
100
AcDbSpline
210
0.0
220
0.0
230
1.0
 70
     8
 71
     3
 72
     8
 73
     4
 74
     0
 42
0.000000001
 43
0.0000000001
 40
5.0
 40
5.0
 40
5.0
 40
5.0
 40
6.0
 40
6.0
 40
6.0
 40
6.0
 10
9545.173290361628
 20
-4991.460560613357
 30
-0.0000000000000061
 10
9545.173290361628
 20
-4991.460560613357
 30
-0.0000000000000061
 10
9546.62206037809
 20
-4991.151865604861
 30
-0.0000000000000061
 10
9546.86930556054
 20
-4993.09512598622
 30
-0.0000000000000061
  0
SPLINE
  5
12E06A
330
18
100
AcDbEntity
  8
姿図
100
AcDbSpline
210
0.0
220
0.0
230
1.0
 70
    24
 71
     3
 72
     8
 73
     4
 74
     0
 42
0.000000001
 43
0.0000000001
 40
6.0
 40
6.0
 40
6.0
 40
6.0
 40
7.0
 40
7.0
 40
7.0
 40
7.0
 10
9546.86930556054
 20
-4993.09512598622
 30
-0.0000000000000061
 10
9546.86930556054
 20
-4993.09512598622
 30
-0.0000000000000061
 10
9550.23169545403
 20
-5022.98504431483
 30
-0.0000000000000061
 10
9550.23169545403
 20
-5022.98504431483
 30
-0.0000000000000061
  0
SPLINE
  5
12E06B
330
18
100
AcDbEntity
  8
姿図
100
AcDbSpline
210
0.0
220
0.0
230
1.0
 70
     8
 71
     3
 72
     8
 73
     4
 74
     0
 42
0.000000001
 43
0.0000000001
 40
7.0
 40
7.0
 40
7.0
 40
7.0
 40
8.0
 40
8.0
 40
8.0
 40
8.0
 10
9550.23169545403
 20
-5022.98504431483
 30
-0.0000000000000061
 10
9550.23169545403
 20
-5022.98504431483
 30
-0.0000000000000061
 10
9550.509304079938
 20
-5023.262652940739
 30
-0.0000000000000061
 10
9550.69437649721
 20
-5023.355189149375
 30
-0.0000000000000061
  0
SPLINE
  5
12E06C
330
18
100
AcDbEntity
  8
姿図
100
AcDbSpline
210
0.0
220
0.0
230
1.0
 70
    24
 71
     3
 72
     8
 73
     4
 74
     0
 42
0.000000001
 43
0.0000000001
 40
0.0
 40
0.0
 40
0.0
 40
0.0
 40
1.0
 40
1.0
 40
1.0
 40
1.0
 10
9531.66300390075
 20
-5015.827946928128
 30
-0.0000000000000061
 10
9531.66300390075
 20
-5015.827946928128
 30
-0.0000000000000061
 10
9535.868564309105
 20
-4995.730886614117
 30
-0.0000000000000061
 10
9535.868564309105
 20
-4995.730886614117
 30
-0.0000000000000061
  0
SPLINE
  5
12E06D
330
18
100
AcDbEntity
  8
姿図
100
AcDbSpline
210
0.0
220
0.0
230
1.0
 70
    24
 71
     3
 72
     8
 73
     4
 74
     0
 42
0.000000001
 43
0.0000000001
 40
1.0
 40
1.0
 40
1.0
 40
1.0
 40
2.0
 40
2.0
 40
2.0
 40
2.0
 10
9535.868564309105
 20
-4995.730886614117
 30
-0.0000000000000061
 10
9535.868564309105
 20
-4995.730886614117
 30
-0.0000000000000061
 10
9536.56117955814
 20
-4995.682945954468
 30
-0.0000000000000061
 10
9536.56117955814
 20
-4995.682945954468
 30
-0.0000000000000061
  0
SPLINE
  5
12E06E
330
18
100
AcDbEntity
  8
姿図
100
AcDbSpline
210
0.0
220
0.0
230
1.0
 70
     8
 71
     3
 72
     8
 73
     4
 74
     0
 42
0.000000001
 43
0.0000000001
 40
2.0
 40
2.0
 40
2.0
 40
2.0
 40
3.0
 40
3.0
 40
3.0
 40
3.0
 10
9536.56117955814
 20
-4995.682945954468
 30
-0.0000000000000061
 10
9536.56117955814
 20
-4995.682945954468
 30
-0.0000000000000061
 10
9540.475897090506
 20
-4996.399939749512
 30
-0.0000000000000061
 10
9541.187124060525
 20
-4995.394466030599
 30
-0.0000000000000061
  0
SPLINE
  5
12E06F
330
18
100
AcDbEntity
  8
姿図
100
AcDbSpline
210
0.0
220
0.0
230
1.0
 70
    24
 71
     3
 72
     8
 73
     4
 74
     0
 42
0.000000001
 43
0.0000000001
 40
3.0
 40
3.0
 40
3.0
 40
3.0
 40
4.0
 40
4.0
 40
4.0
 40
4.0
 10
9541.187124060525
 20
-4995.394466030599
 30
-0.0000000000000061
 10
9541.187124060525
 20
-4995.394466030599
 30
-0.0000000000000061
 10
9543.577282876675
 20
-4995.217332743926
 30
-0.0000000000000061
 10
9543.577282876675
 20
-4995.217332743926
 30
-0.0000000000000061
  0
SPLINE
  5
12E070
330
18
100
AcDbEntity
  8
姿図
100
AcDbSpline
210
0.0
220
0.0
230
1.0
 70
     8
 71
     3
 72
     8
 73
     4
 74
     0
 42
0.000000001
 43
0.0000000001
 40
0.0
 40
0.0
 40
0.0
 40
0.0
 40
1.0
 40
1.0
 40
1.0
 40
1.0
 10
9547.856840412078
 20
-5023.817870192555
 30
-0.0000000000000061
 10
9547.856840412078
 20
-5023.817870192555
 30
-0.0000000000000061
 10
9548.25734869008
 20
-5023.754251549119
 30
-0.0000000000000061
 10
9548.07227627281
 20
-5022.398017741294
 30
-0.0000000000000061
  0
SPLINE
  5
12E071
330
18
100
AcDbEntity
  8
姿図
100
AcDbSpline
210
0.0
220
0.0
230
1.0
 70
    24
 71
     3
 72
     8
 73
     4
 74
     0
 42
0.000000001
 43
0.0000000001
 40
1.0
 40
1.0
 40
1.0
 40
1.0
 40
2.0
 40
2.0
 40
2.0
 40
2.0
 10
9548.07227627281
 20
-5022.398017741294
 30
-0.0000000000000061
 10
9548.07227627281
 20
-5022.398017741294
 30
-0.0000000000000061
 10
9543.415102397543
 20
-4994.236646872442
 30
-0.0000000000000061
 10
9543.415102397543
 20
-4994.236646872442
 30
-0.0000000000000061
  0
SPLINE
  5
12E072
330
18
100
AcDbEntity
  8
姿図
100
AcDbSpline
210
0.0
220
0.0
230
1.0
 70
    24
 71
     3
 72
     8
 73
     4
 74
     0
 42
0.000000001
 43
0.0000000001
 40
2.0
 40
2.0
 40
2.0
 40
2.0
 40
3.0
 40
3.0
 40
3.0
 40
3.0
 10
9543.415102397543
 20
-4994.236646872442
 30
-0.0000000000000061
 10
9543.415102397543
 20
-4994.236646872442
 30
-0.0000000000000061
 10
9540.946988207825
 20
-4994.483169115762
 30
-0.0000000000000061
 10
9540.946988207825
 20
-4994.483169115762
 30
-0.0000000000000061
  0
SPLINE
  5
12E073
330
18
100
AcDbEntity
  8
姿図
100
AcDbSpline
210
0.0
220
0.0
230
1.0
 70
     8
 71
     3
 72
     8
 73
     4
 74
     0
 42
0.000000001
 43
0.0000000001
 40
3.0
 40
3.0
 40
3.0
 40
3.0
 40
4.0
 40
4.0
 40
4.0
 40
4.0
 10
9540.946988207825
 20
-4994.483169115762
 30
-0.0000000000000061
 10
9540.946988207825
 20
-4994.483169115762
 30
-0.0000000000000061
 10
9537.038056332076
 20
-4993.35972170779
 30
-0.0000000000000061
 10
9536.166191741333
 20
-4994.729691359082
 30
-0.0000000000000061
  0
SPLINE
  5
12E074
330
18
100
AcDbEntity
  8
姿図
100
AcDbSpline
210
0.0
220
0.0
230
1.0
 70
    24
 71
     3
 72
     8
 73
     4
 74
     0
 42
0.000000001
 43
0.0000000001
 40
4.0
 40
4.0
 40
4.0
 40
4.0
 40
5.0
 40
5.0
 40
5.0
 40
5.0
 10
9536.166191741333
 20
-4994.729691359082
 30
-0.0000000000000061
 10
9535.950032941471
 20
-4995.069472750168
 30
-0.0000000000000061
 10
9535.950032941471
 20
-4995.069472750168
 30
-0.0000000000000061
 10
9535.950032941471
 20
-4995.069472750168
 30
-0.0000000000000061
  0
SPLINE
  5
12E075
330
18
100
AcDbEntity
  8
姿図
100
AcDbSpline
210
0.0
220
0.0
230
1.0
 70
    24
 71
     3
 72
     8
 73
     4
 74
     0
 42
0.000000001
 43
0.0000000001
 40
5.0
 40
5.0
 40
5.0
 40
5.0
 40
6.0
 40
6.0
 40
6.0
 40
6.0
 10
9535.950032941471
 20
-4995.069472750168
 30
-0.0000000000000061
 10
9535.950032941471
 20
-4995.069472750168
 30
-0.0000000000000061
 10
9533.791336699382
 20
-4995.25454516744
 30
-0.0000000000000061
 10
9533.791336699382
 20
-4995.25454516744
 30
-0.0000000000000061
  0
SPLINE
  5
12E076
330
18
100
AcDbEntity
  8
姿図
100
AcDbSpline
210
0.0
220
0.0
230
1.0
 70
    24
 71
     3
 72
     8
 73
     4
 74
     0
 42
0.000000001
 43
0.0000000001
 40
6.0
 40
6.0
 40
6.0
 40
6.0
 40
7.0
 40
7.0
 40
7.0
 40
7.0
 10
9533.791336699382
 20
-4995.25454516744
 30
-0.0000000000000061
 10
9533.791336699382
 20
-4995.25454516744
 30
-0.0000000000000061
 10
9529.688657136801
 20
-5016.043382788857
 30
-0.0000000000000061
 10
9529.688657136801
 20
-5016.043382788857
 30
-0.0000000000000061
  0
ELLIPSE
  5
12E077
330
18
100
AcDbEntity
  8
姿図
100
AcDbEllipse
 10
9550.12000135845
 20
-5025.707633078297
 30
-0.0000000000000061
 11
0.452198425796245
 21
-1.620829529392776
 31
0.0
210
0.0
220
0.0
230
1.0
 40
0.6435311717170277
 41
0.1727975711782461
 42
3.069675997577924
  0
ELLIPSE
  5
12E078
330
18
100
AcDbEntity
  8
姿図
100
AcDbEllipse
 10
9550.615937601608
 20
-5025.526175356675
 30
-0.0000000000000061
 11
0.4775012953451957
 21
-1.714088677158909
 31
0.0
210
0.0
220
0.0
230
1.0
 40
0.6435771184023121
 41
0.0
 42
6.283185307179586
  0
LINE
  5
12E079
330
18
100
AcDbEntity
  8
姿図
100
AcDbLine
 10
9550.366176276111
 20
-5028.321663741188
 30
-0.0000000000000061
 11
9551.387303001204
 21
-5027.767166824315
 31
-0.0000000000000061
  0
LINE
  5
12E07A
330
18
100
AcDbEntity
  8
姿図
100
AcDbLine
 10
9548.684605715895
 20
-5023.371093810234
 30
-0.0000000000000061
 11
9549.985173210709
 21
-5023.170116732103
 31
-0.0000000000000061
  0
ELLIPSE
  5
12E07B
330
18
100
AcDbEntity
  8
姿図
100
AcDbEllipse
 10
9550.45002307128
 20
-5025.554369982744
 30
-0.0000000000000061
 11
0.6513681561029848
 21
-2.342322781102853
 31
0.0
210
0.0
220
0.0
230
1.0
 40
0.6439476357599929
 41
0.0
 42
6.283185307179586
  0
ELLIPSE
  5
12E07C
330
18
100
AcDbEntity
  8
姿図
100
AcDbEllipse
 10
9549.38404932414
 20
-5025.89704313035
 30
-0.0000000000000061
 11
0.7023353647658706
 21
-2.527395198375176
 31
0.0
210
0.0
220
0.0
230
1.0
 40
0.8372735138002815
 41
2.937168574284825
 42
6.528588851372925
  0
LINE
  5
12E07D
330
18
100
AcDbEntity
  8
姿図
100
AcDbLine
 10
9544.40772941193
 20
-5024.928304696189
 30
-0.0000000000000061
 11
9548.0619621289
 21
-5023.537232754128
 31
-0.0000000000000061
  0
SPLINE
  5
12E07E
330
18
100
AcDbEntity
  8
姿図
100
AcDbSpline
210
0.0
220
0.0
230
1.0
 70
    24
 71
     3
 72
     8
 73
     4
 74
     0
 42
0.000000001
 43
0.0000000001
 40
0.0
 40
0.0
 40
0.0
 40
0.0
 40
1.0
 40
1.0
 40
1.0
 40
1.0
 10
9552.915968443609
 20
-5020.764175307562
 30
-0.0000000000000061
 10
9552.915968443609
 20
-5020.764175307562
 30
-0.0000000000000061
 10
9554.457274668704
 20
-5019.251786647665
 30
-0.0000000000000061
 10
9554.457274668704
 20
-5019.251786647665
 30
-0.0000000000000061
  0
SPLINE
  5
12E07F
330
18
100
AcDbEntity
  8
姿図
100
AcDbSpline
210
0.0
220
0.0
230
1.0
 70
     8
 71
     3
 72
     8
 73
     4
 74
     0
 42
0.000000001
 43
0.0000000001
 40
1.0
 40
1.0
 40
1.0
 40
1.0
 40
2.0
 40
2.0
 40
2.0
 40
2.0
 10
9554.457274668704
 20
-5019.251786647665
 30
-0.0000000000000061
 10
9554.457274668704
 20
-5019.251786647665
 30
-0.0000000000000061
 10
9554.520893312143
 20
-5019.12888699557
 30
-0.0000000000000061
 10
9554.489083990422
 20
-5019.036350786934
 30
-0.0000000000000061
  0
SPLINE
  5
12E080
330
18
100
AcDbEntity
  8
姿図
100
AcDbSpline
210
0.0
220
0.0
230
1.0
 70
    24
 71
     3
 72
     8
 73
     4
 74
     0
 42
0.000000001
 43
0.0000000001
 40
1.504403239517428
 40
1.504403239517428
 40
1.504403239517428
 40
1.504403239517428
 40
1.793215549939622
 40
1.793215549939622
 40
1.793215549939622
 40
1.793215549939622
 10
9542.97466316219
 20
-5012.427477219648
 30
-0.0000000000000061
 10
9544.132647719121
 20
-5011.563347032838
 30
-0.0000000000000061
 10
9545.284741338051
 20
-5010.703612878191
 30
-0.0000000000000061
 10
9546.044552270687
 20
-5010.136614329523
 30
-0.0000000000000061
  0
SPLINE
  5
12E081
330
18
100
AcDbEntity
  8
姿図
100
AcDbSpline
210
0.0
220
0.0
230
1.0
 70
     8
 71
     3
 72
     8
 73
     4
 74
     0
 42
0.000000001
 43
0.0000000001
 40
0.0
 40
0.0
 40
0.0
 40
0.0
 40
1.0
 40
1.0
 40
1.0
 40
1.0
 10
9557.110461275694
 20
-5022.614899480285
 30
-0.0000000000000061
 10
9557.110461275694
 20
-5022.614899480285
 30
-0.0000000000000061
 10
9557.386624023344
 20
-5022.98504431483
 30
-0.0000000000000061
 10
9557.233360927788
 20
-5023.170116732103
 30
-0.0000000000000061
  0
SPLINE
  5
12E082
330
18
100
AcDbEntity
  8
姿図
100
AcDbSpline
210
0.0
220
0.0
230
1.0
 70
    24
 71
     3
 72
     8
 73
     4
 74
     0
 42
0.000000001
 43
0.0000000001
 40
1.0
 40
1.0
 40
1.0
 40
1.0
 40
1.888883729132651
 40
1.888883729132651
 40
1.888883729132651
 40
1.888883729132651
 10
9557.233360927788
 20
-5023.170116732103
 30
-0.0000000000000061
 10
9557.233360927788
 20
-5023.170116732103
 30
-0.0000000000000061
 10
9551.87203518113
 20
-5027.434729775418
 30
-0.0000000000000061
 10
9550.680574133381
 20
-5028.382465571549
 30
-0.0000000000000061
  0
SPLINE
  5
12E083
330
18
100
AcDbEntity
  8
姿図
100
AcDbSpline
210
0.0
220
0.0
230
1.0
 70
     8
 71
     3
 72
    11
 73
     7
 74
     0
 42
0.000000001
 43
0.0000000001
 40
0.0
 40
0.0
 40
0.0
 40
0.0
 40
1.0
 40
1.0
 40
1.0
 40
1.814174646936442
 40
1.814174646936442
 40
1.814174646936442
 40
1.814174646936442
 10
9558.005459918597
 20
-5020.949247724835
 30
-0.0000000000000061
 10
9558.005459918597
 20
-5020.949247724835
 30
-0.0000000000000061
 10
9558.313431987965
 20
-5021.166129463825
 30
-0.0000000000000061
 10
9557.850750944785
 20
-5021.566637741829
 30
-0.0000000000000061
 10
9557.474047769807
 20
-5021.892721427668
 30
-0.0000000000000061
 10
9553.539599370797
 20
-5025.061550893272
 30
-0.0000000000000061
 10
9552.090366805713
 20
-5026.227988585839
 30
-0.0000000000000061
  0
SPLINE
  5
12E084
330
18
100
AcDbEntity
  8
姿図
100
AcDbSpline
210
0.0
220
0.0
230
1.0
 70
    24
 71
     3
 72
     8
 73
     4
 74
     0
 42
0.000000001
 43
0.0000000001
 40
0.0
 40
0.0
 40
0.0
 40
0.0
 40
1.0
 40
1.0
 40
1.0
 40
1.0
 10
9556.802489206326
 20
-5020.178594612286
 30
-0.0000000000000061
 10
9556.802489206326
 20
-5020.178594612286
 30
-0.0000000000000061
 10
9558.19053233587
 20
-5021.041783933471
 30
-0.0000000000000061
 10
9558.19053233587
 20
-5021.041783933471
 30
-0.0000000000000061
  0
SPLINE
  5
12E085
330
18
100
AcDbEntity
  8
姿図
100
AcDbSpline
210
0.0
220
0.0
230
1.0
 70
     8
 71
     3
 72
     8
 73
     4
 74
     0
 42
0.000000001
 43
0.0000000001
 40
1.0
 40
1.0
 40
1.0
 40
1.0
 40
2.0
 40
2.0
 40
2.0
 40
2.0
 10
9558.19053233587
 20
-5021.041783933471
 30
-0.0000000000000061
 10
9558.19053233587
 20
-5021.041783933471
 30
-0.0000000000000061
 10
9558.528867848694
 20
-5021.289029115921
 30
-0.0000000000000061
 10
9558.251259222787
 20
-5021.566637741829
 30
-0.0000000000000061
  0
SPLINE
  5
12E086
330
18
100
AcDbEntity
  8
姿図
100
AcDbSpline
210
0.0
220
0.0
230
1.0
 70
    24
 71
     3
 72
     8
 73
     4
 74
     0
 42
0.000000001
 43
0.0000000001
 40
2.0
 40
2.0
 40
2.0
 40
2.0
 40
2.760018265937639
 40
2.760018265937639
 40
2.760018265937639
 40
2.760018265937639
 10
9558.251259222787
 20
-5021.566637741829
 30
-0.0000000000000061
 10
9558.251259222787
 20
-5021.566637741829
 30
-0.0000000000000061
 10
9553.99309691365
 20
-5025.236416144566
 30
-0.0000000000000061
 10
9551.949334563917
 20
-5026.997775713991
 30
-0.0000000000000061
  0
SPLINE
  5
12E087
330
18
100
AcDbEntity
  8
姿図
100
AcDbSpline
210
0.0
220
0.0
230
1.0
 70
     8
 71
     3
 72
    11
 73
     7
 74
     0
 42
0.000000001
 43
0.0000000001
 40
0.0
 40
0.0
 40
0.0
 40
0.0
 40
1.0
 40
1.0
 40
1.0
 40
1.887883960454416
 40
1.887883960454416
 40
1.887883960454416
 40
1.887883960454416
 10
9558.128359570692
 20
-5018.512942856836
 30
-0.0000000000000061
 10
9558.128359570692
 20
-5018.512942856836
 30
-0.0000000000000061
 10
9558.528867848694
 20
-5018.481133535117
 30
-0.0000000000000061
 10
9557.696041970969
 20
-5019.098523552111
 30
-0.0000000000000061
 10
9556.956589232286
 20
-5019.646694245545
 30
-0.0000000000000061
 10
9552.42431666261
 20
-5023.209743512376
 30
-0.0000000000000061
 10
9551.417330686905
 20
-5024.001802948298
 30
-0.0000000000000061
  0
SPLINE
  5
12E088
330
18
100
AcDbEntity
  8
姿図
100
AcDbSpline
210
0.0
220
0.0
230
1.0
 70
     8
 71
     3
 72
    11
 73
     7
 74
     0
 42
0.000000001
 43
0.0000000001
 40
0.0
 40
0.0
 40
0.0
 40
0.0
 40
1.0
 40
1.0
 40
1.0
 40
1.675127286579802
 40
1.675127286579802
 40
1.675127286579802
 40
1.675127286579802
 10
9557.048288510516
 20
-5015.98265590194
 30
-0.0000000000000061
 10
9557.048288510516
 20
-5015.98265590194
 30
-0.0000000000000061
 10
9557.512415431956
 20
-5016.014465223659
 30
-0.0000000000000061
 10
9557.172634040871
 20
-5016.322437293026
 30
-0.0000000000000061
 10
9556.943238352276
 20
-5016.530357640561
 30
-0.0000000000000061
 10
9552.791644896639
 20
-5019.845589165381
 30
-0.0000000000000061
 10
9550.118376978717
 20
-5021.977701300028
 30
-0.0000000000000061
  0
SPLINE
  5
12E089
330
18
100
AcDbEntity
  8
姿図
100
AcDbSpline
210
0.0
220
0.0
230
1.0
 70
    24
 71
     3
 72
     8
 73
     4
 74
     0
 42
0.000000001
 43
0.0000000001
 40
0.0
 40
0.0
 40
0.0
 40
0.0
 40
1.0
 40
1.0
 40
1.0
 40
1.0
 10
9555.75278158961
 20
-5017.957725605019
 30
-0.0000000000000061
 10
9555.75278158961
 20
-5017.957725605019
 30
-0.0000000000000061
 10
9558.128359570692
 20
-5018.512942856836
 30
-0.0000000000000061
 10
9558.128359570692
 20
-5018.512942856836
 30
-0.0000000000000061
  0
SPLINE
  5
12E08A
330
18
100
AcDbEntity
  8
姿図
100
AcDbSpline
210
0.0
220
0.0
230
1.0
 70
     8
 71
     3
 72
    11
 73
     7
 74
     0
 42
0.000000001
 43
0.0000000001
 40
1.0
 40
1.0
 40
1.0
 40
1.0
 40
2.0
 40
2.0
 40
2.0
 40
2.903771721635469
 40
2.903771721635469
 40
2.903771721635469
 40
2.903771721635469
 10
9558.128359570692
 20
-5018.512942856836
 30
-0.0000000000000061
 10
9558.128359570692
 20
-5018.512942856836
 30
-0.0000000000000061
 10
9558.713940265967
 20
-5018.63439663067
 30
-0.0000000000000061
 10
9558.313431987965
 20
-5018.943814578297
 30
-0.0000000000000061
 10
9557.951463932022
 20
-5019.22345776953
 30
-0.0000000000000061
 10
9552.63875154738
 20
-5023.494874775414
 30
-0.0000000000000061
 10
9551.619636996264
 20
-5024.314347521891
 30
-0.0000000000000061
  0
SPLINE
  5
12E08B
330
18
100
AcDbEntity
  8
姿図
100
AcDbSpline
210
0.0
220
0.0
230
1.0
 70
    24
 71
     3
 72
     8
 73
     4
 74
     0
 42
0.000000001
 43
0.0000000001
 40
0.0
 40
0.0
 40
0.0
 40
0.0
 40
1.0
 40
1.0
 40
1.0
 40
1.0
 10
9551.866260826891
 20
-5018.605479065472
 30
-0.0000000000000061
 10
9551.866260826891
 20
-5018.605479065472
 30
-0.0000000000000061
 10
9553.84133052997
 20
-5016.754754892749
 30
-0.0000000000000061
 10
9553.84133052997
 20
-5016.754754892749
 30
-0.0000000000000061
  0
SPLINE
  5
12E08C
330
18
100
AcDbEntity
  8
姿図
100
AcDbSpline
210
0.0
220
0.0
230
1.0
 70
     8
 71
     3
 72
     8
 73
     4
 74
     0
 42
0.000000001
 43
0.0000000001
 40
1.0
 40
1.0
 40
1.0
 40
1.0
 40
1.201957035102942
 40
1.201957035102942
 40
1.201957035102942
 40
1.201957035102942
 10
9553.84133052997
 20
-5016.754754892749
 30
-0.0000000000000061
 10
9553.760153060324
 20
-5016.443185252056
 30
-0.0000000000000061
 10
9553.637517907784
 20
-5016.17566808522
 30
-0.0000000000000061
 10
9553.49348137035
 20
-5015.947117858245
 30
-0.0000000000000061
  0
SPLINE
  5
12E08D
330
18
100
AcDbEntity
  8
姿図
100
AcDbSpline
210
0.0
220
0.0
230
1.0
 70
     8
 71
     3
 72
     8
 73
     4
 74
     0
 42
0.000000001
 43
0.0000000001
 40
1.371408514633379
 40
1.371408514633379
 40
1.371408514633379
 40
1.371408514633379
 40
2.0
 40
2.0
 40
2.0
 40
2.0
 10
9553.097568327728
 20
-5015.451118817146
 30
-0.0000000000000061
 10
9552.581420897044
 20
-5014.932139636964
 30
-0.0000000000000061
 10
9552.020969800706
 20
-5014.749321746212
 30
-0.0000000000000061
 10
9552.020969800706
 20
-5014.749321746212
 30
-0.0000000000000061
  0
SPLINE
  5
12E08E
330
18
100
AcDbEntity
  8
姿図
100
AcDbSpline
210
0.0
220
0.0
230
1.0
 70
    24
 71
     3
 72
     8
 73
     4
 74
     0
 42
0.000000001
 43
0.0000000001
 40
2.0
 40
2.0
 40
2.0
 40
2.0
 40
3.0
 40
3.0
 40
3.0
 40
3.0
 10
9552.020969800706
 20
-5014.749321746212
 30
-0.0000000000000061
 10
9552.020969800706
 20
-5014.749321746212
 30
-0.0000000000000061
 10
9550.046623036757
 20
-5016.260264527849
 30
-0.0000000000000061
 10
9550.046623036757
 20
-5016.260264527849
 30
-0.0000000000000061
  0
SPLINE
  5
12E08F
330
18
100
AcDbEntity
  8
姿図
100
AcDbSpline
210
0.0
220
0.0
230
1.0
 70
    24
 71
     3
 72
     8
 73
     4
 74
     0
 42
0.000000001
 43
0.0000000001
 40
0.1253663450285614
 40
0.1253663450285614
 40
0.1253663450285614
 40
0.1253663450285614
 40
1.0
 40
1.0
 40
1.0
 40
1.0
 10
9553.697223091964
 20
-5016.334182999574
 30
-0.0000000000000061
 10
9554.43103523952
 20
-5016.251539001097
 30
-0.0000000000000061
 10
9557.357706458144
 20
-5015.921929015023
 30
-0.0000000000000061
 10
9557.357706458144
 20
-5015.921929015023
 30
-0.0000000000000061
  0
SPLINE
  5
12E090
330
18
100
AcDbEntity
  8
姿図
100
AcDbSpline
210
0.0
220
0.0
230
1.0
 70
     8
 71
     3
 72
    11
 73
     7
 74
     0
 42
0.000000001
 43
0.0000000001
 40
1.0
 40
1.0
 40
1.0
 40
1.0
 40
2.0
 40
2.0
 40
2.0
 40
2.79498799956431
 40
2.79498799956431
 40
2.79498799956431
 40
2.79498799956431
 10
9557.357706458144
 20
-5015.921929015023
 30
-0.0000000000000061
 10
9557.357706458144
 20
-5015.921929015023
 30
-0.0000000000000061
 10
9558.252705101047
 20
-5015.890119693305
 30
-0.0000000000000061
 10
9557.542778875417
 20
-5016.507509710299
 30
-0.0000000000000061
 10
9556.978396045464
 20
-5016.99832736486
 30
-0.0000000000000061
 10
9552.145179608942
 20
-5020.9780472371
 30
-0.0000000000000061
 10
9550.187165833937
 20
-5022.589198874548
 30
-0.0000000000000061
  0
SPLINE
  5
12E091
330
18
100
AcDbEntity
  8
姿図
100
AcDbSpline
210
0.0
220
0.0
230
1.0
 70
    24
 71
     3
 72
     8
 73
     4
 74
     0
 42
0.000000001
 43
0.0000000001
 40
1.442042809461977
 40
1.442042809461977
 40
1.442042809461977
 40
1.442042809461977
 40
2.0
 40
2.0
 40
2.0
 40
2.0
 10
9550.919706316768
 20
-5017.088567031698
 30
-0.0000000000000061
 10
9553.245919305733
 20
-5015.339579590676
 30
-0.0000000000000061
 10
9555.877127119966
 20
-5013.361278616669
 30
-0.0000000000000061
 10
9555.877127119966
 20
-5013.361278616669
 30
-0.0000000000000061
  0
SPLINE
  5
12E092
330
18
100
AcDbEntity
  8
姿図
100
AcDbSpline
210
0.0
220
0.0
230
1.0
 70
     8
 71
     3
 72
     8
 73
     4
 74
     0
 42
0.000000001
 43
0.0000000001
 40
2.0
 40
2.0
 40
2.0
 40
2.0
 40
3.0
 40
3.0
 40
3.0
 40
3.0
 10
9555.877127119966
 20
-5013.361278616669
 30
-0.0000000000000061
 10
9555.877127119966
 20
-5013.361278616669
 30
-0.0000000000000061
 10
9556.247271954511
 20
-5013.287538825412
 30
-0.0000000000000061
 10
9556.185099189333
 20
-5013.669250686036
 30
-0.0000000000000061
  0
SPLINE
  5
12E093
330
18
100
AcDbEntity
  8
姿図
100
AcDbSpline
210
0.0
220
0.0
230
1.0
 70
     8
 71
     3
 72
     8
 73
     4
 74
     0
 42
0.000000001
 43
0.0000000001
 40
3.0
 40
3.0
 40
3.0
 40
3.0
 40
3.531291710607063
 40
3.531291710607063
 40
3.531291710607063
 40
3.531291710607063
 10
9556.185099189333
 20
-5013.669250686036
 30
-0.0000000000000061
 10
9556.168967343518
 20
-5013.767578127196
 30
-0.0000000000000061
 10
9553.845272258246
 20
-5015.668204695598
 30
-0.0000000000000061
 10
9551.67054592551
 20
-5017.42828224505
 30
-0.0000000000000061
  0
SPLINE
  5
12E094
330
18
100
AcDbEntity
  8
姿図
100
AcDbSpline
210
0.0
220
0.0
230
1.0
 70
    24
 71
     3
 72
     8
 73
     4
 74
     0
 42
0.000000001
 43
0.0000000001
 40
1.47114458461932
 40
1.47114458461932
 40
1.47114458461932
 40
1.47114458461932
 40
2.0
 40
2.0
 40
2.0
 40
2.0
 10
9549.294204554119
 20
-5014.651231961185
 30
-0.0000000000000061
 10
9551.529674902611
 20
-5012.992872299266
 30
-0.0000000000000061
 10
9553.902057416886
 20
-5011.232945818037
 30
-0.0000000000000061
 10
9553.902057416886
 20
-5011.232945818037
 30
-0.0000000000000061
  0
SPLINE
  5
12E095
330
18
100
AcDbEntity
  8
姿図
100
AcDbSpline
210
0.0
220
0.0
230
1.0
 70
     8
 71
     3
 72
     8
 73
     4
 74
     0
 42
0.000000001
 43
0.0000000001
 40
2.0
 40
2.0
 40
2.0
 40
2.0
 40
3.0
 40
3.0
 40
3.0
 40
3.0
 10
9553.902057416886
 20
-5011.232945818037
 30
-0.0000000000000061
 10
9553.902057416886
 20
-5011.232945818037
 30
-0.0000000000000061
 10
9554.520893312143
 20
-5010.987146513848
 30
-0.0000000000000061
 10
9554.489083990422
 20
-5011.449104617898
 30
-0.0000000000000061
  0
SPLINE
  5
12E096
330
18
100
AcDbEntity
  8
姿図
100
AcDbSpline
210
0.0
220
0.0
230
1.0
 70
    24
 71
     3
 72
     8
 73
     4
 74
     0
 42
0.000000001
 43
0.0000000001
 40
3.0
 40
3.0
 40
3.0
 40
3.0
 40
4.0
 40
4.0
 40
4.0
 40
4.0
 10
9554.489083990422
 20
-5011.449104617898
 30
-0.0000000000000061
 10
9554.489083990422
 20
-5011.449104617898
 30
-0.0000000000000061
 10
9552.421478078708
 20
-5014.904030720025
 30
-0.0000000000000061
 10
9552.421478078708
 20
-5014.904030720025
 30
-0.0000000000000061
  0
SPLINE
  5
12E097
330
18
100
AcDbEntity
  8
姿図
100
AcDbSpline
210
0.0
220
0.0
230
1.0
 70
    24
 71
     3
 72
     8
 73
     4
 74
     0
 42
0.000000001
 43
0.0000000001
 40
1.360572712780075
 40
1.360572712780075
 40
1.360572712780075
 40
1.360572712780075
 40
1.428242292534494
 40
1.428242292534494
 40
1.428242292534494
 40
1.428242292534494
 10
9545.81380951552
 20
-5014.334992793903
 30
-0.0000000000000061
 10
9546.079457807025
 20
-5014.138621498255
 30
-0.0000000000000061
 10
9546.355976967501
 20
-5013.934214289359
 30
-0.0000000000000061
 10
9546.63809093407
 20
-5013.725671313903
 30
-0.0000000000000061
  0
SPLINE
  5
12E098
330
18
100
AcDbEntity
  8
姿図
100
AcDbSpline
210
0.0
220
0.0
230
1.0
 70
    24
 71
     3
 72
     8
 73
     4
 74
     0
 42
0.000000001
 43
0.0000000001
 40
1.615278216396081
 40
1.615278216396081
 40
1.615278216396081
 40
1.615278216396081
 40
2.0
 40
2.0
 40
2.0
 40
2.0
 10
9548.994164032596
 20
-5011.984025906067
 30
-0.0000000000000061
 10
9550.544745607775
 20
-5010.837812199212
 30
-0.0000000000000061
 10
9551.804811000846
 20
-5009.906352514543
 30
-0.0000000000000061
 10
9551.804811000846
 20
-5009.906352514543
 30
-0.0000000000000061
  0
SPLINE
  5
12E099
330
18
100
AcDbEntity
  8
姿図
100
AcDbSpline
210
0.0
220
0.0
230
1.0
 70
     8
 71
     3
 72
     8
 73
     4
 74
     0
 42
0.000000001
 43
0.0000000001
 40
2.0
 40
2.0
 40
2.0
 40
2.0
 40
3.0
 40
3.0
 40
3.0
 40
3.0
 10
9551.804811000846
 20
-5009.906352514543
 30
-0.0000000000000061
 10
9551.804811000846
 20
-5009.906352514543
 30
-0.0000000000000061
 10
9552.081696687623
 20
-5009.690916653812
 30
-0.0000000000000061
 10
9552.051333244164
 20
-5010.585192357585
 30
-0.0000000000000061
  0
SPLINE
  5
12E09A
330
18
100
AcDbEntity
  8
姿図
100
AcDbSpline
210
0.0
220
0.0
230
1.0
 70
    24
 71
     3
 72
     8
 73
     4
 74
     0
 42
0.000000001
 43
0.0000000001
 40
1.359507037869534
 40
1.359507037869534
 40
1.359507037869534
 40
1.359507037869534
 40
1.445359962748388
 40
1.445359962748388
 40
1.445359962748388
 40
1.445359962748388
 10
9545.494847402315
 20
-5014.135207849092
 30
-0.0000000000000061
 10
9545.83998774139
 20
-5013.879103713431
 30
-0.0000000000000061
 10
9546.203207464394
 20
-5013.609584150855
 30
-0.0000000000000061
 10
9546.573458558907
 20
-5013.33484710681
 30
-0.0000000000000061
  0
SPLINE
  5
12E09B
330
18
100
AcDbEntity
  8
姿図
100
AcDbSpline
210
0.0
220
0.0
230
1.0
 70
    24
 71
     3
 72
     8
 73
     4
 74
     0
 42
0.000000001
 43
0.0000000001
 40
1.629831745831646
 40
1.629831745831646
 40
1.629831745831646
 40
1.629831745831646
 40
2.0
 40
2.0
 40
2.0
 40
2.0
 10
9548.947918720132
 20
-5011.572928842248
 30
-0.0000000000000061
 10
9550.454670646723
 20
-5010.454875238749
 30
-0.0000000000000061
 10
9551.65082496616
 20
-5009.567294062586
 30
-0.0000000000000061
 10
9551.65082496616
 20
-5009.567294062586
 30
-0.0000000000000061
  0
SPLINE
  5
12E09C
330
18
100
AcDbEntity
  8
姿図
100
AcDbSpline
210
0.0
220
0.0
230
1.0
 70
     8
 71
     3
 72
    11
 73
     7
 74
     0
 42
0.000000001
 43
0.0000000001
 40
2.0
 40
2.0
 40
2.0
 40
2.0
 40
3.0
 40
3.0
 40
3.0
 40
4.0
 40
4.0
 40
4.0
 40
4.0
 10
9551.65082496616
 20
-5009.567294062586
 30
-0.0000000000000061
 10
9551.65082496616
 20
-5009.567294062586
 30
-0.0000000000000061
 10
9552.051333244164
 20
-5009.505121297409
 30
-0.0000000000000061
 10
9552.051333244164
 20
-5009.906352514543
 30
-0.0000000000000061
 10
9552.051333244164
 20
-5010.307583731676
 30
-0.0000000000000061
 10
9552.020969800706
 20
-5012.528452738944
 30
-0.0000000000000061
 10
9552.020969800706
 20
-5012.528452738944
 30
-0.0000000000000061
  0
SPLINE
  5
12E09D
330
18
100
AcDbEntity
  8
姿図
100
AcDbSpline
210
0.0
220
0.0
230
1.0
 70
    24
 71
     3
 72
     8
 73
     4
 74
     0
 42
0.000000001
 43
0.0000000001
 40
1.403452693705031
 40
1.403452693705031
 40
1.403452693705031
 40
1.403452693705031
 40
1.573101002211188
 40
1.573101002211188
 40
1.573101002211188
 40
1.573101002211188
 10
9544.13188519206
 20
-5013.240922914342
 30
-0.0000000000000061
 10
9544.832173200608
 20
-5012.719573782367
 30
-0.0000000000000061
 10
9545.580118447977
 20
-5012.162744876659
 30
-0.0000000000000061
 10
9546.291979913683
 20
-5011.632779558529
 30
-0.0000000000000061
  0
SPLINE
  5
12E09E
330
18
100
AcDbEntity
  8
姿図
100
AcDbSpline
210
0.0
220
0.0
230
1.0
 70
    24
 71
     3
 72
     8
 73
     4
 74
     0
 42
0.000000001
 43
0.0000000001
 40
1.799348189808347
 40
1.799348189808347
 40
1.799348189808347
 40
1.799348189808347
 40
2.0
 40
2.0
 40
2.0
 40
2.0
 10
9548.748889776805
 20
-5009.803663810661
 30
-0.0000000000000061
 10
9549.300855116657
 20
-5009.39273766699
 30
-0.0000000000000061
 10
9549.646114758754
 20
-5009.135699401994
 30
-0.0000000000000061
 10
9549.646114758754
 20
-5009.135699401994
 30
-0.0000000000000061
  0
SPLINE
  5
12E09F
330
18
100
AcDbEntity
  8
姿図
100
AcDbSpline
210
0.0
220
0.0
230
1.0
 70
     8
 71
     3
 72
     8
 73
     4
 74
     0
 42
0.000000001
 43
0.0000000001
 40
2.0
 40
2.0
 40
2.0
 40
2.0
 40
3.0
 40
3.0
 40
3.0
 40
3.0
 10
9549.646114758754
 20
-5009.135699401994
 30
-0.0000000000000061
 10
9549.646114758754
 20
-5009.135699401994
 30
-0.0000000000000061
 10
9549.862273558614
 20
-5009.166062845454
 30
-0.0000000000000061
 10
9549.831187176027
 20
-5009.628743888634
 30
-0.0000000000000061
  0
SPLINE
  5
12E0A0
330
18
100
AcDbEntity
  8
姿図
100
AcDbSpline
210
0.0
220
0.0
230
1.0
 70
    24
 71
     3
 72
     8
 73
     4
 74
     0
 42
0.000000001
 43
0.0000000001
 40
1.401660082951144
 40
1.401660082951144
 40
1.401660082951144
 40
1.401660082951144
 40
1.583667207078013
 40
1.583667207078013
 40
1.583667207078013
 40
1.583667207078013
 10
9543.915787475344
 20
-5013.092901595275
 30
-0.0000000000000061
 10
9544.671313234952
 20
-5012.531601485069
 30
-0.0000000000000061
 10
9545.483106913192
 20
-5011.928498446865
 30
-0.0000000000000061
 10
9546.247028071899
 20
-5011.36096117217
 30
-0.0000000000000061
  0
SPLINE
  5
12E0A1
330
18
100
AcDbEntity
  8
姿図
100
AcDbSpline
210
0.0
220
0.0
230
1.0
 70
    24
 71
     3
 72
     8
 73
     4
 74
     0
 42
0.000000001
 43
0.0000000001
 40
1.815455566821609
 40
1.815455566821609
 40
1.815455566821609
 40
1.815455566821609
 40
2.0
 40
2.0
 40
2.0
 40
2.0
 10
9548.717599380896
 20
-5009.525508270165
 30
-0.0000000000000061
 10
9549.197284712529
 20
-5009.169137324388
 30
-0.0000000000000061
 10
9549.49140578494
 20
-5008.950626984722
 30
-0.0000000000000061
 10
9549.49140578494
 20
-5008.950626984722
 30
-0.0000000000000061
  0
SPLINE
  5
12E0A2
330
18
100
AcDbEntity
  8
姿図
100
AcDbSpline
210
0.0
220
0.0
230
1.0
 70
     8
 71
     3
 72
     8
 73
     4
 74
     0
 42
0.000000001
 43
0.0000000001
 40
2.0
 40
2.0
 40
2.0
 40
2.0
 40
3.0
 40
3.0
 40
3.0
 40
3.0
 10
9549.49140578494
 20
-5008.950626984722
 30
-0.0000000000000061
 10
9549.49140578494
 20
-5008.950626984722
 30
-0.0000000000000061
 10
9549.800823732567
 20
-5008.826281454368
 30
-0.0000000000000061
 10
9549.831187176027
 20
-5009.166062845454
 30
-0.0000000000000061
  0
SPLINE
  5
12E0A3
330
18
100
AcDbEntity
  8
姿図
100
AcDbSpline
210
0.0
220
0.0
230
1.0
 70
    24
 71
     3
 72
     8
 73
     4
 74
     0
 42
0.000000001
 43
0.0000000001
 40
3.0
 40
3.0
 40
3.0
 40
3.0
 40
4.0
 40
4.0
 40
4.0
 40
4.0
 10
9549.831187176027
 20
-5009.166062845454
 30
-0.0000000000000061
 10
9549.831187176027
 20
-5009.166062845454
 30
-0.0000000000000061
 10
9549.76901441085
 20
-5011.325482026674
 30
-0.0000000000000061
 10
9549.76901441085
 20
-5011.325482026674
 30
-0.0000000000000061
  0
SPLINE
  5
12E0A4
330
18
100
AcDbEntity
  8
姿図
100
AcDbSpline
210
0.0
220
0.0
230
1.0
 70
    24
 71
     3
 72
     8
 73
     4
 74
     0
 42
0.000000001
 43
0.0000000001
 40
1.509037387551805
 40
1.509037387551805
 40
1.509037387551805
 40
1.509037387551805
 40
1.810497930033095
 40
1.810497930033095
 40
1.810497930033095
 40
1.810497930033095
 10
9542.831046943502
 20
-5012.322889618586
 30
-0.0000000000000061
 10
9544.05349544086
 20
-5011.411990105584
 30
-0.0000000000000061
 10
9545.262617752807
 20
-5010.511020512597
 30
-0.0000000000000061
 10
9546.013891714078
 20
-5009.951213627537
 30
-0.0000000000000061
  0
SPLINE
  5
12E0A5
330
18
100
AcDbEntity
  8
姿図
100
AcDbSpline
210
0.0
220
0.0
230
1.0
 70
     8
 71
     3
 72
     8
 73
     4
 74
     0
 42
0.000000001
 43
0.0000000001
 40
0.3537168008125633
 40
0.3537168008125633
 40
0.3537168008125633
 40
0.3537168008125633
 40
1.0
 40
1.0
 40
1.0
 40
1.0
 10
9544.674546712362
 20
-5039.667386154129
 30
-0.0000000000000061
 10
9543.587796364487
 20
-5040.706090207677
 30
-0.0000000000000061
 10
9541.52634094392
 20
-5042.436766444289
 30
-0.0000000000000061
 10
9538.356697305142
 20
-5044.051490562156
 30
-0.0000000000000061
  0
SPLINE
  5
12E0A6
330
18
100
AcDbEntity
  8
姿図
100
AcDbSpline
210
0.0
220
0.0
230
1.0
 70
     8
 71
     3
 72
     8
 73
     4
 74
     0
 42
0.000000001
 43
0.0000000001
 40
1.0
 40
1.0
 40
1.0
 40
1.000000000000004
 40
2.0
 40
2.0
 40
2.0
 40
2.0
 10
9527.264614251311
 20
-5017.114363241322
 30
-0.0000000000000061
 10
9531.344910683561
 20
-5014.152174024856
 30
-0.0000000000000061
 10
9538.341515583412
 20
-5016.774997188388
 30
-0.0000000000000061
 10
9543.085442154275
 20
-5022.97781492353
 30
-0.0000000000000061
  0
SPLINE
  5
12E0A7
330
18
100
AcDbEntity
  8
姿図
100
AcDbSpline
210
0.0
220
0.0
230
1.0
 70
     8
 71
     3
 72
     8
 73
     4
 74
     0
 42
0.000000001
 43
0.0000000001
 40
2.0
 40
2.0
 40
2.0
 40
2.0
 40
2.10277645146085
 40
2.10277645146085
 40
2.10277645146085
 40
2.10277645146085
 10
9543.085442154275
 20
-5022.97781492353
 30
-0.0000000000000061
 10
9543.573303297693
 20
-5023.615318519407
 30
-0.0000000000000061
 10
9544.0184082079
 20
-5024.265941459569
 30
-0.0000000000000061
 10
9544.420205232092
 20
-5024.923555473925
 30
-0.0000000000000061
  0
SPLINE
  5
12E0A8
330
18
100
AcDbEntity
  8
姿図
100
AcDbSpline
210
0.0
220
0.0
230
1.0
 70
     8
 71
     3
 72
     8
 73
     4
 74
     0
 42
0.000000001
 43
0.0000000001
 40
2.529370585629382
 40
2.529370585629382
 40
2.529370585629382
 40
2.529370585629382
 40
2.999999999999997
 40
3.0
 40
3.0
 40
3.0
 10
9547.145608314364
 20
-5033.035332829657
 30
-0.0000000000000061
 10
9547.295699162974
 20
-5035.828938624243
 30
-0.0000000000000061
 10
9546.489668311799
 20
-5038.235766144596
 30
-0.0000000000000061
 10
9544.674546712207
 20
-5039.667386154278
 30
-0.0000000000000061
  0
SPLINE
  5
12E0A9
330
18
100
AcDbEntity
  8
姿図
100
AcDbSpline
210
0.0
220
0.0
230
1.0
 70
     8
 71
     3
 72
     8
 73
     4
 74
     0
 42
0.000000001
 43
0.0000000001
 40
0.0
 40
0.0
 40
0.0
 40
0.0
 40
1.0
 40
1.0
 40
1.0
 40
1.0
 10
9521.73417618383
 20
-5021.682949596066
 30
-0.0000000000000061
 10
9525.420424513459
 20
-5019.313076432927
 30
-0.0000000000000061
 10
9532.297021517734
 20
-5021.437954576694
 30
-0.0000000000000061
 10
9536.960701845172
 20
-5027.535223198861
 30
-0.0000000000000061
  0
SPLINE
  5
12E0AA
330
18
100
AcDbEntity
  8
姿図
100
AcDbSpline
210
0.0
220
0.0
230
1.0
 70
     8
 71
     3
 72
     8
 73
     4
 74
     0
 42
0.000000001
 43
0.0000000001
 40
1.0
 40
1.0
 40
1.0
 40
1.0
 40
2.0
 40
2.0
 40
2.0
 40
2.0
 10
9536.960701845172
 20
-5027.535223198861
 30
-0.0000000000000061
 10
9541.625105111736
 20
-5033.633937699288
 30
-0.0000000000000061
 10
9542.312620224338
 20
-5040.945744059805
 30
-0.0000000000000061
 10
9538.493332800706
 20
-5043.866418144884
 30
-0.0000000000000061
  0
SPLINE
  5
12E0AB
330
18
100
AcDbEntity
  8
姿図
100
AcDbSpline
210
0.0
220
0.0
230
1.0
 70
    24
 71
     3
 72
     8
 73
     4
 74
     0
 42
0.000000001
 43
0.0000000001
 40
2.0
 40
2.0
 40
2.0
 40
2.0
 40
3.0
 40
3.0
 40
3.0
 40
3.0
 10
9538.493332800706
 20
-5043.866418144884
 30
-0.0000000000000061
 10
9538.476705200717
 20
-5043.879431049223
 30
-0.0000000000000061
 10
9538.460077600728
 20
-5043.892443953563
 30
-0.0000000000000061
 10
9538.443450000737
 20
-5043.905456857903
 30
-0.0000000000000061
  0
ELLIPSE
  5
12E0AC
330
18
100
AcDbEntity
  8
姿図
100
AcDbEllipse
 10
9546.753599683772
 20
-5019.343317229988
 30
-0.0000000000000061
 11
5.290155839779327
 21
-5.51914385655662
 31
0.0
210
0.0
220
0.0
230
1.0
 40
0.5896757540129038
 41
6.96598111917236
 42
7.147828363455014
  0
ELLIPSE
  5
12E0AD
330
18
100
AcDbEntity
  8
姿図
100
AcDbEllipse
 10
9546.753599683772
 20
-5019.343317229988
 30
-0.0000000000000061
 11
5.290155839779327
 21
-5.51914385655662
 31
0.0
210
0.0
220
0.0
230
1.0
 40
0.5896757540129038
 41
7.339249712863026
 42
7.53023533371985
  0
ELLIPSE
  5
12E0AE
330
18
100
AcDbEntity
  8
姿図
100
AcDbEllipse
 10
9546.753599683772
 20
-5019.343317229988
 30
-0.0000000000000061
 11
5.290155839779327
 21
-5.51914385655662
 31
0.0
210
0.0
220
0.0
230
1.0
 40
0.5896757540129038
 41
7.722658544129226
 42
7.896541804765815
  0
ELLIPSE
  5
12E0AF
330
18
100
AcDbEntity
  8
姿図
100
AcDbEllipse
 10
9546.753599683772
 20
-5019.343317229988
 30
-0.0000000000000061
 11
5.290155839779327
 21
-5.51914385655662
 31
0.0
210
0.0
220
0.0
230
1.0
 40
0.5896757540129038
 41
8.489247713282603
 42
8.60769396429671
  0
ARC
  5
12E0B0
330
18
100
AcDbEntity
  8
姿図
100
AcDbCircle
 10
9545.651522453772
 20
-5012.871353364461
 30
-0.0000000000000061
 40
0.4447330102389023
100
AcDbArc
 50
158.3286271790336
 51
250.9430020259656
  0
ARC
  5
12E0B1
330
18
100
AcDbEntity
  8
姿図
100
AcDbCircle
 10
9550.15966022558
 20
-5015.619336128052
 30
-0.0000000000000061
 40
0.5318306601946722
100
AcDbArc
 50
160.4247343165023
 51
224.460661065418
  0
ARC
  5
12E0B2
330
18
100
AcDbEntity
  8
姿図
100
AcDbCircle
 10
9552.89243254158
 20
-5018.9391370742
 30
-0.0000000000000061
 40
0.8106690833526651
100
AcDbArc
 50
210.0537915453268
 51
255.6920591719411
  0
ARC
  5
12E0B3
330
18
100
AcDbEntity
  8
姿図
100
AcDbCircle
 10
9553.354975511686
 20
-5021.466299525305
 30
-0.0000000000000061
 40
0.4829190527242695
100
AcDbArc
 50
203.2404029724747
 51
273.667332753516
  0
SPLINE
  5
12E0B4
330
18
100
AcDbEntity
  8
姿図
100
AcDbSpline
210
0.0
220
0.0
230
1.0
 70
     8
 71
     3
 72
     8
 73
     4
 74
     0
 42
0.000000001
 43
0.0000000001
 40
0.0
 40
0.0
 40
0.0
 40
0.0
 40
0.5686588660320964
 40
0.5686588660320964
 40
0.5686588660320964
 40
0.5686588660320964
 10
9532.438647445626
 20
-5046.29714877863
 30
-0.0000000000000061
 10
9535.110799358372
 20
-5045.701474538263
 30
-0.0000000000000061
 10
9536.616840069568
 20
-5045.086737790844
 30
-0.0000000000000061
 10
9538.414667627861
 20
-5043.971563559996
 30
-0.0000000000000061
  0
SPLINE
  5
12E0B5
330
18
100
AcDbEntity
  8
姿図
100
AcDbSpline
210
0.0
220
0.0
230
1.0
 70
     8
 71
     3
 72
     8
 73
     4
 74
     0
 42
0.000000001
 43
0.0000000001
 40
0.0345848742755237
 40
0.0345848742755237
 40
0.0345848742755237
 40
0.0345848742755237
 40
1.0
 40
1.0
 40
1.0
 40
1.0
 10
9529.073736445065
 20
-5044.639036433372
 30
-0.0000000000000061
 10
9526.88980068075
 20
-5044.437952946269
 30
-0.0000000000000061
 10
9523.990544444976
 20
-5042.348684207032
 30
-0.0000000000000061
 10
9521.732748447961
 20
-5039.122139604656
 30
-0.0000000000000061
  0
SPLINE
  5
12E0B6
330
18
100
AcDbEntity
  8
姿図
100
AcDbSpline
210
0.0
220
0.0
230
1.0
 70
     8
 71
     3
 72
     8
 73
     4
 74
     0
 42
0.000000001
 43
0.0000000001
 40
1.0
 40
1.0
 40
1.0
 40
1.0
 40
1.97362383066519
 40
1.97362383066519
 40
1.97362383066519
 40
1.97362383066519
 10
9521.732748447961
 20
-5039.122139604656
 30
-0.0000000000000061
 10
9519.192801145895
 20
-5035.492286362111
 30
-0.0000000000000061
 10
9518.283722826767
 20
-5031.593078722077
 30
-0.0000000000000061
 10
9519.34690309921
 20
-5029.607294722913
 30
-0.0000000000000061
  0
SPLINE
  5
12E0B7
330
18
100
AcDbEntity
  8
姿図
100
AcDbSpline
210
0.0
220
0.0
230
1.0
 70
     8
 71
     3
 72
     8
 73
     4
 74
     0
 42
0.000000001
 43
0.0000000001
 40
0.0486180101854806
 40
0.0486180101854806
 40
0.0486180101854806
 40
0.0486180101854806
 40
1.0
 40
1.0
 40
1.0
 40
1.0
 10
9528.921748754037
 20
-5044.882383436097
 30
-0.0000000000000061
 10
9526.710726731075
 20
-5044.847379576149
 30
-0.0000000000000061
 10
9523.654390426385
 20
-5042.717551558349
 30
-0.0000000000000061
 10
9521.297561517604
 20
-5039.350015544545
 30
-0.0000000000000061
  0
SPLINE
  5
12E0B8
330
18
100
AcDbEntity
  8
姿図
100
AcDbSpline
210
0.0
220
0.0
230
1.0
 70
     8
 71
     3
 72
     8
 73
     4
 74
     0
 42
0.000000001
 43
0.0000000001
 40
1.0
 40
1.0
 40
1.0
 40
1.0
 40
1.97067420936857
 40
1.97067420936857
 40
1.97067420936857
 40
1.97067420936857
 10
9521.297561517604
 20
-5039.350015544545
 30
-0.0000000000000061
 10
9518.632382877535
 20
-5035.541226580347
 30
-0.0000000000000061
 10
9517.762625174466
 20
-5031.435180003717
 30
-0.0000000000000061
 10
9519.084003856897
 20
-5029.554832744617
 30
-0.0000000000000061
  0
SPLINE
  5
12E0B9
330
18
100
AcDbEntity
  8
姿図
100
AcDbSpline
210
0.0
220
0.0
230
1.0
 70
     8
 71
     3
 72
     8
 73
     4
 74
     0
 42
0.000000001
 43
0.0000000001
 40
0.0353979527042438
 40
0.0353979527042438
 40
0.0353979527042438
 40
0.0353979527042438
 40
1.0
 40
1.0
 40
1.0
 40
1.0
 10
9529.27445882721
 20
-5044.042124460573
 30
-0.0000000000000061
 10
9527.058081369792
 20
-5043.969659543245
 30
-0.0000000000000061
 10
9524.044959234529
 20
-5041.702335500507
 30
-0.0000000000000061
 10
9521.800951251913
 20
-5038.195399933441
 30
-0.0000000000000061
  0
SPLINE
  5
12E0BA
330
18
100
AcDbEntity
  8
姿図
100
AcDbSpline
210
0.0
220
0.0
230
1.0
 70
     8
 71
     3
 72
     8
 73
     4
 74
     0
 42
0.000000001
 43
0.0000000001
 40
1.0
 40
1.0
 40
1.0
 40
1.0
 40
1.963858018535161
 40
1.963858018535161
 40
1.963858018535161
 40
1.963858018535161
 10
9521.800951251913
 20
-5038.195399933441
 30
-0.0000000000000061
 10
9519.783145569134
 20
-5035.041707000461
 30
-0.0000000000000061
 10
9518.937181702331
 20
-5031.743273383513
 30
-0.0000000000000061
 10
9519.415167226489
 20
-5029.626259573737
 30
-0.0000000000000061
  0
SPLINE
  5
12E0BB
330
18
100
AcDbEntity
  8
姿図
100
AcDbSpline
210
0.0
220
0.0
230
1.0
 70
     8
 71
     3
 72
     8
 73
     4
 74
     0
 42
0.000000001
 43
0.0000000001
 40
0.0533072557788984
 40
0.0533072557788984
 40
0.0533072557788984
 40
0.0533072557788984
 40
1.0
 40
1.0
 40
1.0
 40
1.0
 10
9528.832644274116
 20
-5045.001693088454
 30
-0.0000000000000061
 10
9526.603578162723
 20
-5045.190940041599
 30
-0.0000000000000061
 10
9523.354793321396
 20
-5043.019595727709
 30
-0.0000000000000061
 10
9520.878136868509
 20
-5039.48091646279
 30
-0.0000000000000061
  0
SPLINE
  5
12E0BC
330
18
100
AcDbEntity
  8
姿図
100
AcDbSpline
210
0.0
220
0.0
230
1.0
 70
     8
 71
     3
 72
     8
 73
     4
 74
     0
 42
0.000000001
 43
0.0000000001
 40
1.0
 40
1.0
 40
1.0
 40
1.0
 40
1.951403248137341
 40
1.951403248137341
 40
1.951403248137341
 40
1.951403248137341
 10
9520.878136868509
 20
-5039.48091646279
 30
-0.0000000000000061
 10
9518.154782659034
 20
-5035.5891177922
 30
-0.0000000000000061
 10
9517.306024614092
 20
-5031.386816628136
 30
-0.0000000000000061
 10
9518.754211412397
 20
-5029.565805225236
 30
-0.0000000000000061
  0
SPLINE
  5
12E0BD
330
18
100
AcDbEntity
  8
姿図
100
AcDbSpline
210
0.0
220
0.0
230
1.0
 70
     8
 71
     3
 72
     8
 73
     4
 74
     0
 42
0.000000001
 43
0.0000000001
 40
0.0651965595715052
 40
0.0651965595715052
 40
0.0651965595715052
 40
0.0651965595715052
 40
1.0
 40
1.0
 40
1.0
 40
1.0
 10
9528.641048019237
 20
-5045.215665650896
 30
-0.0000000000000061
 10
9526.409666747688
 20
-5045.554146670118
 30
-0.0000000000000061
 10
9523.041279726862
 20
-5043.360891424851
 30
-0.0000000000000061
 10
9520.491437448978
 20
-5039.716673543309
 30
-0.0000000000000061
  0
SPLINE
  5
12E0BE
330
18
100
AcDbEntity
  8
姿図
100
AcDbSpline
210
0.0
220
0.0
230
1.0
 70
     8
 71
     3
 72
     8
 73
     4
 74
     0
 42
0.000000001
 43
0.0000000001
 40
1.0
 40
1.0
 40
1.0
 40
1.0
 40
1.971095784903659
 40
1.971095784903659
 40
1.971095784903659
 40
1.971095784903659
 10
9520.491437448978
 20
-5039.716673543309
 30
-0.0000000000000061
 10
9517.656501098852
 20
-5035.665872156151
 30
-0.0000000000000061
 10
9516.852933988626
 20
-5031.27865276294
 30
-0.0000000000000061
 10
9518.55677898612
 20
-5029.589165664665
 30
-0.0000000000000061
  0
SPLINE
  5
12E0BF
330
18
100
AcDbEntity
  8
姿図
100
AcDbSpline
210
0.0
220
0.0
230
1.0
 70
     8
 71
     3
 72
     8
 73
     4
 74
     0
 42
0.000000001
 43
0.0000000001
 40
0.0830380048434791
 40
0.0830380048434791
 40
0.0830380048434791
 40
0.0830380048434791
 40
1.0
 40
1.0
 40
1.0
 40
1.0
 10
9528.515948225202
 20
-5045.33076599245
 30
-0.0000000000000061
 10
9526.296025016189
 20
-5045.933901167447
 30
-0.0000000000000061
 10
9522.732073049945
 20
-5043.708185686743
 30
-0.0000000000000061
 10
9520.064131659252
 20
-5039.896061972376
 30
-0.0000000000000061
  0
SPLINE
  5
12E0C0
330
18
100
AcDbEntity
  8
姿図
100
AcDbSpline
210
0.0
220
0.0
230
1.0
 70
     8
 71
     3
 72
     8
 73
     4
 74
     0
 42
0.000000001
 43
0.0000000001
 40
1.0
 40
1.0
 40
1.0
 40
1.0
 40
1.971016508087028
 40
1.971016508087028
 40
1.971016508087028
 40
1.971016508087028
 10
9520.064131659252
 20
-5039.896061972376
 30
-0.0000000000000061
 10
9517.161151746268
 20
-5035.747658028834
 30
-0.0000000000000061
 10
9516.38825348812
 20
-5031.246728385706
 30
-0.0000000000000061
 10
9518.25658257385
 20
-5029.652399940283
 30
-0.0000000000000061
  0
SPLINE
  5
12E0C1
330
18
100
AcDbEntity
  8
姿図
100
AcDbSpline
210
0.0
220
0.0
230
1.0
 70
     8
 71
     3
 72
    11
 73
     7
 74
     0
 42
0.000000001
 43
0.0000000001
 40
1.005060628197603
 40
1.005060628197603
 40
1.005060628197603
 40
1.005060628197603
 40
2.0
 40
2.0
 40
2.0
 40
2.924554902239563
 40
2.924554902239563
 40
2.924554902239563
 40
2.924554902239563
 10
9528.764991038628
 20
-5045.083222911499
 30
-0.0000000000000061
 10
9526.667394355016
 20
-5046.499076010646
 30
-0.0000000000000061
 10
9522.57860105981
 20
-5044.221202111637
 30
-0.0000000000000061
 10
9519.604100639966
 20
-5039.970594239169
 30
-0.0000000000000061
 10
9516.840023729534
 20
-5036.020684870453
 30
-0.0000000000000061
 10
9516.007063150842
 20
-5031.751178300246
 30
-0.0000000000000061
 10
9517.54644681728
 20
-5029.975397209676
 30
-0.0000000000000061
  0
SPLINE
  5
12E0C2
330
18
100
AcDbEntity
  8
姿図
100
AcDbSpline
210
0.0
220
0.0
230
1.0
 70
    24
 71
     3
 72
     8
 73
     4
 74
     0
 42
0.000000001
 43
0.0000000001
 40
0.0
 40
0.0
 40
0.0
 40
0.0
 40
1.0
 40
1.0
 40
1.0
 40
1.0
 10
9516.373852311157
 20
-5030.239154569825
 30
-0.0000000000000061
 10
9516.373852311157
 20
-5030.239154569825
 30
-0.0000000000000061
 10
9518.094035083155
 20
-5028.229401009671
 30
-0.0000000000000061
 10
9518.094035083155
 20
-5028.229401009671
 30
-0.0000000000000061
  0
SPLINE
  5
12E0C3
330
18
100
AcDbEntity
  8
姿図
100
AcDbSpline
210
0.0
220
0.0
230
1.0
 70
     8
 71
     3
 72
    11
 73
     7
 74
     0
 42
0.000000001
 43
0.0000000001
 40
1.0
 40
1.0
 40
1.0
 40
1.0
 40
2.0
 40
2.0
 40
2.0
 40
3.0
 40
3.0
 40
3.0
 40
3.0
 10
9518.094035083155
 20
-5028.229401009671
 30
-0.0000000000000061
 10
9518.094035083155
 20
-5028.229401009671
 30
-0.0000000000000061
 10
9518.799582129017
 20
-5026.950562112965
 30
-0.0000000000000061
 10
9520.649988680872
 20
-5027.201557946091
 30
-0.0000000000000061
 10
9522.500395232728
 20
-5027.452553779216
 30
-0.0000000000000061
 10
9527.200132919574
 20
-5029.186155542839
 30
-0.0000000000000061
 10
9530.789051029693
 20
-5036.165527803722
 30
-0.0000000000000061
  0
SPLINE
  5
12E0C4
330
18
100
AcDbEntity
  8
姿図
100
AcDbSpline
210
0.0
220
0.0
230
1.0
 70
     8
 71
     3
 72
     8
 73
     4
 74
     0
 42
0.000000001
 43
0.0000000001
 40
3.0
 40
3.0
 40
3.0
 40
3.0
 40
4.0
 40
4.0
 40
4.0
 40
4.0
 10
9530.789051029693
 20
-5036.165527803722
 30
-0.0000000000000061
 10
9532.604177408173
 20
-5039.695510757383
 30
-0.0000000000000061
 10
9532.892325563651
 20
-5043.479650161308
 30
-0.0000000000000061
 10
9531.897276085536
 20
-5044.656999142459
 30
-0.0000000000000061
  0
SPLINE
  5
12E0C5
330
18
100
AcDbEntity
  8
姿図
100
AcDbSpline
210
0.0
220
0.0
230
1.0
 70
     8
 71
     3
 72
     8
 73
     4
 74
     0
 42
0.000000001
 43
0.0000000001
 40
4.0
 40
4.0
 40
4.0
 40
4.0
 40
5.0
 40
5.0
 40
5.0
 40
5.0
 10
9531.897276085536
 20
-5044.656999142459
 30
-0.0000000000000061
 10
9531.342671378687
 20
-5045.313381539114
 30
-0.0000000000000061
 10
9528.051523978012
 20
-5046.271495004063
 30
-0.0000000000000061
 10
9528.051523978012
 20
-5046.271495004063
 30
-0.0000000000000061
  0
SPLINE
  5
12E0C6
330
18
100
AcDbEntity
  8
姿図
100
AcDbSpline
210
0.0
220
0.0
230
1.0
 70
     8
 71
     3
 72
     8
 73
     4
 74
     0
 42
0.000000001
 43
0.0000000001
 40
0.0
 40
0.0
 40
0.0
 40
0.0
 40
1.0
 40
1.0
 40
1.0
 40
1.0
 10
9517.153931623812
 20
-5029.420346692404
 30
-0.0000000000000061
 10
9517.050953266968
 20
-5027.910553383341
 30
-0.0000000000000061
 10
9517.68008316246
 20
-5026.424885438126
 30
-0.0000000000000061
 10
9518.556705786645
 20
-5025.765631766195
 30
-0.0000000000000061
  0
SPLINE
  5
12E0C7
330
18
100
AcDbEntity
  8
姿図
100
AcDbSpline
210
0.0
220
0.0
230
1.0
 70
     8
 71
     3
 72
     8
 73
     4
 74
     0
 42
0.000000001
 43
0.0000000001
 40
1.0
 40
1.0
 40
1.0
 40
1.0
 40
2.0
 40
2.0
 40
2.0
 40
2.0
 10
9518.556705786645
 20
-5025.765631766195
 30
-0.0000000000000061
 10
9521.26482879209
 20
-5023.729825710728
 30
-0.0000000000000061
 10
9526.82148012886
 20
-5026.556865496017
 30
-0.0000000000000061
 10
9530.972259653325
 20
-5032.079295299673
 30
-0.0000000000000061
  0
SPLINE
  5
12E0C8
330
18
100
AcDbEntity
  8
姿図
100
AcDbSpline
210
0.0
220
0.0
230
1.0
 70
     8
 71
     3
 72
     8
 73
     4
 74
     0
 42
0.000000001
 43
0.0000000001
 40
2.0
 40
2.0
 40
2.0
 40
2.0
 40
2.235305163792243
 40
2.235305163792243
 40
2.235305163792243
 40
2.235305163792243
 10
9530.972259653325
 20
-5032.079295299673
 30
-0.0000000000000061
 10
9531.948184057383
 20
-5033.377893583338
 30
-0.0000000000000061
 10
9533.75056353915
 20
-5036.475764906685
 30
-0.0000000000000061
 10
9534.442336186556
 20
-5038.629452008615
 30
-0.0000000000000061
  0
SPLINE
  5
12E0C9
330
18
100
AcDbEntity
  8
姿図
100
AcDbSpline
210
0.0
220
0.0
230
1.0
 70
     8
 71
     3
 72
     8
 73
     4
 74
     0
 42
0.000000001
 43
0.0000000001
 40
2.396066187168036
 40
2.396066187168036
 40
2.396066187168036
 40
2.396066187168036
 40
3.0
 40
3.0
 40
3.0
 40
3.0
 10
9534.442336186556
 20
-5038.629452008615
 30
-0.0000000000000061
 10
9535.436723484887
 20
-5041.806990848442
 30
-0.0000000000000061
 10
9535.214756216094
 20
-5044.527353182651
 30
-0.0000000000000061
 10
9533.578851648199
 20
-5045.757723212336
 30
-0.0000000000000061
  0
SPLINE
  5
12E0CA
330
18
100
AcDbEntity
  8
姿図
100
AcDbSpline
210
0.0
220
0.0
230
1.0
 70
     8
 71
     3
 72
     8
 73
     4
 74
     0
 42
0.000000001
 43
0.0000000001
 40
3.0
 40
3.0
 40
3.0
 40
3.0
 40
4.0
 40
4.0
 40
4.0
 40
4.0
 10
9533.578851648199
 20
-5045.757723212336
 30
-0.0000000000000061
 10
9533.240430974687
 20
-5046.012214362122
 30
-0.0000000000000061
 10
9532.857663945335
 20
-5046.19028814114
 30
-0.0000000000000061
 10
9532.438647445626
 20
-5046.29714877863
 30
-0.0000000000000061
  0
SPLINE
  5
12E0CB
330
18
100
AcDbEntity
  8
姿図
100
AcDbSpline
210
0.0
220
0.0
230
1.0
 70
     8
 71
     3
 72
     8
 73
     4
 74
     0
 42
0.000000001
 43
0.0000000001
 40
4.0
 40
4.0
 40
4.0
 40
4.0
 40
4.957822154171585
 40
4.957822154171585
 40
4.957822154171585
 40
4.957822154171585
 10
9532.438647445626
 20
-5046.29714877863
 30
-0.0000000000000061
 10
9532.438647445626
 20
-5046.29714877863
 30
-0.0000000000000061
 10
9531.126194569952
 20
-5046.440532494393
 30
-0.0000000000000061
 10
9529.224917941254
 20
-5045.899192216855
 30
-0.0000000000000061
  0
ELLIPSE
  5
12E0CC
330
18
100
AcDbEntity
  8
姿図
100
AcDbEllipse
 10
9522.48474105763
 20
-5038.002488374963
 30
-0.0000000000000061
 11
5.693443542348586
 21
-8.135622673511369
 31
0.0
210
0.0
220
0.0
230
1.0
 40
0.4645252947541931
 41
0.0
 42
6.283185307179586
  0
SPLINE
  5
12E0CD
330
18
100
AcDbEntity
  8
姿図
100
AcDbSpline
210
0.0
220
0.0
230
1.0
 70
     8
 71
     3
 72
    11
 73
     7
 74
     0
 42
0.000000001
 43
0.0000000001
 40
1.0
 40
1.0
 40
1.0
 40
1.0
 40
2.0
 40
2.0
 40
2.0
 40
3.0
 40
3.0
 40
3.0
 40
3.0
 10
9528.34104245205
 20
-5045.466267516999
 30
-0.0000000000000061
 10
9526.253216318311
 20
-5046.927133351729
 30
-0.0000000000000061
 10
9522.137929381906
 20
-5044.647758435524
 30
-0.0000000000000061
 10
9519.14829955707
 20
-5040.375530405421
 30
-0.0000000000000061
 10
9516.158669732235
 20
-5036.103302375319
 30
-0.0000000000000061
 10
9515.428179284176
 20
-5031.457189763161
 30
-0.0000000000000061
 10
9517.515124657735
 20
-5029.996958402966
 30
-0.0000000000000061
  0
SPLINE
  5
12E0CE
330
18
100
AcDbEntity
  8
姿図
100
AcDbSpline
210
0.0
220
0.0
230
1.0
 70
     8
 71
     3
 72
     8
 73
     4
 74
     0
 42
0.000000001
 43
0.0000000001
 40
3.0
 40
3.0
 40
3.0
 40
3.0
 40
3.728979391355297
 40
3.728979391355297
 40
3.728979391355297
 40
3.728979391355297
 10
9517.515124657735
 20
-5029.996958402966
 30
-0.0000000000000061
 10
9517.971570908689
 20
-5029.677168514127
 30
-0.0000000000000061
 10
9518.524963458289
 20
-5029.536367089675
 30
-0.0000000000000061
 10
9519.142281333261
 20
-5029.556233362267
 30
-0.0000000000000061
  0
ARC
  5
12E0CF
330
18
100
AcDbEntity
  8
姿図
100
AcDbCircle
 10
9546.16733923704
 20
-5045.370272199953
 30
-0.0000000000000061
 40
33.9957262455807
100
AcDbArc
 50
123.781852860515
 51
146.4986655481583
  0
SPLINE
  5
12E0D0
330
18
100
AcDbEntity
  8
姿図
100
AcDbSpline
210
0.0
220
0.0
230
1.0
 70
     8
 71
     3
 72
     8
 73
     4
 74
     0
 42
0.000000001
 43
0.0000000001
 40
0.184123280855877
 40
0.184123280855877
 40
0.184123280855877
 40
0.184123280855877
 40
1.0
 40
1.0
 40
1.0
 40
1.0
 10
9529.318101926521
 20
-5043.265581242378
 30
-0.0000000000000034
 10
9527.267129304157
 20
-5042.651030381162
 30
-0.0000000000000034
 10
9524.818880352435
 20
-5040.571630808105
 30
-0.0000000000000034
 10
9522.920860463588
 20
-5037.605405417303
 30
-0.0000000000000034
  0
SPLINE
  5
12E0D1
330
18
100
AcDbEntity
  8
姿図
100
AcDbSpline
210
0.0
220
0.0
230
1.0
 70
     8
 71
     3
 72
     8
 73
     4
 74
     0
 42
0.000000001
 43
0.0000000001
 40
1.0
 40
1.0
 40
1.0
 40
1.0
 40
1.827384432039179
 40
1.827384432039179
 40
1.827384432039179
 40
1.827384432039179
 10
9522.920860463588
 20
-5037.605405417303
 30
-0.0000000000000034
 10
9521.18875783363
 20
-5034.898246908476
 30
-0.0000000000000034
 10
9520.32014567986
 20
-5032.084433900362
 30
-0.0000000000000034
 10
9520.411236986092
 20
-5030.002805996308
 30
-0.0000000000000034
  0
LINE
  5
12E0D2
330
18
100
AcDbEntity
  8
姿図
100
AcDbLine
 10
9534.318681114935
 20
-4995.391883594501
 30
-0.0000000000000035
 11
9536.19802871442
 21
-4995.211479525593
 31
-0.000000000000004
  0
LINE
  5
12E0D3
330
18
100
AcDbEntity
  8
姿図
100
AcDbLine
 10
9540.733721159402
 20
-4994.776085151174
 30
-0.0000000000000053
 11
9543.461016527153
 21
-4994.514284097663
 31
-0.0000000000000061
  0
LINE
  5
12E0D4
330
18
100
AcDbEntity
  8
姿図
100
AcDbLine
 10
9535.756725579748
 20
-4995.654994268069
 30
-0.0000000000000035
 11
9536.754055400885
 21
-4995.580021813587
 31
-0.0000000000000038
  0
LINE
  5
12E0D5
330
18
100
AcDbEntity
  8
姿図
100
AcDbLine
 10
9541.009650869877
 20
-4995.26011516804
 30
-0.0000000000000053
 11
9543.552742965152
 21
-4995.068942847398
 31
-0.0000000000000061
  0
SPLINE
  5
12E0D6
330
18
100
AcDbEntity
  8
姿図
100
AcDbSpline
210
0.0
220
0.0
230
1.0
 70
     8
 71
     3
 72
     9
 73
     5
 74
     3
 42
0.000000001
 43
0.0000000001
 44
0.0000000001
 40
0.0
 40
0.0
 40
0.0
 40
0.0
 40
0.3120094600947406
 40
4.67731404817089
 40
4.67731404817089
 40
4.67731404817089
 40
4.67731404817089
 10
9536.19802871442
 20
-4995.211479525593
 30
-0.000000000000004
 10
9536.254480810057
 20
-4995.122400553329
 30
-0.0000000000000045
 10
9537.100750599071
 20
-4993.787023323923
 30
-0.000000000000012
 10
9538.979912479273
 20
-4994.298617693343
 30
-0.0000000000000085
 10
9540.733721159402
 20
-4994.776085151174
 30
-0.0000000000000053
 11
9536.19802871442
 21
-4995.211479525593
 31
-0.000000000000004
 11
9536.371981185413
 21
-4994.95246130032
 31
-0.0000000000000055
 11
9540.733721159402
 21
-4994.776085151174
 31
-0.0000000000000053
  0
SPLINE
  5
12E0D7
330
18
100
AcDbEntity
  8
姿図
100
AcDbSpline
210
0.0
220
0.0
230
1.0
 70
     8
 71
     3
 72
    10
 73
     6
 74
     4
 42
0.000000001
 43
0.0000000001
 44
0.0000000001
 40
0.0
 40
0.0
 40
0.0
 40
0.0
 40
2.342755453420797
 40
4.062641454964515
 40
4.366769678699875
 40
4.366769678699875
 40
4.366769678699875
 40
4.366769678699875
 10
9536.754055400885
 20
-4995.580021813587
 30
-0.0000000000000038
 10
9537.520640073544
 20
-4995.709774307683
 30
-0.0000000000000036
 10
9538.849997205267
 20
-4995.934781941589
 30
-0.0000000000000032
 10
9540.376164022815
 20
-4995.712035657505
 30
-0.0000000000000023
 10
9540.92689767338
 20
-4995.319150119181
 30
-0.0000000000000049
 10
9541.009650869877
 20
-4995.26011516804
 30
-0.0000000000000053
 11
9536.754055400885
 21
-4995.580021813587
 31
-0.0000000000000038
 11
9539.083909860676
 21
-4995.825544339488
 31
-0.000000000000003
 11
9540.75785441999
 21
-4995.43068047605
 31
-0.0000000000000042
 11
9541.009650869877
 21
-4995.26011516804
 31
-0.0000000000000053
  0
ARC
  5
12E0D8
330
18
100
AcDbEntity
  8
姿図
100
AcDbCircle
 10
9534.367902002436
 20
-4995.695142921358
 30
-0.0000000000000035
 40
0.3072277902337326
100
AcDbArc
 50
91.7473062266513
 51
180.3462281534986
  0
ARC
  5
12E0D9
330
18
100
AcDbEntity
  8
姿図
100
AcDbCircle
 10
9535.777576690401
 20
-4995.832073907348
 30
-0.0000000000000035
 40
0.1783030214629486
100
AcDbArc
 50
91.88239147243901
 51
176.8294030759228
  0
LINE
  5
12E0DA
330
18
100
AcDbEntity
  8
姿図
100
AcDbLine
 10
9541.698067534078
 20
-4991.717582301646
 30
-0.0000000000000077
 11
9541.608804879064
 21
-4990.952194341996
 31
-0.0000000000000034
  0
ELLIPSE
  5
12E0DB
330
18
100
AcDbEntity
  8
姿図
100
AcDbEllipse
 10
9538.59292913591
 20
-4991.439455608121
 30
-0.0000000000000034
 11
-3.602345901327196
 21
2.769589598404880E-14
 31
3.999407362317515E-16
210
1.110223024625157E-16
220
-8.535721513524229E-31
230
1.0
 40
0.2588190451025151
 41
5.734445639859379
 42
6.80355156574371
  0
LINE
  5
12E0DC
330
18
100
AcDbEntity
  8
姿図
100
AcDbLine
 10
9535.467400059275
 20
-4992.497096052981
 30
-0.0000000000000034
 11
9535.467400059275
 21
-4990.95588989443
 31
-0.0000000000000034
  0
ELLIPSE
  5
12E0DD
330
18
100
AcDbEntity
  8
姿図
100
AcDbEllipse
 10
9538.59292913591
 20
-4991.439455608121
 30
-0.0000000000000034
 11
3.602345901327196
 21
2.769589598404880E-14
 31
3.999407362317515E-16
210
1.110223024625157E-16
220
8.535721513524229E-31
230
-1.0
 40
0.2588190451025151
 41
5.734445639860233
 42
6.555988579509473
  0
SPLINE
  5
12E0DE
330
18
100
AcDbEntity
  8
姿図
100
AcDbSpline
210
0.0
220
0.0
230
1.0
 70
     8
 71
     3
 72
     8
 73
     4
 74
     0
 42
0.000000001
 43
0.0000000001
 40
0.0
 40
0.0
 40
0.0
 40
0.0
 40
1.0
 40
1.0
 40
1.0
 40
1.0
 10
9546.672179358848
 20
-5033.684389233129
 30
-0.0000000000000061
 10
9547.178000569036
 20
-5032.947145525817
 30
-0.0000000000000061
 10
9550.984505836659
 20
-5027.985895587726
 30
-0.0000000000000061
 10
9550.984505836659
 20
-5027.985895587726
 30
-0.0000000000000061
  0
LINE
  5
12E0DF
330
18
100
AcDbEntity
  8
姿図
100
AcDbLine
 10
9544.286866220908
 20
-5025.818647649692
 30
-0.0000000000000037
 11
9547.856840412078
 21
-5023.817870192555
 31
-0.0000000000000061
  0
LINE
  5
12E0E0
330
18
100
AcDbEntity
  8
姿図
100
AcDbLine
 10
9544.40772941193
 20
-5024.928304696189
 30
-0.0000000000000061
 11
9544.286866220908
 21
-5025.818647649692
 31
-0.0000000000000037
  0
SPLINE
  5
12E0E1
330
18
100
AcDbEntity
  8
姿図
100
AcDbSpline
210
0.0
220
0.0
230
1.0
 70
     8
 71
     3
 72
     8
 73
     4
 74
     0
 42
0.000000001
 43
0.0000000001
 40
1.0
 40
1.0
 40
1.0
 40
1.000000000000004
 40
2.0
 40
2.0
 40
2.0
 40
2.0
 10
9526.79304389595
 20
-5017.435596919922
 30
-0.0000000000000061
 10
9530.873340328202
 20
-5014.473407703456
 30
-0.0000000000000061
 10
9537.869945228053
 20
-5017.096230866988
 30
-0.0000000000000061
 10
9542.613871798916
 20
-5023.299048602131
 30
-0.0000000000000061
  0
SPLINE
  5
12E0E2
330
18
100
AcDbEntity
  8
姿図
100
AcDbSpline
210
0.0
220
0.0
230
1.0
 70
     8
 71
     3
 72
     8
 73
     4
 74
     0
 42
0.000000001
 43
0.0000000001
 40
2.0
 40
2.0
 40
2.0
 40
2.0
 40
2.132564484647539
 40
2.132564484647539
 40
2.132564484647539
 40
2.132564484647539
 10
9542.613871798916
 20
-5023.299048602131
 30
-0.0000000000000061
 10
9543.2431313242
 20
-5024.121321938552
 30
-0.0000000000000061
 10
9543.801258594729
 20
-5024.965421532104
 30
-0.0000000000000061
 10
9544.286866220908
 20
-5025.818647649692
 30
-0.0000000000000061
  0
SPLINE
  5
12E0E3
330
18
100
AcDbEntity
  8
姿図
100
AcDbSpline
210
0.0
220
0.0
230
1.0
 70
     8
 71
     3
 72
     8
 73
     4
 74
     0
 42
0.000000001
 43
0.0000000001
 40
2.546094283791052
 40
2.546094283791052
 40
2.546094283791052
 40
2.546094283791052
 40
2.999999999999997
 40
3.0
 40
3.0
 40
3.0
 10
9546.672179358848
 20
-5033.684389233129
 30
-0.0000000000000061
 10
9546.73950419256
 20
-5036.377682698037
 30
-0.0000000000000061
 10
9545.905865997838
 20
-5038.71351278306
 30
-0.0000000000000061
 10
9544.11557008035
 20
-5040.182067567343
 30
-0.0000000000000061
  0
LINE
  5
12E0E4
330
18
100
AcDbEntity
  8
姿図
100
AcDbLine
 10
9545.352310219288
 20
-5013.200381462246
 30
-0.0000000000000061
 11
9544.733782558673
 21
-5013.644099853167
 31
-0.0000000000000061
  0
LINE
  5
12E0E5
330
18
100
AcDbEntity
  8
姿図
100
AcDbLine
 10
9549.780075919534
 20
-5015.991840632358
 30
-0.0000000000000061
 11
9549.470726155341
 21
-5016.220418287249
 31
-0.0000000000000061
  0
LINE
  5
12E0E6
330
18
100
AcDbEntity
  8
姿図
100
AcDbLine
 10
9552.284258937892
 20
-5019.475149415926
 30
-0.0000000000000061
 11
9550.02441275814
 21
-5021.142407664321
 31
-0.0000000000000061
  0
LINE
  5
12E0E7
330
18
100
AcDbEntity
  8
姿図
100
AcDbLine
 10
9552.911241806716
 20
-5021.656854532072
 30
-0.0000000000000061
 11
9550.69437649721
 21
-5023.355189149375
 31
-0.0000000000000061
  0
ARC
  5
12E0E8
330
18
100
AcDbEntity
  8
姿図
100
AcDbCircle
 10
9554.05261758187
 20
-5049.853873442882
 30
0.0
 40
39.33120301649688
100
AcDbArc
 50
106.8206178016678
 51
121.2112053710902
  0
ARC
  5
12E0E9
330
18
100
AcDbEntity
  8
姿図
100
AcDbCircle
 10
9580.067572471726
 20
-5060.042248191066
 30
-0.0000000000000061
 40
50.70022945072625
100
AcDbArc
 50
123.5328987203788
 51
126.6224344031462
  0
ARC
  5
12E0EA
330
18
100
AcDbEntity
  8
姿図
100
AcDbCircle
 10
9570.89670014685
 20
-4973.934965476805
 30
0.0
 40
47.55327128227507
100
AcDbArc
 50
233.5901345256709
 51
239.6115647317682
  0
ARC
  5
12E0EB
330
18
100
AcDbEntity
  8
姿図
100
AcDbCircle
 10
9570.89670014685
 20
-4973.934965476805
 30
0.0
 40
47.55327128227507
100
AcDbArc
 50
243.2468135642957
 51
246.6642495118303
  0
ARC
  5
12E0EC
330
18
100
AcDbEntity
  8
姿図
100
AcDbCircle
 10
9551.989026230112
 20
-5017.689235446504
 30
0.0
 40
0.1152954029574709
100
AcDbArc
 50
307.9750042488932
 51
52.02499575110676
  0
ARC
  5
12E0ED
330
18
100
AcDbEntity
  8
姿図
100
AcDbCircle
 10
9580.067572471726
 20
-5060.042248191066
 30
-0.0000000000000061
 40
50.70022945072625
100
AcDbArc
 50
129.487491726641
 51
135.2542785562877
  0
SPLINE
  5
12E0EE
330
18
100
AcDbEntity
  8
姿図
100
AcDbSpline
210
0.0
220
0.0
230
1.0
 70
     8
 71
     3
 72
    26
 73
    22
 74
     0
 42
0.000000001
 43
0.0000000001
 40
0.0
 40
0.0
 40
0.0
 40
0.0
 40
0.1264422350829495
 40
0.1264422350829495
 40
0.1588844121662647
 40
0.1588844121662647
 40
0.1751106177118944
 40
0.1751106177118944
 40
0.1858741810274541
 40
0.1858741810274541
 40
0.1957084812443391
 40
0.1957084812443391
 40
0.2081347559133095
 40
0.2081347559133095
 40
0.2307818527987925
 40
0.2307818527987925
 40
0.2883799021281352
 40
0.2883799021281352
 40
0.5072725936264543
 40
0.5072725936264543
 40
1.002470307424774
 40
1.002470307424774
 40
1.002470307424774
 40
1.002470307424774
 10
9557.337812073067
 20
-4988.697399961952
 30
0.0000000000000061
 10
9557.340540849826
 20
-4988.697647593858
 30
-0.000000000000002
 10
9557.343792802138
 20
-4988.697332761743
 30
0.0000000000000061
 10
9557.346412694878
 20
-4988.694151462025
 30
0.0000000000000141
 10
9557.346987034074
 20
-4988.693214600011
 30
0.0000000000000061
 10
9557.347608521573
 20
-4988.691169881149
 30
0.0000000000000061
 10
9557.347793872512
 20
-4988.69032271403
 30
0.0000000000000061
 10
9557.347972762433
 20
-4988.688578510239
 30
0.0000000000000061
 10
9557.34800871887
 20
-4988.687806049192
 30
0.0000000000000141
 10
9557.347987317455
 20
-4988.686162555246
 30
0.0000000000000222
 10
9557.34793843147
 20
-4988.685358204273
 30
0.0000000000000061
 10
9557.347755203062
 20
-4988.683512513629
 30
0.0000000000000222
 10
9557.347605684354
 20
-4988.682504670525
 30
0.0000000000000141
 10
9557.347127553452
 20
-4988.679837205616
 30
0.0000000000000141
 10
9557.346728012486
 20
-4988.678186574345
 30
0.0000000000000141
 10
9557.34535052881
 20
-4988.673125607157
 30
0.0000000000000141
 10
9557.344052154254
 20
-4988.669535426136
 30
0.0000000000000222
 10
9557.338113817721
 20
-4988.654694963207
 30
0.0000000000000141
 10
9557.331164096988
 20
-4988.642379434799
 30
-0.000000000000002
 10
9557.314098967607
 20
-4988.614246215768
 30
0.0000000000000061
 10
9557.297668783747
 20
-4988.59129290077
 30
-0.000000000000002
 10
9557.275867532957
 20
-4988.565307457728
 30
0.0000000000000141
  0
SPLINE
  5
12E0EF
330
18
100
AcDbEntity
  8
姿図
100
AcDbSpline
210
0.0
220
0.0
230
1.0
 70
     8
 71
     3
 72
    16
 73
    12
 74
     0
 42
0.000000001
 43
0.0000000001
 40
15.85860550385592
 40
15.85860550385592
 40
15.85860550385592
 40
15.85860550385592
 40
16.11243786898941
 40
16.11243786898941
 40
16.67677331177295
 40
16.67677331177295
 40
17.2411087545565
 40
17.2411087545565
 40
17.80544419734004
 40
17.80544419734004
 40
18.35651257010812
 40
18.35651257010812
 40
18.35651257010812
 40
18.35651257010812
 10
9554.704206388575
 20
-4984.652552173087
 30
0.0000000000000141
 10
9554.714562678084
 20
-4984.641333618865
 30
0.0000000000000141
 10
9554.72444755939
 20
-4984.629331818973
 30
0.0000000000000141
 10
9554.75461799717
 20
-4984.588490774826
 30
-0.000000000000002
 10
9554.774233925287
 20
-4984.555113945232
 30
0.0000000000000061
 10
9554.809078178525
 20
-4984.479178603794
 30
0.0000000000000061
 10
9554.824310599353
 20
-4984.436622688981
 30
0.0000000000000141
 10
9554.849214446771
 20
-4984.344919464782
 30
0.0000000000000141
 10
9554.858907779751
 20
-4984.295697106868
 30
-0.000000000000002
 10
9554.872208801167
 20
-4984.195275699592
 30
-0.000000000000002
 10
9554.875954128416
 20
-4984.144149277126
 30
0.0000000000000141
 10
9554.877092042298
 20
-4984.093527787796
 30
0.0000000000000061
  0
SPLINE
  5
12E0F0
330
18
100
AcDbEntity
  8
姿図
100
AcDbSpline
210
0.0
220
0.0
230
1.0
 70
     8
 71
     3
 72
    30
 73
    26
 74
     0
 42
0.000000001
 43
0.0000000001
 40
5.468358937646049
 40
5.468358937646049
 40
5.468358937646049
 40
5.468358937646049
 40
5.554474529312383
 40
5.554474529312383
 40
5.597484804418004
 40
5.597484804418004
 40
5.640495079523625
 40
5.640495079523625
 40
5.653252350784877
 40
5.653252350784877
 40
5.659630986415502
 40
5.659630986415502
 40
5.666009622046128
 40
5.666009622046128
 40
5.672394292855955
 40
5.672394292855955
 40
5.678778963665781
 40
5.678778963665781
 40
5.691548305285435
 40
5.691548305285435
 40
5.734612320533793
 40
5.734612320533793
 40
5.77767633578215
 40
5.77767633578215
 40
5.877831414689104
 40
5.877831414689104
 40
5.877831414689104
 40
5.877831414689104
 10
9557.255836804181
 20
-4987.540134817952
 30
0.0000000000000141
 10
9557.25786310956
 20
-4987.540539076164
 30
0.0000000000000061
 10
9557.25984367713
 20
-4987.540727307292
 30
-0.000000000000002
 10
9557.26271009678
 20
-4987.540274139688
 30
0.0000000000000141
 10
9557.263745005126
 20
-4987.53998351901
 30
0.0000000000000061
 10
9557.265716403472
 20
-4987.538763263197
 30
0.0000000000000061
 10
9557.266662460472
 20
-4987.537916635779
 30
0.0000000000000222
 10
9557.267595516676
 20
-4987.535616318376
 30
0.0000000000000141
 10
9557.267808982862
 20
-4987.534937940686
 30
-0.000000000000002
 10
9557.268031856198
 20
-4987.53365371781
 30
0.0000000000000141
 10
9557.268090854377
 20
-4987.533183013231
 30
0.0000000000000141
 10
9557.268163119203
 20
-4987.532158661091
 30
-0.000000000000002
 10
9557.268176668214
 20
-4987.531605642672
 30
0.0000000000000141
 10
9557.268152133398
 20
-4987.530439068576
 30
0.0000000000000061
 10
9557.268114181104
 20
-4987.52983370727
 30
0.0000000000000141
 10
9557.26799472137
 20
-4987.528615174057
 30
-0.000000000000002
 10
9557.26791295203
 20
-4987.528002076107
 30
-0.000000000000002
 10
9557.26762534742
 20
-4987.526201555444
 30
0.0000000000000061
 10
9557.267373729055
 20
-4987.525052841149
 30
0.0000000000000303
 10
9557.266302171367
 20
-4987.52072428895
 30
-0.000000000000002
 10
9557.265278826366
 20
-4987.517884689049
 30
0.0000000000000222
 10
9557.263169606966
 20
-4987.512542325358
 30
0.0000000000000222
 10
9557.262077285402
 20
-4987.510105966077
 30
-0.000000000000002
 10
9557.258742498136
 20
-4987.503046217155
 30
0.0000000000000141
 10
9557.25634211173
 20
-4987.498612179858
 30
0.0000000000000141
 10
9557.253891540251
 20
-4987.494343454296
 30
0.0000000000000222
  0
SPLINE
  5
12E0F1
330
18
100
AcDbEntity
  8
姿図
100
AcDbSpline
210
0.0
220
0.0
230
1.0
 70
    12
 71
     2
 72
     6
 73
     3
 74
     0
 42
0.000000001
 43
0.0000000001
 40
22.18928893771569
 40
22.18928893771569
 40
22.18928893771569
 40
29.25375354177516
 40
29.25375354177516
 40
29.25375354177516
 10
9556.457534132705
 20
-4988.391052773601
 30
0.0000000000000222
 41
0.9999999984713707
 10
9556.479694285475
 20
-4987.421324414177
 30
0.0000000000000141
 41
0.9999999989658331
 10
9556.501883912242
 20
-4986.450323034589
 30
0.0000000000000061
 41
0.9999999999300861
  0
SPLINE
  5
12E0F2
330
18
100
AcDbEntity
  8
姿図
100
AcDbSpline
210
0.0
220
0.0
230
1.0
 70
     8
 71
     3
 72
    26
 73
    22
 74
     0
 42
0.000000001
 43
0.0000000001
 40
5.508613077618151
 40
5.508613077618151
 40
5.508613077618151
 40
5.508613077618151
 40
6.179005067686559
 40
6.179005067686559
 40
6.340002190112532
 40
6.340002190112532
 40
6.392156946112854
 40
6.392156946112854
 40
6.417035445654846
 40
6.417035445654846
 40
6.433276212519534
 40
6.433276212519534
 40
6.447901642471058
 40
6.447901642471058
 40
6.46599523881348
 40
6.46599523881348
 40
6.498353151737191
 40
6.498353151737191
 40
6.578911697646714
 40
6.578911697646714
 40
6.714781857145347
 40
6.714781857145347
 40
6.714781857145347
 40
6.714781857145347
 10
9556.154388388259
 20
-4987.762511893724
 30
0.0000000000000141
 10
9556.103624421872
 20
-4987.740614770081
 30
0.0000000000000061
 10
9556.068196123637
 20
-4987.731124645301
 30
0.0000000000000141
 10
9556.04359192112
 20
-4987.731364132331
 30
0.0000000000000061
 10
9556.03804748004
 20
-4987.731985227789
 30
-0.000000000000002
 10
9556.032969688753
 20
-4987.735139091053
 30
-0.000000000000002
 10
9556.031742951964
 20
-4987.736196317284
 30
0.0000000000000141
 10
9556.030440613747
 20
-4987.738378260827
 30
0.0000000000000141
 10
9556.0300547489
 20
-4987.739252249537
 30
0.0000000000000141
 10
9556.029659340482
 20
-4987.741030152291
 30
0.0000000000000303
 10
9556.029567469765
 20
-4987.741809678098
 30
0.0000000000000141
 10
9556.029561645548
 20
-4987.743455483773
 30
0.0000000000000141
 10
9556.02963108445
 20
-4987.744253782994
 30
0.0000000000000061
 10
9556.029923827191
 20
-4987.74606534743
 30
0.0000000000000061
 10
9556.030172879116
 20
-4987.747042177803
 30
0.0000000000000061
 10
9556.030977757666
 20
-4987.749598346196
 30
0.0000000000000061
 10
9556.031657142474
 20
-4987.751160226851
 30
0.0000000000000141
 10
9556.033989504242
 20
-4987.755884414916
 30
0.0000000000000141
 10
9556.036184629
 20
-4987.759181368458
 30
-0.000000000000002
 10
9556.04184032277
 20
-4987.766819414739
 30
0.0000000000000222
 10
9556.045965884954
 20
-4987.771437850796
 30
0.0000000000000141
 10
9556.049624017167
 20
-4987.775268095515
 30
0.0000000000000222
  0
SPLINE
  5
12E0F3
330
18
100
AcDbEntity
  8
姿図
100
AcDbSpline
210
0.0
220
0.0
230
1.0
 70
     8
 71
     3
 72
    10
 73
     6
 74
     0
 42
0.000000001
 43
0.0000000001
 40
0.505347474080478
 40
0.505347474080478
 40
0.505347474080478
 40
0.505347474080478
 40
0.5908081871204214
 40
0.5908081871204214
 40
0.6018930666040991
 40
0.6018930666040991
 40
0.6018930666040991
 40
0.6018930666040991
 10
9556.324872651057
 20
-4988.241159646387
 30
0.0000000000000061
 10
9556.323220195758
 20
-4988.233717705804
 30
-0.000000000000002
 10
9556.32053364433
 20
-4988.2255156964
 30
-0.000000000000002
 10
9556.316080749191
 20
-4988.216951915538
 30
0.0000000000000141
 10
9556.315549155286
 20
-4988.21597868661
 30
0.0000000000000141
 10
9556.314997598307
 20
-4988.215018248855
 30
0.0000000000000061
  0
SPLINE
  5
12E0F4
330
18
100
AcDbEntity
  8
姿図
100
AcDbSpline
210
0.0
220
0.0
230
1.0
 70
     8
 71
     3
 72
    26
 73
    22
 74
     0
 42
0.000000001
 43
0.0000000001
 40
0.0
 40
0.0
 40
0.0
 40
0.0
 40
0.128245973690629
 40
0.128245973690629
 40
0.1709107023387558
 40
0.1709107023387558
 40
0.1890943956851749
 40
0.1890943956851749
 40
0.2007783270636655
 40
0.2007783270636655
 40
0.2111470640880597
 40
0.2111470640880597
 40
0.2237033505467542
 40
0.2237033505467542
 40
0.2457537947997618
 40
0.2457537947997618
 40
0.2995509632558
 40
0.2995509632558
 40
0.4920237835540287
 40
0.4920237835540287
 40
0.793426644719398
 40
0.793426644719398
 40
0.793426644719398
 40
0.793426644719398
 10
9557.298202042653
 20
-4988.119753529025
 30
0.0000000000000141
 10
9557.301056440141
 20
-4988.120166831329
 30
0.0000000000000141
 10
9557.304376372571
 20
-4988.120088041564
 30
0.0000000000000141
 10
9557.307405587344
 20
-4988.117386454174
 30
0.0000000000000141
 10
9557.30816138316
 20
-4988.116395168543
 30
0.0000000000000141
 10
9557.308903449535
 20
-4988.114246152639
 30
0.0000000000000061
 10
9557.30910738555
 20
-4988.113437634658
 30
-0.000000000000002
 10
9557.309311142806
 20
-4988.111773408874
 30
0.0000000000000141
 10
9557.309357347487
 20
-4988.111042693296
 30
0.0000000000000141
 10
9557.30935464806
 20
-4988.10949274025
 30
0.0000000000000141
 10
9557.309315950733
 20
-4988.10874044159
 30
0.0000000000000222
 10
9557.309158303702
 20
-4988.107038507533
 30
0.0000000000000222
 10
9557.309028077249
 20
-4988.106123402879
 30
-0.000000000000002
 10
9557.30861236516
 20
-4988.103739608834
 30
0.0000000000000222
 10
9557.308267503468
 20
-4988.102282476975
 30
-0.000000000000002
 10
9557.307096842533
 20
-4988.097905299414
 30
0.0000000000000061
 10
9557.306010850323
 20
-4988.094841209292
 30
0.0000000000000061
 10
9557.301202661427
 20
-4988.08261514995
 30
0.0000000000000141
 10
9557.295741254042
 20
-4988.072641037195
 30
0.0000000000000222
 10
9557.28455439547
 20
-4988.05370785506
 30
0.0000000000000061
 10
9557.275771439845
 20
-4988.040578690185
 30
0.0000000000000141
 10
9557.26479981237
 20
-4988.025938745115
 30
0.0000000000000141
  0
SPLINE
  5
12E0F5
330
18
100
AcDbEntity
  8
姿図
100
AcDbSpline
210
0.0
220
0.0
230
1.0
 70
     8
 71
     3
 72
    30
 73
    26
 74
     0
 42
0.000000001
 43
0.0000000001
 40
16.78601875418834
 40
16.78601875418834
 40
16.78601875418834
 40
16.78601875418834
 40
16.8861738330952
 40
16.8861738330952
 40
16.92923784834355
 40
16.92923784834355
 40
16.97230186359191
 40
16.97230186359191
 40
16.98507120521156
 40
16.98507120521156
 40
16.99145587602139
 40
16.99145587602139
 40
16.99784054683122
 40
16.99784054683122
 40
17.00421918246185
 40
17.00421918246185
 40
17.01059781809247
 40
17.01059781809247
 40
17.02335508935372
 40
17.02335508935372
 40
17.06636536445934
 40
17.06636536445934
 40
17.10937563956496
 40
17.10937563956496
 40
17.1954912312313
 40
17.1954912312313
 40
17.1954912312313
 40
17.1954912312313
 10
9556.132412395633
 20
-4986.691547890362
 30
0.0000000000000141
 10
9556.128384167267
 20
-4986.691178855333
 30
-0.000000000000002
 10
9556.124432673127
 20
-4986.691065985497
 30
0.0000000000000061
 10
9556.11896870652
 20
-4986.691827266352
 30
0.0000000000000303
 10
9556.11718235262
 20
-4986.692202965031
 30
0.0000000000000141
 10
9556.113761570432
 20
-4986.693586752443
 30
0.0000000000000141
 10
9556.112111941507
 20
-4986.694512940378
 30
0.0000000000000141
 10
9556.110459181364
 20
-4986.696891326778
 30
-0.000000000000002
 10
9556.110078397225
 20
-4986.69758734436
 30
0.0000000000000141
 10
9556.109670768004
 20
-4986.698890191358
 30
-0.000000000000002
 10
9556.109560607396
 20
-4986.699365898872
 30
0.0000000000000061
 10
9556.109418043794
 20
-4986.700396866248
 30
0.0000000000000303
 10
9556.109385171894
 20
-4986.70095152902
 30
0.0000000000000141
 10
9556.10940807013
 20
-4986.702116931598
 30
0.0000000000000061
 10
9556.109463607016
 20
-4986.70271940421
 30
0.0000000000000061
 10
9556.109650153408
 20
-4986.703929022832
 30
0.0000000000000061
 10
9556.109781628144
 20
-4986.704536074858
 30
-0.000000000000002
 10
9556.110250064688
 20
-4986.706315162488
 30
-0.0000000000000101
 10
9556.11066719854
 20
-4986.707444946621
 30
-0.000000000000002
 10
9556.112451691939
 20
-4986.711690584876
 30
-0.000000000000002
 10
9556.11417409493
 20
-4986.714447393024
 30
-0.000000000000002
 10
9556.117724039397
 20
-4986.719620026848
 30
0.0000000000000141
 10
9556.119563808868
 20
-4986.721968446474
 30
0.0000000000000061
 10
9556.124629524918
 20
-4986.728099725327
 30
0.0000000000000061
 10
9556.128087907888
 20
-4986.731804892827
 30
0.0000000000000061
 10
9556.131599286051
 20
-4986.735364709926
 30
0.0000000000000061
  0
SPLINE
  5
12E0F6
330
18
100
AcDbEntity
  8
姿図
100
AcDbSpline
210
0.0
220
0.0
230
1.0
 70
     8
 71
     3
 72
    12
 73
     8
 74
     0
 42
0.000000001
 43
0.0000000001
 40
2.214246753416005
 40
2.214246753416005
 40
2.214246753416005
 40
2.214246753416005
 40
2.273337669201671
 40
2.273337669201671
 40
2.651501823638109
 40
2.651501823638109
 40
2.971189770913845
 40
2.971189770913845
 40
2.971189770913845
 40
2.971189770913845
 10
9556.501883912242
 20
-4986.450323034589
 30
0.0000000000000061
 10
9556.500428748415
 20
-4986.455009746687
 30
0.0000000000000061
 10
9556.499017610953
 20
-4986.45975215282
 30
-0.0000000000000101
 10
9556.488928025827
 20
-4986.495092892149
 30
-0.000000000000002
 10
9556.48106223126
 20
-4986.531344608034
 30
0.0000000000000141
 10
9556.470847946683
 20
-4986.600393709648
 30
0.0000000000000141
 10
9556.467811099032
 20
-4986.632875207632
 30
0.0000000000000061
 10
9556.466549739172
 20
-4986.663016234455
 30
0.0000000000000222
  0
SPLINE
  5
12E0F7
330
18
100
AcDbEntity
  8
姿図
100
AcDbSpline
210
0.0
220
0.0
230
1.0
 70
     8
 71
     3
 72
    12
 73
     8
 74
     0
 42
0.000000001
 43
0.0000000001
 40
2.214246753415932
 40
2.214246753415932
 40
2.214246753415932
 40
2.214246753415932
 40
2.27333766920167
 40
2.27333766920167
 40
2.65150182363811
 40
2.65150182363811
 40
2.971189770913846
 40
2.971189770913846
 40
2.971189770913846
 40
2.971189770913846
 10
9536.467397849068
 20
-4980.543522568717
 30
0.0000000000000141
 10
9536.471612920874
 20
-4980.54697204791
 30
-0.000000000000002
 10
9536.475683391396
 20
-4980.550522307652
 30
0.0000000000000061
 10
9536.504668204863
 20
-4980.577392547848
 30
0.0000000000000061
 10
9536.526543342712
 20
-4980.607364046948
 30
0.0000000000000061
 10
9536.553476331297
 20
-4980.668918358588
 30
0.0000000000000061
 10
9536.560691729814
 20
-4980.699526663464
 30
0.0000000000000061
 10
9536.562632637797
 20
-4980.729363057197
 30
0.0000000000000061
  0
SPLINE
  5
12E0F8
330
18
100
AcDbEntity
  8
姿図
100
AcDbSpline
210
0.0
220
0.0
230
1.0
 70
     8
 71
     3
 72
    14
 73
    10
 74
     0
 42
0.000000001
 43
0.0000000001
 40
0.0518711334186413
 40
0.0518711334186413
 40
0.0518711334186413
 40
0.0518711334186413
 40
0.3761852694724612
 40
0.3761852694724612
 40
0.7523705389449225
 40
0.7523705389449225
 40
1.132719326167469
 40
1.132719326167469
 40
1.510190416961686
 40
1.510190416961686
 40
1.510190416961686
 40
1.510190416961686
 10
9536.448156765746
 20
-4980.647417064085
 30
0.0000000000000141
 10
9536.446660680052
 20
-4980.617525089236
 30
0.0000000000000141
 10
9536.439756848198
 20
-4980.586773971707
 30
-0.000000000000002
 10
9536.41332611519
 20
-4980.525708531788
 30
0.0000000000000141
 10
9536.39185517167
 20
-4980.496261799917
 30
0.0000000000000061
 10
9536.342123788287
 20
-4980.450408914161
 30
0.0000000000000141
 10
9536.31045497542
 20
-4980.431059796329
 30
0.0000000000000061
 10
9536.241404604945
 20
-4980.407100013643
 30
0.0000000000000222
 10
9536.204070099433
 20
-4980.402372782131
 30
0.0000000000000222
 10
9536.16904677563
 20
-4980.404307684257
 30
0.0000000000000141
  0
SPLINE
  5
12E0F9
330
18
100
AcDbEntity
  8
姿図
100
AcDbSpline
210
0.0
220
0.0
230
1.0
 70
     8
 71
     3
 72
    14
 73
    10
 74
     0
 42
0.000000001
 43
0.0000000001
 40
0.0516007629148517
 40
0.0516007629148517
 40
0.0516007629148517
 40
0.0516007629148517
 40
0.3775999287975693
 40
0.3775999287975693
 40
0.7551998575951386
 40
0.7551998575951386
 40
1.136339040160537
 40
1.136339040160537
 40
1.513620557812546
 40
1.513620557812546
 40
1.513620557812546
 40
1.513620557812546
 10
9531.081156259215
 20
-4985.558976714244
 30
0.0000000000000061
 10
9531.079390800463
 20
-4985.589329232018
 30
0.0000000000000141
 10
9531.07274858754
 20
-4985.621525235004
 30
0.0000000000000141
 10
9531.048160099239
 20
-4985.687686614713
 30
0.0000000000000141
 10
9531.02850094881
 20
-4985.721135087077
 30
0.0000000000000222
 10
9530.98339579614
 20
-4985.776128863185
 30
0.0000000000000141
 10
9530.954890922885
 20
-4985.801243459149
 30
0.0000000000000141
 10
9530.893230534168
 20
-4985.837836290049
 30
0.0000000000000061
 10
9530.860129356679
 20
-4985.849463298297
 30
0.0000000000000061
 10
9530.829218839579
 20
-4985.854141335766
 30
0.0000000000000061
  0
SPLINE
  5
12E0FA
330
18
100
AcDbEntity
  8
姿図
100
AcDbSpline
210
0.0
220
0.0
230
1.0
 70
     8
 71
     3
 72
    14
 73
    10
 74
     0
 42
0.000000001
 43
0.0000000001
 40
1.526591127950939
 40
1.526591127950939
 40
1.526591127950939
 40
1.526591127950939
 40
1.903872645602957
 40
1.903872645602957
 40
2.285011828168357
 40
2.285011828168357
 40
2.662611756965921
 40
2.662611756965921
 40
2.988610922850349
 40
2.988610922850349
 40
2.988610922850349
 40
2.988610922850349
 10
9536.950382170795
 20
-4985.281328598159
 30
0.0000000000000061
 10
9536.915059926127
 20
-4985.282848560563
 30
0.0000000000000141
 10
9536.877429251266
 20
-4985.277840572884
 30
0.0000000000000061
 10
9536.807730345736
 20
-4985.253540221835
 30
0.0000000000000061
 10
9536.775723849105
 20
-4985.234088223257
 30
0.0000000000000061
 10
9536.725392652377
 20
-4985.188025291437
 30
0.0000000000000061
 10
9536.703650541458
 20
-4985.158451110375
 30
0.0000000000000061
 10
9536.676865203484
 20
-4985.097097245261
 30
0.0000000000000061
 10
9536.669867341123
 20
-4985.066177667763
 30
0.0000000000000061
 10
9536.668356098493
 20
-4985.036131780633
 30
0.0000000000000061
  0
SPLINE
  5
12E0FB
330
18
100
AcDbEntity
  8
姿図
100
AcDbSpline
210
0.0
220
0.0
230
1.0
 70
     8
 71
     3
 72
    16
 73
    12
 74
     0
 42
0.000000001
 43
0.0000000001
 40
7.430778314876192
 40
7.430778314876192
 40
7.430778314876192
 40
7.430778314876192
 40
7.48439642458809
 40
7.48439642458809
 40
8.051682043090178
 40
8.051682043090178
 40
8.618967661592267
 40
8.618967661592267
 40
9.186253280094355
 40
9.186253280094355
 40
9.198233509684796
 40
9.198233509684796
 40
9.198233509684796
 40
9.198233509684796
 10
9522.188658679974
 20
-4987.585150664087
 30
0.0000000000000061
 10
9522.189198841654
 20
-4987.581773101851
 30
0.0000000000000061
 10
9522.189735374268
 20
-4987.578353184761
 30
-0.000000000000002
 10
9522.195901391122
 20
-4987.53824883409
 30
0.0000000000000061
 10
9522.201077414607
 20
-4987.496765023709
 30
0.0000000000000141
 10
9522.209962955309
 20
-4987.406668419615
 30
0.0000000000000061
 10
9522.213678099059
 20
-4987.357980130286
 30
0.0000000000000141
 10
9522.219358906352
 20
-4987.25693587833
 30
-0.000000000000002
 10
9522.221323402351
 20
-4987.204577872024
 30
0.0000000000000061
 10
9522.222459389803
 20
-4987.151512525757
 30
0.0000000000000141
 10
9522.222482544279
 20
-4987.150413669538
 30
0.0000000000000061
 10
9522.22250535712
 20
-4987.149313458354
 30
0.0000000000000061
  0
SPLINE
  5
12E0FC
330
18
100
AcDbEntity
  8
姿図
100
AcDbSpline
210
0.0
220
0.0
230
1.0
 70
     8
 71
     1
 72
     9
 73
     7
 74
     0
 42
0.000000001
 43
0.0000000001
 40
8.843010394358767
 40
8.843010394358767
 40
8.844295783825991
 40
8.845581173293212
 40
8.846866562760436
 40
8.848151952227658
 40
8.84943734169488
 40
8.850046236987634
 40
8.850046236987634
 10
9524.312252406417
 20
-4986.149585095653
 30
0.0000000000000141
 10
9524.249202810668
 20
-4986.432943907377
 30
0.0000000000000141
 10
9524.187370416454
 20
-4986.717197406362
 30
0.0000000000000061
 10
9524.126767310845
 20
-4987.00232970283
 30
0.0000000000000141
 10
9524.067405401995
 20
-4987.288324638622
 30
0.0000000000000061
 10
9524.009296413285
 20
-4987.57516579033
 30
0.0000000000000141
 10
9523.982368877974
 20
-4987.71143680296
 30
0.0000000000000061
  0
SPLINE
  5
12E0FD
330
18
100
AcDbEntity
  8
姿図
100
AcDbSpline
210
7.530135787125088E-10
220
1.567453866225486E-11
230
-1.0
 70
    12
 71
     2
 72
     6
 73
     3
 74
     0
 42
0.000000001
 43
0.0000000001
 40
3.438957747159619
 40
3.438957747159619
 40
3.438957747159619
 40
27.9798144579688
 40
27.9798144579688
 40
27.9798144579688
 10
9555.390137926395
 20
-4990.786430687474
 30
0.0000000000000061
 41
1.000002949620377
 10
9555.319841569399
 20
-4987.408323360671
 30
0.0000000000000222
 41
1.000012270378906
 10
9555.250115011775
 20
-4984.058620647319
 30
0.0000000000000222
 41
1.000004411873195
  0
ELLIPSE
  5
12E0FE
330
18
100
AcDbEntity
  8
姿図
100
AcDbEllipse
 10
9555.949631166324
 20
-4978.789626176078
 30
0.0
 11
0.05121854025141364
 21
-0.5092439049548338
 31
8.523401039058717E-17
210
-1.666545791913228E-17
220
1.656974764790396E-16
230
1.0
 40
0.3266547503873757
 41
1.290961286430822
 42
2.861757613225796
  0
LINE
  5
12E0FF
330
18
100
AcDbEntity
  8
姿図
100
AcDbLine
 10
9557.36831389479
 20
-4979.332284700364
 30
0.0
 11
9556.684143191243
 21
-4979.396308754694
 31
0.0
  0
ELLIPSE
  5
12E100
330
18
100
AcDbEntity
  8
姿図
100
AcDbEllipse
 10
9556.181508008689
 20
-4981.215810914144
 30
0.0
 11
0.03310067962663127
 21
0.04624056676641723
 31
3.156747423222840E-18
210
-3.231153159914879E-17
220
-4.513815278383456E-17
230
1.0
 40
0.9083744652357183
 41
0.6674062465666986
 42
2.67181090378285
  0
ELLIPSE
  5
12E101
330
18
100
AcDbEntity
  8
姿図
100
AcDbEllipse
 10
9556.181508008689
 20
-4980.666518781747
 30
0.0
 11
0.03310067962664066
 21
0.04624056676643044
 31
3.156747423223735E-18
210
-3.231153159914874E-17
220
-4.513815278383449E-17
230
1.0
 40
0.9083744652357183
 41
0.66740624656714
 42
2.671810903783259
  0
LINE
  5
12E102
330
18
100
AcDbEntity
  8
姿図
100
AcDbLine
 10
9556.310255575845
 20
-4980.521533883136
 30
0.0
 11
9556.132978472755
 21
-4980.144846393169
 31
0.0
  0
LINE
  5
12E103
330
18
100
AcDbEntity
  8
姿図
100
AcDbLine
 10
9556.310255575845
 20
-4979.97224175074
 30
0.0
 11
9556.132978472755
 21
-4979.595554260773
 31
0.0
  0
LINE
  5
12E104
330
18
100
AcDbEntity
  8
姿図
100
AcDbLine
 10
9556.310255575845
 20
-4979.422949618342
 30
0.0
 11
9556.124410064105
 21
-4979.028055533779
 31
0.0
  0
ELLIPSE
  5
12E105
330
18
100
AcDbEntity
  8
姿図
100
AcDbEllipse
 10
9556.181508008689
 20
-4980.117226649349
 30
0.0
 11
0.03310067962664066
 21
0.04624056676643044
 31
3.156747423223735E-18
210
-3.231153159914874E-17
220
-4.513815278383449E-17
230
1.0
 40
0.9083744652357183
 41
0.6674062465669841
 42
2.671810903783383
  0
ELLIPSE
  5
12E106
330
18
100
AcDbEntity
  8
姿図
100
AcDbEllipse
 10
9556.181508008689
 20
-4979.567934516954
 30
0.0
 11
0.03310067962664066
 21
0.04624056676643044
 31
3.156747423223735E-18
210
-3.231153159914874E-17
220
-4.513815278383449E-17
230
1.0
 40
0.9083744652357183
 41
0.6674062465673603
 42
2.671810903782924
  0
LINE
  5
12E107
330
18
100
AcDbEntity
  8
姿図
100
AcDbLine
 10
9556.310255575845
 20
-4981.070826015532
 30
0.0
 11
9556.132978472755
 21
-4980.694138525568
 31
0.0
  0
LINE
  5
12E108
330
18
100
AcDbEntity
  8
姿図
100
AcDbLine
 10
9556.124410064105
 20
-4979.028055533779
 30
0.0
 11
9556.12365379223
 21
-4978.914197901526
 31
0.0
  0
LINE
  5
12E109
330
18
100
AcDbEntity
  8
姿図
100
AcDbLine
 10
9556.181508008689
 20
-4981.160881700904
 30
0.0
 11
9556.261726039913
 21
-4981.153374972595
 31
0.0
  0
ELLIPSE
  5
12E10A
330
18
100
AcDbEntity
  8
姿図
100
AcDbEllipse
 10
9556.261726039913
 20
-4981.098445759351
 30
0.0
 11
0.03310067962662644
 21
0.04624056676641969
 31
-6.313494846445589E-18
210
6.462306319828894E-17
220
9.027630556767524E-17
230
1.0
 40
0.9083744652357181
 41
3.80899890015702
 42
5.813403557372653
  0
LINE
  5
12E10B
330
18
100
AcDbEntity
  8
姿図
100
AcDbLine
 10
9556.181508008689
 20
-4980.062297436112
 30
0.0
 11
9556.261726039913
 21
-4980.0547907078
 31
0.0
  0
LINE
  5
12E10C
330
18
100
AcDbEntity
  8
姿図
100
AcDbLine
 10
9556.181508008689
 20
-4980.611589568508
 30
0.0
 11
9556.261726039913
 21
-4980.604082840196
 31
0.0
  0
LINE
  5
12E10D
330
18
100
AcDbEntity
  8
姿図
100
AcDbLine
 10
9556.181508008689
 20
-4979.513005303714
 30
0.0
 11
9556.261726039913
 21
-4979.505498575401
 31
0.0
  0
ELLIPSE
  5
12E10E
330
18
100
AcDbEntity
  8
姿図
100
AcDbEllipse
 10
9556.261726039913
 20
-4979.999861494561
 30
0.0
 11
0.03310067962662644
 21
0.04624056676641969
 31
-6.313494846445589E-18
210
6.462306319828894E-17
220
9.027630556767524E-17
230
1.0
 40
0.9083744652357181
 41
3.808998900156833
 42
5.813403557372844
  0
ELLIPSE
  5
12E10F
330
18
100
AcDbEntity
  8
姿図
100
AcDbEllipse
 10
9556.261726039913
 20
-4980.549153626956
 30
0.0
 11
0.03310067962662644
 21
0.04624056676641969
 31
-6.313494846445589E-18
210
6.462306319828894E-17
220
9.027630556767524E-17
230
1.0
 40
0.9083744652357181
 41
3.808998900156709
 42
5.813403557372572
  0
ELLIPSE
  5
12E110
330
18
100
AcDbEntity
  8
姿図
100
AcDbEllipse
 10
9556.728672781963
 20
-4979.90617992361
 30
0.0
 11
0.04414327837343477
 21
-0.5099059656834992
 31
0.0
210
0.0
220
0.0
230
1.0
 40
0.3301839125655894
 41
3.14388787013195
 42
4.437113948144849
  0
ELLIPSE
  5
12E111
330
18
100
AcDbEntity
  8
姿図
100
AcDbEllipse
 10
9556.261726039913
 20
-4979.450569362165
 30
0.0
 11
0.03310067962662644
 21
0.04624056676641969
 31
-6.313494846445589E-18
210
6.462306319828894E-17
220
9.027630556767524E-17
230
1.0
 40
0.9083744652357181
 41
3.80899890015702
 42
5.813403557372702
  0
LINE
  5
12E112
330
18
100
AcDbEntity
  8
姿図
100
AcDbLine
 10
9557.254457617477
 20
-4980.398349824784
 30
0.0
 11
9557.431734720569
 21
-4980.77503731475
 31
0.0
  0
LINE
  5
12E113
330
18
100
AcDbEntity
  8
姿図
100
AcDbLine
 10
9558.031145987574
 20
-4980.654825570013
 30
0.0
 11
9557.845300475834
 21
-4980.259931485451
 31
0.0
  0
LINE
  5
12E114
330
18
100
AcDbEntity
  8
姿図
100
AcDbLine
 10
9557.902398420416
 20
-4980.744881255382
 30
0.0
 11
9557.982616451642
 21
-4980.737374527072
 31
0.0
  0
ELLIPSE
  5
12E115
330
18
100
AcDbEntity
  8
姿図
100
AcDbEllipse
 10
9557.902398420416
 20
-4980.799810468625
 30
0.0
 11
0.03310067962664066
 21
0.04624056676643044
 31
3.156747423223735E-18
210
-3.231153159914874E-17
220
-4.513815278383449E-17
230
1.0
 40
0.9083744652357183
 41
0.66740624656764
 42
2.671810903783141
  0
LINE
  5
12E116
330
18
100
AcDbEntity
  8
姿図
100
AcDbLine
 10
9557.383205184635
 20
-4980.857586271811
 30
0.0
 11
9557.302987153409
 21
-4980.865093000119
 31
0.0
  0
ELLIPSE
  5
12E117
330
18
100
AcDbEntity
  8
姿図
100
AcDbEllipse
 10
9557.302987153409
 20
-4980.920022213362
 30
0.0
 11
0.03310067962663663
 21
0.0462405667664333
 31
3.156747423223738E-18
210
-3.231153159914479E-17
220
-4.513815278383739E-17
230
1.0
 40
0.908374465235718
 41
0.6674062465667575
 42
2.671810903783107
  0
ELLIPSE
  5
12E118
330
18
100
AcDbEntity
  8
姿図
100
AcDbEllipse
 10
9557.383205184633
 20
-4980.802657058573
 30
0.0
 11
0.03310067962663108
 21
0.04624056676641634
 31
3.156747423222771E-18
210
-3.231153159914885E-17
220
-4.513815278383400E-17
230
1.0
 40
0.9083744652357181
 41
3.808998900156757
 42
5.813403557372718
  0
ELLIPSE
  5
12E119
330
18
100
AcDbEntity
  8
姿図
100
AcDbEllipse
 10
9557.98261645164
 20
-4980.682445313837
 30
0.0
 11
0.03310067962662644
 21
0.04624056676641969
 31
-6.313494846445589E-18
210
6.462306319828894E-17
220
9.027630556767524E-17
230
1.0
 40
0.9083744652357181
 41
3.808998900156673
 42
5.813403557372901
  0
LINE
  5
12E11A
330
18
100
AcDbEntity
  8
姿図
100
AcDbLine
 10
9557.845300475834
 20
-4980.259931485451
 30
0.0
 11
9557.844544203956
 21
-4980.146073853194
 31
0.0
  0
LINE
  5
12E11B
330
18
100
AcDbEntity
  8
姿図
100
AcDbLine
 10
9557.245889208829
 20
-4979.830851097793
 30
0.0
 11
9557.431734720569
 21
-4980.225745182352
 31
0.0
  0
LINE
  5
12E11C
330
18
100
AcDbEntity
  8
姿図
100
AcDbLine
 10
9557.383205184635
 20
-4980.308294139415
 30
0.0
 11
9557.302987153409
 21
-4980.315800867724
 31
0.0
  0
LINE
  5
12E11D
330
18
100
AcDbEntity
  8
姿図
100
AcDbLine
 10
9557.24513293695
 20
-4979.716993465537
 30
0.0
 11
9557.245889208829
 21
-4979.830851097793
 31
0.0
  0
LINE
  5
12E11E
330
18
100
AcDbEntity
  8
姿図
100
AcDbLine
 10
9557.667239931321
 20
-4979.527446302018
 30
0.0
 11
9557.415873916123
 21
-4979.347509365261
 31
0.0
  0
LINE
  5
12E11F
330
18
100
AcDbEntity
  8
姿図
100
AcDbLine
 10
9557.845300475834
 20
-4980.259931485451
 30
0.0
 11
9557.245889208829
 21
-4979.830851097793
 31
0.0
  0
ELLIPSE
  5
12E120
330
18
100
AcDbEntity
  8
姿図
100
AcDbEllipse
 10
9557.670521578053
 20
-4980.021502127745
 30
0.0
 11
0.05121854025141364
 21
-0.5092439049548338
 31
8.523401039058717E-17
210
-1.666545791913228E-17
220
1.656974764790396E-16
230
1.0
 40
0.3266547503873757
 41
1.29096128643083
 42
2.861757613225647
  0
ELLIPSE
  5
12E121
330
18
100
AcDbEntity
  8
姿図
100
AcDbEllipse
 10
9557.302987153409
 20
-4980.370730080966
 30
0.0
 11
0.03310067962663663
 21
0.0462405667664333
 31
3.156747423223738E-18
210
-3.231153159914479E-17
220
-4.513815278383739E-17
230
1.0
 40
0.908374465235718
 41
0.6674062465679877
 42
2.671810903783201
  0
ELLIPSE
  5
12E122
330
18
100
AcDbEntity
  8
姿図
100
AcDbEllipse
 10
9557.383205184633
 20
-4980.253364926175
 30
0.0
 11
0.03310067962663108
 21
0.04624056676641634
 31
3.156747423222771E-18
210
-3.231153159914885E-17
220
-4.513815278383400E-17
230
1.0
 40
0.9083744652357181
 41
3.808998900156948
 42
5.813403557372959
  0
ELLIPSE
  5
12E123
330
18
100
AcDbEntity
  8
姿図
100
AcDbEllipse
 10
9557.419155562855
 20
-4979.841565190985
 30
0.0
 11
0.05121854025141364
 21
-0.5092439049548338
 31
8.523401039058717E-17
210
-1.666545791913228E-17
220
1.656974764790396E-16
230
1.0
 40
0.3266547503873757
 41
2.861757613225715
 42
4.432553940020625
  0
LINE
  5
12E124
330
18
100
AcDbEntity
  8
姿図
100
AcDbLine
 10
9558.031145987574
 20
-4981.204117702411
 30
0.0
 11
9557.853868884486
 21
-4980.827430212445
 31
0.0
  0
LINE
  5
12E125
330
18
100
AcDbEntity
  8
姿図
100
AcDbLine
 10
9555.946349519592
 20
-4978.29557035035
 30
0.0
 11
9555.694983504396
 21
-4978.115633413589
 31
0.0
  0
ELLIPSE
  5
12E126
330
18
100
AcDbEntity
  8
姿図
100
AcDbEllipse
 10
9555.007782370234
 20
-4978.674303971939
 30
0.0
 11
0.04414327837343477
 21
-0.5099059656834992
 31
0.0
210
0.0
220
0.0
230
1.0
 40
0.3301839125655894
 41
3.143887870131958
 42
4.437113948144826
  0
ELLIPSE
  5
12E127
330
18
100
AcDbEntity
  8
姿図
100
AcDbEllipse
 10
9555.58209674168
 20
-4980.786730526483
 30
0.0
 11
0.0331006796266269
 21
0.04624056676642037
 31
-3.156747423222837E-18
210
3.231153159914450E-17
220
4.513815278383754E-17
230
1.0
 40
0.9083744652357192
 41
0.6674062465669471
 42
2.671810903782859
  0
LINE
  5
12E128
330
18
100
AcDbEntity
  8
姿図
100
AcDbLine
 10
9555.662314772906
 20
-4980.724294584934
 30
0.0
 11
9555.58209674168
 21
-4980.731801313246
 31
0.0
  0
LINE
  5
12E129
330
18
100
AcDbEntity
  8
姿図
100
AcDbLine
 10
9555.662314772906
 20
-4979.076418187743
 30
0.0
 11
9555.58209674168
 21
-4979.083924916053
 31
0.0
  0
LINE
  5
12E12A
330
18
100
AcDbEntity
  8
姿図
100
AcDbLine
 10
9555.524242525222
 20
-4978.485117513865
 30
0.0
 11
9555.5249987971
 21
-4978.598975146122
 31
0.0
  0
LINE
  5
12E12B
330
18
100
AcDbEntity
  8
姿図
100
AcDbLine
 10
9555.662314772906
 20
-4980.175002452534
 30
0.0
 11
9555.58209674168
 21
-4980.182509180847
 31
0.0
  0
LINE
  5
12E12C
330
18
100
AcDbEntity
  8
姿図
100
AcDbLine
 10
9555.662314772906
 20
-4979.625710320139
 30
0.0
 11
9555.58209674168
 21
-4979.633217048447
 31
0.0
  0
ELLIPSE
  5
12E12D
330
18
100
AcDbEntity
  8
姿図
100
AcDbEllipse
 10
9555.58209674168
 20
-4980.237438394086
 30
0.0
 11
0.03310067962663634
 21
0.0462405667664335
 31
3.156747423223736E-18
210
-3.231153159914451E-17
220
-4.513815278383756E-17
230
1.0
 40
0.9083744652357192
 41
0.6674062465670006
 42
2.67181090378307
  0
ELLIPSE
  5
12E12E
330
18
100
AcDbEntity
  8
姿図
100
AcDbEllipse
 10
9555.58209674168
 20
-4979.688146261691
 30
0.0
 11
0.03310067962663634
 21
0.0462405667664335
 31
3.156747423223736E-18
210
-3.231153159914451E-17
220
-4.513815278383756E-17
230
1.0
 40
0.9083744652357192
 41
0.6674062465671249
 42
2.671810903782978
  0
ELLIPSE
  5
12E12F
330
18
100
AcDbEntity
  8
姿図
100
AcDbEllipse
 10
9555.58209674168
 20
-4979.138854129295
 30
0.0
 11
0.03310067962663634
 21
0.0462405667664335
 31
3.156747423223736E-18
210
-3.231153159914451E-17
220
-4.513815278383756E-17
230
1.0
 40
0.9083744652357192
 41
0.6674062465673204
 42
2.671810903783249
  0
LINE
  5
12E130
330
18
100
AcDbEntity
  8
姿図
100
AcDbLine
 10
9555.64742348306
 20
-4978.100408748693
 30
0.0
 11
9554.963252779513
 21
-4978.164432803022
 31
0.0
  0
ELLIPSE
  5
12E131
330
18
100
AcDbEntity
  8
姿図
100
AcDbEllipse
 10
9555.698265151126
 20
-4978.609689239316
 30
0.0
 11
0.05121854025141364
 21
-0.5092439049548338
 31
8.523401039058717E-17
210
-1.666545791913228E-17
220
1.656974764790396E-16
230
1.0
 40
0.3266547503873757
 41
2.861757613225734
 42
4.432553940020584
  0
LINE
  5
12E132
330
18
100
AcDbEntity
  8
姿図
100
AcDbLine
 10
9555.533567205748
 20
-4980.265058137907
 30
0.0
 11
9555.71084430884
 21
-4980.641745627873
 31
0.0
  0
ELLIPSE
  5
12E133
330
18
100
AcDbEntity
  8
姿図
100
AcDbEllipse
 10
9555.662314772906
 20
-4980.669365371694
 30
0.0
 11
0.03310067962663076
 21
0.04624056676641657
 31
3.156747423222791E-18
210
-3.231153159914869E-17
220
-4.513815278383457E-17
230
1.0
 40
0.9083744652357191
 41
3.808998900156817
 42
5.813403557372729
  0
LINE
  5
12E134
330
18
100
AcDbEntity
  8
姿図
100
AcDbLine
 10
9556.124410064105
 20
-4979.028055533779
 30
0.0
 11
9555.5249987971
 21
-4978.598975146122
 31
0.0
  0
LINE
  5
12E135
330
18
100
AcDbEntity
  8
姿図
100
AcDbLine
 10
9555.5249987971
 20
-4978.598975146122
 30
0.0
 11
9555.71084430884
 21
-4978.993869230681
 31
0.0
  0
LINE
  5
12E136
330
18
100
AcDbEntity
  8
姿図
100
AcDbLine
 10
9555.533567205748
 20
-4979.715766005511
 30
0.0
 11
9555.71084430884
 21
-4980.092453495475
 31
0.0
  0
LINE
  5
12E137
330
18
100
AcDbEntity
  8
姿図
100
AcDbLine
 10
9555.533567205748
 20
-4979.166473873112
 30
0.0
 11
9555.71084430884
 21
-4979.543161363079
 31
0.0
  0
ELLIPSE
  5
12E138
330
18
100
AcDbEntity
  8
姿図
100
AcDbEllipse
 10
9555.662314772906
 20
-4980.120073239298
 30
0.0
 11
0.03310067962663076
 21
0.04624056676641657
 31
3.156747423222791E-18
210
-3.231153159914869E-17
220
-4.513815278383457E-17
230
1.0
 40
0.9083744652357191
 41
3.808998900156848
 42
5.813403557372545
  0
ELLIPSE
  5
12E139
330
18
100
AcDbEntity
  8
姿図
100
AcDbEllipse
 10
9555.662314772906
 20
-4979.5707811069
 30
0.0
 11
0.03310067962663076
 21
0.04624056676641657
 31
3.156747423222791E-18
210
-3.231153159914869E-17
220
-4.513815278383457E-17
230
1.0
 40
0.9083744652357191
 41
3.808998900156624
 42
5.813403557372816
  0
ELLIPSE
  5
12E13A
330
18
100
AcDbEntity
  8
姿図
100
AcDbEllipse
 10
9555.662314772906
 20
-4979.021488974504
 30
0.0
 11
0.03310067962663076
 21
0.04624056676641657
 31
3.156747423222791E-18
210
-3.231153159914869E-17
220
-4.513815278383457E-17
230
1.0
 40
0.9083744652357191
 41
3.808998900157184
 42
5.813403557372866
  0
LINE
  5
12E13B
330
18
100
AcDbEntity
  8
姿図
100
AcDbLine
 10
9555.533567205748
 20
-4980.814350270302
 30
0.0
 11
9555.71084430884
 21
-4981.191037760269
 31
0.0
  0
LINE
  5
12E13C
330
18
100
AcDbEntity
  8
姿図
100
AcDbLine
 10
9556.181508008689
 20
-4981.710173833299
 30
0.0
 11
9556.261726039913
 21
-4981.70266710499
 31
0.0
  0
LINE
  5
12E13D
330
18
100
AcDbEntity
  8
姿図
100
AcDbLine
 10
9558.031145987574
 20
-4981.753409834807
 30
0.0
 11
9557.853868884486
 21
-4981.37672234484
 31
0.0
  0
LINE
  5
12E13E
330
18
100
AcDbEntity
  8
姿図
100
AcDbLine
 10
9557.254457617477
 20
-4981.496934089579
 30
0.0
 11
9557.431734720569
 21
-4981.873621579544
 31
0.0
  0
LINE
  5
12E13F
330
18
100
AcDbEntity
  8
姿図
100
AcDbLine
 10
9555.533567205748
 20
-4981.363642402701
 30
0.0
 11
9555.71084430884
 21
-4981.740329892664
 31
0.0
  0
LINE
  5
12E140
330
18
100
AcDbEntity
  8
姿図
100
AcDbLine
 10
9556.310255575845
 20
-4987.662331604298
 30
0.0
 11
9556.145133137565
 21
-4987.311470970129
 31
0.0
  0
LINE
  5
12E141
330
18
100
AcDbEntity
  8
姿図
100
AcDbLine
 10
9558.031145987574
 20
-4987.795623291171
 30
0.0
 11
9557.853868884486
 21
-4987.418935801208
 31
0.0
  0
LINE
  5
12E142
330
18
100
AcDbEntity
  8
姿図
100
AcDbLine
 10
9557.254827024004
 20
-4987.539932479903
 30
0.0
 11
9557.431734720569
 21
-4987.915835035908
 31
0.0
  0
ELLIPSE
  5
12E143
330
18
100
AcDbEntity
  8
姿図
100
AcDbEllipse
 10
9541.502398852343
 20
-4776.752739674796
 30
0.0
 11
-3.894316824764186
 21
-394.6539087303105
 31
-2.190875937283286E-14
210
-5.477393773410842E-19
220
-5.550844883974058E-17
230
1.0
 40
0.0509529088182855
 41
1.005428428192962
 42
1.010474847289326
  0
LINE
  5
12E144
330
18
100
AcDbEntity
  8
姿図
100
AcDbLine
 10
9557.38834425381
 20
-4989.057360515154
 30
0.0
 11
9556.363544345702
 21
-4988.323771465284
 31
0.0
  0
ELLIPSE
  5
12E145
330
18
100
AcDbEntity
  8
姿図
100
AcDbEllipse
 10
9540.627785557092
 20
-4954.098615861113
 30
0.0
 11
-16.90397109709704
 21
34.56738476522219
 31
-1.068012163356273E-15
210
-1.219306866792505E-17
220
2.493393378939953E-17
230
1.0
 40
0.0898112888334005
 41
2.866072935780159
 42
2.880426324101852
  0
ELLIPSE
  5
12E146
330
18
100
AcDbEntity
  8
姿図
100
AcDbEllipse
 10
9555.662314772906
 20
-4987.810163092856
 30
0.0
 11
0.03310067962663076
 21
0.04624056676641657
 31
3.156747423222791E-18
210
-3.231153159914869E-17
220
-4.513815278383457E-17
230
1.0
 40
0.9083744652357191
 41
5.379795226951904
 42
5.813403557372927
  0
ELLIPSE
  5
12E147
330
18
100
AcDbEntity
  8
姿図
100
AcDbEllipse
 10
9556.261726039913
 20
-4987.689951348118
 30
0.0
 11
0.0331006796266243
 21
0.0462405667664167
 31
0.0
210
0.0
220
0.0
230
1.0
 40
0.9083744652357186
 41
3.808998900156733
 42
5.813403557372704
  0
LINE
  5
12E148
330
18
100
AcDbEntity
  8
姿図
100
AcDbLine
 10
9556.181508008689
 20
-4987.752387289666
 30
0.0
 11
9556.261726039913
 21
-4987.744880561355
 31
0.0
  0
LINE
  5
12E149
330
18
100
AcDbEntity
  8
姿図
100
AcDbLine
 10
9556.156918320496
 20
-4987.885804869392
 30
0.0
 11
9556.154388387997
 21
-4987.762511893745
 31
0.0
  0
LINE
  5
12E14A
330
18
100
AcDbEntity
  8
姿図
100
AcDbLine
 10
9556.28351801198
 20
-4988.154810388295
 30
0.0
 11
9556.156918322784
 21
-4987.885804869128
 31
0.0
  0
ELLIPSE
  5
12E14B
330
18
100
AcDbEntity
  8
姿図
100
AcDbEllipse
 10
9556.363544345702
 20
-4988.186448432187
 30
0.0
 11
-0.01324600816490777
 21
0.1415488416028186
 31
-7.891868558057538E-18
210
-5.172084878144046E-18
220
5.526967929193044E-17
230
1.0
 40
0.3284334526200731
 41
1.936727186806237
 42
2.86402240480802
  0
ELLIPSE
  5
12E14C
330
18
100
AcDbEntity
  8
姿図
100
AcDbEllipse
 10
9556.181508008689
 20
-4987.807316502906
 30
0.0
 11
0.03310067962663127
 21
0.04624056676641723
 31
3.156747423222840E-18
210
-3.231153159914879E-17
220
-4.513815278383456E-17
230
1.0
 40
0.9083744652357183
 41
0.6674062465667715
 42
1.199235524511626
  0
ELLIPSE
  5
12E14D
330
18
100
AcDbEntity
  8
姿図
100
AcDbEllipse
 10
9556.331857630285
 20
-4988.189413645367
 30
0.0
 11
0.07482858997925201
 21
-0.1353651220991864
 31
8.585950183673096E-18
210
-2.685589719099226E-17
220
4.858239081278762E-17
230
1.0
 40
0.1762382375576921
 41
4.358020013766092
 42
4.80466361244018
  0
LINE
  5
12E14E
330
18
100
AcDbEntity
  8
姿図
100
AcDbLine
 10
9558.031145987574
 20
-4988.34491542357
 30
0.0
 11
9557.853868884486
 21
-4987.968227933607
 31
0.0
  0
LINE
  5
12E14F
330
18
100
AcDbEntity
  8
姿図
100
AcDbLine
 10
9558.031145987574
 20
-4989.443499688365
 30
0.0
 11
9557.853868884486
 21
-4989.066812198398
 31
0.0
  0
LINE
  5
12E150
330
18
100
AcDbEntity
  8
姿図
100
AcDbLine
 10
9558.031145987574
 20
-4988.894207555969
 30
0.0
 11
9557.853868884486
 21
-4988.517520066003
 31
0.0
  0
ELLIPSE
  5
12E151
330
18
100
AcDbEntity
  8
姿図
100
AcDbEllipse
 10
9557.902398420416
 20
-4988.489900322182
 30
0.0
 11
0.03310067962663127
 21
0.04624056676641723
 31
3.156747423222840E-18
210
-3.231153159914879E-17
220
-4.513815278383456E-17
230
1.0
 40
0.9083744652357183
 41
0.6674062465671117
 42
2.671810903782999
  0
ELLIPSE
  5
12E152
330
18
100
AcDbEntity
  8
姿図
100
AcDbEllipse
 10
9557.902398420416
 20
-4989.039192454578
 30
0.0
 11
0.03310067962663127
 21
0.04624056676641723
 31
3.156747423222840E-18
210
-3.231153159914879E-17
220
-4.513815278383456E-17
230
1.0
 40
0.9083744652357183
 41
0.6674062465671138
 42
2.671810903782835
  0
ELLIPSE
  5
12E153
330
18
100
AcDbEntity
  8
姿図
100
AcDbEllipse
 10
9557.902398420416
 20
-4987.940608189783
 30
0.0
 11
0.03310067962663127
 21
0.04624056676641723
 31
3.156747423222840E-18
210
-3.231153159914879E-17
220
-4.513815278383456E-17
230
1.0
 40
0.9083744652357183
 41
0.6674062465672714
 42
2.671810903782924
  0
LINE
  5
12E154
330
18
100
AcDbEntity
  8
姿図
100
AcDbLine
 10
9557.266612282285
 20
-4988.114266534142
 30
0.0
 11
9557.431734720569
 21
-4988.465127168304
 31
0.0
  0
LINE
  5
12E155
330
18
100
AcDbEntity
  8
姿図
100
AcDbLine
 10
9557.27586753272
 20
-4988.565307457758
 30
0.0
 11
9557.27839746522
 21
-4988.688600433403
 31
0.0
  0
LINE
  5
12E156
330
18
100
AcDbEntity
  8
姿図
100
AcDbLine
 10
9557.383205184635
 20
-4988.547676125368
 30
0.0
 11
9557.302987153409
 21
-4988.555182853677
 31
0.0
  0
LINE
  5
12E157
330
18
100
AcDbEntity
  8
姿図
100
AcDbLine
 10
9557.264799811928
 20
-4988.025938745168
 30
0.0
 11
9557.266612280451
 21
-4988.114266534352
 31
0.0
  0
LINE
  5
12E158
330
18
100
AcDbEntity
  8
姿図
100
AcDbLine
 10
9557.383205184635
 20
-4987.998383992972
 30
0.0
 11
9557.302987153409
 21
-4988.005890721282
 31
0.0
  0
LINE
  5
12E159
330
18
100
AcDbEntity
  8
姿図
100
AcDbLine
 10
9557.278397467508
 20
-4988.688600433138
 30
0.0
 11
9557.4049971567
 21
-4988.957605952309
 31
0.0
  0
ELLIPSE
  5
12E15A
330
18
100
AcDbEntity
  8
姿図
100
AcDbEllipse
 10
9557.302987153409
 20
-4988.61011206692
 30
0.0
 11
0.03310067962662729
 21
0.04624056676642016
 31
3.156747423222843E-18
210
-3.231153159914464E-17
220
-4.513815278383751E-17
230
1.0
 40
0.9083744652357179
 41
0.6674062465669202
 42
1.199235524648299
  0
ELLIPSE
  5
12E15B
330
18
100
AcDbEntity
  8
姿図
100
AcDbEllipse
 10
9557.383205184633
 20
-4988.492746912128
 30
0.0
 11
0.03310067962662899
 21
0.04624056676641338
 31
6.313494846445178E-18
210
-6.462306319829825E-17
220
-9.027630556766848E-17
230
1.0
 40
0.9083744652357175
 41
3.808998900156816
 42
5.813403557372785
  0
ELLIPSE
  5
12E15C
330
18
100
AcDbEntity
  8
姿図
100
AcDbEllipse
 10
9557.38834425381
 20
-4988.920037482058
 30
0.0
 11
-0.01324600816490777
 21
0.1415488416028186
 31
-7.891868558057538E-18
210
-5.172084878144046E-18
220
5.526967929193044E-17
230
1.0
 40
0.3284334526200731
 41
2.864022404808038
 42
3.791317622809779
  0
ELLIPSE
  5
12E15D
330
18
100
AcDbEntity
  8
姿図
100
AcDbEllipse
 10
9557.356657538392
 20
-4988.923002695237
 30
0.0
 11
0.07482858997925201
 21
-0.1353651220991864
 31
8.585950183673096E-18
210
-2.685589719099226E-17
220
4.858239081278762E-17
230
1.0
 40
0.1762382375576921
 41
0.7697837615025532
 42
1.216427360176595
  0
ELLIPSE
  5
12E15E
330
18
100
AcDbEntity
  8
姿図
100
AcDbEllipse
 10
9540.627785557092
 20
-4954.098615861113
 30
0.0
 11
-16.90397109709704
 21
34.56738476522219
 31
-1.068012163356273E-15
210
-1.219306866792505E-17
220
2.493393378939953E-17
230
1.0
 40
0.0898112888334005
 41
3.072805797846053
 42
3.087159186167753
  0
ELLIPSE
  5
12E15F
330
18
100
AcDbEntity
  8
姿図
100
AcDbEllipse
 10
9557.302987153409
 20
-4988.060819934517
 30
0.0
 11
0.03310067962662729
 21
0.04624056676642016
 31
3.156747423222843E-18
210
-3.231153159914464E-17
220
-4.513815278383751E-17
230
1.0
 40
0.9083744652357179
 41
0.6674062465669227
 42
1.462696070731774
  0
ELLIPSE
  5
12E160
330
18
100
AcDbEntity
  8
姿図
100
AcDbEllipse
 10
9557.383205184633
 20
-4987.943454779729
 30
0.0
 11
0.03310067962662899
 21
0.04624056676641338
 31
6.313494846445178E-18
210
-6.462306319829825E-17
220
-9.027630556766848E-17
230
1.0
 40
0.9083744652357175
 41
3.808998900157097
 42
5.813403557372832
  0
ELLIPSE
  5
12E161
330
18
100
AcDbEntity
  8
姿図
100
AcDbEllipse
 10
9540.627277704109
 20
-4953.548244616622
 30
0.0
 11
-16.89223248890911
 21
34.54338016988132
 31
2.134541009419397E-15
210
2.438613733585006E-17
220
-4.986786757879896E-17
230
1.0
 40
0.0898112888334004
 41
3.072872848347417
 42
3.080408125087992
  0
LINE
  5
12E162
330
18
100
AcDbEntity
  8
姿図
100
AcDbLine
 10
9557.902398420416
 20
-4988.43497110894
 30
0.0
 11
9557.982616451642
 21
-4988.42746438063
 31
0.0
  0
LINE
  5
12E163
330
18
100
AcDbEntity
  8
姿図
100
AcDbLine
 10
9557.902398420416
 20
-4987.885678976543
 30
0.0
 11
9557.982616451642
 21
-4987.878172248234
 31
0.0
  0
LINE
  5
12E164
330
18
100
AcDbEntity
  8
姿図
100
AcDbLine
 10
9557.902398420416
 20
-4988.984263241335
 30
0.0
 11
9557.982616451642
 21
-4988.976756513026
 31
0.0
  0
ELLIPSE
  5
12E165
330
18
100
AcDbEntity
  8
姿図
100
AcDbEllipse
 10
9557.98261645164
 20
-4988.372535167394
 30
0.0
 11
0.0331006796266243
 21
0.0462405667664167
 31
0.0
210
0.0
220
0.0
230
1.0
 40
0.9083744652357186
 41
3.808998900156633
 42
5.813403557372653
  0
ELLIPSE
  5
12E166
330
18
100
AcDbEntity
  8
姿図
100
AcDbEllipse
 10
9557.98261645164
 20
-4988.921827299789
 30
0.0
 11
0.0331006796266243
 21
0.0462405667664167
 31
0.0
210
0.0
220
0.0
230
1.0
 40
0.9083744652357186
 41
3.808998900156507
 42
5.813403557372811
  0
ELLIPSE
  5
12E167
330
18
100
AcDbEntity
  8
姿図
100
AcDbEllipse
 10
9557.98261645164
 20
-4989.471119432184
 30
0.0
 11
0.03310067962662644
 21
0.04624056676641969
 31
-6.313494846445589E-18
210
6.462306319828894E-17
220
9.027630556767524E-17
230
1.0
 40
0.9083744652357181
 41
5.379795226951762
 42
5.813403557372785
  0
ELLIPSE
  5
12E168
330
18
100
AcDbEntity
  8
姿図
100
AcDbEllipse
 10
9557.98261645164
 20
-4987.823243034998
 30
0.0
 11
0.0331006796266243
 21
0.0462405667664167
 31
0.0
210
0.0
220
0.0
230
1.0
 40
0.9083744652357186
 41
3.808998900156414
 42
5.813403557372719
  0
LINE
  5
12E169
330
18
100
AcDbEntity
  8
姿図
100
AcDbLine
 10
9556.310255575845
 20
-4983.817286677515
 30
0.0
 11
9556.132978472755
 21
-4983.440599187552
 31
0.0
  0
LINE
  5
12E16A
330
18
100
AcDbEntity
  8
姿図
100
AcDbLine
 10
9556.310255575845
 20
-4982.169410280329
 30
0.0
 11
9556.132978472755
 21
-4981.792722790362
 31
0.0
  0
LINE
  5
12E16B
330
18
100
AcDbEntity
  8
姿図
100
AcDbLine
 10
9556.310255575845
 20
-4982.718702412725
 30
0.0
 11
9556.132978472755
 21
-4982.342014922759
 31
0.0
  0
LINE
  5
12E16C
330
18
100
AcDbEntity
  8
姿図
100
AcDbLine
 10
9556.310255575845
 20
-4983.26799454512
 30
0.0
 11
9556.132978472755
 21
-4982.891307055153
 31
0.0
  0
LINE
  5
12E16D
330
18
100
AcDbEntity
  8
姿図
100
AcDbLine
 10
9556.310255575845
 20
-4987.113039471898
 30
0.0
 11
9556.133347879282
 21
-4986.737136915889
 31
0.0
  0
LINE
  5
12E16E
330
18
100
AcDbEntity
  8
姿図
100
AcDbLine
 10
9556.310255575845
 20
-4985.465163074708
 30
0.0
 11
9556.132978472755
 21
-4985.088475584742
 31
0.0
  0
LINE
  5
12E16F
330
18
100
AcDbEntity
  8
姿図
100
AcDbLine
 10
9556.310255575845
 20
-4986.014455207104
 30
0.0
 11
9556.132978472755
 21
-4985.637767717141
 31
0.0
  0
LINE
  5
12E170
330
18
100
AcDbEntity
  8
姿図
100
AcDbLine
 10
9556.310255575845
 20
-4986.563747339503
 30
0.0
 11
9556.132978472755
 21
-4986.187059849537
 31
0.0
  0
LINE
  5
12E171
330
18
100
AcDbEntity
  8
姿図
100
AcDbLine
 10
9556.310255575845
 20
-4984.915870942314
 30
0.0
 11
9556.132978472755
 21
-4984.539183452347
 31
0.0
  0
LINE
  5
12E172
330
18
100
AcDbEntity
  8
姿図
100
AcDbLine
 10
9556.310255575845
 20
-4984.366578809914
 30
0.0
 11
9556.132978472755
 21
-4983.989891319952
 31
0.0
  0
ELLIPSE
  5
12E173
330
18
100
AcDbEntity
  8
姿図
100
AcDbEllipse
 10
9556.181508008689
 20
-4986.708732238115
 30
0.0
 11
0.03310067962663127
 21
0.04624056676641723
 31
3.156747423222840E-18
210
-3.231153159914879E-17
220
-4.513815278383456E-17
230
1.0
 40
0.9083744652357183
 41
0.6674062465669873
 42
1.830516517602442
  0
ELLIPSE
  5
12E174
330
18
100
AcDbEntity
  8
姿図
100
AcDbEllipse
 10
9556.181508008689
 20
-4987.258024370511
 30
0.0
 11
0.03310067962663127
 21
0.04624056676641723
 31
3.156747423222840E-18
210
-3.231153159914879E-17
220
-4.513815278383456E-17
230
1.0
 40
0.9083744652357183
 41
0.6674062465667715
 42
1.46269607064669
  0
ELLIPSE
  5
12E175
330
18
100
AcDbEntity
  8
姿図
100
AcDbEllipse
 10
9556.181508008689
 20
-4983.412979443735
 30
0.0
 11
0.03310067962663127
 21
0.04624056676641723
 31
3.156747423222840E-18
210
-3.231153159914879E-17
220
-4.513815278383456E-17
230
1.0
 40
0.9083744652357183
 41
0.6674062465669873
 42
2.671810903782851
  0
ELLIPSE
  5
12E176
330
18
100
AcDbEntity
  8
姿図
100
AcDbEllipse
 10
9556.181508008689
 20
-4985.060855840922
 30
0.0
 11
0.03310067962663127
 21
0.04624056676641723
 31
3.156747423222840E-18
210
-3.231153159914879E-17
220
-4.513815278383456E-17
230
1.0
 40
0.9083744652357183
 41
0.6674062465668904
 42
2.671810903783141
  0
ELLIPSE
  5
12E177
330
18
100
AcDbEntity
  8
姿図
100
AcDbEllipse
 10
9556.181508008689
 20
-4985.610147973317
 30
0.0
 11
0.03310067962663127
 21
0.04624056676641723
 31
3.156747423222840E-18
210
-3.231153159914879E-17
220
-4.513815278383456E-17
230
1.0
 40
0.9083744652357183
 41
0.6674062465668275
 42
2.671810903782999
  0
ELLIPSE
  5
12E178
330
18
100
AcDbEntity
  8
姿図
100
AcDbEllipse
 10
9556.181508008689
 20
-4986.15944010572
 30
0.0
 11
0.03310067962663127
 21
0.04624056676641723
 31
3.156747423222840E-18
210
-3.231153159914879E-17
220
-4.513815278383456E-17
230
1.0
 40
0.9083744652357183
 41
0.6674062465667715
 42
2.671810903782776
  0
ELLIPSE
  5
12E179
330
18
100
AcDbEntity
  8
姿図
100
AcDbEllipse
 10
9556.181508008689
 20
-4983.962271576131
 30
0.0
 11
0.03310067962663127
 21
0.04624056676641723
 31
3.156747423222840E-18
210
-3.231153159914879E-17
220
-4.513815278383456E-17
230
1.0
 40
0.9083744652357183
 41
0.6674062465671117
 42
2.671810903783074
  0
ELLIPSE
  5
12E17A
330
18
100
AcDbEntity
  8
姿図
100
AcDbEllipse
 10
9556.181508008689
 20
-4984.511563708526
 30
0.0
 11
0.03310067962663127
 21
0.04624056676641723
 31
3.156747423222840E-18
210
-3.231153159914879E-17
220
-4.513815278383456E-17
230
1.0
 40
0.9083744652357183
 41
0.6674062465663877
 42
2.671810903782819
  0
ELLIPSE
  5
12E17B
330
18
100
AcDbEntity
  8
姿図
100
AcDbEllipse
 10
9556.181508008689
 20
-4981.765103046542
 30
0.0
 11
0.03310067962663127
 21
0.04624056676641723
 31
3.156747423222840E-18
210
-3.231153159914879E-17
220
-4.513815278383456E-17
230
1.0
 40
0.9083744652357183
 41
0.6674062465670556
 42
2.671810903782919
  0
ELLIPSE
  5
12E17C
330
18
100
AcDbEntity
  8
姿図
100
AcDbEllipse
 10
9556.181508008689
 20
-4982.314395178941
 30
0.0
 11
0.03310067962663127
 21
0.04624056676641723
 31
3.156747423222840E-18
210
-3.231153159914879E-17
220
-4.513815278383456E-17
230
1.0
 40
0.9083744652357183
 41
0.6674062465668229
 42
2.671810903782974
  0
ELLIPSE
  5
12E17D
330
18
100
AcDbEntity
  8
姿図
100
AcDbEllipse
 10
9556.181508008689
 20
-4982.863687311336
 30
0.0
 11
0.03310067962663127
 21
0.04624056676641723
 31
3.156747423222840E-18
210
-3.231153159914879E-17
220
-4.513815278383456E-17
230
1.0
 40
0.9083744652357183
 41
0.6674062465671117
 42
2.671810903783024
  0
LINE
  5
12E17E
330
18
100
AcDbEntity
  8
姿図
100
AcDbLine
 10
9556.133347877902
 20
-4986.737136916049
 30
0.0
 11
9556.13241239481
 21
-4986.691547890412
 31
0.0
  0
LINE
  5
12E17F
330
18
100
AcDbEntity
  8
姿図
100
AcDbLine
 10
9556.14513313573
 20
-4987.311470970342
 30
0.0
 11
9556.143320667206
 21
-4987.223143181155
 31
0.0
  0
ELLIPSE
  5
12E180
330
18
100
AcDbEntity
  8
姿図
100
AcDbEllipse
 10
9540.626769851126
 20
-4952.997873372135
 30
0.0
 11
-16.88049388072118
 21
34.51937557454037
 31
-2.133057692126255E-15
210
-2.438613733585013E-17
220
4.986786757879907E-17
230
1.0
 40
0.0898112888334005
 41
2.880054474313594
 42
2.880292129410969
  0
ELLIPSE
  5
12E181
330
18
100
AcDbEntity
  8
姿図
100
AcDbEllipse
 10
9540.627277704109
 20
-4953.548244616622
 30
0.0
 11
-16.89223248890911
 21
34.54338016988132
 31
2.134541009419397E-15
210
2.438613733585006E-17
220
-4.986786757879896E-17
230
1.0
 40
0.0898112888334004
 41
2.872823996859904
 42
2.880359273600474
  0
LINE
  5
12E182
330
18
100
AcDbEntity
  8
姿図
100
AcDbLine
 10
9556.181508008689
 20
-4983.358050230492
 30
0.0
 11
9556.261726039913
 21
-4983.350543502183
 31
0.0
  0
LINE
  5
12E183
330
18
100
AcDbEntity
  8
姿図
100
AcDbLine
 10
9556.181508008689
 20
-4983.907342362889
 30
0.0
 11
9556.261726039913
 21
-4983.899835634578
 31
0.0
  0
LINE
  5
12E184
330
18
100
AcDbEntity
  8
姿図
100
AcDbLine
 10
9556.181508008689
 20
-4982.259465965698
 30
0.0
 11
9556.261726039913
 21
-4982.251959237386
 31
0.0
  0
LINE
  5
12E185
330
18
100
AcDbEntity
  8
姿図
100
AcDbLine
 10
9556.181508008689
 20
-4982.808758098096
 30
0.0
 11
9556.261726039913
 21
-4982.801251369785
 31
0.0
  0
LINE
  5
12E186
330
18
100
AcDbEntity
  8
姿図
100
AcDbLine
 10
9556.181508008689
 20
-4986.653803024872
 30
0.0
 11
9556.261726039913
 21
-4986.646296296563
 31
0.0
  0
LINE
  5
12E187
330
18
100
AcDbEntity
  8
姿図
100
AcDbLine
 10
9556.181508008689
 20
-4987.203095157268
 30
0.0
 11
9556.261726039913
 21
-4987.195588428959
 31
0.0
  0
LINE
  5
12E188
330
18
100
AcDbEntity
  8
姿図
100
AcDbLine
 10
9556.181508008689
 20
-4985.005926627686
 30
0.0
 11
9556.261726039913
 21
-4984.998419899371
 31
0.0
  0
LINE
  5
12E189
330
18
100
AcDbEntity
  8
姿図
100
AcDbLine
 10
9556.181508008689
 20
-4985.555218760082
 30
0.0
 11
9556.261726039913
 21
-4985.547712031768
 31
0.0
  0
LINE
  5
12E18A
330
18
100
AcDbEntity
  8
姿図
100
AcDbLine
 10
9556.181508008689
 20
-4986.104510892477
 30
0.0
 11
9556.261726039913
 21
-4986.097004164168
 31
0.0
  0
LINE
  5
12E18B
330
18
100
AcDbEntity
  8
姿図
100
AcDbLine
 10
9556.237013538645
 20
-4985.550024604518
 30
0.0
 11
9556.245294069196
 21
-4985.855462830469
 31
0.0
  0
LINE
  5
12E18C
330
18
100
AcDbEntity
  8
姿図
100
AcDbLine
 10
9556.181508008689
 20
-4984.456634495287
 30
0.0
 11
9556.261726039913
 21
-4984.449127766975
 31
0.0
  0
ELLIPSE
  5
12E18D
330
18
100
AcDbEntity
  8
姿図
100
AcDbEllipse
 10
9556.261726039913
 20
-4986.591367083327
 30
0.0
 11
0.0331006796266243
 21
0.0462405667664167
 31
0.0
210
0.0
220
0.0
230
1.0
 40
0.9083744652357186
 41
3.808998900156664
 42
5.813403557372635
  0
ELLIPSE
  5
12E18E
330
18
100
AcDbEntity
  8
姿図
100
AcDbEllipse
 10
9556.261726039913
 20
-4987.140659215723
 30
0.0
 11
0.0331006796266243
 21
0.0462405667664167
 31
0.0
210
0.0
220
0.0
230
1.0
 40
0.9083744652357186
 41
3.808998900156701
 42
5.813403557372721
  0
ELLIPSE
  5
12E18F
330
18
100
AcDbEntity
  8
姿図
100
AcDbEllipse
 10
9556.261726039913
 20
-4983.295614288943
 30
0.0
 11
0.03310067962662542
 21
0.04624056676641824
 31
0.0
210
0.0
220
0.0
230
1.0
 40
0.9083744652357184
 41
3.808998900156944
 42
5.813403557372685
  0
ELLIPSE
  5
12E190
330
18
100
AcDbEntity
  8
姿図
100
AcDbEllipse
 10
9556.261726039913
 20
-4984.943490686133
 30
0.0
 11
0.03310067962662542
 21
0.04624056676641824
 31
0.0
210
0.0
220
0.0
230
1.0
 40
0.9083744652357184
 41
3.808998900156665
 42
5.813403557372685
  0
ELLIPSE
  5
12E191
330
18
100
AcDbEntity
  8
姿図
100
AcDbEllipse
 10
9539.896461023814
 20
-4985.418254777562
 30
0.0
 11
-16.33657804185923
 21
-3.096934598376082E-13
 31
-9.068622542828936E-16
210
-5.551115123125783E-17
220
-1.052328121613186E-30
230
1.0
 40
0.258819045102515
 41
3.173482583937681
 42
3.237425862011138
  0
ELLIPSE
  5
12E192
330
18
100
AcDbEntity
  8
姿図
100
AcDbEllipse
 10
9539.896461023814
 20
-4985.885153090099
 30
0.0
 11
-16.34923549676945
 21
-3.112947552725801E-13
 31
-9.075648841766178E-16
210
-5.551115123125783E-17
220
-1.056950353479716E-30
230
1.0
 40
0.258819045102515
 41
3.048817195001321
 42
3.090682397459626
  0
ELLIPSE
  5
12E193
330
18
100
AcDbEntity
  8
姿図
100
AcDbEllipse
 10
9539.896461023814
 20
-4985.885153090099
 30
0.0
 11
-16.34923549676945
 21
-3.112947552725801E-13
 31
-9.075648841766178E-16
210
-5.551115123125783E-17
220
-1.056950353479716E-30
230
1.0
 40
0.258819045102515
 41
3.143468445217585
 42
3.219953961483735
  0
ELLIPSE
  5
12E194
330
18
100
AcDbEntity
  8
姿図
100
AcDbEllipse
 10
9556.530454377782
 20
-4986.60656398758
 30
0.0
 11
-0.01942166265001118
 21
-0.2837386263060998
 31
1.578751282616195E-17
210
3.790819955422916E-18
220
5.538156367497356E-17
230
1.0
 40
0.163803715364946
 41
3.940366134145706
 42
4.140498290499586
  0
ELLIPSE
  5
12E195
330
18
100
AcDbEntity
  8
姿図
100
AcDbEllipse
 10
9556.261726039913
 20
-4985.492782818533
 30
0.0
 11
0.03310067962662542
 21
0.04624056676641824
 31
0.0
210
0.0
220
0.0
230
1.0
 40
0.9083744652357184
 41
3.808998900156953
 42
5.813403557372611
  0
ELLIPSE
  5
12E196
330
18
100
AcDbEntity
  8
姿図
100
AcDbEllipse
 10
9556.261726039913
 20
-4986.042074950928
 30
0.0
 11
0.03310067962662542
 21
0.04624056676641824
 31
0.0
210
0.0
220
0.0
230
1.0
 40
0.9083744652357184
 41
3.808998900157146
 42
5.813403557372803
  0
ELLIPSE
  5
12E197
330
18
100
AcDbEntity
  8
姿図
100
AcDbEllipse
 10
9556.261726039913
 20
-4983.844906421339
 30
0.0
 11
0.03310067962662542
 21
0.04624056676641824
 31
0.0
210
0.0
220
0.0
230
1.0
 40
0.9083744652357184
 41
3.808998900156944
 42
5.813403557372685
  0
ELLIPSE
  5
12E198
330
18
100
AcDbEntity
  8
姿図
100
AcDbEllipse
 10
9556.261726039913
 20
-4984.394198553735
 30
0.0
 11
0.03310067962662542
 21
0.04624056676641824
 31
0.0
210
0.0
220
0.0
230
1.0
 40
0.9083744652357184
 41
3.808998900157137
 42
5.813403557372877
  0
ELLIPSE
  5
12E199
330
18
100
AcDbEntity
  8
姿図
100
AcDbEllipse
 10
9556.261726039913
 20
-4982.19703002415
 30
0.0
 11
0.03310067962662542
 21
0.04624056676641824
 31
0.0
210
0.0
220
0.0
230
1.0
 40
0.9083744652357184
 41
3.808998900156944
 42
5.813403557372635
  0
ELLIPSE
  5
12E19A
330
18
100
AcDbEntity
  8
姿図
100
AcDbEllipse
 10
9556.261726039913
 20
-4982.746322156545
 30
0.0
 11
0.03310067962662542
 21
0.04624056676641824
 31
0.0
210
0.0
220
0.0
230
1.0
 40
0.9083744652357184
 41
3.808998900157069
 42
5.813403557372808
  0
LINE
  5
12E19B
330
18
100
AcDbEntity
  8
姿図
100
AcDbLine
 10
9558.031145987574
 20
-4983.401286231997
 30
0.0
 11
9557.853868884486
 21
-4983.024598742033
 31
0.0
  0
LINE
  5
12E19C
330
18
100
AcDbEntity
  8
姿図
100
AcDbLine
 10
9558.031145987574
 20
-4983.950578364396
 30
0.0
 11
9557.853868884486
 21
-4983.57389087443
 31
0.0
  0
LINE
  5
12E19D
330
18
100
AcDbEntity
  8
姿図
100
AcDbLine
 10
9558.031145987574
 20
-4982.302701967203
 30
0.0
 11
9557.853868884486
 21
-4981.92601447724
 31
0.0
  0
LINE
  5
12E19E
330
18
100
AcDbEntity
  8
姿図
100
AcDbLine
 10
9558.031145987574
 20
-4982.851994099598
 30
0.0
 11
9557.853868884486
 21
-4982.475306609635
 31
0.0
  0
LINE
  5
12E19F
330
18
100
AcDbEntity
  8
姿図
100
AcDbLine
 10
9558.031145987574
 20
-4986.69703902638
 30
0.0
 11
9557.853868884486
 21
-4986.320351536414
 31
0.0
  0
LINE
  5
12E1A0
330
18
100
AcDbEntity
  8
姿図
100
AcDbLine
 10
9558.031145987574
 20
-4987.246331158776
 30
0.0
 11
9557.853868884486
 21
-4986.86964366881
 31
0.0
  0
LINE
  5
12E1A1
330
18
100
AcDbEntity
  8
姿図
100
AcDbLine
 10
9558.031145987574
 20
-4985.049162629187
 30
0.0
 11
9557.853868884486
 21
-4984.67247513922
 31
0.0
  0
LINE
  5
12E1A2
330
18
100
AcDbEntity
  8
姿図
100
AcDbLine
 10
9558.031145987574
 20
-4985.598454761583
 30
0.0
 11
9557.853868884486
 21
-4985.22176727162
 31
0.0
  0
LINE
  5
12E1A3
330
18
100
AcDbEntity
  8
姿図
100
AcDbLine
 10
9558.031145987574
 20
-4986.147746893981
 30
0.0
 11
9557.853868884486
 21
-4985.771059404018
 31
0.0
  0
LINE
  5
12E1A4
330
18
100
AcDbEntity
  8
姿図
100
AcDbLine
 10
9558.031145987574
 20
-4984.499870496791
 30
0.0
 11
9557.853868884486
 21
-4984.123183006825
 31
0.0
  0
ELLIPSE
  5
12E1A5
330
18
100
AcDbEntity
  8
姿図
100
AcDbEllipse
 10
9557.902398420416
 20
-4986.842023924989
 30
0.0
 11
0.03310067962663127
 21
0.04624056676641723
 31
3.156747423222840E-18
210
-3.231153159914879E-17
220
-4.513815278383456E-17
230
1.0
 40
0.9083744652357183
 41
0.6674062465674321
 42
2.671810903783085
  0
ELLIPSE
  5
12E1A6
330
18
100
AcDbEntity
  8
姿図
100
AcDbEllipse
 10
9557.902398420416
 20
-4987.391316057388
 30
0.0
 11
0.03310067962663127
 21
0.04624056676641723
 31
3.156747423222840E-18
210
-3.231153159914879E-17
220
-4.513815278383456E-17
230
1.0
 40
0.9083744652357183
 41
0.6674062465669873
 42
2.671810903782875
  0
ELLIPSE
  5
12E1A7
330
18
100
AcDbEntity
  8
姿図
100
AcDbEllipse
 10
9557.902398420416
 20
-4985.194147527802
 30
0.0
 11
0.03310067962663127
 21
0.04624056676641723
 31
3.156747423222840E-18
210
-3.231153159914879E-17
220
-4.513815278383456E-17
230
1.0
 40
0.9083744652357183
 41
0.6674062465671117
 42
2.671810903782999
  0
ELLIPSE
  5
12E1A8
330
18
100
AcDbEntity
  8
姿図
100
AcDbEllipse
 10
9557.902398420416
 20
-4985.743439660198
 30
0.0
 11
0.03310067962663127
 21
0.04624056676641723
 31
3.156747423222840E-18
210
-3.231153159914879E-17
220
-4.513815278383456E-17
230
1.0
 40
0.9083744652357183
 41
0.6674062465669561
 42
2.671810903782844
  0
ELLIPSE
  5
12E1A9
330
18
100
AcDbEntity
  8
姿図
100
AcDbEllipse
 10
9557.902398420416
 20
-4986.292731792593
 30
0.0
 11
0.03310067962663127
 21
0.04624056676641723
 31
3.156747423222840E-18
210
-3.231153159914879E-17
220
-4.513815278383456E-17
230
1.0
 40
0.9083744652357183
 41
0.6674062465670799
 42
2.671810903782968
  0
ELLIPSE
  5
12E1AA
330
18
100
AcDbEntity
  8
姿図
100
AcDbEllipse
 10
9557.902398420416
 20
-4983.546271130608
 30
0.0
 11
0.03310067962663127
 21
0.04624056676641723
 31
3.156747423222840E-18
210
-3.231153159914879E-17
220
-4.513815278383456E-17
230
1.0
 40
0.9083744652357183
 41
0.6674062465670799
 42
2.671810903783017
  0
ELLIPSE
  5
12E1AB
330
18
100
AcDbEntity
  8
姿図
100
AcDbEllipse
 10
9557.902398420416
 20
-4984.095563263005
 30
0.0
 11
0.03310067962663127
 21
0.04624056676641723
 31
3.156747423222840E-18
210
-3.231153159914879E-17
220
-4.513815278383456E-17
230
1.0
 40
0.9083744652357183
 41
0.667406246567148
 42
2.671810903783085
  0
ELLIPSE
  5
12E1AC
330
18
100
AcDbEntity
  8
姿図
100
AcDbEllipse
 10
9557.902398420416
 20
-4984.644855395403
 30
0.0
 11
0.03310067962663127
 21
0.04624056676641723
 31
3.156747423222840E-18
210
-3.231153159914879E-17
220
-4.513815278383456E-17
230
1.0
 40
0.9083744652357183
 41
0.6674062465669873
 42
2.671810903782924
  0
ELLIPSE
  5
12E1AD
330
18
100
AcDbEntity
  8
姿図
100
AcDbEllipse
 10
9557.902398420416
 20
-4981.898394733415
 30
0.0
 11
0.03310067962664066
 21
0.04624056676643044
 31
3.156747423223735E-18
210
-3.231153159914874E-17
220
-4.513815278383449E-17
230
1.0
 40
0.9083744652357183
 41
0.6674062465670405
 42
2.671810903783109
  0
ELLIPSE
  5
12E1AE
330
18
100
AcDbEntity
  8
姿図
100
AcDbEllipse
 10
9557.902398420416
 20
-4982.447686865811
 30
0.0
 11
0.03310067962663127
 21
0.04624056676641723
 31
3.156747423222840E-18
210
-3.231153159914879E-17
220
-4.513815278383456E-17
230
1.0
 40
0.9083744652357183
 41
0.667406246567148
 42
2.671810903783036
  0
ELLIPSE
  5
12E1AF
330
18
100
AcDbEntity
  8
姿図
100
AcDbEllipse
 10
9557.902398420416
 20
-4982.996978998213
 30
0.0
 11
0.03310067962663127
 21
0.04624056676641723
 31
3.156747423222840E-18
210
-3.231153159914879E-17
220
-4.513815278383456E-17
230
1.0
 40
0.9083744652357183
 41
0.6674062465670241
 42
2.671810903782961
  0
LINE
  5
12E1B0
330
18
100
AcDbEntity
  8
姿図
100
AcDbLine
 10
9557.254457617477
 20
-4983.144810486771
 30
0.0
 11
9557.431734720569
 21
-4983.521497976732
 31
0.0
  0
LINE
  5
12E1B1
330
18
100
AcDbEntity
  8
姿図
100
AcDbLine
 10
9557.383205184635
 20
-4983.604046933795
 30
0.0
 11
9557.302987153409
 21
-4983.611553662104
 31
0.0
  0
LINE
  5
12E1B2
330
18
100
AcDbEntity
  8
姿図
100
AcDbLine
 10
9557.383205184635
 20
-4983.054754801399
 30
0.0
 11
9557.302987153409
 21
-4983.062261529708
 31
0.0
  0
LINE
  5
12E1B3
330
18
100
AcDbEntity
  8
姿図
100
AcDbLine
 10
9557.254457617477
 20
-4982.595518354372
 30
0.0
 11
9557.431734720569
 21
-4982.972205844336
 31
0.0
  0
LINE
  5
12E1B4
330
18
100
AcDbEntity
  8
姿図
100
AcDbLine
 10
9557.383205184635
 20
-4982.505462669001
 30
0.0
 11
9557.302987153409
 21
-4982.512969397312
 31
0.0
  0
LINE
  5
12E1B5
330
18
100
AcDbEntity
  8
姿図
100
AcDbLine
 10
9557.254457617477
 20
-4982.046226221973
 30
0.0
 11
9557.431734720569
 21
-4982.42291371194
 31
0.0
  0
LINE
  5
12E1B6
330
18
100
AcDbEntity
  8
姿図
100
AcDbLine
 10
9557.383205184635
 20
-4981.956170536605
 30
0.0
 11
9557.302987153409
 21
-4981.963677264914
 31
0.0
  0
LINE
  5
12E1B7
330
18
100
AcDbEntity
  8
姿図
100
AcDbLine
 10
9557.254457617477
 20
-4986.440563281152
 30
0.0
 11
9557.431734720569
 21
-4986.817250771115
 31
0.0
  0
LINE
  5
12E1B8
330
18
100
AcDbEntity
  8
姿図
100
AcDbLine
 10
9557.253891539533
 20
-4987.494343454422
 30
0.0
 11
9557.254827022622
 21
-4987.539932480059
 31
0.0
  0
LINE
  5
12E1B9
330
18
100
AcDbEntity
  8
姿図
100
AcDbLine
 10
9557.383205184635
 20
-4987.449091860571
 30
0.0
 11
9557.302987153409
 21
-4987.456598588886
 31
0.0
  0
LINE
  5
12E1BA
330
18
100
AcDbEntity
  8
姿図
100
AcDbLine
 10
9557.254457617477
 20
-4986.989855413547
 30
0.0
 11
9557.431734720569
 21
-4987.366542903514
 31
0.0
  0
LINE
  5
12E1BB
330
18
100
AcDbEntity
  8
姿図
100
AcDbLine
 10
9557.383205184635
 20
-4986.899799728175
 30
0.0
 11
9557.302987153409
 21
-4986.907306456487
 31
0.0
  0
LINE
  5
12E1BC
330
18
100
AcDbEntity
  8
姿図
100
AcDbLine
 10
9557.254457617477
 20
-4984.792686883959
 30
0.0
 11
9557.431734720569
 21
-4985.169374373925
 31
0.0
  0
LINE
  5
12E1BD
330
18
100
AcDbEntity
  8
姿図
100
AcDbLine
 10
9557.383205184635
 20
-4986.350507595778
 30
0.0
 11
9557.302987153409
 21
-4986.358014324089
 31
0.0
  0
LINE
  5
12E1BE
330
18
100
AcDbEntity
  8
姿図
100
AcDbLine
 10
9557.254457617477
 20
-4985.891271148753
 30
0.0
 11
9557.431734720569
 21
-4986.267958638715
 31
0.0
  0
LINE
  5
12E1BF
330
18
100
AcDbEntity
  8
姿図
100
AcDbLine
 10
9557.383205184635
 20
-4985.801215463383
 30
0.0
 11
9557.302987153409
 21
-4985.808722191692
 31
0.0
  0
LINE
  5
12E1C0
330
18
100
AcDbEntity
  8
姿図
100
AcDbLine
 10
9557.254457617477
 20
-4985.341979016357
 30
0.0
 11
9557.431734720569
 21
-4985.71866650632
 31
0.0
  0
LINE
  5
12E1C1
330
18
100
AcDbEntity
  8
姿図
100
AcDbLine
 10
9557.383205184635
 20
-4985.251923330989
 30
0.0
 11
9557.302987153409
 21
-4985.259430059296
 31
0.0
  0
LINE
  5
12E1C2
330
18
100
AcDbEntity
  8
姿図
100
AcDbLine
 10
9557.383205184635
 20
-4984.702631198589
 30
0.0
 11
9557.302987153409
 21
-4984.710137926898
 31
0.0
  0
LINE
  5
12E1C3
330
18
100
AcDbEntity
  8
姿図
100
AcDbLine
 10
9557.254457617477
 20
-4984.243394751562
 30
0.0
 11
9557.431734720569
 21
-4984.620082241529
 31
0.0
  0
LINE
  5
12E1C4
330
18
100
AcDbEntity
  8
姿図
100
AcDbLine
 10
9557.383205184635
 20
-4984.15333906619
 30
0.0
 11
9557.302987153409
 21
-4984.160845794502
 31
0.0
  0
LINE
  5
12E1C5
330
18
100
AcDbEntity
  8
姿図
100
AcDbLine
 10
9557.254457617477
 20
-4983.694102619167
 30
0.0
 11
9557.431734720569
 21
-4984.07079010913
 31
0.0
  0
ELLIPSE
  5
12E1C6
330
18
100
AcDbEntity
  8
姿図
100
AcDbEllipse
 10
9557.302987153409
 20
-4987.511527802122
 30
0.0
 11
0.03310067962662729
 21
0.04624056676642016
 31
3.156747423222843E-18
210
-3.231153159914464E-17
220
-4.513815278383751E-17
230
1.0
 40
0.9083744652357179
 41
0.6674062465666386
 42
1.830516517601721
  0
ELLIPSE
  5
12E1C7
330
18
100
AcDbEntity
  8
姿図
100
AcDbEllipse
 10
9557.383205184633
 20
-4987.394162647333
 30
0.0
 11
0.03310067962662899
 21
0.04624056676641338
 31
6.313494846445178E-18
210
-6.462306319829825E-17
220
-9.027630556766848E-17
230
1.0
 40
0.9083744652357175
 41
3.808998900156779
 42
5.813403557372749
  0
ELLIPSE
  5
12E1C8
330
18
100
AcDbEntity
  8
姿図
100
AcDbEllipse
 10
9557.302987153409
 20
-4986.962235669726
 30
0.0
 11
0.03310067962662729
 21
0.04624056676642016
 31
3.156747423222843E-18
210
-3.231153159914464E-17
220
-4.513815278383751E-17
230
1.0
 40
0.9083744652357179
 41
0.6674062465669787
 42
2.671810903782915
  0
ELLIPSE
  5
12E1C9
330
18
100
AcDbEntity
  8
姿図
100
AcDbEllipse
 10
9557.383205184633
 20
-4986.844870514935
 30
0.0
 11
0.03310067962663003
 21
0.0462405667664149
 31
-3.156747423222693E-18
210
3.231153159914905E-17
220
4.513815278383433E-17
230
1.0
 40
0.9083744652357173
 41
3.80899890015719
 42
5.813403557373379
  0
ELLIPSE
  5
12E1CA
330
18
100
AcDbEntity
  8
姿図
100
AcDbEllipse
 10
9540.626769851126
 20
-4952.997873372135
 30
0.0
 11
-16.88049388072118
 21
34.51937557454037
 31
-2.133057692126255E-15
210
-2.438613733585013E-17
220
4.986786757879907E-17
230
1.0
 40
0.0898112888334005
 41
3.072939992536941
 42
3.073177647634316
  0
ELLIPSE
  5
12E1CB
330
18
100
AcDbEntity
  8
姿図
100
AcDbEllipse
 10
9557.302987153409
 20
-4986.412943537331
 30
0.0
 11
0.03310067962662729
 21
0.04624056676642016
 31
3.156747423222843E-18
210
-3.231153159914464E-17
220
-4.513815278383751E-17
230
1.0
 40
0.9083744652357179
 41
0.6674062465666698
 42
2.671810903782841
  0
ELLIPSE
  5
12E1CC
330
18
100
AcDbEntity
  8
姿図
100
AcDbEllipse
 10
9557.383205184633
 20
-4986.295578382539
 30
0.0
 11
0.03310067962663003
 21
0.0462405667664149
 31
-3.156747423222693E-18
210
3.231153159914905E-17
220
4.513815278383433E-17
230
1.0
 40
0.9083744652357173
 41
3.808998900156782
 42
5.813403557372797
  0
ELLIPSE
  5
12E1CD
330
18
100
AcDbEntity
  8
姿図
100
AcDbEllipse
 10
9557.302987153409
 20
-4985.863651404936
 30
0.0
 11
0.03310067962662729
 21
0.04624056676642016
 31
3.156747423222843E-18
210
-3.231153159914464E-17
220
-4.513815278383751E-17
230
1.0
 40
0.9083744652357179
 41
0.6674062465669538
 42
2.671810903782891
  0
ELLIPSE
  5
12E1CE
330
18
100
AcDbEntity
  8
姿図
100
AcDbEllipse
 10
9557.383205184633
 20
-4985.746286250143
 30
0.0
 11
0.03310067962663003
 21
0.0462405667664149
 31
-3.156747423222693E-18
210
3.231153159914905E-17
220
4.513815278383433E-17
230
1.0
 40
0.9083744652357173
 41
3.808998900157067
 42
5.813403557373014
  0
ELLIPSE
  5
12E1CF
330
18
100
AcDbEntity
  8
姿図
100
AcDbEllipse
 10
9557.302987153409
 20
-4985.314359272536
 30
0.0
 11
0.03310067962662729
 21
0.04624056676642016
 31
3.156747423222843E-18
210
-3.231153159914464E-17
220
-4.513815278383751E-17
230
1.0
 40
0.9083744652357179
 41
0.6674062465669787
 42
2.671810903782915
  0
ELLIPSE
  5
12E1D0
330
18
100
AcDbEntity
  8
姿図
100
AcDbEllipse
 10
9557.383205184633
 20
-4985.196994117745
 30
0.0
 11
0.03310067962663003
 21
0.0462405667664149
 31
-3.156747423222693E-18
210
3.231153159914905E-17
220
4.513815278383433E-17
230
1.0
 40
0.9083744652357173
 41
3.808998900156782
 42
5.813403557372797
  0
ELLIPSE
  5
12E1D1
330
18
100
AcDbEntity
  8
姿図
100
AcDbEllipse
 10
9557.302987153409
 20
-4984.765067140141
 30
0.0
 11
0.03310067962662729
 21
0.04624056676642016
 31
3.156747423222843E-18
210
-3.231153159914464E-17
220
-4.513815278383751E-17
230
1.0
 40
0.9083744652357179
 41
0.6674062465668864
 42
2.671810903783139
  0
ELLIPSE
  5
12E1D2
330
18
100
AcDbEntity
  8
姿図
100
AcDbEllipse
 10
9557.383205184633
 20
-4984.64770198535
 30
0.0
 11
0.03310067962663003
 21
0.0462405667664149
 31
-3.156747423222693E-18
210
3.231153159914905E-17
220
4.513815278383433E-17
230
1.0
 40
0.9083744652357173
 41
3.808998900157258
 42
5.81340355737299
  0
ELLIPSE
  5
12E1D3
330
18
100
AcDbEntity
  8
姿図
100
AcDbEllipse
 10
9557.302987153409
 20
-4984.215775007742
 30
0.0
 11
0.03310067962662729
 21
0.04624056676642016
 31
3.156747423222843E-18
210
-3.231153159914464E-17
220
-4.513815278383751E-17
230
1.0
 40
0.9083744652357179
 41
0.6674062465670783
 42
2.671810903783331
  0
ELLIPSE
  5
12E1D4
330
18
100
AcDbEntity
  8
姿図
100
AcDbEllipse
 10
9557.383205184633
 20
-4984.098409852953
 30
0.0
 11
0.03310067962663003
 21
0.0462405667664149
 31
-3.156747423222693E-18
210
3.231153159914905E-17
220
4.513815278383433E-17
230
1.0
 40
0.9083744652357173
 41
3.808998900157067
 42
5.813403557372797
  0
ELLIPSE
  5
12E1D5
330
18
100
AcDbEntity
  8
姿図
100
AcDbEllipse
 10
9557.302987153409
 20
-4983.666482875347
 30
0.0
 11
0.03310067962662729
 21
0.04624056676642016
 31
3.156747423222843E-18
210
-3.231153159914464E-17
220
-4.513815278383751E-17
230
1.0
 40
0.9083744652357179
 41
0.6674062465670099
 42
2.671810903783262
  0
ELLIPSE
  5
12E1D6
330
18
100
AcDbEntity
  8
姿図
100
AcDbEllipse
 10
9557.383205184633
 20
-4983.549117720558
 30
0.0
 11
0.03310067962663003
 21
0.0462405667664149
 31
-3.156747423222693E-18
210
3.231153159914905E-17
220
4.513815278383433E-17
230
1.0
 40
0.9083744652357173
 41
3.808998900156622
 42
5.81340355737292
  0
ELLIPSE
  5
12E1D7
330
18
100
AcDbEntity
  8
姿図
100
AcDbEllipse
 10
9557.302987153409
 20
-4983.117190742947
 30
0.0
 11
0.03310067962662729
 21
0.04624056676642016
 31
3.156747423222843E-18
210
-3.231153159914464E-17
220
-4.513815278383751E-17
230
1.0
 40
0.9083744652357179
 41
0.6674062465666947
 42
2.671810903783231
  0
ELLIPSE
  5
12E1D8
330
18
100
AcDbEntity
  8
姿図
100
AcDbEllipse
 10
9557.383205184633
 20
-4982.999825588156
 30
0.0
 11
0.03310067962663003
 21
0.0462405667664149
 31
-3.156747423222693E-18
210
3.231153159914905E-17
220
4.513815278383433E-17
230
1.0
 40
0.9083744652357173
 41
3.808998900156782
 42
5.813403557372797
  0
ELLIPSE
  5
12E1D9
330
18
100
AcDbEntity
  8
姿図
100
AcDbEllipse
 10
9557.302987153409
 20
-4982.567898610552
 30
0.0
 11
0.03310067962662729
 21
0.04624056676642016
 31
3.156747423222843E-18
210
-3.231153159914464E-17
220
-4.513815278383751E-17
230
1.0
 40
0.9083744652357179
 41
0.6674062465668553
 42
2.671810903783083
  0
ELLIPSE
  5
12E1DA
330
18
100
AcDbEntity
  8
姿図
100
AcDbEllipse
 10
9557.383205184633
 20
-4982.450533455761
 30
0.0
 11
0.03310067962663003
 21
0.0462405667664149
 31
-3.156747423222693E-18
210
3.231153159914905E-17
220
4.513815278383433E-17
230
1.0
 40
0.9083744652357173
 41
3.808998900156777
 42
5.813403557372797
  0
ELLIPSE
  5
12E1DB
330
18
100
AcDbEntity
  8
姿図
100
AcDbEllipse
 10
9557.302987153409
 20
-4982.018606478154
 30
0.0
 11
0.03310067962662729
 21
0.04624056676642016
 31
3.156747423222843E-18
210
-3.231153159914464E-17
220
-4.513815278383751E-17
230
1.0
 40
0.9083744652357179
 41
0.6674062465666901
 42
2.671810903782891
  0
ELLIPSE
  5
12E1DC
330
18
100
AcDbEntity
  8
姿図
100
AcDbEllipse
 10
9557.383205184633
 20
-4981.901241323365
 30
0.0
 11
0.03310067962663108
 21
0.04624056676641634
 31
3.156747423222771E-18
210
-3.231153159914885E-17
220
-4.513815278383400E-17
230
1.0
 40
0.9083744652357181
 41
3.808998900156912
 42
5.813403557372872
  0
LINE
  5
12E1DD
330
18
100
AcDbEntity
  8
姿図
100
AcDbLine
 10
9557.902398420416
 20
-4983.491341917369
 30
0.0
 11
9557.982616451642
 21
-4983.483835189057
 31
0.0
  0
LINE
  5
12E1DE
330
18
100
AcDbEntity
  8
姿図
100
AcDbLine
 10
9557.902398420416
 20
-4981.84346552018
 30
0.0
 11
9557.982616451642
 21
-4981.835958791867
 31
0.0
  0
LINE
  5
12E1DF
330
18
100
AcDbEntity
  8
姿図
100
AcDbLine
 10
9557.902398420416
 20
-4982.392757652575
 30
0.0
 11
9557.982616451642
 21
-4982.385250924266
 31
0.0
  0
LINE
  5
12E1E0
330
18
100
AcDbEntity
  8
姿図
100
AcDbLine
 10
9557.902398420416
 20
-4982.942049784971
 30
0.0
 11
9557.982616451642
 21
-4982.934543056662
 31
0.0
  0
LINE
  5
12E1E1
330
18
100
AcDbEntity
  8
姿図
100
AcDbLine
 10
9557.902398420416
 20
-4986.787094711753
 30
0.0
 11
9557.982616451642
 21
-4986.779587983439
 31
0.0
  0
LINE
  5
12E1E2
330
18
100
AcDbEntity
  8
姿図
100
AcDbLine
 10
9557.902398420416
 20
-4987.336386844148
 30
0.0
 11
9557.982616451642
 21
-4987.32888011584
 31
0.0
  0
LINE
  5
12E1E3
330
18
100
AcDbEntity
  8
姿図
100
AcDbLine
 10
9557.902398420416
 20
-4985.13921831456
 30
0.0
 11
9557.982616451642
 21
-4985.13171158625
 31
0.0
  0
LINE
  5
12E1E4
330
18
100
AcDbEntity
  8
姿図
100
AcDbLine
 10
9557.902398420416
 20
-4985.688510446955
 30
0.0
 11
9557.982616451642
 21
-4985.681003718646
 31
0.0
  0
LINE
  5
12E1E5
330
18
100
AcDbEntity
  8
姿図
100
AcDbLine
 10
9557.902398420416
 20
-4986.237802579353
 30
0.0
 11
9557.982616451642
 21
-4986.230295851042
 31
0.0
  0
LINE
  5
12E1E6
330
18
100
AcDbEntity
  8
姿図
100
AcDbLine
 10
9557.902398420416
 20
-4984.040634049765
 30
0.0
 11
9557.982616451642
 21
-4984.033127321456
 31
0.0
  0
LINE
  5
12E1E7
330
18
100
AcDbEntity
  8
姿図
100
AcDbLine
 10
9557.902398420416
 20
-4984.589926182163
 30
0.0
 11
9557.982616451642
 21
-4984.582419453855
 31
0.0
  0
ELLIPSE
  5
12E1E8
330
18
100
AcDbEntity
  8
姿図
100
AcDbEllipse
 10
9557.98261645164
 20
-4986.7246587702
 30
0.0
 11
0.03310067962662542
 21
0.04624056676641824
 31
0.0
210
0.0
220
0.0
230
1.0
 40
0.9083744652357184
 41
3.808998900157078
 42
5.8134035573731
  0
ELLIPSE
  5
12E1E9
330
18
100
AcDbEntity
  8
姿図
100
AcDbEllipse
 10
9557.98261645164
 20
-4987.273950902596
 30
0.0
 11
0.03310067962662542
 21
0.04624056676641824
 31
0.0
210
0.0
220
0.0
230
1.0
 40
0.9083744652357184
 41
3.808998900156706
 42
5.813403557372963
  0
ELLIPSE
  5
12E1EA
330
18
100
AcDbEntity
  8
姿図
100
AcDbEllipse
 10
9557.98261645164
 20
-4985.076782373008
 30
0.0
 11
0.03310067962662542
 21
0.04624056676641824
 31
0.0
210
0.0
220
0.0
230
1.0
 40
0.9083744652357184
 41
3.808998900156737
 42
5.813403557372994
  0
ELLIPSE
  5
12E1EB
330
18
100
AcDbEntity
  8
姿図
100
AcDbEllipse
 10
9557.98261645164
 20
-4985.626074505403
 30
0.0
 11
0.03310067962662542
 21
0.04624056676641824
 31
0.0
210
0.0
220
0.0
230
1.0
 40
0.9083744652357184
 41
3.808998900157022
 42
5.813403557372752
  0
ELLIPSE
  5
12E1EC
330
18
100
AcDbEntity
  8
姿図
100
AcDbEllipse
 10
9557.98261645164
 20
-4986.175366637804
 30
0.0
 11
0.03310067962662542
 21
0.04624056676641824
 31
0.0
210
0.0
220
0.0
230
1.0
 40
0.9083744652357184
 41
3.808998900156638
 42
5.813403557372579
  0
ELLIPSE
  5
12E1ED
330
18
100
AcDbEntity
  8
姿図
100
AcDbEllipse
 10
9557.98261645164
 20
-4983.428905975821
 30
0.0
 11
0.03310067962662542
 21
0.04624056676641824
 31
0.0
210
0.0
220
0.0
230
1.0
 40
0.9083744652357184
 41
3.808998900156422
 42
5.813403557372648
  0
ELLIPSE
  5
12E1EE
330
18
100
AcDbEntity
  8
姿図
100
AcDbEllipse
 10
9557.98261645164
 20
-4983.978198108216
 30
0.0
 11
0.03310067962662542
 21
0.04624056676641824
 31
0.0
210
0.0
220
0.0
230
1.0
 40
0.9083744652357184
 41
3.808998900156578
 42
5.813403557372803
  0
ELLIPSE
  5
12E1EF
330
18
100
AcDbEntity
  8
姿図
100
AcDbEllipse
 10
9557.98261645164
 20
-4984.527490240611
 30
0.0
 11
0.03310067962662542
 21
0.04624056676641824
 31
0.0
210
0.0
220
0.0
230
1.0
 40
0.9083744652357184
 41
3.808998900157022
 42
5.813403557373044
  0
ELLIPSE
  5
12E1F0
330
18
100
AcDbEntity
  8
姿図
100
AcDbEllipse
 10
9557.98261645164
 20
-4981.781029578628
 30
0.0
 11
0.03310067962662644
 21
0.04624056676641969
 31
-6.313494846445589E-18
210
6.462306319828894E-17
220
9.027630556767524E-17
230
1.0
 40
0.9083744652357181
 41
3.808998900156864
 42
5.813403557372728
  0
ELLIPSE
  5
12E1F1
330
18
100
AcDbEntity
  8
姿図
100
AcDbEllipse
 10
9557.98261645164
 20
-4982.330321711026
 30
0.0
 11
0.03310067962662644
 21
0.04624056676641969
 31
-6.313494846445589E-18
210
6.462306319828894E-17
220
9.027630556767524E-17
230
1.0
 40
0.9083744652357181
 41
3.808998900156512
 42
5.813403557373049
  0
ELLIPSE
  5
12E1F2
330
18
100
AcDbEntity
  8
姿図
100
AcDbEllipse
 10
9557.98261645164
 20
-4982.879613843422
 30
0.0
 11
0.03310067962662542
 21
0.04624056676641824
 31
0.0
210
0.0
220
0.0
230
1.0
 40
0.9083744652357184
 41
3.808998900156478
 42
5.813403557372704
  0
LINE
  5
12E1F3
330
18
100
AcDbEntity
  8
姿図
100
AcDbLine
 10
9554.467228432746
 20
-4984.564552306261
 30
0.0
 11
9554.050338646715
 21
-4984.603564462399
 31
0.0
  0
ELLIPSE
  5
12E1F4
330
18
100
AcDbEntity
  8
姿図
100
AcDbEllipse
 10
9539.65636575424
 20
-4979.511364116397
 30
0.0
 11
9.833408526597633
 21
27.80045877641116
 31
0.0
210
0.0
220
0.0
230
1.0
 40
0.5306663220532383
 41
4.635006625735985
 42
4.718323401449883
  0
ELLIPSE
  5
12E1F5
330
18
100
AcDbEntity
  8
姿図
100
AcDbEllipse
 10
9540.156265865367
 20
-4977.170992988722
 30
0.0
 11
9.820493799237434
 21
27.76810889032503
 31
3.269997849935411E-15
210
-3.701743464227722E-17
220
-1.046692943349816E-16
230
1.0
 40
0.5306015190202692
 41
4.552834753258026
 42
4.631677754451532
  0
LINE
  5
12E1F6
330
18
100
AcDbEntity
  8
姿図
100
AcDbLine
 10
9555.662314772906
 20
-4983.470755246921
 30
0.0
 11
9555.58209674168
 21
-4983.47826197523
 31
0.0
  0
LINE
  5
12E1F7
330
18
100
AcDbEntity
  8
姿図
100
AcDbLine
 10
9555.662314772906
 20
-4982.921463114519
 30
0.0
 11
9555.58209674168
 21
-4982.928969842831
 31
0.0
  0
LINE
  5
12E1F8
330
18
100
AcDbEntity
  8
姿図
100
AcDbLine
 10
9555.662314772906
 20
-4982.372170982124
 30
0.0
 11
9555.58209674168
 21
-4982.379677710433
 31
0.0
  0
LINE
  5
12E1F9
330
18
100
AcDbEntity
  8
姿図
100
AcDbLine
 10
9555.662314772906
 20
-4981.822878849727
 30
0.0
 11
9555.58209674168
 21
-4981.830385578037
 31
0.0
  0
LINE
  5
12E1FA
330
18
100
AcDbEntity
  8
姿図
100
AcDbLine
 10
9555.662314772906
 20
-4987.315800173697
 30
0.0
 11
9555.58209674168
 21
-4987.323306902005
 31
0.0
  0
LINE
  5
12E1FB
330
18
100
AcDbEntity
  8
姿図
100
AcDbLine
 10
9555.662314772906
 20
-4986.766508041301
 30
0.0
 11
9555.58209674168
 21
-4986.77401476961
 31
0.0
  0
LINE
  5
12E1FC
330
18
100
AcDbEntity
  8
姿図
100
AcDbLine
 10
9555.662314772906
 20
-4986.217215908902
 30
0.0
 11
9555.58209674168
 21
-4986.224722637215
 31
0.0
  0
LINE
  5
12E1FD
330
18
100
AcDbEntity
  8
姿図
100
AcDbLine
 10
9555.662314772906
 20
-4985.667923776503
 30
0.0
 11
9555.58209674168
 21
-4985.675430504816
 31
0.0
  0
LINE
  5
12E1FE
330
18
100
AcDbEntity
  8
姿図
100
AcDbLine
 10
9555.662314772906
 20
-4985.118631644107
 30
0.0
 11
9555.58209674168
 21
-4985.12613837242
 31
0.0
  0
LINE
  5
12E1FF
330
18
100
AcDbEntity
  8
姿図
100
AcDbLine
 10
9555.662314772906
 20
-4984.569339511712
 30
0.0
 11
9555.58209674168
 21
-4984.576846240021
 31
0.0
  0
LINE
  5
12E200
330
18
100
AcDbEntity
  8
姿図
100
AcDbLine
 10
9555.662314772906
 20
-4984.020047379317
 30
0.0
 11
9555.58209674168
 21
-4984.027554107625
 31
0.0
  0
ELLIPSE
  5
12E201
330
18
100
AcDbEntity
  8
姿図
100
AcDbEllipse
 10
9555.58209674168
 20
-4987.378236115249
 30
0.0
 11
0.0331006796266269
 21
0.04624056676642037
 31
-3.156747423222837E-18
210
3.231153159914450E-17
220
4.513815278383754E-17
230
1.0
 40
0.9083744652357192
 41
0.6674062465669471
 42
2.671810903782884
  0
ELLIPSE
  5
12E202
330
18
100
AcDbEntity
  8
姿図
100
AcDbEllipse
 10
9555.58209674168
 20
-4986.828943982853
 30
0.0
 11
0.0331006796266269
 21
0.04624056676642037
 31
-3.156747423222837E-18
210
3.231153159914450E-17
220
4.513815278383754E-17
230
1.0
 40
0.9083744652357192
 41
0.6674062465665955
 42
2.671810903782768
  0
ELLIPSE
  5
12E203
330
18
100
AcDbEntity
  8
姿図
100
AcDbEllipse
 10
9555.58209674168
 20
-4986.279651850454
 30
0.0
 11
0.0331006796266269
 21
0.04624056676642037
 31
-3.156747423222837E-18
210
3.231153159914450E-17
220
4.513815278383754E-17
230
1.0
 40
0.9083744652357192
 41
0.6674062465671594
 42
2.671810903782743
  0
ELLIPSE
  5
12E204
330
18
100
AcDbEntity
  8
姿図
100
AcDbEllipse
 10
9555.58209674168
 20
-4985.730359718055
 30
0.0
 11
0.0331006796266269
 21
0.04624056676642037
 31
-3.156747423222837E-18
210
3.231153159914450E-17
220
4.513815278383754E-17
230
1.0
 40
0.9083744652357192
 41
0.6674062465669471
 42
2.67181090378281
  0
ELLIPSE
  5
12E205
330
18
100
AcDbEntity
  8
姿図
100
AcDbEllipse
 10
9555.58209674168
 20
-4985.18106758566
 30
0.0
 11
0.0331006796266269
 21
0.04624056676642037
 31
-3.156747423222837E-18
210
3.231153159914450E-17
220
4.513815278383754E-17
230
1.0
 40
0.9083744652357192
 41
0.6674062465673514
 42
2.671810903782983
  0
ELLIPSE
  5
12E206
330
18
100
AcDbEntity
  8
姿図
100
AcDbEllipse
 10
9555.58209674168
 20
-4984.631775453261
 30
0.0
 11
0.0331006796266269
 21
0.04624056676642037
 31
-3.156747423222837E-18
210
3.231153159914450E-17
220
4.513815278383754E-17
230
1.0
 40
0.9083744652357192
 41
0.6674062465669721
 42
2.671810903782982
  0
ELLIPSE
  5
12E207
330
18
100
AcDbEntity
  8
姿図
100
AcDbEllipse
 10
9555.58209674168
 20
-4984.082483320865
 30
0.0
 11
0.0331006796266269
 21
0.04624056676642037
 31
-3.156747423222837E-18
210
3.231153159914450E-17
220
4.513815278383754E-17
230
1.0
 40
0.9083744652357192
 41
0.667406246567283
 42
2.671810903782915
  0
ELLIPSE
  5
12E208
330
18
100
AcDbEntity
  8
姿図
100
AcDbEllipse
 10
9555.58209674168
 20
-4983.53319118847
 30
0.0
 11
0.0331006796266269
 21
0.04624056676642037
 31
-3.156747423222837E-18
210
3.231153159914450E-17
220
4.513815278383754E-17
230
1.0
 40
0.9083744652357192
 41
0.6674062465668796
 42
2.671810903782743
  0
ELLIPSE
  5
12E209
330
18
100
AcDbEntity
  8
姿図
100
AcDbEllipse
 10
9555.58209674168
 20
-4982.983899056071
 30
0.0
 11
0.0331006796266269
 21
0.04624056676642037
 31
-3.156747423222837E-18
210
3.231153159914450E-17
220
4.513815278383754E-17
230
1.0
 40
0.9083744652357192
 41
0.6674062465670032
 42
2.671810903782915
  0
ELLIPSE
  5
12E20A
330
18
100
AcDbEntity
  8
姿図
100
AcDbEllipse
 10
9555.58209674168
 20
-4982.434606923675
 30
0.0
 11
0.0331006796266269
 21
0.04624056676642037
 31
-3.156747423222837E-18
210
3.231153159914450E-17
220
4.513815278383754E-17
230
1.0
 40
0.9083744652357192
 41
0.6674062465670032
 42
2.671810903782866
  0
ELLIPSE
  5
12E20B
330
18
100
AcDbEntity
  8
姿図
100
AcDbEllipse
 10
9555.58209674168
 20
-4981.88531479128
 30
0.0
 11
0.0331006796266269
 21
0.04624056676642037
 31
-3.156747423222837E-18
210
3.231153159914450E-17
220
4.513815278383754E-17
230
1.0
 40
0.9083744652357192
 41
0.6674062465668796
 42
2.671810903783108
  0
ELLIPSE
  5
12E20C
330
18
100
AcDbEntity
  8
姿図
100
AcDbEllipse
 10
9539.896461023814
 20
-4987.258383421095
 30
0.0
 11
-17.90634369497014
 21
-5.138989062236404E-13
 31
9.940017528503677E-16
210
5.551115123125783E-17
220
1.593129249997122E-30
230
1.0
 40
0.2588190451025202
 41
3.729026483883834
 42
3.761863642495804
  0
LINE
  5
12E20D
330
18
100
AcDbEntity
  8
姿図
100
AcDbLine
 10
9555.533567205748
 20
-4987.405855859069
 30
0.0
 11
9555.71084430884
 21
-4987.782543349032
 31
0.0
  0
LINE
  5
12E20E
330
18
100
AcDbEntity
  8
姿図
100
AcDbLine
 10
9555.533567205748
 20
-4983.011518799891
 30
0.0
 11
9555.71084430884
 21
-4983.388206289857
 31
0.0
  0
LINE
  5
12E20F
330
18
100
AcDbEntity
  8
姿図
100
AcDbLine
 10
9555.533567205748
 20
-4983.560810932287
 30
0.0
 11
9555.71084430884
 21
-4983.937498422253
 31
0.0
  0
LINE
  5
12E210
330
18
100
AcDbEntity
  8
姿図
100
AcDbLine
 10
9555.533567205748
 20
-4982.462226667495
 30
0.0
 11
9555.71084430884
 21
-4982.838914157462
 31
0.0
  0
LINE
  5
12E211
330
18
100
AcDbEntity
  8
姿図
100
AcDbLine
 10
9555.533567205748
 20
-4981.9129345351
 30
0.0
 11
9555.71084430884
 21
-4982.289622025064
 31
0.0
  0
LINE
  5
12E212
330
18
100
AcDbEntity
  8
姿図
100
AcDbLine
 10
9555.533567205748
 20
-4986.307271594274
 30
0.0
 11
9555.71084430884
 21
-4986.683959084237
 31
0.0
  0
LINE
  5
12E213
330
18
100
AcDbEntity
  8
姿図
100
AcDbLine
 10
9555.533567205748
 20
-4986.85656372667
 30
0.0
 11
9555.71084430884
 21
-4987.233251216637
 31
0.0
  0
LINE
  5
12E214
330
18
100
AcDbEntity
  8
姿図
100
AcDbLine
 10
9555.533567205748
 20
-4984.659395197084
 30
0.0
 11
9555.71084430884
 21
-4985.036082687047
 31
0.0
  0
LINE
  5
12E215
330
18
100
AcDbEntity
  8
姿図
100
AcDbLine
 10
9555.533567205748
 20
-4985.757979461876
 30
0.0
 11
9555.71084430884
 21
-4986.134666951842
 31
0.0
  0
LINE
  5
12E216
330
18
100
AcDbEntity
  8
姿図
100
AcDbLine
 10
9555.533567205748
 20
-4985.20868732948
 30
0.0
 11
9555.71084430884
 21
-4985.585374819447
 31
0.0
  0
LINE
  5
12E217
330
18
100
AcDbEntity
  8
姿図
100
AcDbLine
 10
9555.533567205748
 20
-4984.110103064686
 30
0.0
 11
9555.71084430884
 21
-4984.486790554649
 31
0.0
  0
ELLIPSE
  5
12E218
330
18
100
AcDbEntity
  8
姿図
100
AcDbEllipse
 10
9555.662314772906
 20
-4987.26087096046
 30
0.0
 11
0.03310067962662866
 21
0.04624056676641355
 31
3.156747423222565E-18
210
-3.231153159914851E-17
220
-4.513815278383422E-17
230
1.0
 40
0.9083744652357186
 41
3.808998900156581
 42
5.813403557372885
  0
ELLIPSE
  5
12E219
330
18
100
AcDbEntity
  8
姿図
100
AcDbEllipse
 10
9555.662314772906
 20
-4986.711578828062
 30
0.0
 11
0.03310067962662866
 21
0.04624056676641355
 31
3.156747423222565E-18
210
-3.231153159914851E-17
220
-4.513815278383422E-17
230
1.0
 40
0.9083744652357186
 41
3.808998900156897
 42
5.813403557372916
  0
ELLIPSE
  5
12E21A
330
18
100
AcDbEntity
  8
姿図
100
AcDbEllipse
 10
9555.662314772906
 20
-4986.162286695662
 30
0.0
 11
0.03310067962662866
 21
0.04624056676641355
 31
3.156747423222565E-18
210
-3.231153159914851E-17
220
-4.513815278383422E-17
230
1.0
 40
0.9083744652357186
 41
3.808998900156773
 42
5.813403557372792
  0
ELLIPSE
  5
12E21B
330
18
100
AcDbEntity
  8
姿図
100
AcDbEllipse
 10
9555.662314772906
 20
-4985.612994563267
 30
0.0
 11
0.03310067962662975
 21
0.04624056676641511
 31
3.156747423222691E-18
210
-3.231153159914858E-17
220
-4.513815278383462E-17
230
1.0
 40
0.9083744652357182
 41
3.808998900156934
 42
5.813403557373269
  0
ELLIPSE
  5
12E21C
330
18
100
AcDbEntity
  8
姿図
100
AcDbEllipse
 10
9555.662314772906
 20
-4985.063702430872
 30
0.0
 11
0.03310067962662975
 21
0.04624056676641511
 31
3.156747423222691E-18
210
-3.231153159914858E-17
220
-4.513815278383462E-17
230
1.0
 40
0.9083744652357182
 41
3.808998900156452
 42
5.81340355737276
  0
ELLIPSE
  5
12E21D
330
18
100
AcDbEntity
  8
姿図
100
AcDbEllipse
 10
9555.662314772906
 20
-4984.514410298469
 30
0.0
 11
0.03310067962662975
 21
0.04624056676641511
 31
3.156747423222691E-18
210
-3.231153159914858E-17
220
-4.513815278383462E-17
230
1.0
 40
0.9083744652357182
 41
3.808998900156965
 42
5.813403557372935
  0
ELLIPSE
  5
12E21E
330
18
100
AcDbEntity
  8
姿図
100
AcDbEllipse
 10
9555.662314772906
 20
-4983.965118166074
 30
0.0
 11
0.03310067962662975
 21
0.04624056676641511
 31
3.156747423222691E-18
210
-3.231153159914858E-17
220
-4.513815278383462E-17
230
1.0
 40
0.9083744652357182
 41
3.808998900157052
 42
5.813403557372792
  0
ELLIPSE
  5
12E21F
330
18
100
AcDbEntity
  8
姿図
100
AcDbEllipse
 10
9555.662314772906
 20
-4983.415826033678
 30
0.0
 11
0.03310067962662975
 21
0.04624056676641511
 31
3.156747423222691E-18
210
-3.231153159914858E-17
220
-4.513815278383462E-17
230
1.0
 40
0.9083744652357182
 41
3.808998900156897
 42
5.813403557372867
  0
ELLIPSE
  5
12E220
330
18
100
AcDbEntity
  8
姿図
100
AcDbEllipse
 10
9555.662314772906
 20
-4982.866533901282
 30
0.0
 11
0.03310067962662975
 21
0.04624056676641511
 31
3.156747423222691E-18
210
-3.231153159914858E-17
220
-4.513815278383462E-17
230
1.0
 40
0.9083744652357182
 41
3.808998900157176
 42
5.813403557372916
  0
ELLIPSE
  5
12E221
330
18
100
AcDbEntity
  8
姿図
100
AcDbEllipse
 10
9555.662314772906
 20
-4982.317241768887
 30
0.0
 11
0.03310067962662975
 21
0.04624056676641511
 31
3.156747423222691E-18
210
-3.231153159914858E-17
220
-4.513815278383462E-17
230
1.0
 40
0.9083744652357182
 41
3.808998900156742
 42
5.813403557372712
  0
ELLIPSE
  5
12E222
330
18
100
AcDbEntity
  8
姿図
100
AcDbEllipse
 10
9555.662314772906
 20
-4981.767949636489
 30
0.0
 11
0.03310067962662975
 21
0.04624056676641511
 31
3.156747423222691E-18
210
-3.231153159914858E-17
220
-4.513815278383462E-17
230
1.0
 40
0.9083744652357182
 41
3.808998900156483
 42
5.813403557372792
  0
ELLIPSE
  5
12E223
330
18
100
AcDbEntity
  8
姿図
100
AcDbEllipse
 10
9556.261726039913
 20
-4981.647737891753
 30
0.0
 11
0.03310067962662542
 21
0.04624056676641824
 31
0.0
210
0.0
220
0.0
230
1.0
 40
0.9083744652357184
 41
3.808998900156913
 42
5.813403557372654
  0
ELLIPSE
  5
12E224
330
18
100
AcDbEntity
  8
姿図
100
AcDbEllipse
 10
9557.902398420416
 20
-4981.34910260102
 30
0.0
 11
0.03310067962664066
 21
0.04624056676643044
 31
3.156747423223735E-18
210
-3.231153159914874E-17
220
-4.513815278383449E-17
230
1.0
 40
0.9083744652357183
 41
0.6674062465672639
 42
2.671810903783432
  0
LINE
  5
12E225
330
18
100
AcDbEntity
  8
姿図
100
AcDbLine
 10
9557.383205184635
 20
-4981.406878404206
 30
0.0
 11
9557.302987153409
 21
-4981.414385132515
 31
0.0
  0
ELLIPSE
  5
12E226
330
18
100
AcDbEntity
  8
姿図
100
AcDbEllipse
 10
9557.302987153409
 20
-4981.469314345758
 30
0.0
 11
0.03310067962663663
 21
0.0462405667664333
 31
3.156747423223738E-18
210
-3.231153159914479E-17
220
-4.513815278383739E-17
230
1.0
 40
0.908374465235718
 41
0.6674062465670622
 42
2.671810903783181
  0
ELLIPSE
  5
12E227
330
18
100
AcDbEntity
  8
姿図
100
AcDbEllipse
 10
9557.383205184633
 20
-4981.351949190969
 30
0.0
 11
0.03310067962663108
 21
0.04624056676641634
 31
3.156747423222771E-18
210
-3.231153159914885E-17
220
-4.513815278383400E-17
230
1.0
 40
0.9083744652357181
 41
3.80899890015716
 42
5.813403557372792
  0
LINE
  5
12E228
330
18
100
AcDbEntity
  8
姿図
100
AcDbLine
 10
9557.902398420416
 20
-4981.29417338778
 30
0.0
 11
9557.982616451642
 21
-4981.286666659468
 31
0.0
  0
LINE
  5
12E229
330
18
100
AcDbEntity
  8
姿図
100
AcDbLine
 10
9555.662314772906
 20
-4981.273586717331
 30
0.0
 11
9555.58209674168
 21
-4981.281093445641
 31
0.0
  0
ELLIPSE
  5
12E22A
330
18
100
AcDbEntity
  8
姿図
100
AcDbEllipse
 10
9555.58209674168
 20
-4981.336022658877
 30
0.0
 11
0.0331006796266269
 21
0.04624056676642037
 31
-3.156747423222837E-18
210
3.231153159914450E-17
220
4.513815278383754E-17
230
1.0
 40
0.9083744652357192
 41
0.6674062465669471
 42
2.671810903782859
  0
ELLIPSE
  5
12E22B
330
18
100
AcDbEntity
  8
姿図
100
AcDbEllipse
 10
9551.167109646984
 20
-4987.779325097769
 30
0.0
 11
-0.108519203279578
 21
0.3533461957478259
 31
2.051885825094963E-17
210
1.629723296148895E-17
220
-5.306494237082089E-17
230
1.0
 40
0.7386189460394769
 41
4.318335530375434
 42
5.623669093019634
  0
ELLIPSE
  5
12E22C
330
18
100
AcDbEntity
  8
姿図
100
AcDbEllipse
 10
9551.167109646984
 20
-4987.779325097769
 30
0.0
 11
-0.108519203279578
 21
0.3533461957478259
 31
2.051885825094963E-17
210
1.629723296148895E-17
220
-5.306494237082089E-17
230
1.0
 40
0.7386189460394769
 41
3.822881783457571
 42
4.318335530375473
  0
LINE
  5
12E22D
330
18
100
AcDbEntity
  8
姿図
100
AcDbLine
 10
9556.497345937642
 20
-4988.419551511639
 30
0.0
 11
9556.554650156058
 21
-4979.781608198156
 31
0.0
  0
LINE
  5
12E22E
330
18
100
AcDbEntity
  8
姿図
100
AcDbLine
 10
9554.794209205273
 20
-4984.511515232656
 30
0.0
 11
9554.83375974433
 21
-4978.549732246489
 31
0.0
  0
LINE
  5
12E22F
330
18
100
AcDbEntity
  8
姿図
100
AcDbLine
 10
9556.310255575845
 20
-4981.62011814793
 30
0.0
 11
9556.132978472755
 21
-4981.243430657967
 31
0.0
  0
ELLIPSE
  5
12E230
330
18
100
AcDbEntity
  8
姿図
100
AcDbEllipse
 10
9557.98261645164
 20
-4981.231737446232
 30
0.0
 11
0.03310067962662644
 21
0.04624056676641969
 31
-6.313494846445589E-18
210
6.462306319828894E-17
220
9.027630556767524E-17
230
1.0
 40
0.9083744652357181
 41
3.808998900156461
 42
5.813403557372752
  0
LINE
  5
12E231
330
18
100
AcDbEntity
  8
姿図
100
AcDbLine
 10
9557.254457617477
 20
-4980.947641957182
 30
0.0
 11
9557.431734720569
 21
-4981.324329447146
 31
0.0
  0
ELLIPSE
  5
12E232
330
18
100
AcDbEntity
  8
姿図
100
AcDbEllipse
 10
9555.662314772906
 20
-4981.218657504089
 30
0.0
 11
0.03310067962662975
 21
0.04624056676641511
 31
3.156747423222691E-18
210
-3.231153159914858E-17
220
-4.513815278383462E-17
230
1.0
 40
0.9083744652357182
 41
3.808998900156551
 42
5.81340355737281
  0
LINE
  5
12E233
330
18
100
AcDbEntity
  8
姿図
100
AcDbLine
 10
9532.313163234296
 20
-4980.739977632443
 30
0.0
 11
9532.463818071234
 21
-4980.84782184458
 31
0.0
  0
ELLIPSE
  5
12E234
330
18
100
AcDbEntity
  8
姿図
100
AcDbEllipse
 10
9539.896461023814
 20
-4984.923891858402
 30
0.0
 11
-17.85571804038605
 21
-3.419610552464862E-14
 31
1.982382928965137E-15
210
1.110223024625157E-16
220
2.126226658603509E-31
230
1.0
 40
0.2588190451025204
 41
5.151017883384803
 42
5.195965363531555
  0
LINE
  5
12E235
330
18
100
AcDbEntity
  8
姿図
100
AcDbLine
 10
9536.454591575604
 20
-4980.533680918397
 30
0.0
 11
9536.342642348314
 21
-4980.453543589507
 31
0.0
  0
ELLIPSE
  5
12E236
330
18
100
AcDbEntity
  8
姿図
100
AcDbEllipse
 10
9539.896461023814
 20
-4984.923891858402
 30
0.0
 11
-17.85571804038605
 21
-3.419610552464862E-14
 31
1.982382928965137E-15
210
1.110223024625157E-16
220
2.126226658603509E-31
230
1.0
 40
0.2588190451025204
 41
4.922687502237706
 42
4.96763498238446
  0
ELLIPSE
  5
12E237
330
18
100
AcDbEntity
  8
姿図
100
AcDbEllipse
 10
9536.290811377894
 20
-4980.766117281772
 30
0.0
 11
-0.1548909050590665
 21
-0.2384999891190348
 31
-4.735920896407206E-17
210
-9.070358557838995E-17
220
-1.396647799640267E-16
230
1.0
 40
0.913939136448976
 41
3.038071040901397
 42
3.100190541308247
  0
LINE
  5
12E238
330
18
100
AcDbEntity
  8
姿図
100
AcDbLine
 10
9522.762041582406
 20
-4981.177792019578
 30
0.0
 11
9522.077870878857
 21
-4981.241816073913
 31
0.0
  0
ELLIPSE
  5
12E239
330
18
100
AcDbEntity
  8
姿図
100
AcDbEllipse
 10
9539.896461023814
 20
-4986.846414321796
 30
0.0
 11
-17.89740975592589
 21
-5.131457558280441E-13
 31
9.935058196089910E-16
210
5.551115123125783E-17
220
1.591588506041613E-30
230
1.0
 40
0.2588190451025204
 41
4.96784917457373
 42
5.150803691193217
  0
ELLIPSE
  5
12E23A
330
18
100
AcDbEntity
  8
姿図
100
AcDbEllipse
 10
9533.960597049041
 20
-4986.991644039166
 30
0.0
 11
0.2013581765767474
 21
0.3100499858547712
 31
4.104464776886243E-17
210
-6.046905705224813E-17
220
-9.310985330935853E-17
230
1.0
 40
0.9139391364489744
 41
0.6260041342852541
 42
2.752838026093648
  0
ELLIPSE
  5
12E23B
330
18
100
AcDbEntity
  8
姿図
100
AcDbEllipse
 10
9539.896461023814
 20
-4985.885153090099
 30
0.0
 11
-16.34923549676945
 21
-3.112947552725801E-13
 31
-9.075648841766178E-16
210
-5.551115123125783E-17
220
-1.056950353479716E-30
230
1.0
 40
0.258819045102515
 41
4.992404269734823
 42
5.183640316118966
  0
ELLIPSE
  5
12E23C
330
18
100
AcDbEntity
  8
姿図
100
AcDbEllipse
 10
9533.960597049041
 20
-4986.991644039166
 30
0.0
 11
0.2013581765767474
 21
0.3100499858547712
 31
4.104464776886243E-17
210
-6.046905705224813E-17
220
-9.310985330935853E-17
230
1.0
 40
0.9139391364489744
 41
0.2886548266583326
 42
0.6260041342852678
  0
ELLIPSE
  5
12E23D
330
18
100
AcDbEntity
  8
姿図
100
AcDbEllipse
 10
9539.896461023814
 20
-4985.418254777562
 30
0.0
 11
-16.33657804185923
 21
-3.096934598376082E-13
 31
-9.068622542828936E-16
210
-5.551115123125783E-17
220
-1.052328121613186E-30
230
1.0
 40
0.258819045102515
 41
4.992407196796089
 42
5.184287718027582
  0
LINE
  5
12E23E
330
18
100
AcDbEntity
  8
姿図
100
AcDbLine
 10
9522.638860624567
 20
-4981.562500784754
 30
0.0
 11
9522.685185135953
 21
-4988.536711171526
 31
0.0
  0
ELLIPSE
  5
12E23F
330
18
100
AcDbEntity
  8
姿図
100
AcDbEllipse
 10
9523.064249265668
 20
-4981.867009446963
 30
0.0
 11
0.05121854025141149
 21
-0.5092439049548338
 31
0.0
210
0.0
220
0.0
230
1.0
 40
0.3266547503873699
 41
1.290961286430747
 42
2.861757613225721
  0
LINE
  5
12E240
330
18
100
AcDbEntity
  8
姿図
100
AcDbLine
 10
9521.947621571795
 20
-4981.741114692065
 30
0.0
 11
9521.948377843673
 21
-4981.627115517379
 31
0.0
  0
LINE
  5
12E241
330
18
100
AcDbEntity
  8
姿図
100
AcDbLine
 10
9523.482666471786
 20
-4987.797004285694
 30
0.0
 11
9523.659943574876
 21
-4987.387137944834
 31
0.0
  0
LINE
  5
12E242
330
18
100
AcDbEntity
  8
姿図
100
AcDbLine
 10
9523.611414038944
 20
-4987.862963817311
 30
0.0
 11
9523.53119600772
 21
-4987.87047054562
 31
0.0
  0
LINE
  5
12E243
330
18
100
AcDbEntity
  8
姿図
100
AcDbLine
 10
9523.498095328094
 20
-4987.861781899146
 30
0.0
 11
9523.582108438743
 21
-4987.921921539611
 31
0.0
  0
LINE
  5
12E244
330
18
100
AcDbEntity
  8
姿図
100
AcDbLine
 10
9523.482666471786
 20
-4983.40266722652
 30
0.0
 11
9523.668511983527
 21
-4982.972990643732
 31
0.0
  0
LINE
  5
12E245
330
18
100
AcDbEntity
  8
姿図
100
AcDbLine
 10
9523.611414038944
 20
-4983.468626758133
 30
0.0
 11
9523.53119600772
 21
-4983.476133486442
 31
0.0
  0
LINE
  5
12E246
330
18
100
AcDbEntity
  8
姿図
100
AcDbLine
 10
9523.482666471786
 20
-4983.951959358919
 30
0.0
 11
9523.659943574876
 21
-4983.542093018058
 31
0.0
  0
LINE
  5
12E247
330
18
100
AcDbEntity
  8
姿図
100
AcDbLine
 10
9523.498095328094
 20
-4983.467444839973
 30
0.0
 11
9523.646333673278
 21
-4983.573559239416
 31
0.0
  0
LINE
  5
12E248
330
18
100
AcDbEntity
  8
姿図
100
AcDbLine
 10
9523.482666471786
 20
-4986.698420020903
 30
0.0
 11
9523.639864827894
 21
-4986.334975933174
 31
0.0
  0
LINE
  5
12E249
330
18
100
AcDbEntity
  8
姿図
100
AcDbLine
 10
9523.611414038944
 20
-4986.764379552516
 30
0.0
 11
9523.53119600772
 21
-4986.771886280825
 31
0.0
  0
LINE
  5
12E24A
330
18
100
AcDbEntity
  8
姿図
100
AcDbLine
 10
9523.482666471786
 20
-4987.247712153299
 30
0.0
 11
9523.659943574876
 21
-4986.837845812438
 31
0.0
  0
LINE
  5
12E24B
330
18
100
AcDbEntity
  8
姿図
100
AcDbLine
 10
9523.611414038944
 20
-4987.313671684912
 30
0.0
 11
9523.53119600772
 21
-4987.321178413224
 31
0.0
  0
LINE
  5
12E24C
330
18
100
AcDbEntity
  8
姿図
100
AcDbLine
 10
9523.498095328094
 20
-4986.763197634353
 30
0.0
 11
9523.646333673278
 21
-4986.869312033796
 31
0.0
  0
LINE
  5
12E24D
330
18
100
AcDbEntity
  8
姿図
100
AcDbLine
 10
9523.498095328094
 20
-4987.312489766748
 30
0.0
 11
9523.646333673278
 21
-4987.418604166191
 31
0.0
  0
LINE
  5
12E24E
330
18
100
AcDbEntity
  8
姿図
100
AcDbLine
 10
9523.482666471786
 20
-4985.05054362371
 30
0.0
 11
9523.659943574876
 21
-4984.640677282852
 31
0.0
  0
LINE
  5
12E24F
330
18
100
AcDbEntity
  8
姿図
100
AcDbLine
 10
9523.601276390411
 20
-4985.117451826991
 30
0.0
 11
9523.53119600772
 21
-4985.124009883635
 31
0.0
  0
LINE
  5
12E250
330
18
100
AcDbEntity
  8
姿図
100
AcDbLine
 10
9523.482666471786
 20
-4985.599835756109
 30
0.0
 11
9523.559365560215
 21
-4985.422506737449
 31
0.0
  0
LINE
  5
12E251
330
18
100
AcDbEntity
  8
姿図
100
AcDbLine
 10
9523.597396042453
 20
-4986.216399211118
 30
0.0
 11
9523.53119600772
 21
-4986.222594148427
 31
0.0
  0
LINE
  5
12E252
330
18
100
AcDbEntity
  8
姿図
100
AcDbLine
 10
9523.56028512177
 20
-4985.388587503907
 30
0.0
 11
9523.547627978434
 21
-4985.855462830469
 31
0.0
  0
LINE
  5
12E253
330
18
100
AcDbEntity
  8
姿図
100
AcDbLine
 10
9523.498095328094
 20
-4985.115321237159
 30
0.0
 11
9523.586192848728
 21
-4985.178384646854
 31
0.0
  0
LINE
  5
12E254
330
18
100
AcDbEntity
  8
姿図
100
AcDbLine
 10
9523.498095328094
 20
-4986.213905501957
 30
0.0
 11
9523.628874248036
 21
-4986.307521809748
 31
0.0
  0
LINE
  5
12E255
330
18
100
AcDbEntity
  8
姿図
100
AcDbLine
 10
9523.482666471786
 20
-4984.501251491314
 30
0.0
 11
9523.659943574876
 21
-4984.091385150454
 31
0.0
  0
LINE
  5
12E256
330
18
100
AcDbEntity
  8
姿図
100
AcDbLine
 10
9523.611414038944
 20
-4984.567211022927
 30
0.0
 11
9523.53119600772
 21
-4984.57471775124
 31
0.0
  0
LINE
  5
12E257
330
18
100
AcDbEntity
  8
姿図
100
AcDbLine
 10
9523.498095328094
 20
-4984.566029104763
 30
0.0
 11
9523.646333673278
 21
-4984.672143504207
 31
0.0
  0
LINE
  5
12E258
330
18
100
AcDbEntity
  8
姿図
100
AcDbLine
 10
9523.611414038944
 20
-4984.017918890529
 30
0.0
 11
9523.53119600772
 21
-4984.025425618845
 31
0.0
  0
LINE
  5
12E259
330
18
100
AcDbEntity
  8
姿図
100
AcDbLine
 10
9523.498095328094
 20
-4984.016736972369
 30
0.0
 11
9523.646333673278
 21
-4984.122851371811
 31
0.0
  0
LINE
  5
12E25A
330
18
100
AcDbEntity
  8
姿図
100
AcDbLine
 10
9523.27886015437
 20
-4988.102192499519
 30
0.0
 11
9523.238271891572
 21
-4981.991581172415
 31
0.0
  0
ELLIPSE
  5
12E25B
330
18
100
AcDbEntity
  8
姿図
100
AcDbEllipse
 10
9540.156265865367
 20
-4977.170992988722
 30
0.0
 11
9.820493799237434
 21
27.76810889032503
 31
3.269997849935411E-15
210
-3.701743464227722E-17
220
-1.046692943349816E-16
230
1.0
 40
0.5306015190202692
 41
2.132850903174913
 42
2.178852095897546
  0
LINE
  5
12E25C
330
18
100
AcDbEntity
  8
姿図
100
AcDbLine
 10
9522.455489356042
 20
-4987.560180899063
 30
0.0
 11
9522.038599570009
 21
-4987.5991930552
 31
0.0
  0
LINE
  5
12E25D
330
18
100
AcDbEntity
  8
姿図
100
AcDbLine
 10
9521.761776060057
 20
-4987.663712598822
 30
0.0
 11
9521.939053163147
 21
-4987.25384625796
 31
0.0
  0
ELLIPSE
  5
12E25E
330
18
100
AcDbEntity
  8
姿図
100
AcDbEllipse
 10
9539.896461023814
 20
-4987.258383421095
 30
0.0
 11
-17.4799078689977
 21
-3.541703803669010E-14
 31
-9.703298092243850E-16
210
-5.551115123125783E-17
220
-1.124743087522147E-31
230
1.0
 40
0.2588190451025201
 41
0.0667579305343701
 42
0.1004537543484347
  0
LINE
  5
12E25F
330
18
100
AcDbEntity
  8
姿図
100
AcDbLine
 10
9521.777204916365
 20
-4988.277782344666
 30
0.0
 11
9521.925443261549
 21
-4988.383896744109
 31
0.0
  0
LINE
  5
12E260
330
18
100
AcDbEntity
  8
姿図
100
AcDbLine
 10
9521.761776060057
 20
-4988.762296863611
 30
0.0
 11
9521.939053163147
 21
-4988.352430522751
 31
0.0
  0
LINE
  5
12E261
330
18
100
AcDbEntity
  8
姿図
100
AcDbLine
 10
9521.890523627215
 20
-4988.828256395229
 30
0.0
 11
9521.810305595991
 21
-4988.835763123537
 31
0.0
  0
LINE
  5
12E262
330
18
100
AcDbEntity
  8
姿図
100
AcDbLine
 10
9521.890523627215
 20
-4987.72967213043
 30
0.0
 11
9521.810305595991
 21
-4987.737178858742
 31
0.0
  0
LINE
  5
12E263
330
18
100
AcDbEntity
  8
姿図
100
AcDbLine
 10
9521.761776060057
 20
-4988.213004731217
 30
0.0
 11
9521.939053163147
 21
-4987.803138390355
 31
0.0
  0
LINE
  5
12E264
330
18
100
AcDbEntity
  8
姿図
100
AcDbLine
 10
9521.890523627215
 20
-4988.278964262832
 30
0.0
 11
9521.810305595991
 21
-4988.286470991142
 31
0.0
  0
LINE
  5
12E265
330
18
100
AcDbEntity
  8
姿図
100
AcDbLine
 10
9521.777204916365
 20
-4987.72849021227
 30
0.0
 11
9521.925443261549
 21
-4987.834604611713
 31
0.0
  0
LINE
  5
12E266
330
18
100
AcDbEntity
  8
姿図
100
AcDbLine
 10
9521.761776060057
 20
-4989.311588996007
 30
0.0
 11
9521.939053163147
 21
-4988.90172265515
 31
0.0
  0
LINE
  5
12E267
330
18
100
AcDbEntity
  8
姿図
100
AcDbLine
 10
9521.890523627215
 20
-4989.377548527624
 30
0.0
 11
9521.810305595991
 21
-4989.385055255932
 31
0.0
  0
LINE
  5
12E268
330
18
100
AcDbEntity
  8
姿図
100
AcDbLine
 10
9521.777204916365
 20
-4989.37636660946
 30
0.0
 11
9521.925443261549
 21
-4989.482481008907
 31
0.0
  0
LINE
  5
12E269
330
18
100
AcDbEntity
  8
姿図
100
AcDbLine
 10
9521.777204916365
 20
-4988.827074477062
 30
0.0
 11
9521.925443261549
 21
-4988.933188876508
 31
0.0
  0
LINE
  5
12E26A
330
18
100
AcDbEntity
  8
姿図
100
AcDbLine
 10
9521.890523627215
 20
-4989.926840660019
 30
0.0
 11
9521.810305595991
 21
-4989.934347388332
 31
0.0
  0
LINE
  5
12E26B
330
18
100
AcDbEntity
  8
姿図
100
AcDbLine
 10
9521.761776060057
 20
-4989.860881128407
 30
0.0
 11
9521.939053163147
 21
-4989.451014787549
 31
0.0
  0
ELLIPSE
  5
12E26C
330
18
100
AcDbEntity
  8
姿図
100
AcDbEllipse
 10
9521.81030559599
 20
-4987.682249645504
 30
0.0
 11
0.03310067962663026
 21
0.04624056676641473
 31
0.0
210
0.0
220
0.0
230
1.0
 40
0.9083744652357207
 41
1.804594242940603
 42
3.808998900156939
  0
ELLIPSE
  5
12E26D
330
18
100
AcDbEntity
  8
姿図
100
AcDbEllipse
 10
9521.81030559599
 20
-4988.231541777899
 30
0.0
 11
0.03310067962663026
 21
0.04624056676641473
 31
0.0
210
0.0
220
0.0
230
1.0
 40
0.9083744652357207
 41
1.804594242940676
 42
3.80899890015725
  0
ELLIPSE
  5
12E26E
330
18
100
AcDbEntity
  8
姿図
100
AcDbEllipse
 10
9521.81030559599
 20
-4988.780833910301
 30
0.0
 11
0.03310067962663026
 21
0.04624056676641473
 31
0.0
210
0.0
220
0.0
230
1.0
 40
0.9083744652357207
 41
1.804594242940915
 42
3.808998900157249
  0
ELLIPSE
  5
12E26F
330
18
100
AcDbEntity
  8
姿図
100
AcDbEllipse
 10
9521.81030559599
 20
-4989.330126042697
 30
0.0
 11
0.03310067962662919
 21
0.04624056676641321
 31
0.0
210
0.0
220
0.0
230
1.0
 40
0.908374465235721
 41
1.804594242940485
 42
3.808998900156777
  0
ELLIPSE
  5
12E270
330
18
100
AcDbEntity
  8
姿図
100
AcDbEllipse
 10
9521.81030559599
 20
-4989.879418175093
 30
0.0
 11
0.03310067962662919
 21
0.04624056676641321
 31
0.0
210
0.0
220
0.0
230
1.0
 40
0.908374465235721
 41
1.804594242940884
 42
3.808998900157218
  0
ELLIPSE
  5
12E271
330
18
100
AcDbEntity
  8
姿図
100
AcDbEllipse
 10
9523.53119600772
 20
-4987.815541332384
 30
0.0
 11
0.03310067962663003
 21
0.0462405667664149
 31
-3.156747423222693E-18
210
3.231153159914905E-17
220
4.513815278383433E-17
230
1.0
 40
0.9083744652357173
 41
1.804594242940764
 42
3.808998900157057
  0
ELLIPSE
  5
12E272
330
18
100
AcDbEntity
  8
姿図
100
AcDbEllipse
 10
9521.890523627215
 20
-4988.333893476069
 30
0.0
 11
0.03310067962662746
 21
0.04624056676642001
 31
3.156747423222840E-18
210
-3.231153159914513E-17
220
-4.513815278383712E-17
230
1.0
 40
0.908374465235721
 41
4.946186896530127
 42
6.950591553746752
  0
ELLIPSE
  5
12E273
330
18
100
AcDbEntity
  8
姿図
100
AcDbEllipse
 10
9521.890523627215
 20
-4988.883185608464
 30
0.0
 11
0.03310067962662746
 21
0.04624056676642001
 31
3.156747423222840E-18
210
-3.231153159914513E-17
220
-4.513815278383712E-17
230
1.0
 40
0.908374465235721
 41
4.946186896530643
 42
6.950591553746944
  0
ELLIPSE
  5
12E274
330
18
100
AcDbEntity
  8
姿図
100
AcDbEllipse
 10
9521.890523627215
 20
-4989.432477740867
 30
0.0
 11
0.03310067962662746
 21
0.04624056676642001
 31
3.156747423222840E-18
210
-3.231153159914513E-17
220
-4.513815278383712E-17
230
1.0
 40
0.908374465235721
 41
4.946186896530488
 42
6.950591553746789
  0
ELLIPSE
  5
12E275
330
18
100
AcDbEntity
  8
姿図
100
AcDbEllipse
 10
9521.890523627215
 20
-4987.784601343674
 30
0.0
 11
0.03310067962662746
 21
0.04624056676642001
 31
3.156747423222840E-18
210
-3.231153159914513E-17
220
-4.513815278383712E-17
230
1.0
 40
0.908374465235721
 41
4.946186896530451
 42
6.950591553746752
  0
ELLIPSE
  5
12E276
330
18
100
AcDbEntity
  8
姿図
100
AcDbEllipse
 10
9521.890523627215
 20
-4989.981769873262
 30
0.0
 11
0.03310067962662746
 21
0.04624056676642001
 31
3.156747423222840E-18
210
-3.231153159914513E-17
220
-4.513815278383712E-17
230
1.0
 40
0.908374465235721
 41
6.074134062573671
 42
6.95059155374682
  0
ELLIPSE
  5
12E277
330
18
100
AcDbEntity
  8
姿図
100
AcDbEllipse
 10
9539.65636575424
 20
-4979.511364116397
 30
0.0
 11
9.833408526597633
 21
27.80045877641116
 31
0.0
210
0.0
220
0.0
230
1.0
 40
0.5306663220532383
 41
2.04631906000344
 42
2.129635835717337
  0
LINE
  5
12E278
330
18
100
AcDbEntity
  8
姿図
100
AcDbLine
 10
9521.777204916365
 20
-4983.334153153092
 30
0.0
 11
9521.925443261549
 21
-4983.440267552536
 31
0.0
  0
LINE
  5
12E279
330
18
100
AcDbEntity
  8
姿図
100
AcDbLine
 10
9521.761776060057
 20
-4983.818667672039
 30
0.0
 11
9521.939053163147
 21
-4983.408801331178
 31
0.0
  0
LINE
  5
12E27A
330
18
100
AcDbEntity
  8
姿図
100
AcDbLine
 10
9521.890523627215
 20
-4983.884627203655
 30
0.0
 11
9521.810305595991
 21
-4983.892133931964
 31
0.0
  0
LINE
  5
12E27B
330
18
100
AcDbEntity
  8
姿図
100
AcDbLine
 10
9521.777204916365
 20
-4983.883445285492
 30
0.0
 11
9521.925443261549
 21
-4983.989559684935
 31
0.0
  0
LINE
  5
12E27C
330
18
100
AcDbEntity
  8
姿図
100
AcDbLine
 10
9521.761776060057
 20
-4982.170791274852
 30
0.0
 11
9521.947621571795
 21
-4981.741114692065
 31
0.0
  0
LINE
  5
12E27D
330
18
100
AcDbEntity
  8
姿図
100
AcDbLine
 10
9521.890523627215
 20
-4982.236750806462
 30
0.0
 11
9521.810305595991
 21
-4982.244257534774
 31
0.0
  0
LINE
  5
12E27E
330
18
100
AcDbEntity
  8
姿図
100
AcDbLine
 10
9521.761776060057
 20
-4982.720083407248
 30
0.0
 11
9521.939053163147
 21
-4982.310217066387
 31
0.0
  0
LINE
  5
12E27F
330
18
100
AcDbEntity
  8
姿図
100
AcDbLine
 10
9521.890523627215
 20
-4982.78604293886
 30
0.0
 11
9521.810305595991
 21
-4982.793549667173
 31
0.0
  0
LINE
  5
12E280
330
18
100
AcDbEntity
  8
姿図
100
AcDbLine
 10
9521.761776060057
 20
-4983.269375539644
 30
0.0
 11
9521.939053163147
 21
-4982.859509198783
 31
0.0
  0
LINE
  5
12E281
330
18
100
AcDbEntity
  8
姿図
100
AcDbLine
 10
9521.890523627215
 20
-4983.335335071259
 30
0.0
 11
9521.810305595991
 21
-4983.342841799569
 31
0.0
  0
LINE
  5
12E282
330
18
100
AcDbEntity
  8
姿図
100
AcDbLine
 10
9521.777204916365
 20
-4982.235568888302
 30
0.0
 11
9521.925443261549
 21
-4982.341683287745
 31
0.0
  0
LINE
  5
12E283
330
18
100
AcDbEntity
  8
姿図
100
AcDbLine
 10
9521.777204916365
 20
-4982.784861020697
 30
0.0
 11
9521.925443261549
 21
-4982.89097542014
 31
0.0
  0
LINE
  5
12E284
330
18
100
AcDbEntity
  8
姿図
100
AcDbLine
 10
9521.777204916365
 20
-4986.629905947475
 30
0.0
 11
9521.925443261549
 21
-4986.736020346922
 31
0.0
  0
LINE
  5
12E285
330
18
100
AcDbEntity
  8
姿図
100
AcDbLine
 10
9521.761776060057
 20
-4987.114420466422
 30
0.0
 11
9521.939053163147
 21
-4986.704554125565
 31
0.0
  0
LINE
  5
12E286
330
18
100
AcDbEntity
  8
姿図
100
AcDbLine
 10
9521.890523627215
 20
-4987.180379998035
 30
0.0
 11
9521.810305595991
 21
-4987.187886726344
 31
0.0
  0
LINE
  5
12E287
330
18
100
AcDbEntity
  8
姿図
100
AcDbLine
 10
9521.777204916365
 20
-4987.179198079874
 30
0.0
 11
9521.925443261549
 21
-4987.285312479318
 31
0.0
  0
LINE
  5
12E288
330
18
100
AcDbEntity
  8
姿図
100
AcDbLine
 10
9521.777204916365
 20
-4984.982029550285
 30
0.0
 11
9521.925443261549
 21
-4985.08814394973
 31
0.0
  0
LINE
  5
12E289
330
18
100
AcDbEntity
  8
姿図
100
AcDbLine
 10
9521.761776060057
 20
-4985.466544069232
 30
0.0
 11
9521.939053163147
 21
-4985.056677728371
 31
0.0
  0
LINE
  5
12E28A
330
18
100
AcDbEntity
  8
姿図
100
AcDbLine
 10
9521.890523627215
 20
-4985.532503600842
 30
0.0
 11
9521.810305595991
 21
-4985.540010329158
 31
0.0
  0
LINE
  5
12E28B
330
18
100
AcDbEntity
  8
姿図
100
AcDbLine
 10
9521.761776060057
 20
-4986.015836201628
 30
0.0
 11
9521.939053163147
 21
-4985.605969860766
 31
0.0
  0
LINE
  5
12E28C
330
18
100
AcDbEntity
  8
姿図
100
AcDbLine
 10
9521.890523627215
 20
-4986.081795733244
 30
0.0
 11
9521.810305595991
 21
-4986.089302461553
 31
0.0
  0
LINE
  5
12E28D
330
18
100
AcDbEntity
  8
姿図
100
AcDbLine
 10
9521.761776060057
 20
-4986.565128334023
 30
0.0
 11
9521.939053163147
 21
-4986.155261993165
 31
0.0
  0
LINE
  5
12E28E
330
18
100
AcDbEntity
  8
姿図
100
AcDbLine
 10
9521.890523627215
 20
-4986.63108786564
 30
0.0
 11
9521.810305595991
 21
-4986.638594593948
 31
0.0
  0
LINE
  5
12E28F
330
18
100
AcDbEntity
  8
姿図
100
AcDbLine
 10
9521.777204916365
 20
-4985.531321682682
 30
0.0
 11
9521.925443261549
 21
-4985.637436082125
 31
0.0
  0
LINE
  5
12E290
330
18
100
AcDbEntity
  8
姿図
100
AcDbLine
 10
9521.777204916365
 20
-4986.08061381508
 30
0.0
 11
9521.925443261549
 21
-4986.186728214523
 31
0.0
  0
LINE
  5
12E291
330
18
100
AcDbEntity
  8
姿図
100
AcDbLine
 10
9521.890523627215
 20
-4984.433919336051
 30
0.0
 11
9521.810305595991
 21
-4984.441426064359
 31
0.0
  0
LINE
  5
12E292
330
18
100
AcDbEntity
  8
姿図
100
AcDbLine
 10
9521.761776060057
 20
-4984.917251936837
 30
0.0
 11
9521.939053163147
 21
-4984.507385595976
 31
0.0
  0
LINE
  5
12E293
330
18
100
AcDbEntity
  8
姿図
100
AcDbLine
 10
9521.890523627215
 20
-4984.983211468446
 30
0.0
 11
9521.810305595991
 21
-4984.990718196758
 31
0.0
  0
LINE
  5
12E294
330
18
100
AcDbEntity
  8
姿図
100
AcDbLine
 10
9521.777204916365
 20
-4984.43273741789
 30
0.0
 11
9521.925443261549
 21
-4984.538851817333
 31
0.0
  0
LINE
  5
12E295
330
18
100
AcDbEntity
  8
姿図
100
AcDbLine
 10
9521.761776060057
 20
-4984.367959804441
 30
0.0
 11
9521.939053163147
 21
-4983.958093463576
 31
0.0
  0
ELLIPSE
  5
12E296
330
18
100
AcDbEntity
  8
姿図
100
AcDbEllipse
 10
9521.81030559599
 20
-4986.583665380712
 30
0.0
 11
0.03310067962663026
 21
0.04624056676641473
 31
0.0
210
0.0
220
0.0
230
1.0
 40
0.9083744652357207
 41
1.804594242940693
 42
3.808998900156747
  0
ELLIPSE
  5
12E297
330
18
100
AcDbEntity
  8
姿図
100
AcDbEllipse
 10
9521.81030559599
 20
-4987.132957513108
 30
0.0
 11
0.03310067962663026
 21
0.04624056676641473
 31
0.0
210
0.0
220
0.0
230
1.0
 40
0.9083744652357207
 41
1.804594242940521
 42
3.808998900156814
  0
ELLIPSE
  5
12E298
330
18
100
AcDbEntity
  8
姿図
100
AcDbEllipse
 10
9521.81030559599
 20
-4983.287912586329
 30
0.0
 11
0.03310067962663133
 21
0.04624056676641619
 31
3.156747423222792E-18
210
-3.231153159914926E-17
220
-4.513815278383414E-17
230
1.0
 40
0.9083744652357209
 41
1.804594242940522
 42
3.808998900156824
  0
ELLIPSE
  5
12E299
330
18
100
AcDbEntity
  8
姿図
100
AcDbEllipse
 10
9521.81030559599
 20
-4984.935788983522
 30
0.0
 11
0.03310067962663026
 21
0.04624056676641473
 31
0.0
210
0.0
220
0.0
230
1.0
 40
0.9083744652357207
 41
1.804594242940334
 42
3.80899890015687
  0
ELLIPSE
  5
12E29A
330
18
100
AcDbEntity
  8
姿図
100
AcDbEllipse
 10
9521.81030559599
 20
-4985.485081115918
 30
0.0
 11
0.03310067962663026
 21
0.04624056676641473
 31
0.0
210
0.0
220
0.0
230
1.0
 40
0.9083744652357207
 41
1.804594242940608
 42
3.808998900156902
  0
ELLIPSE
  5
12E29B
330
18
100
AcDbEntity
  8
姿図
100
AcDbEllipse
 10
9521.81030559599
 20
-4986.034373248317
 30
0.0
 11
0.03310067962663026
 21
0.04624056676641473
 31
0.0
210
0.0
220
0.0
230
1.0
 40
0.9083744652357207
 41
1.804594242940608
 42
3.808998900156902
  0
ELLIPSE
  5
12E29C
330
18
100
AcDbEntity
  8
姿図
100
AcDbEllipse
 10
9521.81030559599
 20
-4983.837204718724
 30
0.0
 11
0.03310067962663133
 21
0.04624056676641619
 31
3.156747423222792E-18
210
-3.231153159914926E-17
220
-4.513815278383414E-17
230
1.0
 40
0.9083744652357209
 41
1.804594242940522
 42
3.808998900156824
  0
ELLIPSE
  5
12E29D
330
18
100
AcDbEntity
  8
姿図
100
AcDbEllipse
 10
9521.81030559599
 20
-4984.386496851123
 30
0.0
 11
0.03310067962663026
 21
0.04624056676641473
 31
0.0
210
0.0
220
0.0
230
1.0
 40
0.9083744652357207
 41
1.804594242940453
 42
3.808998900157027
  0
ELLIPSE
  5
12E29E
330
18
100
AcDbEntity
  8
姿図
100
AcDbEllipse
 10
9521.81030559599
 20
-4982.189328321534
 30
0.0
 11
0.03310067962663133
 21
0.04624056676641619
 31
3.156747423222792E-18
210
-3.231153159914926E-17
220
-4.513815278383414E-17
230
1.0
 40
0.9083744652357209
 41
1.804594242940792
 42
3.808998900157135
  0
ELLIPSE
  5
12E29F
330
18
100
AcDbEntity
  8
姿図
100
AcDbEllipse
 10
9521.81030559599
 20
-4982.738620453933
 30
0.0
 11
0.03310067962663133
 21
0.04624056676641619
 31
3.156747423222792E-18
210
-3.231153159914926E-17
220
-4.513815278383414E-17
230
1.0
 40
0.9083744652357209
 41
1.804594242940609
 42
3.808998900156911
  0
LINE
  5
12E2A0
330
18
100
AcDbEntity
  8
姿図
100
AcDbLine
 10
9523.55262077165
 20
-4985.671297106667
 30
0.0
 11
9523.53119600772
 21
-4985.673302016031
 31
0.0
  0
LINE
  5
12E2A1
330
18
100
AcDbEntity
  8
姿図
100
AcDbLine
 10
9523.482666471786
 20
-4986.149127888508
 30
0.0
 11
9523.552109466782
 21
-4985.988575026564
 31
0.0
  0
LINE
  5
12E2A2
330
18
100
AcDbEntity
  8
姿図
100
AcDbLine
 10
9523.498095328094
 20
-4985.664613369558
 30
0.0
 11
9523.551760513372
 21
-4985.70302886118
 31
0.0
  0
ELLIPSE
  5
12E2A3
330
18
100
AcDbEntity
  8
姿図
100
AcDbEllipse
 10
9523.53119600772
 20
-4986.716957067585
 30
0.0
 11
0.03310067962663003
 21
0.0462405667664149
 31
-3.156747423222693E-18
210
3.231153159914905E-17
220
4.513815278383433E-17
230
1.0
 40
0.9083744652357173
 41
1.804594242940832
 42
3.808998900156845
  0
ELLIPSE
  5
12E2A4
330
18
100
AcDbEntity
  8
姿図
100
AcDbEllipse
 10
9523.53119600772
 20
-4987.266249199988
 30
0.0
 11
0.03310067962663003
 21
0.0462405667664149
 31
-3.156747423222693E-18
210
3.231153159914905E-17
220
4.513815278383433E-17
230
1.0
 40
0.9083744652357173
 41
1.804594242940847
 42
3.8089989001569
  0
ELLIPSE
  5
12E2A5
330
18
100
AcDbEntity
  8
姿図
100
AcDbEllipse
 10
9523.53119600772
 20
-4985.069080670392
 30
0.0
 11
0.03310067962663108
 21
0.04624056676641634
 31
3.156747423222771E-18
210
-3.231153159914885E-17
220
-4.513815278383400E-17
230
1.0
 40
0.9083744652357181
 41
1.804594242940848
 42
3.808998900156912
  0
ELLIPSE
  5
12E2A6
330
18
100
AcDbEntity
  8
姿図
100
AcDbEllipse
 10
9523.53119600772
 20
-4985.618372802795
 30
0.0
 11
0.03310067962663003
 21
0.0462405667664149
 31
-3.156747423222693E-18
210
3.231153159914905E-17
220
4.513815278383433E-17
230
1.0
 40
0.9083744652357173
 41
1.804594242940723
 42
3.808998900156777
  0
ELLIPSE
  5
12E2A7
330
18
100
AcDbEntity
  8
姿図
100
AcDbEllipse
 10
9523.53119600772
 20
-4986.16766493519
 30
0.0
 11
0.03310067962663003
 21
0.0462405667664149
 31
-3.156747423222693E-18
210
3.231153159914905E-17
220
4.513815278383433E-17
230
1.0
 40
0.9083744652357173
 41
1.804594242940692
 42
3.808998900156467
  0
ELLIPSE
  5
12E2A8
330
18
100
AcDbEntity
  8
姿図
100
AcDbEllipse
 10
9523.53119600772
 20
-4983.421204273206
 30
0.0
 11
0.03310067962663108
 21
0.04624056676641634
 31
3.156747423222771E-18
210
-3.231153159914885E-17
220
-4.513815278383400E-17
230
1.0
 40
0.9083744652357181
 41
1.804594242940803
 42
3.808998900156824
  0
ELLIPSE
  5
12E2A9
330
18
100
AcDbEntity
  8
姿図
100
AcDbEllipse
 10
9523.53119600772
 20
-4983.970496405602
 30
0.0
 11
0.03310067962663108
 21
0.04624056676641634
 31
3.156747423222771E-18
210
-3.231153159914885E-17
220
-4.513815278383400E-17
230
1.0
 40
0.9083744652357181
 41
1.804594242940766
 42
3.808998900156787
  0
ELLIPSE
  5
12E2AA
330
18
100
AcDbEntity
  8
姿図
100
AcDbEllipse
 10
9523.53119600772
 20
-4984.519788537997
 30
0.0
 11
0.03310067962663108
 21
0.04624056676641634
 31
3.156747423222771E-18
210
-3.231153159914885E-17
220
-4.513815278383400E-17
230
1.0
 40
0.9083744652357181
 41
1.804594242940876
 42
3.808998900156855
  0
ELLIPSE
  5
12E2AB
330
18
100
AcDbEntity
  8
姿図
100
AcDbEllipse
 10
9521.890523627215
 20
-4986.686017078882
 30
0.0
 11
0.03310067962662746
 21
0.04624056676642001
 31
3.156747423222840E-18
210
-3.231153159914513E-17
220
-4.513815278383712E-17
230
1.0
 40
0.908374465235721
 41
4.946186896530419
 42
6.950591553746441
  0
ELLIPSE
  5
12E2AC
330
18
100
AcDbEntity
  8
姿図
100
AcDbEllipse
 10
9521.890523627215
 20
-4987.235309211278
 30
0.0
 11
0.03310067962662746
 21
0.04624056676642001
 31
3.156747423222840E-18
210
-3.231153159914513E-17
220
-4.513815278383712E-17
230
1.0
 40
0.908374465235721
 41
4.946186896530518
 42
6.95059155374682
  0
ELLIPSE
  5
12E2AD
330
18
100
AcDbEntity
  8
姿図
100
AcDbEllipse
 10
9521.890523627215
 20
-4983.390264284495
 30
0.0
 11
0.03310067962663688
 21
0.04624056676643312
 31
3.156747423223714E-18
210
-3.231153159914485E-17
220
-4.513815278383685E-17
230
1.0
 40
0.9083744652357204
 41
4.946186896530406
 42
6.950591553746625
  0
ELLIPSE
  5
12E2AE
330
18
100
AcDbEntity
  8
姿図
100
AcDbEllipse
 10
9521.890523627215
 20
-4985.038140681689
 30
0.0
 11
0.03310067962662746
 21
0.04624056676642001
 31
3.156747423222840E-18
210
-3.231153159914513E-17
220
-4.513815278383712E-17
230
1.0
 40
0.908374465235721
 41
4.946186896530169
 42
6.950591553746752
  0
ELLIPSE
  5
12E2AF
330
18
100
AcDbEntity
  8
姿図
100
AcDbEllipse
 10
9521.890523627215
 20
-4985.587432814087
 30
0.0
 11
0.03310067962662746
 21
0.04624056676642001
 31
3.156747423222840E-18
210
-3.231153159914513E-17
220
-4.513815278383712E-17
230
1.0
 40
0.908374465235721
 41
4.946186896530518
 42
6.95059155374654
  0
ELLIPSE
  5
12E2B0
330
18
100
AcDbEntity
  8
姿図
100
AcDbEllipse
 10
9521.890523627215
 20
-4986.136724946483
 30
0.0
 11
0.03310067962662746
 21
0.04624056676642001
 31
3.156747423222840E-18
210
-3.231153159914513E-17
220
-4.513815278383712E-17
230
1.0
 40
0.908374465235721
 41
4.946186896530611
 42
6.950591553746913
  0
ELLIPSE
  5
12E2B1
330
18
100
AcDbEntity
  8
姿図
100
AcDbEllipse
 10
9521.890523627215
 20
-4983.939556416894
 30
0.0
 11
0.03310067962662746
 21
0.04624056676642001
 31
3.156747423222840E-18
210
-3.231153159914513E-17
220
-4.513815278383712E-17
230
1.0
 40
0.908374465235721
 41
4.946186896530611
 42
6.950591553747201
  0
ELLIPSE
  5
12E2B2
330
18
100
AcDbEntity
  8
姿図
100
AcDbEllipse
 10
9521.890523627215
 20
-4984.48884854929
 30
0.0
 11
0.03310067962662746
 21
0.04624056676642001
 31
3.156747423222840E-18
210
-3.231153159914513E-17
220
-4.513815278383712E-17
230
1.0
 40
0.908374465235721
 41
4.946186896530643
 42
6.950591553746944
  0
ELLIPSE
  5
12E2B3
330
18
100
AcDbEntity
  8
姿図
100
AcDbEllipse
 10
9521.890523627215
 20
-4982.291680019704
 30
0.0
 11
0.03310067962663688
 21
0.04624056676643312
 31
3.156747423223714E-18
210
-3.231153159914485E-17
220
-4.513815278383685E-17
230
1.0
 40
0.9083744652357204
 41
4.946186896530376
 42
6.950591553746025
  0
ELLIPSE
  5
12E2B4
330
18
100
AcDbEntity
  8
姿図
100
AcDbEllipse
 10
9521.890523627215
 20
-4982.8409721521
 30
0.0
 11
0.03310067962663688
 21
0.04624056676643312
 31
3.156747423223714E-18
210
-3.231153159914485E-17
220
-4.513815278383685E-17
230
1.0
 40
0.9083744652357204
 41
4.946186896530474
 42
6.950591553746981
  0
ELLIPSE
  5
12E2B5
330
18
100
AcDbEntity
  8
姿図
100
AcDbEllipse
 10
9523.611414038944
 20
-4987.917893030553
 30
0.0
 11
0.03310067962662729
 21
0.04624056676642016
 31
3.156747423222843E-18
210
-3.231153159914464E-17
220
-4.513815278383751E-17
230
1.0
 40
0.9083744652357179
 41
6.006282980254767
 42
6.950591553746565
  0
ELLIPSE
  5
12E2B6
330
18
100
AcDbEntity
  8
姿図
100
AcDbEllipse
 10
9523.843290881308
 20
-4982.983563194499
 30
0.0
 11
0.04414327837343267
 21
-0.5099059656834988
 31
-1.136453535358274E-16
210
1.915108353182200E-17
220
-2.212171841785135E-16
230
1.0
 40
0.3301839125655837
 41
3.143887870131871
 42
4.437113948144754
  0
LINE
  5
12E2B7
330
18
100
AcDbEntity
  8
姿図
100
AcDbLine
 10
9523.668511983527
 20
-4982.972990643732
 30
0.0
 11
9523.669268255402
 21
-4982.85899146905
 31
0.0
  0
ELLIPSE
  5
12E2B8
330
18
100
AcDbEntity
  8
姿図
100
AcDbEllipse
 10
9523.611414038944
 20
-4986.819308765756
 30
0.0
 11
0.03310067962662729
 21
0.04624056676642016
 31
3.156747423222843E-18
210
-3.231153159914464E-17
220
-4.513815278383751E-17
230
1.0
 40
0.9083744652357179
 41
4.946186896530421
 42
6.950591553746442
  0
ELLIPSE
  5
12E2B9
330
18
100
AcDbEntity
  8
姿図
100
AcDbEllipse
 10
9523.611414038944
 20
-4987.368600898151
 30
0.0
 11
0.03310067962662729
 21
0.04624056676642016
 31
3.156747423222843E-18
210
-3.231153159914464E-17
220
-4.513815278383751E-17
230
1.0
 40
0.9083744652357179
 41
4.946186896530445
 42
6.950591553746509
  0
ELLIPSE
  5
12E2BA
330
18
100
AcDbEntity
  8
姿図
100
AcDbEllipse
 10
9523.611414038944
 20
-4983.523555971376
 30
0.0
 11
0.03310067962663663
 21
0.0462405667664333
 31
3.156747423223738E-18
210
-3.231153159914479E-17
220
-4.513815278383739E-17
230
1.0
 40
0.908374465235718
 41
4.946186896530444
 42
6.950591553746381
  0
ELLIPSE
  5
12E2BB
330
18
100
AcDbEntity
  8
姿図
100
AcDbEllipse
 10
9523.611414038944
 20
-4984.072848103771
 30
0.0
 11
0.03310067962663663
 21
0.0462405667664333
 31
3.156747423223738E-18
210
-3.231153159914479E-17
220
-4.513815278383739E-17
230
1.0
 40
0.908374465235718
 41
4.946186896530483
 42
6.950591553746505
  0
ELLIPSE
  5
12E2BC
330
18
100
AcDbEntity
  8
姿図
100
AcDbEllipse
 10
9523.611414038944
 20
-4984.622140236167
 30
0.0
 11
0.03310067962663663
 21
0.0462405667664333
 31
3.156747423223738E-18
210
-3.231153159914479E-17
220
-4.513815278383739E-17
230
1.0
 40
0.908374465235718
 41
4.946186896530291
 42
6.950591553746593
  0
LINE
  5
12E2BD
330
18
100
AcDbEntity
  8
姿図
100
AcDbLine
 10
9524.961331597471
 20
-4983.550046946228
 30
0.0
 11
9524.959162303301
 21
-4983.223457124087
 31
0.0
  0
LINE
  5
12E2BE
330
18
100
AcDbEntity
  8
姿図
100
AcDbLine
 10
9524.482931994135
 20
-4982.409667971249
 30
0.0
 11
9523.798761290585
 21
-4982.47369202558
 31
0.0
  0
LINE
  5
12E2BF
330
18
100
AcDbEntity
  8
姿図
100
AcDbLine
 10
9524.530492015469
 20
-4982.424892636147
 30
0.0
 11
9524.781858030665
 21
-4982.604829572907
 31
0.0
  0
LINE
  5
12E2C0
330
18
100
AcDbEntity
  8
姿図
100
AcDbLine
 10
9524.359751036296
 20
-4982.794376736422
 30
0.0
 11
9524.36831557448
 21
-4984.083778165166
 31
0.0
  0
LINE
  5
12E2C1
330
18
100
AcDbEntity
  8
姿図
100
AcDbLine
 10
9524.667079803956
 20
-4983.798933696298
 30
0.0
 11
9524.130488627557
 21
-4984.310524487836
 31
0.0
  0
ELLIPSE
  5
12E2C2
330
18
100
AcDbEntity
  8
姿図
100
AcDbEllipse
 10
9524.533773662199
 20
-4982.918948461875
 30
0.0
 11
0.05121854025141149
 21
-0.5092439049548338
 31
0.0
210
0.0
220
0.0
230
1.0
 40
0.3266547503873699
 41
2.861757613225559
 42
4.432553940020501
  0
ELLIPSE
  5
12E2C3
330
18
100
AcDbEntity
  8
姿図
100
AcDbEllipse
 10
9524.785139677397
 20
-4983.098885398636
 30
0.0
 11
0.05121854025141149
 21
-0.5092439049548338
 31
0.0
210
0.0
220
0.0
230
1.0
 40
0.3266547503873699
 41
1.290961286430781
 42
2.861757613225615
  0
ELLIPSE
  5
12E2C4
330
18
100
AcDbEntity
  8
姿図
100
AcDbEllipse
 10
9539.896461023814
 20
-4984.868962645165
 30
0.0
 11
-15.78056643601225
 21
-3.000291129059528E-13
 31
-1.751994819888775E-15
210
-1.110223024625157E-16
220
-2.110819219048410E-30
230
1.0
 40
0.2588190451025151
 41
5.28687662288746
 42
6.018106658722737
  0
ELLIPSE
  5
12E2C5
330
18
100
AcDbEntity
  8
姿図
100
AcDbEllipse
 10
9539.896461023814
 20
-4989.867521049979
 30
0.0
 11
-17.96292530891708
 21
-6.690827271273658E-13
 31
0.0
210
0.0
220
0.0
230
1.0
 40
0.2588190451024983
 41
5.241510706344444
 42
6.274432771330732
  0
ELLIPSE
  5
12E2C6
330
18
100
AcDbEntity
  8
姿図
100
AcDbEllipse
 10
9539.896461023814
 20
-4985.885153090099
 30
0.0
 11
-16.34923549676945
 21
-3.112947552725801E-13
 31
-9.075648841766178E-16
210
-5.551115123125783E-17
220
-1.056950353479716E-30
230
1.0
 40
0.258819045102515
 41
5.268090580583092
 42
6.550261017675986
  0
ELLIPSE
  5
12E2C7
330
18
100
AcDbEntity
  8
姿図
100
AcDbEllipse
 10
9539.896461023814
 20
-4985.418254777562
 30
0.0
 11
-16.33657804185923
 21
-3.096934598376082E-13
 31
-9.068622542828936E-16
210
-5.551115123125783E-17
220
-1.052328121613186E-30
230
1.0
 40
0.258819045102515
 41
5.266606351960423
 42
6.276168753067862
  0
ELLIPSE
  5
12E2C8
330
18
100
AcDbEntity
  8
姿図
100
AcDbEllipse
 10
9532.936888438784
 20
-5067.280806746882
 30
0.0
 11
-18.38327958101744
 21
-343.0138562197138
 31
1.906841985697234E-14
210
2.970768119157230E-18
220
5.543160152658211E-17
230
1.0
 40
0.0186593157869327
 41
4.459498662982783
 42
4.472829220484885
  0
LINE
  5
12E2C9
330
18
100
AcDbEntity
  8
姿図
100
AcDbLine
 10
9532.298927584761
 20
-4982.652309700092
 30
0.0
 11
9532.313163234296
 21
-4980.739977632443
 31
0.0
  0
LINE
  5
12E2CA
330
18
100
AcDbEntity
  8
姿図
100
AcDbLine
 10
9535.388187764584
 20
-4980.452219713871
 30
0.0
 11
9535.37395211505
 21
-4982.364551781523
 31
0.0
  0
ELLIPSE
  5
12E2CB
330
18
100
AcDbEntity
  8
姿図
100
AcDbEllipse
 10
9531.302967727715
 20
-4779.885175096113
 30
0.0
 11
-21.1315594781569
 21
387.0160392319078
 31
0.0
210
0.0
220
0.0
230
1.0
 40
0.0171889472793754
 41
2.115486356435118
 42
2.128957736158343
  0
ELLIPSE
  5
12E2CC
330
18
100
AcDbEntity
  8
姿図
100
AcDbEllipse
 10
9546.856033608849
 20
-5065.978266164539
 30
0.0
 11
-18.54276823274225
 21
339.5595730684463
 31
-1.887742687879066E-14
210
-3.026859354980777E-18
220
5.542856694399325E-17
230
1.0
 40
0.0174416807856973
 41
1.315822296819269
 42
1.32915285432137
  0
LINE
  5
12E2CD
330
18
100
AcDbEntity
  8
姿図
100
AcDbLine
 10
9532.463818071234
 20
-4980.84782184458
 30
0.0
 11
9532.477980814889
 21
-4982.630892997959
 31
0.0
  0
ELLIPSE
  5
12E2CE
330
18
100
AcDbEntity
  8
姿図
100
AcDbEllipse
 10
9522.122400469578
 20
-4981.75168724283
 30
0.0
 11
0.04414327837343267
 21
-0.5099059656834988
 31
-1.136453535358274E-16
210
1.915108353182200E-17
220
-2.212171841785135E-16
230
1.0
 40
0.3301839125655837
 41
3.143887870131944
 42
4.437113948144803
  0
ELLIPSE
  5
12E2CF
330
18
100
AcDbEntity
  8
姿図
100
AcDbEllipse
 10
9522.81288325047
 20
-4981.687072510204
 30
0.0
 11
0.05121854025141149
 21
-0.5092439049548338
 31
0.0
210
0.0
220
0.0
230
1.0
 40
0.3266547503873699
 41
2.861757613225725
 42
4.43255394002059
  0
LINE
  5
12E2D0
330
18
100
AcDbEntity
  8
姿図
100
AcDbLine
 10
9522.809601603738
 20
-4981.193016684476
 30
0.0
 11
9523.060967618936
 21
-4981.372953621236
 31
0.0
  0
ELLIPSE
  5
12E2D1
330
18
100
AcDbEntity
  8
姿図
100
AcDbEllipse
 10
9539.896461023814
 20
-4984.868962645165
 30
0.0
 11
-15.78056643601225
 21
-3.000291129059528E-13
 31
-1.751994819888775E-15
210
-1.110223024625157E-16
220
-2.110819219048410E-30
230
1.0
 40
0.2588190451025151
 41
5.002357841538155
 42
5.202574393620892
  0
ELLIPSE
  5
12E2D2
330
18
100
AcDbEntity
  8
姿図
100
AcDbEllipse
 10
9539.896461023814
 20
-4985.418254777562
 30
0.0
 11
-16.33657804185923
 21
-3.096934598376082E-13
 31
-9.068622542828936E-16
210
-5.551115123125783E-17
220
-1.052328121613186E-30
230
1.0
 40
0.258819045102515
 41
3.563618606471713
 42
4.915675910959883
  0
ELLIPSE
  5
12E2D3
330
18
100
AcDbEntity
  8
姿図
100
AcDbEllipse
 10
9539.896461023814
 20
-4985.885153090099
 30
0.0
 11
-16.34923549676945
 21
-3.112947552725801E-13
 31
-9.075648841766178E-16
210
-5.551115123125783E-17
220
-1.056950353479716E-30
230
1.0
 40
0.258819045102515
 41
3.565790486621951
 42
4.913638423115042
  0
ELLIPSE
  5
12E2D4
330
18
100
AcDbEntity
  8
姿図
100
AcDbEllipse
 10
9539.896461023814
 20
-4984.868962645165
 30
0.0
 11
-15.78056643601225
 21
-3.000291129059528E-13
 31
-1.751994819888775E-15
210
-1.110223024625157E-16
220
-2.110819219048410E-30
230
1.0
 40
0.2588190451025151
 41
3.476409367365063
 42
4.924634818196502
  0
ELLIPSE
  5
12E2D5
330
18
100
AcDbEntity
  8
姿図
100
AcDbEllipse
 10
9539.896461023814
 20
-4989.867521049979
 30
0.0
 11
-17.96292530891708
 21
-3.081170829841372E-13
 31
-1.994285326758169E-15
210
-1.110223024625157E-16
220
-1.904359529010099E-30
230
1.0
 40
0.2588190451025165
 41
3.844220094436217
 42
4.877142159422503
  0
LINE
  5
12E2D6
330
18
100
AcDbEntity
  8
姿図
100
AcDbLine
 10
9560.342938376321
 20
-4994.261858109153
 30
0.0
 11
9560.342938376321
 21
-4994.589523962075
 31
0.0
  0
ELLIPSE
  5
12E2D7
330
18
100
AcDbEntity
  8
姿図
100
AcDbEllipse
 10
9539.896461023814
 20
-4991.134700905861
 30
0.0
 11
13.51430367091304
 21
0.0
 31
0.0
210
0.0
220
0.0
230
1.0
 40
0.2673555525296201
 41
5.28076332886401
 42
5.96194421627353
  0
LINE
  5
12E2D8
330
18
100
AcDbEntity
  8
姿図
100
AcDbLine
 10
9521.761776060057
 20
-4990.959465393201
 30
0.0
 11
9521.917374062006
 21
-4990.599721339445
 31
0.0
  0
LINE
  5
12E2D9
330
18
100
AcDbEntity
  8
姿図
100
AcDbLine
 10
9521.890523627215
 20
-4990.476132792414
 30
0.0
 11
9521.810305595991
 21
-4990.483639520728
 31
0.0
  0
LINE
  5
12E2DA
330
18
100
AcDbEntity
  8
姿図
100
AcDbLine
 10
9521.761776060057
 20
-4990.410173260805
 30
0.0
 11
9521.929914954928
 21
-4990.021434543871
 31
0.0
  0
LINE
  5
12E2DB
330
18
100
AcDbEntity
  8
姿図
100
AcDbLine
 10
9521.777204916365
 20
-4990.474950874255
 30
0.0
 11
9521.917895808187
 21
-4990.575662532055
 31
0.0
  0
LINE
  5
12E2DC
330
18
100
AcDbEntity
  8
姿図
100
AcDbLine
 10
9521.756826908506
 20
-4991.848225111526
 30
0.0
 11
9521.756826908506
 21
-4990.983006925427
 31
0.0
  0
ELLIPSE
  5
12E2DD
330
18
100
AcDbEntity
  8
姿図
100
AcDbEllipse
 10
9521.81030559599
 20
-4990.978002439887
 30
0.0
 11
0.03310067962663133
 21
0.04624056676641619
 31
3.156747423222792E-18
210
-3.231153159914926E-17
220
-4.513815278383414E-17
230
1.0
 40
0.9083744652357209
 41
1.804594242940401
 42
2.238202573361832
  0
ELLIPSE
  5
12E2DE
330
18
100
AcDbEntity
  8
姿図
100
AcDbEllipse
 10
9521.81030559599
 20
-4990.428710307488
 30
0.0
 11
0.03310067962662919
 21
0.04624056676641321
 31
0.0
210
0.0
220
0.0
230
1.0
 40
0.908374465235721
 41
1.804594242940566
 42
3.808998900156902
  0
ELLIPSE
  5
12E2DF
330
18
100
AcDbEntity
  8
姿図
100
AcDbEllipse
 10
9521.890523627215
 20
-4990.531062005657
 30
0.0
 11
0.03310067962662746
 21
0.04624056676642001
 31
3.156747423222840E-18
210
-3.231153159914513E-17
220
-4.513815278383712E-17
230
1.0
 40
0.908374465235721
 41
0.0854693314817033
 42
0.6674062465672337
  0
LINE
  5
12E2E0
330
18
100
AcDbEntity
  8
姿図
100
AcDbLine
 10
9519.449983671308
 20
-4994.261858109153
 30
0.0
 11
9519.449983671308
 21
-4994.589523962075
 31
0.0
  0
ELLIPSE
  5
12E2E1
330
18
100
AcDbEntity
  8
姿図
100
AcDbEllipse
 10
9539.896461023814
 20
-4991.134700905861
 30
0.0
 11
13.51430367091304
 21
0.0
 31
0.0
210
0.0
220
0.0
230
1.0
 40
0.2673555525296201
 41
3.462833744495849
 42
4.171550364110386
  0
ELLIPSE
  5
12E2E2
330
18
100
AcDbEntity
  8
姿図
100
AcDbEllipse
 10
9539.896461023814
 20
-4994.80116625094
 30
0.0
 11
16.8928795886413
 21
0.0
 31
0.0
210
0.0
220
0.0
230
1.0
 40
0.26735555252962
 41
5.180243681212037
 42
10.51443037292207
  0
ELLIPSE
  5
12E2E3
330
18
100
AcDbEntity
  8
姿図
100
AcDbEllipse
 10
9539.896461023814
 20
-4994.788719991214
 30
0.0
 11
15.89944312579247
 21
0.0
 31
0.0
210
0.0
220
0.0
230
1.0
 40
0.26735555252962
 41
5.209599264642355
 42
10.48566856919573
  0
ELLIPSE
  5
12E2E4
330
18
100
AcDbEntity
  8
姿図
100
AcDbEllipse
 10
9539.896461023814
 20
-4994.80116625094
 30
0.0
 11
16.8928795886413
 21
0.0
 31
0.0
210
0.0
220
0.0
230
1.0
 40
0.26735555252962
 41
4.427948996759585
 42
4.971841876265056
  0
ELLIPSE
  5
12E2E5
330
18
100
AcDbEntity
  8
姿図
100
AcDbEllipse
 10
9539.896461023814
 20
-4994.589523962075
 30
0.0
 11
20.44647735250701
 21
0.0
 31
0.0
210
0.0
220
0.0
230
1.0
 40
0.2673555525296202
 41
4.470401134071083
 42
4.932249962681063
  0
ELLIPSE
  5
12E2E6
330
18
100
AcDbEntity
  8
姿図
100
AcDbEllipse
 10
9539.896461023814
 20
-4994.788719991214
 30
0.0
 11
15.89944312579247
 21
0.0
 31
0.0
210
0.0
220
0.0
230
1.0
 40
0.26735555252962
 41
4.413557965181504
 42
4.985392136879235
  0
ELLIPSE
  5
12E2E7
330
18
100
AcDbEntity
  8
姿図
100
AcDbEllipse
 10
9539.896461023814
 20
-4994.589523962075
 30
0.0
 11
20.44647735250701
 21
0.0
 31
0.0
210
0.0
220
0.0
230
1.0
 40
0.2673555525296202
 41
5.099058613978904
 42
10.59507337388397
  0
ELLIPSE
  5
12E2E8
330
18
100
AcDbEntity
  8
姿図
100
AcDbEllipse
 10
9539.896461023814
 20
-4994.261858109153
 30
0.0
 11
20.44647735250701
 21
0.0
 31
0.0
210
0.0
220
0.0
230
1.0
 40
0.2673555525296202
 41
6.253210353381123
 42
9.42477796076938
  0
LINE
  5
12E2E9
330
18
100
AcDbEntity
  8
姿図
100
AcDbLine
 10
9521.777204916365
 20
-4989.925658741859
 30
0.0
 11
9521.925443261549
 21
-4990.031773141302
 31
0.0
  0
LINE
  5
12E2EA
330
18
100
AcDbEntity
  8
姿図
100
AcDbLine
 10
9521.93595334417
 20
-4989.742991789716
 30
0.0
 11
9521.891831901266
 21
-4991.777523779635
 31
0.0
  0
LINE
  5
12E2EB
330
18
100
AcDbEntity
  8
姿図
100
AcDbLine
 10
9555.71579346039
 20
-4987.805158607312
 30
0.0
 11
9555.71579346039
 21
-4990.890365265421
 31
0.0
  0
LINE
  5
12E2EC
330
18
100
AcDbEntity
  8
姿図
100
AcDbLine
 10
9558.036095139125
 20
-4991.848225111526
 30
0.0
 11
9558.036095139125
 21
-4989.466114946645
 31
0.0
  0
SPLINE
  5
12E2ED
330
18
100
AcDbEntity
  8
姿図
100
AcDbSpline
210
0.0
220
0.0
230
1.0
 70
     8
 71
     3
 72
    26
 73
    22
 74
     0
 42
0.000000001
 43
0.0000000001
 40
5.061336783911485
 40
5.061336783911485
 40
5.061336783911485
 40
5.061336783911485
 40
5.424423750909746
 40
5.424423750909746
 40
5.597379662847512
 40
5.597379662847512
 40
5.659540508070473
 40
5.659540508070473
 40
5.681680215509581
 40
5.681680215509581
 40
5.695637545270647
 40
5.695637545270647
 40
5.707793438358563
 40
5.707793438358563
 40
5.722098011649362
 40
5.722098011649362
 40
5.746604578651288
 40
5.746604578651288
 40
5.804790417739905
 40
5.804790417739905
 40
5.95015367802265
 40
5.95015367802265
 40
5.95015367802265
 40
5.95015367802265
 10
9556.143320667667
 20
-4987.223143181108
 30
0.0000000000000141
 10
9556.121528087195
 20
-4987.215633282615
 30
-0.000000000000002
 10
9556.104532720234
 20
-4987.21161499621
 30
0.0000000000000061
 10
9556.08635597541
 20
-4987.210118352182
 30
0.0000000000000303
 10
9556.079399669978
 20
-4987.210140943675
 30
-0.000000000000002
 10
9556.072700158556
 20
-4987.212984171869
 30
0.0000000000000061
 10
9556.070853044515
 20
-4987.214143687101
 30
-0.000000000000002
 10
9556.069189388683
 20
-4987.2166729987
 30
0.0000000000000061
 10
9556.068777217752
 20
-4987.217509294556
 30
0.0000000000000141
 10
9556.06834369196
 20
-4987.219211149122
 30
0.0000000000000061
 10
9556.068234210245
 20
-4987.219951108601
 30
0.0000000000000222
 10
9556.06819236579
 20
-4987.221508567052
 30
0.0000000000000061
 10
9556.068240208491
 20
-4987.222257237706
 30
0.0000000000000061
 10
9556.068476197714
 20
-4987.2239287334
 30
0.0000000000000061
 10
9556.068681320921
 20
-4987.224813944722
 30
0.0000000000000141
 10
9556.06934463202
 20
-4987.227088885792
 30
0.0000000000000061
 10
9556.069900238672
 20
-4987.228460130744
 30
-0.000000000000002
 10
9556.071775771557
 20
-4987.232513606747
 30
0.0000000000000061
 10
9556.073509719812
 20
-4987.235302155162
 30
0.0000000000000061
 10
9556.079425608787
 20
-4987.243825679159
 30
0.0000000000000141
 10
9556.084844096233
 20
-4987.249803203913
 30
-0.000000000000002
 10
9556.08923404758
 20
-4987.254330263649
 30
-0.000000000000002
  0
SPLINE
  5
12E2EE
330
18
100
AcDbEntity
  8
姿図
100
AcDbSpline
210
0.0
220
0.0
230
1.0
 70
     8
 71
     3
 72
    10
 73
     6
 74
     0
 42
0.000000001
 43
0.0000000001
 40
1.049331515521564
 40
1.049331515521564
 40
1.049331515521564
 40
1.049331515521564
 40
1.060416395005242
 40
1.060416395005242
 40
1.145877108045186
 40
1.145877108045186
 40
1.145877108045186
 40
1.145877108045186
 10
9557.426992698107
 20
-4989.011024788541
 30
0.0000000000000141
 10
9557.427243990234
 20
-4989.011770285791
 30
0.0000000000000141
 10
9557.427464752403
 20
-4989.012521010062
 30
0.0000000000000141
 10
9557.429121372075
 20
-4989.019083115229
 30
-0.0000000000000101
 10
9557.428668403756
 20
-4989.025037742206
 30
0.0000000000000061
 10
9557.427015948455
 20
-4989.030113907569
 30
-0.000000000000002
  0
SPLINE
  5
12E2EF
330
18
100
AcDbEntity
  8
姿図
100
AcDbSpline
210
0.0
220
0.0
230
1.0
 70
    11
 71
     3
 72
    38
 73
    34
 74
     0
 42
0.000000001
 43
0.0000000001
 40
0.0
 40
0.0
 40
0.0
 40
0.0
 40
0.4899871145494815
 40
0.4899871145494815
 40
0.979974229098963
 40
0.979974229098963
 40
1.469880324151053
 40
1.469880324151053
 40
1.959786419203144
 40
1.959786419203144
 40
2.449692514255234
 40
2.449692514255234
 40
2.939598609307323
 40
2.939598609307323
 40
3.429585723856796
 40
3.429585723856796
 40
3.919572838406268
 40
3.919572838406268
 40
4.409171093943909
 40
4.409171093943909
 40
4.898769349481551
 40
4.898769349481551
 40
5.388322667025809
 40
5.388322667025809
 40
5.877875984570069
 40
5.877875984570069
 40
6.367429302114321
 40
6.367429302114321
 40
6.856982619658574
 40
6.856982619658574
 40
7.346580875196199
 40
7.346580875196199
 40
7.836179130733825
 40
7.836179130733825
 40
7.836179130733825
 40
7.836179130733825
 10
9551.77146012054
 20
-4987.742021755612
 30
-0.000000000000002
 10
9551.772102005318
 20
-4987.786680485281
 30
0.0000000000000061
 10
9551.765816582472
 20
-4987.832727183419
 30
0.0000000000000061
 10
9551.738677000547
 20
-4987.913919557389
 30
-0.000000000000002
 10
9551.71781634352
 20
-4987.949067640114
 30
0.0000000000000061
 10
9551.669127077032
 20
-4988.001086219302
 30
0.0000000000000061
 10
9551.638053067703
 20
-4988.021426519899
 30
0.0000000000000061
 10
9551.569369999857
 20
-4988.042394879283
 30
0.0000000000000061
 10
9551.531754107786
 20
-4988.043024664711
 30
0.0000000000000141
 10
9551.460742743951
 20
-4988.027535994306
 30
-0.000000000000002
 10
9551.422620866713
 20
-4988.010386636759
 30
0.0000000000000141
 10
9551.351995820936
 20
-4987.959033035641
 30
0.0000000000000061
 10
9551.319499056455
 20
-4987.924826971733
 30
-0.000000000000002
 10
9551.267807977834
 20
-4987.850913895721
 30
0.0000000000000141
 10
9551.245170315575
 20
-4987.806278160677
 30
0.0000000000000222
 10
9551.214648296545
 20
-4987.712508904869
 30
-0.000000000000002
 10
9551.206770677749
 20
-4987.66337302956
 30
0.0000000000000141
 10
9551.205548506276
 20
-4987.574104336248
 30
0.0000000000000061
 10
9551.212111591256
 20
-4987.528019052206
 30
-0.000000000000002
 10
9551.24020345388
 20
-4987.446615715206
 30
0.0000000000000061
 10
9551.26172572298
 20
-4987.411299897196
 30
0.0000000000000141
 10
9551.311643651887
 20
-4987.358959443776
 30
0.0000000000000141
 10
9551.34336493614
 20
-4987.338444428382
 30
0.0000000000000061
 10
9551.412941022125
 20
-4987.317226978657
 30
0.0000000000000141
 10
9551.450789201699
 20
-4987.316526569404
 30
0.0000000000000141
 10
9551.521749430809
 20
-4987.332004086538
 30
0.0000000000000222
 10
9551.559592666326
 20
-4987.349213957337
 30
0.0000000000000141
 10
9551.629263939009
 20
-4987.400803397216
 30
0.0000000000000141
 10
9551.661098582223
 20
-4987.435180937699
 30
0.0000000000000061
 10
9551.711558817231
 20
-4987.509415412196
 30
0.0000000000000061
 10
9551.73354843378
 20
-4987.554221841556
 30
0.0000000000000141
 10
9551.763175042248
 20
-4987.648214464649
 30
0.0000000000000222
 10
9551.770818745172
 20
-4987.69739846759
 30
0.0000000000000061
 10
9551.77146012054
 20
-4987.742021755612
 30
-0.000000000000002
  0
SPLINE
  5
12E2F0
330
18
100
AcDbEntity
  8
姿図
100
AcDbSpline
210
0.0
220
0.0
230
1.0
 70
     8
 71
     3
 72
    24
 73
    20
 74
     0
 42
0.000000001
 43
0.0000000001
 40
9.158211213992672
 40
9.158211213992672
 40
9.158211213992672
 40
9.158211213992672
 40
9.170191443583112
 40
9.170191443583112
 40
9.737477062085201
 40
9.737477062085201
 40
10.30476268058729
 40
10.30476268058729
 40
10.87204829908938
 40
10.87204829908938
 40
11.43933391759147
 40
11.43933391759147
 40
12.01567227050256
 40
12.01567227050256
 40
12.59201062341365
 40
12.59201062341365
 40
13.16834897632474
 40
13.16834897632474
 40
13.72927459805347
 40
13.72927459805347
 40
13.72927459805347
 40
13.72927459805347
 10
9555.250115011775
 20
-4984.058620647314
 30
0.0000000000000222
 10
9555.250137824616
 20
-4984.05971658889
 30
0.0000000000000141
 10
9555.250159433646
 20
-4984.060811256179
 30
0.0000000000000141
 10
9555.251146284787
 20
-4984.113677949198
 30
0.0000000000000303
 10
9555.24944783853
 20
-4984.166011058816
 30
0.0000000000000141
 10
9555.24006028876
 20
-4984.26740218427
 30
0.0000000000000141
 10
9555.232373128263
 20
-4984.316462171209
 30
-0.000000000000002
 10
9555.211265175325
 20
-4984.407702537201
 30
0.0000000000000061
 10
9555.197824977904
 20
-4984.449959701249
 30
0.0000000000000061
 10
9555.166228853417
 20
-4984.525144355234
 30
0.0000000000000303
 10
9555.14806857796
 20
-4984.558069077929
 30
-0.000000000000002
 10
9555.108634790904
 20
-4984.613808004482
 30
-0.000000000000002
 10
9555.08596682961
 20
-4984.638366074248
 30
0.0000000000000141
 10
9555.036067731515
 20
-4984.677433252955
 30
0.0000000000000141
 10
9555.008836094861
 20
-4984.691947858943
 30
0.0000000000000141
 10
9554.95146419673
 20
-4984.709689732485
 30
0.0000000000000061
 10
9554.921277843707
 20
-4984.712932144262
 30
0.0000000000000061
 10
9554.86083756057
 20
-4984.708589390236
 30
-0.000000000000002
 10
9554.830606516869
 20
-4984.701292123407
 30
0.0000000000000141
 10
9554.801086582482
 20
-4984.689817506268
 30
0.0000000000000061
  0
SPLINE
  5
12E2F1
330
18
100
AcDbEntity
  8
姿図
100
AcDbSpline
210
0.0
220
0.0
230
1.0
 70
     8
 71
     3
 72
    10
 73
     6
 74
     0
 42
0.000000001
 43
0.0000000001
 40
0.0588189760599532
 40
0.0588189760599532
 40
0.0588189760599532
 40
0.0588189760599532
 40
0.3767108973350863
 40
0.3767108973350863
 40
0.456659258613309
 40
0.456659258613309
 40
0.456659258613309
 40
0.456659258613309
 10
9536.852057826667
 20
-4985.167632159554
 30
0.0000000000000141
 10
9536.853998110055
 20
-4985.197312723899
 30
-0.000000000000002
 10
9536.861182998724
 20
-4985.227777261875
 30
0.0000000000000061
 10
9536.87655778565
 20
-4985.262955159136
 30
0.0000000000000222
 10
9536.879975273332
 20
-4985.269874901303
 30
-0.0000000000000101
 10
9536.883651875527
 20
-4985.276630175723
 30
-0.000000000000002
  0
SPLINE
  5
12E2F2
330
18
100
AcDbEntity
  8
姿図
100
AcDbSpline
210
0.0
220
0.0
230
1.0
 70
    11
 71
     3
 72
    38
 73
    34
 74
     0
 42
0.000000001
 43
0.0000000001
 40
0.0
 40
0.0
 40
0.0
 40
0.0
 40
0.4899871145494814
 40
0.4899871145494814
 40
0.9799742290989628
 40
0.9799742290989628
 40
1.469880324151052
 40
1.469880324151052
 40
1.959786419203141
 40
1.959786419203141
 40
2.44969251425523
 40
2.44969251425523
 40
2.939598609307319
 40
2.939598609307319
 40
3.429585723856792
 40
3.429585723856792
 40
3.919572838406264
 40
3.919572838406264
 40
4.409171093943907
 40
4.409171093943907
 40
4.898769349481549
 40
4.898769349481549
 40
5.388322667025805
 40
5.388322667025805
 40
5.877875984570061
 40
5.877875984570061
 40
6.367429302114317
 40
6.367429302114317
 40
6.856982619658573
 40
6.856982619658573
 40
7.346580875196197
 40
7.346580875196197
 40
7.836179130733821
 40
7.836179130733821
 40
7.836179130733821
 40
7.836179130733821
 10
9534.127497178792
 20
-4986.8296015158
 30
0.0000000000000222
 10
9534.12718534634
 20
-4986.874210926
 30
0.0000000000000061
 10
9534.118056239457
 20
-4986.922561005683
 30
0.0000000000000061
 10
9534.081706952937
 20
-4987.013240473355
 30
0.0000000000000061
 10
9534.05449041279
 20
-4987.05557269537
 30
0.0000000000000061
 10
9533.991973182814
 20
-4987.124208777403
 30
0.0000000000000061
 10
9533.952507264674
 20
-4987.15508980613
 30
0.0000000000000061
 10
9533.866332404401
 20
-4987.199198468849
 30
0.0000000000000141
 10
9533.819626690507
 20
-4987.212428368223
 30
0.0000000000000061
 10
9533.732294907328
 20
-4987.22060079479
 30
0.0000000000000141
 10
9533.685856170941
 20
-4987.216087265924
 30
0.0000000000000061
 10
9533.600705973964
 20
-4987.188011041775
 30
0.0000000000000061
 10
9533.561990756927
 20
-4987.164446130529
 30
0.0000000000000222
 10
9533.501057400106
 20
-4987.107362438908
 30
0.0000000000000061
 10
9533.47477847722
 20
-4987.070036272273
 30
0.0000000000000222
 10
9533.440213896434
 20
-4986.985992857958
 30
0.0000000000000222
 10
9533.431924894227
 20
-4986.939272748627
 30
0.0000000000000141
 10
9533.432623440234
 20
-4986.850082300269
 30
0.0000000000000141
 10
9533.44164448306
 20
-4986.801668291774
 30
-0.0000000000000101
 10
9533.477541282846
 20
-4986.710703177236
 30
-0.000000000000002
 10
9533.50442065188
 20
-4986.668154738967
 30
0.0000000000000061
 10
9533.566287674956
 20
-4986.59911034453
 30
0.0000000000000141
 10
9533.605399019621
 20
-4986.568010862848
 30
0.0000000000000141
 10
9533.691049301273
 20
-4986.523598054146
 30
0.0000000000000141
 10
9533.73759171821
 20
-4986.510287221741
 30
0.0000000000000061
 10
9533.824860614459
 20
-4986.502120680078
 30
0.0000000000000061
 10
9533.871405640075
 20
-4986.506720476701
 30
-0.000000000000002
 10
9533.957005697514
 20
-4986.53510783889
 30
0.0000000000000141
 10
9533.996057229571
 20
-4986.558892911698
 30
-0.000000000000002
 10
9534.057638110797
 20
-4986.616385166744
 30
-0.000000000000002
 10
9534.084270889089
 20
-4986.653925988338
 30
0.0000000000000141
 10
9534.119357897112
 20
-4986.738248504555
 30
0.0000000000000222
 10
9534.127808763767
 20
-4986.785027508105
 30
0.0000000000000061
 10
9534.127497178792
 20
-4986.8296015158
 30
0.0000000000000222
  0
SPLINE
  5
12E2F3
330
18
100
AcDbEntity
  8
姿図
100
AcDbSpline
210
0.0
220
0.0
230
1.0
 70
     8
 71
     3
 72
    14
 73
    10
 74
     0
 42
0.000000001
 43
0.0000000001
 40
1.516995086374685
 40
1.516995086374685
 40
1.516995086374685
 40
1.516995086374685
 40
1.894466177168912
 40
1.894466177168912
 40
2.274814964391462
 40
2.274814964391462
 40
2.651000233863917
 40
2.651000233863917
 40
2.975314369919599
 40
2.975314369919599
 40
2.975314369919599
 40
2.975314369919599
 10
9531.594472610188
 20
-4980.832392054715
 30
0.0000000000000061
 10
9531.56276661314
 20
-4980.836701620001
 30
0.0000000000000061
 10
9531.528949535823
 20
-4980.848087150063
 30
0.0000000000000061
 10
9531.46632739549
 20
-4980.884368723122
 30
0.0000000000000222
 10
9531.437560342483
 20
-4980.909373372742
 30
0.0000000000000061
 10
9531.392226536034
 20
-4980.964122370016
 30
0.0000000000000222
 10
9531.372554157668
 20
-4980.997419255456
 30
-0.000000000000002
 10
9531.348000419952
 20
-4981.063255774444
 30
0.0000000000000061
 10
9531.341383539433
 20
-4981.095272147587
 30
0.0000000000000141
 10
9531.33961910837
 20
-4981.125469238545
 30
-0.000000000000002
  0
SPLINE
  5
12E2F4
330
18
100
AcDbEntity
  8
姿図
100
AcDbSpline
210
6.199803724333221E-9
220
1.399424135363667E-10
230
1.0
 70
    12
 71
     2
 72
     6
 73
     3
 74
     0
 42
0.000000001
 43
0.0000000001
 40
18.67224162152367
 40
18.67224162152367
 40
18.67224162152367
 40
24.03177626439027
 40
24.03177626439027
 40
24.03177626439027
 10
9522.628762871544
 20
-4988.586607679493
 30
-0.0000000000000101
 41
1.000007196260523
 10
9522.612162072155
 20
-4987.851265671818
 30
0.0000000000000061
 41
1.000006449331705
 10
9522.59552832659
 20
-4987.114406317864
 30
0.0000000000000141
 41
1.000004680735829
  0
SPLINE
  5
12E2F5
330
18
100
AcDbEntity
  8
姿図
100
AcDbSpline
210
0.0
220
0.0
230
1.0
 70
     8
 71
     3
 72
    24
 73
    20
 74
     0
 42
0.000000001
 43
0.0000000001
 40
0.0132670700154636
 40
0.0132670700154636
 40
0.0132670700154636
 40
0.0132670700154636
 40
0.5643354427835523
 40
0.5643354427835523
 40
1.128670885567105
 40
1.128670885567105
 40
1.693006328350657
 40
1.693006328350657
 40
2.257341771134209
 40
2.257341771134209
 40
2.838611106649443
 40
2.838611106649443
 40
3.419880442164678
 40
3.419880442164678
 40
4.001149777679912
 40
4.001149777679912
 40
4.582419113195146
 40
4.582419113195146
 40
4.599511058232551
 40
4.599511058232551
 40
4.599511058232551
 40
4.599511058232551
 10
9522.595528326596
 20
-4987.114406317867
 30
0.0000000000000141
 10
9522.596666240479
 20
-4987.164814837362
 30
0.0000000000000061
 10
9522.597090459796
 20
-4987.215551077562
 30
-0.000000000000002
 10
9522.596300405174
 20
-4987.314801720269
 30
0.0000000000000222
 10
9522.595046949615
 20
-4987.363234282348
 30
0.0000000000000222
 10
9522.590956784607
 20
-4987.452989781623
 30
0.0000000000000061
 10
9522.588118600854
 20
-4987.494385855328
 30
-0.000000000000002
 10
9522.581254847815
 20
-4987.567702807737
 30
0.0000000000000061
 10
9522.577231547484
 20
-4987.599620493815
 30
0.0000000000000141
 10
9522.568480754057
 20
-4987.653672089074
 30
-0.000000000000002
 10
9522.563425700817
 20
-4987.677389632262
 30
0.0000000000000061
 10
9522.552514411123
 20
-4987.714412966725
 30
-0.000000000000002
 10
9522.546661329647
 20
-4987.727723945436
 30
0.0000000000000222
 10
9522.534693284035
 20
-4987.742725347118
 30
-0.000000000000002
 10
9522.528571027171
 20
-4987.744428161052
 30
0.0000000000000061
 10
9522.516571689062
 20
-4987.736680794832
 30
0.0000000000000141
 10
9522.51069511597
 20
-4987.727226776953
 30
0.0000000000000303
 10
9522.504999046942
 20
-4987.7129170021
 30
0.0000000000000141
 10
9522.504836298293
 20
-4987.71250362916
 30
0.0000000000000222
 10
9522.504673513115
 20
-4987.712085624957
 30
0.0000000000000061
  0
SPLINE
  5
12E2F6
330
18
100
AcDbEntity
  8
姿図
100
AcDbSpline
210
0.0
220
0.0
230
1.0
 70
    11
 71
     3
 72
    38
 73
    34
 74
     0
 42
0.000000001
 43
0.0000000001
 40
0.0
 40
0.0
 40
0.0
 40
0.0
 40
0.4899871145494816
 40
0.4899871145494816
 40
0.9799742290989633
 40
0.9799742290989633
 40
1.469880324151052
 40
1.469880324151052
 40
1.959786419203141
 40
1.959786419203141
 40
2.44969251425523
 40
2.44969251425523
 40
2.939598609307319
 40
2.939598609307319
 40
3.429585723856792
 40
3.429585723856792
 40
3.919572838406264
 40
3.919572838406264
 40
4.409171093943907
 40
4.409171093943907
 40
4.898769349481552
 40
4.898769349481552
 40
5.388322667025808
 40
5.388322667025808
 40
5.877875984570063
 40
5.877875984570063
 40
6.367429302114317
 40
6.367429302114317
 40
6.856982619658572
 40
6.856982619658572
 40
7.346580875196196
 40
7.346580875196196
 40
7.83617913073382
 40
7.83617913073382
 40
7.83617913073382
 40
7.83617913073382
 10
9522.252498082064
 20
-4990.328177497244
 30
0.0000000000000141
 10
9522.251544364837
 20
-4990.372976017579
 30
0.0000000000000061
 10
9522.248700680797
 20
-4990.423115182375
 30
0.0000000000000061
 10
9522.239490976202
 20
-4990.52060249571
 30
0.0000000000000141
 10
9522.233135093084
 20
-4990.567951419604
 30
0.0000000000000141
 10
9522.219307129595
 20
-4990.647995706278
 30
0.0000000000000061
 10
9522.210915220785
 20
-4990.686028093971
 30
-0.000000000000002
 10
9522.193423428358
 20
-4990.745627586374
 30
0.0000000000000061
 10
9522.18433360654
 20
-4990.767194970542
 30
-0.0000000000000101
 10
9522.168013187194
 20
-4990.790856067513
 30
0.0000000000000061
 10
9522.159696328043
 20
-4990.794524625968
 30
0.0000000000000141
 10
9522.145171176842
 20
-4990.781342813878
 30
0.0000000000000061
 10
9522.138952724286
 20
-4990.76449230697
 30
0.0000000000000061
 10
9522.129710446086
 20
-4990.717894907532
 30
-0.000000000000002
 10
9522.126069185462
 20
-4990.685039691341
 30
0.0000000000000141
 10
9522.122026623703
 20
-4990.606765313203
 30
0.0000000000000222
 10
9522.121615240296
 20
-4990.561345295928
 30
0.0000000000000141
 10
9522.123535957773
 20
-4990.471763453007
 30
0.0000000000000222
 10
9522.125993915619
 20
-4990.421634146101
 30
0.0000000000000141
 10
9522.133798852781
 20
-4990.324138713991
 30
0.0000000000000141
 10
9522.139155952715
 20
-4990.276773204487
 30
0.0000000000000061
 10
9522.151105046883
 20
-4990.196698523357
 30
0.0000000000000141
 10
9522.158495107298
 20
-4990.158650371806
 30
0.0000000000000141
 10
9522.174569302962
 20
-4990.099036951226
 30
-0.000000000000002
 10
9522.183263540324
 20
-4990.077472147249
 30
0.0000000000000141
 10
9522.199572207464
 20
-4990.053828088456
 30
-0.000000000000002
 10
9522.208273997563
 20
-4990.050172395097
 30
0.0000000000000141
 10
9522.22420278232
 20
-4990.063388379014
 30
0.0000000000000061
 10
9522.231419671161
 20
-4990.080259596604
 30
-0.000000000000002
 10
9522.24254031738
 20
-4990.12688811727
 30
0.0000000000000141
 10
9522.247183479125
 20
-4990.159755398739
 30
-0.000000000000002
 10
9522.25264387868
 20
-4990.23801894644
 30
0.0000000000000061
 10
9522.253451042412
 20
-4990.2834145295
 30
0.0000000000000222
 10
9522.252498082064
 20
-4990.328177497244
 30
0.0000000000000141
  0
ENDSEC
  0
SECTION
  2
OBJECTS
  0
DICTIONARY
  5
C
330
0
100
AcDbDictionary
281
     1
  3
ACAD_GROUP
350
D
  3
ACAD_IMAGE_VARS
350
12E4E0
  3
ACAD_LAYOUT
350
617
  3
ACAD_MLINESTYLE
350
E
  3
ACAD_PLOTSETTINGS
350
618
  3
ACAD_PLOTSTYLENAME
350
615
  3
ACAD_SCALELIST
350
A36
  3
AcadDim
350
AB4
  3
AcDbVariableDictionary
350
6DE
  3
APPDATA
350
12E4DF
  3
DWGPROPS
350
12E504
  0
DICTIONARY
  5
8BF
330
2
100
AcDbDictionary
280
     1
281
     1
  3
ACAD_LAYERSTATES
360
8C0
  0
DICTIONARY
  5
A60
330
F
100
AcDbDictionary
280
     1
281
     1
  3
ADSK_XREC_LAYER_RECONCILED
360
A61
  0
DICTIONARY
  5
A66
330
34
100
AcDbDictionary
280
     1
281
     1
  3
ADSK_XREC_LAYER_RECONCILED
360
A67
  0
DICTIONARY
  5
A6E
330
2F4
100
AcDbDictionary
280
     1
281
     1
  3
ADSK_XREC_LAYER_RECONCILED
360
A6F
  0
DICTIONARY
  5
A72
330
305
100
AcDbDictionary
280
     1
281
     1
  3
ADSK_XREC_LAYER_RECONCILED
360
A73
  0
DICTIONARY
  5
143F
330
18
100
AcDbDictionary
280
     1
281
     1
  3
ACAD_SORTENTS
360
1440
  0
DICTIONARY
  5
D
102
{ACAD_REACTORS
330
C
102
}
330
C
100
AcDbDictionary
281
     1
  0
RASTERVARIABLES
  5
12E4E0
102
{ACAD_REACTORS
330
C
102
}
330
C
100
AcDbRasterVariables
 90
        0
 70
     1
 71
     1
 72
     0
  0
DICTIONARY
  5
617
102
{ACAD_REACTORS
330
C
102
}
330
C
100
AcDbDictionary
281
     1
  3
Model
350
619
  3
ﾚｲｱｳﾄ1
350
61A
  0
DICTIONARY
  5
E
102
{ACAD_REACTORS
330
C
102
}
330
C
100
AcDbDictionary
281
     1
  3
STANDARD
350
1B
  0
DICTIONARY
  5
618
102
{ACAD_REACTORS
330
C
102
}
330
C
100
AcDbDictionary
281
     1
  0
ACDBDICTIONARYWDFLT
  5
615
102
{ACAD_REACTORS
330
C
102
}
330
C
100
AcDbDictionary
281
     1
  3
Normal
350
616
100
AcDbDictionaryWithDefault
340
616
  0
DICTIONARY
  5
A36
102
{ACAD_REACTORS
330
C
102
}
330
C
100
AcDbDictionary
281
     1
  3
A0
350
A37
  3
A1
350
A38
  3
A2
350
A39
  3
A3
350
A3A
  3
A4
350
A3B
  3
A5
350
A3C
  3
A6
350
A3D
  3
A7
350
A3E
  3
A8
350
A3F
  3
A9
350
A40
  3
B0
350
A41
  3
B1
350
A42
  3
B2
350
A43
  3
B3
350
A44
  3
B4
350
A45
  3
B5
350
A46
  3
B6
350
A47
  3
B7
350
A48
  3
B8
350
A49
  3
B9
350
A4A
  3
C0
350
A4B
  3
C1
350
A4C
  3
C2
350
A4D
  3
C3
350
A4E
  3
C4
350
A4F
  3
C5
350
A50
  3
C6
350
A51
  3
C7
350
A52
  3
C8
350
A53
  3
C9
350
A54
  3
D0
350
A55
  3
D1
350
A56
  3
D2
350
A57
  0
XRECORD
  5
AB4
102
{ACAD_REACTORS
330
C
102
}
330
C
100
AcDbXrecord
280
     1
 90
   990106
  3
OPEN
 60
     0
 61
     0
 62
     1
 63
     3
 64
     1
 65
     0
 66
     0
 67
     3
 68
     1
 69
     0
 70
     0
 71
     0
 72
     0
 40
0.0
170
     2
  0
DICTIONARY
  5
6DE
102
{ACAD_REACTORS
330
C
102
}
330
C
100
AcDbDictionary
281
     1
  3
DIMASSOC
350
6DF
  3
INDEXCTL
350
A93
  3
PROJECTNAME
350
6E0
  3
SORTENTS
350
A92
  0
DICTIONARY
  5
12E4DF
102
{ACAD_REACTORS
330
C
102
}
330
C
100
AcDbDictionary
281
     1
  0
XRECORD
  5
12E504
102
{ACAD_REACTORS
330
C
102
}
330
C
100
AcDbXrecord
280
     1
  1
DWGPROPS COOKIE
  2

  3

  4

  6

  7

  8
SPAX
  9

300
=
301
=
302
=
303
=
304
=
305
=
306
=
307
=
308
=
309
=
 40
0.0
 41
2448636.244629629
 42
2456821.23327809
  1

 90
        0
  0
DICTIONARY
  5
8C0
102
{ACAD_REACTORS
330
8BF
102
}
330
8BF
100
AcDbDictionary
281
     1
  0
XRECORD
  5
A61
102
{ACAD_REACTORS
330
A60
102
}
330
A60
100
AcDbXrecord
280
     1
290
     1
  0
XRECORD
  5
A67
102
{ACAD_REACTORS
330
A66
102
}
330
A66
100
AcDbXrecord
280
     1
290
     1
  0
XRECORD
  5
A6F
102
{ACAD_REACTORS
330
A6E
102
}
330
A6E
100
AcDbXrecord
280
     1
290
     1
  0
XRECORD
  5
A73
102
{ACAD_REACTORS
330
A72
102
}
330
A72
100
AcDbXrecord
280
     1
290
     1
  0
SORTENTSTABLE
  5
1440
102
{ACAD_REACTORS
330
143F
102
}
330
143F
100
AcDbSortentsTable
330
18
331
0
  5
1071FC
331
D0CC6
  5
D0CC6
331
F6D77
  5
F6D77
331
F6D78
  5
F6D78
  0
LAYOUT
  5
619
102
{ACAD_REACTORS
330
617
102
}
330
617
100
AcDbPlotSettings
  1

  2
JUST PDF 2
  4
A4
  6

 40
3.174999952316284
 41
3.174999952316284
 42
3.175003051757812
 43
3.17498779296875
 44
209.8886566162109
 45
297.0530090332031
 46
14.27171755861491
 47
9.855173074625782
 48
9491.093372420753
 49
-5472.288030791531
140
9841.083809410567
141
-4930.302680514198
142
1.0
143
2.0
 70
  3748
 72
     1
 73
     0
 74
     4
  7
spax form.ctb
 75
     0
147
0.5
148
-9491.093372420753
149
5472.288030791531
100
AcDbLayout
  1
Model
 70
     1
 71
     0
 10
0.0
 20
0.0
 11
12.0
 21
9.0
 12
0.0
 22
0.0
 32
0.0
 14
9492.540145241495
 24
-5067.542411734034
 34
-0.0000000000000117
 15
9561.87347857483
 25
-4978.100408748693
 35
0.0000000000000222
146
0.0
 13
0.0
 23
0.0
 33
0.0
 16
1.0
 26
0.0
 36
0.0
 17
0.0
 27
1.0
 37
0.0
 76
     0
330
18
331
12A20F
1001
ACAD_PSEXT
1000
JUST PDF 2
1000
JUST PDF 2
1000
JUST PDF 2 Port:
1000

1070
     0
  0
LAYOUT
  5
61A
102
{ACAD_REACTORS
330
617
102
}
330
617
100
AcDbPlotSettings
  1

  2
Canon LASER SHOT LBP-750
  4

  6

 40
0.0
 41
0.0
 42
0.0
 43
0.0
 44
0.0
 45
0.0
 46
0.0
 47
0.0
 48
0.0
 49
0.0
140
0.0
141
0.0
142
1.0
143
1.0
 70
   688
 72
     0
 73
     0
 74
     5
  7
spax form.ctb
 75
    16
147
1.0
148
0.0
149
0.0
100
AcDbLayout
  1
ﾚｲｱｳﾄ1
 70
     0
 71
     1
 10
0.0
 20
0.0
 11
12.0
 21
9.0
 12
0.0
 22
0.0
 32
0.0
 14
1.000000000000000E+20
 24
1.000000000000000E+20
 34
1.000000000000000E+20
 15
-1.000000000000000E+20
 25
-1.000000000000000E+20
 35
-1.000000000000000E+20
146
0.0
 13
0.0
 23
0.0
 33
0.0
 16
1.0
 26
0.0
 36
0.0
 17
0.0
 27
1.0
 37
0.0
 76
     0
330
15
  0
MLINESTYLE
  5
1B
102
{ACAD_REACTORS
330
E
102
}
330
E
100
AcDbMlineStyle
  2
STANDARD
 70
     0
  3

 62
     0
 51
90.0
 52
90.0
 71
     2
 49
0.5
 62
   256
  6
BYLAYER
 49
-0.5
 62
   256
  6
BYLAYER
  0
ACDBPLACEHOLDER
  5
616
102
{ACAD_REACTORS
330
615
102
}
330
615
  0
SCALE
  5
A37
102
{ACAD_REACTORS
330
A36
102
}
330
A36
100
AcDbScale
 70
     0
300
1:1
140
1.0
141
1.0
290
     1
  0
SCALE
  5
A38
102
{ACAD_REACTORS
330
A36
102
}
330
A36
100
AcDbScale
 70
     0
300
1:2
140
1.0
141
2.0
290
     0
  0
SCALE
  5
A39
102
{ACAD_REACTORS
330
A36
102
}
330
A36
100
AcDbScale
 70
     0
300
1:4
140
1.0
141
4.0
290
     0
  0
SCALE
  5
A3A
102
{ACAD_REACTORS
330
A36
102
}
330
A36
100
AcDbScale
 70
     0
300
1:5
140
1.0
141
5.0
290
     0
  0
SCALE
  5
A3B
102
{ACAD_REACTORS
330
A36
102
}
330
A36
100
AcDbScale
 70
     0
300
1:8
140
1.0
141
8.0
290
     0
  0
SCALE
  5
A3C
102
{ACAD_REACTORS
330
A36
102
}
330
A36
100
AcDbScale
 70
     0
300
1:10
140
1.0
141
10.0
290
     0
  0
SCALE
  5
A3D
102
{ACAD_REACTORS
330
A36
102
}
330
A36
100
AcDbScale
 70
     0
300
1:16
140
1.0
141
16.0
290
     0
  0
SCALE
  5
A3E
102
{ACAD_REACTORS
330
A36
102
}
330
A36
100
AcDbScale
 70
     0
300
1:20
140
1.0
141
20.0
290
     0
  0
SCALE
  5
A3F
102
{ACAD_REACTORS
330
A36
102
}
330
A36
100
AcDbScale
 70
     0
300
1:30
140
1.0
141
30.0
290
     0
  0
SCALE
  5
A40
102
{ACAD_REACTORS
330
A36
102
}
330
A36
100
AcDbScale
 70
     0
300
1:40
140
1.0
141
40.0
290
     0
  0
SCALE
  5
A41
102
{ACAD_REACTORS
330
A36
102
}
330
A36
100
AcDbScale
 70
     0
300
1:50
140
1.0
141
50.0
290
     0
  0
SCALE
  5
A42
102
{ACAD_REACTORS
330
A36
102
}
330
A36
100
AcDbScale
 70
     0
300
1:100
140
1.0
141
100.0
290
     0
  0
SCALE
  5
A43
102
{ACAD_REACTORS
330
A36
102
}
330
A36
100
AcDbScale
 70
     0
300
2:1
140
2.0
141
1.0
290
     0
  0
SCALE
  5
A44
102
{ACAD_REACTORS
330
A36
102
}
330
A36
100
AcDbScale
 70
     0
300
4:1
140
4.0
141
1.0
290
     0
  0
SCALE
  5
A45
102
{ACAD_REACTORS
330
A36
102
}
330
A36
100
AcDbScale
 70
     0
300
8:1
140
8.0
141
1.0
290
     0
  0
SCALE
  5
A46
102
{ACAD_REACTORS
330
A36
102
}
330
A36
100
AcDbScale
 70
     0
300
10:1
140
10.0
141
1.0
290
     0
  0
SCALE
  5
A47
102
{ACAD_REACTORS
330
A36
102
}
330
A36
100
AcDbScale
 70
     0
300
100:1
140
100.0
141
1.0
290
     0
  0
SCALE
  5
A48
102
{ACAD_REACTORS
330
A36
102
}
330
A36
100
AcDbScale
 70
     0
300
1/128" = 1'-0"
140
0.0078125
141
12.0
290
     0
  0
SCALE
  5
A49
102
{ACAD_REACTORS
330
A36
102
}
330
A36
100
AcDbScale
 70
     0
300
1/64" = 1'-0"
140
0.015625
141
12.0
290
     0
  0
SCALE
  5
A4A
102
{ACAD_REACTORS
330
A36
102
}
330
A36
100
AcDbScale
 70
     0
300
1/32" = 1'-0"
140
0.03125
141
12.0
290
     0
  0
SCALE
  5
A4B
102
{ACAD_REACTORS
330
A36
102
}
330
A36
100
AcDbScale
 70
     0
300
1/16" = 1'-0"
140
0.0625
141
12.0
290
     0
  0
SCALE
  5
A4C
102
{ACAD_REACTORS
330
A36
102
}
330
A36
100
AcDbScale
 70
     0
300
3/32" = 1'-0"
140
0.09375
141
12.0
290
     0
  0
SCALE
  5
A4D
102
{ACAD_REACTORS
330
A36
102
}
330
A36
100
AcDbScale
 70
     0
300
1/8" = 1'-0"
140
0.125
141
12.0
290
     0
  0
SCALE
  5
A4E
102
{ACAD_REACTORS
330
A36
102
}
330
A36
100
AcDbScale
 70
     0
300
3/16" = 1'-0"
140
0.1875
141
12.0
290
     0
  0
SCALE
  5
A4F
102
{ACAD_REACTORS
330
A36
102
}
330
A36
100
AcDbScale
 70
     0
300
1/4" = 1'-0"
140
0.25
141
12.0
290
     0
  0
SCALE
  5
A50
102
{ACAD_REACTORS
330
A36
102
}
330
A36
100
AcDbScale
 70
     0
300
3/8" = 1'-0"
140
0.375
141
12.0
290
     0
  0
SCALE
  5
A51
102
{ACAD_REACTORS
330
A36
102
}
330
A36
100
AcDbScale
 70
     0
300
1/2" = 1'-0"
140
0.5
141
12.0
290
     0
  0
SCALE
  5
A52
102
{ACAD_REACTORS
330
A36
102
}
330
A36
100
AcDbScale
 70
     0
300
3/4" = 1'-0"
140
0.75
141
12.0
290
     0
  0
SCALE
  5
A53
102
{ACAD_REACTORS
330
A36
102
}
330
A36
100
AcDbScale
 70
     0
300
1" = 1'-0"
140
1.0
141
12.0
290
     0
  0
SCALE
  5
A54
102
{ACAD_REACTORS
330
A36
102
}
330
A36
100
AcDbScale
 70
     0
300
1-1/2" = 1'-0"
140
1.5
141
12.0
290
     0
  0
SCALE
  5
A55
102
{ACAD_REACTORS
330
A36
102
}
330
A36
100
AcDbScale
 70
     0
300
3" = 1'-0"
140
3.0
141
12.0
290
     0
  0
SCALE
  5
A56
102
{ACAD_REACTORS
330
A36
102
}
330
A36
100
AcDbScale
 70
     0
300
6" = 1'-0"
140
6.0
141
12.0
290
     0
  0
SCALE
  5
A57
102
{ACAD_REACTORS
330
A36
102
}
330
A36
100
AcDbScale
 70
     0
300
1'-0" = 1'-0"
140
12.0
141
12.0
290
     0
  0
DICTIONARYVAR
  5
6DF
102
{ACAD_REACTORS
330
6DE
102
}
330
6DE
100
DictionaryVariables
280
     0
  1
1
  0
DICTIONARYVAR
  5
A93
102
{ACAD_REACTORS
330
6DE
102
}
330
6DE
100
DictionaryVariables
280
     0
  1
0
  0
DICTIONARYVAR
  5
6E0
102
{ACAD_REACTORS
330
6DE
102
}
330
6DE
100
DictionaryVariables
280
     0
  1

  0
DICTIONARYVAR
  5
A92
102
{ACAD_REACTORS
330
6DE
102
}
330
6DE
100
DictionaryVariables
280
     0
  1
127
  0
ENDSEC
  0
EOF
