  0
SECTION
  2
HEADER
  9
$ACADVER
  1
AC1015
  9
$ACADMAINTVER
 70
     6
  9
$DWGCODEPAGE
  3
ANSI_932
  9
$INSBASE
 10
0.0
 20
0.0
 30
0.0
  9
$EXTMIN
 10
3869.279133520233
 20
-3852.871771366391
 30
0.0
  9
$EXTMAX
 10
3934.214423976883
 20
-3771.01446674618
 30
0.0
  9
$LIMMIN
 10
0.0
 20
0.0
  9
$LIMMAX
 10
420.0
 20
297.0
  9
$ORTHOMODE
 70
     1
  9
$REGENMODE
 70
     1
  9
$FILLMODE
 70
     1
  9
$QTEXTMODE
 70
     0
  9
$MIRRTEXT
 70
     1
  9
$LTSCALE
 40
25.4
  9
$ATTMODE
 70
     1
  9
$TEXTSIZE
 40
2.5
  9
$TRACEWID
 40
1.0
  9
$TEXTSTYLE
  7
STANDARD
  9
$CLAYER
  8
寸法線
  9
$CELTYPE
  6
BYLAYER
  9
$CECOLOR
 62
   256
  9
$CELTSCALE
 40
1.0
  9
$DISPSILH
 70
     0
  9
$DIMSCALE
 40
1.0
  9
$DIMASZ
 40
2.0
  9
$DIMEXO
 40
1.0
  9
$DIMDLI
 40
3.75
  9
$DIMRND
 40
0.0
  9
$DIMDLE
 40
0.0
  9
$DIMEXE
 40
1.25
  9
$DIMTP
 40
0.0
  9
$DIMTM
 40
0.0
  9
$DIMTXT
 40
3.5
  9
$DIMCEN
 40
0.0
  9
$DIMTSZ
 40
0.0
  9
$DIMTOL
 70
     0
  9
$DIMLIM
 70
     0
  9
$DIMTIH
 70
     0
  9
$DIMTOH
 70
     0
  9
$DIMSE1
 70
     0
  9
$DIMSE2
 70
     0
  9
$DIMTAD
 70
     3
  9
$DIMZIN
 70
     8
  9
$DIMBLK
  1

  9
$DIMASO
 70
     1
  9
$DIMSHO
 70
     1
  9
$DIMPOST
  1

  9
$DIMAPOST
  1

  9
$DIMALT
 70
     0
  9
$DIMALTD
 70
     2
  9
$DIMALTF
 40
0.0394
  9
$DIMLFAC
 40
1.0
  9
$DIMTOFL
 70
     1
  9
$DIMTVP
 40
0.0
  9
$DIMTIX
 70
     1
  9
$DIMSOXD
 70
     0
  9
$DIMSAH
 70
     1
  9
$DIMBLK1
  1
OPEN
  9
$DIMBLK2
  1
OPEN
  9
$DIMSTYLE
  2
STANDARD
  9
$DIMCLRD
 70
     8
  9
$DIMCLRE
 70
     8
  9
$DIMCLRT
 70
     0
  9
$DIMTFAC
 40
1.0
  9
$DIMGAP
 40
1.0
  9
$DIMJUST
 70
     0
  9
$DIMSD1
 70
     0
  9
$DIMSD2
 70
     0
  9
$DIMTOLJ
 70
     1
  9
$DIMTZIN
 70
     0
  9
$DIMALTZ
 70
     0
  9
$DIMALTTZ
 70
     0
  9
$DIMUPT
 70
     0
  9
$DIMDEC
 70
     2
  9
$DIMTDEC
 70
     2
  9
$DIMALTU
 70
     8
  9
$DIMALTTD
 70
     2
  9
$DIMTXSTY
  7
STANDARD
  9
$DIMAUNIT
 70
     0
  9
$DIMADEC
 70
     0
  9
$DIMALTRND
 40
0.0
  9
$DIMAZIN
 70
     0
  9
$DIMDSEP
 70
    46
  9
$DIMATFIT
 70
     3
  9
$DIMFRAC
 70
     0
  9
$DIMLDRBLK
  1
OPEN
  9
$DIMLUNIT
 70
     2
  9
$DIMLWD
 70
    -1
  9
$DIMLWE
 70
    -1
  9
$DIMTMOVE
 70
     0
  9
$LUNITS
 70
     2
  9
$LUPREC
 70
     4
  9
$SKETCHINC
 40
1.0
  9
$FILLETRAD
 40
0.5
  9
$AUNITS
 70
     0
  9
$AUPREC
 70
     0
  9
$MENU
  1
.
  9
$ELEVATION
 40
0.0
  9
$PELEVATION
 40
0.0
  9
$THICKNESS
 40
0.0
  9
$LIMCHECK
 70
     0
  9
$CHAMFERA
 40
1.0
  9
$CHAMFERB
 40
1.0
  9
$CHAMFERC
 40
20.0
  9
$CHAMFERD
 40
0.0
  9
$SKPOLY
 70
     0
  9
$TDCREATE
 40
2451023.406981945
  9
$TDUCREATE
 40
2451023.031981945
  9
$TDUPDATE
 40
2456822.445344803
  9
$TDUUPDATE
 40
2456822.070344803
  9
$TDINDWG
 40
14.8755246181
  9
$TDUSRTIMER
 40
2456822.070213519
  9
$USRTIMER
 70
     1
  9
$ANGBASE
 50
0.0
  9
$ANGDIR
 70
     0
  9
$PDMODE
 70
     0
  9
$PDSIZE
 40
0.0
  9
$PLINEWID
 40
0.0
  9
$SPLFRAME
 70
     0
  9
$SPLINETYPE
 70
     6
  9
$SPLINESEGS
 70
     8
  9
$HANDSEED
  5
8E13C
  9
$SURFTAB1
 70
     6
  9
$SURFTAB2
 70
     6
  9
$SURFTYPE
 70
     6
  9
$SURFU
 70
     6
  9
$SURFV
 70
     6
  9
$UCSBASE
  2

  9
$UCSNAME
  2

  9
$UCSORG
 10
0.0
 20
0.0
 30
0.0
  9
$UCSXDIR
 10
1.0
 20
0.0
 30
0.0
  9
$UCSYDIR
 10
0.0
 20
1.0
 30
0.0
  9
$UCSORTHOREF
  2

  9
$UCSORTHOVIEW
 70
     0
  9
$UCSORGTOP
 10
0.0
 20
0.0
 30
0.0
  9
$UCSORGBOTTOM
 10
0.0
 20
0.0
 30
0.0
  9
$UCSORGLEFT
 10
0.0
 20
0.0
 30
0.0
  9
$UCSORGRIGHT
 10
0.0
 20
0.0
 30
0.0
  9
$UCSORGFRONT
 10
0.0
 20
0.0
 30
0.0
  9
$UCSORGBACK
 10
0.0
 20
0.0
 30
0.0
  9
$PUCSBASE
  2

  9
$PUCSNAME
  2

  9
$PUCSORG
 10
0.0
 20
0.0
 30
0.0
  9
$PUCSXDIR
 10
1.0
 20
0.0
 30
0.0
  9
$PUCSYDIR
 10
0.0
 20
1.0
 30
0.0
  9
$PUCSORTHOREF
  2

  9
$PUCSORTHOVIEW
 70
     0
  9
$PUCSORGTOP
 10
0.0
 20
0.0
 30
0.0
  9
$PUCSORGBOTTOM
 10
0.0
 20
0.0
 30
0.0
  9
$PUCSORGLEFT
 10
0.0
 20
0.0
 30
0.0
  9
$PUCSORGRIGHT
 10
0.0
 20
0.0
 30
0.0
  9
$PUCSORGFRONT
 10
0.0
 20
0.0
 30
0.0
  9
$PUCSORGBACK
 10
0.0
 20
0.0
 30
0.0
  9
$USERI1
 70
     0
  9
$USERI2
 70
     0
  9
$USERI3
 70
     0
  9
$USERI4
 70
     0
  9
$USERI5
 70
     0
  9
$USERR1
 40
0.0
  9
$USERR2
 40
0.0
  9
$USERR3
 40
0.0
  9
$USERR4
 40
0.0
  9
$USERR5
 40
0.0
  9
$WORLDVIEW
 70
     1
  9
$SHADEDGE
 70
     3
  9
$SHADEDIF
 70
    70
  9
$TILEMODE
 70
     1
  9
$MAXACTVP
 70
    48
  9
$PINSBASE
 10
0.0
 20
0.0
 30
0.0
  9
$PLIMCHECK
 70
     0
  9
$PEXTMIN
 10
26.66999878883362
 20
20.31999878883363
 30
0.0
  9
$PEXTMAX
 10
240.0299890995026
 20
182.8799890995026
 30
0.0
  9
$PLIMMIN
 10
-6.350006103515625
 20
-6.349999904632568
  9
$PLIMMAX
 10
273.0499877929688
 20
209.5499939918518
  9
$UNITMODE
 70
     0
  9
$VISRETAIN
 70
     1
  9
$PLINEGEN
 70
     0
  9
$PSLTSCALE
 70
     1
  9
$TREEDEPTH
 70
  3020
  9
$CMLSTYLE
  2
STANDARD
  9
$CMLJUST
 70
     0
  9
$CMLSCALE
 40
20.0
  9
$PROXYGRAPHICS
 70
     1
  9
$MEASUREMENT
 70
     1
  9
$CELWEIGHT
370
    -1
  9
$ENDCAPS
280
     0
  9
$JOINSTYLE
280
     0
  9
$LWDISPLAY
290
     0
  9
$INSUNITS
 70
     0
  9
$HYPERLINKBASE
  1

  9
$STYLESHEET
  1
spax form.ctb
  9
$XEDIT
290
     1
  9
$CEPSNTYPE
380
     0
  9
$PSTYLEMODE
290
     1
  9
$FINGERPRINTGUID
  2
{7F37EF69-612C-11D5-98F7-00E0292A5962}
  9
$VERSIONGUID
  2
{72154AEC-D7D8-45BA-AD5B-9CF4971A16D4}
  9
$EXTNAMES
290
     1
  9
$PSVPSCALE
 40
0.0
  9
$OLESTARTUP
290
     0
  0
ENDSEC
  0
SECTION
  2
CLASSES
  0
CLASS
  1
ACMESTATEMGR
  2
AcMeStateMgr
  3
AcMeServices
 90
        0
280
     1
281
     0
  0
CLASS
  1
ACMESCOPE
  2
AcMeScope
  3
AcMeServices
 90
        0
280
     1
281
     0
  0
CLASS
  1
ACMECOMMANDHISTORY
  2
AcMeCommandHistory
  3
AcMeServices
 90
        0
280
     1
281
     0
  0
CLASS
  1
ACRFINSADJUSTERMGR
  2
AcRfInsAdjusterMgr
  3
AcMeServices
 90
        0
280
     1
281
     0
  0
CLASS
  1
ACMEDRAWINGMAN
  2
AcMeDrawingMan
  3
AcMeServices
 90
        0
280
     1
281
     0
  0
CLASS
  1
AMATTR
  2
AcMeAttribute
  3
AcMeServices
 90
        0
280
     1
281
     0
  0
CLASS
  1
ACMEBOMCOLUMN
  2
AcMeBOMColumn
  3
AcMeServices
 90
        0
280
     1
281
     0
  0
CLASS
  1
ACANBOMCONF
  2
AcMeBOMConf
  3
AcMeServices
 90
        0
280
     1
281
     0
  0
CLASS
  1
ACMEBOMTABLE
  2
AcMeBOMTable
  3
AcMeServices
 90
        0
280
     1
281
     0
  0
CLASS
  1
ACMEBOMENTRY
  2
AcMeBOMEntry
  3
AcMeServices
 90
        0
280
     1
281
     0
  0
CLASS
  1
ACMEVIEW
  2
AcMeView
  3
AcMeServices
 90
        0
280
     1
281
     0
  0
CLASS
  1
ACGREFMASTER
  2
AcGrefMaster
  3
AcGrefServices
 90
        0
280
     1
281
     0
  0
CLASS
  1
AMIMASTER
  2
AmiMaster
  3
AmiServices
 90
        0
280
     1
281
     0
  0
CLASS
  1
ACASGREFMASTER
  2
AcAsGrefMaster
  3
AutoSurfResolverServices
 90
        0
280
     1
281
     0
  0
CLASS
  1
ADAPPL
  2
AcAdAppl
  3
DesignerServices
 90
        0
280
     1
281
     0
  0
CLASS
  1
DEPMGR
  2
AcAdDepMgr
  3
DesignerServices
 90
        0
280
     1
281
     0
  0
CLASS
  1
PARAMMGR
  2
AcAdParamMgr
  3
DesignerServices
 90
        0
280
     1
281
     0
  0
CLASS
  1
PARAMSCOPE
  2
AcAdParamScope
  3
DesignerServices
 90
        0
280
     1
281
     0
  0
CLASS
  1
ACIMSYSVARMAN
  2
AcImSysVarManager
  3
AcMeServices
 90
        0
280
     1
281
     0
  0
CLASS
  1
ACIMINTSYSVAR
  2
AcImIntSysVar
  3
AcMeServices
 90
        0
280
     1
281
     0
  0
CLASS
  1
ACIMREALSYSVAR
  2
AcImRealSysVar
  3
AcMeServices
 90
        0
280
     1
281
     0
  0
CLASS
  1
ACIMSTRSYSVAR
  2
AcImStrSysVar
  3
AcMeServices
 90
        0
280
     1
281
     0
  0
CLASS
  1
NAMEDAPPL
  2
AcAdNamedAppl
  3
DesignerServices
 90
        0
280
     1
281
     0
  0
CLASS
  1
ADHNTMPLT
  2
AdHoleNoteTemplateMgr
  3
DesignerServices
 90
        0
280
     1
281
     0
  0
CLASS
  1
AM_HNTEMPLATE_MGR_NAME
  2
AdHoleNoteTemplateMgrName
  3
DesignerServices
 90
        0
280
     1
281
     0
  0
CLASS
  1
ACADGREFMODULE
  2
AcAdGrefModule
  3
AdGrefServices
 90
        0
280
     1
281
     0
  0
CLASS
  1
AM_DRAWING_MGR
  2
AcDmDwgMgr
  3
AcMechDwgViewMgmt
 90
        0
280
     1
281
     0
  0
CLASS
  1
AM_DWG_DOCUMENT
  2
AcDmDwgDocument
  3
AcMechDwgViewMgmt
 90
        0
280
     1
281
     0
  0
CLASS
  1
AM_DWG_SHEET
  2
AcDmSheet
  3
AcMechDwgViewMgmt
 90
        0
280
     1
281
     0
  0
CLASS
  1
AM_VIEWDIMPARMAP
  2
AcDmViewDimParMap
  3
AcMechDwgViewMgmt
 90
        0
280
     1
281
     0
  0
CLASS
  1
AM_DWGMGR_NAME
  2
AcDmDwgMgrName
  3
AcMechDwgViewMgmt
 90
        0
280
     1
281
     0
  0
CLASS
  1
ACAMPROJECT
  2
AcAmProject
  3
DesignerAssemblies
 90
        0
280
     1
281
     0
  0
CLASS
  1
ACAMGRCOMPSET
  2
AcAmGrCompSet
  3
DesignerAssemblies
 90
        0
280
     1
281
     0
  0
CLASS
  1
ACAMGRCOMPDEFSET
  2
AcAmGrCompDefSet
  3
DesignerAssemblies
 90
        0
280
     1
281
     0
  0
CLASS
  1
ACAMGRCOMPDEF
  2
AcAmGrCompDef
  3
DesignerAssemblies
 90
        0
280
     1
281
     0
  0
CLASS
  1
ACCMCONTEXT
  2
AcCmContext
  3
DesignerAssemblies
 90
        0
280
     1
281
     0
  0
CLASS
  1
ACAMCOMPDEF
  2
AcAmCompDef
  3
DesignerAssemblies
 90
        0
280
     1
281
     0
  0
CLASS
  1
ACAMCOMPDEFMGR
  2
AcAmCompDefMgr
  3
DesignerAssemblies
 90
        0
280
     1
281
     0
  0
CLASS
  1
AMCONTEXTMGR
  2
AcAmContextMgr
  3
DesignerAssemblies
 90
        0
280
     1
281
     0
  0
CLASS
  1
ACAMCONTEXTMODELER
  2
AcAmContextModeler
  3
DesignerAssemblies
 90
        0
280
     1
281
     0
  0
CLASS
  1
ACDMVIEWGEOM
  2
AcDmViewGeometry
  3
AcMechDwgViewMgmt
 90
        0
280
     1
281
     1
  0
CLASS
  1
CBROWSERAPPOBJECT
  2
CBrowserAppObject
  3
McadcomServices
 90
        0
280
     1
281
     0
  0
CLASS
  1
IM_STATIC_MAN
  2
AcImStaticVarManager
  3
AcMeServices
 90
        0
280
     1
281
     0
  0
CLASS
  1
ASAPP
  2
AcAsAppObject
  3
AutoSurfServices
 90
        0
280
     1
281
     0
  0
CLASS
  1
ACIMDBLSTATICVAR
  2
AcImDblStaticVar
  3
AcMeServices
 90
        0
280
     1
281
     0
  0
CLASS
  1
ACIMSTRSTATICVAR
  2
AcImStrStaticVar
  3
AcMeServices
 90
        0
280
     1
281
     0
  0
CLASS
  1
ACIMINTSTATICVAR
  2
AcImIntStaticVar
  3
AcMeServices
 90
        0
280
     1
281
     0
  0
CLASS
  1
CATALOGSTATE
  2
AcAmCatalogState
  3
DesignerAssemblies
 90
        0
280
     1
281
     0
  0
CLASS
  1
DM_PLACEHOLDER
  2
AcDmSelsetPlaceholder
  3
AcMechDwgViewMgmt
 90
        0
280
     1
281
     0
  0
CLASS
  1
DICTIONARYVAR
  2
AcDbDictionaryVar
  3
ObjectDBX Classes
 90
        0
280
     0
281
     0
  0
CLASS
  1
LAYER_INDEX
  2
AcDbLayerIndex
  3
ObjectDBX Classes
 90
        0
280
     0
281
     0
  0
CLASS
  1
IDBUFFER
  2
AcDbIdBuffer
  3
ObjectDBX Classes
 90
        0
280
     0
281
     0
  0
CLASS
  1
LWPOLYLINE
  2
AcDbPolyline
  3
ObjectDBX Classes
 90
        0
280
     0
281
     1
  0
CLASS
  1
ADPART
  2
AcAdPart
  3
DesignerServices
 90
        0
280
     1
281
     1
  0
CLASS
  1
ADBASE
  2
AcAdBase
  3
DesignerServices
 90
        0
280
     1
281
     0
  0
CLASS
  1
BODYID
  2
AcAdBodyId
  3
DesignerServices
 90
        0
280
     1
281
     0
  0
CLASS
  1
WORKPLANEDISPLAYMGR
  2
AcAdDisplayMgr
  3
DesignerServices
 90
        0
280
     1
281
     0
  0
CLASS
  1
ADDATUMPLANEABS
  2
AcAdDatumPlaneAbs
  3
DesignerServices
 90
        0
280
     1
281
     0
  0
CLASS
  1
ADDATUMAXISABS
  2
AcAdDatumAxisAbs
  3
DesignerServices
 90
        0
280
     1
281
     0
  0
CLASS
  1
ADDATUMORIENTEDPLANE
  2
AcAdDatumOrientedPlane
  3
DesignerServices
 90
        0
280
     1
281
     0
  0
CLASS
  1
ACADARCACAD
  2
AcAdVirtualArcAcad
  3
DesignerServices
 90
        0
280
     1
281
     0
  0
CLASS
  1
ACADLINEACAD
  2
AcAdVirtualBoundedLineAcad
  3
DesignerServices
 90
        0
280
     1
281
     0
  0
CLASS
  1
ADVIRTUALVERTEX
  2
AcAdVirtualVertex
  3
DesignerServices
 90
        0
280
     1
281
     0
  0
CLASS
  1
ADVIRTUALCONTAINER
  2
AcAdVirtualContainer
  3
DesignerServices
 90
        0
280
     1
281
     0
  0
CLASS
  1
ACADPLLINEACAD
  2
AcAdVirtualLinePlineAcad
  3
DesignerServices
 90
        0
280
     1
281
     0
  0
CLASS
  1
ACADREFLINEACAD
  2
AcAdVirtualReferenceLine
  3
DesignerServices
 90
        0
280
     1
281
     0
  0
CLASS
  1
ACADCONSLINE
  2
AcAdConstrainedLine
  3
DesignerServices
 90
        0
280
     1
281
     0
  0
CLASS
  1
ACADCONSGROUP
  2
AcAdConstraintGroup
  3
DesignerServices
 90
        0
280
     1
281
     0
  0
CLASS
  1
ACADCONSCIRCLE
  2
AcAdConstrainedCircle
  3
DesignerServices
 90
        0
280
     1
281
     0
  0
CLASS
  1
ACADIMPPTACAD
  2
AcAdVirtualImplicitPoint
  3
DesignerServices
 90
        0
280
     1
281
     0
  0
CLASS
  1
ACADCONSPOINT
  2
AcAdConstrainedPoint
  3
DesignerServices
 90
        0
280
     1
281
     0
  0
CLASS
  1
ADPCURCNS
  2
AcAdPointCurveConstr
  3
DesignerServices
 90
        0
280
     1
281
     0
  0
CLASS
  1
ADCTRPTCNS
  2
AcAdCenterPointConstr
  3
DesignerServices
 90
        0
280
     1
281
     0
  0
CLASS
  1
ADHORCNS
  2
AcAdHorizontalConstr
  3
DesignerServices
 90
        0
280
     1
281
     0
  0
CLASS
  1
ADVERCNS
  2
AcAdVerticalConstr
  3
DesignerServices
 90
        0
280
     1
281
     0
  0
CLASS
  1
ADCOLNCNS
  2
AcAdColinearConstr
  3
DesignerServices
 90
        0
280
     1
281
     0
  0
CLASS
  1
ADCLPROF2D
  2
AcAdClosedProfile2d
  3
DesignerServices
 90
        0
280
     1
281
     0
  0
CLASS
  1
ACRFATTGENMGR
  2
AcRfAttGeneralMgr
  3
AcGrefServices
 90
        0
280
     1
281
     0
  0
CLASS
  1
ACCMBODY
  2
AcCmBody
  3
DesignerAssemblies
 90
        0
280
     1
281
     0
  0
CLASS
  1
ACAMGRCOMP
  2
AcAmGrComp
  3
DesignerAssemblies
 90
        0
280
     1
281
     0
  0
CLASS
  1
ACAMCOMPFEEDBACK
  2
AcAmCompFeedback
  3
DesignerAssemblies
 90
        0
280
     1
281
     0
  0
CLASS
  1
ACAMCOMP
  2
AcAmComp
  3
DesignerAssemblies
 90
        0
280
     1
281
     0
  0
CLASS
  1
ACAMGRCOMPCLONE
  2
AcAmGrCompClone
  3
DesignerAssemblies
 90
        0
280
     1
281
     0
  0
CLASS
  1
ACAMCLONEREACTOR
  2
AcAmGrCompCloneReactor
  3
DesignerAssemblies
 90
        0
280
     1
281
     0
  0
CLASS
  1
ADCONSTDSP
  2
AcAdConstraintDisplayTag
  3
DesignerServices
 90
        0
280
     1
281
     1
  0
CLASS
  1
ADCONSDISP
  2
AcAdConstraintDisplay
  3
DesignerServices
 90
        0
280
     1
281
     1
  0
CLASS
  1
PARAM
  2
AcAdParam
  3
DesignerServices
 90
        0
280
     1
281
     0
  0
CLASS
  1
ADHDISTCNS
  2
AcAdHorizontalDistanceConstr
  3
DesignerServices
 90
        0
280
     1
281
     0
  0
CLASS
  1
ADRADCNS
  2
AcAdAcadRadiusConstr
  3
DesignerServices
 90
        0
280
     1
281
     0
  0
CLASS
  1
ADVDISTCNS
  2
AcAdVerticalDistanceConstr
  3
DesignerServices
 90
        0
280
     1
281
     0
  0
CLASS
  1
ACMELINEARARROW
  2
AcImLinearArrowDisplay
  3
AcMeServices
 90
        0
280
     1
281
     1
  0
CLASS
  1
ADEXTRUSIONBLIND
  2
AcAdExtrusionBlind
  3
DesignerServices
 90
        0
280
     1
281
     0
  0
CLASS
  1
DEPEDGEFEATUREORDERING
  2
AcAdDepEdgeFeatureOrdering
  3
DesignerServices
 90
        0
280
     1
281
     0
  0
CLASS
  1
AGDICTIONARY
  2
AgDictionary
  3
"AccelView"
 90
        1
280
     1
281
     0
  0
CLASS
  1
DATUMAXISDISPLAY
  2
AcAdDatumAxisDisplay
  3
DesignerServices
 90
        0
280
     1
281
     1
  0
CLASS
  1
ADPLANEID
  2
AcAdSurfGeomId
  3
DesignerServices
 90
        0
280
     1
281
     0
  0
CLASS
  1
ADDATUMAXISCENTER
  2
AcAdDatumAxisCenter
  3
DesignerServices
 90
        0
280
     1
281
     0
  0
CLASS
  1
ADPLANEID
  2
AcAdPlaneId
  3
DesignerServices
 90
        0
280
     1
281
     0
  0
CLASS
  1
ADDATUMPLANEFACE
  2
AcAdDatumPlaneFace
  3
DesignerServices
 90
        0
280
     1
281
     0
  0
CLASS
  1
ACMEPLINE
  2
AcImPlineDisplay
  3
AcMeServices
 90
        0
280
     1
281
     1
  0
CLASS
  1
DATUMPLANEDISPLAY
  2
AcAdDatumPlaneDisplay
  3
DesignerServices
 90
        0
280
     1
281
     1
  0
CLASS
  1
ADDATUMPLANEOFFSET
  2
AcAdDatumPlaneOffset
  3
DesignerServices
 90
        0
280
     1
281
     0
  0
CLASS
  1
ADSTRAIGHTID
  2
AcAdStraightId
  3
DesignerServices
 90
        0
280
     1
281
     0
  0
CLASS
  1
ADDATUMAXISEDGE
  2
AcAdDatumAxisEdge
  3
DesignerServices
 90
        0
280
     1
281
     0
  0
CLASS
  1
ACADPLARCACAD
  2
AcAdVirtualArcPlineAcad
  3
DesignerServices
 90
        0
280
     1
281
     0
  0
CLASS
  1
ADTANCNS
  2
AcAdTangentConstr
  3
DesignerServices
 90
        0
280
     1
281
     0
  0
CLASS
  1
ADPARCNS
  2
AcAdParallelConstr
  3
DesignerServices
 90
        0
280
     1
281
     0
  0
CLASS
  1
ADEQRADCNS
  2
AcAdEqualRadiusConstr
  3
DesignerServices
 90
        0
280
     1
281
     0
  0
CLASS
  1
HVREFID
  2
AcAdHVRefId
  3
DesignerServices
 90
        0
280
     1
281
     0
  0
CLASS
  1
ACADLINEDEPID
  2
AcAdVirtualPointDepId
  3
DesignerServices
 90
        0
280
     1
281
     0
  0
CLASS
  1
ADPROJCNS
  2
AcAdProjectionConstr
  3
DesignerServices
 90
        0
280
     1
281
     0
  0
CLASS
  1
ACADBOUNDEDLINEDATUMID
  2
AcAdVirtualBoundedLineDatumId
  3
DesignerServices
 90
        0
280
     1
281
     0
  0
CLASS
  1
ADCONCCNS
  2
AcAdConcentricConstr
  3
DesignerServices
 90
        0
280
     1
281
     0
  0
CLASS
  1
ADEXTRUSIONTHRU
  2
AcAdExtrusionThru
  3
DesignerServices
 90
        0
280
     1
281
     0
  0
CLASS
  1
STREFID
  2
AcAdStraightRefId
  3
DesignerServices
 90
        0
280
     1
281
     0
  0
CLASS
  1
ACADLINEDEPID
  2
AcAdVirtualLineDepId
  3
DesignerServices
 90
        0
280
     1
281
     0
  0
CLASS
  1
ADREVOLUTIONFULL
  2
AcAdRevolutionFull
  3
DesignerServices
 90
        0
280
     1
281
     0
  0
CLASS
  1
DEPEDGESECONDARYDEPID
  2
AcAdDepEdgeSecondaryDepId
  3
DesignerServices
 90
        0
280
     1
281
     0
  0
CLASS
  1
CIRREFID
  2
AcAdCircleRefId
  3
DesignerServices
 90
        0
280
     1
281
     0
  0
CLASS
  1
ACADCIRCDEPID
  2
AcAdVirtualCircleDepId
  3
DesignerServices
 90
        0
280
     1
281
     0
  0
CLASS
  1
ADBDISTCNS
  2
AcAdAcadAngleConstr
  3
DesignerServices
 90
        0
280
     1
281
     0
  0
CLASS
  1
ADEXTRUSIONMIDPLANE
  2
AcAdExtrusionMidplane
  3
DesignerServices
 90
        0
280
     1
281
     0
  0
CLASS
  1
ADDATUMPOINTAXISPLANE
  2
AcAdDatumPointAxisPlane
  3
DesignerServices
 90
        0
280
     1
281
     0
  0
CLASS
  1
ADHOLEFEAT
  2
AcAdHoleFeat
  3
DesignerServices
 90
        0
280
     1
281
     0
  0
CLASS
  1
AM_VIEW_SELECT_FILTER
  2
AcDmActivePartViewEntFilter
  3
DesignerServices
 90
        0
280
     1
281
     0
  0
CLASS
  1
ACADPARTAXISRES
  2
AcAdPartAxisRes
  3
AdGrefServices
 90
        0
280
     1
281
     0
  0
CLASS
  1
AM_GREF_PLANE
  2
AcDmGrefPlnDef
  3
AcMechDwgViewMgmt
 90
        0
280
     1
281
     0
  0
CLASS
  1
AM_GREF_AXIS
  2
AcDmGrefAxisDef
  3
AcMechDwgViewMgmt
 90
        0
280
     1
281
     0
  0
CLASS
  1
AM_BASE_VIEW_ORIENT
  2
AcDmBaseViewOr
  3
AcMechDwgViewMgmt
 90
        0
280
     1
281
     0
  0
CLASS
  1
AM_VIEW_SELECT_FILTER
  2
AcDmSelectViewEntFilter
  3
AcMechDwgViewMgmt
 90
        0
280
     1
281
     0
  0
CLASS
  1
ACADPARTDATUMPLANERES
  2
AcAdPartDatumPlaneRes
  3
AdGrefServices
 90
        0
280
     1
281
     0
  0
CLASS
  1
AM_DWG_VIEWPORT
  2
AcDmViewport
  3
AcMechDwgViewMgmt
 90
        0
280
     1
281
     0
  0
CLASS
  1
AM_VIEW_DISPLAY
  2
AcDmDwgViewDisplay
  3
AcMechDwgViewMgmt
 90
        0
280
     1
281
     0
  0
CLASS
  1
AM_BASE_VIEW
  2
AcDmBaseView
  3
AcMechDwgViewMgmt
 90
        0
280
     1
281
     0
  0
CLASS
  1
ACDMVWEDLINE
  2
AcDmViewEdgeLine
  3
AcMechDwgViewMgmt
 90
        0
280
     1
281
     1
  0
CLASS
  1
ACDMVWEDSPLINE
  2
AcDmViewEdgeSpline
  3
AcMechDwgViewMgmt
 90
        0
280
     1
281
     1
  0
CLASS
  1
ACDMVWEDARC
  2
AcDmViewEdgeArc
  3
AcMechDwgViewMgmt
 90
        0
280
     1
281
     1
  0
CLASS
  1
ACADSKETCHPOINTRES
  2
AcAdSketchPointRes
  3
DesignerServices
 90
        0
280
     1
281
     0
  0
CLASS
  1
ACADSKETCHCIRCARCRES
  2
AcAdSketchCircArcRes
  3
DesignerServices
 90
        0
280
     1
281
     0
  0
CLASS
  1
ACADSKETCHLINERES
  2
AcAdSketchLineRes
  3
DesignerServices
 90
        0
280
     1
281
     0
  0
CLASS
  1
AM_VIEWDIMLINEAR
  2
AcDmViewDimLinear
  3
AcMechDwgViewMgmt
 90
        0
280
     1
281
     0
  0
CLASS
  1
AM_VIEWDIMRADIUS
  2
AcDmViewDimRadius
  3
AcMechDwgViewMgmt
 90
        0
280
     1
281
     0
  0
CLASS
  1
AM_VIEWDIMANGULAR
  2
AcDmViewDimAngular
  3
AcMechDwgViewMgmt
 90
        0
280
     1
281
     0
  0
CLASS
  1
ACMSTANDARDJIS
  2
AcmStandardJIS
  3
AutoCadMServices
 90
        0
280
     1
281
     0
  0
CLASS
  1
ACMSTANDARDANSI
  2
AcmStandardANSI
  3
AutoCadMServices
 90
        0
280
     1
281
     0
  0
CLASS
  1
ACMSTANDARDBSI
  2
AcmStandardBSI
  3
AutoCadMServices
 90
        0
280
     1
281
     0
  0
CLASS
  1
ACMSTANDARDDIN
  2
AcmStandardDIN
  3
AutoCadMServices
 90
        0
280
     1
281
     0
  0
CLASS
  1
ACMSTANDARDISO
  2
AcmStandardISO
  3
AutoCadMServices
 90
        0
280
     1
281
     0
  0
CLASS
  1
ACME_DOCUMENT
  2
AcMeDoc
  3
AcMeServices
 90
        0
280
     1
281
     0
  0
CLASS
  1
ACMSURFSTANDARDJIS
  2
AcmSurfTextStdJIS
  3
AutoCadMServices
 90
        0
280
     1
281
     0
  0
CLASS
  1
ACMFCFSTANDARDJIS
  2
AcmFCFStdJIS
  3
AutoCadMServices
 90
        0
280
     1
281
     0
  0
CLASS
  1
ACMWELDSTANDARDJIS
  2
AcmWeldingStdJIS
  3
AutoCadMServices
 90
        0
280
     1
281
     0
  0
CLASS
  1
ACMIDSTANDARDJIS
  2
AcmIdStdJIS
  3
AutoCadMServices
 90
        0
280
     1
281
     0
  0
CLASS
  1
ACMDATUMSTANDARDJIS
  2
AcmDatumStdJIS
  3
AutoCadMServices
 90
        0
280
     1
281
     0
  0
CLASS
  1
ACMBOMSTANDARDJIS
  2
AcmBOMStdJIS
  3
AutoCadMServices
 90
        0
280
     1
281
     0
  0
CLASS
  1
ACMSURFSTANDARDANSI
  2
AcmSurfTextStdANSI
  3
AutoCadMServices
 90
        0
280
     1
281
     0
  0
CLASS
  1
ACMFCFSTANDARDANSI
  2
AcmFCFStdANSI
  3
AutoCadMServices
 90
        0
280
     1
281
     0
  0
CLASS
  1
ACMWELDSTANDARDANSI
  2
AcmWeldingStdANSI
  3
AutoCadMServices
 90
        0
280
     1
281
     0
  0
CLASS
  1
ACMIDSTANDARDANSI
  2
AcmIdStdANSI
  3
AutoCadMServices
 90
        0
280
     1
281
     0
  0
CLASS
  1
ACMDATUMSTANDARDANSI
  2
AcmDatumStdANSI
  3
AutoCadMServices
 90
        0
280
     1
281
     0
  0
CLASS
  1
ACMBOMSTANDARDANSI
  2
AcmBOMStdANSI
  3
AutoCadMServices
 90
        0
280
     1
281
     0
  0
CLASS
  1
ACMSURFSTANDARDBSI
  2
AcmSurfTextStdBSI
  3
AutoCadMServices
 90
        0
280
     1
281
     0
  0
CLASS
  1
ACMFCFSTANDARDBSI
  2
AcmFCFStdBSI
  3
AutoCadMServices
 90
        0
280
     1
281
     0
  0
CLASS
  1
ACMWELDSTANDARDBSI
  2
AcmWeldingStdBSI
  3
AutoCadMServices
 90
        0
280
     1
281
     0
  0
CLASS
  1
ACMIDSTANDARDBSI
  2
AcmIdStdBSI
  3
AutoCadMServices
 90
        0
280
     1
281
     0
  0
CLASS
  1
ACMDATUMSTANDARDBSI
  2
AcmDatumStdBSI
  3
AutoCadMServices
 90
        0
280
     1
281
     0
  0
CLASS
  1
ACMBOMSTANDARDBSI
  2
AcmBOMStdBSI
  3
AutoCadMServices
 90
        0
280
     1
281
     0
  0
CLASS
  1
ACMSURFSTANDARDDIN
  2
AcmSurfTextStdDIN
  3
AutoCadMServices
 90
        0
280
     1
281
     0
  0
CLASS
  1
ACMFCFSTANDARDDIN
  2
AcmFCFStdDIN
  3
AutoCadMServices
 90
        0
280
     1
281
     0
  0
CLASS
  1
ACMWELDSTANDARDDIN
  2
AcmWeldingStdDIN
  3
AutoCadMServices
 90
        0
280
     1
281
     0
  0
CLASS
  1
ACMIDSTANDARDDIN
  2
AcmIdStdDIN
  3
AutoCadMServices
 90
        0
280
     1
281
     0
  0
CLASS
  1
ACMDATUMSTANDARDDIN
  2
AcmDatumStdDIN
  3
AutoCadMServices
 90
        0
280
     1
281
     0
  0
CLASS
  1
ACMBOMSTANDARDDIN
  2
AcmBOMStdDIN
  3
AutoCadMServices
 90
        0
280
     1
281
     0
  0
CLASS
  1
ACMSURFSTANDARDISO
  2
AcmSurfTextStdISO
  3
AutoCadMServices
 90
        0
280
     1
281
     0
  0
CLASS
  1
ACMFCFSTANDARDISO
  2
AcmFCFStdISO
  3
AutoCadMServices
 90
        0
280
     1
281
     0
  0
CLASS
  1
ACMWELDSTANDARDISO
  2
AcmWeldingStdISO
  3
AutoCadMServices
 90
        0
280
     1
281
     0
  0
CLASS
  1
ACMIDSTANDARDISO
  2
AcmIdStdISO
  3
AutoCadMServices
 90
        0
280
     1
281
     0
  0
CLASS
  1
ACMDATUMSTANDARDISO
  2
AcmDatumStdISO
  3
AutoCadMServices
 90
        0
280
     1
281
     0
  0
CLASS
  1
ACMBOMSTANDARDISO
  2
AcmBOMStdISO
  3
AutoCadMServices
 90
        0
280
     1
281
     0
  0
CLASS
  1
ACDBENTITYCACHE
  2
AcMeEntityCache
  3
AcMeServices
 90
        0
280
     1
281
     0
  0
CLASS
  1
ACMDATADICTIONARY
  2
AcmDataDictionary
  3
"AutoCAD/M"
 90
        0
280
     1
281
     0
  0
CLASS
  1
ACMDATAENTRYBLOCK
  2
AcmDataEntryBlock
  3
"AutoCAD/M"
 90
        0
280
     1
281
     0
  0
CLASS
  1
ACADCIRCLEACAD
  2
AcAdVirtualCircleAcad
  3
DesignerServices
 90
        0
280
     1
281
     0
  0
CLASS
  1
AM_ABS_PLANE
  2
AcDmAbsPlnDef
  3
AcMechDwgViewMgmt
 90
        0
280
     1
281
     0
  0
CLASS
  1
AM_ABS_AXIS
  2
AcDmAbsAxisDef
  3
AcMechDwgViewMgmt
 90
        0
280
     1
281
     0
  0
CLASS
  1
ACDMVWEDCIRC
  2
AcDmViewEdgeCircle
  3
AcMechDwgViewMgmt
 90
        0
280
     1
281
     1
  0
CLASS
  1
EDGEID
  2
AcAdEdgeId
  3
DesignerServices
 90
        0
280
     1
281
     0
  0
CLASS
  1
ACADPARTCIRCEDGRES
  2
AcAdPartCircEdgRes
  3
AdGrefServices
 90
        0
280
     1
281
     0
  0
CLASS
  1
AM_CIRCTRLINE
  2
AcDmBullsEyeCl
  3
AcMechDwgViewMgmt
 90
        0
280
     1
281
     0
  0
CLASS
  1
ADDATUMPLANEAXISPLANE
  2
AcAdDatumPlaneAxisPlane
  3
DesignerServices
 90
        0
280
     1
281
     0
  0
CLASS
  1
ADFILLET
  2
AcAdFillet
  3
DesignerServices
 90
        0
280
     1
281
     0
  0
CLASS
  1
ADFEATPOLRARRAY
  2
AcAdPolarFeatArray
  3
DesignerServices
 90
        0
280
     1
281
     0
  0
CLASS
  1
ADREVOLUTIONMIDPLANE
  2
AcAdRevolutionMidplane
  3
DesignerServices
 90
        0
280
     1
281
     0
  0
CLASS
  1
CNRREFID
  2
AcAdCornerId
  3
DesignerServices
 90
        0
280
     1
281
     0
  0
CLASS
  1
ACADPARTPOINTRES
  2
AcAdPartPointRes
  3
AdGrefServices
 90
        0
280
     1
281
     0
  0
CLASS
  1
ACADPARTSKETCHPLANEAXISRES
  2
AcAdPartSketchPlaneAxisRes
  3
DesignerServices
 90
        0
280
     1
281
     0
  0
CLASS
  1
AM_VIEWDIMPARALLEL
  2
AcDmViewDimParallel
  3
AcMechDwgViewMgmt
 90
        0
280
     1
281
     0
  0
CLASS
  1
AM_ORTHO_VIEW_ORIENT
  2
AcDmOrthoViewOr
  3
AcMechDwgViewMgmt
 90
        0
280
     1
281
     0
  0
CLASS
  1
AM_ORTHO_VIEW
  2
AcDmOrthoView
  3
AcMechDwgViewMgmt
 90
        0
280
     1
281
     0
  0
CLASS
  1
AM_ISO_VIEW_ORIENT
  2
AcDmIsoViewOr
  3
AcMechDwgViewMgmt
 90
        0
280
     1
281
     0
  0
CLASS
  1
AM_ISO_VIEW
  2
AcDmIsoView
  3
AcMechDwgViewMgmt
 90
        0
280
     1
281
     0
  0
CLASS
  1
AM_FULLPLANESECTION
  2
AcDmFullPlaneSection
  3
AcMechDwgViewMgmt
 90
        0
280
     1
281
     0
  0
CLASS
  1
AM_SECTIONSYMBOL
  2
AcDmSectionSymbol
  3
AcMechDwgViewMgmt
 90
        0
280
     1
281
     0
  0
CLASS
  1
AM_VIEWLABEL
  2
AcDmViewLabel
  3
AcMechDwgViewMgmt
 90
        0
280
     1
281
     0
  0
CLASS
  1
HATCH
  2
AcDbHatch
  3
ObjectDBX Classes
 90
        0
280
     0
281
     1
  0
CLASS
  1
AM_VIEWDIMDIAMETER
  2
AcDmViewDimDiameter
  3
AcMechDwgViewMgmt
 90
        0
280
     1
281
     0
  0
CLASS
  1
SILEDGEID
  2
AcAdSilhouetteEdgeId
  3
DesignerServices
 90
        0
280
     1
281
     0
  0
CLASS
  1
ACADPARTLINEDGRES
  2
AcAdPartLinEdgRes
  3
AdGrefServices
 90
        0
280
     1
281
     0
  0
CLASS
  1
FACEID
  2
AcAdFaceId
  3
DesignerServices
 90
        0
280
     1
281
     0
  0
CLASS
  1
ACADPARTPLANARFACERES
  2
AcAdPartPlanarFaceRes
  3
AdGrefServices
 90
        0
280
     1
281
     0
  0
CLASS
  1
ACDMGREFEDIT
  2
AcDmViewEntityGeomrefEdit
  3
AcMechDwgViewMgmt
 90
        0
280
     1
281
     0
  0
CLASS
  1
ACDMVIEWLINEDGERES
  2
AcDmViewLinEdgeRes
  3
AcMechDwgViewMgmt
 90
        0
280
     1
281
     0
  0
CLASS
  1
ACADPARTCONICALFACERES
  2
AcAdPartConicalFaceRes
  3
AdGrefServices
 90
        0
280
     1
281
     0
  0
CLASS
  1
AM_PERPCTRLINE
  2
AcDmLineCl
  3
AcMechDwgViewMgmt
 90
        0
280
     1
281
     0
  0
CLASS
  1
ACADPARTSPLINEEDGERES
  2
AcAdPartSplineEdgeRes
  3
AdGrefServices
 90
        0
280
     1
281
     0
  0
CLASS
  1
ACDBLINERES
  2
AcDbLineRes
  3
AcGrefServices
 90
        0
280
     1
281
     0
  0
CLASS
  1
ACRFDMINSADJ
  2
AcRfDMInsAdjuster
  3
AcMechDwgViewMgmt
 90
        0
280
     1
281
     0
  0
CLASS
  1
ACADPARTCYLINDERFACERES
  2
AcAdPartCylinderFaceRes
  3
AdGrefServices
 90
        0
280
     1
281
     0
  0
CLASS
  1
ACDMVIEWARCEDGERES
  2
AcDmViewArcEdgeRes
  3
AcMechDwgViewMgmt
 90
        0
280
     1
281
     0
  0
CLASS
  1
ACDBDICTIONARYWDFLT
  2
AcDbDictionaryWithDefault
  3
ObjectDBX Classes
 90
        0
280
     0
281
     0
  0
CLASS
  1
ACDBPLACEHOLDER
  2
AcDbPlaceHolder
  3
ObjectDBX Classes
 90
        0
280
     0
281
     0
  0
CLASS
  1
LAYOUT
  2
AcDbLayout
  3
ObjectDBX Classes
 90
        0
280
     0
281
     0
  0
CLASS
  1
MATERIAL
  2
AcDbMaterial
  3
ObjectDBX Classes
 90
     1153
280
     0
281
     0
  0
CLASS
  1
SORTENTSTABLE
  2
AcDbSortentsTable
  3
ObjectDBX Classes
 90
        0
280
     0
281
     0
  0
CLASS
  1
VISUALSTYLE
  2
AcDbVisualStyle
  3
ObjectDBX Classes
 90
     4095
280
     0
281
     0
  0
CLASS
  1
TABLESTYLE
  2
AcDbTableStyle
  3
ObjectDBX Classes
 90
     4095
280
     0
281
     0
  0
CLASS
  1
SCALE
  2
AcDbScale
  3
ObjectDBX Classes
 90
     1153
280
     0
281
     0
  0
CLASS
  1
MLEADERSTYLE
  2
AcDbMLeaderStyle
  3
ACDB_MLEADERSTYLE_CLASS
 90
     4095
280
     0
281
     0
  0
CLASS
  1
CELLSTYLEMAP
  2
AcDbCellStyleMap
  3
ObjectDBX Classes
 90
     1152
280
     0
281
     0
  0
CLASS
  1
RASTERVARIABLES
  2
AcDbRasterVariables
  3
ISM
 90
        0
280
     0
281
     0
  0
CLASS
  1
SUN
  2
AcDbSun
  3
SCENEOE
 90
     1153
280
     0
281
     0
  0
ENDSEC
  0
SECTION
  2
TABLES
  0
TABLE
  2
VPORT
  5
14
330
0
100
AcDbSymbolTable
 70
     1
  0
VPORT
  5
86695
330
14
100
AcDbSymbolTableRecord
100
AcDbViewportTableRecord
  2
*Active
 70
     0
 10
0.0
 20
0.0
 11
1.0
 21
1.0
 12
3901.746778748558
 22
-3811.943119056285
 13
0.0
 23
0.0
 14
10.0
 24
10.0
 15
10.0
 25
10.0
 16
0.0
 26
0.0
 36
1.0
 17
0.0
 27
0.0
 37
0.0
 40
83.49445071261468
 41
1.731829573934837
 42
50.0
 43
0.0
 44
0.0
 50
0.0
 51
0.0
 71
    16
 72
   100
 73
     1
 74
     0
 75
     0
 76
     0
 77
     0
 78
     0
281
     0
 65
     1
110
0.0
120
0.0
130
0.0
111
1.0
121
0.0
131
0.0
112
0.0
122
1.0
132
0.0
 79
     0
146
0.0
  0
ENDTAB
  0
TABLE
  2
LTYPE
  5
F
330
0
100
AcDbSymbolTable
 70
     3
  0
LTYPE
  5
10
330
F
100
AcDbSymbolTableRecord
100
AcDbLinetypeTableRecord
  2
BYBLOCK
 70
     0
  3

 72
    65
 73
     0
 40
0.0
  0
LTYPE
  5
11
330
F
100
AcDbSymbolTableRecord
100
AcDbLinetypeTableRecord
  2
BYLAYER
 70
     0
  3

 72
    65
 73
     0
 40
0.0
  0
LTYPE
  5
6
330
F
100
AcDbSymbolTableRecord
100
AcDbLinetypeTableRecord
  2
CONTINUOUS
 70
     0
  3
Solid line
 72
    65
 73
     0
 40
0.0
  0
LTYPE
  5
1C2
330
F
100
AcDbSymbolTableRecord
100
AcDbLinetypeTableRecord
  2
CENTER
 70
     0
  3
____ _ ____ _ ____ _ ____ _ ____ _ ____ _ ____ 
 72
    65
 73
     4
 40
2.0
 49
1.25
 74
     0
 49
-0.25
 74
     0
 49
0.25
 74
     0
 49
-0.25
 74
     0
  0
LTYPE
  5
F9FD
330
F
100
AcDbSymbolTableRecord
100
AcDbLinetypeTableRecord
  2
PHANTOM
 70
     0
  3
_____ _ _ _____ _ _ _____ _ _ _____ _ _ ____
 72
    65
 73
     6
 40
2.5
 49
1.25
 74
     0
 49
-0.25
 74
     0
 49
0.25
 74
     0
 49
-0.25
 74
     0
 49
0.25
 74
     0
 49
-0.25
 74
     0
  0
ENDTAB
  0
TABLE
  2
LAYER
  5
B
102
{ACAD_XDICTIONARY
360
FA01
102
}
330
0
100
AcDbSymbolTable
 70
    14
  0
LAYER
  5
5
102
{ACAD_XDICTIONARY
360
8672C
102
}
330
B
100
AcDbSymbolTableRecord
100
AcDbLayerTableRecord
  2
0
 70
     0
 62
     7
  6
CONTINUOUS
370
    -3
390
9E7E
  0
LAYER
  5
1C
102
{ACAD_XDICTIONARY
360
8672E
102
}
330
B
100
AcDbSymbolTableRecord
100
AcDbLayerTableRecord
  2
C-SUNPO
 70
     0
 62
     7
  6
CONTINUOUS
370
    -3
390
9E7E
  0
LAYER
  5
26
102
{ACAD_XDICTIONARY
360
86730
102
}
330
B
100
AcDbSymbolTableRecord
100
AcDbLayerTableRecord
  2
CONT-5
 70
     0
 62
     4
  6
CONTINUOUS
370
    -3
390
9E7E
  0
LAYER
  5
9E8C
102
{ACAD_XDICTIONARY
360
86734
102
}
330
B
100
AcDbSymbolTableRecord
100
AcDbLayerTableRecord
  2
寸法線
 70
     0
 62
     7
  6
CONTINUOUS
370
    -3
390
9E7E
  0
LAYER
  5
9E90
102
{ACAD_XDICTIONARY
360
8673C
102
}
330
B
100
AcDbSymbolTableRecord
100
AcDbLayerTableRecord
  2
文字
 70
     0
 62
     7
  6
CONTINUOUS
370
    -3
390
9E7E
  0
LAYER
  5
229D3
102
{ACAD_XDICTIONARY
360
86742
102
}
330
B
100
AcDbSymbolTableRecord
100
AcDbLayerTableRecord
  2
設計変更
 70
     0
 62
    90
  6
CONTINUOUS
370
    -3
390
9E7E
  0
ENDTAB
  0
TABLE
  2
STYLE
  5
C
330
0
100
AcDbSymbolTable
 70
     2
  0
STYLE
  5
D
330
C
100
AcDbSymbolTableRecord
100
AcDbTextStyleTableRecord
  2
STANDARD
 70
     0
 40
0.0
 41
1.0
 50
0.0
 71
     0
 42
2.5
  3
monotxt.shx
  4
bigfont.shx
  0
ENDTAB
  0
TABLE
  2
VIEW
  5
12
330
0
100
AcDbSymbolTable
 70
     0
  0
ENDTAB
  0
TABLE
  2
UCS
  5
13
330
0
100
AcDbSymbolTable
 70
     0
  0
ENDTAB
  0
TABLE
  2
APPID
  5
16
330
0
100
AcDbSymbolTable
 70
    12
  0
APPID
  5
E
330
16
100
AcDbSymbolTableRecord
100
AcDbRegAppTableRecord
  2
ACAD
 70
     0
  0
APPID
  5
17E
330
16
100
AcDbSymbolTableRecord
100
AcDbRegAppTableRecord
  2
AD_SKETCHDIM
 70
     0
  0
APPID
  5
3A81
330
16
100
AcDbSymbolTableRecord
100
AcDbRegAppTableRecord
  2
CONTENTTABDATA
 70
     0
  0
APPID
  5
3A82
330
16
100
AcDbSymbolTableRecord
100
AcDbRegAppTableRecord
  2
CONTENTCURRENTTAB
 70
     0
  0
APPID
  5
ACF8
330
16
100
AcDbSymbolTableRecord
100
AcDbRegAppTableRecord
  2
ACAD_PSEXT
 70
     0
  0
APPID
  5
1899B
330
16
100
AcDbSymbolTableRecord
100
AcDbRegAppTableRecord
  2
GENIUS_GENODEF_13
 70
     0
  0
APPID
  5
1899C
330
16
100
AcDbSymbolTableRecord
100
AcDbRegAppTableRecord
  2
GENIUS_GENREC_14
 70
     0
  0
APPID
  5
1899D
330
16
100
AcDbSymbolTableRecord
100
AcDbRegAppTableRecord
  2
GENIUS_GENOBJ-N-REC_13
 70
     0
  0
APPID
  5
866CE
330
16
100
AcDbSymbolTableRecord
100
AcDbRegAppTableRecord
  2
ACAD_MLEADERVER
 70
     0
  0
APPID
  5
866D8
330
16
100
AcDbSymbolTableRecord
100
AcDbRegAppTableRecord
  2
ACAD_DSTYLE_DIMJAG
 70
     0
  0
APPID
  5
866D9
330
16
100
AcDbSymbolTableRecord
100
AcDbRegAppTableRecord
  2
ACAD_DSTYLE_DIMTALN
 70
     0
  0
APPID
  5
87601
330
16
100
AcDbSymbolTableRecord
100
AcDbRegAppTableRecord
  2
ACAD_EXEMPT_FROM_CAD_STANDARDS
 70
     0
  0
ENDTAB
  0
TABLE
  2
DIMSTYLE
  5
17
330
0
100
AcDbSymbolTable
 70
     2
100
AcDbDimStyleTable
  0
DIMSTYLE
105
1E
330
17
100
AcDbSymbolTableRecord
100
AcDbDimStyleTableRecord
  2
STANDARD
 70
     0
 41
2.0
 42
1.0
 43
3.75
 44
1.25
 73
     0
 74
     0
 77
     3
 78
     8
140
3.5
141
0.0
143
0.0394
147
1.0
172
     1
173
     1
174
     1
176
     8
177
     8
178
     0
271
     2
272
     2
273
     8
340
D
341
1F
343
1F
344
1F
371
    -1
372
    -1
  0
ENDTAB
  0
TABLE
  2
BLOCK_RECORD
  5
1
330
0
100
AcDbSymbolTable
 70
    40
  0
BLOCK_RECORD
  5
2
102
{ACAD_XDICTIONARY
360
3
102
}
330
1
100
AcDbSymbolTableRecord
100
AcDbBlockTableRecord
  2
*MODEL_SPACE
340
9E81
  0
BLOCK_RECORD
  5
8
330
1
100
AcDbSymbolTableRecord
100
AcDbBlockTableRecord
  2
*PAPER_SPACE
340
9E82
  0
BLOCK_RECORD
  5
27
330
1
100
AcDbSymbolTableRecord
100
AcDbBlockTableRecord
  2
*X0
340
0
102
{BLKREFS
331
25
102
}
  0
BLOCK_RECORD
  5
2B
330
1
100
AcDbSymbolTableRecord
100
AcDbBlockTableRecord
  2
*X1
340
0
102
{BLKREFS
331
2A
102
}
  0
BLOCK_RECORD
  5
1F
330
1
100
AcDbSymbolTableRecord
100
AcDbBlockTableRecord
  2
_OPEN
340
0
102
{BLKREFS
331
8D54D
331
8D54E
331
8D558
331
8D559
331
8D561
331
8D562
331
8D56F
331
8D570
331
8D57A
331
8D57B
331
8D582
331
8D583
331
8D58B
331
8D58C
331
8D596
331
8D597
331
8D59F
331
8D5A0
331
8D5AD
331
8D5AE
331
8D5B8
331
8D5B9
331
8D5C0
331
8D5C1
331
8D5C9
331
8D5CA
331
8D5D4
331
8D5D5
331
8D5DD
331
8D5DE
331
8D5EB
331
8D5EC
331
8D5F6
331
8D5F7
331
8D5FE
331
8D5FF
331
8D607
331
8D608
331
8D612
331
8D613
331
8D61B
331
8D61C
331
8D629
331
8D62A
331
8D634
331
8D635
331
8D63C
331
8D63D
331
8E0BB
331
8E0BC
331
8E0C7
331
8E0C8
331
8E0CF
331
8E0D0
331
8E0DA
331
8E0DB
331
8E0E3
331
8E0E4
331
8E0F1
331
8E0F2
102
}
  0
BLOCK_RECORD
  5
4074
330
1
100
AcDbSymbolTableRecord
100
AcDbBlockTableRecord
  2
YA
340
0
  0
ENDTAB
  0
ENDSEC
  0
SECTION
  2
BLOCKS
  0
BLOCK
  5
4
330
2
100
AcDbEntity
  8
0
100
AcDbBlockBegin
  2
*MODEL_SPACE
 70
     0
 10
0.0
 20
0.0
 30
0.0
  3
*MODEL_SPACE
  1
*MODEL_SPACE
  0
ENDBLK
  5
7
330
2
100
AcDbEntity
  8
0
100
AcDbBlockEnd
  0
BLOCK
  5
9
330
8
100
AcDbEntity
 67
     1
  8
0
100
AcDbBlockBegin
  2
*PAPER_SPACE
 70
     0
 10
0.0
 20
0.0
 30
0.0
  3
*PAPER_SPACE
  1
*PAPER_SPACE
  0
ENDBLK
  5
A
330
8
100
AcDbEntity
 67
     1
  8
0
100
AcDbBlockEnd
  0
BLOCK
  5
28
330
27
100
AcDbEntity
  8
0
100
AcDbBlockBegin
  2
*X0
 70
     1
 10
0.0
 20
0.0
 30
0.0
  3
*X0
  1
*X0
  0
ENDBLK
  5
29
330
27
100
AcDbEntity
  8
0
100
AcDbBlockEnd
  0
BLOCK
  5
2C
330
2B
100
AcDbEntity
  8
0
100
AcDbBlockBegin
  2
*X1
 70
     1
 10
0.0
 20
0.0
 30
0.0
  3
*X1
  1
*X1
  0
ENDBLK
  5
2D
330
2B
100
AcDbEntity
  8
0
100
AcDbBlockEnd
  0
BLOCK
  5
23
330
1F
100
AcDbEntity
  8
0
100
AcDbBlockBegin
  2
_OPEN
 70
     0
 10
0.0
 20
0.0
 30
0.0
  3
_OPEN
  1
_OPEN
  0
LINE
  5
20
330
1F
100
AcDbEntity
  8
0
  6
ByBlock
 62
     0
100
AcDbLine
 10
-1.0
 20
0.1666666666666667
 30
0.0
 11
0.0
 21
0.0
 31
0.0
  0
LINE
  5
21
330
1F
100
AcDbEntity
  8
0
  6
ByBlock
 62
     0
100
AcDbLine
 10
0.0
 20
0.0
 30
0.0
 11
-1.0
 21
-0.1666666666666667
 31
0.0
  0
LINE
  5
22
330
1F
100
AcDbEntity
  8
0
  6
ByBlock
 62
     0
100
AcDbLine
 10
0.0
 20
0.0
 30
0.0
 11
-1.0
 21
0.0
 31
0.0
  0
ENDBLK
  5
24
330
1F
100
AcDbEntity
  8
0
100
AcDbBlockEnd
  0
BLOCK
  5
4077
330
4074
100
AcDbEntity
  8
0
100
AcDbBlockBegin
  2
YA
 70
     0
 10
0.0
 20
0.0
 30
0.0
  3
YA
  1
YA
  0
LINE
  5
4075
330
4074
100
AcDbEntity
  8
C-SUNPO
100
AcDbLine
 10
0.0
 20
0.0
 30
0.0
 11
-1.5
 21
0.401923788646684
 31
0.0
  0
LINE
  5
4076
330
4074
100
AcDbEntity
  8
C-SUNPO
100
AcDbLine
 10
0.0
 20
0.0
 30
0.0
 11
-1.5
 21
-0.401923788646684
 31
0.0
  0
ENDBLK
  5
4078
330
4074
100
AcDbEntity
  8
0
100
AcDbBlockEnd
  0
ENDSEC
  0
SECTION
  2
ENTITIES
  0
INSERT
  5
25
330
2
100
AcDbEntity
  8
CONT-5
100
AcDbBlockReference
  2
*X0
 10
-9.900026890056722
 20
-9.99998680730613
 30
0.0
  0
INSERT
  5
2A
330
2
100
AcDbEntity
  8
CONT-5
100
AcDbBlockReference
  2
*X1
 10
-9.900026890056722
 20
-9.99998680730613
 30
0.0
  0
RAY
  5
28BA1
330
2
100
AcDbEntity
  8
設計変更
100
AcDbRay
 10
1326.348230502463
 20
-22633.7708452044
 30
0.0
 11
-0.0005176464598986253
 21
-0.9999998660210623
 31
0.0
  0
RAY
  5
28BA2
330
2
100
AcDbEntity
  8
設計変更
100
AcDbRay
 10
1319.348230502463
 20
-36156.51195217215
 30
0.0
 11
0.0
 21
-1.0
 31
0.0
  0
RAY
  5
28BA3
330
2
100
AcDbEntity
  8
設計変更
100
AcDbRay
 10
1326.348230502463
 20
-22633.7708452044
 30
0.0
 11
0.0
 21
-1.0
 31
0.0
  0
TEXT
  5
8DED9
330
2
100
AcDbEntity
  8
文字
100
AcDbText
 10
3869.279133520233
 20
-3852.871771366391
 30
0.0
 40
6.7
  1
SX-851D/V2
100
AcDbText
  0
SPLINE
  5
8DF67
330
2
100
AcDbEntity
  8
0
 62
     8
100
AcDbSpline
210
0.0
220
0.0
230
1.0
 70
     8
 71
     3
 72
     8
 73
     4
 74
     0
 42
0.000000001
 43
0.0000000001
 40
0.0
 40
0.0
 40
0.0
 40
0.0
 40
1.0
 40
1.0
 40
1.0
 40
1.0
 10
3908.481627752925
 20
-3773.551674603948
 30
0.0
 10
3908.481627752925
 20
-3773.551674603948
 30
0.0
 10
3910.644803208655
 20
-3768.94730448676
 30
0.0
 10
3921.181627752926
 20
-3774.742299603949
 30
0.0
  0
SPLINE
  5
8DF68
330
2
100
AcDbEntity
  8
0
 62
     8
100
AcDbSpline
210
0.0
220
0.0
230
1.0
 70
     8
 71
     3
 72
     8
 73
     4
 74
     0
 42
0.000000001
 43
0.0000000001
 40
1.0
 40
1.0
 40
1.0
 40
1.0
 40
2.0
 40
2.0
 40
2.0
 40
2.0
 10
3921.181627752926
 20
-3774.742299603949
 30
0.0
 10
3921.843086086258
 20
-3775.106101687282
 30
0.0
 10
3935.303763169592
 20
-3785.259487103948
 30
0.0
 10
3933.154023586259
 20
-3793.79229960395
 30
0.0
  0
SPLINE
  5
8DF69
330
2
100
AcDbEntity
  8
0
 62
     8
100
AcDbSpline
210
0.0
220
0.0
230
1.0
 70
     8
 71
     3
 72
    11
 73
     7
 74
     0
 42
0.000000001
 43
0.0000000001
 40
0.0
 40
0.0
 40
0.0
 40
0.0
 40
1.0
 40
1.0
 40
1.0
 40
2.0
 40
2.0
 40
2.0
 40
2.0
 10
3906.298815252926
 20
-3775.602195437282
 30
0.0
 10
3906.298815252926
 20
-3775.602195437282
 30
0.0
 10
3909.275377752926
 20
-3771.104278770615
 30
0.0
 10
3919.693346502926
 20
-3777.288914187283
 30
0.0
 10
3930.111315252926
 20
-3783.473549603949
 30
0.0
 10
3931.86417983626
 20
-3793.891518353949
 30
0.0
 10
3931.897252752925
 20
-3795.247507937283
 30
0.0
  0
SPLINE
  5
8DF6A
330
2
100
AcDbEntity
  8
0
 62
     8
100
AcDbSpline
210
0.0
220
0.0
230
1.0
 70
     8
 71
     3
 72
    11
 73
     7
 74
     0
 42
0.000000001
 43
0.0000000001
 40
0.0
 40
0.0
 40
0.0
 40
0.0
 40
1.0
 40
1.0
 40
1.0
 40
2.0
 40
2.0
 40
2.0
 40
2.0
 10
3904.380586086259
 20
-3777.520424603949
 30
0.0
 10
3904.380586086259
 20
-3777.520424603949
 30
0.0
 10
3908.944648586258
 20
-3772.592560020615
 30
0.0
 10
3920.652461086259
 20
-3781.720685020616
 30
0.0
 10
3932.36027358626
 20
-3790.848810020617
 30
0.0
 10
3929.813659002925
 20
-3798.025632937283
 30
0.0
 10
3929.813659002925
 20
-3798.124851687283
 30
0.0
  0
SPLINE
  5
8DF6B
330
2
100
AcDbEntity
  8
0
 62
     8
100
AcDbSpline
210
0.0
220
0.0
230
1.0
 70
     8
 71
     3
 72
     8
 73
     4
 74
     0
 42
0.000000001
 43
0.0000000001
 40
0.0
 40
0.0
 40
0.0
 40
0.0
 40
1.0
 40
1.0
 40
1.0
 40
1.0
 10
3902.561575669592
 20
-3779.604018353949
 30
0.0
 10
3902.561575669592
 20
-3779.604018353949
 30
0.0
 10
3906.172724758134
 20
-3774.818263959417
 30
0.0
 10
3918.039700669592
 20
-3783.142820437283
 30
0.0
  0
SPLINE
  5
8DF6C
330
2
100
AcDbEntity
  8
0
 62
     8
100
AcDbSpline
210
0.0
220
0.0
230
1.0
 70
     8
 71
     3
 72
     8
 73
     4
 74
     0
 42
0.000000001
 43
0.0000000001
 40
1.0
 40
1.0
 40
1.0
 40
1.0
 40
2.0
 40
2.0
 40
2.0
 40
2.0
 10
3918.039700669592
 20
-3783.142820437283
 30
0.0
 10
3920.255586086259
 20
-3784.697247520616
 30
0.0
 10
3928.259231919591
 20
-3792.568601687281
 30
0.0
 10
3927.928502752927
 20
-3798.422507937282
 30
0.0
  0
SPLINE
  5
8DF6D
330
2
100
AcDbEntity
  8
0
 62
     8
100
AcDbSpline
210
0.0
220
0.0
230
1.0
 70
     8
 71
     3
 72
     8
 73
     4
 74
     0
 42
0.000000001
 43
0.0000000001
 40
0.0
 40
0.0
 40
0.0
 40
0.0
 40
1.0
 40
1.0
 40
1.0
 40
1.0
 10
3900.61027358626
 20
-3781.555320437282
 30
0.0
 10
3900.61027358626
 20
-3781.555320437282
 30
0.0
 10
3902.726423488603
 20
-3778.145192670355
 30
0.0
 10
3911.623554836259
 20
-3782.315997520615
 30
0.0
  0
SPLINE
  5
8DF6E
330
2
100
AcDbEntity
  8
0
 62
     8
100
AcDbSpline
210
0.0
220
0.0
230
1.0
 70
     8
 71
     3
 72
     8
 73
     4
 74
     0
 42
0.000000001
 43
0.0000000001
 40
1.0
 40
1.0
 40
1.0
 40
1.0
 40
2.0
 40
2.0
 40
2.0
 40
2.0
 10
3911.623554836259
 20
-3782.315997520615
 30
0.0
 10
3913.740221502926
 20
-3783.308185020615
 30
0.0
 10
3928.027721502925
 20
-3793.263132937283
 30
0.0
 10
3926.208711086259
 20
-3801.332924603949
 30
0.0
  0
SPLINE
  5
8DF6F
330
2
100
AcDbEntity
  8
0
 62
     8
100
AcDbSpline
210
0.0
220
0.0
230
1.0
 70
     8
 71
     3
 72
     8
 73
     4
 74
     0
 42
0.000000001
 43
0.0000000001
 40
0.0
 40
0.0
 40
0.0
 40
0.0
 40
1.0
 40
1.0
 40
1.0
 40
1.0
 10
3898.394388169591
 20
-3783.671987103949
 30
0.0
 10
3898.394388169591
 20
-3783.671987103949
 30
0.0
 10
3901.129621730791
 20
-3779.663963015407
 30
0.0
 10
3910.895950669591
 20
-3785.457924603948
 30
0.0
  0
SPLINE
  5
8DF70
330
2
100
AcDbEntity
  8
0
 62
     8
100
AcDbSpline
210
0.0
220
0.0
230
1.0
 70
     8
 71
     3
 72
     8
 73
     4
 74
     0
 42
0.000000001
 43
0.0000000001
 40
1.0
 40
1.0
 40
1.0
 40
1.0
 40
2.0
 40
2.0
 40
2.0
 40
2.0
 10
3910.895950669591
 20
-3785.457924603948
 30
0.0
 10
3912.847252752926
 20
-3786.615476687281
 30
0.0
 10
3914.765481919591
 20
-3788.169903770614
 30
0.0
 10
3915.096211086257
 20
-3788.699070437281
 30
0.0
  0
SPLINE
  5
8DF71
330
2
100
AcDbEntity
  8
0
 62
     8
100
AcDbSpline
210
0.0
220
0.0
230
1.0
 70
     8
 71
     3
 72
     8
 73
     4
 74
     0
 42
0.000000001
 43
0.0000000001
 40
0.0
 40
0.0
 40
0.0
 40
0.0
 40
1.0
 40
1.0
 40
1.0
 40
1.0
 10
3896.112356919592
 20
-3785.821726687283
 30
0.0
 10
3896.112356919592
 20
-3785.821726687283
 30
0.0
 10
3898.758190252925
 20
-3781.356882937283
 30
0.0
 10
3909.705325669592
 20
-3787.971466270616
 30
0.0
  0
SPLINE
  5
8DF72
330
2
100
AcDbEntity
  8
0
 62
     8
100
AcDbSpline
210
0.0
220
0.0
230
1.0
 70
    24
 71
     3
 72
     8
 73
     4
 74
     0
 42
0.000000001
 43
0.0000000001
 40
0.0
 40
0.0
 40
0.0
 40
0.0
 40
1.0
 40
1.0
 40
1.0
 40
1.0
 10
3922.603763169592
 20
-3778.314174603948
 30
0.0
 10
3922.603763169592
 20
-3778.314174603948
 30
0.0
 10
3923.43058608626
 20
-3777.42120585395
 30
0.0
 10
3923.43058608626
 20
-3777.42120585395
 30
0.0
  0
SPLINE
  5
8DF73
330
2
100
AcDbEntity
  8
0
 62
     8
100
AcDbSpline
210
0.0
220
0.0
230
1.0
 70
     8
 71
     3
 72
     8
 73
     4
 74
     0
 42
0.000000001
 43
0.0000000001
 40
1.0
 40
1.0
 40
1.0
 40
1.0
 40
2.0
 40
2.0
 40
2.0
 40
2.0
 10
3923.43058608626
 20
-3777.42120585395
 30
0.0
 10
3923.43058608626
 20
-3777.42120585395
 30
0.0
 10
3924.521992336259
 20
-3777.156622520616
 30
0.0
 10
3924.621211086259
 20
-3778.314174603948
 30
0.0
  0
SPLINE
  5
8DF74
330
2
100
AcDbEntity
  8
0
 62
     8
100
AcDbSpline
210
0.0
220
0.0
230
1.0
 70
    24
 71
     3
 72
     8
 73
     4
 74
     0
 42
0.000000001
 43
0.0000000001
 40
2.0
 40
2.0
 40
2.0
 40
2.0
 40
3.0
 40
3.0
 40
3.0
 40
3.0
 10
3924.621211086259
 20
-3778.314174603948
 30
0.0
 10
3924.621211086259
 20
-3778.314174603948
 30
0.0
 10
3924.588138169592
 20
-3778.810268353948
 30
0.0
 10
3924.588138169592
 20
-3778.810268353948
 30
0.0
  0
SPLINE
  5
8DF75
330
2
100
AcDbEntity
  8
0
 62
     8
100
AcDbSpline
210
0.0
220
0.0
230
1.0
 70
    24
 71
     3
 72
     8
 73
     4
 74
     0
 42
0.000000001
 43
0.0000000001
 40
3.0
 40
3.0
 40
3.0
 40
3.0
 40
4.0
 40
4.0
 40
4.0
 40
4.0
 10
3924.588138169592
 20
-3778.810268353948
 30
0.0
 10
3924.588138169592
 20
-3778.810268353948
 30
0.0
 10
3923.959752752925
 20
-3779.405580853948
 30
0.0
 10
3923.959752752925
 20
-3779.405580853948
 30
0.0
  0
SPLINE
  5
8DF76
330
2
100
AcDbEntity
  8
0
 62
     8
100
AcDbSpline
210
0.0
220
0.0
230
1.0
 70
    24
 71
     3
 72
     8
 73
     4
 74
     0
 42
0.000000001
 43
0.0000000001
 40
0.0
 40
0.0
 40
0.0
 40
0.0
 40
1.0
 40
1.0
 40
1.0
 40
1.0
 10
3920.685534002924
 20
-3780.496987103949
 30
0.0
 10
3920.685534002924
 20
-3780.496987103949
 30
0.0
 10
3921.512356919592
 20
-3779.670164187281
 30
0.0
 10
3921.512356919592
 20
-3779.670164187281
 30
0.0
  0
SPLINE
  5
8DF77
330
2
100
AcDbEntity
  8
0
 62
     8
100
AcDbSpline
210
0.0
220
0.0
230
1.0
 70
     8
 71
     3
 72
    11
 73
     7
 74
     0
 42
0.000000001
 43
0.0000000001
 40
1.0
 40
1.0
 40
1.0
 40
1.0
 40
2.0
 40
2.0
 40
2.0
 40
3.0
 40
3.0
 40
3.0
 40
3.0
 10
3921.512356919592
 20
-3779.670164187281
 30
0.0
 10
3921.512356919592
 20
-3779.670164187281
 30
0.0
 10
3922.868346502925
 20
-3779.637091270616
 30
0.0
 10
3922.736054836259
 20
-3780.695424603949
 30
0.0
 10
3922.603763169592
 20
-3781.753757937283
 30
0.0
 10
3922.736054836259
 20
-3780.794643353948
 30
0.0
 10
3922.736054836259
 20
-3780.794643353948
 30
0.0
  0
SPLINE
  5
8DF78
330
2
100
AcDbEntity
  8
0
 62
     8
100
AcDbSpline
210
0.0
220
0.0
230
1.0
 70
    24
 71
     3
 72
     8
 73
     4
 74
     0
 42
0.000000001
 43
0.0000000001
 40
3.0
 40
3.0
 40
3.0
 40
3.0
 40
4.0
 40
4.0
 40
4.0
 40
4.0
 10
3922.736054836259
 20
-3780.794643353948
 30
0.0
 10
3922.736054836259
 20
-3780.794643353948
 30
0.0
 10
3921.876159002925
 20
-3781.720685020616
 30
0.0
 10
3921.876159002925
 20
-3781.720685020616
 30
0.0
  0
SPLINE
  5
8DF79
330
2
100
AcDbEntity
  8
0
 62
     8
100
AcDbSpline
210
0.0
220
0.0
230
1.0
 70
    24
 71
     3
 72
     8
 73
     4
 74
     0
 42
0.000000001
 43
0.0000000001
 40
0.0
 40
0.0
 40
0.0
 40
0.0
 40
1.0
 40
1.0
 40
1.0
 40
1.0
 10
3918.767304836259
 20
-3782.613653770616
 30
0.0
 10
3918.767304836259
 20
-3782.613653770616
 30
0.0
 10
3919.693346502926
 20
-3781.753757937283
 30
0.0
 10
3919.693346502926
 20
-3781.753757937283
 30
0.0
  0
SPLINE
  5
8DF7A
330
2
100
AcDbEntity
  8
0
 62
     8
100
AcDbSpline
210
0.0
220
0.0
230
1.0
 70
     8
 71
     3
 72
     8
 73
     4
 74
     0
 42
0.000000001
 43
0.0000000001
 40
1.0
 40
1.0
 40
1.0
 40
1.0
 40
2.0
 40
2.0
 40
2.0
 40
2.0
 10
3919.693346502926
 20
-3781.753757937283
 30
0.0
 10
3919.693346502926
 20
-3781.753757937283
 30
0.0
 10
3921.479284002925
 20
-3781.786830853948
 30
0.0
 10
3920.983190252925
 20
-3783.175893353949
 30
0.0
  0
SPLINE
  5
8DF7B
330
2
100
AcDbEntity
  8
0
 62
     8
100
AcDbSpline
210
0.0
220
0.0
230
1.0
 70
    24
 71
     3
 72
     8
 73
     4
 74
     0
 42
0.000000001
 43
0.0000000001
 40
2.0
 40
2.0
 40
2.0
 40
2.0
 40
3.0
 40
3.0
 40
3.0
 40
3.0
 10
3920.983190252925
 20
-3783.175893353949
 30
0.0
 10
3920.983190252925
 20
-3783.175893353949
 30
0.0
 10
3920.354804836258
 20
-3783.870424603948
 30
0.0
 10
3920.354804836258
 20
-3783.870424603948
 30
0.0
  0
SPLINE
  5
8DF7C
330
2
100
AcDbEntity
  8
0
 62
     8
100
AcDbSpline
210
0.0
220
0.0
230
1.0
 70
    24
 71
     3
 72
     8
 73
     4
 74
     0
 42
0.000000001
 43
0.0000000001
 40
0.0
 40
0.0
 40
0.0
 40
0.0
 40
1.0
 40
1.0
 40
1.0
 40
1.0
 10
3916.816002752926
 20
-3784.928757937282
 30
0.0
 10
3916.816002752926
 20
-3784.928757937282
 30
0.0
 10
3917.808190252924
 20
-3784.035789187282
 30
0.0
 10
3917.808190252924
 20
-3784.035789187282
 30
0.0
  0
SPLINE
  5
8DF7D
330
2
100
AcDbEntity
  8
0
 62
     8
100
AcDbSpline
210
0.0
220
0.0
230
1.0
 70
     8
 71
     3
 72
     8
 73
     4
 74
     0
 42
0.000000001
 43
0.0000000001
 40
1.0
 40
1.0
 40
1.0
 40
1.0
 40
2.0
 40
2.0
 40
2.0
 40
2.0
 10
3917.808190252924
 20
-3784.035789187282
 30
0.0
 10
3917.808190252924
 20
-3784.035789187282
 30
0.0
 10
3918.96574233626
 20
-3784.300372520615
 30
0.0
 10
3918.899596502925
 20
-3784.928757937282
 30
0.0
  0
SPLINE
  5
8DF7E
330
2
100
AcDbEntity
  8
0
 62
     8
100
AcDbSpline
210
0.0
220
0.0
230
1.0
 70
     8
 71
     3
 72
    11
 73
     7
 74
     0
 42
0.000000001
 43
0.0000000001
 40
2.0
 40
2.0
 40
2.0
 40
2.0
 40
3.0
 40
3.0
 40
3.0
 40
4.0
 40
4.0
 40
4.0
 40
4.0
 10
3918.899596502925
 20
-3784.928757937282
 30
0.0
 10
3918.899596502925
 20
-3784.928757937282
 30
0.0
 10
3919.064961086259
 20
-3785.259487103948
 30
0.0
 10
3918.932669419592
 20
-3785.490997520615
 30
0.0
 10
3918.800377752926
 20
-3785.722507937281
 30
0.0
 10
3918.403502752925
 20
-3786.020164187282
 30
0.0
 10
3918.403502752925
 20
-3786.020164187282
 30
0.0
  0
SPLINE
  5
8DF7F
330
2
100
AcDbEntity
  8
0
 62
     8
100
AcDbSpline
210
0.0
220
0.0
230
1.0
 70
    24
 71
     3
 72
     8
 73
     4
 74
     0
 42
0.000000001
 43
0.0000000001
 40
0.0
 40
0.0
 40
0.0
 40
0.0
 40
1.0
 40
1.0
 40
1.0
 40
1.0
 10
3914.963919419592
 20
-3787.111570437281
 30
0.0
 10
3914.963919419592
 20
-3787.111570437281
 30
0.0
 10
3915.790742336259
 20
-3786.185528770616
 30
0.0
 10
3915.790742336259
 20
-3786.185528770616
 30
0.0
  0
SPLINE
  5
8DF80
330
2
100
AcDbEntity
  8
0
 62
     8
100
AcDbSpline
210
0.0
220
0.0
230
1.0
 70
     8
 71
     3
 72
     8
 73
     4
 74
     0
 42
0.000000001
 43
0.0000000001
 40
1.0
 40
1.0
 40
1.0
 40
1.0
 40
2.0
 40
2.0
 40
2.0
 40
2.0
 10
3915.790742336259
 20
-3786.185528770616
 30
0.0
 10
3915.790742336259
 20
-3786.185528770616
 30
0.0
 10
3916.915221502925
 20
-3786.549330853949
 30
0.0
 10
3916.915221502925
 20
-3787.111570437281
 30
0.0
  0
SPLINE
  5
8DF81
330
2
100
AcDbEntity
  8
0
 62
     8
100
AcDbSpline
210
0.0
220
0.0
230
1.0
 70
    24
 71
     3
 72
     8
 73
     4
 74
     0
 42
0.000000001
 43
0.0000000001
 40
2.0
 40
2.0
 40
2.0
 40
2.0
 40
3.0
 40
3.0
 40
3.0
 40
3.0
 10
3916.915221502925
 20
-3787.111570437281
 30
0.0
 10
3916.915221502925
 20
-3787.111570437281
 30
0.0
 10
3912.781106919593
 20
-3792.105580853949
 30
0.0
 10
3912.781106919593
 20
-3792.105580853949
 30
0.0
  0
SPLINE
  5
8DF82
330
2
100
AcDbEntity
  8
0
 62
     8
100
AcDbSpline
210
0.0
220
0.0
230
1.0
 70
     8
 71
     3
 72
    11
 73
     7
 74
     0
 42
0.000000001
 43
0.0000000001
 40
0.0
 40
0.0
 40
0.0
 40
0.0
 40
1.0
 40
1.0
 40
1.0
 40
2.0
 40
2.0
 40
2.0
 40
2.0
 10
3907.754023586259
 20
-3773.750112103949
 30
0.0
 10
3907.754023586259
 20
-3773.750112103949
 30
0.0
 10
3914.137096502925
 20
-3771.302716270616
 30
0.0
 10
3923.496731919592
 20
-3779.174070437281
 30
0.0
 10
3932.856367336258
 20
-3787.045424603949
 30
0.0
 10
3932.558711086259
 20
-3793.726153770615
 30
0.0
 10
3932.492565252925
 20
-3794.288393353948
 30
0.0
  0
SPLINE
  5
8DF83
330
2
100
AcDbEntity
  8
0
 62
     8
100
AcDbSpline
210
0.0
220
0.0
230
1.0
 70
     8
 71
     3
 72
    11
 73
     7
 74
     0
 42
0.000000001
 43
0.0000000001
 40
0.0
 40
0.0
 40
0.0
 40
0.0
 40
1.0
 40
1.0
 40
1.0
 40
2.0
 40
2.0
 40
2.0
 40
2.0
 10
3905.713838039384
 20
-3775.984601036239
 30
0.0
 10
3905.713838039384
 20
-3775.984601036239
 30
0.0
 10
3911.855065252924
 20
-3773.254018353949
 30
0.0
 10
3921.247773586259
 20
-3781.191518353949
 30
0.0
 10
3930.640481919593
 20
-3789.129018353949
 30
0.0
 10
3930.640481919593
 20
-3794.123028770614
 30
0.0
 10
3930.607409002926
 20
-3796.76886210395
 30
0.0
  0
SPLINE
  5
8DF84
330
2
100
AcDbEntity
  8
0
 62
     8
100
AcDbSpline
210
0.0
220
0.0
230
1.0
 70
     8
 71
     3
 72
    11
 73
     7
 74
     0
 42
0.000000001
 43
0.0000000001
 40
0.0
 40
0.0
 40
0.0
 40
0.0
 40
1.0
 40
1.0
 40
1.0
 40
2.0
 40
2.0
 40
2.0
 40
2.0
 10
3903.797675930008
 20
-3777.946755170354
 30
0.0
 10
3903.797675930008
 20
-3777.946755170354
 30
0.0
 10
3909.506888169592
 20
-3775.43683085395
 30
0.0
 10
3919.098034002925
 20
-3782.944382937282
 30
0.0
 10
3928.689179836259
 20
-3790.451935020615
 30
0.0
 10
3929.350638169592
 20
-3797.794122520615
 30
0.0
 10
3928.424596502925
 20
-3799.580060020616
 30
0.0
  0
LINE
  5
8DF85
330
2
100
AcDbEntity
  8
0
 62
     8
100
AcDbLine
 10
3926.837096502925
 20
-3800.373810020615
 30
0.0
 11
3928.292304836258
 21
-3798.687091270615
 31
0.0
  0
LINE
  5
8DF86
330
2
100
AcDbEntity
  8
0
 62
     8
100
AcDbLine
 10
3928.292304836258
 20
-3798.687091270615
 30
0.0
 11
3926.837096502925
 21
-3798.323289187282
 31
0.0
  0
SPLINE
  5
8DF87
330
2
100
AcDbEntity
  8
0
 62
     8
100
AcDbSpline
210
0.0
220
0.0
230
1.0
 70
     8
 71
     3
 72
    11
 73
     7
 74
     0
 42
0.000000001
 43
0.0000000001
 40
0.0
 40
0.0
 40
0.0
 40
0.0
 40
1.0
 40
1.0
 40
1.0
 40
2.0
 40
2.0
 40
2.0
 40
2.0
 10
3901.833971502926
 20
-3779.967820437282
 30
0.0
 10
3901.833971502926
 20
-3779.967820437282
 30
0.0
 10
3907.787096502926
 20
-3777.388132937283
 30
0.0
 10
3917.742044419591
 20
-3785.689435020616
 30
0.0
 10
3927.696992336259
 20
-3793.990737103949
 30
0.0
 10
3926.936315252925
 20
-3799.943862103949
 30
0.0
 10
3926.936315252925
 20
-3800.043080853949
 30
0.0
  0
SPLINE
  5
8DF88
330
2
100
AcDbEntity
  8
0
 62
     8
100
AcDbSpline
210
0.0
220
0.0
230
1.0
 70
     8
 71
     3
 72
     8
 73
     4
 74
     0
 42
0.000000001
 43
0.0000000001
 40
0.0
 40
0.0
 40
0.0
 40
0.0
 40
1.0
 40
1.0
 40
1.0
 40
1.0
 10
3899.791718898759
 20
-3782.002321576606
 30
0.0
 10
3899.791718898759
 20
-3782.002321576606
 30
0.0
 10
3905.07511733626
 20
-3779.107924603949
 30
0.0
 10
3915.724596502926
 20
-3787.905320437282
 30
0.0
  0
SPLINE
  5
8DF89
330
2
100
AcDbEntity
  8
0
 62
     8
100
AcDbSpline
210
0.0
220
0.0
230
1.0
 70
    24
 71
     3
 72
     8
 73
     4
 74
     0
 42
0.000000001
 43
0.0000000001
 40
1.0
 40
1.0
 40
1.0
 40
1.0
 40
2.0
 40
2.0
 40
2.0
 40
2.0
 10
3915.724596502926
 20
-3787.905320437282
 30
0.0
 10
3915.724596502926
 20
-3787.905320437282
 30
0.0
 10
3915.856888169593
 20
-3788.136830853949
 30
0.0
 10
3915.856888169593
 20
-3788.136830853949
 30
0.0
  0
SPLINE
  5
8DF8A
330
2
100
AcDbEntity
  8
0
 62
     8
100
AcDbSpline
210
0.0
220
0.0
230
1.0
 70
    24
 71
     3
 72
     8
 73
     4
 74
     0
 42
0.000000001
 43
0.0000000001
 40
2.0
 40
2.0
 40
2.0
 40
2.0
 40
3.0
 40
3.0
 40
3.0
 40
3.0
 10
3915.856888169593
 20
-3788.136830853949
 30
0.0
 10
3915.856888169593
 20
-3788.136830853949
 30
0.0
 10
3915.393867336258
 20
-3788.864435020615
 30
0.0
 10
3915.393867336258
 20
-3788.864435020615
 30
0.0
  0
SPLINE
  5
8DF8B
330
2
100
AcDbEntity
  8
0
 62
     8
100
AcDbSpline
210
0.0
220
0.0
230
1.0
 70
    24
 71
     3
 72
     8
 73
     4
 74
     0
 42
0.000000001
 43
0.0000000001
 40
3.0
 40
3.0
 40
3.0
 40
3.0
 40
4.0
 40
4.0
 40
4.0
 40
4.0
 10
3915.393867336258
 20
-3788.864435020615
 30
0.0
 10
3915.393867336258
 20
-3788.864435020615
 30
0.0
 10
3914.864700669591
 20
-3788.930580853949
 30
0.0
 10
3914.864700669591
 20
-3788.930580853949
 30
0.0
  0
SPLINE
  5
8DF8C
330
2
100
AcDbEntity
  8
0
 62
     8
100
AcDbSpline
210
0.0
220
0.0
230
1.0
 70
    24
 71
     3
 72
     8
 73
     4
 74
     0
 42
0.000000001
 43
0.0000000001
 40
4.0
 40
4.0
 40
4.0
 40
4.0
 40
5.0
 40
5.0
 40
5.0
 40
5.0
 10
3914.864700669591
 20
-3788.930580853949
 30
0.0
 10
3914.864700669591
 20
-3788.930580853949
 30
0.0
 10
3914.070950669592
 20
-3788.236049603948
 30
0.0
 10
3914.070950669592
 20
-3788.236049603948
 30
0.0
  0
SPLINE
  5
8DF8D
330
2
100
AcDbEntity
  8
0
 62
     8
100
AcDbSpline
210
0.0
220
0.0
230
1.0
 70
    24
 71
     3
 72
     8
 73
     4
 74
     0
 42
0.000000001
 43
0.0000000001
 40
5.0
 40
5.0
 40
5.0
 40
5.0
 40
6.0
 40
6.0
 40
6.0
 40
6.0
 10
3914.070950669592
 20
-3788.236049603948
 30
0.0
 10
3914.070950669592
 20
-3788.236049603948
 30
0.0
 10
3913.078763169592
 20
-3789.195164187283
 30
0.0
 10
3913.078763169592
 20
-3789.195164187283
 30
0.0
  0
SPLINE
  5
8DF8E
330
2
100
AcDbEntity
  8
0
 62
     8
100
AcDbSpline
210
0.0
220
0.0
230
1.0
 70
     8
 71
     3
 72
     8
 73
     4
 74
     0
 42
0.000000001
 43
0.0000000001
 40
0.0
 40
0.0
 40
0.0
 40
0.0
 40
1.0
 40
1.0
 40
1.0
 40
1.0
 10
3897.832148586259
 20
-3784.052842409938
 30
0.0
 10
3897.832148586259
 20
-3784.052842409938
 30
0.0
 10
3903.024596502925
 20
-3782.084487103949
 30
0.0
 10
3910.829804836259
 20
-3787.739955853948
 30
0.0
  0
SPLINE
  5
8DF8F
330
2
100
AcDbEntity
  8
0
 62
     8
100
AcDbSpline
210
0.0
220
0.0
230
1.0
 70
     8
 71
     3
 72
     8
 73
     4
 74
     0
 42
0.000000001
 43
0.0000000001
 40
0.0
 40
0.0
 40
0.0
 40
0.0
 40
1.0
 40
1.0
 40
1.0
 40
1.0
 10
3895.741320135739
 20
-3786.144704389105
 30
0.0
 10
3895.741320135739
 20
-3786.144704389105
 30
0.0
 10
3900.974075669593
 20
-3783.870424603948
 30
0.0
 10
3908.514700669592
 20
-3789.724330853948
 30
0.0
  0
SPLINE
  5
8DF90
330
2
100
AcDbEntity
  8
0
 62
     8
100
AcDbSpline
210
0.0
220
0.0
230
1.0
 70
     8
 71
     3
 72
     8
 73
     4
 74
     0
 42
0.000000001
 43
0.0000000001
 40
0.0
 40
0.0
 40
0.0
 40
0.0
 40
1.0
 40
1.0
 40
1.0
 40
1.0
 10
3903.454544419591
 20
-3790.154278770616
 30
0.0
 10
3903.454544419591
 20
-3790.154278770616
 30
0.0
 10
3906.497252752925
 20
-3791.840997520615
 30
0.0
 10
3906.728763169592
 20
-3792.105580853949
 30
0.0
  0
SPLINE
  5
8DF91
330
2
100
AcDbEntity
  8
0
 62
     8
100
AcDbSpline
210
0.0
220
0.0
230
1.0
 70
     8
 71
     3
 72
     8
 73
     4
 74
     0
 42
0.000000001
 43
0.0000000001
 40
0.0
 40
0.0
 40
0.0
 40
0.0
 40
1.0
 40
1.0
 40
1.0
 40
1.0
 10
3896.64152358626
 20
-3794.056882937281
 30
0.0
 10
3896.64152358626
 20
-3794.056882937281
 30
0.0
 10
3895.517044419591
 20
-3789.856622520615
 30
0.0
 10
3899.320429836259
 20
-3789.658185020614
 30
0.0
  0
LINE
  5
8DF92
330
2
100
AcDbEntity
  8
0
 62
     8
100
AcDbLine
 10
3917.080586086259
 20
-3793.957664187282
 30
0.0
 11
3919.164179836259
 21
-3791.344903770615
 31
0.0
  0
LINE
  5
8DF93
330
2
100
AcDbEntity
  8
0
 62
     8
100
AcDbLine
 10
3917.742044419591
 20
-3798.620945437281
 30
0.0
 11
3921.380065252925
 21
-3794.387612103948
 31
0.0
  0
SPLINE
  5
8DF94
330
2
100
AcDbEntity
  8
0
 62
     8
100
AcDbSpline
210
0.0
220
0.0
230
1.0
 70
    24
 71
     3
 72
     8
 73
     4
 74
     0
 42
0.000000001
 43
0.0000000001
 40
0.0
 40
0.0
 40
0.0
 40
0.0
 40
1.0
 40
1.0
 40
1.0
 40
1.0
 10
3915.195429836259
 20
-3790.021987103949
 30
0.0
 10
3915.195429836259
 20
-3790.021987103949
 30
0.0
 10
3918.304284002926
 20
-3792.270945437283
 30
0.0
 10
3918.304284002926
 20
-3792.270945437283
 30
0.0
  0
SPLINE
  5
8DF95
330
2
100
AcDbEntity
  8
0
 62
     8
100
AcDbSpline
210
0.0
220
0.0
230
1.0
 70
     8
 71
     3
 72
     8
 73
     4
 74
     0
 42
0.000000001
 43
0.0000000001
 40
1.0
 40
1.0
 40
1.0
 40
1.0
 40
2.0
 40
2.0
 40
2.0
 40
2.0
 10
3918.304284002926
 20
-3792.270945437283
 30
0.0
 10
3918.304284002926
 20
-3792.270945437283
 30
0.0
 10
3920.222513169593
 20
-3795.049070437283
 30
0.0
 10
3919.660273586259
 20
-3796.206622520615
 30
0.0
  0
SPLINE
  5
8DF96
330
2
100
AcDbEntity
  8
0
 62
     8
100
AcDbSpline
210
0.0
220
0.0
230
1.0
 70
     8
 71
     3
 72
    11
 73
     7
 74
     0
 42
0.000000001
 43
0.0000000001
 40
0.0
 40
0.0
 40
0.0
 40
0.0
 40
1.0
 40
1.0
 40
1.0
 40
2.0
 40
2.0
 40
2.0
 40
2.0
 10
3916.055325669592
 20
-3795.181362103948
 30
0.0
 10
3916.004682765947
 20
-3795.267144981554
 30
0.0
 10
3916.782929836259
 20
-3796.239695437283
 30
0.0
 10
3917.047513169592
 20
-3795.942039187282
 30
0.0
 10
3917.312096502926
 20
-3795.644382937281
 30
0.0
 10
3917.609752752925
 20
-3795.379799603949
 30
0.0
 10
3917.212877752926
 20
-3795.015997520616
 30
0.0
  0
SPLINE
  5
8DF97
330
2
100
AcDbEntity
  8
0
 62
     8
100
AcDbSpline
210
0.0
220
0.0
230
1.0
 70
     8
 71
     3
 72
     8
 73
     4
 74
     0
 42
0.000000001
 43
0.0000000001
 40
2.0
 40
2.0
 40
2.0
 40
2.0
 40
3.0
 40
3.0
 40
3.0
 40
3.0
 10
3917.212877752926
 20
-3795.015997520616
 30
0.0
 10
3917.212877752926
 20
-3795.015997520616
 30
0.0
 10
3916.617565252925
 20
-3794.222247520615
 30
0.0
 10
3916.055325669592
 20
-3795.181362103948
 30
0.0
  0
LINE
  5
8DF98
330
2
100
AcDbEntity
  8
0
 62
     8
100
AcDbLine
 10
3916.485273586258
 20
-3794.552976687281
 30
0.0
 11
3915.559231919592
 21
-3795.115216270616
 31
0.0
  0
SPLINE
  5
8DF99
330
2
100
AcDbEntity
  8
0
 62
     8
100
AcDbSpline
210
0.0
220
0.0
230
1.0
 70
     8
 71
     3
 72
     8
 73
     4
 74
     0
 42
0.000000001
 43
0.0000000001
 40
0.0
 40
0.0
 40
0.0
 40
0.0
 40
1.0
 40
1.0
 40
1.0
 40
1.0
 10
3917.775117336259
 20
-3796.636570437283
 30
0.0
 10
3917.775117336259
 20
-3796.636570437283
 30
0.0
 10
3916.452200669592
 20
-3796.371987103949
 30
0.0
 10
3916.121471502925
 20
-3796.008185020616
 30
0.0
  0
SPLINE
  5
8DF9A
330
2
100
AcDbEntity
  8
0
 62
     8
100
AcDbSpline
210
0.0
220
0.0
230
1.0
 70
     8
 71
     3
 72
     8
 73
     4
 74
     0
 42
0.000000001
 43
0.0000000001
 40
0.0
 40
0.0
 40
0.0
 40
0.0
 40
1.0
 40
1.0
 40
1.0
 40
1.0
 10
3913.707148586259
 20
-3791.80792460395
 30
0.0
 10
3913.707148586259
 20
-3791.80792460395
 30
0.0
 10
3915.97160984928
 20
-3793.11895569119
 30
0.0
 10
3916.370551906571
 20
-3793.902887169053
 30
0.0
  0
SPLINE
  5
8DF9B
330
2
100
AcDbEntity
  8
0
 62
     8
100
AcDbSpline
210
0.0
220
0.0
230
1.0
 70
     8
 71
     3
 72
     8
 73
     4
 74
     0
 42
0.000000001
 43
0.0000000001
 40
1.0
 40
1.0
 40
1.0
 40
1.0
 40
2.0
 40
2.0
 40
2.0
 40
2.0
 10
3916.370551906571
 20
-3793.902887169053
 30
0.0
 10
3916.392256008133
 20
-3793.944745079209
 30
0.0
 10
3916.408792466468
 20
-3793.985052696397
 30
0.0
 10
3916.419127752925
 20
-3794.023810020616
 30
0.0
  0
SPLINE
  5
8DF9C
330
2
100
AcDbEntity
  8
0
 62
     8
100
AcDbSpline
210
0.0
220
0.0
230
1.0
 70
     8
 71
     3
 72
     8
 73
     4
 74
     0
 42
0.000000001
 43
0.0000000001
 40
2.0
 40
2.0
 40
2.0
 40
2.0
 40
3.0
 40
3.0
 40
3.0
 40
3.0
 10
3916.419127752925
 20
-3794.023810020616
 30
0.0
 10
3916.617565252925
 20
-3794.78448710395
 30
0.0
 10
3917.279023586259
 20
-3793.990737103949
 30
0.0
 10
3917.279023586259
 20
-3793.990737103949
 30
0.0
  0
SPLINE
  5
8DF9D
330
2
100
AcDbEntity
  8
0
 62
     8
100
AcDbSpline
210
0.0
220
0.0
230
1.0
 70
     8
 71
     3
 72
    11
 73
     7
 74
     0
 42
0.000000001
 43
0.0000000001
 40
3.0
 40
3.0
 40
3.0
 40
3.0
 40
4.0
 40
4.0
 40
4.0
 40
5.0
 40
5.0
 40
5.0
 40
5.0
 10
3917.279023586259
 20
-3793.990737103949
 30
0.0
 10
3917.279023586259
 20
-3793.990737103949
 30
0.0
 10
3918.304284002926
 20
-3795.313653770617
 30
0.0
 10
3918.271211086259
 20
-3795.710528770615
 30
0.0
 10
3918.238138169591
 20
-3796.107403770616
 30
0.0
 10
3918.238138169591
 20
-3796.107403770616
 30
0.0
 10
3918.238138169591
 20
-3796.107403770616
 30
0.0
  0
SPLINE
  5
8DF9E
330
2
100
AcDbEntity
  8
0
 62
     8
100
AcDbSpline
210
0.0
220
0.0
230
1.0
 70
    24
 71
     3
 72
     8
 73
     4
 74
     0
 42
0.000000001
 43
0.0000000001
 40
5.0
 40
5.0
 40
5.0
 40
5.0
 40
6.0
 40
6.0
 40
6.0
 40
6.0
 10
3918.238138169591
 20
-3796.107403770616
 30
0.0
 10
3918.238138169591
 20
-3796.107403770616
 30
0.0
 10
3917.973554836258
 20
-3796.504278770616
 30
0.0
 10
3917.973554836258
 20
-3796.504278770616
 30
0.0
  0
SPLINE
  5
8DF9F
330
2
100
AcDbEntity
  8
0
 62
     8
100
AcDbSpline
210
0.0
220
0.0
230
1.0
 70
     8
 71
     3
 72
    11
 73
     7
 74
     0
 42
0.000000001
 43
0.0000000001
 40
6.0
 40
6.0
 40
6.0
 40
6.0
 40
7.0
 40
7.0
 40
7.0
 40
8.0
 40
8.0
 40
8.0
 40
8.0
 10
3917.973554836258
 20
-3796.504278770616
 30
0.0
 10
3917.973554836258
 20
-3796.504278770616
 30
0.0
 10
3918.238138169591
 20
-3797.694903770615
 30
0.0
 10
3917.907409002925
 20
-3798.224070437283
 30
0.0
 10
3917.576679836259
 20
-3798.753237103948
 30
0.0
 10
3916.849075669591
 20
-3799.348549603949
 30
0.0
 10
3915.956106919592
 20
-3799.150112103948
 30
0.0
  0
SPLINE
  5
8DFA0
330
2
100
AcDbEntity
  8
0
 62
     8
100
AcDbSpline
210
0.0
220
0.0
230
1.0
 70
     8
 71
     3
 72
     8
 73
     4
 74
     0
 42
0.000000001
 43
0.0000000001
 40
0.0
 40
0.0
 40
0.0
 40
0.0
 40
1.0
 40
1.0
 40
1.0
 40
1.0
 10
3912.979544419592
 20
-3792.733966270615
 30
0.0
 10
3912.979544419592
 20
-3792.733966270615
 30
0.0
 10
3915.390766750322
 20
-3793.933893028428
 30
0.0
 10
3916.088398586259
 20
-3796.570424603949
 30
0.0
  0
SPLINE
  5
8DFA1
330
2
100
AcDbEntity
  8
0
 62
     8
100
AcDbSpline
210
0.0
220
0.0
230
1.0
 70
     8
 71
     3
 72
     8
 73
     4
 74
     0
 42
0.000000001
 43
0.0000000001
 40
1.0
 40
1.0
 40
1.0
 40
1.0
 40
2.0
 40
2.0
 40
2.0
 40
2.0
 10
3916.088398586259
 20
-3796.570424603949
 30
0.0
 10
3916.386054836258
 20
-3797.694903770615
 30
0.0
 10
3915.49308608626
 20
-3798.124851687283
 30
0.0
 10
3915.49308608626
 20
-3798.124851687283
 30
0.0
  0
SPLINE
  5
8DFA2
330
2
100
AcDbEntity
  8
0
 62
     8
100
AcDbSpline
210
0.0
220
0.0
230
1.0
 70
     8
 71
     3
 72
    14
 73
    10
 74
     0
 42
0.000000001
 43
0.0000000001
 40
0.0
 40
0.0
 40
0.0
 40
0.0
 40
1.0
 40
1.0
 40
1.0
 40
2.0
 40
2.0
 40
2.0
 40
3.0
 40
3.0
 40
3.0
 40
3.0
 10
3923.43058608626
 20
-3801.895164187282
 30
0.0
 10
3923.43058608626
 20
-3801.895164187282
 30
0.0
 10
3922.471471502925
 20
-3801.961310020616
 30
0.0
 10
3922.802200669591
 20
-3802.688914187283
 30
0.0
 10
3923.132929836259
 20
-3803.416518353949
 30
0.0
 10
3923.893606919592
 20
-3803.912612103949
 30
0.0
 10
3924.356627752925
 20
-3803.71417460395
 30
0.0
 10
3924.819648586258
 20
-3803.515737103949
 30
0.0
 10
3924.819648586258
 20
-3803.449591270616
 30
0.0
 10
3924.786575669593
 20
-3803.251153770615
 30
0.0
  0
SPLINE
  5
8DFA3
330
2
100
AcDbEntity
  8
0
 62
     8
100
AcDbSpline
210
0.0
220
0.0
230
1.0
 70
     8
 71
     3
 72
     8
 73
     4
 74
     0
 42
0.000000001
 43
0.0000000001
 40
0.0
 40
0.0
 40
0.0
 40
0.0
 40
1.0
 40
1.0
 40
1.0
 40
1.0
 10
3922.967565252925
 20
-3801.299851687282
 30
0.0
 10
3923.132929836259
 20
-3801.399070437282
 30
0.0
 10
3925.183450669591
 20
-3803.285260215926
 30
0.0
 10
3925.183450669591
 20
-3803.285260215926
 30
0.0
  0
LINE
  5
8DFA4
330
2
100
AcDbEntity
  8
0
 62
     8
100
AcDbLine
 10
3922.93449233626
 20
-3801.432143353949
 30
0.0
 11
3921.843086086258
 21
-3802.854278770616
 31
0.0
  0
LINE
  5
8DFA5
330
2
100
AcDbEntity
  8
0
 62
     8
100
AcDbLine
 10
3921.843086086258
 20
-3802.854278770616
 30
0.0
 11
3924.092044419592
 21
-3804.706362103948
 31
0.0
  0
SPLINE
  5
8DFA6
330
2
100
AcDbEntity
  8
0
 62
     8
100
AcDbSpline
210
0.0
220
0.0
230
1.0
 70
     8
 71
     3
 72
     8
 73
     4
 74
     0
 42
0.000000001
 43
0.0000000001
 40
0.0
 40
0.0
 40
0.0
 40
0.0
 40
1.0
 40
1.0
 40
1.0
 40
1.0
 10
3915.625377752925
 20
-3801.663653770615
 30
0.0
 10
3915.625377752925
 20
-3801.663653770615
 30
0.0
 10
3919.534183091467
 20
-3803.57258117947
 30
0.0
 10
3922.438398586258
 20
-3801.498289187281
 30
0.0
  0
SPLINE
  5
8DFA7
330
2
100
AcDbEntity
  8
0
 62
     8
100
AcDbSpline
210
0.0
220
0.0
230
1.0
 70
     8
 71
     3
 72
     8
 73
     4
 74
     0
 42
0.000000001
 43
0.0000000001
 40
1.0
 40
1.0
 40
1.0
 40
1.0
 40
2.0
 40
2.0
 40
2.0
 40
2.0
 10
3922.438398586258
 20
-3801.498289187281
 30
0.0
 10
3922.669909002926
 20
-3801.332924603949
 30
0.0
 10
3922.967565252925
 20
-3801.299851687282
 30
0.0
 10
3922.967565252925
 20
-3801.299851687282
 30
0.0
  0
SPLINE
  5
8DFA8
330
2
100
AcDbEntity
  8
0
 62
     8
100
AcDbSpline
210
0.0
220
0.0
230
1.0
 70
    24
 71
     3
 72
     8
 73
     4
 74
     0
 42
0.000000001
 43
0.0000000001
 40
2.0
 40
2.0
 40
2.0
 40
2.0
 40
3.0
 40
3.0
 40
3.0
 40
3.0
 10
3922.967565252925
 20
-3801.299851687282
 30
0.0
 10
3922.967565252925
 20
-3801.299851687282
 30
0.0
 10
3923.959752752925
 20
-3799.877716270616
 30
0.0
 10
3923.959752752925
 20
-3799.877716270616
 30
0.0
  0
SPLINE
  5
8DFA9
330
2
100
AcDbEntity
  8
0
 62
     8
100
AcDbSpline
210
0.0
220
0.0
230
1.0
 70
    24
 71
     3
 72
     8
 73
     4
 74
     0
 42
0.000000001
 43
0.0000000001
 40
0.0
 40
0.0
 40
0.0
 40
0.0
 40
1.0
 40
1.0
 40
1.0
 40
1.0
 10
3922.967565252925
 20
-3798.885528770615
 30
0.0
 10
3922.967565252925
 20
-3798.885528770615
 30
0.0
 10
3923.000638169592
 20
-3799.24933085395
 30
0.0
 10
3923.000638169592
 20
-3799.24933085395
 30
0.0
  0
SPLINE
  5
8DFAA
330
2
100
AcDbEntity
  8
0
 62
     8
100
AcDbSpline
210
0.0
220
0.0
230
1.0
 70
     8
 71
     3
 72
     8
 73
     4
 74
     0
 42
0.000000001
 43
0.0000000001
 40
1.0
 40
1.0
 40
1.0
 40
1.0
 40
2.0
 40
2.0
 40
2.0
 40
2.0
 10
3923.000638169592
 20
-3799.24933085395
 30
0.0
 10
3923.000638169592
 20
-3799.24933085395
 30
0.0
 10
3924.092044419592
 20
-3799.546987103949
 30
0.0
 10
3925.613398586259
 20
-3801.200632937283
 30
0.0
  0
SPLINE
  5
8DFAB
330
2
100
AcDbEntity
  8
0
 62
     8
100
AcDbSpline
210
0.0
220
0.0
230
1.0
 70
    24
 71
     3
 72
     8
 73
     4
 74
     0
 42
0.000000001
 43
0.0000000001
 40
0.0
 40
0.0
 40
0.0
 40
0.0
 40
1.0
 40
1.0
 40
1.0
 40
1.0
 10
3912.648815252925
 20
-3792.866257937282
 30
0.0
 10
3912.648815252925
 20
-3792.866257937282
 30
0.0
 10
3916.485273586258
 20
-3788.434487103948
 30
0.0
 10
3916.485273586258
 20
-3788.434487103948
 30
0.0
  0
SPLINE
  5
8DFAC
330
2
100
AcDbEntity
  8
0
 62
     8
100
AcDbSpline
210
0.0
220
0.0
230
1.0
 70
     8
 71
     3
 72
     8
 73
     4
 74
     0
 42
0.000000001
 43
0.0000000001
 40
1.0
 40
1.0
 40
1.0
 40
1.0
 40
2.0
 40
2.0
 40
2.0
 40
2.0
 10
3916.485273586258
 20
-3788.434487103948
 30
0.0
 10
3916.485273586258
 20
-3788.434487103948
 30
0.0
 10
3922.868346502925
 20
-3793.858445437282
 30
0.0
 10
3923.000638169592
 20
-3798.984747520616
 30
0.0
  0
SPLINE
  5
8DFAD
330
2
100
AcDbEntity
  8
0
 62
     8
100
AcDbSpline
210
0.0
220
0.0
230
1.0
 70
     8
 71
     3
 72
     8
 73
     4
 74
     0
 42
0.000000001
 43
0.0000000001
 40
0.0
 40
0.0
 40
0.0
 40
0.0
 40
1.0
 40
1.0
 40
1.0
 40
1.0
 10
3912.714961086259
 20
-3794.78448710395
 30
0.0
 10
3912.714961086259
 20
-3794.78448710395
 30
0.0
 10
3916.200019680008
 20
-3797.204494428167
 30
0.0
 10
3915.956106919592
 20
-3800.869903770615
 30
0.0
  0
SPLINE
  5
8DFAE
330
2
100
AcDbEntity
  8
0
 62
     8
100
AcDbSpline
210
0.0
220
0.0
230
1.0
 70
     8
 71
     3
 72
     8
 73
     4
 74
     0
 42
0.000000001
 43
0.0000000001
 40
1.0
 40
1.0
 40
1.0
 40
1.0
 40
2.0
 40
2.0
 40
2.0
 40
2.0
 10
3915.956106919592
 20
-3800.869903770615
 30
0.0
 10
3915.923034002925
 20
-3801.365997520616
 30
0.0
 10
3915.790742336259
 20
-3801.399070437282
 30
0.0
 10
3915.790742336259
 20
-3801.399070437282
 30
0.0
  0
SPLINE
  5
8DFAF
330
2
100
AcDbEntity
  8
0
 62
     8
100
AcDbSpline
210
0.0
220
0.0
230
1.0
 70
    24
 71
     3
 72
     8
 73
     4
 74
     0
 42
0.000000001
 43
0.0000000001
 40
2.0
 40
2.0
 40
2.0
 40
2.0
 40
3.0
 40
3.0
 40
3.0
 40
3.0
 10
3915.790742336259
 20
-3801.399070437282
 30
0.0
 10
3915.790742336259
 20
-3801.399070437282
 30
0.0
 10
3913.376419419591
 20
-3804.607143353948
 30
0.0
 10
3913.376419419591
 20
-3804.607143353948
 30
0.0
  0
SPLINE
  5
8DFB0
330
2
100
AcDbEntity
  8
0
 62
     8
100
AcDbSpline
210
0.0
220
0.0
230
1.0
 70
    24
 71
     3
 72
     8
 73
     4
 74
     0
 42
0.000000001
 43
0.0000000001
 40
0.0
 40
0.0
 40
0.0
 40
0.0
 40
1.0
 40
1.0
 40
1.0
 40
1.0
 10
3903.421471502926
 20
-3795.313653770617
 30
0.0
 10
3903.421471502926
 20
-3795.313653770617
 30
0.0
 10
3906.166523586257
 20
-3792.237872520615
 30
0.0
 10
3906.166523586257
 20
-3792.237872520615
 30
0.0
  0
SPLINE
  5
8DFB1
330
2
100
AcDbEntity
  8
0
 62
     8
100
AcDbSpline
210
0.0
220
0.0
230
1.0
 70
     8
 71
     3
 72
     8
 73
     4
 74
     0
 42
0.000000001
 43
0.0000000001
 40
1.0
 40
1.0
 40
1.0
 40
1.0
 40
2.0
 40
2.0
 40
2.0
 40
2.0
 10
3906.166523586257
 20
-3792.237872520615
 30
0.0
 10
3906.166523586257
 20
-3792.237872520615
 30
0.0
 10
3906.960273586258
 20
-3792.072507937283
 30
0.0
 10
3907.158711086259
 20
-3792.138653770616
 30
0.0
  0
SPLINE
  5
8DFB2
330
2
100
AcDbEntity
  8
0
 62
     8
100
AcDbSpline
210
0.0
220
0.0
230
1.0
 70
    11
 71
     3
 72
    14
 73
    10
 74
     0
 42
0.000000001
 43
0.0000000001
 40
0.0
 40
0.0
 40
0.0
 40
0.0
 40
1.0
 40
1.0
 40
1.0
 40
2.0
 40
2.0
 40
2.0
 40
3.0
 40
3.0
 40
3.0
 40
3.0
 10
3905.505065252925
 20
-3799.381622520615
 30
0.0
 10
3905.505065252925
 20
-3799.381622520615
 30
0.0
 10
3905.670429836259
 20
-3798.687091270615
 30
0.0
 10
3906.298815252926
 20
-3798.819382937282
 30
0.0
 10
3906.927200669593
 20
-3798.951674603949
 30
0.0
 10
3906.993346502925
 20
-3799.811570437282
 30
0.0
 10
3906.331888169591
 20
-3799.976935020616
 30
0.0
 10
3905.670429836259
 20
-3800.142299603948
 30
0.0
 10
3905.57121108626
 20
-3799.844643353949
 30
0.0
 10
3905.505065252925
 20
-3799.381622520615
 30
0.0
  0
SPLINE
  5
8DFB3
330
2
100
AcDbEntity
  8
0
 62
     8
100
AcDbSpline
210
0.0
220
0.0
230
1.0
 70
     8
 71
     3
 72
    11
 73
     7
 74
     0
 42
0.000000001
 43
0.0000000001
 40
0.0
 40
0.0
 40
0.0
 40
0.0
 40
1.0
 40
1.0
 40
1.0
 40
2.0
 40
2.0
 40
2.0
 40
2.0
 10
3904.446731919591
 20
-3800.109226687281
 30
0.0
 10
3904.446731919591
 20
-3800.109226687281
 30
0.0
 10
3903.752200669592
 20
-3798.422507937282
 30
0.0
 10
3905.538138169592
 20
-3797.827195437282
 30
0.0
 10
3907.324075669591
 20
-3797.231882937283
 30
0.0
 10
3908.148831528967
 20
-3799.240029096137
 30
0.0
 10
3907.886315252926
 20
-3800.340737103948
 30
0.0
  0
SPLINE
  5
8DFB4
330
2
100
AcDbEntity
  8
0
 62
     8
100
AcDbSpline
210
0.0
220
0.0
230
1.0
 70
     8
 71
     3
 72
     8
 73
     4
 74
     0
 42
0.000000001
 43
0.0000000001
 40
2.0
 40
2.0
 40
2.0
 40
2.0
 40
3.0
 40
3.0
 40
3.0
 40
3.0
 10
3907.886315252926
 20
-3800.340737103948
 30
0.0
 10
3907.720950669592
 20
-3801.035268353949
 30
0.0
 10
3905.835794419591
 20
-3802.22589335395
 30
0.0
 10
3904.446731919591
 20
-3800.109226687281
 30
0.0
  0
SPLINE
  5
8DFB5
330
2
100
AcDbEntity
  8
0
 62
     8
100
AcDbSpline
210
0.0
220
0.0
230
1.0
 70
     8
 71
     3
 72
     8
 73
     4
 74
     0
 42
0.000000001
 43
0.0000000001
 40
0.0
 40
0.0
 40
0.0
 40
0.0
 40
1.0
 40
1.0
 40
1.0
 40
1.0
 10
3903.454544419591
 20
-3802.622768353948
 30
0.0
 10
3903.454544419591
 20
-3802.622768353948
 30
0.0
 10
3908.150898586259
 20
-3803.185007937283
 30
0.0
 10
3909.275377752926
 20
-3803.71417460395
 30
0.0
  0
SPLINE
  5
8DFB6
330
2
100
AcDbEntity
  8
0
 62
     8
100
AcDbSpline
210
0.0
220
0.0
230
1.0
 70
     8
 71
     3
 72
     8
 73
     4
 74
     0
 42
0.000000001
 43
0.0000000001
 40
0.0
 40
0.0
 40
0.0
 40
0.0
 40
1.0
 40
1.0
 40
1.0
 40
1.0
 10
3903.553763169592
 20
-3801.630580853948
 30
0.0
 10
3903.553763169592
 20
-3801.630580853948
 30
0.0
 10
3907.588659002925
 20
-3801.829018353948
 30
0.0
 10
3909.242304836259
 20
-3802.490476687283
 30
0.0
  0
LINE
  5
8DFB7
330
2
100
AcDbEntity
  8
0
 62
     8
100
AcDbLine
 10
3908.613919419592
 20
-3799.844643353949
 30
0.0
 11
3908.580846502927
 21
-3802.159747520615
 31
0.0
  0
SPLINE
  5
8DFB8
330
2
100
AcDbEntity
  8
0
 62
     8
100
AcDbSpline
210
0.0
220
0.0
230
1.0
 70
     8
 71
     3
 72
     8
 73
     4
 74
     0
 42
0.000000001
 43
0.0000000001
 40
0.0
 40
0.0
 40
0.0
 40
0.0
 40
1.0
 40
1.0
 40
1.0
 40
1.0
 10
3903.851419419593
 20
-3798.951674603949
 30
0.0
 10
3903.851419419593
 20
-3798.951674603949
 30
0.0
 10
3903.079890285478
 20
-3800.550543419054
 30
0.0
 10
3905.306627752926
 20
-3801.663653770615
 30
0.0
  0
SPLINE
  5
8DFB9
330
2
100
AcDbEntity
  8
0
 62
     8
100
AcDbSpline
210
0.0
220
0.0
230
1.0
 70
     8
 71
     3
 72
    11
 73
     7
 74
     0
 42
0.000000001
 43
0.0000000001
 40
1.0
 40
1.0
 40
1.0
 40
1.0
 40
2.0
 40
2.0
 40
2.0
 40
3.0
 40
3.0
 40
3.0
 40
3.0
 10
3905.306627752926
 20
-3801.663653770615
 30
0.0
 10
3905.769648586259
 20
-3801.895164187282
 30
0.0
 10
3907.456367336258
 20
-3801.795945437282
 30
0.0
 10
3907.754023586259
 20
-3801.365997520616
 30
0.0
 10
3908.05167983626
 20
-3800.936049603949
 30
0.0
 10
3909.176159002925
 20
-3798.389435020616
 30
0.0
 10
3909.176159002925
 20
-3798.389435020616
 30
0.0
  0
SPLINE
  5
8DFBA
330
2
100
AcDbEntity
  8
0
 62
     8
100
AcDbSpline
210
0.0
220
0.0
230
1.0
 70
    24
 71
     3
 72
     8
 73
     4
 74
     0
 42
0.000000001
 43
0.0000000001
 40
0.0
 40
0.0
 40
0.0
 40
0.0
 40
1.0
 40
1.0
 40
1.0
 40
1.0
 10
3903.719127752925
 20
-3798.984747520616
 30
0.0
 10
3903.719127752925
 20
-3798.984747520616
 30
0.0
 10
3909.010794419592
 20
-3788.864435020615
 30
0.0
 10
3909.010794419592
 20
-3788.864435020615
 30
0.0
  0
SPLINE
  5
8DFBB
330
2
100
AcDbEntity
  8
0
 62
     8
100
AcDbSpline
210
0.0
220
0.0
230
1.0
 70
     8
 71
     3
 72
    14
 73
    10
 74
     0
 42
0.000000001
 43
0.0000000001
 40
1.0
 40
1.0
 40
1.0
 40
1.0
 40
2.0
 40
2.0
 40
2.0
 40
3.0
 40
3.0
 40
3.0
 40
4.0
 40
4.0
 40
4.0
 40
4.0
 10
3909.010794419592
 20
-3788.864435020615
 30
0.0
 10
3909.010794419592
 20
-3788.864435020615
 30
0.0
 10
3910.068094224279
 20
-3787.243345339625
 30
0.0
 10
3911.921211086258
 20
-3788.169903770614
 30
0.0
 10
3912.582669419592
 20
-3788.500632937282
 30
0.0
 10
3913.508711086258
 20
-3789.988914187282
 30
0.0
 10
3913.310273586259
 20
-3790.31964335395
 30
0.0
 10
3913.111836086259
 20
-3790.650372520616
 30
0.0
 10
3912.748034002926
 20
-3791.245685020615
 30
0.0
 10
3912.748034002926
 20
-3791.245685020615
 30
0.0
  0
LINE
  5
8DFBC
330
2
100
AcDbEntity
  8
0
 62
     8
100
AcDbLine
 10
3903.421471502926
 20
-3796.801935020617
 30
0.0
 11
3904.512877752925
 21
-3797.397247520615
 31
0.0
  0
SPLINE
  5
8DFBD
330
2
100
AcDbEntity
  8
0
 62
     8
100
AcDbSpline
210
0.0
220
0.0
230
1.0
 70
     8
 71
     3
 72
     8
 73
     4
 74
     0
 42
0.000000001
 43
0.0000000001
 40
0.0
 40
0.0
 40
0.0
 40
0.0
 40
1.0
 40
1.0
 40
1.0
 40
1.0
 10
3894.217898911779
 20
-3793.601096804469
 30
0.0
 10
3894.217898911779
 20
-3793.601096804469
 30
0.0
 10
3897.63371108626
 20
-3794.255320437283
 30
0.0
 10
3899.287356919592
 20
-3794.916778770615
 30
0.0
  0
SPLINE
  5
8DFBE
330
2
100
AcDbEntity
  8
0
 62
     8
100
AcDbSpline
210
0.0
220
0.0
230
1.0
 70
     8
 71
     3
 72
     8
 73
     4
 74
     0
 42
0.000000001
 43
0.0000000001
 40
0.0
 40
0.0
 40
0.0
 40
0.0
 40
1.0
 40
1.0
 40
1.0
 40
1.0
 10
3914.600117336259
 20
-3802.788132937282
 30
0.0
 10
3914.600117336259
 20
-3802.788132937282
 30
0.0
 10
3915.757669419593
 20
-3803.449591270616
 30
0.0
 10
3916.849075669591
 20
-3803.912612103949
 30
0.0
  0
SPLINE
  5
8DFBF
330
2
100
AcDbEntity
  8
0
 62
     8
100
AcDbSpline
210
0.0
220
0.0
230
1.0
 70
    24
 71
     3
 72
     8
 73
     4
 74
     0
 42
0.000000001
 43
0.0000000001
 40
0.0
 40
0.0
 40
0.0
 40
0.0
 40
1.0
 40
1.0
 40
1.0
 40
1.0
 10
3912.053502752925
 20
-3790.518080853949
 30
0.0
 10
3912.053502752925
 20
-3790.518080853949
 30
0.0
 10
3912.549596502925
 20
-3791.014174603949
 30
0.0
 10
3912.549596502925
 20
-3791.014174603949
 30
0.0
  0
SPLINE
  5
8DFC0
330
2
100
AcDbEntity
  8
0
 62
     8
100
AcDbSpline
210
0.0
220
0.0
230
1.0
 70
    24
 71
     3
 72
     8
 73
     4
 74
     0
 42
0.000000001
 43
0.0000000001
 40
1.0
 40
1.0
 40
1.0
 40
1.0
 40
2.0
 40
2.0
 40
2.0
 40
2.0
 10
3912.549596502925
 20
-3791.014174603949
 30
0.0
 10
3912.549596502925
 20
-3791.014174603949
 30
0.0
 10
3912.814179836259
 20
-3803.912612103949
 30
0.0
 10
3912.814179836259
 20
-3803.912612103949
 30
0.0
  0
SPLINE
  5
8DFC1
330
2
100
AcDbEntity
  8
0
 62
     8
100
AcDbSpline
210
0.0
220
0.0
230
1.0
 70
     8
 71
     3
 72
    11
 73
     7
 74
     0
 42
0.000000001
 43
0.0000000001
 40
2.0
 40
2.0
 40
2.0
 40
2.0
 40
3.0
 40
3.0
 40
3.0
 40
4.0
 40
4.0
 40
4.0
 40
4.0
 10
3912.814179836259
 20
-3803.912612103949
 30
0.0
 10
3912.814179836259
 20
-3803.912612103949
 30
0.0
 10
3913.078763169592
 20
-3804.507924603949
 30
0.0
 10
3913.277200669591
 20
-3804.640216270615
 30
0.0
 10
3913.475638169592
 20
-3804.772507937282
 30
0.0
 10
3914.302461086259
 20
-3805.632403770615
 30
0.0
 10
3914.302461086259
 20
-3805.632403770615
 30
0.0
  0
SPLINE
  5
8DFC2
330
2
100
AcDbEntity
  8
0
 62
     8
100
AcDbSpline
210
0.0
220
0.0
230
1.0
 70
    24
 71
     3
 72
     8
 73
     4
 74
     0
 42
0.000000001
 43
0.0000000001
 40
4.0
 40
4.0
 40
4.0
 40
4.0
 40
5.0
 40
5.0
 40
5.0
 40
5.0
 10
3914.302461086259
 20
-3805.632403770615
 30
0.0
 10
3914.302461086259
 20
-3805.632403770615
 30
0.0
 10
3914.236315252926
 20
-3808.344382937282
 30
0.0
 10
3914.236315252926
 20
-3808.344382937282
 30
0.0
  0
SPLINE
  5
8DFC3
330
2
100
AcDbEntity
  8
0
 62
     8
100
AcDbSpline
210
0.0
220
0.0
230
1.0
 70
    24
 71
     3
 72
     8
 73
     4
 74
     0
 42
0.000000001
 43
0.0000000001
 40
5.0
 40
5.0
 40
5.0
 40
5.0
 40
6.0
 40
6.0
 40
6.0
 40
6.0
 10
3914.236315252926
 20
-3808.344382937282
 30
0.0
 10
3914.236315252926
 20
-3808.344382937282
 30
0.0
 10
3914.831627752924
 20
-3809.105060020615
 30
0.0
 10
3914.831627752924
 20
-3809.105060020615
 30
0.0
  0
SPLINE
  5
8DFC4
330
2
100
AcDbEntity
  8
0
 62
     8
100
AcDbSpline
210
0.0
220
0.0
230
1.0
 70
    24
 71
     3
 72
     8
 73
     4
 74
     0
 42
0.000000001
 43
0.0000000001
 40
6.0
 40
6.0
 40
6.0
 40
6.0
 40
7.0
 40
7.0
 40
7.0
 40
7.0
 10
3914.831627752924
 20
-3809.105060020615
 30
0.0
 10
3914.831627752924
 20
-3809.105060020615
 30
0.0
 10
3914.765481919591
 20
-3810.262612103949
 30
0.0
 10
3914.765481919591
 20
-3810.262612103949
 30
0.0
  0
LINE
  5
8DFC5
330
2
100
AcDbEntity
  8
0
 62
     8
100
AcDbLine
 10
3909.639179836259
 20
-3789.592039187281
 30
0.0
 11
3909.308450669591
 21
-3789.922768353948
 31
0.0
  0
LINE
  5
8DFC6
330
2
100
AcDbEntity
  8
0
 62
     8
100
AcDbLine
 10
3909.308450669591
 20
-3789.922768353948
 30
0.0
 11
3909.341523586259
 21
-3810.064174603948
 31
0.0
  0
LINE
  5
8DFC7
330
2
100
AcDbEntity
  8
0
 62
     8
100
AcDbLine
 10
3899.783450669592
 20
-3788.897507937282
 30
0.0
 11
3899.882669419591
 21
-3802.258966270615
 31
0.0
  0
LINE
  5
8DFC8
330
2
100
AcDbEntity
  8
0
 62
     8
100
AcDbLine
 10
3899.882669419591
 20
-3802.258966270615
 30
0.0
 11
3899.287356919592
 21
-3802.854278770616
 31
0.0
  0
LINE
  5
8DFC9
330
2
100
AcDbEntity
  8
0
 62
     8
100
AcDbLine
 10
3917.411315252925
 20
-3807.054539187283
 30
0.0
 11
3917.973554836258
 21
-3807.219903770617
 31
0.0
  0
SPLINE
  5
8DFCA
330
2
100
AcDbEntity
  8
0
 62
     8
100
AcDbSpline
210
0.0
220
0.0
230
1.0
 70
     8
 71
     3
 72
     8
 73
     4
 74
     0
 42
0.000000001
 43
0.0000000001
 40
0.0
 40
0.0
 40
0.0
 40
0.0
 40
1.0
 40
1.0
 40
1.0
 40
1.0
 10
3914.302461086259
 20
-3806.293862103948
 30
0.0
 10
3914.302461086259
 20
-3806.293862103948
 30
0.0
 10
3914.831627752924
 20
-3806.922247520616
 30
0.0
 10
3915.823815252926
 20
-3806.889174603949
 30
0.0
  0
LINE
  5
8DFCB
330
2
100
AcDbEntity
  8
0
 62
     8
100
AcDbLine
 10
3918.138919419592
 20
-3809.799591270615
 30
0.0
 11
3918.105846502925
 21
-3806.624591270615
 31
0.0
  0
LINE
  5
8DFCC
330
2
100
AcDbEntity
  8
0
 62
     8
100
AcDbLine
 10
3915.790742336259
 20
-3807.120685020615
 30
0.0
 11
3916.650638169592
 21
-3808.079799603948
 31
0.0
  0
LINE
  5
8DFCD
330
2
100
AcDbEntity
  8
0
 62
     8
100
AcDbLine
 10
3914.533971502927
 20
-3807.815216270615
 30
0.0
 11
3915.360794419591
 21
-3808.642039187283
 31
0.0
  0
LINE
  5
8DFCE
330
2
100
AcDbEntity
  8
0
 62
     8
100
AcDbLine
 10
3914.533971502927
 20
-3808.642039187283
 30
0.0
 11
3914.50089858626
 21
-3807.682924603948
 31
0.0
  0
LINE
  5
8DFCF
330
2
100
AcDbEntity
  8
0
 62
     8
100
AcDbLine
 10
3914.50089858626
 20
-3807.682924603948
 30
0.0
 11
3915.823815252926
 21
-3806.889174603949
 31
0.0
  0
LINE
  5
8DFD0
330
2
100
AcDbEntity
  8
0
 62
     8
100
AcDbLine
 10
3915.823815252926
 20
-3806.889174603949
 30
0.0
 11
3915.956106919592
 21
-3806.095424603948
 31
0.0
  0
LINE
  5
8DFD1
330
2
100
AcDbEntity
  8
0
 62
     8
100
AcDbLine
 10
3915.956106919592
 20
-3806.095424603948
 30
0.0
 11
3916.286836086259
 21
-3806.161570437283
 31
0.0
  0
LINE
  5
8DFD2
330
2
100
AcDbEntity
  8
0
 62
     8
100
AcDbLine
 10
3916.286836086259
 20
-3806.161570437283
 30
0.0
 11
3917.411315252925
 21
-3807.054539187283
 31
0.0
  0
LINE
  5
8DFD3
330
2
100
AcDbEntity
  8
0
 62
     8
100
AcDbLine
 10
3917.411315252925
 20
-3807.054539187283
 30
0.0
 11
3916.98136733626
 21
-3808.079799603948
 31
0.0
  0
LINE
  5
8DFD4
330
2
100
AcDbEntity
  8
0
 62
     8
100
AcDbLine
 10
3916.98136733626
 20
-3808.079799603948
 30
0.0
 11
3916.749856919591
 21
-3808.278237103949
 31
0.0
  0
LINE
  5
8DFD5
330
2
100
AcDbEntity
  8
0
 62
     8
100
AcDbLine
 10
3916.749856919591
 20
-3808.278237103949
 30
0.0
 11
3916.253763169591
 21
-3808.377455853949
 31
0.0
  0
LINE
  5
8DFD6
330
2
100
AcDbEntity
  8
0
 62
     8
100
AcDbLine
 10
3916.253763169591
 20
-3808.377455853949
 30
0.0
 11
3916.088398586259
 21
-3808.708185020617
 31
0.0
  0
SPLINE
  5
8DFD7
330
2
100
AcDbEntity
  8
0
 62
     8
100
AcDbSpline
210
0.0
220
0.0
230
1.0
 70
     8
 71
     3
 72
     8
 73
     4
 74
     0
 42
0.000000001
 43
0.0000000001
 40
0.0
 40
0.0
 40
0.0
 40
0.0
 40
1.0
 40
1.0
 40
1.0
 40
1.0
 10
3916.055325669592
 20
-3813.13995585395
 30
0.0
 10
3916.055325669592
 20
-3813.13995585395
 30
0.0
 10
3915.300849758133
 20
-3812.29142883572
 30
0.0
 10
3916.154544419592
 20
-3811.65167460395
 30
0.0
  0
SPLINE
  5
8DFD8
330
2
100
AcDbEntity
  8
0
 62
     8
100
AcDbSpline
210
0.0
220
0.0
230
1.0
 70
     8
 71
     3
 72
     8
 73
     4
 74
     0
 42
0.000000001
 43
0.0000000001
 40
1.0
 40
1.0
 40
1.0
 40
1.0
 40
2.0
 40
2.0
 40
2.0
 40
2.0
 10
3916.154544419592
 20
-3811.65167460395
 30
0.0
 10
3916.419127752925
 20
-3811.453237103949
 30
0.0
 10
3917.444388169592
 20
-3812.908445437283
 30
0.0
 10
3916.849075669591
 20
-3813.305320437282
 30
0.0
  0
SPLINE
  5
8DFD9
330
2
100
AcDbEntity
  8
0
 62
     8
100
AcDbSpline
210
0.0
220
0.0
230
1.0
 70
    24
 71
     3
 72
     8
 73
     4
 74
     0
 42
0.000000001
 43
0.0000000001
 40
0.0
 40
0.0
 40
0.0
 40
0.0
 40
1.0
 40
1.0
 40
1.0
 40
1.0
 10
3914.930846502925
 20
-3812.941518353949
 30
0.0
 10
3914.930846502925
 20
-3812.941518353949
 30
0.0
 10
3914.930846502925
 20
-3810.295685020616
 30
0.0
 10
3914.930846502925
 20
-3810.295685020616
 30
0.0
  0
SPLINE
  5
8DFDA
330
2
100
AcDbEntity
  8
0
 62
     8
100
AcDbSpline
210
0.0
220
0.0
230
1.0
 70
     8
 71
     3
 72
    11
 73
     7
 74
     0
 42
0.000000001
 43
0.0000000001
 40
1.0
 40
1.0
 40
1.0
 40
1.0
 40
2.0
 40
2.0
 40
2.0
 40
3.0
 40
3.0
 40
3.0
 40
3.0
 10
3914.930846502925
 20
-3810.295685020616
 30
0.0
 10
3914.930846502925
 20
-3810.295685020616
 30
0.0
 10
3915.559231919592
 20
-3810.229539187282
 30
0.0
 10
3915.460013169592
 20
-3810.229539187282
 30
0.0
 10
3915.360794419591
 20
-3810.229539187282
 30
0.0
 10
3915.360794419591
 20
-3808.642039187283
 30
0.0
 10
3915.360794419591
 20
-3808.642039187283
 30
0.0
  0
SPLINE
  5
8DFDB
330
2
100
AcDbEntity
  8
0
 62
     8
100
AcDbSpline
210
0.0
220
0.0
230
1.0
 70
    24
 71
     3
 72
     8
 73
     4
 74
     0
 42
0.000000001
 43
0.0000000001
 40
3.0
 40
3.0
 40
3.0
 40
3.0
 40
4.0
 40
4.0
 40
4.0
 40
4.0
 10
3915.360794419591
 20
-3808.642039187283
 30
0.0
 10
3915.360794419591
 20
-3808.642039187283
 30
0.0
 10
3917.973554836258
 20
-3809.733445437282
 30
0.0
 10
3917.973554836258
 20
-3809.733445437282
 30
0.0
  0
SPLINE
  5
8DFDC
330
2
100
AcDbEntity
  8
0
 62
     8
100
AcDbSpline
210
0.0
220
0.0
230
1.0
 70
     8
 71
     3
 72
    11
 73
     7
 74
     0
 42
0.000000001
 43
0.0000000001
 40
4.0
 40
4.0
 40
4.0
 40
4.0
 40
5.0
 40
5.0
 40
5.0
 40
6.0
 40
6.0
 40
6.0
 40
6.0
 10
3917.973554836258
 20
-3809.733445437282
 30
0.0
 10
3917.973554836258
 20
-3809.733445437282
 30
0.0
 10
3917.907409002925
 20
-3810.890997520616
 30
0.0
 10
3917.907409002925
 20
-3811.023289187281
 30
0.0
 10
3917.907409002925
 20
-3811.15558085395
 30
0.0
 10
3917.609752752925
 20
-3811.519382937283
 30
0.0
 10
3917.609752752925
 20
-3811.519382937283
 30
0.0
  0
SPLINE
  5
8DFDD
330
2
100
AcDbEntity
  8
0
 62
     8
100
AcDbSpline
210
0.0
220
0.0
230
1.0
 70
    24
 71
     3
 72
     8
 73
     4
 74
     0
 42
0.000000001
 43
0.0000000001
 40
6.0
 40
6.0
 40
6.0
 40
6.0
 40
7.0
 40
7.0
 40
7.0
 40
7.0
 10
3917.609752752925
 20
-3811.519382937283
 30
0.0
 10
3917.609752752925
 20
-3811.519382937283
 30
0.0
 10
3917.775117336259
 20
-3813.636049603948
 30
0.0
 10
3917.775117336259
 20
-3813.636049603948
 30
0.0
  0
LINE
  5
8DFDE
330
2
100
AcDbEntity
  8
0
 62
     8
100
AcDbLine
 10
3901.040221502925
 20
-3805.103237103948
 30
0.0
 11
3903.487617336258
 21
-3805.380222781033
 31
0.0
  0
LINE
  5
8DFDF
330
2
100
AcDbEntity
  8
0
 62
     8
100
AcDbLine
 10
3910.336811672197
 20
-3806.155369265406
 30
0.0
 11
3912.152721502925
 21
-3806.360007937282
 31
0.0
  0
LINE
  5
8DFE0
330
2
100
AcDbEntity
  8
0
 62
     8
100
AcDbLine
 10
3901.10636733626
 20
-3804.375632937282
 30
0.0
 11
3903.51810643131
 21
-3804.638149213323
 31
0.0
  0
LINE
  5
8DFE1
330
2
100
AcDbEntity
  8
0
 62
     8
100
AcDbLine
 10
3910.269632310218
 20
-3805.375055137803
 30
0.0
 11
3912.020429836258
 21
-3805.566257937283
 31
0.0
  0
LINE
  5
8DFE2
330
2
100
AcDbEntity
  8
0
 62
     8
100
AcDbLine
 10
3901.10636733626
 20
-3803.581882937281
 30
0.0
 11
3903.357909491207
 21
-3803.854734499781
 31
0.0
  0
LINE
  5
8DFE3
330
2
100
AcDbEntity
  8
0
 62
     8
100
AcDbLine
 10
3910.165245916988
 20
-3804.679490359157
 30
0.0
 11
3912.020429836258
 21
-3804.904799603949
 31
0.0
  0
LINE
  5
8DFE4
330
2
100
AcDbEntity
  8
0
 62
     8
100
AcDbLine
 10
3900.974075669593
 20
-3802.655841270615
 30
0.0
 11
3903.546528469072
 21
-3802.961765749783
 31
0.0
  0
LINE
  5
8DFE5
330
2
100
AcDbEntity
  8
0
 62
     8
100
AcDbLine
 10
3910.135273586259
 20
-3803.747247520615
 30
0.0
 11
3912.086575669592
 21
-3803.978757937283
 31
0.0
  0
LINE
  5
8DFE6
330
2
100
AcDbEntity
  8
0
 62
     8
100
AcDbLine
 10
3900.974075669593
 20
-3801.862091270615
 30
0.0
 11
3903.550145819331
 21
-3802.201088666448
 31
0.0
  0
LINE
  5
8DFE7
330
2
100
AcDbEntity
  8
0
 62
     8
100
AcDbLine
 10
3910.106334784175
 20
-3803.065118614365
 30
0.0
 11
3912.020429836258
 21
-3803.317299603948
 31
0.0
  0
LINE
  5
8DFE8
330
2
100
AcDbEntity
  8
0
 62
     8
100
AcDbLine
 10
3901.040221502925
 20
-3801.068341270616
 30
0.0
 11
3903.459195298498
 21
-3801.361863406032
 31
0.0
  0
LINE
  5
8DFE9
330
2
100
AcDbEntity
  8
0
 62
     8
100
AcDbLine
 10
3910.236559393551
 20
-3802.18351867947
 30
0.0
 11
3911.954284002925
 21
-3802.391257937282
 31
0.0
  0
LINE
  5
8DFEA
330
2
100
AcDbEntity
  8
0
 62
     8
100
AcDbLine
 10
3900.974075669593
 20
-3800.274591270615
 30
0.0
 11
3903.459195298498
 21
-3800.602219851345
 31
0.0
  0
LINE
  5
8DFEB
330
2
100
AcDbEntity
  8
0
 62
     8
100
AcDbLine
 10
3910.104267726884
 20
-3801.477618614365
 30
0.0
 11
3912.020429836258
 21
-3801.729799603948
 31
0.0
  0
LINE
  5
8DFEC
330
2
100
AcDbEntity
  8
0
 62
     8
100
AcDbLine
 10
3901.10636733626
 20
-3799.613132937283
 30
0.0
 11
3903.357909491207
 21
-3799.859112754991
 31
0.0
  0
LINE
  5
8DFED
330
2
100
AcDbEntity
  8
0
 62
     8
100
AcDbLine
 10
3910.170413560217
 20
-3800.602219851345
 30
0.0
 11
3912.020429836258
 21
-3800.803757937282
 31
0.0
  0
LINE
  5
8DFEE
330
2
100
AcDbEntity
  8
0
 62
     8
100
AcDbLine
 10
3901.172513169592
 20
-3798.753237103948
 30
0.0
 11
3903.386848293289
 21
-3799.025055137802
 31
0.0
  0
LINE
  5
8DFEF
330
2
100
AcDbEntity
  8
0
 62
     8
100
AcDbLine
 10
3910.13734064355
 20
-3799.853428347437
 30
0.0
 11
3911.954284002925
 21
-3800.076153770614
 31
0.0
  0
LINE
  5
8DFF0
330
2
100
AcDbEntity
  8
0
 62
     8
100
AcDbLine
 10
3901.172513169592
 20
-3797.76104960395
 30
0.0
 11
3903.486067043289
 21
-3798.099530235458
 31
0.0
  0
LINE
  5
8DFF1
330
2
100
AcDbEntity
  8
0
 62
     8
100
AcDbLine
 10
3910.14250828678
 20
-3799.073630984157
 30
0.0
 11
3912.020429836258
 21
-3799.348549603949
 31
0.0
  0
LINE
  5
8DFF2
330
2
100
AcDbEntity
  8
0
 62
     8
100
AcDbLine
 10
3901.040221502925
 20
-3797.165737103948
 30
0.0
 11
3903.454544419591
 21
-3797.489231570094
 31
0.0
  0
LINE
  5
8DFF3
330
2
100
AcDbEntity
  8
0
 62
     8
100
AcDbLine
 10
3910.072228338863
 20
-3798.377549441188
 30
0.0
 11
3911.888138169591
 21
-3798.620945437281
 31
0.0
  0
LINE
  5
8DFF4
330
2
100
AcDbEntity
  8
0
 62
     8
100
AcDbLine
 10
3901.10636733626
 20
-3796.239695437283
 30
0.0
 11
3903.519656724279
 21
-3796.57404195421
 31
0.0
  0
LINE
  5
8DFF5
330
2
100
AcDbEntity
  8
0
 62
     8
100
AcDbLine
 10
3910.076362453446
 20
-3797.482513633898
 30
0.0
 11
3912.086575669592
 21
-3797.76104960395
 31
0.0
  0
LINE
  5
8DFF6
330
2
100
AcDbEntity
  8
0
 62
     8
100
AcDbLine
 10
3901.172513169592
 20
-3795.578237103949
 30
0.0
 11
3903.485550278968
 21
-3795.890362754989
 31
0.0
  0
LINE
  5
8DFF7
330
2
100
AcDbEntity
  8
0
 62
     8
100
AcDbLine
 10
3909.978177232092
 20
-3796.766278282334
 30
0.0
 11
3911.954284002925
 21
-3797.033445437281
 31
0.0
  0
LINE
  5
8DFF8
330
2
100
AcDbEntity
  8
0
 62
     8
100
AcDbLine
 10
3901.172513169592
 20
-3794.78448710395
 30
0.0
 11
3903.388398586259
 21
-3795.06819071723
 31
0.0
  0
LINE
  5
8DFF9
330
2
100
AcDbEntity
  8
0
 62
     8
100
AcDbLine
 10
3909.942003729487
 20
-3795.907415977647
 30
0.0
 11
3912.020429836258
 21
-3796.173549603948
 31
0.0
  0
LINE
  5
8DFFA
330
2
100
AcDbEntity
  8
0
 62
     8
100
AcDbLine
 10
3901.10636733626
 20
-3794.056882937281
 30
0.0
 11
3903.453510890947
 21
-3794.331801557074
 31
0.0
  0
LINE
  5
8DFFB
330
2
100
AcDbEntity
  8
0
 62
     8
100
AcDbLine
 10
3909.969909002925
 20
-3795.096095990667
 30
0.0
 11
3911.821992336259
 21
-3795.313653770617
 31
0.0
  0
LINE
  5
8DFFC
330
2
100
AcDbEntity
  8
0
 62
     8
100
AcDbLine
 10
3901.238659002925
 20
-3793.130841270616
 30
0.0
 11
3903.451960597978
 21
-3793.44710103624
 31
0.0
  0
LINE
  5
8DFFD
330
2
100
AcDbEntity
  8
0
 62
     8
100
AcDbLine
 10
3909.981277818029
 20
-3794.379860639106
 30
0.0
 11
3911.888138169591
 21
-3794.652195437281
 31
0.0
  0
LINE
  5
8DFFE
330
2
100
AcDbEntity
  8
0
 62
     8
100
AcDbLine
 10
3901.238659002925
 20
-3792.403237103949
 30
0.0
 11
3903.455061183916
 21
-3792.676605430771
 31
0.0
  0
LINE
  5
8DFFF
330
2
100
AcDbEntity
  8
0
 62
     8
100
AcDbLine
 10
3910.009183091467
 20
-3793.486375124782
 30
0.0
 11
3911.954284002925
 21
-3793.726153770615
 31
0.0
  0
LINE
  5
8E000
330
2
100
AcDbEntity
  8
0
 62
     8
100
AcDbLine
 10
3901.238659002925
 20
-3791.80792460395
 30
0.0
 11
3903.554796698239
 21
-3792.068373822699
 31
0.0
  0
LINE
  5
8E001
330
2
100
AcDbEntity
  8
0
 62
     8
100
AcDbLine
 10
3909.906863755529
 20
-3792.783058881291
 30
0.0
 11
3911.821992336259
 21
-3792.998549603949
 31
0.0
  0
LINE
  5
8E002
330
2
100
AcDbEntity
  8
0
 62
     8
100
AcDbLine
 10
3901.172513169592
 20
-3790.881882937282
 30
0.0
 11
3903.48244969303
 21
-3791.18108948025
 31
0.0
  0
LINE
  5
8E003
330
2
100
AcDbEntity
  8
0
 62
     8
100
AcDbLine
 10
3909.86965672428
 20
-3792.009462689885
 30
0.0
 11
3911.888138169591
 21
-3792.270945437283
 31
0.0
  0
LINE
  5
8E004
330
2
100
AcDbEntity
  8
0
 62
     8
100
AcDbLine
 10
3901.238659002925
 20
-3790.154278770616
 30
0.0
 11
3903.453510890947
 21
-3790.401808881293
 31
0.0
  0
LINE
  5
8E005
330
2
100
AcDbEntity
  8
0
 62
     8
100
AcDbLine
 10
3909.907897284175
 20
-3791.123211876083
 30
0.0
 11
3911.888138169591
 21
-3791.344903770615
 31
0.0
  0
LINE
  5
8E006
330
2
100
AcDbEntity
  8
0
 62
     8
100
AcDbLine
 10
3901.10636733626
 20
-3789.162091270616
 30
0.0
 11
3903.453510890947
 21
-3789.476800743273
 31
0.0
  0
LINE
  5
8E007
330
2
100
AcDbEntity
  8
0
 62
     8
100
AcDbLine
 10
3909.998847805008
 20
-3790.354783327907
 30
0.0
 11
3911.954284002925
 21
-3790.617299603949
 31
0.0
  0
LINE
  5
8E008
330
2
100
AcDbEntity
  8
0
 62
     8
100
AcDbLine
 10
3901.10636733626
 20
-3788.566778770616
 30
0.0
 11
3901.040221502925
 21
-3805.830841270616
 31
0.0
  0
LINE
  5
8E009
330
2
100
AcDbEntity
  8
0
 62
     8
100
AcDbLine
 10
3901.040221502925
 20
-3805.830841270616
 30
0.0
 11
3903.553763169592
 21
-3806.087156374781
 31
0.0
  0
LINE
  5
8E00A
330
2
100
AcDbEntity
  8
0
 62
     8
100
AcDbLine
 10
3910.26653172428
 20
-3806.769285281033
 30
0.0
 11
3912.086575669592
 21
-3806.955320437283
 31
0.0
  0
LINE
  5
8E00B
330
2
100
AcDbEntity
  8
0
 62
     8
100
AcDbLine
 10
3912.086575669592
 20
-3806.955320437283
 30
0.0
 11
3911.954284002925
 21
-3790.154278770616
 31
0.0
  0
LINE
  5
8E00C
330
2
100
AcDbEntity
  8
0
 62
     8
100
AcDbLine
 10
3911.954284002925
 20
-3790.154278770616
 30
0.0
 11
3911.557409002927
 21
-3789.691257937281
 31
0.0
  0
LINE
  5
8E00D
330
2
100
AcDbEntity
  8
0
 62
     8
100
AcDbLine
 10
3911.557409002927
 20
-3789.691257937281
 30
0.0
 11
3909.771471502926
 21
-3789.625112103949
 31
0.0
  0
LINE
  5
8E00E
330
2
100
AcDbEntity
  8
0
 62
     8
100
AcDbLine
 10
3909.771471502926
 20
-3789.625112103949
 30
0.0
 11
3909.785940903967
 21
-3790.385789187282
 31
0.0
  0
LINE
  5
8E00F
330
2
100
AcDbEntity
  8
0
 62
     8
100
AcDbLine
 10
3909.785940903967
 20
-3790.385789187282
 30
0.0
 11
3910.168346502925
 21
-3810.527195437281
 31
0.0
  0
LINE
  5
8E010
330
2
100
AcDbEntity
  8
0
 62
     8
100
AcDbLine
 10
3910.168346502925
 20
-3810.527195437281
 30
0.0
 11
3903.421471502926
 21
-3809.66729960395
 31
0.0
  0
LINE
  5
8E011
330
2
100
AcDbEntity
  8
0
 62
     8
100
AcDbLine
 10
3903.421471502926
 20
-3809.66729960395
 30
0.0
 11
3903.410102687821
 21
-3806.161570437283
 31
0.0
  0
LINE
  5
8E012
330
2
100
AcDbEntity
  8
0
 62
     8
100
AcDbLine
 10
3903.410102687821
 20
-3806.161570437283
 30
0.0
 11
3903.3780632998
 21
-3795.974595339626
 31
0.0
  0
SPLINE
  5
8E013
330
2
100
AcDbEntity
  8
0
 62
     8
100
AcDbSpline
210
0.0
220
0.0
230
1.0
 70
    24
 71
     3
 72
     8
 73
     4
 74
     0
 42
0.000000001
 43
0.0000000001
 40
0.0
 40
0.0
 40
0.0
 40
0.0
 40
1.0
 40
1.0
 40
1.0
 40
1.0
 10
3903.3780632998
 20
-3795.974595339626
 30
0.0
 10
3903.3780632998
 20
-3795.974595339626
 30
0.0
 10
3903.355325669591
 20
-3788.83136210395
 30
0.0
 10
3903.355325669591
 20
-3788.83136210395
 30
0.0
  0
SPLINE
  5
8E014
330
2
100
AcDbEntity
  8
0
 62
     8
100
AcDbSpline
210
0.0
220
0.0
230
1.0
 70
    24
 71
     3
 72
     8
 73
     4
 74
     0
 42
0.000000001
 43
0.0000000001
 40
1.0
 40
1.0
 40
1.0
 40
1.0
 40
2.0
 40
2.0
 40
2.0
 40
2.0
 10
3903.355325669591
 20
-3788.83136210395
 30
0.0
 10
3903.355325669591
 20
-3788.83136210395
 30
0.0
 10
3903.090742336258
 20
-3788.500632937282
 30
0.0
 10
3903.090742336258
 20
-3788.500632937282
 30
0.0
  0
SPLINE
  5
8E015
330
2
100
AcDbEntity
  8
0
 62
     8
100
AcDbSpline
210
0.0
220
0.0
230
1.0
 70
    24
 71
     3
 72
     8
 73
     4
 74
     0
 42
0.000000001
 43
0.0000000001
 40
2.0
 40
2.0
 40
2.0
 40
2.0
 40
3.0
 40
3.0
 40
3.0
 40
3.0
 10
3903.090742336258
 20
-3788.500632937282
 30
0.0
 10
3903.090742336258
 20
-3788.500632937282
 30
0.0
 10
3900.907929836259
 20
-3788.500632937282
 30
0.0
 10
3900.907929836259
 20
-3788.500632937282
 30
0.0
  0
SPLINE
  5
8E016
330
2
100
AcDbEntity
  8
0
 62
     8
100
AcDbSpline
210
0.0
220
0.0
230
1.0
 70
    24
 71
     3
 72
     8
 73
     4
 74
     0
 42
0.000000001
 43
0.0000000001
 40
3.0
 40
3.0
 40
3.0
 40
3.0
 40
4.0
 40
4.0
 40
4.0
 40
4.0
 10
3900.907929836259
 20
-3788.500632937282
 30
0.0
 10
3900.907929836259
 20
-3788.500632937282
 30
0.0
 10
3900.907929836259
 20
-3788.765216270615
 30
0.0
 10
3900.907929836259
 20
-3788.765216270615
 30
0.0
  0
SPLINE
  5
8E017
330
2
100
AcDbEntity
  8
0
 62
     8
100
AcDbSpline
210
0.0
220
0.0
230
1.0
 70
    24
 71
     3
 72
     8
 73
     4
 74
     0
 42
0.000000001
 43
0.0000000001
 40
4.0
 40
4.0
 40
4.0
 40
4.0
 40
5.0
 40
5.0
 40
5.0
 40
5.0
 10
3900.907929836259
 20
-3788.765216270615
 30
0.0
 10
3900.907929836259
 20
-3788.765216270615
 30
0.0
 10
3899.783450669592
 20
-3788.897507937282
 30
0.0
 10
3899.783450669592
 20
-3788.897507937282
 30
0.0
  0
SPLINE
  5
8E018
330
2
100
AcDbEntity
  8
0
 62
     8
100
AcDbSpline
210
0.0
220
0.0
230
1.0
 70
    24
 71
     3
 72
     8
 73
     4
 74
     0
 42
0.000000001
 43
0.0000000001
 40
5.0
 40
5.0
 40
5.0
 40
5.0
 40
6.0
 40
6.0
 40
6.0
 40
6.0
 10
3899.783450669592
 20
-3788.897507937282
 30
0.0
 10
3899.783450669592
 20
-3788.897507937282
 30
0.0
 10
3899.452721502926
 20
-3789.558966270616
 30
0.0
 10
3899.452721502926
 20
-3789.558966270616
 30
0.0
  0
SPLINE
  5
8E019
330
2
100
AcDbEntity
  8
0
 62
     8
100
AcDbSpline
210
0.0
220
0.0
230
1.0
 70
    24
 71
     3
 72
     8
 73
     4
 74
     0
 42
0.000000001
 43
0.0000000001
 40
6.0
 40
6.0
 40
6.0
 40
6.0
 40
7.0
 40
7.0
 40
7.0
 40
7.0
 10
3899.452721502926
 20
-3789.558966270616
 30
0.0
 10
3899.452721502926
 20
-3789.558966270616
 30
0.0
 10
3899.320429836259
 20
-3802.523549603949
 30
0.0
 10
3899.320429836259
 20
-3802.523549603949
 30
0.0
  0
SPLINE
  5
8E01A
330
2
100
AcDbEntity
  8
0
 62
     8
100
AcDbSpline
210
0.0
220
0.0
230
1.0
 70
    24
 71
     3
 72
     8
 73
     4
 74
     0
 42
0.000000001
 43
0.0000000001
 40
7.0
 40
7.0
 40
7.0
 40
7.0
 40
8.0
 40
8.0
 40
8.0
 40
8.0
 10
3899.320429836259
 20
-3802.523549603949
 30
0.0
 10
3899.320429836259
 20
-3802.523549603949
 30
0.0
 10
3899.12199233626
 20
-3802.854278770616
 30
0.0
 10
3899.12199233626
 20
-3802.854278770616
 30
0.0
  0
SPLINE
  5
8E01B
330
2
100
AcDbEntity
  8
0
 62
     8
100
AcDbSpline
210
0.0
220
0.0
230
1.0
 70
     8
 71
     3
 72
     8
 73
     4
 74
     0
 42
0.000000001
 43
0.0000000001
 40
8.0
 40
8.0
 40
8.0
 40
8.0
 40
9.0
 40
9.0
 40
9.0
 40
9.0
 10
3899.12199233626
 20
-3802.854278770616
 30
0.0
 10
3883.313138169592
 20
-3803.052716270614
 30
0.0
 10
3879.410534002925
 20
-3808.013653770616
 30
0.0
 10
3879.410534002925
 20
-3808.013653770616
 30
0.0
  0
SPLINE
  5
8E01C
330
2
100
AcDbEntity
  8
0
 62
     8
100
AcDbSpline
210
0.0
220
0.0
230
1.0
 70
    24
 71
     3
 72
     8
 73
     4
 74
     0
 42
0.000000001
 43
0.0000000001
 40
9.0
 40
9.0
 40
9.0
 40
9.0
 40
10.0
 40
10.0
 40
10.0
 40
10.0
 10
3879.410534002925
 20
-3808.013653770616
 30
0.0
 10
3879.410534002925
 20
-3808.013653770616
 30
0.0
 10
3879.410534002925
 20
-3808.476674603949
 30
0.0
 10
3879.410534002925
 20
-3808.476674603949
 30
0.0
  0
LINE
  5
8E01D
330
2
100
AcDbEntity
  8
0
 62
     8
100
AcDbLine
 10
3878.153763169591
 20
-3814.231362103949
 30
0.0
 11
3879.013659002924
 21
-3812.908445437283
 31
0.0
  0
SPLINE
  5
8E01E
330
2
100
AcDbEntity
  8
0
 62
     8
100
AcDbSpline
210
0.0
220
0.0
230
1.0
 70
    24
 71
     3
 72
     8
 73
     4
 74
     0
 42
0.000000001
 43
0.0000000001
 40
0.0
 40
0.0
 40
0.0
 40
0.0
 40
1.0
 40
1.0
 40
1.0
 40
1.0
 10
3878.153763169591
 20
-3814.760528770616
 30
0.0
 10
3878.153763169591
 20
-3814.760528770616
 30
0.0
 10
3878.153763169591
 20
-3814.231362103949
 30
0.0
 10
3878.153763169591
 20
-3814.231362103949
 30
0.0
  0
SPLINE
  5
8E01F
330
2
100
AcDbEntity
  8
0
 62
     8
100
AcDbSpline
210
0.0
220
0.0
230
1.0
 70
    24
 71
     3
 72
     8
 73
     4
 74
     0
 42
0.000000001
 43
0.0000000001
 40
1.0
 40
1.0
 40
1.0
 40
1.0
 40
2.0
 40
2.0
 40
2.0
 40
2.0
 10
3878.153763169591
 20
-3814.231362103949
 30
0.0
 10
3878.153763169591
 20
-3814.231362103949
 30
0.0
 10
3877.823034002925
 20
-3813.966778770616
 30
0.0
 10
3877.823034002925
 20
-3813.966778770616
 30
0.0
  0
SPLINE
  5
8E020
330
2
100
AcDbEntity
  8
0
 62
     8
100
AcDbSpline
210
0.0
220
0.0
230
1.0
 70
    24
 71
     3
 72
     8
 73
     4
 74
     0
 42
0.000000001
 43
0.0000000001
 40
2.0
 40
2.0
 40
2.0
 40
2.0
 40
3.0
 40
3.0
 40
3.0
 40
3.0
 10
3877.823034002925
 20
-3813.966778770616
 30
0.0
 10
3877.823034002925
 20
-3813.966778770616
 30
0.0
 10
3877.690742336258
 20
-3812.842299603949
 30
0.0
 10
3877.690742336258
 20
-3812.842299603949
 30
0.0
  0
SPLINE
  5
8E021
330
2
100
AcDbEntity
  8
0
 62
     8
100
AcDbSpline
210
0.0
220
0.0
230
1.0
 70
    24
 71
     3
 72
     8
 73
     4
 74
     0
 42
0.000000001
 43
0.0000000001
 40
3.0
 40
3.0
 40
3.0
 40
3.0
 40
4.0
 40
4.0
 40
4.0
 40
4.0
 10
3877.690742336258
 20
-3812.842299603949
 30
0.0
 10
3877.690742336258
 20
-3812.842299603949
 30
0.0
 10
3878.525316717768
 20
-3811.730222781031
 30
0.0
 10
3878.525316717768
 20
-3811.730222781031
 30
0.0
  0
SPLINE
  5
8E022
330
2
100
AcDbEntity
  8
0
 62
     8
100
AcDbSpline
210
0.0
220
0.0
230
1.0
 70
    24
 71
     3
 72
     8
 73
     4
 74
     0
 42
0.000000001
 43
0.0000000001
 40
4.0
 40
4.0
 40
4.0
 40
4.0
 40
5.0
 40
5.0
 40
5.0
 40
5.0
 10
3878.525316717768
 20
-3811.730222781031
 30
0.0
 10
3878.525316717768
 20
-3811.730222781031
 30
0.0
 10
3878.682929836258
 20
-3811.519382937283
 30
0.0
 10
3878.682929836258
 20
-3811.519382937283
 30
0.0
  0
SPLINE
  5
8E023
330
2
100
AcDbEntity
  8
0
 62
     8
100
AcDbSpline
210
0.0
220
0.0
230
1.0
 70
    24
 71
     3
 72
     8
 73
     4
 74
     0
 42
0.000000001
 43
0.0000000001
 40
5.0
 40
5.0
 40
5.0
 40
5.0
 40
6.0
 40
6.0
 40
6.0
 40
6.0
 10
3878.682929836258
 20
-3811.519382937283
 30
0.0
 10
3878.682929836258
 20
-3811.519382937283
 30
0.0
 10
3879.278242336258
 20
-3811.122507937283
 30
0.0
 10
3879.278242336258
 20
-3811.122507937283
 30
0.0
  0
SPLINE
  5
8E024
330
2
100
AcDbEntity
  8
0
 62
     8
100
AcDbSpline
210
0.0
220
0.0
230
1.0
 70
    24
 71
     3
 72
     8
 73
     4
 74
     0
 42
0.000000001
 43
0.0000000001
 40
6.0
 40
6.0
 40
6.0
 40
6.0
 40
7.0
 40
7.0
 40
7.0
 40
7.0
 10
3879.278242336258
 20
-3811.122507937283
 30
0.0
 10
3879.278242336258
 20
-3811.122507937283
 30
0.0
 10
3879.145950669591
 20
-3811.585528770615
 30
0.0
 10
3879.145950669591
 20
-3811.585528770615
 30
0.0
  0
SPLINE
  5
8E025
330
2
100
AcDbEntity
  8
0
 62
     8
100
AcDbSpline
210
0.0
220
0.0
230
1.0
 70
     8
 71
     3
 72
     8
 73
     4
 74
     0
 42
0.000000001
 43
0.0000000001
 40
7.0
 40
7.0
 40
7.0
 40
7.0
 40
8.0
 40
8.0
 40
8.0
 40
8.0
 10
3879.145950669591
 20
-3811.585528770615
 30
0.0
 10
3879.145950669591
 20
-3811.585528770615
 30
0.0
 10
3878.352200669592
 20
-3811.916257937281
 30
0.0
 10
3879.013659002924
 20
-3812.64386210395
 30
0.0
  0
SPLINE
  5
8E026
330
2
100
AcDbEntity
  8
0
 62
     8
100
AcDbSpline
210
0.0
220
0.0
230
1.0
 70
    24
 71
     3
 72
     8
 73
     4
 74
     0
 42
0.000000001
 43
0.0000000001
 40
8.0
 40
8.0
 40
8.0
 40
8.0
 40
9.0
 40
9.0
 40
9.0
 40
9.0
 10
3879.013659002924
 20
-3812.64386210395
 30
0.0
 10
3879.013659002924
 20
-3812.64386210395
 30
0.0
 10
3879.013659002924
 20
-3814.363653770616
 30
0.0
 10
3879.013659002924
 20
-3814.363653770616
 30
0.0
  0
SPLINE
  5
8E027
330
2
100
AcDbEntity
  8
0
 62
     8
100
AcDbSpline
210
0.0
220
0.0
230
1.0
 70
     8
 71
     3
 72
     8
 73
     4
 74
     0
 42
0.000000001
 43
0.0000000001
 40
0.0
 40
0.0
 40
0.0
 40
0.0
 40
1.0
 40
1.0
 40
1.0
 40
1.0
 10
3896.211575669592
 20
-3815.421987103949
 30
0.0
 10
3896.211575669592
 20
-3815.421987103949
 30
0.0
 10
3901.674808091467
 20
-3819.433111778429
 30
0.0
 10
3904.942825669591
 20
-3819.060007937283
 30
0.0
  0
SPLINE
  5
8E028
330
2
100
AcDbEntity
  8
0
 62
     8
100
AcDbSpline
210
0.0
220
0.0
230
1.0
 70
     8
 71
     3
 72
     8
 73
     4
 74
     0
 42
0.000000001
 43
0.0000000001
 40
1.0
 40
1.0
 40
1.0
 40
1.0
 40
2.0
 40
2.0
 40
2.0
 40
2.0
 10
3904.942825669591
 20
-3819.060007937283
 30
0.0
 10
3907.257929836259
 20
-3818.795424603949
 30
0.0
 10
3906.530325669592
 20
-3815.686570437282
 30
0.0
 10
3906.530325669592
 20
-3815.686570437282
 30
0.0
  0
SPLINE
  5
8E029
330
2
100
AcDbEntity
  8
0
 62
     8
100
AcDbSpline
210
0.0
220
0.0
230
1.0
 70
     8
 71
     3
 72
     8
 73
     4
 74
     0
 42
0.000000001
 43
0.0000000001
 40
0.0
 40
0.0
 40
0.0
 40
0.0
 40
1.0
 40
1.0
 40
1.0
 40
1.0
 10
3895.550117336258
 20
-3815.421987103949
 30
0.0
 10
3895.550117336258
 20
-3815.421987103949
 30
0.0
 10
3900.353958482091
 20
-3820.392226361761
 30
0.0
 10
3905.670429836259
 20
-3819.787612103949
 30
0.0
  0
SPLINE
  5
8E02A
330
2
100
AcDbEntity
  8
0
 62
     8
100
AcDbSpline
210
0.0
220
0.0
230
1.0
 70
     8
 71
     3
 72
     8
 73
     4
 74
     0
 42
0.000000001
 43
0.0000000001
 40
1.0
 40
1.0
 40
1.0
 40
1.0
 40
2.0
 40
2.0
 40
2.0
 40
2.0
 10
3905.670429836259
 20
-3819.787612103949
 30
0.0
 10
3908.580846502927
 20
-3819.456882937281
 30
0.0
 10
3907.125638169592
 20
-3815.818862103949
 30
0.0
 10
3907.125638169592
 20
-3815.818862103949
 30
0.0
  0
SPLINE
  5
8E02B
330
2
100
AcDbEntity
  8
0
 62
     8
100
AcDbSpline
210
0.0
220
0.0
230
1.0
 70
     8
 71
     3
 72
     8
 73
     4
 74
     0
 42
0.000000001
 43
0.0000000001
 40
0.0
 40
0.0
 40
0.0
 40
0.0
 40
1.0
 40
1.0
 40
1.0
 40
1.0
 10
3894.954804836259
 20
-3815.488132937281
 30
0.0
 10
3894.954804836259
 20
-3815.488132937281
 30
0.0
 10
3900.359126125321
 20
-3821.280027468533
 30
0.0
 10
3906.001159002925
 20
-3820.912091270614
 30
0.0
  0
SPLINE
  5
8E02C
330
2
100
AcDbEntity
  8
0
 62
     8
100
AcDbSpline
210
0.0
220
0.0
230
1.0
 70
     8
 71
     3
 72
     8
 73
     4
 74
     0
 42
0.000000001
 43
0.0000000001
 40
1.0
 40
1.0
 40
1.0
 40
1.0
 40
2.0
 40
2.0
 40
2.0
 40
2.0
 10
3906.001159002925
 20
-3820.912091270614
 30
0.0
 10
3909.043867336258
 20
-3820.713653770616
 30
0.0
 10
3909.308450669591
 20
-3817.935528770614
 30
0.0
 10
3908.448554836258
 20
-3816.083445437283
 30
0.0
  0
SPLINE
  5
8E02D
330
2
100
AcDbEntity
  8
0
 62
     8
100
AcDbSpline
210
0.0
220
0.0
230
1.0
 70
     8
 71
     3
 72
    11
 73
     7
 74
     0
 42
0.000000001
 43
0.0000000001
 40
0.0
 40
0.0
 40
0.0
 40
0.0
 40
1.0
 40
1.0
 40
1.0
 40
2.0
 40
2.0
 40
2.0
 40
2.0
 10
3880.402721502925
 20
-3821.639695437282
 30
0.0
 10
3880.402721502925
 20
-3821.639695437282
 30
0.0
 10
3881.791784002927
 20
-3815.289695437282
 30
0.0
 10
3899.386575669593
 20
-3815.289695437282
 30
0.0
 10
3916.98136733626
 20
-3815.289695437282
 30
0.0
 10
3918.436575669592
 20
-3821.507403770615
 30
0.0
 10
3918.436575669592
 20
-3821.507403770615
 30
0.0
  0
SPLINE
  5
8E02E
330
2
100
AcDbEntity
  8
0
 62
     8
100
AcDbSpline
210
0.0
220
0.0
230
1.0
 70
     8
 71
     3
 72
    11
 73
     7
 74
     0
 42
0.000000001
 43
0.0000000001
 40
2.0
 40
2.0
 40
2.0
 40
2.0
 40
3.0
 40
3.0
 40
3.0
 40
4.0
 40
4.0
 40
4.0
 40
4.0
 10
3918.436575669592
 20
-3821.507403770615
 30
0.0
 10
3918.436575669592
 20
-3821.507403770615
 30
0.0
 10
3919.164179836259
 20
-3827.791257937283
 30
0.0
 10
3899.981888169591
 20
-3827.725112103949
 30
0.0
 10
3880.799596502925
 20
-3827.658966270615
 30
0.0
 10
3880.468867336259
 20
-3822.301153770616
 30
0.0
 10
3880.402721502925
 20
-3821.639695437282
 30
0.0
  0
SPLINE
  5
8E02F
330
2
100
AcDbEntity
  8
0
 62
     8
100
AcDbSpline
210
0.0
220
0.0
230
1.0
 70
     8
 71
     3
 72
    11
 73
     7
 74
     0
 42
0.000000001
 43
0.0000000001
 40
0.0
 40
0.0
 40
0.0
 40
0.0
 40
1.0
 40
1.0
 40
1.0
 40
2.0
 40
2.0
 40
2.0
 40
2.0
 10
3899.386575669593
 20
-3814.429799603949
 30
0.0
 10
3899.386575669593
 20
-3814.429799603949
 30
0.0
 10
3920.553242336259
 20
-3814.826674603949
 30
0.0
 10
3920.553242336259
 20
-3821.308966270616
 30
0.0
 10
3920.553242336259
 20
-3827.791257937283
 30
0.0
 10
3900.246471502925
 20
-3828.518862103948
 30
0.0
 10
3900.246471502925
 20
-3828.518862103948
 30
0.0
  0
SPLINE
  5
8E030
330
2
100
AcDbEntity
  8
0
 62
     8
100
AcDbSpline
210
0.0
220
0.0
230
1.0
 70
     8
 71
     3
 72
    11
 73
     7
 74
     0
 42
0.000000001
 43
0.0000000001
 40
2.0
 40
2.0
 40
2.0
 40
2.0
 40
3.0
 40
3.0
 40
3.0
 40
4.0
 40
4.0
 40
4.0
 40
4.0
 10
3900.246471502925
 20
-3828.518862103948
 30
0.0
 10
3900.246471502925
 20
-3828.518862103948
 30
0.0
 10
3878.550638169593
 20
-3828.585007937282
 30
0.0
 10
3878.550638169593
 20
-3821.110528770615
 30
0.0
 10
3878.550638169593
 20
-3818.266257937282
 30
0.0
 10
3886.951159002926
 20
-3814.297507937282
 30
0.0
 10
3899.386575669593
 20
-3814.429799603949
 30
0.0
  0
SPLINE
  5
8E031
330
2
100
AcDbEntity
  8
0
 62
     8
100
AcDbSpline
210
0.0
220
0.0
230
1.0
 70
     8
 71
     3
 72
    11
 73
     7
 74
     0
 42
0.000000001
 43
0.0000000001
 40
0.0
 40
0.0
 40
0.0
 40
0.0
 40
1.0
 40
1.0
 40
1.0
 40
2.0
 40
2.0
 40
2.0
 40
2.0
 10
3877.396186672196
 20
-3815.406484174261
 30
0.0
 10
3877.396186672196
 20
-3815.406484174261
 30
0.0
 10
3883.313138169592
 20
-3811.254799603949
 30
0.0
 10
3898.725117336257
 20
-3811.254799603949
 30
0.0
 10
3914.137096502925
 20
-3811.254799603949
 30
0.0
 10
3921.010061997717
 20
-3815.068520307074
 30
0.0
 10
3921.443110500321
 20
-3815.212180788844
 30
0.0
  0
SPLINE
  5
8E032
330
2
100
AcDbEntity
  8
0
 62
     8
100
AcDbSpline
210
0.0
220
0.0
230
1.0
 70
     8
 71
     3
 72
     8
 73
     4
 74
     0
 42
0.000000001
 43
0.0000000001
 40
0.0
 40
0.0
 40
0.0
 40
0.0
 40
1.0
 40
1.0
 40
1.0
 40
1.0
 10
3874.185013169593
 20
-3821.044382937283
 30
0.0
 10
3874.185013169593
 20
-3821.044382937283
 30
0.0
 10
3871.402237290685
 20
-3812.785455528428
 30
0.0
 10
3898.526679836258
 20
-3811.850112103949
 30
0.0
  0
SPLINE
  5
8E033
330
2
100
AcDbEntity
  8
0
 62
     8
100
AcDbSpline
210
0.0
220
0.0
230
1.0
 70
     8
 71
     3
 72
     8
 73
     4
 74
     0
 42
0.000000001
 43
0.0000000001
 40
1.0
 40
1.0
 40
1.0
 40
1.0
 40
2.0
 40
2.0
 40
2.0
 40
2.0
 10
3898.526679836258
 20
-3811.850112103949
 30
0.0
 10
3900.444909002926
 20
-3811.783966270616
 30
0.0
 10
3921.479284002925
 20
-3811.519382937283
 30
0.0
 10
3924.91886733626
 20
-3819.258445437282
 30
0.0
  0
SPLINE
  5
8E034
330
2
100
AcDbEntity
  8
0
 62
     8
100
AcDbSpline
210
0.0
220
0.0
230
1.0
 70
     8
 71
     3
 72
     8
 73
     4
 74
     0
 42
0.000000001
 43
0.0000000001
 40
0.0
 40
0.0
 40
0.0
 40
0.0
 40
1.0
 40
1.0
 40
1.0
 40
1.0
 10
3894.217898911779
 20
-3793.601096804469
 30
0.0
 10
3893.477892401362
 20
-3791.464793093533
 30
0.0
 10
3892.171512193029
 20
-3787.976117149522
 30
0.0
 10
3895.741320135739
 20
-3786.144704389105
 30
0.0
  0
SPLINE
  5
8E035
330
2
100
AcDbEntity
  8
0
 62
     8
100
AcDbSpline
210
0.0
220
0.0
230
1.0
 70
     8
 71
     3
 72
     8
 73
     4
 74
     0
 42
0.000000001
 43
0.0000000001
 40
1.0
 40
1.0
 40
1.0
 40
1.0
 40
2.0
 40
2.0
 40
2.0
 40
2.0
 10
3895.741320135739
 20
-3786.144704389105
 30
0.0
 10
3896.001769354488
 20
-3785.271372683376
 30
0.0
 10
3896.655992987301
 20
-3784.618699343532
 30
0.0
 10
3897.832148586259
 20
-3784.052842409938
 30
0.0
  0
SPLINE
  5
8E036
330
2
100
AcDbEntity
  8
0
 62
     8
100
AcDbSpline
210
0.0
220
0.0
230
1.0
 70
     8
 71
     3
 72
     8
 73
     4
 74
     0
 42
0.000000001
 43
0.0000000001
 40
2.0
 40
2.0
 40
2.0
 40
2.0
 40
3.0
 40
3.0
 40
3.0
 40
3.0
 10
3897.832148586259
 20
-3784.052842409938
 30
0.0
 10
3897.917931463863
 20
-3783.485951947699
 30
0.0
 10
3898.657937974279
 20
-3782.481878868272
 30
0.0
 10
3899.791718898759
 20
-3782.002321576606
 30
0.0
  0
SPLINE
  5
8E037
330
2
100
AcDbEntity
  8
0
 62
     8
100
AcDbSpline
210
0.0
220
0.0
230
1.0
 70
     8
 71
     3
 72
     8
 73
     4
 74
     0
 42
0.000000001
 43
0.0000000001
 40
3.0
 40
3.0
 40
3.0
 40
3.0
 40
4.0
 40
4.0
 40
4.0
 40
4.0
 10
3899.791718898759
 20
-3782.002321576606
 30
0.0
 10
3899.920909979487
 20
-3781.522247520615
 30
0.0
 10
3900.660916489905
 20
-3780.606541140406
 30
0.0
 10
3901.750255682612
 20
-3779.996242475042
 30
0.0
  0
SPLINE
  5
8E038
330
2
100
AcDbEntity
  8
0
 62
     8
100
AcDbSpline
210
0.0
220
0.0
230
1.0
 70
     8
 71
     3
 72
     8
 73
     4
 74
     0
 42
0.000000001
 43
0.0000000001
 40
4.0
 40
4.0
 40
4.0
 40
4.0
 40
5.0
 40
5.0
 40
5.0
 40
5.0
 10
3901.750255682612
 20
-3779.996242475042
 30
0.0
 10
3901.838105617509
 20
-3779.561643679471
 30
0.0
 10
3902.535737453446
 20
-3778.644387006291
 30
0.0
 10
3903.797675930008
 20
-3777.946755170354
 30
0.0
  0
SPLINE
  5
8E039
330
2
100
AcDbEntity
  8
0
 62
     8
100
AcDbSpline
210
0.0
220
0.0
230
1.0
 70
     8
 71
     3
 72
     8
 73
     4
 74
     0
 42
0.000000001
 43
0.0000000001
 40
5.0
 40
5.0
 40
5.0
 40
5.0
 40
6.0
 40
6.0
 40
6.0
 40
6.0
 10
3903.797675930008
 20
-3777.946755170354
 30
0.0
 10
3903.884492336259
 20
-3777.379864708114
 30
0.0
 10
3904.799165187821
 20
-3776.420750124781
 30
0.0
 10
3905.713838039384
 20
-3775.984601036239
 30
0.0
  0
SPLINE
  5
8E03A
330
2
100
AcDbEntity
  8
0
 62
     8
100
AcDbSpline
210
0.0
220
0.0
230
1.0
 70
     8
 71
     3
 72
     8
 73
     4
 74
     0
 42
0.000000001
 43
0.0000000001
 40
6.0
 40
6.0
 40
6.0
 40
6.0
 40
7.0
 40
7.0
 40
7.0
 40
7.0
 10
3905.713838039384
 20
-3775.984601036239
 30
0.0
 10
3905.800654445634
 20
-3775.330377403428
 30
0.0
 10
3906.626443833654
 20
-3774.545412396917
 30
0.0
 10
3907.80363296126
 20
-3773.849330853948
 30
0.0
  0
SPLINE
  5
8E03B
330
2
100
AcDbEntity
  8
0
 62
     8
100
AcDbSpline
210
0.0
220
0.0
230
1.0
 70
     8
 71
     3
 72
    11
 73
     7
 74
     0
 42
0.000000001
 43
0.0000000001
 40
7.0
 40
7.0
 40
7.0
 40
7.0
 40
8.0
 40
8.0
 40
8.0
 40
9.0
 40
9.0
 40
9.0
 40
9.0
 10
3907.80363296126
 20
-3773.849330853948
 30
0.0
 10
3908.151932114904
 20
-3773.019407351344
 30
0.0
 10
3909.370462388341
 20
-3771.625177208115
 30
0.0
 10
3911.025141750321
 20
-3771.276361290146
 30
0.0
 10
3912.6798211123
 20
-3770.927545372178
 30
0.0
 10
3917.080586086259
 20
-3769.877997032335
 30
0.0
 10
3925.513146307613
 20
-3776.518418581813
 30
0.0
  0
SPLINE
  5
8E03C
330
2
100
AcDbEntity
  8
0
 62
     8
100
AcDbSpline
210
0.0
220
0.0
230
1.0
 70
     8
 71
     3
 72
    11
 73
     7
 74
     0
 42
0.000000001
 43
0.0000000001
 40
9.0
 40
9.0
 40
9.0
 40
9.0
 40
10.0
 40
10.0
 40
10.0
 40
11.0
 40
11.0
 40
11.0
 40
11.0
 10
3925.513146307613
 20
-3776.518418581813
 30
0.0
 10
3933.696626125321
 20
-3783.780507611761
 30
0.0
 10
3934.276435695633
 20
-3789.716579389104
 30
0.0
 10
3934.214423976883
 20
-3790.833823855251
 30
0.0
 10
3934.152412258133
 20
-3791.951068321397
 30
0.0
 10
3933.872325995112
 20
-3793.658457644314
 30
0.0
 10
3931.921023911779
 20
-3795.315720827907
 30
0.0
  0
SPLINE
  5
8E03D
330
2
100
AcDbEntity
  8
0
 62
     8
100
AcDbSpline
210
0.0
220
0.0
230
1.0
 70
     8
 71
     3
 72
     8
 73
     4
 74
     0
 42
0.000000001
 43
0.0000000001
 40
11.0
 40
11.0
 40
11.0
 40
11.0
 40
12.0
 40
12.0
 40
12.0
 40
12.0
 10
3931.921023911779
 20
-3795.315720827907
 30
0.0
 10
3931.284370265946
 20
-3796.589544883897
 30
0.0
 10
3930.859589992509
 20
-3797.141449180771
 30
0.0
 10
3930.180561672197
 20
-3797.524371544053
 30
0.0
  0
SPLINE
  5
8E03E
330
2
100
AcDbEntity
  8
0
 62
     8
100
AcDbSpline
210
0.0
220
0.0
230
1.0
 70
     8
 71
     3
 72
     8
 73
     4
 74
     0
 42
0.000000001
 43
0.0000000001
 40
12.0
 40
12.0
 40
12.0
 40
12.0
 40
13.0
 40
13.0
 40
13.0
 40
13.0
 10
3930.180561672197
 20
-3797.524371544053
 30
0.0
 10
3929.715473781572
 20
-3798.45919820421
 30
0.0
 10
3929.462259263341
 20
-3799.137709760199
 30
0.0
 10
3928.443200018551
 20
-3799.733539024522
 30
0.0
  0
SPLINE
  5
8E03F
330
2
100
AcDbEntity
  8
0
 62
     8
100
AcDbSpline
210
0.0
220
0.0
230
1.0
 70
     8
 71
     3
 72
     8
 73
     4
 74
     0
 42
0.000000001
 43
0.0000000001
 40
13.0
 40
13.0
 40
13.0
 40
13.0
 40
14.0
 40
14.0
 40
14.0
 40
14.0
 10
3928.443200018551
 20
-3799.733539024522
 30
0.0
 10
3928.271634263342
 20
-3800.369675906032
 30
0.0
 10
3928.102135565426
 20
-3800.710740359157
 30
0.0
 10
3927.847887518549
 20
-3800.879205528428
 30
0.0
  0
SPLINE
  5
8E040
330
2
100
AcDbEntity
  8
0
 62
     8
100
AcDbSpline
210
0.0
220
0.0
230
1.0
 70
     8
 71
     3
 72
    11
 73
     7
 74
     0
 42
0.000000001
 43
0.0000000001
 40
14.0
 40
14.0
 40
14.0
 40
14.0
 40
15.0
 40
15.0
 40
15.0
 40
16.0
 40
16.0
 40
16.0
 40
16.0
 10
3927.847887518549
 20
-3800.879205528428
 30
0.0
 10
3927.593639471675
 20
-3801.04973775499
 30
0.0
 10
3927.455146633133
 20
-3800.663198041449
 30
0.0
 10
3927.267044419591
 20
-3800.797556765408
 30
0.0
 10
3927.078942206051
 20
-3800.931915489365
 30
0.0
 10
3926.838130031571
 20
-3801.171694135198
 30
0.0
 10
3926.652094875321
 20
-3801.305019330511
 30
0.0
  0
SPLINE
  5
8E041
330
2
100
AcDbEntity
  8
0
 62
     8
100
AcDbSpline
210
0.0
220
0.0
230
1.0
 70
     8
 71
     3
 72
     8
 73
     4
 74
     0
 42
0.000000001
 43
0.0000000001
 40
16.0
 40
16.0
 40
16.0
 40
16.0
 40
17.0
 40
17.0
 40
17.0
 40
17.0
 10
3926.652094875321
 20
-3801.305019330511
 30
0.0
 10
3926.466059719071
 20
-3801.437310997178
 30
0.0
 10
3925.956530096676
 20
-3801.414573366969
 30
0.0
 10
3925.556554510739
 20
-3801.011497195094
 30
0.0
  0
SPLINE
  5
8E042
330
2
100
AcDbEntity
  8
0
 62
     8
100
AcDbSpline
210
0.0
220
0.0
230
1.0
 70
     8
 71
     3
 72
     8
 73
     4
 74
     0
 42
0.000000001
 43
0.0000000001
 40
17.0
 40
17.0
 40
17.0
 40
17.0
 40
18.0
 40
18.0
 40
18.0
 40
18.0
 10
3925.556554510739
 20
-3801.011497195094
 30
0.0
 10
3926.199409328446
 20
-3801.840387169053
 30
0.0
 10
3926.11672703678
 20
-3802.135976361761
 30
0.0
 10
3925.984435370113
 20
-3802.510113731553
 30
0.0
  0
SPLINE
  5
8E043
330
2
100
AcDbEntity
  8
0
 62
     8
100
AcDbSpline
210
0.0
220
0.0
230
1.0
 70
     8
 71
     3
 72
     8
 73
     4
 74
     0
 42
0.000000001
 43
0.0000000001
 40
18.0
 40
18.0
 40
18.0
 40
18.0
 40
19.0
 40
19.0
 40
19.0
 40
19.0
 10
3925.984435370113
 20
-3802.510113731553
 30
0.0
 10
3925.852143703446
 20
-3802.882184044053
 30
0.0
 10
3925.183450669591
 20
-3803.285260215926
 30
0.0
 10
3925.183450669591
 20
-3803.285260215926
 30
0.0
  0
SPLINE
  5
8E044
330
2
100
AcDbEntity
  8
0
 62
     8
100
AcDbSpline
210
0.0
220
0.0
230
1.0
 70
    24
 71
     3
 72
     8
 73
     4
 74
     0
 42
0.000000001
 43
0.0000000001
 40
19.0
 40
19.0
 40
19.0
 40
19.0
 40
20.0
 40
20.0
 40
20.0
 40
20.0
 10
3925.183450669591
 20
-3803.285260215926
 30
0.0
 10
3925.183450669591
 20
-3803.285260215926
 30
0.0
 10
3924.729731594071
 20
-3803.926047976344
 30
0.0
 10
3924.729731594071
 20
-3803.926047976344
 30
0.0
  0
SPLINE
  5
8E045
330
2
100
AcDbEntity
  8
0
 62
     8
100
AcDbSpline
210
0.0
220
0.0
230
1.0
 70
     8
 71
     3
 72
    11
 73
     7
 74
     0
 42
0.000000001
 43
0.0000000001
 40
20.0
 40
20.0
 40
20.0
 40
20.0
 40
21.0
 40
21.0
 40
21.0
 40
22.0
 40
22.0
 40
22.0
 40
22.0
 10
3924.729731594071
 20
-3803.926047976344
 30
0.0
 10
3924.729731594071
 20
-3803.926047976344
 30
0.0
 10
3924.594339341468
 20
-3804.434544070094
 30
0.0
 10
3924.381432440426
 20
-3804.595774538845
 30
0.0
 10
3924.168525539383
 20
-3804.757005007595
 30
0.0
 10
3922.938626450842
 20
-3805.211757611761
 30
0.0
 10
3921.602273911779
 20
-3805.104270632594
 30
0.0
  0
SPLINE
  5
8E046
330
2
100
AcDbEntity
  8
0
 62
     8
100
AcDbSpline
210
0.0
220
0.0
230
1.0
 70
     8
 71
     3
 72
     8
 73
     4
 74
     0
 42
0.000000001
 43
0.0000000001
 40
22.0
 40
22.0
 40
22.0
 40
22.0
 40
23.0
 40
23.0
 40
23.0
 40
23.0
 10
3921.602273911779
 20
-3805.104270632594
 30
0.0
 10
3920.26798843001
 20
-3804.996783653428
 30
0.0
 10
3917.08782078678
 20
-3804.246441856553
 30
0.0
 10
3916.74055516178
 20
-3803.872304486761
 30
0.0
  0
SPLINE
  5
8E047
330
2
100
AcDbEntity
  8
0
 62
     8
100
AcDbSpline
210
0.0
220
0.0
230
1.0
 70
     8
 71
     3
 72
     8
 73
     4
 74
     0
 42
0.000000001
 43
0.0000000001
 40
23.0
 40
23.0
 40
23.0
 40
23.0
 40
24.0
 40
24.0
 40
24.0
 40
24.0
 10
3916.74055516178
 20
-3803.872304486761
 30
0.0
 10
3916.819103338862
 20
-3804.38080058051
 30
0.0
 10
3916.526614732092
 20
-3804.595774538845
 30
0.0
 10
3916.447033026362
 20
-3805.077398887804
 30
0.0
  0
SPLINE
  5
8E048
330
2
100
AcDbEntity
  8
0
 62
     8
100
AcDbSpline
210
0.0
220
0.0
230
1.0
 70
     8
 71
     3
 72
     8
 73
     4
 74
     0
 42
0.000000001
 43
0.0000000001
 40
24.0
 40
24.0
 40
24.0
 40
24.0
 40
25.0
 40
25.0
 40
25.0
 40
25.0
 10
3916.447033026362
 20
-3805.077398887804
 30
0.0
 10
3917.222179510737
 20
-3805.55695617947
 30
0.0
 10
3918.155455877925
 20
-3806.383779096136
 30
0.0
 10
3918.422106268551
 20
-3806.948085736761
 30
0.0
  0
SPLINE
  5
8E049
330
2
100
AcDbEntity
  8
0
 62
     8
100
AcDbSpline
210
0.0
220
0.0
230
1.0
 70
     8
 71
     3
 72
     8
 73
     4
 74
     0
 42
0.000000001
 43
0.0000000001
 40
25.0
 40
25.0
 40
25.0
 40
25.0
 40
26.0
 40
26.0
 40
26.0
 40
26.0
 10
3918.422106268551
 20
-3806.948085736761
 30
0.0
 10
3919.679910630529
 20
-3807.615745241969
 30
0.0
 10
3920.561510565426
 20
-3808.793967898219
 30
0.0
 10
3920.775450995113
 20
-3809.168105268011
 30
0.0
  0
SPLINE
  5
8E04A
330
2
100
AcDbEntity
  8
0
 62
     8
100
AcDbSpline
210
0.0
220
0.0
230
1.0
 70
     8
 71
     3
 72
     8
 73
     4
 74
     0
 42
0.000000001
 43
0.0000000001
 40
26.0
 40
26.0
 40
26.0
 40
26.0
 40
27.0
 40
27.0
 40
27.0
 40
27.0
 10
3920.775450995113
 20
-3809.168105268011
 30
0.0
 10
3920.988357896154
 20
-3809.542242637804
 30
0.0
 10
3921.253974758133
 20
-3809.916380007594
 30
0.0
 10
3921.308751776362
 20
-3811.73539042426
 30
0.0
  0
SPLINE
  5
8E04B
330
2
100
AcDbEntity
  8
0
 62
     8
100
AcDbSpline
210
0.0
220
0.0
230
1.0
 70
     8
 71
     3
 72
     8
 73
     4
 74
     0
 42
0.000000001
 43
0.0000000001
 40
27.0
 40
27.0
 40
27.0
 40
27.0
 40
28.0
 40
28.0
 40
28.0
 40
28.0
 10
3921.308751776362
 20
-3811.73539042426
 30
0.0
 10
3921.362495265946
 20
-3813.554400840928
 30
0.0
 10
3921.443110500321
 20
-3815.212180788844
 30
0.0
 10
3921.443110500321
 20
-3815.212180788844
 30
0.0
  0
SPLINE
  5
8E04C
330
2
100
AcDbEntity
  8
0
 62
     8
100
AcDbSpline
210
0.0
220
0.0
230
1.0
 70
     8
 71
     3
 72
     8
 73
     4
 74
     0
 42
0.000000001
 43
0.0000000001
 40
28.0
 40
28.0
 40
28.0
 40
28.0
 40
29.0
 40
29.0
 40
29.0
 40
29.0
 10
3921.443110500321
 20
-3815.212180788844
 30
0.0
 10
3921.443110500321
 20
-3815.212180788844
 30
0.0
 10
3923.43265314355
 20
-3816.545432741969
 30
0.0
 10
3924.134419094072
 20
-3817.521083783636
 30
0.0
  0
SPLINE
  5
8E04D
330
2
100
AcDbEntity
  8
0
 62
     8
100
AcDbSpline
210
0.0
220
0.0
230
1.0
 70
     8
 71
     3
 72
     8
 73
     4
 74
     0
 42
0.000000001
 43
0.0000000001
 40
29.0
 40
29.0
 40
29.0
 40
29.0
 40
30.0
 40
30.0
 40
30.0
 40
30.0
 10
3924.134419094072
 20
-3817.521083783636
 30
0.0
 10
3924.837218573238
 20
-3818.494667768012
 30
0.0
 10
3926.064017075842
 20
-3820.913124799262
 30
0.0
 10
3923.485363104487
 20
-3823.224094851344
 30
0.0
  0
SPLINE
  5
8E04E
330
2
100
AcDbEntity
  8
0
 62
     8
100
AcDbSpline
210
0.0
220
0.0
230
1.0
 70
     8
 71
     3
 72
     8
 73
     4
 74
     0
 42
0.000000001
 43
0.0000000001
 40
30.0
 40
30.0
 40
30.0
 40
30.0
 40
31.0
 40
31.0
 40
31.0
 40
31.0
 10
3923.485363104487
 20
-3823.224094851344
 30
0.0
 10
3920.908776190426
 20
-3825.532997846137
 30
0.0
 10
3914.186705877925
 20
-3828.610846153429
 30
0.0
 10
3899.961217596675
 20
-3828.951910606554
 30
0.0
  0
SPLINE
  5
8E04F
330
2
100
AcDbEntity
  8
0
 62
     8
100
AcDbSpline
210
0.0
220
0.0
230
1.0
 70
     8
 71
     3
 72
     8
 73
     4
 74
     0
 42
0.000000001
 43
0.0000000001
 40
31.0
 40
31.0
 40
31.0
 40
31.0
 40
32.0
 40
32.0
 40
32.0
 40
32.0
 10
3899.961217596675
 20
-3828.951910606554
 30
0.0
 10
3886.641100409174
 20
-3828.951910606554
 30
0.0
 10
3879.543859198237
 20
-3826.05803039822
 30
0.0
 10
3877.239090318029
 20
-3824.540810346137
 30
0.0
  0
SPLINE
  5
8E050
330
2
100
AcDbEntity
  8
0
 62
     8
100
AcDbSpline
210
0.0
220
0.0
230
1.0
 70
     8
 71
     3
 72
     8
 73
     4
 74
     0
 42
0.000000001
 43
0.0000000001
 40
32.0
 40
32.0
 40
32.0
 40
32.0
 40
33.0
 40
33.0
 40
33.0
 40
33.0
 10
3877.239090318029
 20
-3824.540810346137
 30
0.0
 10
3874.58705581282
 20
-3823.275771283636
 30
0.0
 10
3871.111298976884
 20
-3819.040370893011
 30
0.0
 10
3877.396186672196
 20
-3815.406484174261
 30
0.0
  0
SPLINE
  5
8E051
330
2
100
AcDbEntity
  8
0
 62
     8
100
AcDbSpline
210
0.0
220
0.0
230
1.0
 70
     8
 71
     3
 72
    11
 73
     7
 74
     0
 42
0.000000001
 43
0.0000000001
 40
33.0
 40
33.0
 40
33.0
 40
33.0
 40
34.0
 40
34.0
 40
34.0
 40
35.0
 40
35.0
 40
35.0
 40
35.0
 10
3877.396186672196
 20
-3815.406484174261
 30
0.0
 10
3877.460265448238
 20
-3814.465973106552
 30
0.0
 10
3877.649401190426
 20
-3810.592307741969
 30
0.0
 10
3877.649401190426
 20
-3810.447613731551
 30
0.0
 10
3877.649401190426
 20
-3810.30705383572
 30
0.0
 10
3877.742418768551
 20
-3809.951519981553
 30
0.0
 10
3878.026639146155
 20
-3809.976324669054
 30
0.0
  0
SPLINE
  5
8E052
330
2
100
AcDbEntity
  8
0
 62
     8
100
AcDbSpline
210
0.0
220
0.0
230
1.0
 70
     8
 71
     3
 72
    14
 73
    10
 74
     0
 42
0.000000001
 43
0.0000000001
 40
35.0
 40
35.0
 40
35.0
 40
35.0
 40
36.0
 40
36.0
 40
36.0
 40
37.0
 40
37.0
 40
37.0
 40
38.0
 40
38.0
 40
38.0
 40
38.0
 10
3878.026639146155
 20
-3809.976324669054
 30
0.0
 10
3878.310859523758
 20
-3809.999062299262
 30
0.0
 10
3878.687063950842
 20
-3810.046604616969
 30
0.0
 10
3878.804886216466
 20
-3810.046604616969
 30
0.0
 10
3878.924775539384
 20
-3810.046604616969
 30
0.0
 10
3879.065335435217
 20
-3810.023866986762
 30
0.0
 10
3879.065335435217
 20
-3810.189231570094
 30
0.0
 10
3879.065335435217
 20
-3810.354596153426
 30
0.0
 10
3879.089106594071
 20
-3810.780409955511
 30
0.0
 10
3879.089106594071
 20
-3810.780409955511
 30
0.0
  0
SPLINE
  5
8E053
330
2
100
AcDbEntity
  8
0
 62
     8
100
AcDbSpline
210
0.0
220
0.0
230
1.0
 70
    24
 71
     3
 72
     8
 73
     4
 74
     0
 42
0.000000001
 43
0.0000000001
 40
38.0
 40
38.0
 40
38.0
 40
38.0
 40
39.0
 40
39.0
 40
39.0
 40
39.0
 10
3879.089106594071
 20
-3810.780409955511
 30
0.0
 10
3879.089106594071
 20
-3810.780409955511
 30
0.0
 10
3879.372293443029
 20
-3810.495156049262
 30
0.0
 10
3879.372293443029
 20
-3810.495156049262
 30
0.0
  0
SPLINE
  5
8E054
330
2
100
AcDbEntity
  8
0
 62
     8
100
AcDbSpline
210
0.0
220
0.0
230
1.0
 70
    24
 71
     3
 72
     8
 73
     4
 74
     0
 42
0.000000001
 43
0.0000000001
 40
39.0
 40
39.0
 40
39.0
 40
39.0
 40
40.0
 40
40.0
 40
40.0
 40
40.0
 10
3879.372293443029
 20
-3810.495156049262
 30
0.0
 10
3879.372293443029
 20
-3810.495156049262
 30
0.0
 10
3879.466344549802
 20
-3808.343349408636
 30
0.0
 10
3879.466344549802
 20
-3808.343349408636
 30
0.0
  0
SPLINE
  5
8E055
330
2
100
AcDbEntity
  8
0
 62
     8
100
AcDbSpline
210
0.0
220
0.0
230
1.0
 70
     8
 71
     3
 72
    11
 73
     7
 74
     0
 42
0.000000001
 43
0.0000000001
 40
40.0
 40
40.0
 40
40.0
 40
40.0
 40
41.0
 40
41.0
 40
41.0
 40
42.0
 40
42.0
 40
42.0
 40
42.0
 10
3879.466344549802
 20
-3808.343349408636
 30
0.0
 10
3879.466344549802
 20
-3808.343349408636
 30
0.0
 10
3878.78214858626
 20
-3807.303619590927
 30
0.0
 10
3878.616784002926
 20
-3806.995628054469
 30
0.0
 10
3878.451419419592
 20
-3806.687636518011
 30
0.0
 10
3878.571308742509
 20
-3806.54914367947
 30
0.0
 10
3878.829690903968
 20
-3806.24115214301
 30
0.0
  0
SPLINE
  5
8E056
330
2
100
AcDbEntity
  8
0
 62
     8
100
AcDbSpline
210
0.0
220
0.0
230
1.0
 70
     8
 71
     3
 72
     8
 73
     4
 74
     0
 42
0.000000001
 43
0.0000000001
 40
42.0
 40
42.0
 40
42.0
 40
42.0
 40
43.0
 40
43.0
 40
43.0
 40
43.0
 10
3878.829690903968
 20
-3806.24115214301
 30
0.0
 10
3879.089106594071
 20
-3805.933160606553
 30
0.0
 10
3879.373326971677
 20
-3805.552822064886
 30
0.0
 10
3879.513886867509
 20
-3805.437066856553
 30
0.0
  0
SPLINE
  5
8E057
330
2
100
AcDbEntity
  8
0
 62
     8
100
AcDbSpline
210
0.0
220
0.0
230
1.0
 70
     8
 71
     3
 72
     8
 73
     4
 74
     0
 42
0.000000001
 43
0.0000000001
 40
43.0
 40
43.0
 40
43.0
 40
43.0
 40
44.0
 40
44.0
 40
44.0
 40
44.0
 10
3879.513886867509
 20
-3805.437066856553
 30
0.0
 10
3879.655480291988
 20
-3805.317177533635
 30
0.0
 10
3879.892158351883
 20
-3805.176617637803
 30
0.0
 10
3880.127802883134
 20
-3805.625169070095
 30
0.0
  0
SPLINE
  5
8E058
330
2
100
AcDbEntity
  8
0
 62
     8
100
AcDbSpline
210
0.0
220
0.0
230
1.0
 70
     8
 71
     3
 72
     8
 73
     4
 74
     0
 42
0.000000001
 43
0.0000000001
 40
44.0
 40
44.0
 40
44.0
 40
44.0
 40
45.0
 40
45.0
 40
45.0
 40
45.0
 10
3880.127802883134
 20
-3805.625169070095
 30
0.0
 10
3880.364480943031
 20
-3806.075787559676
 30
0.0
 10
3880.60012547428
 20
-3806.499534304469
 30
0.0
 10
3880.60012547428
 20
-3806.499534304469
 30
0.0
  0
SPLINE
  5
8E059
330
2
100
AcDbEntity
  8
0
 62
     8
100
AcDbSpline
210
0.0
220
0.0
230
1.0
 70
    24
 71
     3
 72
     8
 73
     4
 74
     0
 42
0.000000001
 43
0.0000000001
 40
45.0
 40
45.0
 40
45.0
 40
45.0
 40
46.0
 40
46.0
 40
46.0
 40
46.0
 10
3880.60012547428
 20
-3806.499534304469
 30
0.0
 10
3880.60012547428
 20
-3806.499534304469
 30
0.0
 10
3880.954625799802
 20
-3806.098525189886
 30
0.0
 10
3880.954625799802
 20
-3806.098525189886
 30
0.0
  0
SPLINE
  5
8E05A
330
2
100
AcDbEntity
  8
0
 62
     8
100
AcDbSpline
210
0.0
220
0.0
230
1.0
 70
     8
 71
     3
 72
     8
 73
     4
 74
     0
 42
0.000000001
 43
0.0000000001
 40
46.0
 40
46.0
 40
46.0
 40
46.0
 40
47.0
 40
47.0
 40
47.0
 40
47.0
 10
3880.954625799802
 20
-3806.098525189886
 30
0.0
 10
3880.954625799802
 20
-3806.098525189886
 30
0.0
 10
3881.520999497717
 20
-3800.706606244573
 30
0.0
 10
3882.087373195634
 20
-3797.753298139104
 30
0.0
  0
SPLINE
  5
8E05B
330
2
100
AcDbEntity
  8
0
 62
     8
100
AcDbSpline
210
0.0
220
0.0
230
1.0
 70
     8
 71
     3
 72
     8
 73
     4
 74
     0
 42
0.000000001
 43
0.0000000001
 40
47.0
 40
47.0
 40
47.0
 40
47.0
 40
48.0
 40
48.0
 40
48.0
 40
48.0
 10
3882.087373195634
 20
-3797.753298139104
 30
0.0
 10
3882.654780422196
 20
-3794.798956504991
 30
0.0
 10
3884.851028794591
 20
-3793.947328900825
 30
0.0
 10
3888.556228989905
 20
-3793.497743939885
 30
0.0
  0
SPLINE
  5
8E05C
330
2
100
AcDbEntity
  8
0
 62
     8
100
AcDbSpline
210
0.0
220
0.0
230
1.0
 70
     8
 71
     3
 72
     8
 73
     4
 74
     0
 42
0.000000001
 43
0.0000000001
 40
48.0
 40
48.0
 40
48.0
 40
48.0
 40
49.0
 40
49.0
 40
49.0
 40
49.0
 10
3888.556228989905
 20
-3793.497743939885
 30
0.0
 10
3892.899116359696
 20
-3793.286387331814
 30
0.0
 10
3894.061836086258
 20
-3793.658457644314
 30
0.0
 10
3894.217898911779
 20
-3793.601096804469
 30
0.0
  0
VIEWPORT
  5
AF1
102
{ACAD_XDICTIONARY
360
8E10A
102
}
330
8
100
AcDbEntity
 67
     1
  8
0
100
AcDbViewport
 10
133.3499908447266
 20
101.5999970436096
 30
0.0
 40
367.8518764373067
 41
228.4221935424805
 68
     1
 69
     1
 12
133.3499908447266
 22
101.5999970436096
 13
0.0
 23
0.0
 14
10.0
 24
10.0
 15
10.0
 25
10.0
 16
0.0
 26
0.0
 36
1.0
 17
0.0
 27
0.0
 37
0.0
 42
50.0
 43
0.0
 44
0.0
 45
228.4221935424805
 50
0.0
 51
0.0
 72
   100
 90
    32800
  1

281
     0
 71
     1
 74
     0
110
0.0
120
0.0
130
0.0
111
1.0
121
0.0
131
0.0
112
0.0
122
1.0
132
0.0
 79
     0
146
0.0
  0
VIEWPORT
  5
A7FC
102
{ACAD_XDICTIONARY
360
8E110
102
}
330
8
100
AcDbEntity
 67
     1
  8
寸法線
100
AcDbViewport
 10
133.3499939441681
 20
101.5999939441681
 30
0.0
 40
213.3599903106689
 41
162.5599903106689
 68
     2
 69
     2
 12
270.8266672650278
 22
185.9454971175006
 13
0.0
 23
0.0
 14
10.0
 24
10.0
 15
10.0
 25
10.0
 16
0.0
 26
0.0
 36
1.0
 17
0.0
 27
0.0
 37
0.0
 42
50.0
 43
0.0
 44
0.0
 45
415.5411544490102
 50
0.0
 51
0.0
 72
   100
 90
    32768
  1

281
     0
 71
     1
 74
     0
110
0.0
120
0.0
130
0.0
111
1.0
121
0.0
131
0.0
112
0.0
122
1.0
132
0.0
 79
     0
146
0.0
  0
ENDSEC
  0
SECTION
  2
OBJECTS
  0
DICTIONARY
  5
1B
330
0
100
AcDbDictionary
281
     1
  3
ACAD_GROUP
350
19
  3
ACAD_IMAGE_VARS
350
8E118
  3
ACAD_LAYOUT
350
9E7F
  3
ACAD_MLINESTYLE
350
1A
  3
ACAD_PLOTSETTINGS
350
9E80
  3
ACAD_PLOTSTYLENAME
350
9E7D
  3
ACAD_SCALELIST
350
866BA
  3
ACDBVARIABLEDICTIONARY
350
187E
  3
APPDATA
350
8E117
  3
CONTENTDICTIONARY
350
3A80
  3
DWGPROPS
350
8E13B
  0
DICTIONARY
  5
FA01
330
B
100
AcDbDictionary
280
     1
281
     1
  3
ACAD_LAYERFILTERS
360
229D2
  3
ACAD_LAYERSTATES
360
FA02
  0
DICTIONARY
  5
8672C
330
5
100
AcDbDictionary
280
     1
281
     1
  3
ADSK_XREC_LAYER_RECONCILED
360
8672D
  0
DICTIONARY
  5
8672E
330
1C
100
AcDbDictionary
280
     1
281
     1
  3
ADSK_XREC_LAYER_RECONCILED
360
8672F
  0
DICTIONARY
  5
86730
330
26
100
AcDbDictionary
280
     1
281
     1
  3
ADSK_XREC_LAYER_RECONCILED
360
86731
  0
DICTIONARY
  5
86734
330
9E8C
100
AcDbDictionary
280
     1
281
     1
  3
ADSK_XREC_LAYER_RECONCILED
360
86735
  0
DICTIONARY
  5
8673C
330
9E90
100
AcDbDictionary
280
     1
281
     1
  3
ADSK_XREC_LAYER_RECONCILED
360
8673D
  0
DICTIONARY
  5
86742
330
229D3
100
AcDbDictionary
280
     1
281
     1
  3
ADSK_XREC_LAYER_RECONCILED
360
86743
  0
DICTIONARY
  5
3
330
2
100
AcDbDictionary
280
     1
281
     1
  3
ACAD_SORTENTS
360
87669
  0
DICTIONARY
  5
8E10A
330
AF1
100
AcDbDictionary
280
     1
281
     1
  3
ACAD_XREC_ROUNDTRIP
360
8E10B
  0
DICTIONARY
  5
8E110
330
A7FC
100
AcDbDictionary
280
     1
281
     1
  3
ACAD_XREC_ROUNDTRIP
360
8E111
  0
DICTIONARY
  5
19
102
{ACAD_REACTORS
330
1B
102
}
330
1B
100
AcDbDictionary
281
     1
  0
RASTERVARIABLES
  5
8E118
102
{ACAD_REACTORS
330
1B
102
}
330
1B
100
AcDbRasterVariables
 90
        0
 70
     1
 71
     1
 72
     0
  0
DICTIONARY
  5
9E7F
102
{ACAD_REACTORS
330
1B
102
}
330
1B
100
AcDbDictionary
281
     1
  3
Model
350
9E81
  3
ﾚｲｱｳﾄ1
350
9E82
  0
DICTIONARY
  5
1A
102
{ACAD_REACTORS
330
1B
102
}
330
1B
100
AcDbDictionary
281
     1
  3
STANDARD
350
1D
  0
DICTIONARY
  5
9E80
102
{ACAD_REACTORS
330
1B
102
}
330
1B
100
AcDbDictionary
281
     1
  0
ACDBDICTIONARYWDFLT
  5
9E7D
102
{ACAD_REACTORS
330
1B
102
}
330
1B
100
AcDbDictionary
281
     1
  3
Normal
350
9E7E
100
AcDbDictionaryWithDefault
340
9E7E
  0
DICTIONARY
  5
866BA
102
{ACAD_REACTORS
330
1B
102
}
330
1B
100
AcDbDictionary
281
     1
  3
A0
350
866BB
  3
A1
350
866BC
  3
A2
350
866BD
  3
A3
350
866BE
  3
A4
350
866BF
  3
A5
350
866C0
  3
A6
350
866C1
  3
A7
350
866C2
  3
A8
350
866C3
  3
A9
350
866C4
  3
B0
350
866C5
  3
B1
350
866C6
  3
B2
350
866C7
  3
B3
350
866C8
  3
B4
350
866C9
  3
B5
350
866CA
  3
B6
350
866CB
  0
DICTIONARY
  5
187E
102
{ACAD_REACTORS
330
1B
102
}
330
1B
100
AcDbDictionary
281
     1
  3
DIMASSOC
350
A7F2
  3
INDEXCTL
350
8675C
  3
PROJECTNAME
350
A7F3
  3
SORTENTS
350
187F
  0
DICTIONARY
  5
8E117
102
{ACAD_REACTORS
330
1B
102
}
330
1B
100
AcDbDictionary
281
     1
  0
DICTIONARY
  5
3A80
102
{ACAD_REACTORS
330
1B
102
}
330
1B
100
AcDbDictionary
281
     1
  0
XRECORD
  5
8E13B
102
{ACAD_REACTORS
330
1B
102
}
330
1B
100
AcDbXrecord
280
     1
  1
DWGPROPS COOKIE
  2

  3

  4

  6

  7

  8
SPAX
  9

300
=
301
=
302
=
303
=
304
=
305
=
306
=
307
=
308
=
309
=
 40
0.0
 41
2451023.031981945
 42
2456822.070344803
  1

 90
        0
  0
DICTIONARY
  5
229D2
102
{ACAD_REACTORS
330
FA01
102
}
330
FA01
100
AcDbDictionary
281
     1
  0
DICTIONARY
  5
FA02
102
{ACAD_REACTORS
330
FA01
102
}
330
FA01
100
AcDbDictionary
281
     1
  0
XRECORD
  5
8672D
102
{ACAD_REACTORS
330
8672C
102
}
330
8672C
100
AcDbXrecord
280
     1
290
     1
  0
XRECORD
  5
8672F
102
{ACAD_REACTORS
330
8672E
102
}
330
8672E
100
AcDbXrecord
280
     1
290
     1
  0
XRECORD
  5
86731
102
{ACAD_REACTORS
330
86730
102
}
330
86730
100
AcDbXrecord
280
     1
290
     1
  0
XRECORD
  5
86735
102
{ACAD_REACTORS
330
86734
102
}
330
86734
100
AcDbXrecord
280
     1
290
     1
  0
XRECORD
  5
8673D
102
{ACAD_REACTORS
330
8673C
102
}
330
8673C
100
AcDbXrecord
280
     1
290
     1
  0
XRECORD
  5
86743
102
{ACAD_REACTORS
330
86742
102
}
330
86742
100
AcDbXrecord
280
     1
290
     1
  0
SORTENTSTABLE
  5
87669
102
{ACAD_REACTORS
330
3
102
}
330
3
100
AcDbSortentsTable
330
2
331
0
  5
7EE00
331
25
  5
25
331
2A
  5
2A
331
28BA1
  5
28BA1
331
28BA2
  5
28BA2
331
28BA3
  5
28BA3
  0
XRECORD
  5
8E10B
102
{ACAD_REACTORS
330
8E10A
102
}
330
8E10A
100
AcDbXrecord
280
     1
102
VISUALSTYLE
340
0
102
GRIDDISPLAY
 70
     0
102
GRIDMAJOR
 70
     5
102
DEFAULTLIGHTING
280
     1
102
DEFAULTLIGHTINGTYPE
 70
     1
102
BRIGHTNESS
141
0.0
102
CONTRAST
142
0.0
  0
XRECORD
  5
8E111
102
{ACAD_REACTORS
330
8E110
102
}
330
8E110
100
AcDbXrecord
280
     1
102
VISUALSTYLE
340
0
102
GRIDDISPLAY
 70
     0
102
GRIDMAJOR
 70
     5
102
DEFAULTLIGHTING
280
     1
102
DEFAULTLIGHTINGTYPE
 70
     1
102
BRIGHTNESS
141
0.0
102
CONTRAST
142
0.0
  0
LAYOUT
  5
9E81
102
{ACAD_REACTORS
330
9E7F
102
}
330
9E7F
100
AcDbPlotSettings
  1

  2
JUST PDF 2
  4
A4
  6

 40
3.174999952316284
 41
3.174999952316284
 42
3.175003051757812
 43
3.17498779296875
 44
209.8886566162109
 45
297.0530090332031
 46
14.27171755861582
 47
9.855173074625668
 48
3861.993471463486
 49
-3654.275953261482
140
4211.983908453296
141
-3112.290602984148
142
1.0
143
2.0
 70
 11940
 72
     1
 73
     0
 74
     4
  7
spax form.ctb
 75
    17
147
0.5
148
-3861.993471463486
149
3654.275953261482
100
AcDbLayout
  1
Model
 70
     1
 71
     0
 10
0.0
 20
0.0
 11
12.0
 21
9.0
 12
0.0
 22
0.0
 32
0.0
 14
3869.279133520233
 24
-3852.871771366391
 34
0.0
 15
3934.214423976883
 25
-3771.01446674618
 35
0.0
146
0.0
 13
0.0
 23
0.0
 33
0.0
 16
1.0
 26
0.0
 36
0.0
 17
0.0
 27
1.0
 37
0.0
 76
     0
330
2
331
86695
1001
ACAD_PSEXT
1000
JUST PDF 2
1000
JUST PDF 2
1000
JUST PDF 2 Port:
1000

1070
     0
  0
LAYOUT
  5
9E82
102
{ACAD_REACTORS
330
9E7F
102
}
330
9E7F
100
AcDbPlotSettings
  1

  2
none_device
  4
Letter_(8.50_x_11.00_Inches)
  6

 40
6.349999904632568
 41
6.349999904632568
 42
6.350006103515625
 43
6.350006103515625
 44
215.8999938964844
 45
279.3999938964844
 46
0.0
 47
0.0
 48
0.0
 49
0.0
140
0.0
141
0.0
142
1.0
143
1.0
 70
   688
 72
     1
 73
     1
 74
     5
  7
spax form.ctb
 75
    16
147
1.0
148
0.0
149
0.0
100
AcDbLayout
  1
ﾚｲｱｳﾄ1
 70
     1
 71
     1
 10
-6.350006103515625
 20
-6.349999904632568
 11
273.0499877929688
 21
209.5499939918518
 12
0.0
 22
0.0
 32
0.0
 14
26.66999878883362
 24
20.31999878883363
 34
0.0
 15
240.0299890995026
 25
182.8799890995026
 35
0.0
146
0.0
 13
0.0
 23
0.0
 33
0.0
 16
1.0
 26
0.0
 36
0.0
 17
0.0
 27
1.0
 37
0.0
 76
     0
330
8
331
AF1
  0
MLINESTYLE
  5
1D
102
{ACAD_REACTORS
330
1A
102
}
330
1A
100
AcDbMlineStyle
  2
STANDARD
 70
     0
  3

 62
   256
 51
90.0
 52
90.0
 71
     2
 49
0.5
 62
   256
  6
BYLAYER
 49
-0.5
 62
   256
  6
BYLAYER
  0
ACDBPLACEHOLDER
  5
9E7E
102
{ACAD_REACTORS
330
9E7D
102
}
330
9E7D
  0
SCALE
  5
866BB
102
{ACAD_REACTORS
330
866BA
102
}
330
866BA
100
AcDbScale
 70
     0
300
1:1
140
1.0
141
1.0
290
     1
1001
ACAD
1000
AcRTDxfName
1000
SCALE
  0
SCALE
  5
866BC
102
{ACAD_REACTORS
330
866BA
102
}
330
866BA
100
AcDbScale
 70
     0
300
1:2
140
1.0
141
2.0
290
     0
1001
ACAD
1000
AcRTDxfName
1000
SCALE
  0
SCALE
  5
866BD
102
{ACAD_REACTORS
330
866BA
102
}
330
866BA
100
AcDbScale
 70
     0
300
1:4
140
1.0
141
4.0
290
     0
1001
ACAD
1000
AcRTDxfName
1000
SCALE
  0
SCALE
  5
866BE
102
{ACAD_REACTORS
330
866BA
102
}
330
866BA
100
AcDbScale
 70
     0
300
1:5
140
1.0
141
5.0
290
     0
1001
ACAD
1000
AcRTDxfName
1000
SCALE
  0
SCALE
  5
866BF
102
{ACAD_REACTORS
330
866BA
102
}
330
866BA
100
AcDbScale
 70
     0
300
1:8
140
1.0
141
8.0
290
     0
1001
ACAD
1000
AcRTDxfName
1000
SCALE
  0
SCALE
  5
866C0
102
{ACAD_REACTORS
330
866BA
102
}
330
866BA
100
AcDbScale
 70
     0
300
1:10
140
1.0
141
10.0
290
     0
1001
ACAD
1000
AcRTDxfName
1000
SCALE
  0
SCALE
  5
866C1
102
{ACAD_REACTORS
330
866BA
102
}
330
866BA
100
AcDbScale
 70
     0
300
1:16
140
1.0
141
16.0
290
     0
1001
ACAD
1000
AcRTDxfName
1000
SCALE
  0
SCALE
  5
866C2
102
{ACAD_REACTORS
330
866BA
102
}
330
866BA
100
AcDbScale
 70
     0
300
1:20
140
1.0
141
20.0
290
     0
1001
ACAD
1000
AcRTDxfName
1000
SCALE
  0
SCALE
  5
866C3
102
{ACAD_REACTORS
330
866BA
102
}
330
866BA
100
AcDbScale
 70
     0
300
1:30
140
1.0
141
30.0
290
     0
1001
ACAD
1000
AcRTDxfName
1000
SCALE
  0
SCALE
  5
866C4
102
{ACAD_REACTORS
330
866BA
102
}
330
866BA
100
AcDbScale
 70
     0
300
1:40
140
1.0
141
40.0
290
     0
1001
ACAD
1000
AcRTDxfName
1000
SCALE
  0
SCALE
  5
866C5
102
{ACAD_REACTORS
330
866BA
102
}
330
866BA
100
AcDbScale
 70
     0
300
1:50
140
1.0
141
50.0
290
     0
1001
ACAD
1000
AcRTDxfName
1000
SCALE
  0
SCALE
  5
866C6
102
{ACAD_REACTORS
330
866BA
102
}
330
866BA
100
AcDbScale
 70
     0
300
1:100
140
1.0
141
100.0
290
     0
1001
ACAD
1000
AcRTDxfName
1000
SCALE
  0
SCALE
  5
866C7
102
{ACAD_REACTORS
330
866BA
102
}
330
866BA
100
AcDbScale
 70
     0
300
2:1
140
2.0
141
1.0
290
     0
1001
ACAD
1000
AcRTDxfName
1000
SCALE
  0
SCALE
  5
866C8
102
{ACAD_REACTORS
330
866BA
102
}
330
866BA
100
AcDbScale
 70
     0
300
4:1
140
4.0
141
1.0
290
     0
1001
ACAD
1000
AcRTDxfName
1000
SCALE
  0
SCALE
  5
866C9
102
{ACAD_REACTORS
330
866BA
102
}
330
866BA
100
AcDbScale
 70
     0
300
8:1
140
8.0
141
1.0
290
     0
1001
ACAD
1000
AcRTDxfName
1000
SCALE
  0
SCALE
  5
866CA
102
{ACAD_REACTORS
330
866BA
102
}
330
866BA
100
AcDbScale
 70
     0
300
10:1
140
10.0
141
1.0
290
     0
1001
ACAD
1000
AcRTDxfName
1000
SCALE
  0
SCALE
  5
866CB
102
{ACAD_REACTORS
330
866BA
102
}
330
866BA
100
AcDbScale
 70
     0
300
100:1
140
100.0
141
1.0
290
     0
1001
ACAD
1000
AcRTDxfName
1000
SCALE
  0
DICTIONARYVAR
  5
A7F2
102
{ACAD_REACTORS
330
187E
102
}
330
187E
100
DictionaryVariables
280
     0
  1
1
  0
DICTIONARYVAR
  5
8675C
102
{ACAD_REACTORS
330
187E
102
}
330
187E
100
DictionaryVariables
280
     0
  1
0
  0
DICTIONARYVAR
  5
A7F3
102
{ACAD_REACTORS
330
187E
102
}
330
187E
100
DictionaryVariables
280
     0
  1

  0
DICTIONARYVAR
  5
187F
102
{ACAD_REACTORS
330
187E
102
}
330
187E
100
DictionaryVariables
280
     0
  1
96
  0
ENDSEC
  0
EOF
