  0
SECTION
  2
HEADER
  9
$ACADVER
  1
AC1015
  9
$ACADMAINTVER
 70
     6
  9
$DWGCODEPAGE
  3
ANSI_932
  9
$INSBASE
 10
0.0
 20
0.0
 30
0.0
  9
$EXTMIN
 10
15453.51412911625
 20
-3408.956844902249
 30
0.0
  9
$EXTMAX
 10
15559.13069341742
 20
-3280.877625112149
 30
0.0
  9
$LIMMIN
 10
0.0
 20
0.0
  9
$LIMMAX
 10
420.0
 20
297.0
  9
$ORTHOMODE
 70
     1
  9
$REGENMODE
 70
     1
  9
$FILLMODE
 70
     1
  9
$QTEXTMODE
 70
     0
  9
$MIRRTEXT
 70
     1
  9
$LTSCALE
 40
5.0
  9
$ATTMODE
 70
     0
  9
$TEXTSIZE
 40
3.5
  9
$TRACEWID
 40
1.0
  9
$TEXTSTYLE
  7
STANDARD
  9
$CLAYER
  8
寸法線
  9
$CELTYPE
  6
BYLAYER
  9
$CECOLOR
 62
   256
  9
$CELTSCALE
 40
1.0
  9
$DISPSILH
 70
     0
  9
$DIMSCALE
 40
1.0
  9
$DIMASZ
 40
2.5
  9
$DIMEXO
 40
1.5
  9
$DIMDLI
 40
7.0
  9
$DIMRND
 40
0.0
  9
$DIMDLE
 40
0.0
  9
$DIMEXE
 40
1.0
  9
$DIMTP
 40
0.0
  9
$DIMTM
 40
0.0
  9
$DIMTXT
 40
3.0
  9
$DIMCEN
 40
0.0
  9
$DIMTSZ
 40
0.0
  9
$DIMTOL
 70
     0
  9
$DIMLIM
 70
     0
  9
$DIMTIH
 70
     0
  9
$DIMTOH
 70
     0
  9
$DIMSE1
 70
     0
  9
$DIMSE2
 70
     0
  9
$DIMTAD
 70
     3
  9
$DIMZIN
 70
     9
  9
$DIMBLK
  1
OPEN30
  9
$DIMASO
 70
     1
  9
$DIMSHO
 70
     0
  9
$DIMPOST
  1

  9
$DIMAPOST
  1

  9
$DIMALT
 70
     0
  9
$DIMALTD
 70
     0
  9
$DIMALTF
 40
25.4
  9
$DIMLFAC
 40
1.0
  9
$DIMTOFL
 70
     1
  9
$DIMTVP
 40
0.0
  9
$DIMTIX
 70
     0
  9
$DIMSOXD
 70
     0
  9
$DIMSAH
 70
     0
  9
$DIMBLK1
  1

  9
$DIMBLK2
  1

  9
$DIMSTYLE
  2
STANDARD
  9
$DIMCLRD
 70
     8
  9
$DIMCLRE
 70
     8
  9
$DIMCLRT
 70
   256
  9
$DIMTFAC
 40
0.6
  9
$DIMGAP
 40
1.0
  9
$DIMJUST
 70
     0
  9
$DIMSD1
 70
     0
  9
$DIMSD2
 70
     0
  9
$DIMTOLJ
 70
     1
  9
$DIMTZIN
 70
     9
  9
$DIMALTZ
 70
     9
  9
$DIMALTTZ
 70
     9
  9
$DIMUPT
 70
     0
  9
$DIMDEC
 70
     3
  9
$DIMTDEC
 70
     3
  9
$DIMALTU
 70
     2
  9
$DIMALTTD
 70
     0
  9
$DIMTXSTY
  7
STANDARD
  9
$DIMAUNIT
 70
     0
  9
$DIMADEC
 70
     3
  9
$DIMALTRND
 40
0.0
  9
$DIMAZIN
 70
     2
  9
$DIMDSEP
 70
    46
  9
$DIMATFIT
 70
     0
  9
$DIMFRAC
 70
     0
  9
$DIMLDRBLK
  1
OPEN30
  9
$DIMLUNIT
 70
     2
  9
$DIMLWD
 70
    -2
  9
$DIMLWE
 70
    -2
  9
$DIMTMOVE
 70
     0
  9
$LUNITS
 70
     2
  9
$LUPREC
 70
     2
  9
$SKETCHINC
 40
0.1
  9
$FILLETRAD
 40
1.0
  9
$AUNITS
 70
     0
  9
$AUPREC
 70
     1
  9
$MENU
  1
FM
  9
$ELEVATION
 40
0.0
  9
$PELEVATION
 40
0.0
  9
$THICKNESS
 40
0.0
  9
$LIMCHECK
 70
     0
  9
$CHAMFERA
 40
0.0
  9
$CHAMFERB
 40
0.0
  9
$CHAMFERC
 40
0.0
  9
$CHAMFERD
 40
0.0
  9
$SKPOLY
 70
     0
  9
$TDCREATE
 40
2448636.619629629
  9
$TDUCREATE
 40
2448636.244629629
  9
$TDUPDATE
 40
2456821.65501353
  9
$TDUUPDATE
 40
2456821.28001353
  9
$TDINDWG
 40
100.6457039931
  9
$TDUSRTIMER
 40
2456821.279858171
  9
$USRTIMER
 70
     1
  9
$ANGBASE
 50
0.0
  9
$ANGDIR
 70
     0
  9
$PDMODE
 70
     3
  9
$PDSIZE
 40
0.0
  9
$PLINEWID
 40
0.0
  9
$SPLFRAME
 70
     0
  9
$SPLINETYPE
 70
     6
  9
$SPLINESEGS
 70
     8
  9
$HANDSEED
  5
353519
  9
$SURFTAB1
 70
     6
  9
$SURFTAB2
 70
     6
  9
$SURFTYPE
 70
     6
  9
$SURFU
 70
     6
  9
$SURFV
 70
     6
  9
$UCSBASE
  2

  9
$UCSNAME
  2

  9
$UCSORG
 10
0.0
 20
0.0
 30
0.0
  9
$UCSXDIR
 10
1.0
 20
0.0
 30
0.0
  9
$UCSYDIR
 10
0.0
 20
1.0
 30
0.0
  9
$UCSORTHOREF
  2

  9
$UCSORTHOVIEW
 70
     0
  9
$UCSORGTOP
 10
0.0
 20
0.0
 30
0.0
  9
$UCSORGBOTTOM
 10
0.0
 20
0.0
 30
0.0
  9
$UCSORGLEFT
 10
0.0
 20
0.0
 30
0.0
  9
$UCSORGRIGHT
 10
0.0
 20
0.0
 30
0.0
  9
$UCSORGFRONT
 10
0.0
 20
0.0
 30
0.0
  9
$UCSORGBACK
 10
0.0
 20
0.0
 30
0.0
  9
$PUCSBASE
  2

  9
$PUCSNAME
  2

  9
$PUCSORG
 10
0.0
 20
0.0
 30
0.0
  9
$PUCSXDIR
 10
1.0
 20
0.0
 30
0.0
  9
$PUCSYDIR
 10
0.0
 20
1.0
 30
0.0
  9
$PUCSORTHOREF
  2

  9
$PUCSORTHOVIEW
 70
     0
  9
$PUCSORGTOP
 10
0.0
 20
0.0
 30
0.0
  9
$PUCSORGBOTTOM
 10
0.0
 20
0.0
 30
0.0
  9
$PUCSORGLEFT
 10
0.0
 20
0.0
 30
0.0
  9
$PUCSORGRIGHT
 10
0.0
 20
0.0
 30
0.0
  9
$PUCSORGFRONT
 10
0.0
 20
0.0
 30
0.0
  9
$PUCSORGBACK
 10
0.0
 20
0.0
 30
0.0
  9
$USERI1
 70
     0
  9
$USERI2
 70
     0
  9
$USERI3
 70
     0
  9
$USERI4
 70
     0
  9
$USERI5
 70
     0
  9
$USERR1
 40
0.0
  9
$USERR2
 40
0.0
  9
$USERR3
 40
0.0
  9
$USERR4
 40
0.0
  9
$USERR5
 40
0.0
  9
$WORLDVIEW
 70
     0
  9
$SHADEDGE
 70
     3
  9
$SHADEDIF
 70
    70
  9
$TILEMODE
 70
     1
  9
$MAXACTVP
 70
    16
  9
$PINSBASE
 10
0.0
 20
0.0
 30
0.0
  9
$PLIMCHECK
 70
     0
  9
$PEXTMIN
 10
1.000000000000000E+20
 20
1.000000000000000E+20
 30
1.000000000000000E+20
  9
$PEXTMAX
 10
-1.000000000000000E+20
 20
-1.000000000000000E+20
 30
-1.000000000000000E+20
  9
$PLIMMIN
 10
0.0
 20
0.0
  9
$PLIMMAX
 10
0.0
 20
0.0
  9
$UNITMODE
 70
     0
  9
$VISRETAIN
 70
     0
  9
$PLINEGEN
 70
     0
  9
$PSLTSCALE
 70
     0
  9
$TREEDEPTH
 70
  3020
  9
$CMLSTYLE
  2
STANDARD
  9
$CMLJUST
 70
     0
  9
$CMLSCALE
 40
1.0
  9
$PROXYGRAPHICS
 70
     1
  9
$MEASUREMENT
 70
     0
  9
$CELWEIGHT
370
    -1
  9
$ENDCAPS
280
     0
  9
$JOINSTYLE
280
     0
  9
$LWDISPLAY
290
     1
  9
$INSUNITS
 70
     0
  9
$HYPERLINKBASE
  1

  9
$STYLESHEET
  1
spax form.ctb
  9
$XEDIT
290
     1
  9
$CEPSNTYPE
380
     0
  9
$PSTYLEMODE
290
     1
  9
$FINGERPRINTGUID
  2
{E5B35D22-A717-11D3-9160-00E0294F7E09}
  9
$VERSIONGUID
  2
{4BD06BBB-5204-4D64-87C5-E4939FE7411A}
  9
$EXTNAMES
290
     1
  9
$PSVPSCALE
 40
0.0
  9
$OLESTARTUP
290
     0
  0
ENDSEC
  0
SECTION
  2
CLASSES
  0
CLASS
  1
LWPOLYLINE
  2
AcDbPolyline
  3
ObjectDBX Classes
 90
        0
280
     0
281
     1
  0
CLASS
  1
ACDBDICTIONARYWDFLT
  2
AcDbDictionaryWithDefault
  3
ObjectDBX Classes
 90
        0
280
     0
281
     0
  0
CLASS
  1
ACDBPLACEHOLDER
  2
AcDbPlaceHolder
  3
ObjectDBX Classes
 90
        0
280
     0
281
     0
  0
CLASS
  1
LAYOUT
  2
AcDbLayout
  3
ObjectDBX Classes
 90
        0
280
     0
281
     0
  0
CLASS
  1
DICTIONARYVAR
  2
AcDbDictionaryVar
  3
ObjectDBX Classes
 90
        0
280
     0
281
     0
  0
CLASS
  1
MATERIAL
  2
AcDbMaterial
  3
ObjectDBX Classes
 90
     1153
280
     0
281
     0
  0
CLASS
  1
SORTENTSTABLE
  2
AcDbSortentsTable
  3
ObjectDBX Classes
 90
        0
280
     0
281
     0
  0
CLASS
  1
VISUALSTYLE
  2
AcDbVisualStyle
  3
ObjectDBX Classes
 90
     4095
280
     0
281
     0
  0
CLASS
  1
TABLESTYLE
  2
AcDbTableStyle
  3
ObjectDBX Classes
 90
     4095
280
     0
281
     0
  0
CLASS
  1
SCALE
  2
AcDbScale
  3
ObjectDBX Classes
 90
     1153
280
     0
281
     0
  0
CLASS
  1
MLEADERSTYLE
  2
AcDbMLeaderStyle
  3
ACDB_MLEADERSTYLE_CLASS
 90
     4095
280
     0
281
     0
  0
CLASS
  1
CELLSTYLEMAP
  2
AcDbCellStyleMap
  3
ObjectDBX Classes
 90
     1152
280
     0
281
     0
  0
CLASS
  1
MULTILEADER
  2
AcDbMLeader
  3
ACDB_MLEADER_CLASS
 90
     1025
280
     0
281
     1
  0
CLASS
  1
DIMASSOC
  2
AcDbDimAssoc
  3
"AcDbDimAssoc|Product Desc:     AcDim ARX App For Dimension|Company:          Autodesk, Inc.|WEB Address:      www.autodesk.com"
 90
        0
280
     0
281
     0
  0
CLASS
  1
LARGE_RADIAL_DIMENSION
  2
AcDbRadialDimensionLarge
  3
ObjectDBX Classes
 90
     1025
280
     0
281
     1
  0
CLASS
  1
RASTERVARIABLES
  2
AcDbRasterVariables
  3
ISM
 90
        0
280
     0
281
     0
  0
CLASS
  1
SUN
  2
AcDbSun
  3
SCENEOE
 90
     1153
280
     0
281
     0
  0
ENDSEC
  0
SECTION
  2
TABLES
  0
TABLE
  2
VPORT
  5
8
330
0
100
AcDbSymbolTable
 70
     1
  0
VPORT
  5
3523F0
330
8
100
AcDbSymbolTableRecord
100
AcDbViewportTableRecord
  2
*Active
 70
     0
 10
0.0
 20
0.0
 11
1.0
 21
1.0
 12
15506.32241126684
 22
-3344.917235007199
 13
0.0
 23
0.0
 14
1.0
 24
1.0
 15
20.0
 25
20.0
 16
0.0
 26
0.0
 36
1.0
 17
0.0
 27
0.0
 37
0.0
 40
130.6408041859011
 41
1.731829573934837
 42
50.0
 43
0.0
 44
0.0
 50
0.0
 51
0.0
 71
    16
 72
   100
 73
     1
 74
     0
 75
     0
 76
     0
 77
     0
 78
     0
281
     0
 65
     1
110
0.0
120
0.0
130
0.0
111
1.0
121
0.0
131
0.0
112
0.0
122
1.0
132
0.0
 79
     0
146
0.0
  0
ENDTAB
  0
TABLE
  2
LTYPE
  5
5
330
0
100
AcDbSymbolTable
 70
     4
  0
LTYPE
  5
12
330
5
100
AcDbSymbolTableRecord
100
AcDbLinetypeTableRecord
  2
BYBLOCK
 70
     0
  3

 72
    65
 73
     0
 40
0.0
  0
LTYPE
  5
13
330
5
100
AcDbSymbolTableRecord
100
AcDbLinetypeTableRecord
  2
BYLAYER
 70
     0
  3

 72
    65
 73
     0
 40
0.0
  0
LTYPE
  5
14
330
5
100
AcDbSymbolTableRecord
100
AcDbLinetypeTableRecord
  2
CONTINUOUS
 70
     0
  3
Solid line
 72
    65
 73
     0
 40
0.0
  0
LTYPE
  5
25
330
5
100
AcDbSymbolTableRecord
100
AcDbLinetypeTableRecord
  2
CENTER
 70
     0
  3
____ _ ____ _ ____ _ ____ _ ____ _ ____ _ ____
 72
    65
 73
     4
 40
2.0
 49
1.25
 74
     0
 49
-0.25
 74
     0
 49
0.25
 74
     0
 49
-0.25
 74
     0
  0
LTYPE
  5
26
330
5
100
AcDbSymbolTableRecord
100
AcDbLinetypeTableRecord
  2
PHANTOM
 70
     0
  3
_____ _ _ _____ _ _ _____ _ _ _____ _ _ ____
 72
    65
 73
     6
 40
2.5
 49
1.25
 74
     0
 49
-0.25
 74
     0
 49
0.25
 74
     0
 49
-0.25
 74
     0
 49
0.25
 74
     0
 49
-0.25
 74
     0
  0
LTYPE
  5
27
330
5
100
AcDbSymbolTableRecord
100
AcDbLinetypeTableRecord
  2
HIDDEN
 70
     0
  3
_ _ _ _ _ _ _ _ _ _ _ _ _ _ _ _ _ _ _ _ _ _ _
 72
    65
 73
     2
 40
0.375
 49
0.25
 74
     0
 49
-0.125
 74
     0
  0
ENDTAB
  0
TABLE
  2
LAYER
  5
2
102
{ACAD_XDICTIONARY
360
559E
102
}
330
0
100
AcDbSymbolTable
 70
    18
  0
LAYER
  5
F
102
{ACAD_XDICTIONARY
360
CD7F
102
}
330
2
100
AcDbSymbolTableRecord
100
AcDbLayerTableRecord
  2
0
 70
     0
 62
     7
  6
CONTINUOUS
370
    -3
390
352
  0
LAYER
  5
34
102
{ACAD_XDICTIONARY
360
CD85
102
}
330
2
100
AcDbSymbolTableRecord
100
AcDbLayerTableRecord
  2
寸法線
 70
     0
 62
     7
  6
CONTINUOUS
370
    -3
390
352
  0
LAYER
  5
2F4
102
{ACAD_XDICTIONARY
360
CD8D
102
}
330
2
100
AcDbSymbolTableRecord
100
AcDbLayerTableRecord
  2
文字
 70
     0
 62
     7
  6
CONTINUOUS
370
    -3
390
352
  0
LAYER
  5
306B15
330
2
100
AcDbSymbolTableRecord
100
AcDbLayerTableRecord
  2
C-SUNPO
 70
     0
 62
     7
  6
CONTINUOUS
370
    -3
390
352
  0
LAYER
  5
31D3CB
330
2
100
AcDbSymbolTableRecord
100
AcDbLayerTableRecord
  2
姿図
 70
     0
 62
     8
  6
CONTINUOUS
370
    -3
390
352
  0
ENDTAB
  0
TABLE
  2
STYLE
  5
3
330
0
100
AcDbSymbolTable
 70
     1
  0
STYLE
  5
10
330
3
100
AcDbSymbolTableRecord
100
AcDbTextStyleTableRecord
  2
STANDARD
 70
     0
 40
0.0
 41
1.0
 50
0.0
 71
     0
 42
3.5
  3
MONOTXT
  4
BIGFONT
  0
ENDTAB
  0
TABLE
  2
VIEW
  5
6
330
0
100
AcDbSymbolTable
 70
     0
  0
ENDTAB
  0
TABLE
  2
UCS
  5
7
330
0
100
AcDbSymbolTable
 70
     0
  0
ENDTAB
  0
TABLE
  2
APPID
  5
9
330
0
100
AcDbSymbolTable
 70
    18
  0
APPID
  5
11
330
9
100
AcDbSymbolTableRecord
100
AcDbRegAppTableRecord
  2
ACAD
 70
     0
  0
APPID
  5
C058
330
9
100
AcDbSymbolTableRecord
100
AcDbRegAppTableRecord
  2
AcAecLayerStandard
 70
     0
  0
APPID
  5
CD77
330
9
100
AcDbSymbolTableRecord
100
AcDbRegAppTableRecord
  2
ACAD_MLEADERVER
 70
     0
  0
APPID
  5
D036
330
9
100
AcDbSymbolTableRecord
100
AcDbRegAppTableRecord
  2
ACAD_PSEXT
 70
     0
  0
APPID
  5
D28E
330
9
100
AcDbSymbolTableRecord
100
AcDbRegAppTableRecord
  2
ACAD_DSTYLE_DIMJAG
 70
     0
  0
APPID
  5
D28F
330
9
100
AcDbSymbolTableRecord
100
AcDbRegAppTableRecord
  2
ACAD_DSTYLE_DIMTALN
 70
     0
  0
APPID
  5
10E35
330
9
100
AcDbSymbolTableRecord
100
AcDbRegAppTableRecord
  2
ACAD_EXEMPT_FROM_CAD_STANDARDS
 70
     0
  0
APPID
  5
36B90
330
9
100
AcDbSymbolTableRecord
100
AcDbRegAppTableRecord
  2
ACAD_DSTYLE_DIMRADIAL_EXTENSION
 70
     0
  0
APPID
  5
4CBB9
330
9
100
AcDbSymbolTableRecord
100
AcDbRegAppTableRecord
  2
WACOM_STRING
 70
     0
  0
APPID
  5
4CBBA
330
9
100
AcDbSymbolTableRecord
100
AcDbRegAppTableRecord
  2
WACOM_DRSYM_ARROW
 70
     0
  0
APPID
  5
83B4C
330
9
100
AcDbSymbolTableRecord
100
AcDbRegAppTableRecord
  2
ACAD_DSTYLE_DIMRADIAL_EXTE
 70
     0
  0
APPID
  5
83B4D
330
9
100
AcDbSymbolTableRecord
100
AcDbRegAppTableRecord
  2
ACAD_DSTYLE_DIMBREAK
 70
     0
  0
APPID
  5
83B4E
330
9
100
AcDbSymbolTableRecord
100
AcDbRegAppTableRecord
  2
ACAD_DSTYLE_DIMARC_LENGTH_
 70
     0
  0
APPID
  5
8B472
330
9
100
AcDbSymbolTableRecord
100
AcDbRegAppTableRecord
  2
LAYER_SCALE
 70
     0
  0
APPID
  5
8B473
330
9
100
AcDbSymbolTableRecord
100
AcDbRegAppTableRecord
  2
KCAD_DIM_EXT
 70
     0
  0
APPID
  5
16ECBA
330
9
100
AcDbSymbolTableRecord
100
AcDbRegAppTableRecord
  2
GENIUS_GENDTOL_13
 70
     0
  0
APPID
  5
23CCFB
330
9
100
AcDbSymbolTableRecord
100
AcDbRegAppTableRecord
  2
AcadAnnotative
 70
     0
  0
APPID
  5
31A28D
330
9
100
AcDbSymbolTableRecord
100
AcDbRegAppTableRecord
  2
ACAD_DSTYLE_DIMFLIPARROW_WHICH_SYMBOL
 70
     0
  0
ENDTAB
  0
TABLE
  2
DIMSTYLE
  5
A
330
0
100
AcDbSymbolTable
 70
     2
100
AcDbDimStyleTable
  0
DIMSTYLE
105
1CC
330
A
100
AcDbSymbolTableRecord
100
AcDbDimStyleTableRecord
  2
STANDARD
 70
     0
 41
2.5
 42
1.5
 43
7.0
 44
1.0
 45
0.0
 73
     0
 74
     0
 77
     3
 78
     8
 79
     2
140
3.0
141
0.0
146
0.6
147
1.0
171
     0
172
     1
176
     8
177
     8
271
     3
178
   256
179
     3
271
     3
272
     3
274
     0
289
     0
340
10
341
265D
342
265D
1001
ACAD_DSTYLE_DIMJAG
1070
   388
1040
1.5
1001
ACAD_DSTYLE_DIMTALN
1070
   392
1070
     0
  0
ENDTAB
  0
TABLE
  2
BLOCK_RECORD
  5
1
330
0
100
AcDbSymbolTable
 70
    20
  0
BLOCK_RECORD
  5
18
102
{ACAD_XDICTIONARY
360
D25F
102
}
330
1
100
AcDbSymbolTableRecord
100
AcDbBlockTableRecord
  2
*MODEL_SPACE
340
355
  0
BLOCK_RECORD
  5
15
330
1
100
AcDbSymbolTableRecord
100
AcDbBlockTableRecord
  2
*PAPER_SPACE
340
356
  0
BLOCK_RECORD
  5
416
330
1
100
AcDbSymbolTableRecord
100
AcDbBlockTableRecord
  2
SUN
340
0
  0
BLOCK_RECORD
  5
265D
330
1
100
AcDbSymbolTableRecord
100
AcDbBlockTableRecord
  2
_OPEN30
340
0
102
{BLKREFS
331
33DA01
331
33DA02
331
33DA0A
331
33DA0B
331
33DA13
331
33DA14
331
33DA1C
331
33DA1D
331
33DA25
331
33DA26
331
33DA30
331
33DA31
331
33DA39
331
33DA3A
331
33DA42
331
33DA43
331
33DA4B
331
33DA4C
331
35345C
331
35345D
331
353465
331
353466
331
35346E
331
35346F
331
353477
331
353478
331
353480
331
353481
331
35348B
331
35348C
331
353494
331
353495
331
35349D
331
35349E
331
3534A6
331
3534A7
102
}
  0
ENDTAB
  0
ENDSEC
  0
SECTION
  2
BLOCKS
  0
BLOCK
  5
39
330
18
100
AcDbEntity
  8
0
100
AcDbBlockBegin
  2
*MODEL_SPACE
 70
     0
 10
0.0
 20
0.0
 30
0.0
  3
*MODEL_SPACE
  1
*MODEL_SPACE
  0
ENDBLK
  5
3A
330
18
100
AcDbEntity
  8
0
100
AcDbBlockEnd
  0
BLOCK
  5
37
330
15
100
AcDbEntity
 67
     1
  8
0
100
AcDbBlockBegin
  2
*PAPER_SPACE
 70
     0
 10
0.0
 20
0.0
 30
0.0
  3
*PAPER_SPACE
  1
*PAPER_SPACE
  0
ENDBLK
  5
38
330
15
100
AcDbEntity
 67
     1
  8
0
100
AcDbBlockEnd
  0
BLOCK
  5
41A
330
416
100
AcDbEntity
  8
0
100
AcDbBlockBegin
  2
SUN
 70
     0
 10
0.0
 20
0.0
 30
0.0
  3
SUN
  1
SUN
  0
LINE
  5
417
330
416
100
AcDbEntity
  8
0
100
AcDbLine
 10
-0.0000000000000568
 20
0.0
 30
0.0
 11
-1.500000000000057
 21
0.0
 31
0.0
  0
LINE
  5
418
330
416
100
AcDbEntity
  8
0
100
AcDbLine
 10
-0.0000000000000568
 20
0.0000000000000284
 30
0.0
 11
-1.500000000000057
 21
0.401923788646684
 31
0.0
  0
LINE
  5
419
330
416
100
AcDbEntity
  8
0
100
AcDbLine
 10
-0.0000000000000568
 20
0.0000000000000284
 30
0.0
 11
-1.500000000000057
 21
-0.4019237886466556
 31
0.0
  0
ENDBLK
  5
41B
330
416
100
AcDbEntity
  8
0
100
AcDbBlockEnd
  0
BLOCK
  5
265E
330
265D
100
AcDbEntity
  8
0
100
AcDbBlockBegin
  2
_OPEN30
 70
     0
 10
0.0
 20
0.0
 30
0.0
  3
_OPEN30
  1
_OPEN30
  0
LINE
  5
265F
330
265D
100
AcDbEntity
  8
0
  6
ByBlock
 62
     0
100
AcDbLine
 10
-1.0
 20
0.26794919
 30
0.0
 11
0.0
 21
0.0
 31
0.0
  0
LINE
  5
2660
330
265D
100
AcDbEntity
  8
0
  6
ByBlock
 62
     0
100
AcDbLine
 10
0.0
 20
0.0
 30
0.0
 11
-1.0
 21
-0.26794919
 31
0.0
  0
LINE
  5
2661
330
265D
100
AcDbEntity
  8
0
  6
ByBlock
 62
     0
100
AcDbLine
 10
0.0
 20
0.0
 30
0.0
 11
-1.0
 21
0.0
 31
0.0
  0
ENDBLK
  5
2662
330
265D
100
AcDbEntity
  8
0
100
AcDbBlockEnd
  0
ENDSEC
  0
SECTION
  2
ENTITIES
  0
MTEXT
  5
8182F
330
18
100
AcDbEntity
  8
0
100
AcDbMText
 10
5598.734167156057
 20
-2635.335630549191
 30
0.0
 40
3.0
 41
0.0
 71
     7
 72
     1
  1
\A1;
 73
     1
 44
1.0
  0
MTEXT
  5
3073B9
330
18
100
AcDbEntity
  8
C-SUNPO
 62
     7
100
AcDbMText
 10
8897.245354628265
 20
-2466.345110988794
 30
0.0
 40
2.0
 41
0.0
 71
     5
 72
     1
  1
\A1;\P\P 
 11
0.999998667560571
 21
0.001632445123950444
 31
0.0
 73
     1
 44
1.0
  0
TEXT
  5
352C65
330
18
100
AcDbEntity
  8
文字
100
AcDbText
 10
15453.51412911625
 20
-3408.956844902249
 30
0.0
 40
9.75
  1
SX-900CBP
100
AcDbText
  0
POLYLINE
  5
353055
330
18
100
AcDbEntity
  8
姿図
100
AcDb2dPolyline
 66
     1
 10
0.0
 20
0.0
 30
0.0
  0
VERTEX
  5
353056
330
353055
100
AcDbEntity
  8
姿図
100
AcDbVertex
100
AcDb2dVertex
 10
15558.80031681067
 20
-3302.257648238864
 30
0.0
  0
VERTEX
  5
353057
330
353055
100
AcDbEntity
  8
姿図
100
AcDbVertex
100
AcDb2dVertex
 10
15554.59978904066
 20
-3303.767979095954
 30
0.0
  0
VERTEX
  5
353058
330
353055
100
AcDbEntity
  8
姿図
100
AcDbVertex
100
AcDb2dVertex
 10
15505.94014792455
 20
-3303.767979095954
 30
0.0
  0
VERTEX
  5
353059
330
353055
100
AcDbEntity
  8
姿図
100
AcDbVertex
100
AcDb2dVertex
 10
15504.52418518524
 20
-3302.257648238864
 30
0.0
  0
VERTEX
  5
35305A
330
353055
100
AcDbEntity
  8
姿図
100
AcDbVertex
100
AcDb2dVertex
 10
15558.80031681067
 20
-3302.257648238864
 30
0.0
  0
VERTEX
  5
35305B
330
353055
100
AcDbEntity
  8
姿図
100
AcDbVertex
100
AcDb2dVertex
 10
15559.13069341742
 20
-3285.974826390136
 30
0.0
  0
VERTEX
  5
35305C
330
353055
100
AcDbEntity
  8
姿図
100
AcDbVertex
100
AcDb2dVertex
 10
15504.52418518524
 20
-3285.974826390136
 30
0.0
  0
SEQEND
  5
35305D
330
353055
100
AcDbEntity
  8
姿図
  0
POLYLINE
  5
35305E
330
18
100
AcDbEntity
  8
姿図
100
AcDb2dPolyline
 66
     1
 10
0.0
 20
0.0
 30
0.0
  0
VERTEX
  5
35305F
330
35305E
100
AcDbEntity
  8
姿図
100
AcDbVertex
100
AcDb2dVertex
 10
15505.94014792455
 20
-3303.767979095954
 30
0.0
  0
VERTEX
  5
353060
330
35305E
100
AcDbEntity
  8
姿図
100
AcDbVertex
100
AcDb2dVertex
 10
15505.04338622207
 20
-3304.853565228504
 30
0.0
  0
VERTEX
  5
353061
330
35305E
100
AcDbEntity
  8
姿図
100
AcDbVertex
100
AcDb2dVertex
 10
15503.58023942388
 20
-3303.437602489201
 30
0.0
  0
VERTEX
  5
353062
330
35305E
100
AcDbEntity
  8
姿図
100
AcDbVertex
100
AcDb2dVertex
 10
15504.52418518524
 20
-3302.257648238864
 30
0.0
  0
VERTEX
  5
353063
330
35305E
100
AcDbEntity
  8
姿図
100
AcDbVertex
100
AcDb2dVertex
 10
15504.52418518524
 20
-3285.974826390136
 30
0.0
  0
VERTEX
  5
353064
330
35305E
100
AcDbEntity
  8
姿図
100
AcDbVertex
100
AcDb2dVertex
 10
15499.47416796615
 20
-3285.974826390136
 30
0.0
  0
VERTEX
  5
353065
330
35305E
100
AcDbEntity
  8
姿図
100
AcDbVertex
100
AcDb2dVertex
 10
15497.77501267899
 20
-3286.682763662537
 30
0.0
  0
VERTEX
  5
353066
330
35305E
100
AcDbEntity
  8
姿図
100
AcDbVertex
100
AcDb2dVertex
 10
15495.17927207835
 20
-3286.714249099966
 30
0.0
  0
SEQEND
  5
353067
330
35305E
100
AcDbEntity
  8
姿図
  0
SPLINE
  5
353068
330
18
100
AcDbEntity
  8
姿図
100
AcDbSpline
210
0.0
220
0.0
230
1.0
 70
     8
 71
     3
 72
    17
 73
    13
 74
     0
 42
0.000000001
 43
0.0000000001
 40
0.0
 40
0.0
 40
0.0
 40
0.0
 40
1.0
 40
1.0
 40
1.0
 40
2.0
 40
2.0
 40
2.0
 40
3.0
 40
3.0
 40
3.0
 40
4.0
 40
4.0
 40
4.0
 40
4.0
 10
15503.58023942388
 20
-3303.437602489201
 30
0.0
 10
15503.58023942388
 20
-3303.437602489201
 30
0.0
 10
15487.23462308929
 20
-3303.767979095954
 30
0.0
 10
15487.23462308929
 20
-3303.767979095954
 30
0.0
 10
15487.23462308929
 20
-3303.767979095954
 30
0.0
 10
15495.27364019614
 20
-3303.720795037062
 30
0.0
 10
15495.17927207835
 20
-3304.192723820494
 30
0.0
 10
15495.17927207835
 20
-3304.192723820494
 30
0.0
 10
15495.03763170717
 20
-3304.334364191677
 30
0.0
 10
15494.8488954716
 20
-3304.617556739537
 30
0.0
 10
15494.8488954716
 20
-3304.617556739537
 30
0.0
 10
15505.04338622207
 20
-3304.853565228504
 30
0.0
 10
15505.04338622207
 20
-3304.853565228504
 30
0.0
  0
POLYLINE
  5
353069
330
18
100
AcDbEntity
  8
姿図
100
AcDb2dPolyline
 66
     1
 10
0.0
 20
0.0
 30
0.0
  0
VERTEX
  5
35306A
330
353069
100
AcDbEntity
  8
姿図
100
AcDbVertex
100
AcDb2dVertex
 10
15494.8488954716
 20
-3304.617556739537
 30
0.0
  0
VERTEX
  5
35306B
330
353069
100
AcDbEntity
  8
姿図
100
AcDbVertex
100
AcDb2dVertex
 10
15493.71612528015
 20
-3306.363807891092
 30
0.0
  0
SEQEND
  5
35306C
330
353069
100
AcDbEntity
  8
姿図
  0
POLYLINE
  5
35306D
330
18
100
AcDbEntity
  8
姿図
100
AcDb2dPolyline
 66
     1
 10
0.0
 20
0.0
 30
0.0
  0
VERTEX
  5
35306E
330
35306D
100
AcDbEntity
  8
姿図
100
AcDbVertex
100
AcDb2dVertex
 10
15494.55000430227
 20
-3288.397617571166
 30
0.0
  0
VERTEX
  5
35306F
330
35306D
100
AcDbEntity
  8
姿図
100
AcDbVertex
100
AcDb2dVertex
 10
15495.17927207835
 20
-3288.020056905519
 30
0.0
  0
VERTEX
  5
353070
330
35306D
100
AcDbEntity
  8
姿図
100
AcDbVertex
100
AcDb2dVertex
 10
15487.34460163404
 20
-3288.397617571166
 30
0.0
  0
SEQEND
  5
353071
330
35306D
100
AcDbEntity
  8
姿図
  0
SPLINE
  5
353072
330
18
100
AcDbEntity
  8
姿図
100
AcDbSpline
210
0.0
220
0.0
230
1.0
 70
     8
 71
     3
 72
    38
 73
    34
 74
     0
 42
0.000000001
 43
0.0000000001
 40
0.0
 40
0.0
 40
0.0
 40
0.0
 40
1.0
 40
1.0
 40
1.0
 40
2.0
 40
2.0
 40
2.0
 40
3.0
 40
3.0
 40
3.0
 40
4.0
 40
4.0
 40
4.0
 40
5.0
 40
5.0
 40
5.0
 40
6.0
 40
6.0
 40
6.0
 40
7.0
 40
7.0
 40
7.0
 40
8.0
 40
8.0
 40
8.0
 40
9.0
 40
9.0
 40
9.0
 40
10.0
 40
10.0
 40
10.0
 40
11.0
 40
11.0
 40
11.0
 40
11.0
 10
15495.17927207835
 20
-3288.020056905519
 30
0.0
 10
15495.17927207835
 20
-3288.020056905519
 30
0.0
 10
15495.17927207835
 20
-3286.289504375427
 30
0.0
 10
15495.17927207835
 20
-3286.289504375427
 30
0.0
 10
15495.17927207835
 20
-3286.289504375427
 30
0.0
 10
15486.30637594939
 20
-3286.667065041074
 30
0.0
 10
15486.30637594939
 20
-3286.667065041074
 30
0.0
 10
15486.30637594939
 20
-3286.667065041074
 30
0.0
 10
15481.14611560204
 20
-3287.10759658158
 30
0.0
 10
15480.80004037382
 20
-3287.705378920228
 30
0.0
 10
15480.80004037382
 20
-3287.705378920228
 30
0.0
 10
15480.80004037382
 20
-3289.341563332534
 30
0.0
 10
15480.80004037382
 20
-3289.341563332534
 30
0.0
 10
15481.2089982824
 20
-3288.492073883455
 30
0.0
 10
15486.84118741318
 20
-3288.397617571166
 30
0.0
 10
15486.84118741318
 20
-3288.397617571166
 30
0.0
 10
15486.84118741318
 20
-3288.397617571166
 30
0.0
 10
15498.19984559803
 20
-3288.397617571166
 30
0.0
 10
15498.19984559803
 20
-3288.397617571166
 30
0.0
 10
15498.19984559803
 20
-3288.397617571166
 30
0.0
 10
15501.15744824285
 20
-3288.114425023305
 30
0.0
 10
15501.15744824285
 20
-3288.114425023305
 30
0.0
 10
15501.15744824285
 20
-3288.114425023305
 30
0.0
 10
15504.52418518524
 20
-3287.894203350304
 30
0.0
 10
15504.52418518524
 20
-3287.894203350304
 30
0.0
 10
15504.52418518524
 20
-3287.894203350304
 30
0.0
 10
15499.47416796615
 20
-3287.894203350304
 30
0.0
 10
15499.47416796615
 20
-3287.894203350304
 30
0.0
 10
15499.47416796615
 20
-3287.894203350304
 30
0.0
 10
15498.19984559803
 20
-3288.397617571166
 30
0.0
 10
15498.19984559803
 20
-3288.397617571166
 30
0.0
 10
15498.19984559803
 20
-3288.397617571166
 30
0.0
 10
15498.19984559803
 20
-3300.322660851737
 30
0.0
 10
15498.19984559803
 20
-3300.322660851737
 30
0.0
  0
POLYLINE
  5
353073
330
18
100
AcDbEntity
  8
姿図
100
AcDb2dPolyline
 66
     1
 10
0.0
 20
0.0
 30
0.0
  0
VERTEX
  5
353074
330
353073
100
AcDbEntity
  8
姿図
100
AcDbVertex
100
AcDb2dVertex
 10
15501.09456556249
 20
-3288.208881335594
 30
0.0
  0
VERTEX
  5
353075
330
353073
100
AcDbEntity
  8
姿図
100
AcDbVertex
100
AcDb2dVertex
 10
15501.09456556249
 20
-3300.322660851737
 30
0.0
  0
VERTEX
  5
353076
330
353073
100
AcDbEntity
  8
姿図
100
AcDbVertex
100
AcDb2dVertex
 10
15486.84118741318
 20
-3300.605765205094
 30
0.0
  0
SEQEND
  5
353077
330
353073
100
AcDbEntity
  8
姿図
  0
POLYLINE
  5
353078
330
18
100
AcDbEntity
  8
姿図
100
AcDb2dPolyline
 66
     1
 10
0.0
 20
0.0
 30
0.0
  0
VERTEX
  5
353079
330
353078
100
AcDbEntity
  8
姿図
100
AcDbVertex
100
AcDb2dVertex
 10
15487.34460163404
 20
-3288.397617571166
 30
0.0
  0
VERTEX
  5
35307A
330
353078
100
AcDbEntity
  8
姿図
100
AcDbVertex
100
AcDb2dVertex
 10
15487.34460163404
 20
-3288.397617571166
 30
0.0
  0
SEQEND
  5
35307B
330
353078
100
AcDbEntity
  8
姿図
  0
SPLINE
  5
35307C
330
18
100
AcDbEntity
  8
姿図
100
AcDbSpline
210
0.0
220
0.0
230
1.0
 70
     8
 71
     3
 72
    11
 73
     7
 74
     0
 42
0.000000001
 43
0.0000000001
 40
0.0
 40
0.0
 40
0.0
 40
0.0
 40
1.0
 40
1.0
 40
1.0
 40
2.0
 40
2.0
 40
2.0
 40
2.0
 10
15487.6277941819
 20
-3305.954761788016
 30
0.0
 10
15487.6277941819
 20
-3305.954761788016
 30
0.0
 10
15486.84118741318
 20
-3302.147581499614
 30
0.0
 10
15486.84118741318
 20
-3302.147581499614
 30
0.0
 10
15486.84118741318
 20
-3302.147581499614
 30
0.0
 10
15486.84118741318
 20
-3288.397617571166
 30
0.0
 10
15486.84118741318
 20
-3288.397617571166
 30
0.0
  0
SPLINE
  5
35307D
330
18
100
AcDbEntity
  8
姿図
100
AcDbSpline
210
0.0
220
0.0
230
1.0
 70
     8
 71
     3
 72
    14
 73
    10
 74
     0
 42
0.000000001
 43
0.0000000001
 40
0.0
 40
0.0
 40
0.0
 40
0.0
 40
1.0
 40
1.0
 40
1.0
 40
2.0
 40
2.0
 40
2.0
 40
3.0
 40
3.0
 40
3.0
 40
3.0
 10
15504.52418518524
 20
-3302.257648238864
 30
0.0
 10
15504.52418518524
 20
-3302.257648238864
 30
0.0
 10
15486.86402978935
 20
-3302.257648238864
 30
0.0
 10
15486.86402978935
 20
-3302.257648238864
 30
0.0
 10
15486.86402978935
 20
-3302.257648238864
 30
0.0
 10
15480.83143761675
 20
-3302.241949617401
 30
0.0
 10
15480.80004037382
 20
-3302.902702830908
 30
0.0
 10
15480.80004037382
 20
-3302.902702830908
 30
0.0
 10
15483.19134611742
 20
-3306.363807891092
 30
0.0
 10
15483.19134611742
 20
-3306.363807891092
 30
0.0
  0
SPLINE
  5
35307E
330
18
100
AcDbEntity
  8
姿図
100
AcDbSpline
210
0.0
220
0.0
230
1.0
 70
     8
 71
     3
 72
    29
 73
    25
 74
     0
 42
0.000000001
 43
0.0000000001
 40
0.0
 40
0.0
 40
0.0
 40
0.0
 40
1.0
 40
1.0
 40
1.0
 40
2.0
 40
2.0
 40
2.0
 40
3.0
 40
3.0
 40
3.0
 40
4.0
 40
4.0
 40
4.0
 40
5.0
 40
5.0
 40
5.0
 40
6.0
 40
6.0
 40
6.0
 40
7.0
 40
7.0
 40
7.0
 40
8.0
 40
8.0
 40
8.0
 40
8.0
 10
15480.80004037382
 20
-3293.274597176152
 30
0.0
 10
15480.80004037382
 20
-3293.274597176152
 30
0.0
 10
15480.07640447996
 20
-3292.676726643
 30
0.0
 10
15480.07640447996
 20
-3292.676726643
 30
0.0
 10
15480.07640447996
 20
-3292.676726643
 30
0.0
 10
15479.76172649467
 20
-3292.456504969999
 30
0.0
 10
15479.76172649467
 20
-3292.016061623995
 30
0.0
 10
15479.76172649467
 20
-3292.016061623995
 30
0.0
 10
15479.76172649467
 20
-3289.341563332534
 30
0.0
 10
15479.76172649467
 20
-3289.341563332534
 30
0.0
 10
15479.76172649467
 20
-3289.341563332534
 30
0.0
 10
15480.80004037382
 20
-3289.341563332534
 30
0.0
 10
15480.80004037382
 20
-3289.341563332534
 30
0.0
 10
15481.14611560204
 20
-3289.435931450321
 30
0.0
 10
15481.08314472718
 20
-3289.49890232518
 30
0.0
 10
15481.08314472718
 20
-3289.49890232518
 30
0.0
 10
15481.08314472718
 20
-3289.49890232518
 30
0.0
 10
15481.08314472718
 20
-3292.047458866923
 30
0.0
 10
15481.08314472718
 20
-3292.047458866923
 30
0.0
 10
15481.08314472718
 20
-3292.047458866923
 30
0.0
 10
15480.80004037382
 20
-3293.117346378009
 30
0.0
 10
15480.80004037382
 20
-3293.117346378009
 30
0.0
 10
15480.80004037382
 20
-3293.117346378009
 30
0.0
 10
15480.80004037382
 20
-3302.902702830908
 30
0.0
 10
15480.80004037382
 20
-3302.902702830908
 30
0.0
  0
POLYLINE
  5
35307F
330
18
100
AcDbEntity
  8
姿図
100
AcDb2dPolyline
 66
     1
 10
0.0
 20
0.0
 30
0.0
  0
VERTEX
  5
353080
330
35307F
100
AcDbEntity
  8
姿図
100
AcDbVertex
100
AcDb2dVertex
 10
15501.25190455513
 20
-3285.974826390136
 30
0.0
  0
VERTEX
  5
353081
330
35307F
100
AcDbEntity
  8
姿図
100
AcDbVertex
100
AcDb2dVertex
 10
15501.25190455513
 20
-3283.394784410965
 30
0.0
  0
VERTEX
  5
353082
330
35307F
100
AcDbEntity
  8
姿図
100
AcDbVertex
100
AcDb2dVertex
 10
15540.70827293553
 20
-3283.394784410965
 30
0.0
  0
VERTEX
  5
353083
330
35307F
100
AcDbEntity
  8
姿図
100
AcDbVertex
100
AcDb2dVertex
 10
15540.70827293553
 20
-3281.003478667365
 30
0.0
  0
VERTEX
  5
353084
330
35307F
100
AcDbEntity
  8
姿図
100
AcDbVertex
100
AcDb2dVertex
 10
15546.62347822517
 20
-3281.003478667365
 30
0.0
  0
VERTEX
  5
353085
330
35307F
100
AcDbEntity
  8
姿図
100
AcDbVertex
100
AcDb2dVertex
 10
15546.62347822517
 20
-3285.974826390136
 30
0.0
  0
SEQEND
  5
353086
330
35307F
100
AcDbEntity
  8
姿図
  0
POLYLINE
  5
353087
330
18
100
AcDbEntity
  8
姿図
100
AcDb2dPolyline
 66
     1
 10
0.0
 20
0.0
 30
0.0
  0
VERTEX
  5
353088
330
353087
100
AcDbEntity
  8
姿図
100
AcDbVertex
100
AcDb2dVertex
 10
15540.70827293553
 20
-3281.003478667365
 30
0.0
  0
VERTEX
  5
353089
330
353087
100
AcDbEntity
  8
姿図
100
AcDbVertex
100
AcDb2dVertex
 10
15539.76423897966
 20
-3282.010307109089
 30
0.0
  0
VERTEX
  5
35308A
330
353087
100
AcDbEntity
  8
姿図
100
AcDbVertex
100
AcDb2dVertex
 10
15539.76423897966
 20
-3283.394784410965
 30
0.0
  0
SEQEND
  5
35308B
330
353087
100
AcDbEntity
  8
姿図
  0
SPLINE
  5
35308C
330
18
100
AcDbEntity
  8
姿図
100
AcDbSpline
210
0.0
220
0.0
230
1.0
 70
     8
 71
     3
 72
    17
 73
    13
 74
     0
 42
0.000000001
 43
0.0000000001
 40
0.0
 40
0.0
 40
0.0
 40
0.0
 40
1.0
 40
1.0
 40
1.0
 40
2.0
 40
2.0
 40
2.0
 40
3.0
 40
3.0
 40
3.0
 40
4.0
 40
4.0
 40
4.0
 40
4.0
 10
15550.65096838107
 20
-3285.974826390136
 30
0.0
 10
15550.65096838107
 20
-3285.974826390136
 30
0.0
 10
15550.96564636636
 20
-3285.534383044133
 30
0.0
 10
15550.96564636636
 20
-3285.534383044133
 30
0.0
 10
15550.96564636636
 20
-3285.534383044133
 30
0.0
 10
15551.34311883751
 20
-3285.219705058842
 30
0.0
 10
15552.16121104366
 20
-3285.219705058842
 30
0.0
 10
15552.16121104366
 20
-3285.219705058842
 30
0.0
 10
15556.06293583885
 20
-3285.219705058842
 30
0.0
 10
15556.06293583885
 20
-3285.219705058842
 30
0.0
 10
15556.06293583885
 20
-3285.219705058842
 30
0.0
 10
15556.94399891987
 20
-3285.471412169274
 30
0.0
 10
15556.06293583885
 20
-3285.974826390136
 30
0.0
  0
SPLINE
  5
35308D
330
18
100
AcDbEntity
  8
姿図
100
AcDbSpline
210
0.0
220
0.0
230
1.0
 70
     8
 71
     3
 72
    23
 73
    19
 74
     0
 42
0.000000001
 43
0.0000000001
 40
0.0
 40
0.0
 40
0.0
 40
0.0
 40
1.0
 40
1.0
 40
1.0
 40
2.0
 40
2.0
 40
2.0
 40
3.0
 40
3.0
 40
3.0
 40
4.0
 40
4.0
 40
4.0
 40
5.0
 40
5.0
 40
5.0
 40
6.0
 40
6.0
 40
6.0
 40
6.0
 10
15556.44922776026
 20
-3285.59726572449
 30
0.0
 10
15556.44922776026
 20
-3285.59726572449
 30
0.0
 10
15556.44922776026
 20
-3284.590437282765
 30
0.0
 10
15556.44922776026
 20
-3284.590437282765
 30
0.0
 10
15556.44922776026
 20
-3284.590437282765
 30
0.0
 10
15556.25167207443
 20
-3284.212876617118
 30
0.0
 10
15555.55934522898
 20
-3284.212876617118
 30
0.0
 10
15555.55934522898
 20
-3284.212876617118
 30
0.0
 10
15551.78373857252
 20
-3284.212876617118
 30
0.0
 10
15551.78373857252
 20
-3284.212876617118
 30
0.0
 10
15551.78373857252
 20
-3284.212876617118
 30
0.0
 10
15551.06001448415
 20
-3284.244362054547
 30
0.0
 10
15550.65096838107
 20
-3284.653319963121
 30
0.0
 10
15550.241922278
 20
-3285.062366066197
 30
0.0
 10
15549.95881792464
 20
-3285.59726572449
 30
0.0
 10
15549.95881792464
 20
-3285.59726572449
 30
0.0
 10
15549.95881792464
 20
-3285.59726572449
 30
0.0
 10
15549.95881792464
 20
-3285.974826390136
 30
0.0
 10
15549.95881792464
 20
-3285.974826390136
 30
0.0
  0
SPLINE
  5
35308E
330
18
100
AcDbEntity
  8
姿図
100
AcDbSpline
210
0.0
220
0.0
230
1.0
 70
     8
 71
     3
 72
    17
 73
    13
 74
     0
 42
0.000000001
 43
0.0000000001
 40
0.0
 40
0.0
 40
0.0
 40
0.0
 40
1.0
 40
1.0
 40
1.0
 40
2.0
 40
2.0
 40
2.0
 40
3.0
 40
3.0
 40
3.0
 40
3.721995864890316
 40
3.721995864890316
 40
3.721995864890316
 40
3.721995864890316
 10
15550.27949313611
 20
-3285.093851503626
 30
0.0
 10
15550.27949313611
 20
-3285.093851503626
 30
0.0
 10
15550.27949313611
 20
-3284.212876617118
 30
0.0
 10
15550.27949313611
 20
-3284.212876617118
 30
0.0
 10
15550.27949313611
 20
-3284.212876617118
 30
0.0
 10
15549.96746098589
 20
-3283.489152528751
 30
0.0
 10
15553.20402284245
 20
-3283.489152528751
 30
0.0
 10
15553.20402284245
 20
-3283.489152528751
 30
0.0
 10
15555.68528697871
 20
-3283.583520646537
 30
0.0
 10
15555.68528697871
 20
-3283.898198631826
 30
0.0
 10
15555.68528697871
 20
-3283.898198631826
 30
0.0
 10
15555.68528697871
 20
-3284.103242031722
 30
0.0
 10
15555.68528697871
 20
-3284.217247857818
 30
0.0
  0
SPLINE
  5
35308F
330
18
100
AcDbEntity
  8
姿図
100
AcDbSpline
210
0.0
220
0.0
230
1.0
 70
     8
 71
     3
 72
     8
 73
     4
 74
     0
 42
0.000000001
 43
0.0000000001
 40
0.0
 40
0.0
 40
0.0
 40
0.0
 40
1.0
 40
1.0
 40
1.0
 40
1.0
 10
15498.40436864957
 20
-3286.420649600799
 30
0.0
 10
15498.32384706869
 20
-3286.454163511788
 30
0.0
 10
15495.17927207835
 20
-3286.420649600799
 30
0.0
 10
15495.17927207835
 20
-3286.420649600799
 30
0.0
  0
SPLINE
  5
353090
330
18
100
AcDbEntity
  8
姿図
100
AcDbSpline
210
0.0
220
0.0
230
1.0
 70
     8
 71
     3
 72
    23
 73
    19
 74
     0
 42
0.000000001
 43
0.0000000001
 40
0.0
 40
0.0
 40
0.0
 40
0.0
 40
1.0
 40
1.0
 40
1.0
 40
2.0
 40
2.0
 40
2.0
 40
3.0
 40
3.0
 40
3.0
 40
4.0
 40
4.0
 40
4.0
 40
5.0
 40
5.0
 40
5.0
 40
6.0
 40
6.0
 40
6.0
 40
6.0
 10
15485.86610899239
 20
-3286.234294616797
 30
0.0
 10
15485.86610899239
 20
-3286.234294616797
 30
0.0
 10
15485.20544397339
 20
-3285.660236599349
 30
0.0
 10
15485.20544397339
 20
-3285.660236599349
 30
0.0
 10
15485.20544397339
 20
-3285.660236599349
 30
0.0
 10
15484.79639787031
 20
-3285.440014926347
 30
0.0
 10
15485.86610899239
 20
-3285.440014926347
 30
0.0
 10
15485.86610899239
 20
-3285.440014926347
 30
0.0
 10
15489.76765739858
 20
-3285.440014926347
 30
0.0
 10
15489.76765739858
 20
-3285.440014926347
 30
0.0
 10
15489.76765739858
 20
-3285.440014926347
 30
0.0
 10
15490.69519898246
 20
-3285.345558614058
 30
0.0
 10
15491.2383007295
 20
-3285.974826390136
 30
0.0
 10
15491.2383007295
 20
-3285.974826390136
 30
0.0
 10
15491.65387322577
 20
-3286.439523224356
 30
0.0
 10
15491.65387322577
 20
-3286.439523224356
 30
0.0
 10
15484.57273661171
 20
-3285.740052624205
 30
0.0
 10
15483.06708006325
 20
-3287.053092378971
 30
0.0
 10
15483.06708006325
 20
-3287.053092378971
 30
0.0
  0
SPLINE
  5
353091
330
18
100
AcDbEntity
  8
姿図
100
AcDbSpline
210
0.0
220
0.0
230
1.0
 70
     8
 71
     3
 72
    26
 73
    22
 74
     0
 42
0.000000001
 43
0.0000000001
 40
0.0
 40
0.0
 40
0.0
 40
0.0
 40
1.0
 40
1.0
 40
1.0
 40
2.0
 40
2.0
 40
2.0
 40
3.0
 40
3.0
 40
3.0
 40
4.0
 40
4.0
 40
4.0
 40
5.0
 40
5.0
 40
5.0
 40
6.0
 40
6.0
 40
6.0
 40
7.0
 40
7.0
 40
7.0
 40
7.0
 10
15485.13180156371
 20
-3285.556608058789
 30
0.0
 10
15485.13180156371
 20
-3285.556608058789
 30
0.0
 10
15485.13180156371
 20
-3284.527554602407
 30
0.0
 10
15485.13180156371
 20
-3284.527554602407
 30
0.0
 10
15485.13180156371
 20
-3284.527554602407
 30
0.0
 10
15484.98504591138
 20
-3284.212876617118
 30
0.0
 10
15485.89759442982
 20
-3284.212876617118
 30
0.0
 10
15485.89759442982
 20
-3284.212876617118
 30
0.0
 10
15489.48446485072
 20
-3284.212876617118
 30
0.0
 10
15489.48446485072
 20
-3284.212876617118
 30
0.0
 10
15489.48446485072
 20
-3284.212876617118
 30
0.0
 10
15490.58583779923
 20
-3284.20687939094
 30
0.0
 10
15490.71160315995
 20
-3284.43309829012
 30
0.0
 10
15490.71160315995
 20
-3284.43309829012
 30
0.0
 10
15491.78149067103
 20
-3285.556608058789
 30
0.0
 10
15491.78149067103
 20
-3285.556608058789
 30
0.0
 10
15491.78149067103
 20
-3285.556608058789
 30
0.0
 10
15491.90734422625
 20
-3285.723119279706
 30
0.0
 10
15491.90734422625
 20
-3285.974826390136
 30
0.0
 10
15491.90734422625
 20
-3285.974826390136
 30
0.0
 10
15491.90734422625
 20
-3286.289504375427
 30
0.0
 10
15491.90734422625
 20
-3286.289504375427
 30
0.0
  0
POLYLINE
  5
353092
330
18
100
AcDbEntity
  8
姿図
100
AcDb2dPolyline
 66
     1
 10
0.0
 20
0.0
 30
0.0
  0
VERTEX
  5
353093
330
353092
100
AcDbEntity
  8
姿図
100
AcDbVertex
100
AcDb2dVertex
 10
15486.08633066539
 20
-3284.212876617118
 30
0.0
  0
VERTEX
  5
353094
330
353092
100
AcDbEntity
  8
姿図
100
AcDbVertex
100
AcDb2dVertex
 10
15486.08633066539
 20
-3281.613079069362
 30
0.0
  0
SEQEND
  5
353095
330
353092
100
AcDbEntity
  8
姿図
  0
POLYLINE
  5
353096
330
18
100
AcDbEntity
  8
姿図
100
AcDb2dPolyline
 66
     1
 10
0.0
 20
0.0
 30
0.0
  0
VERTEX
  5
353097
330
353096
100
AcDbEntity
  8
姿図
100
AcDbVertex
100
AcDb2dVertex
 10
15491.41565987423
 20
-3285.17252099995
 30
0.0
  0
VERTEX
  5
353098
330
353096
100
AcDbEntity
  8
姿図
100
AcDbVertex
100
AcDb2dVertex
 10
15491.41565987423
 20
-3281.613079069362
 30
0.0
  0
SEQEND
  5
353099
330
353096
100
AcDbEntity
  8
姿図
  0
SPLINE
  5
35309A
330
18
100
AcDbEntity
  8
姿図
100
AcDbSpline
210
0.0
220
0.0
230
1.0
 70
     8
 71
     3
 72
    11
 73
     7
 74
     0
 42
0.000000001
 43
0.0000000001
 40
0.0
 40
0.0
 40
0.0
 40
0.0
 40
1.0
 40
1.0
 40
1.0
 40
2.0
 40
2.0
 40
2.0
 40
2.0
 10
15486.08633066539
 20
-3281.613079069362
 30
0.0
 10
15486.08633066539
 20
-3281.206855190369
 30
0.0
 10
15487.27933770211
 20
-3280.877625112149
 30
0.0
 10
15488.75103936707
 20
-3280.877625112149
 30
0.0
 10
15490.22265283751
 20
-3280.877625112149
 30
0.0
 10
15491.41565987423
 20
-3281.206855190369
 30
0.0
 10
15491.41565987423
 20
-3281.613079069362
 30
0.0
  0
POLYLINE
  5
35309B
330
18
100
AcDbEntity
  8
姿図
100
AcDb2dPolyline
 66
     1
 10
0.0
 20
0.0
 30
0.0
  0
VERTEX
  5
35309C
330
35309B
100
AcDbEntity
  8
姿図
100
AcDbVertex
100
AcDb2dVertex
 10
15497.77501267899
 20
-3286.682763662537
 30
0.0
  0
VERTEX
  5
35309D
330
35309B
100
AcDbEntity
  8
姿図
100
AcDbVertex
100
AcDb2dVertex
 10
15497.77501267899
 20
-3288.397617571166
 30
0.0
  0
SEQEND
  5
35309E
330
35309B
100
AcDbEntity
  8
姿図
  0
POLYLINE
  5
35309F
330
18
100
AcDbEntity
  8
姿図
100
AcDb2dPolyline
 66
     1
 10
0.0
 20
0.0
 30
0.0
  0
VERTEX
  5
3530A0
330
35309F
100
AcDbEntity
  8
姿図
100
AcDbVertex
100
AcDb2dVertex
 10
15499.47416796615
 20
-3285.974826390136
 30
0.0
  0
VERTEX
  5
3530A1
330
35309F
100
AcDbEntity
  8
姿図
100
AcDbVertex
100
AcDb2dVertex
 10
15499.47416796615
 20
-3287.894203350304
 30
0.0
  0
SEQEND
  5
3530A2
330
35309F
100
AcDbEntity
  8
姿図
  0
SPLINE
  5
3530A3
330
18
100
AcDbEntity
  8
姿図
100
AcDbSpline
210
0.0
220
0.0
230
1.0
 70
     8
 71
     3
 72
    11
 73
     7
 74
     0
 42
0.000000001
 43
0.0000000001
 40
0.0
 40
0.0
 40
0.0
 40
0.0
 40
1.0
 40
1.0
 40
1.0
 40
2.0
 40
2.0
 40
2.0
 40
2.0
 10
15483.19134611742
 20
-3306.363807891092
 30
0.0
 10
15483.19134611742
 20
-3306.16828067882
 30
0.0
 10
15485.54737405998
 20
-3306.009795157641
 30
0.0
 10
15488.45373569879
 20
-3306.009795157641
 30
0.0
 10
15491.36009733759
 20
-3306.009795157641
 30
0.0
 10
15493.71612528015
 20
-3306.16828067882
 30
0.0
 10
15493.71612528015
 20
-3306.363807891092
 30
0.0
  0
POLYLINE
  5
3530A4
330
18
100
AcDbEntity
  8
姿図
100
AcDb2dPolyline
 66
     1
 10
0.0
 20
0.0
 30
0.0
  0
VERTEX
  5
3530A5
330
3530A4
100
AcDbEntity
  8
姿図
100
AcDbVertex
100
AcDb2dVertex
 10
15483.19134611742
 20
-3306.363807891092
 30
0.0
  0
VERTEX
  5
3530A6
330
3530A4
100
AcDbEntity
  8
姿図
100
AcDbVertex
100
AcDb2dVertex
 10
15483.19134611742
 20
-3308.330368910153
 30
0.0
  0
SEQEND
  5
3530A7
330
3530A4
100
AcDbEntity
  8
姿図
  0
POLYLINE
  5
3530A8
330
18
100
AcDbEntity
  8
姿図
100
AcDb2dPolyline
 66
     1
 10
0.0
 20
0.0
 30
0.0
  0
VERTEX
  5
3530A9
330
3530A8
100
AcDbEntity
  8
姿図
100
AcDbVertex
100
AcDb2dVertex
 10
15493.71612528015
 20
-3306.363807891092
 30
0.0
  0
VERTEX
  5
3530AA
330
3530A8
100
AcDbEntity
  8
姿図
100
AcDbVertex
100
AcDb2dVertex
 10
15493.71612528015
 20
-3308.330368910153
 30
0.0
  0
SEQEND
  5
3530AB
330
3530A8
100
AcDbEntity
  8
姿図
  0
POLYLINE
  5
3530AC
330
18
100
AcDbEntity
  8
姿図
100
AcDb2dPolyline
 66
     1
 10
0.0
 20
0.0
 30
0.0
  0
VERTEX
  5
3530AD
330
3530AC
100
AcDbEntity
  8
姿図
100
AcDbVertex
100
AcDb2dVertex
 10
15483.19134611742
 20
-3308.330368910153
 30
0.0
  0
VERTEX
  5
3530AE
330
3530AC
100
AcDbEntity
  8
姿図
100
AcDbVertex
100
AcDb2dVertex
 10
15493.71612528015
 20
-3308.330368910153
 30
0.0
  0
SEQEND
  5
3530AF
330
3530AC
100
AcDbEntity
  8
姿図
  0
SPLINE
  5
3530B0
330
18
100
AcDbEntity
  8
姿図
100
AcDbSpline
210
0.0
220
0.0
230
1.0
 70
     8
 71
     3
 72
    32
 73
    28
 74
     0
 42
0.000000001
 43
0.0000000001
 40
0.0
 40
0.0
 40
0.0
 40
0.0
 40
1.0
 40
1.0
 40
1.0
 40
2.0
 40
2.0
 40
2.0
 40
3.0
 40
3.0
 40
3.0
 40
4.0
 40
4.0
 40
4.0
 40
5.0
 40
5.0
 40
5.0
 40
6.0
 40
6.0
 40
6.0
 40
7.0
 40
7.0
 40
7.0
 40
8.0
 40
8.0
 40
8.0
 40
9.0
 40
9.0
 40
9.0
 40
9.0
 10
15481.63383120144
 20
-3308.330368910153
 30
0.0
 10
15481.63383120144
 20
-3308.330368910153
 30
0.0
 10
15479.66735837688
 20
-3308.330368910153
 30
0.0
 10
15479.66735837688
 20
-3308.330368910153
 30
0.0
 10
15479.66735837688
 20
-3308.330368910153
 30
0.0
 10
15479.36837901305
 20
-3308.692142759833
 30
0.0
 10
15479.36837901305
 20
-3308.692142759833
 30
0.0
 10
15479.36837901305
 20
-3308.692142759833
 30
0.0
 10
15479.36837901305
 20
-3310.265356297281
 30
0.0
 10
15479.36837901305
 20
-3310.265356297281
 30
0.0
 10
15479.36837901305
 20
-3310.265356297281
 30
0.0
 10
15479.66735837688
 20
-3310.123804120601
 30
0.0
 10
15479.66735837688
 20
-3310.123804120601
 30
0.0
 10
15479.66735837688
 20
-3310.123804120601
 30
0.0
 10
15479.66735837688
 20
-3310.123804120601
 30
0.0
 10
15479.66735837688
 20
-3310.123804120601
 30
0.0
 10
15479.66735837688
 20
-3310.123804120601
 30
0.0
 10
15495.17927207835
 20
-3310.123804120601
 30
0.0
 10
15495.17927207835
 20
-3310.123804120601
 30
0.0
 10
15495.17927207835
 20
-3310.123804120601
 30
0.0
 10
15497.00692675581
 20
-3310.259800043616
 30
0.0
 10
15497.00692675581
 20
-3310.259800043616
 30
0.0
 10
15497.00692675581
 20
-3310.259800043616
 30
0.0
 10
15499.94627313859
 20
-3310.265356297281
 30
0.0
 10
15499.94627313859
 20
-3310.265356297281
 30
0.0
 10
15499.94627313859
 20
-3310.265356297281
 30
0.0
 10
15501.28347818707
 20
-3310.32832717214
 30
0.0
 10
15501.31487542999
 20
-3311.964511584446
 30
0.0
  0
POLYLINE
  5
3530B1
330
18
100
AcDbEntity
  8
姿図
100
AcDb2dPolyline
 66
     1
 10
0.0
 20
0.0
 30
0.0
  0
VERTEX
  5
3530B2
330
3530B1
100
AcDbEntity
  8
姿図
100
AcDbVertex
100
AcDb2dVertex
 10
15497.74370363056
 20
-3310.265356297281
 30
0.0
  0
VERTEX
  5
3530B3
330
3530B1
100
AcDbEntity
  8
姿図
100
AcDbVertex
100
AcDb2dVertex
 10
15497.74370363056
 20
-3308.692142759833
 30
0.0
  0
VERTEX
  5
3530B4
330
3530B1
100
AcDbEntity
  8
姿図
100
AcDbVertex
100
AcDb2dVertex
 10
15494.99044764828
 20
-3308.330368910153
 30
0.0
  0
VERTEX
  5
3530B5
330
3530B1
100
AcDbEntity
  8
姿図
100
AcDbVertex
100
AcDb2dVertex
 10
15481.63383120144
 20
-3308.330368910153
 30
0.0
  0
SEQEND
  5
3530B6
330
3530B1
100
AcDbEntity
  8
姿図
  0
POLYLINE
  5
3530B7
330
18
100
AcDbEntity
  8
姿図
100
AcDb2dPolyline
 66
     1
 10
0.0
 20
0.0
 30
0.0
  0
VERTEX
  5
3530B8
330
3530B7
100
AcDbEntity
  8
姿図
100
AcDbVertex
100
AcDb2dVertex
 10
15494.99044764828
 20
-3308.330368910153
 30
0.0
  0
VERTEX
  5
3530B9
330
3530B7
100
AcDbEntity
  8
姿図
100
AcDbVertex
100
AcDb2dVertex
 10
15494.99044764828
 20
-3310.123804120601
 30
0.0
  0
SEQEND
  5
3530BA
330
3530B7
100
AcDbEntity
  8
姿図
  0
SPLINE
  5
3530BB
330
18
100
AcDbEntity
  8
姿図
100
AcDbSpline
210
0.0
220
0.0
230
1.0
 70
     8
 71
     3
 72
    23
 73
    19
 74
     0
 42
0.000000001
 43
0.0000000001
 40
0.0
 40
0.0
 40
0.0
 40
0.0
 40
1.0
 40
1.0
 40
1.0
 40
2.0
 40
2.0
 40
2.0
 40
3.0
 40
3.0
 40
3.0
 40
4.0
 40
4.0
 40
4.0
 40
5.0
 40
5.0
 40
5.0
 40
6.0
 40
6.0
 40
6.0
 40
6.0
 10
15499.94627313859
 20
-3310.926109510788
 30
0.0
 10
15499.94627313859
 20
-3310.926109510788
 30
0.0
 10
15497.00692675581
 20
-3310.926109510788
 30
0.0
 10
15497.00692675581
 20
-3310.926109510788
 30
0.0
 10
15497.00692675581
 20
-3310.926109510788
 30
0.0
 10
15494.99044764828
 20
-3310.75307189668
 30
0.0
 10
15494.99044764828
 20
-3310.75307189668
 30
0.0
 10
15494.99044764828
 20
-3310.75307189668
 30
0.0
 10
15479.66735837688
 20
-3310.75307189668
 30
0.0
 10
15479.66735837688
 20
-3310.75307189668
 30
0.0
 10
15479.66735837688
 20
-3310.75307189668
 30
0.0
 10
15479.36837901305
 20
-3310.926109510788
 30
0.0
 10
15479.36837901305
 20
-3310.926109510788
 30
0.0
 10
15479.36837901305
 20
-3310.926109510788
 30
0.0
 10
15475.21503530193
 20
-3310.926109510788
 30
0.0
 10
15475.21503530193
 20
-3310.926109510788
 30
0.0
 10
15475.21503530193
 20
-3310.926109510788
 30
0.0
 10
15474.33414860993
 20
-3311.036352639043
 30
0.0
 10
15474.33414860993
 20
-3311.964511584446
 30
0.0
  0
POLYLINE
  5
3530BC
330
18
100
AcDbEntity
  8
姿図
100
AcDb2dPolyline
 66
     1
 10
0.0
 20
0.0
 30
0.0
  0
VERTEX
  5
3530BD
330
3530BC
100
AcDbEntity
  8
姿図
100
AcDbVertex
100
AcDb2dVertex
 10
15479.66735837688
 20
-3310.75307189668
 30
0.0
  0
VERTEX
  5
3530BE
330
3530BC
100
AcDbEntity
  8
姿図
100
AcDbVertex
100
AcDb2dVertex
 10
15479.66735837688
 20
-3310.123804120601
 30
0.0
  0
VERTEX
  5
3530BF
330
3530BC
100
AcDbEntity
  8
姿図
100
AcDbVertex
100
AcDb2dVertex
 10
15479.66735837688
 20
-3308.330368910153
 30
0.0
  0
SEQEND
  5
3530C0
330
3530BC
100
AcDbEntity
  8
姿図
  0
SPLINE
  5
3530C1
330
18
100
AcDbEntity
  8
姿図
100
AcDbSpline
210
0.0
220
0.0
230
1.0
 70
     8
 71
     3
 72
    14
 73
    10
 74
     0
 42
0.000000001
 43
0.0000000001
 40
0.0
 40
0.0
 40
0.0
 40
0.0
 40
1.0
 40
1.0
 40
1.0
 40
2.0
 40
2.0
 40
2.0
 40
3.0
 40
3.0
 40
3.0
 40
3.0
 10
15479.36837901305
 20
-3310.926109510788
 30
0.0
 10
15479.36837901305
 20
-3310.926109510788
 30
0.0
 10
15479.36837901305
 20
-3310.265356297281
 30
0.0
 10
15479.36837901305
 20
-3310.265356297281
 30
0.0
 10
15479.36837901305
 20
-3310.265356297281
 30
0.0
 10
15475.21503530193
 20
-3310.265356297281
 30
0.0
 10
15475.21503530193
 20
-3310.265356297281
 30
0.0
 10
15475.21503530193
 20
-3310.265356297281
 30
0.0
 10
15473.8149475731
 20
-3310.375599425535
 30
0.0
 10
15473.8149475731
 20
-3311.964511584446
 30
0.0
  0
POLYLINE
  5
3530C2
330
18
100
AcDbEntity
  8
姿図
100
AcDb2dPolyline
 66
     1
 10
0.0
 20
0.0
 30
0.0
  0
VERTEX
  5
3530C3
330
3530C2
100
AcDbEntity
  8
姿図
100
AcDbVertex
100
AcDb2dVertex
 10
15495.17927207835
 20
-3310.75307189668
 30
0.0
  0
VERTEX
  5
3530C4
330
3530C2
100
AcDbEntity
  8
姿図
100
AcDbVertex
100
AcDb2dVertex
 10
15495.17927207835
 20
-3310.123804120601
 30
0.0
  0
SEQEND
  5
3530C5
330
3530C2
100
AcDbEntity
  8
姿図
  0
POLYLINE
  5
3530C6
330
18
100
AcDbEntity
  8
姿図
100
AcDb2dPolyline
 66
     1
 10
0.0
 20
0.0
 30
0.0
  0
VERTEX
  5
3530C7
330
3530C6
100
AcDbEntity
  8
姿図
100
AcDbVertex
100
AcDb2dVertex
 10
15497.00692675581
 20
-3310.926109510788
 30
0.0
  0
VERTEX
  5
3530C8
330
3530C6
100
AcDbEntity
  8
姿図
100
AcDbVertex
100
AcDb2dVertex
 10
15497.00692675581
 20
-3310.259800043616
 30
0.0
  0
SEQEND
  5
3530C9
330
3530C6
100
AcDbEntity
  8
姿図
  0
SPLINE
  5
3530CA
330
18
100
AcDbEntity
  8
姿図
100
AcDbSpline
210
0.0
220
0.0
230
1.0
 70
     8
 71
     3
 72
    17
 73
    13
 74
     0
 42
0.000000001
 43
0.0000000001
 40
0.0
 40
0.0
 40
0.0
 40
0.0
 40
1.0
 40
1.0
 40
1.0
 40
2.0
 40
2.0
 40
2.0
 40
3.0
 40
3.0
 40
3.0
 40
4.0
 40
4.0
 40
4.0
 40
4.0
 10
15481.07282597038
 20
-3311.162117999756
 30
0.0
 10
15481.07282597038
 20
-3311.162117999756
 30
0.0
 10
15480.35950883332
 20
-3311.162117999756
 30
0.0
 10
15480.35950883332
 20
-3311.162117999756
 30
0.0
 10
15480.35950883332
 20
-3311.162117999756
 30
0.0
 10
15479.76172649467
 20
-3311.083448503433
 30
0.0
 10
15479.76172649467
 20
-3311.083448503433
 30
0.0
 10
15479.76172649467
 20
-3311.083448503433
 30
0.0
 10
15477.95250446825
 20
-3311.083448503433
 30
0.0
 10
15477.95250446825
 20
-3311.083448503433
 30
0.0
 10
15477.95250446825
 20
-3311.083448503433
 30
0.0
 10
15477.57494380261
 20
-3311.398126488724
 30
0.0
 10
15477.57494380261
 20
-3311.964511584446
 30
0.0
  0
POLYLINE
  5
3530CB
330
18
100
AcDbEntity
  8
姿図
100
AcDb2dPolyline
 66
     1
 10
0.0
 20
0.0
 30
0.0
  0
VERTEX
  5
3530CC
330
3530CB
100
AcDbEntity
  8
姿図
100
AcDbVertex
100
AcDb2dVertex
 10
15494.09915400496
 20
-3311.162117999756
 30
0.0
  0
VERTEX
  5
3530CD
330
3530CB
100
AcDbEntity
  8
姿図
100
AcDbVertex
100
AcDb2dVertex
 10
15483.05032310776
 20
-3311.162117999756
 30
0.0
  0
SEQEND
  5
3530CE
330
3530CB
100
AcDbEntity
  8
姿図
  0
POLYLINE
  5
3530CF
330
18
100
AcDbEntity
  8
姿図
100
AcDb2dPolyline
 66
     1
 10
0.0
 20
0.0
 30
0.0
  0
VERTEX
  5
3530D0
330
3530CF
100
AcDbEntity
  8
姿図
100
AcDbVertex
100
AcDb2dVertex
 10
15497.13004628144
 20
-3311.083448503433
 30
0.0
  0
VERTEX
  5
3530D1
330
3530CF
100
AcDbEntity
  8
姿図
100
AcDbVertex
100
AcDb2dVertex
 10
15496.04190250832
 20
-3311.134336731435
 30
0.0
  0
SEQEND
  5
3530D2
330
3530CF
100
AcDbEntity
  8
姿図
  0
POLYLINE
  5
3530D3
330
18
100
AcDbEntity
  8
姿図
100
AcDb2dPolyline
 66
     1
 10
0.0
 20
0.0
 30
0.0
  0
VERTEX
  5
3530D4
330
3530D3
100
AcDbEntity
  8
姿図
100
AcDbVertex
100
AcDb2dVertex
 10
15497.13004628144
 20
-3311.083448503433
 30
0.0
  0
VERTEX
  5
3530D5
330
3530D3
100
AcDbEntity
  8
姿図
100
AcDbVertex
100
AcDb2dVertex
 10
15497.13004628144
 20
-3311.083448503433
 30
0.0
  0
SEQEND
  5
3530D6
330
3530D3
100
AcDbEntity
  8
姿図
  0
POLYLINE
  5
3530D7
330
18
100
AcDbEntity
  8
姿図
100
AcDb2dPolyline
 66
     1
 10
0.0
 20
0.0
 30
0.0
  0
VERTEX
  5
3530D8
330
3530D7
100
AcDbEntity
  8
姿図
100
AcDbVertex
100
AcDb2dVertex
 10
15479.76172649467
 20
-3311.083448503433
 30
0.0
  0
VERTEX
  5
3530D9
330
3530D7
100
AcDbEntity
  8
姿図
100
AcDbVertex
100
AcDb2dVertex
 10
15479.76172649467
 20
-3311.083448503433
 30
0.0
  0
SEQEND
  5
3530DA
330
3530D7
100
AcDbEntity
  8
姿図
  0
SPLINE
  5
3530DB
330
18
100
AcDbEntity
  8
姿図
100
AcDbSpline
210
0.0
220
0.0
230
1.0
 70
     8
 71
     3
 72
    17
 73
    13
 74
     0
 42
0.000000001
 43
0.0000000001
 40
0.0
 40
0.0
 40
0.0
 40
0.0
 40
1.0
 40
1.0
 40
1.0
 40
2.0
 40
2.0
 40
2.0
 40
3.0
 40
3.0
 40
3.0
 40
4.0
 40
4.0
 40
4.0
 40
4.0
 10
15499.94627313859
 20
-3310.926109510788
 30
0.0
 10
15499.94627313859
 20
-3310.926109510788
 30
0.0
 10
15500.57536452566
 20
-3311.036352639043
 30
0.0
 10
15500.5596659042
 20
-3311.964511584446
 30
0.0
 10
15500.5596659042
 20
-3311.964511584446
 30
0.0
 10
15499.96197176005
 20
-3347.236139010791
 30
0.0
 10
15499.96197176005
 20
-3347.236139010791
 30
0.0
 10
15499.96197176005
 20
-3347.236139010791
 30
0.0
 10
15499.77305913547
 20
-3349.375737643959
 30
0.0
 10
15500.43381234898
 20
-3349.658841997317
 30
0.0
 10
15500.43381234898
 20
-3349.658841997317
 30
0.0
 10
15501.54409294226
 20
-3349.658841997317
 30
0.0
 10
15501.54409294226
 20
-3349.658841997317
 30
0.0
  0
POLYLINE
  5
3530DC
330
18
100
AcDbEntity
  8
姿図
100
AcDb2dPolyline
 66
     1
 10
0.0
 20
0.0
 30
0.0
  0
VERTEX
  5
3530DD
330
3530DC
100
AcDbEntity
  8
姿図
100
AcDbVertex
100
AcDb2dVertex
 10
15500.61020135419
 20
-3347.362080760509
 30
0.0
  0
VERTEX
  5
3530DE
330
3530DC
100
AcDbEntity
  8
姿図
100
AcDbVertex
100
AcDb2dVertex
 10
15501.31487542999
 20
-3311.964511584446
 30
0.0
  0
SEQEND
  5
3530DF
330
3530DC
100
AcDbEntity
  8
姿図
  0
SPLINE
  5
3530E0
330
18
100
AcDbEntity
  8
姿図
100
AcDbSpline
210
0.0
220
0.0
230
1.0
 70
     8
 71
     3
 72
    14
 73
    10
 74
     0
 42
0.000000001
 43
0.0000000001
 40
0.0
 40
0.0
 40
0.0
 40
0.0
 40
1.0
 40
1.0
 40
1.0
 40
2.0
 40
2.0
 40
2.0
 40
3.0
 40
3.0
 40
3.0
 40
3.0
 10
15499.88321406923
 20
-3310.259800043616
 30
0.0
 10
15499.88321406923
 20
-3310.259800043616
 30
0.0
 10
15502.88800077294
 20
-3310.592910679951
 30
0.0
 10
15502.88800077294
 20
-3310.592910679951
 30
0.0
 10
15502.88800077294
 20
-3310.592910679951
 30
0.0
 10
15503.89482921466
 20
-3310.926109510788
 30
0.0
 10
15503.9264028466
 20
-3311.964511584446
 30
0.0
 10
15503.9264028466
 20
-3311.964511584446
 30
0.0
 10
15502.41016295783
 20
-3346.709265052236
 30
0.0
 10
15502.41016295783
 20
-3346.709265052236
 30
0.0
  0
POLYLINE
  5
3530E1
330
18
100
AcDbEntity
  8
姿図
100
AcDb2dPolyline
 66
     1
 10
0.0
 20
0.0
 30
0.0
  0
VERTEX
  5
3530E2
330
3530E1
100
AcDbEntity
  8
姿図
100
AcDbVertex
100
AcDb2dVertex
 10
15497.13004628144
 20
-3311.083448503433
 30
0.0
  0
VERTEX
  5
3530E3
330
3530E1
100
AcDbEntity
  8
姿図
100
AcDbVertex
100
AcDb2dVertex
 10
15500.24313583435
 20
-3311.083448503433
 30
0.0
  0
SEQEND
  5
3530E4
330
3530E1
100
AcDbEntity
  8
姿図
  0
SPLINE
  5
3530E5
330
18
100
AcDbEntity
  8
姿図
100
AcDbSpline
210
0.0
220
0.0
230
1.0
 70
     8
 71
     3
 72
    11
 73
     7
 74
     0
 42
0.000000001
 43
0.0000000001
 40
0.0
 40
0.0
 40
0.0
 40
0.0
 40
1.0
 40
1.0
 40
1.0
 40
2.0
 40
2.0
 40
2.0
 40
2.0
 10
15481.63391939594
 20
-3308.055025673024
 30
0.0
 10
15481.63391939594
 20
-3307.955101301574
 30
0.0
 10
15481.83112230376
 20
-3307.874138748184
 30
0.0
 10
15482.07436274195
 20
-3307.874138748184
 30
0.0
 10
15482.31769137463
 20
-3307.874138748184
 30
0.0
 10
15482.51489428245
 20
-3307.955101301574
 30
0.0
 10
15482.51489428245
 20
-3308.055025673024
 30
0.0
  0
POLYLINE
  5
3530E6
330
18
100
AcDbEntity
  8
姿図
100
AcDb2dPolyline
 66
     1
 10
0.0
 20
0.0
 30
0.0
  0
VERTEX
  5
3530E7
330
3530E6
100
AcDbEntity
  8
姿図
100
AcDbVertex
100
AcDb2dVertex
 10
15481.63391939594
 20
-3308.055025673024
 30
0.0
  0
VERTEX
  5
3530E8
330
3530E6
100
AcDbEntity
  8
姿図
100
AcDbVertex
100
AcDb2dVertex
 10
15481.63391939594
 20
-3308.33028071565
 30
0.0
  0
SEQEND
  5
3530E9
330
3530E6
100
AcDbEntity
  8
姿図
  0
POLYLINE
  5
3530EA
330
18
100
AcDbEntity
  8
姿図
100
AcDb2dPolyline
 66
     1
 10
0.0
 20
0.0
 30
0.0
  0
VERTEX
  5
3530EB
330
3530EA
100
AcDbEntity
  8
姿図
100
AcDbVertex
100
AcDb2dVertex
 10
15482.51489428245
 20
-3308.055025673024
 30
0.0
  0
VERTEX
  5
3530EC
330
3530EA
100
AcDbEntity
  8
姿図
100
AcDbVertex
100
AcDb2dVertex
 10
15482.51489428245
 20
-3308.33028071565
 30
0.0
  0
SEQEND
  5
3530ED
330
3530EA
100
AcDbEntity
  8
姿図
  0
SPLINE
  5
3530EE
330
18
100
AcDbEntity
  8
姿図
100
AcDbSpline
210
0.0
220
0.0
230
1.0
 70
    11
 71
     3
 72
    17
 73
    13
 74
     0
 42
0.000000001
 43
0.0000000001
 40
0.0
 40
0.0
 40
0.0
 40
0.0
 40
1.0
 40
1.0
 40
1.0
 40
2.0
 40
2.0
 40
2.0
 40
3.0
 40
3.0
 40
3.0
 40
4.0
 40
4.0
 40
4.0
 40
4.0
 10
15482.97897375515
 20
-3311.606530098377
 30
0.0
 10
15482.97897375515
 20
-3311.704337801765
 30
0.0
 10
15482.5739845992
 20
-3311.783536465102
 30
0.0
 10
15482.07445093645
 20
-3311.783536465102
 30
0.0
 10
15481.57474088469
 20
-3311.783536465102
 30
0.0
 10
15481.16983992324
 20
-3311.704337801765
 30
0.0
 10
15481.16983992324
 20
-3311.606530098377
 30
0.0
 10
15481.16983992324
 20
-3311.508810589492
 30
0.0
 10
15481.57474088469
 20
-3311.429523731651
 30
0.0
 10
15482.07445093645
 20
-3311.429523731651
 30
0.0
 10
15482.5739845992
 20
-3311.429523731651
 30
0.0
 10
15482.97897375515
 20
-3311.508810589492
 30
0.0
 10
15482.97897375515
 20
-3311.606530098377
 30
0.0
  0
SPLINE
  5
3530EF
330
18
100
AcDbEntity
  8
姿図
100
AcDbSpline
210
0.0
220
0.0
230
1.0
 70
     8
 71
     3
 72
    11
 73
     7
 74
     0
 42
0.000000001
 43
0.0000000001
 40
0.0
 40
0.0
 40
0.0
 40
0.0
 40
1.0
 40
1.0
 40
1.0
 40
2.0
 40
2.0
 40
2.0
 40
2.0
 10
15481.13315101016
 20
-3311.071454051079
 30
0.0
 10
15481.13315101016
 20
-3310.969677595074
 30
0.0
 10
15481.5545443436
 20
-3310.887303929643
 30
0.0
 10
15482.07445093645
 20
-3310.887303929643
 30
0.0
 10
15482.5942693348
 20
-3310.887303929643
 30
0.0
 10
15483.01557447373
 20
-3310.969677595074
 30
0.0
 10
15483.01557447373
 20
-3311.071454051079
 30
0.0
  0
SPLINE
  5
3530F0
330
18
100
AcDbEntity
  8
姿図
100
AcDbSpline
210
0.0
220
0.0
230
1.0
 70
     8
 71
     3
 72
     8
 73
     4
 74
     0
 42
0.000000001
 43
0.0000000001
 40
0.0
 40
0.0
 40
0.0
 40
0.0
 40
1.0
 40
1.0
 40
1.0
 40
1.0
 10
15481.16983992324
 20
-3311.606530098377
 30
0.0
 10
15481.16983992324
 20
-3311.606530098377
 30
0.0
 10
15480.91557517223
 20
-3311.311078514654
 30
0.0
 10
15481.13315101016
 20
-3311.071454051079
 30
0.0
  0
SPLINE
  5
3530F1
330
18
100
AcDbEntity
  8
姿図
100
AcDbSpline
210
0.0
220
0.0
230
1.0
 70
     8
 71
     3
 72
     8
 73
     4
 74
     0
 42
0.000000001
 43
0.0000000001
 40
0.0
 40
0.0
 40
0.0
 40
0.0
 40
1.0
 40
1.0
 40
1.0
 40
1.0
 10
15482.95322096039
 20
-3311.606530098377
 30
0.0
 10
15482.95322096039
 20
-3311.606530098377
 30
0.0
 10
15483.2074857114
 20
-3311.311078514654
 30
0.0
 10
15482.98990987347
 20
-3311.071454051079
 30
0.0
  0
SPLINE
  5
3530F2
330
18
100
AcDbEntity
  8
姿図
100
AcDbSpline
210
0.0
220
0.0
230
1.0
 70
     8
 71
     3
 72
    11
 73
     7
 74
     0
 42
0.000000001
 43
0.0000000001
 40
0.0
 40
0.0
 40
0.0
 40
0.0
 40
1.0
 40
1.0
 40
1.0
 40
2.0
 40
2.0
 40
2.0
 40
2.0
 10
15494.66007104152
 20
-3308.055025673024
 30
0.0
 10
15494.66007104152
 20
-3307.955101301574
 30
0.0
 10
15494.85736214384
 20
-3307.874138748184
 30
0.0
 10
15495.10060258203
 20
-3307.874138748184
 30
0.0
 10
15495.34393121471
 20
-3307.874138748184
 30
0.0
 10
15495.54113412253
 20
-3307.955101301574
 30
0.0
 10
15495.54113412253
 20
-3308.055025673024
 30
0.0
  0
POLYLINE
  5
3530F3
330
18
100
AcDbEntity
  8
姿図
100
AcDb2dPolyline
 66
     1
 10
0.0
 20
0.0
 30
0.0
  0
VERTEX
  5
3530F4
330
3530F3
100
AcDbEntity
  8
姿図
100
AcDbVertex
100
AcDb2dVertex
 10
15494.66007104152
 20
-3308.055025673024
 30
0.0
  0
VERTEX
  5
3530F5
330
3530F3
100
AcDbEntity
  8
姿図
100
AcDbVertex
100
AcDb2dVertex
 10
15494.66007104152
 20
-3308.33028071565
 30
0.0
  0
SEQEND
  5
3530F6
330
3530F3
100
AcDbEntity
  8
姿図
  0
POLYLINE
  5
3530F7
330
18
100
AcDbEntity
  8
姿図
100
AcDb2dPolyline
 66
     1
 10
0.0
 20
0.0
 30
0.0
  0
VERTEX
  5
3530F8
330
3530F7
100
AcDbEntity
  8
姿図
100
AcDbVertex
100
AcDb2dVertex
 10
15495.54113412253
 20
-3308.055025673024
 30
0.0
  0
VERTEX
  5
3530F9
330
3530F7
100
AcDbEntity
  8
姿図
100
AcDbVertex
100
AcDb2dVertex
 10
15495.54113412253
 20
-3308.402688402287
 30
0.0
  0
SEQEND
  5
3530FA
330
3530F7
100
AcDbEntity
  8
姿図
  0
SPLINE
  5
3530FB
330
18
100
AcDbEntity
  8
姿図
100
AcDbSpline
210
0.0
220
0.0
230
1.0
 70
    11
 71
     3
 72
    17
 73
    13
 74
     0
 42
0.000000001
 43
0.0000000001
 40
0.0
 40
0.0
 40
0.0
 40
0.0
 40
1.0
 40
1.0
 40
1.0
 40
2.0
 40
2.0
 40
2.0
 40
3.0
 40
3.0
 40
3.0
 40
4.0
 40
4.0
 40
4.0
 40
4.0
 10
15496.00521359523
 20
-3311.606530098377
 30
0.0
 10
15496.00521359523
 20
-3311.704337801765
 30
0.0
 10
15495.60022443928
 20
-3311.783536465102
 30
0.0
 10
15495.10077897103
 20
-3311.783536465102
 30
0.0
 10
15494.60106891928
 20
-3311.783536465102
 30
0.0
 10
15494.19607976332
 20
-3311.704337801765
 30
0.0
 10
15494.19607976332
 20
-3311.606530098377
 30
0.0
 10
15494.19607976332
 20
-3311.508810589492
 30
0.0
 10
15494.60106891928
 20
-3311.429523731651
 30
0.0
 10
15495.10077897103
 20
-3311.429523731651
 30
0.0
 10
15495.60022443928
 20
-3311.429523731651
 30
0.0
 10
15496.00521359523
 20
-3311.508810589492
 30
0.0
 10
15496.00521359523
 20
-3311.606530098377
 30
0.0
  0
SPLINE
  5
3530FC
330
18
100
AcDbEntity
  8
姿図
100
AcDbSpline
210
0.0
220
0.0
230
1.0
 70
     8
 71
     3
 72
    11
 73
     7
 74
     0
 42
0.000000001
 43
0.0000000001
 40
0.0
 40
0.0
 40
0.0
 40
0.0
 40
1.0
 40
1.0
 40
1.0
 40
2.0
 40
2.0
 40
2.0
 40
2.0
 10
15494.15939085024
 20
-3311.071454051079
 30
0.0
 10
15494.15939085024
 20
-3310.969677595074
 30
0.0
 10
15494.58078418368
 20
-3310.887303929643
 30
0.0
 10
15495.10077897103
 20
-3310.887303929643
 30
0.0
 10
15495.62059736938
 20
-3310.887303929643
 30
0.0
 10
15496.04190250832
 20
-3310.969677595074
 30
0.0
 10
15496.04190250832
 20
-3311.071454051079
 30
0.0
  0
SPLINE
  5
3530FD
330
18
100
AcDbEntity
  8
姿図
100
AcDbSpline
210
0.0
220
0.0
230
1.0
 70
     8
 71
     3
 72
     8
 73
     4
 74
     0
 42
0.000000001
 43
0.0000000001
 40
0.0
 40
0.0
 40
0.0
 40
0.0
 40
1.0
 40
1.0
 40
1.0
 40
1.0
 10
15494.19607976332
 20
-3311.606530098377
 30
0.0
 10
15494.19607976332
 20
-3311.606530098377
 30
0.0
 10
15493.94181501231
 20
-3311.311078514654
 30
0.0
 10
15494.15939085024
 20
-3311.071454051079
 30
0.0
  0
SPLINE
  5
3530FE
330
18
100
AcDbEntity
  8
姿図
100
AcDbSpline
210
0.0
220
0.0
230
1.0
 70
     8
 71
     3
 72
     8
 73
     4
 74
     0
 42
0.000000001
 43
0.0000000001
 40
0.0
 40
0.0
 40
0.0
 40
0.0
 40
1.0
 40
1.0
 40
1.0
 40
1.0
 10
15495.97946080047
 20
-3311.606530098377
 30
0.0
 10
15495.97946080047
 20
-3311.606530098377
 30
0.0
 10
15496.23372555148
 20
-3311.311078514654
 30
0.0
 10
15496.01614971356
 20
-3311.071454051079
 30
0.0
  0
POLYLINE
  5
3530FF
330
18
100
AcDbEntity
  8
姿図
100
AcDb2dPolyline
 66
     1
 10
0.0
 20
0.0
 30
0.0
  0
VERTEX
  5
353100
330
3530FF
100
AcDbEntity
  8
姿図
100
AcDbVertex
100
AcDb2dVertex
 10
15477.57494380261
 20
-3311.964511584446
 30
0.0
  0
VERTEX
  5
353101
330
3530FF
100
AcDbEntity
  8
姿図
100
AcDbVertex
100
AcDb2dVertex
 10
15476.96632699581
 20
-3337.151992532158
 30
0.0
  0
SEQEND
  5
353102
330
3530FF
100
AcDbEntity
  8
姿図
  0
POLYLINE
  5
353103
330
18
100
AcDbEntity
  8
姿図
100
AcDb2dPolyline
 66
     1
 10
0.0
 20
0.0
 30
0.0
  0
VERTEX
  5
353104
330
353103
100
AcDbEntity
  8
姿図
100
AcDbVertex
100
AcDb2dVertex
 10
15474.33414860993
 20
-3311.964511584446
 30
0.0
  0
VERTEX
  5
353105
330
353103
100
AcDbEntity
  8
姿図
100
AcDbVertex
100
AcDb2dVertex
 10
15474.63303977925
 20
-3339.362662985337
 30
0.0
  0
SEQEND
  5
353106
330
353103
100
AcDbEntity
  8
姿図
  0
POLYLINE
  5
353107
330
18
100
AcDbEntity
  8
姿図
100
AcDb2dPolyline
 66
     1
 10
0.0
 20
0.0
 30
0.0
  0
VERTEX
  5
353108
330
353107
100
AcDbEntity
  8
姿図
100
AcDbVertex
100
AcDb2dVertex
 10
15473.8149475731
 20
-3311.964511584446
 30
0.0
  0
VERTEX
  5
353109
330
353107
100
AcDbEntity
  8
姿図
100
AcDbVertex
100
AcDb2dVertex
 10
15474.12857496688
 20
-3339.882097565177
 30
0.0
  0
SEQEND
  5
35310A
330
353107
100
AcDbEntity
  8
姿図
  0
SPLINE
  5
35310B
330
18
100
AcDbEntity
  8
姿図
100
AcDbSpline
210
0.0
220
0.0
230
1.0
 70
     8
 71
     3
 72
     8
 73
     4
 74
     0
 42
0.000000001
 43
0.0000000001
 40
0.0
 40
0.0
 40
0.0
 40
0.0
 40
1.0
 40
1.0
 40
1.0
 40
1.0
 10
15502.32584901334
 20
-3348.776720582274
 30
0.0
 10
15502.15898501442
 20
-3349.308004265961
 30
0.0
 10
15501.87129454692
 20
-3349.658841997317
 30
0.0
 10
15501.54409294226
 20
-3349.658841997317
 30
0.0
  0
SPLINE
  5
35310C
330
18
100
AcDbEntity
  8
姿図
100
AcDbSpline
210
0.0
220
0.0
230
1.0
 70
     8
 71
     3
 72
    14
 73
    10
 74
     0
 42
0.000000001
 43
0.0000000001
 40
0.0
 40
0.0
 40
0.0
 40
0.0
 40
1.0
 40
1.0
 40
1.0
 40
2.0
 40
2.0
 40
2.0
 40
3.0
 40
3.0
 40
3.0
 40
3.0
 10
15501.54409294226
 20
-3349.658841997317
 30
0.0
 10
15501.02833149103
 20
-3349.658841997317
 30
0.0
 10
15500.61020135419
 20
-3348.785540032536
 30
0.0
 10
15500.61020135419
 20
-3347.708155988727
 30
0.0
 10
15500.61020135419
 20
-3346.630771944918
 30
0.0
 10
15501.02833149103
 20
-3345.757293591131
 30
0.0
 10
15501.54409294226
 20
-3345.757293591131
 30
0.0
 10
15501.86662023828
 20
-3345.757293591131
 30
0.0
 10
15502.15087112018
 20
-3346.098429927202
 30
0.0
 10
15502.31879345313
 20
-3346.617366380523
 30
0.0
  0
SPLINE
  5
35310D
330
18
100
AcDbEntity
  8
姿図
100
AcDbSpline
210
0.0
220
0.0
230
1.0
 70
     8
 71
     3
 72
    14
 73
    10
 74
     0
 42
0.000000001
 43
0.0000000001
 40
0.0
 40
0.0
 40
0.0
 40
0.0
 40
1.0
 40
1.0
 40
1.0
 40
2.0
 40
2.0
 40
2.0
 40
3.0
 40
3.0
 40
3.0
 40
3.0
 10
15501.66095065821
 20
-3348.850451186452
 30
0.0
 10
15501.35888448679
 20
-3348.850451186452
 30
0.0
 10
15501.11396835306
 20
-3348.338923071349
 30
0.0
 10
15501.11396835306
 20
-3347.708155988727
 30
0.0
 10
15501.11396835306
 20
-3347.077212517098
 30
0.0
 10
15501.35888448679
 20
-3346.565684401996
 30
0.0
 10
15501.66095065821
 20
-3346.565684401996
 30
0.0
 10
15501.66095065821
 20
-3346.565684401996
 30
0.0
 10
15501.84245494457
 20
-3346.491424630805
 30
0.0
 10
15502.20793296336
 20
-3346.604137205132
 30
0.0
  0
SPLINE
  5
35310E
330
18
100
AcDbEntity
  8
姿図
100
AcDbSpline
210
0.0
220
0.0
230
1.0
 70
    11
 71
     3
 72
    17
 73
    13
 74
     0
 42
0.000000001
 43
0.0000000001
 40
0.0
 40
0.0
 40
0.0
 40
0.0
 40
1.0
 40
1.0
 40
1.0
 40
2.0
 40
2.0
 40
2.0
 40
3.0
 40
3.0
 40
3.0
 40
4.0
 40
4.0
 40
4.0
 40
4.0
 10
15502.20793296336
 20
-3348.811821994311
 30
0.0
 10
15501.94440778958
 20
-3348.811821994311
 30
0.0
 10
15501.73071250977
 20
-3348.317580001719
 30
0.0
 10
15501.73071250977
 20
-3347.707979599721
 30
0.0
 10
15501.73071250977
 20
-3347.098379197724
 30
0.0
 10
15501.94440778958
 20
-3346.604137205132
 30
0.0
 10
15502.20793296336
 20
-3346.604137205132
 30
0.0
 10
15502.47136994264
 20
-3346.604137205132
 30
0.0
 10
15502.68506522245
 20
-3347.098379197724
 30
0.0
 10
15502.68506522245
 20
-3347.707979599721
 30
0.0
 10
15502.68506522245
 20
-3348.317580001719
 30
0.0
 10
15502.47136994264
 20
-3348.811821994311
 30
0.0
 10
15502.20793296336
 20
-3348.811821994311
 30
0.0
  0
SPLINE
  5
35310F
330
18
100
AcDbEntity
  8
姿図
100
AcDbSpline
210
0.0
220
0.0
230
1.0
 70
     8
 71
     3
 72
     8
 73
     4
 74
     0
 42
0.000000001
 43
0.0000000001
 40
0.0
 40
0.0
 40
0.0
 40
0.0
 40
1.0
 40
1.0
 40
1.0
 40
1.0
 10
15501.66095065821
 20
-3348.850451186452
 30
0.0
 10
15501.66095065821
 20
-3348.850451186452
 30
0.0
 10
15501.84245494457
 20
-3348.924534568638
 30
0.0
 10
15502.20793296336
 20
-3348.811821994311
 30
0.0
  0
SPLINE
  5
353110
330
18
100
AcDbEntity
  8
姿図
100
AcDbSpline
210
0.0
220
0.0
230
1.0
 70
     8
 71
     3
 72
    11
 73
     7
 74
     0
 42
0.000000001
 43
0.0000000001
 40
0.0
 40
0.0
 40
0.0
 40
0.0
 40
1.0
 40
1.0
 40
1.0
 40
2.0
 40
2.0
 40
2.0
 40
2.0
 10
15472.0809554574
 20
-3343.362636456431
 30
0.0
 10
15472.29932504585
 20
-3342.424511532234
 30
0.0
 10
15472.70696003688
 20
-3341.57184708106
 30
0.0
 10
15473.31620766087
 20
-3340.843095906046
 30
0.0
 10
15474.44606743373
 20
-3339.491603348145
 30
0.0
 10
15476.1184115921
 20
-3338.747329940672
 30
0.0
 10
15477.99968852715
 20
-3338.536456884945
 30
0.0
  0
SPLINE
  5
353111
330
18
100
AcDbEntity
  8
姿図
100
AcDbSpline
210
0.0
220
0.0
230
1.0
 70
     8
 71
     3
 72
    11
 73
     7
 74
     0
 42
0.000000001
 43
0.0000000001
 40
0.0
 40
0.0
 40
0.0
 40
0.0
 40
1.0
 40
1.0
 40
1.0
 40
2.0
 40
2.0
 40
2.0
 40
2.0
 10
15496.75089811475
 20
-3354.049693503951
 30
0.0
 10
15496.96529895058
 20
-3356.067583723527
 30
0.0
 10
15496.53605630641
 20
-3357.90150021067
 30
0.0
 10
15495.3774451257
 20
-3359.287565013592
 30
0.0
 10
15494.78028014857
 20
-3360.001764095678
 30
0.0
 10
15494.03159701597
 20
-3360.54645334376
 30
0.0
 10
15493.16923116951
 20
-3360.926748038987
 30
0.0
  0
SPLINE
  5
353112
330
18
100
AcDbEntity
  8
姿図
100
AcDbSpline
210
0.0
220
0.0
230
1.0
 70
     8
 71
     3
 72
    11
 73
     7
 74
     0
 42
0.000000001
 43
0.0000000001
 40
0.0
 40
0.0
 40
0.0
 40
0.0
 40
1.0
 40
1.0
 40
1.0
 40
2.0
 40
2.0
 40
2.0
 40
2.0
 10
15481.88077580873
 20
-3338.881650168136
 30
0.0
 10
15484.56003660333
 20
-3339.527322121699
 30
0.0
 10
15487.45458017879
 20
-3340.911270256559
 30
0.0
 10
15490.13004860978
 20
-3343.148059231597
 30
0.0
 10
15492.65796763791
 20
-3345.261640486497
 30
0.0
 10
15494.54144943552
 20
-3347.742199066732
 30
0.0
 10
15495.6519064178
 20
-3350.194359017128
 30
0.0
  0
SPLINE
  5
353113
330
18
100
AcDbEntity
  8
姿図
100
AcDbSpline
210
0.0
220
0.0
230
1.0
 70
     8
 71
     3
 72
     8
 73
     4
 74
     0
 42
0.000000001
 43
0.0000000001
 40
0.0
 40
0.0
 40
0.0
 40
0.0
 40
1.0
 40
1.0
 40
1.0
 40
1.0
 10
15503.62045611706
 20
-3343.767096445373
 30
0.0
 10
15503.69401033224
 20
-3345.300622456647
 30
0.0
 10
15503.38876915872
 20
-3346.745072020293
 30
0.0
 10
15502.67086590753
 20
-3347.973445052559
 30
0.0
  0
SPLINE
  5
353114
330
18
100
AcDbEntity
  8
姿図
100
AcDbSpline
210
0.0
220
0.0
230
1.0
 70
     8
 71
     3
 72
    11
 73
     7
 74
     0
 42
0.000000001
 43
0.0000000001
 40
0.0
 40
0.0
 40
0.0
 40
0.0
 40
1.0
 40
1.0
 40
1.0
 40
2.0
 40
2.0
 40
2.0
 40
2.0
 10
15490.95810679473
 20
-3330.205780557994
 30
0.0
 10
15493.33618336294
 20
-3330.699669772575
 30
0.0
 10
15495.81956416725
 20
-3331.889413612701
 30
0.0
 10
15498.03941979779
 20
-3333.745114141987
 30
0.0
 10
15498.82161684138
 20
-3334.399164573297
 30
0.0
 10
15499.52831939075
 20
-3335.10004628549
 30
0.0
 10
15500.15511772075
 20
-3335.832148851604
 30
0.0
  0
SPLINE
  5
353115
330
18
100
AcDbEntity
  8
姿図
100
AcDbSpline
210
0.0
220
0.0
230
1.0
 70
     8
 71
     3
 72
     8
 73
     4
 74
     0
 42
0.000000001
 43
0.0000000001
 40
0.0
 40
0.0
 40
0.0
 40
0.0
 40
1.0
 40
1.0
 40
1.0
 40
1.0
 10
15483.1904641724
 20
-3331.729340590474
 30
0.0
 10
15484.22930721857
 20
-3330.832755277004
 30
0.0
 10
15485.53467405161
 20
-3330.278100050129
 30
0.0
 10
15486.98908959405
 20
-3330.055938098069
 30
0.0
  0
SPLINE
  5
353116
330
18
100
AcDbEntity
  8
姿図
100
AcDbSpline
210
0.0
220
0.0
230
1.0
 70
     8
 71
     3
 72
     8
 73
     4
 74
     0
 42
0.000000001
 43
0.0000000001
 40
0.0
 40
0.0
 40
0.0
 40
0.0
 40
1.0
 40
1.0
 40
1.0
 40
1.0
 10
15483.19134611742
 20
-3331.729781562988
 30
0.0
 10
15483.19134611742
 20
-3331.729781562988
 30
0.0
 10
15474.64247659103
 20
-3338.886677254785
 30
0.0
 10
15473.31620766087
 20
-3340.843095906046
 30
0.0
  0
SPLINE
  5
353117
330
18
100
AcDbEntity
  8
姿図
100
AcDbSpline
210
0.0
220
0.0
230
1.0
 70
     8
 71
     3
 72
     8
 73
     4
 74
     0
 42
0.000000001
 43
0.0000000001
 40
0.0
 40
0.0
 40
0.0
 40
0.0
 40
1.0
 40
1.0
 40
1.0
 40
1.0
 10
15501.73573959642
 20
-3349.617390581094
 30
0.0
 10
15500.52615199321
 20
-3351.665619709565
 30
0.0
 10
15497.27821304582
 20
-3357.066298271012
 30
0.0
 10
15495.3774451257
 20
-3359.287565013592
 30
0.0
  0
SPLINE
  5
353118
330
18
100
AcDbEntity
  8
姿図
100
AcDbSpline
210
0.0
220
0.0
230
1.0
 70
     8
 71
     3
 72
    11
 73
     7
 74
     0
 42
0.000000001
 43
0.0000000001
 40
0.0
 40
0.0
 40
0.0
 40
0.0
 40
1.0
 40
1.0
 40
1.0
 40
2.0
 40
2.0
 40
2.0
 40
2.0
 10
15472.76058229447
 20
-3343.304075306702
 30
0.0
 10
15472.98371438606
 20
-3342.659549881673
 30
0.0
 10
15473.31197432475
 20
-3342.067059213181
 30
0.0
 10
15473.7507419752
 20
-3341.542301922689
 30
0.0
 10
15474.7160308062
 20
-3340.387571300097
 30
0.0
 10
15476.09909699603
 20
-3339.700888902823
 30
0.0
 10
15477.72258139996
 20
-3339.457824853647
 30
0.0
  0
SPLINE
  5
353119
330
18
100
AcDbEntity
  8
姿図
100
AcDbSpline
210
0.0
220
0.0
230
1.0
 70
     8
 71
     3
 72
    11
 73
     7
 74
     0
 42
0.000000001
 43
0.0000000001
 40
0.0
 40
0.0
 40
0.0
 40
0.0
 40
1.0
 40
1.0
 40
1.0
 40
2.0
 40
2.0
 40
2.0
 40
2.0
 10
15495.99286636487
 20
-3354.716796721647
 30
0.0
 10
15496.0445483434
 20
-3356.364270030286
 30
0.0
 10
15495.61415917069
 20
-3357.853346012249
 30
0.0
 10
15494.64560714309
 20
-3359.011692609447
 30
0.0
 10
15494.21204296829
 20
-3359.530276284758
 30
0.0
 10
15493.69425304351
 20
-3359.954491842283
 30
0.0
 10
15493.1082005737
 20
-3360.286455950084
 30
0.0
  0
SPLINE
  5
35311A
330
18
100
AcDbEntity
  8
姿図
100
AcDbSpline
210
0.0
220
0.0
230
1.0
 70
     8
 71
     3
 72
     8
 73
     4
 74
     0
 42
0.000000001
 43
0.0000000001
 40
0.0
 40
0.0
 40
0.0
 40
0.0
 40
1.0
 40
1.0
 40
1.0
 40
1.0
 10
15494.25896244368
 20
-3349.699058690505
 30
0.0
 10
15494.34892083633
 20
-3349.863982410375
 30
0.0
 10
15494.43482228187
 20
-3350.029258908254
 30
0.0
 10
15494.51666678029
 20
-3350.194182628123
 30
0.0
  0
SPLINE
  5
35311B
330
18
100
AcDbEntity
  8
姿図
100
AcDbSpline
210
0.0
220
0.0
230
1.0
 70
     8
 71
     3
 72
    17
 73
    13
 74
     0
 42
0.000000001
 43
0.0000000001
 40
0.0
 40
0.0
 40
0.0
 40
0.0
 40
1.0
 40
1.0
 40
1.0
 40
2.0
 40
2.0
 40
2.0
 40
3.0
 40
3.0
 40
3.0
 40
4.0
 40
4.0
 40
4.0
 40
4.0
 10
15481.63803833504
 20
-3339.885312581112
 30
0.0
 10
15482.02973632363
 20
-3339.97005852477
 30
0.0
 10
15482.50748594423
 20
-3340.098734304068
 30
0.0
 10
15482.98911612295
 20
-3340.253692045143
 30
0.0
 10
15482.98911612295
 20
-3340.253692045143
 30
0.0
 10
15483.13684191481
 20
-3340.03505787319
 30
0.0
 10
15483.13684191481
 20
-3340.03505787319
 30
0.0
 10
15485.32194891133
 20
-3340.737791669937
 30
0.0
 10
15487.58775387772
 20
-3341.979746655602
 30
0.0
 10
15489.67567053236
 20
-3343.725292251137
 30
0.0
 10
15491.71313993152
 20
-3345.428504485423
 30
0.0
 10
15493.30840209461
 20
-3347.38377660815
 30
0.0
 10
15494.38684447245
 20
-3349.359862633491
 30
0.0
  0
SPLINE
  5
35311C
330
18
100
AcDbEntity
  8
姿図
100
AcDbSpline
210
0.0
220
0.0
230
1.0
 70
     8
 71
     3
 72
     8
 73
     4
 74
     0
 42
0.000000001
 43
0.0000000001
 40
0.0
 40
0.0
 40
0.0
 40
0.0
 40
1.0
 40
1.0
 40
1.0
 40
1.0
 10
15481.88077580873
 20
-3338.881650168136
 30
0.0
 10
15481.88077580873
 20
-3338.881650168136
 30
0.0
 10
15490.8148789225
 20
-3330.175353454596
 30
0.0
 10
15490.95810679473
 20
-3330.206045141501
 30
0.0
  0
SPLINE
  5
35311D
330
18
100
AcDbEntity
  8
姿図
100
AcDbSpline
210
0.0
220
0.0
230
1.0
 70
     8
 71
     3
 72
    14
 73
    10
 74
     0
 42
0.000000001
 43
0.0000000001
 40
0.0
 40
0.0
 40
0.0
 40
0.0
 40
1.0
 40
1.0
 40
1.0
 40
2.0
 40
2.0
 40
2.0
 40
3.0
 40
3.0
 40
3.0
 40
3.0
 10
15481.88077580873
 20
-3338.881650168136
 30
0.0
 10
15481.88077580873
 20
-3338.881650168136
 30
0.0
 10
15482.0626328731
 20
-3339.731227811718
 30
0.0
 10
15482.0626328731
 20
-3339.731227811718
 30
0.0
 10
15481.69988888389
 20
-3339.63641872142
 30
0.0
 10
15478.33403388652
 20
-3342.07482032941
 30
0.0
 10
15476.68823627343
 20
-3343.286083628171
 30
0.0
 10
15476.68823627343
 20
-3343.286083628171
 30
0.0
 10
15476.39384302374
 20
-3343.611962315293
 30
0.0
 10
15476.68823627343
 20
-3343.682870695386
 30
0.0
  0
POLYLINE
  5
35311E
330
18
100
AcDbEntity
  8
姿図
100
AcDb2dPolyline
 66
     1
 10
0.0
 20
0.0
 30
0.0
  0
VERTEX
  5
35311F
330
35311E
100
AcDbEntity
  8
姿図
100
AcDbVertex
100
AcDb2dVertex
 10
15477.99968852715
 20
-3338.536456884945
 30
0.0
  0
VERTEX
  5
353120
330
35311E
100
AcDbEntity
  8
姿図
100
AcDbVertex
100
AcDb2dVertex
 10
15478.12033860671
 20
-3339.112719764958
 30
0.0
  0
SEQEND
  5
353121
330
35311E
100
AcDbEntity
  8
姿図
  0
POLYLINE
  5
353122
330
18
100
AcDbEntity
  8
姿図
100
AcDb2dPolyline
 66
     1
 10
0.0
 20
0.0
 30
0.0
  0
VERTEX
  5
353123
330
353122
100
AcDbEntity
  8
姿図
100
AcDbVertex
100
AcDb2dVertex
 10
15487.42865099502
 20
-3330.427942510052
 30
0.0
  0
VERTEX
  5
353124
330
353122
100
AcDbEntity
  8
姿図
100
AcDbVertex
100
AcDb2dVertex
 10
15486.98908959405
 20
-3330.056379070582
 30
0.0
  0
VERTEX
  5
353125
330
353122
100
AcDbEntity
  8
姿図
100
AcDbVertex
100
AcDb2dVertex
 10
15477.99968852715
 20
-3338.536456884945
 30
0.0
  0
SEQEND
  5
353126
330
353122
100
AcDbEntity
  8
姿図
  0
SPLINE
  5
353127
330
18
100
AcDbEntity
  8
姿図
100
AcDbSpline
210
0.0
220
0.0
230
1.0
 70
     8
 71
     3
 72
    17
 73
    13
 74
     0
 42
0.000000001
 43
0.0000000001
 40
0.0
 40
0.0
 40
0.0
 40
0.0
 40
1.0
 40
1.0
 40
1.0
 40
2.0
 40
2.0
 40
2.0
 40
3.0
 40
3.0
 40
3.0
 40
4.0
 40
4.0
 40
4.0
 40
4.0
 10
15473.3003326504
 20
-3343.293668355395
 30
0.0
 10
15473.61227660611
 20
-3343.198771070593
 30
0.0
 10
15473.9742268448
 20
-3343.015855672193
 30
0.0
 10
15474.33414860993
 20
-3342.673749196593
 30
0.0
 10
15474.33414860993
 20
-3342.673749196593
 30
0.0
 10
15486.99852640582
 20
-3330.744296190892
 30
0.0
 10
15487.97386941012
 20
-3329.944107468768
 30
0.0
 10
15487.97386941012
 20
-3329.944107468768
 30
0.0
 10
15488.31994463834
 20
-3329.663296172478
 30
0.0
 10
15488.85493249113
 20
-3329.663296172478
 30
0.0
 10
15489.38983214942
 20
-3329.663296172478
 30
0.0
 10
15490.38766475188
 20
-3330.056996432101
 30
0.0
 10
15490.65956840341
 20
-3330.450079330206
 30
0.0
  0
POLYLINE
  5
353128
330
18
100
AcDbEntity
  8
姿図
100
AcDb2dPolyline
 66
     1
 10
0.0
 20
0.0
 30
0.0
  0
VERTEX
  5
353129
330
353128
100
AcDbEntity
  8
姿図
100
AcDbVertex
100
AcDb2dVertex
 10
15495.65128905628
 20
-3350.194182628123
 30
0.0
  0
VERTEX
  5
35312A
330
353128
100
AcDbEntity
  8
姿図
100
AcDbVertex
100
AcDb2dVertex
 10
15500.00210025874
 20
-3343.767096445373
 30
0.0
  0
SEQEND
  5
35312B
330
353128
100
AcDbEntity
  8
姿図
  0
POLYLINE
  5
35312C
330
18
100
AcDbEntity
  8
姿図
100
AcDb2dPolyline
 66
     1
 10
0.0
 20
0.0
 30
0.0
  0
VERTEX
  5
35312D
330
35312C
100
AcDbEntity
  8
姿図
100
AcDbVertex
100
AcDb2dVertex
 10
15494.51657858578
 20
-3350.194182628123
 30
0.0
  0
VERTEX
  5
35312E
330
35312C
100
AcDbEntity
  8
姿図
100
AcDbVertex
100
AcDb2dVertex
 10
15495.65128905628
 20
-3350.194182628123
 30
0.0
  0
SEQEND
  5
35312F
330
35312C
100
AcDbEntity
  8
姿図
  0
POLYLINE
  5
353130
330
18
100
AcDbEntity
  8
姿図
100
AcDb2dPolyline
 66
     1
 10
0.0
 20
0.0
 30
0.0
  0
VERTEX
  5
353131
330
353130
100
AcDbEntity
  8
姿図
100
AcDbVertex
100
AcDb2dVertex
 10
15496.75072172574
 20
-3354.049693503951
 30
0.0
  0
VERTEX
  5
353132
330
353130
100
AcDbEntity
  8
姿図
100
AcDbVertex
100
AcDb2dVertex
 10
15499.91919742629
 20
-3349.658841997317
 30
0.0
  0
SEQEND
  5
353133
330
353130
100
AcDbEntity
  8
姿図
  0
SPLINE
  5
353134
330
18
100
AcDbEntity
  8
姿図
100
AcDbSpline
210
0.0
220
0.0
230
1.0
 70
     8
 71
     3
 72
    14
 73
    10
 74
     0
 42
0.000000001
 43
0.0000000001
 40
0.0
 40
0.0
 40
0.0
 40
0.0
 40
1.0
 40
1.0
 40
1.0
 40
2.0
 40
2.0
 40
2.0
 40
3.0
 40
3.0
 40
3.0
 40
3.0
 10
15500.43381234898
 20
-3349.658841997317
 30
0.0
 10
15500.43381234898
 20
-3349.658841997317
 30
0.0
 10
15499.37971165386
 20
-3349.658841997317
 30
0.0
 10
15499.37971165386
 20
-3349.658841997317
 30
0.0
 10
15499.37971165386
 20
-3349.658841997317
 30
0.0
 10
15499.16733929159
 20
-3349.595165566438
 30
0.0
 10
15498.64822644926
 20
-3350.32717993805
 30
0.0
 10
15498.22180602918
 20
-3350.928313667796
 30
0.0
 10
15494.24538049028
 20
-3356.782488361634
 30
0.0
 10
15492.83814900673
 20
-3358.855235561828
 30
0.0
  0
POLYLINE
  5
353135
330
18
100
AcDbEntity
  8
姿図
100
AcDb2dPolyline
 66
     1
 10
0.0
 20
0.0
 30
0.0
  0
VERTEX
  5
353136
330
353135
100
AcDbEntity
  8
姿図
100
AcDbVertex
100
AcDb2dVertex
 10
15495.99692331199
 20
-3354.716796721647
 30
0.0
  0
VERTEX
  5
353137
330
353135
100
AcDbEntity
  8
姿図
100
AcDbVertex
100
AcDb2dVertex
 10
15495.77158635784
 20
-3354.538114659371
 30
0.0
  0
SEQEND
  5
353138
330
353135
100
AcDbEntity
  8
姿図
  0
POLYLINE
  5
353139
330
18
100
AcDbEntity
  8
姿図
100
AcDb2dPolyline
 66
     1
 10
0.0
 20
0.0
 30
0.0
  0
VERTEX
  5
35313A
330
353139
100
AcDbEntity
  8
姿図
100
AcDbVertex
100
AcDb2dVertex
 10
15494.38657988895
 20
-3349.359862633491
 30
0.0
  0
VERTEX
  5
35313B
330
353139
100
AcDbEntity
  8
姿図
100
AcDbVertex
100
AcDb2dVertex
 10
15494.25896244368
 20
-3349.761147620338
 30
0.0
  0
SEQEND
  5
35313C
330
353139
100
AcDbEntity
  8
姿図
  0
POLYLINE
  5
35313D
330
18
100
AcDbEntity
  8
姿図
100
AcDb2dPolyline
 66
     1
 10
0.0
 20
0.0
 30
0.0
  0
VERTEX
  5
35313E
330
35313D
100
AcDbEntity
  8
姿図
100
AcDbVertex
100
AcDb2dVertex
 10
15496.80399120532
 20
-3353.975786510769
 30
0.0
  0
VERTEX
  5
35313F
330
35313D
100
AcDbEntity
  8
姿図
100
AcDbVertex
100
AcDb2dVertex
 10
15496.31195407529
 20
-3353.744011357926
 30
0.0
  0
SEQEND
  5
353140
330
35313D
100
AcDbEntity
  8
姿図
  0
SPLINE
  5
353141
330
18
100
AcDbEntity
  8
姿図
100
AcDbSpline
210
0.0
220
0.0
230
1.0
 70
     8
 71
     3
 72
    14
 73
    10
 74
     0
 42
0.000000001
 43
0.0000000001
 40
0.0
 40
0.0
 40
0.0
 40
0.0
 40
1.0
 40
1.0
 40
1.0
 40
2.0
 40
2.0
 40
2.0
 40
3.0
 40
3.0
 40
3.0
 40
3.0
 10
15491.85568963006
 20
-3356.076145337782
 30
0.0
 10
15492.18224649087
 20
-3356.4866839999
 30
0.0
 10
15492.34752298875
 20
-3355.967571157574
 30
0.0
 10
15492.34752298875
 20
-3355.967571157574
 30
0.0
 10
15492.34752298875
 20
-3355.967571157574
 30
0.0
 10
15494.66007104152
 20
-3350.917377549475
 30
0.0
 10
15494.66007104152
 20
-3350.917377549475
 30
0.0
 10
15494.87253159829
 20
-3350.421900833846
 30
0.0
 10
15494.66007104152
 20
-3350.194359017128
 30
0.0
 10
15494.66007104152
 20
-3350.194359017128
 30
0.0
  0
SPLINE
  5
353142
330
18
100
AcDbEntity
  8
姿図
100
AcDbSpline
210
0.0
220
0.0
230
1.0
 70
     8
 71
     3
 72
     8
 73
     4
 74
     0
 42
0.000000001
 43
0.0000000001
 40
0.0
 40
0.0
 40
0.0
 40
0.0
 40
1.0
 40
1.0
 40
1.0
 40
1.0
 10
15491.90672686473
 20
-3356.140961549694
 30
0.0
 10
15491.87374212076
 20
-3356.1039198586
 30
0.0
 10
15491.84181571082
 20
-3356.059469829288
 30
0.0
 10
15491.81191777443
 20
-3356.006200349715
 30
0.0
  0
SPLINE
  5
353143
330
18
100
AcDbEntity
  8
姿図
100
AcDbSpline
210
0.0
220
0.0
230
1.0
 70
     8
 71
     3
 72
    11
 73
     7
 74
     0
 42
0.000000001
 43
0.0000000001
 40
0.0
 40
0.0
 40
0.0
 40
0.0
 40
1.0
 40
1.0
 40
1.0
 40
2.0
 40
2.0
 40
2.0
 40
2.0
 10
15495.88421073766
 20
-3349.849871289958
 30
0.0
 10
15495.88421073766
 20
-3349.849871289958
 30
0.0
 10
15492.53625922432
 20
-3356.237622724547
 30
0.0
 10
15492.53625922432
 20
-3356.237622724547
 30
0.0
 10
15492.53625922432
 20
-3356.237622724547
 30
0.0
 10
15492.18118815684
 20
-3356.44805480776
 30
0.0
 10
15491.90672686473
 20
-3356.140961549694
 30
0.0
  0
SPLINE
  5
353144
330
18
100
AcDbEntity
  8
姿図
100
AcDbSpline
210
0.0
220
0.0
230
1.0
 70
     8
 71
     3
 72
     8
 73
     4
 74
     0
 42
0.000000001
 43
0.0000000001
 40
0.0039469307402094
 40
0.0039469307402094
 40
0.0039469307402094
 40
0.0039469307402094
 40
1.0
 40
1.0
 40
1.0
 40
1.0
 10
15503.74766454556
 20
-3338.98845371079
 30
0.0
 10
15504.46714699584
 20
-3341.035756295961
 30
0.0
 10
15504.46846043907
 20
-3342.998934784181
 30
0.0
 10
15503.62627695424
 20
-3344.493289979813
 30
0.0
  0
SPLINE
  5
353145
330
18
100
AcDbEntity
  8
姿図
100
AcDbSpline
210
0.0
220
0.0
230
1.0
 70
     8
 71
     3
 72
     8
 73
     4
 74
     0
 42
0.000000001
 43
0.0000000001
 40
0.0
 40
0.0
 40
0.0
 40
0.0
 40
1.0
 40
1.0
 40
1.0
 40
1.0
 10
15502.83411393185
 20
-3336.998609343043
 30
0.0
 10
15503.03793142737
 20
-3337.358178330158
 30
0.0
 10
15503.22119960377
 20
-3337.71898204031
 30
0.0
 10
15503.38312471056
 20
-3338.078991999938
 30
0.0
  0
SPLINE
  5
353146
330
18
100
AcDbEntity
  8
姿図
100
AcDbSpline
210
0.0
220
0.0
230
1.0
 70
     8
 71
     3
 72
    11
 73
     7
 74
     0
 42
0.000000001
 43
0.0000000001
 40
0.0
 40
0.0
 40
0.0
 40
0.0
 40
1.0
 40
1.0
 40
1.0
 40
2.0
 40
2.0
 40
2.0
 40
2.0
 10
15497.1997199385
 20
-3331.179183283232
 30
0.0
 10
15497.82704743552
 20
-3331.579233547043
 30
0.0
 10
15498.44555548228
 20
-3332.031053983882
 30
0.0
 10
15499.04624823952
 20
-3332.533145287206
 30
0.0
 10
15499.45000267244
 20
-3332.870665648671
 30
0.0
 10
15499.83267861924
 20
-3333.22018046249
 30
0.0
 10
15500.19365871839
 20
-3333.579043893584
 30
0.0
  0
SPLINE
  5
353147
330
18
100
AcDbEntity
  8
姿図
100
AcDbSpline
210
0.0
220
0.0
230
1.0
 70
     8
 71
     3
 72
     8
 73
     4
 74
     0
 42
0.000000001
 43
0.0000000001
 40
0.0220224807344469
 40
0.0220224807344469
 40
0.0220224807344469
 40
0.0220224807344469
 40
1.0
 40
1.0
 40
1.0
 40
1.0
 10
15492.68297248901
 20
-3329.21409554284
 30
0.0
 10
15493.88320505085
 20
-3329.499034086758
 30
0.0
 10
15495.13129784745
 20
-3329.989845778231
 30
0.0
 10
15496.36125480224
 20
-3330.677621146924
 30
0.0
  0
SPLINE
  5
353148
330
18
100
AcDbEntity
  8
姿図
100
AcDbSpline
210
0.0
220
0.0
230
1.0
 70
     8
 71
     3
 72
     8
 73
     4
 74
     0
 42
0.000000001
 43
0.0000000001
 40
0.0
 40
0.0
 40
0.0
 40
0.0
 40
0.9930441751332382
 40
0.9930441751332382
 40
0.9930441751332382
 40
0.9930441751332382
 10
15486.38495725121
 20
-3330.211248617155
 30
0.0
 10
15487.66320248753
 20
-3329.103698822122
 30
0.0
 10
15489.54251010134
 20
-3328.723059655225
 30
0.0
 10
15491.63949752184
 20
-3329.016474587218
 30
0.0
  0
POLYLINE
  5
353149
330
18
100
AcDbEntity
  8
姿図
100
AcDb2dPolyline
 66
     1
 10
0.0
 20
0.0
 30
0.0
  0
VERTEX
  5
35314A
330
353149
100
AcDbEntity
  8
姿図
100
AcDbVertex
100
AcDb2dVertex
 10
15502.45161437405
 20
-3345.757293591131
 30
0.0
  0
VERTEX
  5
35314B
330
353149
100
AcDbEntity
  8
姿図
100
AcDbVertex
100
AcDb2dVertex
 10
15503.62019153356
 20
-3343.767096445373
 30
0.0
  0
VERTEX
  5
35314C
330
353149
100
AcDbEntity
  8
姿図
100
AcDbVertex
100
AcDb2dVertex
 10
15503.62019153356
 20
-3343.767096445373
 30
0.0
  0
VERTEX
  5
35314D
330
353149
100
AcDbEntity
  8
姿図
100
AcDbVertex
100
AcDb2dVertex
 10
15502.91948621037
 20
-3343.483992092014
 30
0.0
  0
SEQEND
  5
35314E
330
353149
100
AcDbEntity
  8
姿図
  0
SPLINE
  5
35314F
330
18
100
AcDbEntity
  8
姿図
100
AcDbSpline
210
0.0
220
0.0
230
1.0
 70
     8
 71
     3
 72
    11
 73
     7
 74
     0
 42
0.000000001
 43
0.0000000001
 40
0.0
 40
0.0
 40
0.0
 40
0.0
 40
1.0
 40
1.0
 40
1.0
 40
2.0
 40
2.0
 40
2.0
 40
2.0
 10
15502.52164080912
 20
-3344.152506421751
 30
0.0
 10
15502.52164080912
 20
-3344.152506421751
 30
0.0
 10
15503.79269998065
 20
-3342.06802935271
 30
0.0
 10
15503.79269998065
 20
-3342.06802935271
 30
0.0
 10
15503.79269998065
 20
-3342.06802935271
 30
0.0
 10
15504.12431131044
 20
-3341.034742560204
 30
0.0
 10
15502.68506522245
 20
-3340.147241280501
 30
0.0
  0
SPLINE
  5
353150
330
18
100
AcDbEntity
  8
姿図
100
AcDbSpline
210
0.0
220
0.0
230
1.0
 70
     8
 71
     3
 72
    29
 73
    25
 74
     0
 42
0.000000001
 43
0.0000000001
 40
0.0
 40
0.0
 40
0.0
 40
0.0
 40
1.0
 40
1.0
 40
1.0
 40
2.0
 40
2.0
 40
2.0
 40
3.0
 40
3.0
 40
3.0
 40
4.0
 40
4.0
 40
4.0
 40
5.0
 40
5.0
 40
5.0
 40
6.0
 40
6.0
 40
6.0
 40
7.0
 40
7.0
 40
7.0
 40
7.921323331948138
 40
7.921323331948138
 40
7.921323331948138
 40
7.921323331948138
 10
15493.45330566239
 20
-3329.423495319897
 30
0.0
 10
15493.45330566239
 20
-3329.423495319897
 30
0.0
 10
15493.43293273229
 20
-3328.921227627569
 30
0.0
 10
15493.43293273229
 20
-3328.921227627569
 30
0.0
 10
15493.43293273229
 20
-3328.921227627569
 30
0.0
 10
15492.37892023167
 20
-3329.332831371221
 30
0.0
 10
15492.37892023167
 20
-3329.332831371221
 30
0.0
 10
15491.87559420531
 20
-3329.600237103116
 30
0.0
 10
15491.63949752184
 20
-3329.191191000039
 30
0.0
 10
15491.63949752184
 20
-3329.191191000039
 30
0.0
 10
15491.63949752184
 20
-3329.191191000039
 30
0.0
 10
15491.63949752184
 20
-3328.263032054636
 30
0.0
 10
15491.63949752184
 20
-3328.263032054636
 30
0.0
 10
15491.63949752184
 20
-3328.263032054636
 30
0.0
 10
15492.72499545989
 20
-3326.941525627621
 30
0.0
 10
15492.72499545989
 20
-3326.941525627621
 30
0.0
 10
15492.72499545989
 20
-3326.941525627621
 30
0.0
 10
15498.55659236106
 20
-3321.182689191099
 30
0.0
 10
15498.55659236106
 20
-3321.182689191099
 30
0.0
 10
15498.55659236106
 20
-3321.182689191099
 30
0.0
 10
15498.81897100631
 20
-3320.867658427798
 30
0.0
 10
15499.17527679683
 20
-3321.370984454159
 30
0.0
 10
15499.17527679683
 20
-3321.370984454159
 30
0.0
 10
15499.17527679683
 20
-3326.286471237683
 30
0.0
 10
15499.17527679683
 20
-3327.059939481644
 30
0.0
  0
POLYLINE
  5
353151
330
18
100
AcDbEntity
  8
姿図
100
AcDb2dPolyline
 66
     1
 10
0.0
 20
0.0
 30
0.0
  0
VERTEX
  5
353152
330
353151
100
AcDbEntity
  8
姿図
100
AcDbVertex
100
AcDb2dVertex
 10
15492.87139833421
 20
-3329.140567355544
 30
0.0
  0
VERTEX
  5
353153
330
353151
100
AcDbEntity
  8
姿図
100
AcDbVertex
100
AcDb2dVertex
 10
15492.87139833421
 20
-3329.260511879086
 30
0.0
  0
SEQEND
  5
353154
330
353151
100
AcDbEntity
  8
姿図
  0
SPLINE
  5
353155
330
18
100
AcDbEntity
  8
姿図
100
AcDbSpline
210
0.0
220
0.0
230
1.0
 70
     8
 71
     3
 72
    11
 73
     7
 74
     0
 42
0.000000001
 43
0.0000000001
 40
0.0
 40
0.0
 40
0.0
 40
0.0
 40
1.0
 40
1.0
 40
1.0
 40
2.0
 40
2.0
 40
2.0
 40
2.0
 10
15492.24856875682
 20
-3329.389628630898
 30
0.0
 10
15492.24856875682
 20
-3329.389628630898
 30
0.0
 10
15492.24856875682
 20
-3328.326002929496
 30
0.0
 10
15492.24856875682
 20
-3328.326002929496
 30
0.0
 10
15492.24856875682
 20
-3328.326002929496
 30
0.0
 10
15491.76526288255
 20
-3328.042810381635
 30
0.0
 10
15491.63949752184
 20
-3328.263032054636
 30
0.0
  0
POLYLINE
  5
353156
330
18
100
AcDbEntity
  8
姿図
100
AcDb2dPolyline
 66
     1
 10
0.0
 20
0.0
 30
0.0
  0
VERTEX
  5
353157
330
353156
100
AcDbEntity
  8
姿図
100
AcDbVertex
100
AcDb2dVertex
 10
15492.24856875682
 20
-3328.326002929496
 30
0.0
  0
VERTEX
  5
353158
330
353156
100
AcDbEntity
  8
姿図
100
AcDbVertex
100
AcDb2dVertex
 10
15499.17527679683
 20
-3321.370984454159
 30
0.0
  0
SEQEND
  5
353159
330
353156
100
AcDbEntity
  8
姿図
  0
SPLINE
  5
35315A
330
18
100
AcDbEntity
  8
姿図
100
AcDbSpline
210
0.0
220
0.0
230
1.0
 70
     8
 71
     3
 72
    29
 73
    25
 74
     0
 42
0.000000001
 43
0.0000000001
 40
0.0
 40
0.0
 40
0.0
 40
0.0
 40
1.0
 40
1.0
 40
1.0
 40
2.0
 40
2.0
 40
2.0
 40
3.0
 40
3.0
 40
3.0
 40
4.0
 40
4.0
 40
4.0
 40
5.0
 40
5.0
 40
5.0
 40
6.0
 40
6.0
 40
6.0
 40
7.0
 40
7.0
 40
7.0
 40
8.0
 40
8.0
 40
8.0
 40
8.0
 10
15495.71187867957
 20
-3323.920952107943
 30
0.0
 10
15495.71187867957
 20
-3323.920952107943
 30
0.0
 10
15494.39310628214
 20
-3321.044312016514
 30
0.0
 10
15494.39310628214
 20
-3321.044312016514
 30
0.0
 10
15494.39310628214
 20
-3321.044312016514
 30
0.0
 10
15494.253053412
 20
-3320.909903594546
 30
0.0
 10
15493.95310390865
 20
-3321.125450958909
 30
0.0
 10
15493.95310390865
 20
-3321.125450958909
 30
0.0
 10
15487.72216229969
 20
-3327.271902234375
 30
0.0
 10
15487.72216229969
 20
-3327.271902234375
 30
0.0
 10
15487.72216229969
 20
-3327.271902234375
 30
0.0
 10
15487.09298271811
 20
-3328.326002929496
 30
0.0
 10
15487.09298271811
 20
-3328.326002929496
 30
0.0
 10
15487.09298271811
 20
-3328.326002929496
 30
0.0
 10
15487.47706977695
 20
-3329.062603415242
 30
0.0
 10
15487.47706977695
 20
-3329.062603415242
 30
0.0
 10
15487.47706977695
 20
-3329.062603415242
 30
0.0
 10
15487.53342606412
 20
-3329.200539617315
 30
0.0
 10
15487.8953763028
 20
-3329.065337444823
 30
0.0
 10
15488.13341326533
 20
-3328.976437386199
 30
0.0
 10
15489.51568570464
 20
-3328.484576645178
 30
0.0
 10
15489.51568570464
 20
-3328.484576645178
 30
0.0
 10
15489.51568570464
 20
-3328.484576645178
 30
0.0
 10
15489.74456561563
 20
-3328.940799024495
 30
0.0
 10
15489.74456561563
 20
-3328.940799024495
 30
0.0
  0
POLYLINE
  5
35315B
330
18
100
AcDbEntity
  8
姿図
100
AcDb2dPolyline
 66
     1
 10
0.0
 20
0.0
 30
0.0
  0
VERTEX
  5
35315C
330
35315B
100
AcDbEntity
  8
姿図
100
AcDbVertex
100
AcDb2dVertex
 10
15489.29475847562
 20
-3328.562364196474
 30
0.0
  0
VERTEX
  5
35315D
330
35315B
100
AcDbEntity
  8
姿図
100
AcDbVertex
100
AcDb2dVertex
 10
15489.50529301227
 20
-3328.961505695224
 30
0.0
  0
SEQEND
  5
35315E
330
35315B
100
AcDbEntity
  8
姿図
  0
SPLINE
  5
35315F
330
18
100
AcDbEntity
  8
姿図
100
AcDbSpline
210
0.0
220
0.0
230
1.0
 70
     8
 71
     3
 72
    14
 73
    10
 74
     0
 42
0.000000001
 43
0.0000000001
 40
0.0
 40
0.0
 40
0.0
 40
0.0
 40
1.0
 40
1.0
 40
1.0
 40
2.0
 40
2.0
 40
2.0
 40
3.0
 40
3.0
 40
3.0
 40
3.0
 10
15487.5938392984
 20
-3329.140567355544
 30
0.0
 10
15487.5938392984
 20
-3329.140567355544
 30
0.0
 10
15487.79148317873
 20
-3329.140567355544
 30
0.0
 10
15487.75373593162
 20
-3328.921227627569
 30
0.0
 10
15487.75373593162
 20
-3328.921227627569
 30
0.0
 10
15487.42865099502
 20
-3328.263032054636
 30
0.0
 10
15487.42865099502
 20
-3328.263032054636
 30
0.0
 10
15487.42865099502
 20
-3328.263032054636
 30
0.0
 10
15487.09298271811
 20
-3328.17915908266
 30
0.0
 10
15487.09298271811
 20
-3328.326002929496
 30
0.0
  0
POLYLINE
  5
353160
330
18
100
AcDbEntity
  8
姿図
100
AcDb2dPolyline
 66
     1
 10
0.0
 20
0.0
 30
0.0
  0
VERTEX
  5
353161
330
353160
100
AcDbEntity
  8
姿図
100
AcDbVertex
100
AcDb2dVertex
 10
15487.42865099502
 20
-3328.263032054636
 30
0.0
  0
VERTEX
  5
353162
330
353160
100
AcDbEntity
  8
姿図
100
AcDbVertex
100
AcDb2dVertex
 10
15488.05615488105
 20
-3327.30832656395
 30
0.0
  0
VERTEX
  5
353163
330
353160
100
AcDbEntity
  8
姿図
100
AcDbVertex
100
AcDb2dVertex
 10
15494.41189171119
 20
-3321.085322460225
 30
0.0
  0
SEQEND
  5
353164
330
353160
100
AcDbEntity
  8
姿図
  0
SPLINE
  5
353165
330
18
100
AcDbEntity
  8
姿図
100
AcDbSpline
210
0.0
220
0.0
230
1.0
 70
     8
 71
     3
 72
    32
 73
    28
 74
     0
 42
0.000000001
 43
0.0000000001
 40
0.0
 40
0.0
 40
0.0
 40
0.0
 40
1.0
 40
1.0
 40
1.0
 40
2.0
 40
2.0
 40
2.0
 40
3.0
 40
3.0
 40
3.0
 40
4.0
 40
4.0
 40
4.0
 40
5.0
 40
5.0
 40
5.0
 40
6.0
 40
6.0
 40
6.0
 40
7.0
 40
7.0
 40
7.0
 40
8.0
 40
8.0
 40
8.0
 40
9.0
 40
9.0
 40
9.0
 40
9.0
 10
15491.59487110353
 20
-3323.451669159588
 30
0.0
 10
15491.59487110353
 20
-3323.451669159588
 30
0.0
 10
15490.73832609424
 20
-3322.566813714964
 30
0.0
 10
15490.73832609424
 20
-3322.566813714964
 30
0.0
 10
15490.73832609424
 20
-3322.566813714964
 30
0.0
 10
15490.67985313901
 20
-3322.410621250853
 30
0.0
 10
15489.70442194021
 20
-3323.354567012221
 30
0.0
 10
15489.70442194021
 20
-3323.354567012221
 30
0.0
 10
15484.48136710701
 20
-3328.239131344431
 30
0.0
 10
15484.48136710701
 20
-3328.239131344431
 30
0.0
 10
15484.48136710701
 20
-3328.239131344431
 30
0.0
 10
15483.49023728675
 20
-3329.663296172478
 30
0.0
 10
15483.49023728675
 20
-3329.663296172478
 30
0.0
 10
15483.49023728675
 20
-3329.663296172478
 30
0.0
 10
15483.36447192603
 20
-3329.741789279794
 30
0.0
 10
15483.64757627939
 20
-3330.056379070582
 30
0.0
 10
15483.64757627939
 20
-3330.056379070582
 30
0.0
 10
15484.13529187879
 20
-3330.512697427055
 30
0.0
 10
15484.13529187879
 20
-3330.512697427055
 30
0.0
 10
15484.13529187879
 20
-3330.512697427055
 30
0.0
 10
15484.19817455915
 20
-3330.575580107411
 30
0.0
 10
15484.38699898922
 20
-3330.512697427055
 30
0.0
 10
15484.38699898922
 20
-3330.512697427055
 30
0.0
 10
15486.30637594939
 20
-3329.566194025111
 30
0.0
 10
15486.30637594939
 20
-3329.566194025111
 30
0.0
 10
15486.30637594939
 20
-3329.566194025111
 30
0.0
 10
15486.67167757917
 20
-3329.982736660907
 30
0.0
 10
15486.67167757917
 20
-3329.982736660907
 30
0.0
  0
POLYLINE
  5
353166
330
18
100
AcDbEntity
  8
姿図
100
AcDb2dPolyline
 66
     1
 10
0.0
 20
0.0
 30
0.0
  0
VERTEX
  5
353167
330
353166
100
AcDbEntity
  8
姿図
100
AcDbVertex
100
AcDb2dVertex
 10
15486.10943762507
 20
-3329.663296172478
 30
0.0
  0
VERTEX
  5
353168
330
353166
100
AcDbEntity
  8
姿図
100
AcDbVertex
100
AcDb2dVertex
 10
15486.49511218496
 20
-3330.056379070582
 30
0.0
  0
SEQEND
  5
353169
330
353166
100
AcDbEntity
  8
姿図
  0
SPLINE
  5
35316A
330
18
100
AcDbEntity
  8
姿図
100
AcDbSpline
210
0.0
220
0.0
230
1.0
 70
     8
 71
     3
 72
    14
 73
    10
 74
     0
 42
0.000000001
 43
0.0000000001
 40
0.0
 40
0.0
 40
0.0
 40
0.0
 40
1.0
 40
1.0
 40
1.0
 40
2.0
 40
2.0
 40
2.0
 40
3.0
 40
3.0
 40
3.0
 40
3.0
 10
15483.49023728675
 20
-3329.663296172478
 30
0.0
 10
15483.49023728675
 20
-3329.663296172478
 30
0.0
 10
15483.67897352232
 20
-3329.490258558369
 30
0.0
 10
15483.80482707753
 20
-3329.663296172478
 30
0.0
 10
15483.80482707753
 20
-3329.663296172478
 30
0.0
 10
15484.37130036776
 20
-3330.292563948556
 30
0.0
 10
15484.37130036776
 20
-3330.292563948556
 30
0.0
 10
15484.37130036776
 20
-3330.292563948556
 30
0.0
 10
15484.44996986408
 20
-3330.371057055874
 30
0.0
 10
15484.38699898922
 20
-3330.512697427055
 30
0.0
  0
POLYLINE
  5
35316B
330
18
100
AcDbEntity
  8
姿図
100
AcDb2dPolyline
 66
     1
 10
0.0
 20
0.0
 30
0.0
  0
VERTEX
  5
35316C
330
35316B
100
AcDbEntity
  8
姿図
100
AcDbVertex
100
AcDb2dVertex
 10
15483.71045895975
 20
-3329.586390566207
 30
0.0
  0
VERTEX
  5
35316D
330
35316B
100
AcDbEntity
  8
姿図
100
AcDbVertex
100
AcDb2dVertex
 10
15484.67804084782
 20
-3328.239131344431
 30
0.0
  0
VERTEX
  5
35316E
330
35316B
100
AcDbEntity
  8
姿図
100
AcDbVertex
100
AcDb2dVertex
 10
15490.73832609424
 20
-3322.566813714964
 30
0.0
  0
SEQEND
  5
35316F
330
35316B
100
AcDbEntity
  8
姿図
  0
SPLINE
  5
353170
330
18
100
AcDbEntity
  8
姿図
100
AcDbSpline
210
0.0
220
0.0
230
1.0
 70
     8
 71
     3
 72
    26
 73
    22
 74
     0
 42
0.000000001
 43
0.0000000001
 40
0.0
 40
0.0
 40
0.0
 40
0.0
 40
1.0
 40
1.0
 40
1.0
 40
2.0
 40
2.0
 40
2.0
 40
3.0
 40
3.0
 40
3.0
 40
4.0
 40
4.0
 40
4.0
 40
5.0
 40
5.0
 40
5.0
 40
6.0
 40
6.0
 40
6.0
 40
7.0
 40
7.0
 40
7.0
 40
7.0
 10
15496.81819052024
 20
-3330.002404034989
 30
0.0
 10
15496.81819052024
 20
-3330.002404034989
 30
0.0
 10
15496.39785552083
 20
-3330.512697427055
 30
0.0
 10
15496.39785552083
 20
-3330.512697427055
 30
0.0
 10
15496.39785552083
 20
-3330.512697427055
 30
0.0
 10
15496.2647700164
 20
-3331.118417270938
 30
0.0
 10
15496.2647700164
 20
-3331.118417270938
 30
0.0
 10
15496.2647700164
 20
-3331.118417270938
 30
0.0
 10
15496.31195407529
 20
-3331.27804932065
 30
0.0
 10
15496.52432643756
 20
-3331.387057725869
 30
0.0
 10
15496.52432643756
 20
-3331.387057725869
 30
0.0
 10
15496.71315086763
 20
-3331.49042168292
 30
0.0
 10
15496.90188710321
 20
-3331.387057725869
 30
0.0
 10
15496.90188710321
 20
-3331.387057725869
 30
0.0
 10
15497.60991257011
 20
-3330.89255114977
 30
0.0
 10
15497.60991257011
 20
-3330.89255114977
 30
0.0
 10
15497.60991257011
 20
-3330.89255114977
 30
0.0
 10
15497.58610005441
 20
-3331.433007061726
 30
0.0
 10
15497.58610005441
 20
-3331.433007061726
 30
0.0
 10
15497.58610005441
 20
-3331.433007061726
 30
0.0
 10
15500.28247058251
 20
-3328.326002929496
 30
0.0
 10
15500.28247058251
 20
-3328.326002929496
 30
0.0
  0
POLYLINE
  5
353171
330
18
100
AcDbEntity
  8
姿図
100
AcDb2dPolyline
 66
     1
 10
0.0
 20
0.0
 30
0.0
  0
VERTEX
  5
353172
330
353171
100
AcDbEntity
  8
姿図
100
AcDbVertex
100
AcDb2dVertex
 10
15497.6299327222
 20
-3329.017006857398
 30
0.0
  0
VERTEX
  5
353173
330
353171
100
AcDbEntity
  8
姿図
100
AcDbVertex
100
AcDb2dVertex
 10
15496.81819052024
 20
-3330.002404034989
 30
0.0
  0
SEQEND
  5
353174
330
353171
100
AcDbEntity
  8
姿図
  0
POLYLINE
  5
353175
330
18
100
AcDbEntity
  8
姿図
100
AcDb2dPolyline
 66
     1
 10
0.0
 20
0.0
 30
0.0
  0
VERTEX
  5
353176
330
353175
100
AcDbEntity
  8
姿図
100
AcDbVertex
100
AcDb2dVertex
 10
15500.3225990812
 20
-3325.95039580736
 30
0.0
  0
VERTEX
  5
353177
330
353175
100
AcDbEntity
  8
姿図
100
AcDbVertex
100
AcDb2dVertex
 10
15498.27066578362
 20
-3328.239131344431
 30
0.0
  0
VERTEX
  5
353178
330
353175
100
AcDbEntity
  8
姿図
100
AcDbVertex
100
AcDb2dVertex
 10
15497.6299327222
 20
-3329.017006857398
 30
0.0
  0
SEQEND
  5
353179
330
353175
100
AcDbEntity
  8
姿図
  0
SPLINE
  5
35317A
330
18
100
AcDbEntity
  8
姿図
100
AcDbSpline
210
0.0
220
0.0
230
1.0
 70
     8
 71
     3
 72
    11
 73
     7
 74
     0
 42
0.000000001
 43
0.0000000001
 40
0.0
 40
0.0
 40
0.0
 40
0.0
 40
1.0
 40
1.0
 40
1.0
 40
2.0
 40
2.0
 40
2.0
 40
2.0
 10
15496.39785552083
 20
-3330.512697427055
 30
0.0
 10
15496.8847773697
 20
-3330.260990316624
 30
0.0
 10
15497.06716360109
 20
-3330.764404537486
 30
0.0
 10
15497.06716360109
 20
-3330.764404537486
 30
0.0
 10
15497.06716360109
 20
-3330.764404537486
 30
0.0
 10
15496.90188710321
 20
-3331.387057725869
 30
0.0
 10
15496.90188710321
 20
-3331.387057725869
 30
0.0
  0
POLYLINE
  5
35317B
330
18
100
AcDbEntity
  8
姿図
100
AcDb2dPolyline
 66
     1
 10
0.0
 20
0.0
 30
0.0
  0
VERTEX
  5
35317C
330
35317B
100
AcDbEntity
  8
姿図
100
AcDbVertex
100
AcDb2dVertex
 10
15497.06716360109
 20
-3330.764404537486
 30
0.0
  0
VERTEX
  5
35317D
330
35317B
100
AcDbEntity
  8
姿図
100
AcDbVertex
100
AcDb2dVertex
 10
15500.3225990812
 20
-3327.035893745407
 30
0.0
  0
SEQEND
  5
35317E
330
35317B
100
AcDbEntity
  8
姿図
  0
SPLINE
  5
35317F
330
18
100
AcDbEntity
  8
姿図
100
AcDbSpline
210
0.0
220
0.0
230
1.0
 70
     8
 71
     3
 72
     8
 73
     4
 74
     0
 42
0.000000001
 43
0.0000000001
 40
0.0
 40
0.0
 40
0.0
 40
0.0
 40
1.0
 40
1.0
 40
1.0
 40
1.0
 10
15503.14544052604
 20
-3329.859793524278
 30
0.0
 10
15503.14544052604
 20
-3329.859793524278
 30
0.0
 10
15503.24986281712
 20
-3330.017132516924
 30
0.0
 10
15503.46232337389
 20
-3329.859793524278
 30
0.0
  0
SPLINE
  5
353180
330
18
100
AcDbEntity
  8
姿図
100
AcDbSpline
210
0.0
220
0.0
230
1.0
 70
     8
 71
     3
 72
    17
 73
    13
 74
     0
 42
0.000000001
 43
0.0000000001
 40
0.0
 40
0.0
 40
0.0
 40
0.0
 40
1.0
 40
1.0
 40
1.0
 40
2.0
 40
2.0
 40
2.0
 40
3.0
 40
3.0
 40
3.0
 40
4.0
 40
4.0
 40
4.0
 40
4.0
 10
15503.0831752072
 20
-3331.285634047874
 30
0.0
 10
15503.0831752072
 20
-3331.285634047874
 30
0.0
 10
15507.07282992149
 20
-3326.351592599704
 30
0.0
 10
15507.07282992149
 20
-3326.351592599704
 30
0.0
 10
15507.07282992149
 20
-3326.351592599704
 30
0.0
 10
15507.31853980574
 20
-3326.249110587678
 30
0.0
 10
15507.48505102666
 20
-3326.433789876131
 30
0.0
 10
15507.65138585857
 20
-3326.618557359086
 30
0.0
 10
15507.60376082717
 20
-3326.693787269807
 30
0.0
 10
15507.56848302612
 20
-3326.764607455397
 30
0.0
 10
15507.56848302612
 20
-3326.764607455397
 30
0.0
 10
15503.01949877632
 20
-3332.745958621989
 30
0.0
 10
15503.01949877632
 20
-3332.745958621989
 30
0.0
  0
POLYLINE
  5
353181
330
18
100
AcDbEntity
  8
姿図
100
AcDb2dPolyline
 66
     1
 10
0.0
 20
0.0
 30
0.0
  0
VERTEX
  5
353182
330
353181
100
AcDbEntity
  8
姿図
100
AcDbVertex
100
AcDb2dVertex
 10
15507.07282992149
 20
-3326.351592599704
 30
0.0
  0
VERTEX
  5
353183
330
353181
100
AcDbEntity
  8
姿図
100
AcDbVertex
100
AcDb2dVertex
 10
15503.17233984933
 20
-3329.242608395057
 30
0.0
  0
SEQEND
  5
353184
330
353181
100
AcDbEntity
  8
姿図
  0
SPLINE
  5
353185
330
18
100
AcDbEntity
  8
姿図
100
AcDbSpline
210
0.0
220
0.0
230
1.0
 70
     8
 71
     3
 72
    14
 73
    10
 74
     0
 42
0.000000001
 43
0.0000000001
 40
0.0
 40
0.0
 40
0.0
 40
0.0
 40
1.0
 40
1.0
 40
1.0
 40
2.0
 40
2.0
 40
2.0
 40
3.0
 40
3.0
 40
3.0
 40
3.0
 10
15503.9264028466
 20
-3331.553392557781
 30
0.0
 10
15503.9264028466
 20
-3331.553392557781
 30
0.0
 10
15504.41808719861
 20
-3332.156819344595
 30
0.0
 10
15504.41808719861
 20
-3332.156819344595
 30
0.0
 10
15504.41808719861
 20
-3332.156819344595
 30
0.0
 10
15504.64218942973
 20
-3332.369103512363
 30
0.0
 10
15505.06693415427
 20
-3332.251099267879
 30
0.0
 10
15505.06693415427
 20
-3332.251099267879
 30
0.0
 10
15502.92627718707
 20
-3334.881059335524
 30
0.0
 10
15502.92627718707
 20
-3334.881059335524
 30
0.0
  0
SPLINE
  5
353186
330
18
100
AcDbEntity
  8
姿図
100
AcDbSpline
210
0.0
220
0.0
230
1.0
 70
     8
 71
     3
 72
    38
 73
    34
 74
     0
 42
0.000000001
 43
0.0000000001
 40
0.0
 40
0.0
 40
0.0
 40
0.0
 40
1.0
 40
1.0
 40
1.0
 40
2.0
 40
2.0
 40
2.0
 40
3.0
 40
3.0
 40
3.0
 40
4.0
 40
4.0
 40
4.0
 40
5.0
 40
5.0
 40
5.0
 40
6.0
 40
6.0
 40
6.0
 40
7.0
 40
7.0
 40
7.0
 40
8.0
 40
8.0
 40
8.0
 40
9.0
 40
9.0
 40
9.0
 40
10.0
 40
10.0
 40
10.0
 40
11.0
 40
11.0
 40
11.0
 40
11.0
 10
15504.4887309952
 20
-3338.811535538567
 30
0.0
 10
15504.4887309952
 20
-3338.811535538567
 30
0.0
 10
15504.6885797381
 20
-3338.376472057222
 30
0.0
 10
15504.2145342866
 20
-3338.312001875818
 30
0.0
 10
15504.17669884499
 20
-3338.306974789169
 30
0.0
 10
15504.13454187274
 20
-3338.304064370584
 30
0.0
 10
15504.08771059186
 20
-3338.304064370584
 30
0.0
 10
15504.08771059186
 20
-3338.304064370584
 30
0.0
 10
15503.69824366836
 20
-3338.304064370584
 30
0.0
 10
15503.69824366836
 20
-3338.304064370584
 30
0.0
 10
15503.48578311159
 20
-3338.304064370584
 30
0.0
 10
15503.30886493936
 20
-3338.374884556175
 30
0.0
 10
15503.30886493936
 20
-3338.669895167385
 30
0.0
 10
15503.30886493936
 20
-3338.964817584092
 30
0.0
 10
15503.63924154612
 20
-3338.98845371079
 30
0.0
 10
15503.63924154612
 20
-3338.98845371079
 30
0.0
 10
15503.63924154612
 20
-3338.98845371079
 30
0.0
 10
15504.08771059186
 20
-3338.98845371079
 30
0.0
 10
15504.08771059186
 20
-3338.98845371079
 30
0.0
 10
15504.31181282297
 20
-3338.98845371079
 30
0.0
 10
15504.4887309952
 20
-3338.811535538567
 30
0.0
 10
15504.4887309952
 20
-3338.811535538567
 30
0.0
 10
15504.4887309952
 20
-3338.811535538567
 30
0.0
 10
15510.18768336445
 20
-3331.118417270938
 30
0.0
 10
15510.18768336445
 20
-3331.118417270938
 30
0.0
 10
15510.32932373563
 20
-3330.941499098715
 30
0.0
 10
15510.31926956234
 20
-3330.715192005033
 30
0.0
 10
15510.25241812936
 20
-3330.566760657151
 30
0.0
 10
15510.18539030738
 20
-3330.418152920263
 30
0.0
 10
15509.97548739119
 20
-3330.45766405743
 30
0.0
 10
15509.97548739119
 20
-3330.45766405743
 30
0.0
 10
15509.97548739119
 20
-3330.45766405743
 30
0.0
 10
15504.15976550049
 20
-3331.246475688718
 30
0.0
 10
15504.15976550049
 20
-3331.246475688718
 30
0.0
  0
SPLINE
  5
353187
330
18
100
AcDbEntity
  8
姿図
100
AcDbSpline
210
0.0
220
0.0
230
1.0
 70
     8
 71
     3
 72
    14
 73
    10
 74
     0
 42
0.000000001
 43
0.0000000001
 40
0.0
 40
0.0
 40
0.0
 40
0.0
 40
1.0
 40
1.0
 40
1.0
 40
2.0
 40
2.0
 40
2.0
 40
3.0
 40
3.0
 40
3.0
 40
3.0
 10
15510.09543191473
 20
-3330.457752251933
 30
0.0
 10
15510.09543191473
 20
-3330.457752251933
 30
0.0
 10
15510.25241812936
 20
-3330.566760657151
 30
0.0
 10
15510.25241812936
 20
-3330.566760657151
 30
0.0
 10
15510.25241812936
 20
-3330.566760657151
 30
0.0
 10
15510.09349163567
 20
-3330.327841749597
 30
0.0
 10
15509.60965659439
 20
-3330.988594963106
 30
0.0
 10
15509.60965659439
 20
-3330.988594963106
 30
0.0
 10
15504.2145342866
 20
-3338.312001875818
 30
0.0
 10
15504.2145342866
 20
-3338.312001875818
 30
0.0
  0
POLYLINE
  5
353188
330
18
100
AcDbEntity
  8
姿図
100
AcDb2dPolyline
 66
     1
 10
0.0
 20
0.0
 30
0.0
  0
VERTEX
  5
353189
330
353188
100
AcDbEntity
  8
姿図
100
AcDbVertex
100
AcDb2dVertex
 10
15503.30886493936
 20
-3338.669895167385
 30
0.0
  0
VERTEX
  5
35318A
330
353188
100
AcDbEntity
  8
姿図
100
AcDbVertex
100
AcDb2dVertex
 10
15503.48578311159
 20
-3337.254020622584
 30
0.0
  0
VERTEX
  5
35318B
330
353188
100
AcDbEntity
  8
姿図
100
AcDbVertex
100
AcDb2dVertex
 10
15502.97522513601
 20
-3337.254020622584
 30
0.0
  0
SEQEND
  5
35318C
330
353188
100
AcDbEntity
  8
姿図
  0
POLYLINE
  5
35318D
330
18
100
AcDbEntity
  8
姿図
100
AcDb2dPolyline
 66
     1
 10
0.0
 20
0.0
 30
0.0
  0
VERTEX
  5
35318E
330
35318D
100
AcDbEntity
  8
姿図
100
AcDbVertex
100
AcDb2dVertex
 10
15503.262827409
 20
-3337.819788356786
 30
0.0
  0
VERTEX
  5
35318F
330
35318D
100
AcDbEntity
  8
姿図
100
AcDbVertex
100
AcDb2dVertex
 10
15503.4152275095
 20
-3337.819788356786
 30
0.0
  0
SEQEND
  5
353190
330
35318D
100
AcDbEntity
  8
姿図
  0
SPLINE
  5
353191
330
18
100
AcDbEntity
  8
姿図
100
AcDbSpline
210
0.0
220
0.0
230
1.0
 70
     8
 71
     3
 72
    32
 73
    28
 74
     0
 42
0.000000001
 43
0.0000000001
 40
0.0
 40
0.0
 40
0.0
 40
0.0
 40
1.0
 40
1.0
 40
1.0
 40
2.0
 40
2.0
 40
2.0
 40
3.0
 40
3.0
 40
3.0
 40
4.0
 40
4.0
 40
4.0
 40
5.0
 40
5.0
 40
5.0
 40
6.0
 40
6.0
 40
6.0
 40
7.0
 40
7.0
 40
7.0
 40
8.0
 40
8.0
 40
8.0
 40
9.0
 40
9.0
 40
9.0
 40
9.0
 10
15507.99481525171
 20
-3334.078665750835
 30
0.0
 10
15507.99481525171
 20
-3334.078665750835
 30
0.0
 10
15511.07280339258
 20
-3334.799744004123
 30
0.0
 10
15511.07280339258
 20
-3334.799744004123
 30
0.0
 10
15511.07280339258
 20
-3334.799744004123
 30
0.0
 10
15511.34408968259
 20
-3334.953202438655
 30
0.0
 10
15511.07280339258
 20
-3335.389765226543
 30
0.0
 10
15511.07280339258
 20
-3335.389765226543
 30
0.0
 10
15506.9784618037
 20
-3341.725922877109
 30
0.0
 10
15506.9784618037
 20
-3341.725922877109
 30
0.0
 10
15506.9784618037
 20
-3341.725922877109
 30
0.0
 10
15505.55076919555
 20
-3343.259801666396
 30
0.0
 10
15505.55076919555
 20
-3343.259801666396
 30
0.0
 10
15505.55076919555
 20
-3343.259801666396
 30
0.0
 10
15505.45631288327
 20
-3343.318803788637
 30
0.0
 10
15505.20857452545
 20
-3343.259801666396
 30
0.0
 10
15505.20857452545
 20
-3343.259801666396
 30
0.0
 10
15504.73664574202
 20
-3343.118161295214
 30
0.0
 10
15504.73664574202
 20
-3343.118161295214
 30
0.0
 10
15504.73664574202
 20
-3343.118161295214
 30
0.0
 10
15504.53600324859
 20
-3343.082707105167
 30
0.0
 10
15504.52418518524
 20
-3342.893970869595
 30
0.0
 10
15504.52418518524
 20
-3342.893970869595
 30
0.0
 10
15504.58318730749
 20
-3341.820202800393
 30
0.0
 10
15504.58318730749
 20
-3341.820202800393
 30
0.0
 10
15504.58318730749
 20
-3341.820202800393
 30
0.0
 10
15504.27344821434
 20
-3341.820202800393
 30
0.0
 10
15504.27344821434
 20
-3341.820202800393
 30
0.0
  0
POLYLINE
  5
353192
330
18
100
AcDbEntity
  8
姿図
100
AcDb2dPolyline
 66
     1
 10
0.0
 20
0.0
 30
0.0
  0
VERTEX
  5
353193
330
353192
100
AcDbEntity
  8
姿図
100
AcDbVertex
100
AcDb2dVertex
 10
15504.25342806225
 20
-3341.312908021416
 30
0.0
  0
VERTEX
  5
353194
330
353192
100
AcDbEntity
  8
姿図
100
AcDbVertex
100
AcDb2dVertex
 10
15504.63037136638
 20
-3341.312908021416
 30
0.0
  0
VERTEX
  5
353195
330
353192
100
AcDbEntity
  8
姿図
100
AcDbVertex
100
AcDb2dVertex
 10
15504.58318730749
 20
-3341.820202800393
 30
0.0
  0
SEQEND
  5
353196
330
353192
100
AcDbEntity
  8
姿図
  0
SPLINE
  5
353197
330
18
100
AcDbEntity
  8
姿図
100
AcDbSpline
210
0.0
220
0.0
230
1.0
 70
     8
 71
     3
 72
    14
 73
    10
 74
     0
 42
0.000000001
 43
0.0000000001
 40
0.0
 40
0.0
 40
0.0
 40
0.0
 40
1.0
 40
1.0
 40
1.0
 40
2.0
 40
2.0
 40
2.0
 40
3.0
 40
3.0
 40
3.0
 40
3.0
 10
15504.52418518524
 20
-3342.893970869595
 30
0.0
 10
15504.52418518524
 20
-3342.893970869595
 30
0.0
 10
15504.57136924414
 20
-3342.693416570674
 30
0.0
 10
15504.74837561086
 20
-3342.740600629566
 30
0.0
 10
15504.74837561086
 20
-3342.740600629566
 30
0.0
 10
15505.47994900996
 20
-3342.953061186339
 30
0.0
 10
15505.47994900996
 20
-3342.953061186339
 30
0.0
 10
15505.47994900996
 20
-3342.953061186339
 30
0.0
 10
15505.64513731334
 20
-3343.082707105167
 30
0.0
 10
15505.55076919555
 20
-3343.259801666396
 30
0.0
  0
POLYLINE
  5
353198
330
18
100
AcDbEntity
  8
姿図
100
AcDb2dPolyline
 66
     1
 10
0.0
 20
0.0
 30
0.0
  0
VERTEX
  5
353199
330
353198
100
AcDbEntity
  8
姿図
100
AcDbVertex
100
AcDb2dVertex
 10
15511.15023816587
 20
-3334.881059335524
 30
0.0
  0
VERTEX
  5
35319A
330
353198
100
AcDbEntity
  8
姿図
100
AcDbVertex
100
AcDb2dVertex
 10
15506.67163312914
 20
-3341.566555410905
 30
0.0
  0
VERTEX
  5
35319B
330
353198
100
AcDbEntity
  8
姿図
100
AcDbVertex
100
AcDb2dVertex
 10
15505.47994900996
 20
-3342.953061186339
 30
0.0
  0
SEQEND
  5
35319C
330
353198
100
AcDbEntity
  8
姿図
  0
SPLINE
  5
35319D
330
18
100
AcDbEntity
  8
姿図
100
AcDbSpline
210
0.0
220
0.0
230
1.0
 70
     8
 71
     3
 72
     8
 73
     4
 74
     0
 42
0.000000001
 43
0.0000000001
 40
1.0
 40
1.0
 40
1.0
 40
1.0
 40
2.0
 40
2.0
 40
2.0
 40
2.0
 10
15504.63037136638
 20
-3347.181987586192
 30
0.0
 10
15504.63037136638
 20
-3347.181987586192
 30
0.0
 10
15504.8073777331
 20
-3347.070862512911
 30
0.0
 10
15504.63037136638
 20
-3346.893944340688
 30
0.0
  0
SPLINE
  5
35319E
330
18
100
AcDbEntity
  8
姿図
100
AcDbSpline
210
0.0
220
0.0
230
1.0
 70
     8
 71
     3
 72
     8
 73
     4
 74
     0
 42
0.000000001
 43
0.0000000001
 40
2.0
 40
2.0
 40
2.0
 40
2.0
 40
3.0
 40
3.0
 40
3.0
 40
3.0
 10
15504.63037136638
 20
-3346.893944340688
 30
0.0
 10
15504.45336499965
 20
-3346.716849779461
 30
0.0
 10
15504.01689040627
 20
-3346.433745426102
 30
0.0
 10
15504.01689040627
 20
-3346.433745426102
 30
0.0
  0
SPLINE
  5
35319F
330
18
100
AcDbEntity
  8
姿図
100
AcDbSpline
210
0.0
220
0.0
230
1.0
 70
     8
 71
     3
 72
     8
 73
     4
 74
     0
 42
0.000000001
 43
0.0000000001
 40
3.0
 40
3.0
 40
3.0
 40
3.0
 40
4.0
 40
4.0
 40
4.0
 40
4.0
 10
15504.01689040627
 20
-3346.433745426102
 30
0.0
 10
15503.87525003509
 20
-3346.339377308315
 30
0.0
 10
15503.82568472462
 20
-3346.4573815528
 30
0.0
 10
15503.82568472462
 20
-3346.4573815528
 30
0.0
  0
SPLINE
  5
3531A0
330
18
100
AcDbEntity
  8
姿図
100
AcDbSpline
210
0.0
220
0.0
230
1.0
 70
     8
 71
     3
 72
     8
 73
     4
 74
     0
 42
0.000000001
 43
0.0000000001
 40
4.0
 40
4.0
 40
4.0
 40
4.0
 40
5.0
 40
5.0
 40
5.0
 40
5.0
 10
15503.82568472462
 20
-3346.4573815528
 30
0.0
 10
15503.65811516968
 20
-3346.622481661674
 30
0.0
 10
15503.82568472462
 20
-3346.709265052236
 30
0.0
 10
15503.82568472462
 20
-3346.709265052236
 30
0.0
  0
SPLINE
  5
3531A1
330
18
100
AcDbEntity
  8
姿図
100
AcDbSpline
210
0.0
220
0.0
230
1.0
 70
    24
 71
     3
 72
     8
 73
     4
 74
     0
 42
0.000000001
 43
0.0000000001
 40
5.0
 40
5.0
 40
5.0
 40
5.0
 40
6.0
 40
6.0
 40
6.0
 40
6.0
 10
15503.82568472462
 20
-3346.709265052236
 30
0.0
 10
15503.82568472462
 20
-3346.709265052236
 30
0.0
 10
15504.32363088632
 20
-3347.08268057626
 30
0.0
 10
15504.32363088632
 20
-3347.08268057626
 30
0.0
  0
SPLINE
  5
3531A2
330
18
100
AcDbEntity
  8
姿図
100
AcDbSpline
210
0.0
220
0.0
230
1.0
 70
     8
 71
     3
 72
     8
 73
     4
 74
     0
 42
0.000000001
 43
0.0000000001
 40
6.0
 40
6.0
 40
6.0
 40
6.0
 40
7.0
 40
7.0
 40
7.0
 40
7.0
 10
15504.32363088632
 20
-3347.08268057626
 30
0.0
 10
15504.61855330303
 20
-3347.318689065228
 30
0.0
 10
15504.79555966976
 20
-3347.08268057626
 30
0.0
 10
15504.79555966976
 20
-3347.08268057626
 30
0.0
  0
SPLINE
  5
3531A3
330
18
100
AcDbEntity
  8
姿図
100
AcDbSpline
210
0.0
220
0.0
230
1.0
 70
    24
 71
     3
 72
     8
 73
     4
 74
     0
 42
0.000000001
 43
0.0000000001
 40
7.0
 40
7.0
 40
7.0
 40
7.0
 40
8.0
 40
8.0
 40
8.0
 40
8.0
 10
15504.79555966976
 20
-3347.08268057626
 30
0.0
 10
15504.79555966976
 20
-3347.08268057626
 30
0.0
 10
15505.9519659879
 20
-3345.870358943469
 30
0.0
 10
15505.9519659879
 20
-3345.870358943469
 30
0.0
  0
SPLINE
  5
3531A4
330
18
100
AcDbEntity
  8
姿図
100
AcDbSpline
210
0.0
220
0.0
230
1.0
 70
    24
 71
     3
 72
     8
 73
     4
 74
     0
 42
0.000000001
 43
0.0000000001
 40
8.0
 40
8.0
 40
8.0
 40
8.0
 40
9.0
 40
9.0
 40
9.0
 40
9.0
 10
15505.9519659879
 20
-3345.870358943469
 30
0.0
 10
15505.9519659879
 20
-3345.870358943469
 30
0.0
 10
15510.29951399375
 20
-3338.98845371079
 30
0.0
 10
15510.29951399375
 20
-3338.98845371079
 30
0.0
  0
SPLINE
  5
3531A5
330
18
100
AcDbEntity
  8
姿図
100
AcDbSpline
210
0.0
220
0.0
230
1.0
 70
     8
 71
     3
 72
     8
 73
     4
 74
     0
 42
0.000000001
 43
0.0000000001
 40
9.0
 40
9.0
 40
9.0
 40
9.0
 40
10.0
 40
10.0
 40
10.0
 40
10.0
 10
15510.29951399375
 20
-3338.98845371079
 30
0.0
 10
15510.45861687645
 20
-3338.740715352976
 30
0.0
 10
15510.25241812936
 20
-3338.599074981794
 30
0.0
 10
15510.25241812936
 20
-3338.599074981794
 30
0.0
  0
SPLINE
  5
3531A6
330
18
100
AcDbEntity
  8
姿図
100
AcDbSpline
210
0.0
220
0.0
230
1.0
 70
    24
 71
     3
 72
     8
 73
     4
 74
     0
 42
0.000000001
 43
0.0000000001
 40
10.0
 40
10.0
 40
10.0
 40
10.0
 40
11.0
 40
11.0
 40
11.0
 40
11.0
 10
15510.25241812936
 20
-3338.599074981794
 30
0.0
 10
15510.25241812936
 20
-3338.599074981794
 30
0.0
 10
15509.38176199966
 20
-3338.006760702306
 30
0.0
 10
15509.38176199966
 20
-3338.006760702306
 30
0.0
  0
POLYLINE
  5
3531A7
330
18
100
AcDbEntity
  8
姿図
100
AcDb2dPolyline
 66
     1
 10
0.0
 20
0.0
 30
0.0
  0
VERTEX
  5
3531A8
330
3531A7
100
AcDbEntity
  8
姿図
100
AcDbVertex
100
AcDb2dVertex
 10
15503.9264028466
 20
-3346.397585680034
 30
0.0
  0
VERTEX
  5
3531A9
330
3531A7
100
AcDbEntity
  8
姿図
100
AcDbVertex
100
AcDb2dVertex
 10
15504.1466245196
 20
-3344.734590138936
 30
0.0
  0
VERTEX
  5
3531AA
330
3531A7
100
AcDbEntity
  8
姿図
100
AcDbVertex
100
AcDb2dVertex
 10
15503.62627695424
 20
-3344.493289979813
 30
0.0
  0
SEQEND
  5
3531AB
330
3531A7
100
AcDbEntity
  8
姿図
  0
POLYLINE
  5
3531AC
330
18
100
AcDbEntity
  8
姿図
100
AcDb2dPolyline
 66
     1
 10
0.0
 20
0.0
 30
0.0
  0
VERTEX
  5
3531AD
330
3531AC
100
AcDbEntity
  8
姿図
100
AcDbVertex
100
AcDb2dVertex
 10
15503.97164662643
 20
-3345.026161164544
 30
0.0
  0
VERTEX
  5
3531AE
330
3531AC
100
AcDbEntity
  8
姿図
100
AcDbVertex
100
AcDb2dVertex
 10
15503.62627695424
 20
-3344.844833267191
 30
0.0
  0
SEQEND
  5
3531AF
330
3531AC
100
AcDbEntity
  8
姿図
  0
POLYLINE
  5
3531B0
330
18
100
AcDbEntity
  8
姿図
100
AcDb2dPolyline
 66
     1
 10
0.0
 20
0.0
 30
0.0
  0
VERTEX
  5
3531B1
330
3531B0
100
AcDbEntity
  8
姿図
100
AcDbVertex
100
AcDb2dVertex
 10
15503.75116036992
 20
-3346.604137205132
 30
0.0
  0
VERTEX
  5
3531B2
330
3531B0
100
AcDbEntity
  8
姿図
100
AcDbVertex
100
AcDb2dVertex
 10
15503.97164662643
 20
-3345.026161164544
 30
0.0
  0
VERTEX
  5
3531B3
330
3531B0
100
AcDbEntity
  8
姿図
100
AcDbVertex
100
AcDb2dVertex
 10
15504.1466245196
 20
-3344.734590138936
 30
0.0
  0
SEQEND
  5
3531B4
330
3531B0
100
AcDbEntity
  8
姿図
  0
SPLINE
  5
3531B5
330
18
100
AcDbEntity
  8
姿図
100
AcDbSpline
210
0.0
220
0.0
230
1.0
 70
     8
 71
     3
 72
    14
 73
    10
 74
     0
 42
0.000000001
 43
0.0000000001
 40
0.0
 40
0.0
 40
0.0
 40
0.0
 40
1.0
 40
1.0
 40
1.0
 40
2.0
 40
2.0
 40
2.0
 40
3.0
 40
3.0
 40
3.0
 40
3.0
 10
15501.79862227678
 20
-3349.548069702048
 30
0.0
 10
15501.79862227678
 20
-3349.548069702048
 30
0.0
 10
15502.13102735709
 20
-3349.85163518001
 30
0.0
 10
15502.31879345313
 20
-3349.658841997317
 30
0.0
 10
15502.31879345313
 20
-3349.658841997317
 30
0.0
 10
15503.32068300271
 20
-3348.592923238848
 30
0.0
 10
15503.32068300271
 20
-3348.592923238848
 30
0.0
 10
15503.32068300271
 20
-3348.592923238848
 30
0.0
 10
15504.3770767549
 20
-3347.121133379396
 30
0.0
 10
15504.3770767549
 20
-3347.121133379396
 30
0.0
  0
SPLINE
  5
3531B6
330
18
100
AcDbEntity
  8
姿図
100
AcDbSpline
210
0.0
220
0.0
230
1.0
 70
     8
 71
     3
 72
     8
 73
     4
 74
     0
 42
0.000000001
 43
0.0000000001
 40
0.0
 40
0.0
 40
0.0
 40
0.0
 40
1.0
 40
1.0
 40
1.0
 40
1.0
 10
15502.20793296336
 20
-3349.725693430292
 30
0.0
 10
15502.20793296336
 20
-3349.725693430292
 30
0.0
 10
15502.52164080912
 20
-3349.617390581094
 30
0.0
 10
15502.06214745056
 20
-3349.330758447632
 30
0.0
  0
POLYLINE
  5
3531B7
330
18
100
AcDbEntity
  8
姿図
100
AcDb2dPolyline
 66
     1
 10
0.0
 20
0.0
 30
0.0
  0
VERTEX
  5
3531B8
330
3531B7
100
AcDbEntity
  8
姿図
100
AcDbVertex
100
AcDb2dVertex
 10
15499.17527679683
 20
-3327.230186234643
 30
0.0
  0
VERTEX
  5
3531B9
330
3531B7
100
AcDbEntity
  8
姿図
100
AcDbVertex
100
AcDb2dVertex
 10
15499.17527679683
 20
-3327.230186234643
 30
0.0
  0
SEQEND
  5
3531BA
330
3531B7
100
AcDbEntity
  8
姿図
  0
SPLINE
  5
3531BB
330
18
100
AcDbEntity
  8
姿図
100
AcDbSpline
210
0.0
220
0.0
230
1.0
 70
     8
 71
     3
 72
    14
 73
    10
 74
     0
 42
0.000000001
 43
0.0000000001
 40
0.0478849985969701
 40
0.0478849985969701
 40
0.0478849985969701
 40
0.0478849985969701
 40
1.0
 40
1.0
 40
1.0
 40
2.0
 40
2.0
 40
2.0
 40
3.0
 40
3.0
 40
3.0
 40
3.0
 10
15499.2816678291
 20
-3327.111455161059
 30
0.0
 10
15498.74487484613
 20
-3326.842767046806
 30
0.0
 10
15497.99046872625
 20
-3326.60749335848
 30
0.0
 10
15497.43802148454
 20
-3326.480444768009
 30
0.0
 10
15497.43802148454
 20
-3326.480444768009
 30
0.0
 10
15497.06716360109
 20
-3326.469508649685
 30
0.0
 10
15497.06716360109
 20
-3325.95039580736
 30
0.0
 10
15497.06716360109
 20
-3325.95039580736
 30
0.0
 10
15493.79946908511
 20
-3329.534620393179
 30
0.0
 10
15493.79946908511
 20
-3329.534620393179
 30
0.0
  0
SPLINE
  5
3531BC
330
18
100
AcDbEntity
  8
姿図
100
AcDbSpline
210
0.0
220
0.0
230
1.0
 70
     8
 71
     3
 72
    14
 73
    10
 74
     0
 42
0.000000001
 43
0.0000000001
 40
0.0
 40
0.0
 40
0.0
 40
0.0
 40
1.0
 40
1.0
 40
1.0
 40
2.0
 40
2.0
 40
2.0
 40
3.0
 40
3.0
 40
3.0
 40
3.0
 10
15497.6298445277
 20
-3329.015595745355
 30
0.0
 10
15497.5992410353
 20
-3328.759478909794
 30
0.0
 10
15497.47021247799
 20
-3328.502391934704
 30
0.0
 10
15497.25016719399
 20
-3328.304748054368
 30
0.0
 10
15496.810076626
 20
-3327.909636682703
 30
0.0
 10
15496.17207759416
 20
-3327.902669316998
 30
0.0
 10
15495.82520861542
 20
-3328.289049432905
 30
0.0
 10
15495.82520861542
 20
-3328.289049432905
 30
0.0
 10
15494.41189171119
 20
-3329.756341372724
 30
0.0
 10
15494.41189171119
 20
-3329.756341372724
 30
0.0
  0
SPLINE
  5
3531BD
330
18
100
AcDbEntity
  8
姿図
100
AcDbSpline
210
0.0
220
0.0
230
1.0
 70
     8
 71
     3
 72
    14
 73
    10
 74
     0
 42
0.000000001
 43
0.0000000001
 40
0.0
 40
0.0
 40
0.0
 40
0.0
 40
1.0
 40
1.0
 40
1.0
 40
2.0
 40
2.0
 40
2.0
 40
3.0
 40
3.0
 40
3.0
 40
3.0
 10
15497.2267956508
 20
-3329.440693247905
 30
0.0
 10
15497.17520186678
 20
-3329.342620961009
 30
0.0
 10
15497.10455807019
 20
-3329.250369511287
 30
0.0
 10
15497.01539342806
 20
-3329.170200708419
 30
0.0
 10
15496.65847027602
 20
-3328.849790080459
 30
0.0
 10
15496.14103312924
 20
-3328.844145632293
 30
0.0
 10
15495.85969266594
 20
-3329.157500700044
 30
0.0
 10
15495.85969266594
 20
-3329.157500700044
 30
0.0
 10
15495.12856023935
 20
-3330.056379070582
 30
0.0
 10
15495.12856023935
 20
-3330.056379070582
 30
0.0
  0
SPLINE
  5
3531BE
330
18
100
AcDbEntity
  8
姿図
100
AcDbSpline
210
0.0
220
0.0
230
1.0
 70
     8
 71
     3
 72
    11
 73
     7
 74
     0
 42
0.000000001
 43
0.0000000001
 40
0.0
 40
0.0
 40
0.0
 40
0.0
 40
1.0
 40
1.0
 40
1.0
 40
2.0
 40
2.0
 40
2.0
 40
2.0
 10
15491.81191777443
 20
-3356.006200349715
 30
0.0
 10
15491.81191777443
 20
-3356.006200349715
 30
0.0
 10
15493.79479477648
 20
-3351.609704394914
 30
0.0
 10
15493.79479477648
 20
-3351.609704394914
 30
0.0
 10
15493.79479477648
 20
-3351.609704394914
 30
0.0
 10
15493.88140177803
 20
-3351.23223192377
 30
0.0
 10
15494.32263887456
 20
-3351.609704394914
 30
0.0
  0
SPLINE
  5
3531BF
330
18
100
AcDbEntity
  8
姿図
100
AcDbSpline
210
0.0
220
0.0
230
1.0
 70
     8
 71
     3
 72
     8
 73
     4
 74
     0
 42
0.000000001
 43
0.0000000001
 40
0.0
 40
0.0
 40
0.0
 40
0.0
 40
1.0
 40
1.0
 40
1.0
 40
1.0
 10
15490.8283726814
 20
-3354.182338035867
 30
0.0
 10
15491.31926328289
 20
-3353.285399944387
 30
0.0
 10
15492.23348749688
 20
-3351.148270757291
 30
0.0
 10
15492.80225384417
 20
-3346.952505490417
 30
0.0
  0
SPLINE
  5
3531C0
330
18
100
AcDbEntity
  8
姿図
100
AcDbSpline
210
0.0
220
0.0
230
1.0
 70
     8
 71
     3
 72
     8
 73
     4
 74
     0
 42
0.000000001
 43
0.0000000001
 40
0.0
 40
0.0
 40
0.0
 40
0.0
 40
1.0
 40
1.0
 40
1.0
 40
1.0
 10
15477.89385512402
 20
-3344.008484798999
 30
0.0
 10
15478.64915284432
 20
-3343.39950175852
 30
0.0
 10
15480.75453201048
 20
-3341.862977134156
 30
0.0
 10
15484.30780032588
 20
-3340.460684542756
 30
0.0
  0
SPLINE
  5
3531C1
330
18
100
AcDbEntity
  8
姿図
100
AcDbSpline
210
0.0
220
0.0
230
1.0
 70
     8
 71
     3
 72
     8
 73
     4
 74
     0
 42
0.000000001
 43
0.0000000001
 40
0.0
 40
0.0
 40
0.0
 40
0.0
 40
1.0
 40
1.0
 40
1.0
 40
1.0
 10
15492.83841359024
 20
-3358.855411950834
 30
0.0
 10
15493.55384739536
 20
-3361.735315238858
 30
0.0
 10
15493.30928403964
 20
-3364.281666918036
 30
0.0
 10
15491.71340451503
 20
-3366.190548732393
 30
0.0
  0
SPLINE
  5
3531C2
330
18
100
AcDbEntity
  8
姿図
100
AcDbSpline
210
0.0
220
0.0
230
1.0
 70
     8
 71
     3
 72
    11
 73
     7
 74
     0
 42
0.000000001
 43
0.0000000001
 40
0.0
 40
0.0
 40
0.0
 40
0.0
 40
1.0
 40
1.0
 40
1.0
 40
2.0
 40
2.0
 40
2.0
 40
2.0
 10
15474.98378931611
 20
-3343.38159827449
 30
0.0
 10
15478.42690269776
 20
-3343.790556183065
 30
0.0
 10
15482.31539831756
 20
-3345.504528146668
 30
0.0
 10
15485.78444088298
 20
-3348.404716170292
 30
0.0
 10
15488.56530174458
 20
-3350.729699647934
 30
0.0
 10
15490.64360519844
 20
-3353.454909778391
 30
0.0
 10
15491.88026851395
 20
-3356.152956002048
 30
0.0
  0
SPLINE
  5
3531C3
330
18
100
AcDbEntity
  8
姿図
100
AcDbSpline
210
0.0
220
0.0
230
1.0
 70
     8
 71
     3
 72
     8
 73
     4
 74
     0
 42
0.000000001
 43
0.0000000001
 40
0.0
 40
0.0
 40
0.0
 40
0.0
 40
1.0
 40
1.0
 40
1.0
 40
1.0
 10
15472.08148462442
 20
-3343.362724650934
 30
0.0
 10
15472.4770369686
 20
-3343.315716981046
 30
0.0
 10
15472.88379001461
 20
-3343.290316964296
 30
0.0
 10
15473.3001562614
 20
-3343.286436406181
 30
0.0
  0
SPLINE
  5
3531C4
330
18
100
AcDbEntity
  8
姿図
100
AcDbSpline
210
0.0
220
0.0
230
1.0
 70
     8
 71
     3
 72
     8
 73
     4
 74
     0
 42
0.000000001
 43
0.0000000001
 40
0.0
 40
0.0
 40
0.0
 40
0.0
 40
1.0
 40
1.0
 40
1.0
 40
1.0
 10
15467.12177857599
 20
-3345.669275477532
 30
0.0
 10
15468.40306830982
 20
-3344.357117667792
 30
0.0
 10
15470.04719022736
 20
-3343.604730366079
 30
0.0
 10
15472.08148462442
 20
-3343.362724650934
 30
0.0
  0
SPLINE
  5
3531C5
330
18
100
AcDbEntity
  8
姿図
100
AcDbSpline
210
0.0
220
0.0
230
1.0
 70
     8
 71
     3
 72
    11
 73
     7
 74
     0
 42
0.000000001
 43
0.0000000001
 40
0.0
 40
0.0
 40
0.0
 40
0.0
 40
1.0
 40
1.0
 40
1.0
 40
2.0
 40
2.0
 40
2.0
 40
2.0
 10
15481.92263461409
 20
-3339.077201027501
 30
0.0
 10
15481.92263461409
 20
-3339.077201027501
 30
0.0
 10
15476.55744382606
 20
-3342.956941744453
 30
0.0
 10
15476.55744382606
 20
-3342.956941744453
 30
0.0
 10
15476.55744382606
 20
-3342.956941744453
 30
0.0
 10
15475.4917896511
 20
-3343.43336844752
 30
0.0
 10
15474.98387751061
 20
-3343.382039247004
 30
0.0
  0
SPLINE
  5
3531C6
330
18
100
AcDbEntity
  8
姿図
100
AcDbSpline
210
0.0
220
0.0
230
1.0
 70
     8
 71
     3
 72
     8
 73
     4
 74
     0
 42
0.000000001
 43
0.0000000001
 40
0.0
 40
0.0
 40
0.0
 40
0.0
 40
1.0
 40
1.0
 40
1.0
 40
1.0
 10
15492.53625922432
 20
-3356.237622724547
 30
0.0
 10
15492.53625922432
 20
-3356.237622724547
 30
0.0
 10
15492.39717649371
 20
-3356.858159244868
 30
0.0
 10
15492.57215438688
 20
-3357.826887661468
 30
0.0
  0
SPLINE
  5
3531C7
330
18
100
AcDbEntity
  8
姿図
100
AcDbSpline
210
0.0
220
0.0
230
1.0
 70
     8
 71
     3
 72
    17
 73
    13
 74
     0
 42
0.000000001
 43
0.0000000001
 40
0.0
 40
0.0
 40
0.0
 40
0.0
 40
1.0
 40
1.0
 40
1.0
 40
2.0
 40
2.0
 40
2.0
 40
3.0
 40
3.0
 40
3.0
 40
4.0
 40
4.0
 40
4.0
 40
4.0
 10
15460.110844786
 20
-3355.705104317826
 30
0.0
 10
15460.06586558968
 20
-3354.113369934832
 30
0.0
 10
15460.4698846061
 20
-3352.707902341337
 30
0.0
 10
15461.37599492585
 20
-3351.623991904336
 30
0.0
 10
15464.59236024131
 20
-3347.776594922747
 30
0.0
 10
15472.91792128711
 20
-3349.439237685835
 30
0.0
 10
15479.97215857788
 20
-3355.336627685946
 30
0.0
 10
15487.02613128514
 20
-3361.234194075064
 30
0.0
 10
15490.13719236449
 20
-3369.133422895278
 30
0.0
 10
15486.92073885453
 20
-3372.980819876866
 30
0.0
 10
15486.05678550702
 20
-3374.014106669374
 30
0.0
 10
15484.82417913863
 20
-3374.649989033147
 30
0.0
 10
15483.34674483101
 20
-3374.913161428917
 30
0.0
  0
SPLINE
  5
3531C8
330
18
100
AcDbEntity
  8
姿図
100
AcDbSpline
210
0.0
220
0.0
230
1.0
 70
     8
 71
     3
 72
    11
 73
     7
 74
     0
 42
0.000000001
 43
0.0000000001
 40
0.0
 40
0.0
 40
0.0
 40
0.0
 40
1.0
 40
1.0
 40
1.0
 40
2.0
 40
2.0
 40
2.0
 40
2.0
 10
15461.77092990851
 20
-3353.321206912444
 30
0.0
 10
15464.57710259236
 20
-3350.002800557473
 30
0.0
 10
15472.0910096307
 20
-3351.743760038873
 30
0.0
 10
15478.55407917051
 20
-3357.209349754235
 30
0.0
 10
15485.01688412682
 20
-3362.674939469599
 30
0.0
 10
15487.98136594284
 20
-3369.795587220827
 30
0.0
 10
15485.17475228648
 20
-3373.113993575798
 30
0.0
  0
SPLINE
  5
3531C9
330
18
100
AcDbEntity
  8
姿図
100
AcDbSpline
210
0.0
220
0.0
230
1.0
 70
    11
 71
     3
 72
    17
 73
    13
 74
     0
 42
0.000000001
 43
0.0000000001
 40
0.0
 40
0.0
 40
0.0
 40
0.0
 40
1.0
 40
1.0
 40
1.0
 40
2.0
 40
2.0
 40
2.0
 40
3.0
 40
3.0
 40
3.0
 40
4.0
 40
4.0
 40
4.0
 40
4.0
 10
15481.05695095991
 20
-3377.165472636413
 30
0.0
 10
15478.39868045693
 20
-3380.427434509717
 30
0.0
 10
15471.11760690546
 20
-3378.893555720432
 30
0.0
 10
15464.79344370725
 20
-3373.739821766275
 30
0.0
 10
15458.46963328705
 20
-3368.585735034108
 30
0.0
 10
15455.49791952181
 20
-3361.763713868697
 30
0.0
 10
15458.15619002479
 20
-3358.501928384397
 30
0.0
 10
15460.81454872228
 20
-3355.240142900098
 30
0.0
 10
15468.09579866275
 20
-3356.773845300378
 30
0.0
 10
15474.41996186096
 20
-3361.927579254535
 30
0.0
 10
15480.74377228116
 20
-3367.081489597697
 30
0.0
 10
15483.7156624354
 20
-3373.903510763108
 30
0.0
 10
15481.05695095991
 20
-3377.165472636413
 30
0.0
  0
SPLINE
  5
3531CA
330
18
100
AcDbEntity
  8
姿図
100
AcDbSpline
210
0.0
220
0.0
230
1.0
 70
     8
 71
     3
 72
    11
 73
     7
 74
     0
 42
0.000000001
 43
0.0000000001
 40
0.0
 40
0.0
 40
0.0
 40
0.0
 40
1.0
 40
1.0
 40
1.0
 40
2.0
 40
2.0
 40
2.0
 40
2.0
 10
15478.70700843803
 20
-3367.017283999802
 30
0.0
 10
15476.87794264853
 20
-3366.248227937097
 30
0.0
 10
15474.96835527815
 20
-3365.104168849319
 30
0.0
 10
15473.14846171692
 20
-3363.621090093534
 30
0.0
 10
15471.30413827847
 20
-3362.117902991154
 30
0.0
 10
15469.78243033054
 20
-3360.454378283041
 30
0.0
 10
15468.65548097627
 20
-3358.796145245084
 30
0.0
  0
POLYLINE
  5
3531CB
330
18
100
AcDbEntity
  8
姿図
100
AcDb2dPolyline
 66
     1
 10
0.0
 20
0.0
 30
0.0
  0
VERTEX
  5
3531CC
330
3531CB
100
AcDbEntity
  8
姿図
100
AcDbVertex
100
AcDb2dVertex
 10
15463.3556969258
 20
-3349.217693095293
 30
0.0
  0
VERTEX
  5
3531CD
330
3531CB
100
AcDbEntity
  8
姿図
100
AcDbVertex
100
AcDb2dVertex
 10
15467.12177857599
 20
-3345.669275477532
 30
0.0
  0
SEQEND
  5
3531CE
330
3531CB
100
AcDbEntity
  8
姿図
  0
SPLINE
  5
3531CF
330
18
100
AcDbEntity
  8
姿図
100
AcDbSpline
210
0.0
220
0.0
230
1.0
 70
     8
 71
     3
 72
    17
 73
    13
 74
     0
 42
0.000000001
 43
0.0000000001
 40
0.0
 40
0.0
 40
0.0
 40
0.0
 40
1.0
 40
1.0
 40
1.0
 40
2.0
 40
2.0
 40
2.0
 40
3.0
 40
3.0
 40
3.0
 40
4.0
 40
4.0
 40
4.0
 40
4.0
 10
15486.92073885453
 20
-3372.980819876866
 30
0.0
 10
15486.92073885453
 20
-3372.980819876866
 30
0.0
 10
15488.66125736341
 20
-3370.790773988208
 30
0.0
 10
15488.66125736341
 20
-3370.790773988208
 30
0.0
 10
15491.99800817493
 20
-3366.799972745386
 30
0.0
 10
15488.98987008011
 20
-3358.789089684876
 30
0.0
 10
15481.94339390558
 20
-3352.897520521935
 30
0.0
 10
15474.89638856402
 20
-3347.006127747999
 30
0.0
 10
15466.47919343002
 20
-3345.465017009501
 30
0.0
 10
15463.14288359102
 20
-3349.455994641329
 30
0.0
 10
15463.14288359102
 20
-3349.455994641329
 30
0.0
 10
15461.67453331717
 20
-3351.297672244702
 30
0.0
 10
15461.67453331717
 20
-3351.297672244702
 30
0.0
  0
SPLINE
  5
3531D0
330
18
100
AcDbEntity
  8
姿図
100
AcDbSpline
210
0.0
220
0.0
230
1.0
 70
     8
 71
     3
 72
    14
 73
    10
 74
     0
 42
0.000000001
 43
0.0000000001
 40
0.0
 40
0.0
 40
0.0
 40
0.0
 40
1.0
 40
1.0
 40
1.0
 40
2.0
 40
2.0
 40
2.0
 40
3.0
 40
3.0
 40
3.0
 40
3.0
 10
15489.2367264929
 20
-3369.954337325514
 30
0.0
 10
15489.2367264929
 20
-3369.954337325514
 30
0.0
 10
15491.60880583494
 20
-3366.382283581055
 30
0.0
 10
15491.60880583494
 20
-3366.382283581055
 30
0.0
 10
15494.50855288605
 20
-3361.981730679134
 30
0.0
 10
15491.78810525873
 20
-3354.263476978263
 30
0.0
 10
15485.26594540217
 20
-3348.810234493264
 30
0.0
 10
15479.61788126092
 20
-3344.088300823855
 30
0.0
 10
15472.75387951227
 20
-3342.502475472536
 30
0.0
 10
15468.56719827916
 20
-3344.515955966981
 30
0.0
  0
SPLINE
  5
3531D1
330
18
100
AcDbEntity
  8
姿図
100
AcDbSpline
210
0.0
220
0.0
230
1.0
 70
    11
 71
     3
 72
    17
 73
    13
 74
     0
 42
0.000000001
 43
0.0000000001
 40
0.0
 40
0.0
 40
0.0
 40
0.0
 40
1.0
 40
1.0
 40
1.0
 40
2.0
 40
2.0
 40
2.0
 40
3.0
 40
3.0
 40
3.0
 40
4.0
 40
4.0
 40
4.0
 40
4.0
 10
15480.80850704607
 20
-3377.109204543752
 30
0.0
 10
15478.27194495668
 20
-3380.221941318651
 30
0.0
 10
15471.16858332797
 20
-3378.631618047698
 30
0.0
 10
15464.94213963864
 20
-3373.55743553489
 30
0.0
 10
15458.71596053282
 20
-3368.483076633077
 30
0.0
 10
15455.72484397701
 20
-3361.846440312139
 30
0.0
 10
15458.2614060664
 20
-3358.733879926246
 30
0.0
 10
15460.79805635029
 20
-3355.621495929357
 30
0.0
 10
15467.90159436801
 20
-3357.211466422299
 30
0.0
 10
15474.12803805734
 20
-3362.285825324112
 30
0.0
 10
15480.35421716316
 20
-3367.360184225925
 30
0.0
 10
15483.34542191347
 20
-3373.996644157858
 30
0.0
 10
15480.80850704607
 20
-3377.109204543752
 30
0.0
  0
POLYLINE
  5
3531D2
330
18
100
AcDbEntity
  8
姿図
100
AcDb2dPolyline
 66
     1
 10
0.0
 20
0.0
 30
0.0
  0
VERTEX
  5
3531D3
330
3531D2
100
AcDbEntity
  8
姿図
100
AcDbVertex
100
AcDb2dVertex
 10
15461.80629590406
 20
-3353.27940271821
 30
0.0
  0
VERTEX
  5
3531D4
330
3531D2
100
AcDbEntity
  8
姿図
100
AcDbVertex
100
AcDb2dVertex
 10
15458.15619002479
 20
-3358.501928384397
 30
0.0
  0
SEQEND
  5
3531D5
330
3531D2
100
AcDbEntity
  8
姿図
  0
POLYLINE
  5
3531D6
330
18
100
AcDbEntity
  8
姿図
100
AcDb2dPolyline
 66
     1
 10
0.0
 20
0.0
 30
0.0
  0
VERTEX
  5
3531D7
330
3531D6
100
AcDbEntity
  8
姿図
100
AcDbVertex
100
AcDb2dVertex
 10
15485.17475228648
 20
-3373.113993575798
 30
0.0
  0
VERTEX
  5
3531D8
330
3531D6
100
AcDbEntity
  8
姿図
100
AcDbVertex
100
AcDb2dVertex
 10
15481.05695095991
 20
-3377.165472636413
 30
0.0
  0
SEQEND
  5
3531D9
330
3531D6
100
AcDbEntity
  8
姿図
  0
SPLINE
  5
3531DA
330
18
100
AcDbEntity
  8
姿図
100
AcDbSpline
210
0.0
220
0.0
230
1.0
 70
     8
 71
     3
 72
    14
 73
    10
 74
     0
 42
0.000000001
 43
0.0000000001
 40
0.0
 40
0.0
 40
0.0
 40
0.0
 40
1.0
 40
1.0
 40
1.0
 40
2.0
 40
2.0
 40
2.0
 40
3.0
 40
3.0
 40
3.0
 40
3.0
 10
15499.99089955691
 20
-3345.51034898384
 30
0.0
 10
15499.99089955691
 20
-3345.51034898384
 30
0.0
 10
15499.83558903782
 20
-3345.48565452311
 30
0.0
 10
15499.83558903782
 20
-3345.48565452311
 30
0.0
 10
15499.25121226357
 20
-3345.48565452311
 30
0.0
 10
15498.77734320108
 20
-3346.475196842325
 30
0.0
 10
15498.77734320108
 20
-3347.695985147367
 30
0.0
 10
15498.77734320108
 20
-3348.562055162937
 30
0.0
 10
15499.01590933062
 20
-3349.311884824074
 30
0.0
 10
15499.36304289287
 20
-3349.674364229776
 30
0.0
  0
SPLINE
  5
3531DB
330
18
100
AcDbEntity
  8
姿図
100
AcDbSpline
210
0.0
220
0.0
230
1.0
 70
     8
 71
     3
 72
     8
 73
     4
 74
     0
 42
0.000000001
 43
0.0000000001
 40
0.0
 40
0.0
 40
0.0
 40
0.0
 40
0.0001341872790085
 40
0.0001341872790085
 40
0.0001341872790085
 40
0.0001341872790085
 10
15481.71161875274
 20
-3374.309558253096
 30
0.0
 10
15481.71160023162
 20
-3374.309651627934
 30
0.0
 10
15481.71158170796
 20
-3374.309745001473
 30
0.0
 10
15481.71156318175
 20
-3374.309838373715
 30
0.0
  0
SPLINE
  5
3531DC
330
18
100
AcDbEntity
  8
姿図
100
AcDbSpline
210
0.0
220
0.0
230
1.0
 70
     8
 71
     3
 72
    11
 73
     7
 74
     0
 42
0.000000001
 43
0.0000000001
 40
0.0514768077159905
 40
0.0514768077159905
 40
0.0514768077159905
 40
0.0514768077159905
 40
1.0
 40
1.0
 40
1.0
 40
1.99935959912693
 40
1.99935959912693
 40
1.99935959912693
 40
1.99935959912693
 10
15481.17651574874
 20
-3375.714120170116
 30
0.0
 10
15478.23547232806
 20
-3378.052538235859
 30
0.0
 10
15471.79890302608
 20
-3376.485356603445
 30
0.0
 10
15466.17271753347
 20
-3371.900084441959
 30
0.0
 10
15460.39729731559
 20
-3367.193161474091
 30
0.0
 10
15457.56406608442
 20
-3361.007701119441
 30
0.0
 10
15459.55429780696
 20
-3357.712744744232
 30
0.0
  0
SPLINE
  5
3531DD
330
18
100
AcDbEntity
  8
姿図
100
AcDbSpline
210
0.0
220
0.0
230
1.0
 70
     8
 71
     3
 72
    11
 73
     7
 74
     0
 42
0.000000001
 43
0.0000000001
 40
0.0757593931857056
 40
0.0757593931857056
 40
0.0757593931857056
 40
0.0757593931857056
 40
1.0
 40
1.0
 40
1.0
 40
1.955653258244389
 40
1.955653258244389
 40
1.955653258244389
 40
1.955653258244389
 10
15481.3747747782
 20
-3375.344993730665
 30
0.0
 10
15478.33738104215
 20
-3377.429263476447
 30
0.0
 10
15472.0858056226
 20
-3375.826915976672
 30
0.0
 10
15466.60365280226
 20
-3371.359028676272
 30
0.0
 10
15461.08081682433
 20
-3366.857959917361
 30
0.0
 10
15458.24844790167
 20
-3361.004851521602
 30
0.0
 10
15459.75162865861
 20
-3357.620217758902
 30
0.0
  0
SPLINE
  5
3531DE
330
18
100
AcDbEntity
  8
姿図
100
AcDbSpline
210
0.0
220
0.0
230
1.0
 70
     8
 71
     3
 72
    11
 73
     7
 74
     0
 42
0.000000001
 43
0.0000000001
 40
0.1032501974754412
 40
0.1032501974754412
 40
0.1032501974754412
 40
0.1032501974754412
 40
1.0
 40
1.0
 40
1.0
 40
1.916038734962438
 40
1.916038734962438
 40
1.916038734962438
 40
1.916038734962438
 10
15481.52624933685
 20
-3374.980159578054
 30
0.0
 10
15478.39710072125
 20
-3376.790351403784
 30
0.0
 10
15472.35367860094
 20
-3375.152966444516
 30
0.0
 10
15467.03458807105
 20
-3370.817972910585
 30
0.0
 10
15461.74068922335
 20
-3366.503486148444
 30
0.0
 10
15458.91882566072
 20
-3360.946728204217
 30
0.0
 10
15460.01786329849
 20
-3357.51252271825
 30
0.0
  0
SPLINE
  5
3531DF
330
18
100
AcDbEntity
  8
姿図
100
AcDbSpline
210
0.0
220
0.0
230
1.0
 70
     8
 71
     3
 72
    11
 73
     7
 74
     0
 42
0.000000001
 43
0.0000000001
 40
0.1323499937987221
 40
0.1323499937987221
 40
0.1323499937987221
 40
0.1323499937987221
 40
1.0
 40
1.0
 40
1.0
 40
1.878224141983641
 40
1.878224141983641
 40
1.878224141983641
 40
1.878224141983641
 10
15481.64347716599
 20
-3374.604462100409
 30
0.0
 10
15478.43657705639
 20
-3376.140187745308
 30
0.0
 10
15472.61200780881
 20
-3374.471238856493
 30
0.0
 10
15467.46552333984
 20
-3370.276917144898
 30
0.0
 10
15462.39015960704
 20
-3366.140534817206
 30
0.0
 10
15459.58694970957
 20
-3360.862327674976
 30
0.0
 10
15460.33263461841
 20
-3357.407379068079
 30
0.0
  0
SPLINE
  5
3531E0
330
18
100
AcDbEntity
  8
姿図
100
AcDbSpline
210
0.0
220
0.0
230
1.0
 70
     8
 71
     3
 72
    11
 73
     7
 74
     0
 42
0.000000001
 43
0.0000000001
 40
0.1641920493002541
 40
0.1641920493002541
 40
0.1641920493002541
 40
0.1641920493002541
 40
1.0
 40
1.0
 40
1.0
 40
1.841127923927267
 40
1.841127923927267
 40
1.841127923927267
 40
1.841127923927267
 10
15481.71092672035
 20
-3374.219571125812
 30
0.0
 10
15478.44091160245
 20
-3375.473232573151
 30
0.0
 10
15472.85407124803
 20
-3373.776254866547
 30
0.0
 10
15467.89645860863
 20
-3369.735861379211
 30
0.0
 10
15463.035478415
 20
-3365.774199983747
 30
0.0
 10
15460.2587543674
 20
-3360.765137945606
 30
0.0
 10
15460.68797642886
 20
-3357.313670568199
 30
0.0
  0
SPLINE
  5
3531E1
330
18
100
AcDbEntity
  8
姿図
100
AcDbSpline
210
0.0
220
0.0
230
1.0
 70
     8
 71
     3
 72
    11
 73
     7
 74
     0
 42
0.000000001
 43
0.0000000001
 40
0.2012469607704792
 40
0.2012469607704792
 40
0.2012469607704792
 40
0.2012469607704792
 40
1.0
 40
1.0
 40
1.0
 40
1.804139848512499
 40
1.804139848512499
 40
1.804139848512499
 40
1.804139848512499
 10
15481.69353645577
 20
-3373.827909996676
 30
0.0
 10
15478.37770697589
 20
-3374.777102326579
 30
0.0
 10
15473.06521452118
 20
-3373.056071320546
 30
0.0
 10
15468.32739387742
 20
-3369.194805613524
 30
0.0
 10
15463.68017225353
 20
-3365.407355805019
 30
0.0
 10
15460.93792947108
 20
-3360.66259752625
 30
0.0
 10
15461.08079045152
 20
-3357.23675763256
 30
0.0
  0
SPLINE
  5
3531E2
330
18
100
AcDbEntity
  8
姿図
100
AcDbSpline
210
0.0
220
0.0
230
1.0
 70
     8
 71
     3
 72
    11
 73
     7
 74
     0
 42
0.000000001
 43
0.0000000001
 40
0.2383717968276542
 40
0.2383717968276542
 40
0.2383717968276542
 40
0.2383717968276542
 40
1.0
 40
1.0
 40
1.0
 40
1.766855141465714
 40
1.766855141465714
 40
1.766855141465714
 40
1.766855141465714
 10
15481.64944577214
 20
-3373.401953475479
 30
0.0
 10
15478.31605041256
 20
-3374.071441269849
 30
0.0
 10
15473.27594303515
 20
-3372.335549750905
 30
0.0
 10
15468.75832914621
 20
-3368.653749847837
 30
0.0
 10
15464.32658036221
 20
-3365.041908743248
 30
0.0
 10
15461.6272534426
 20
-3360.559474176531
 30
0.0
 10
15461.51036356779
 20
-3357.180508166477
 30
0.0
  0
SPLINE
  5
3531E3
330
18
100
AcDbEntity
  8
姿図
100
AcDbSpline
210
0.0
220
0.0
230
1.0
 70
     8
 71
     3
 72
    11
 73
     7
 74
     0
 42
0.000000001
 43
0.0000000001
 40
0.2759365766446367
 40
0.2759365766446367
 40
0.2759365766446367
 40
0.2759365766446367
 40
1.0
 40
1.0
 40
1.0
 40
1.728960078216898
 40
1.728960078216898
 40
1.728960078216898
 40
1.728960078216898
 10
15481.57496717644
 20
-3372.942459441325
 30
0.0
 10
15478.25108362277
 20
-3373.35441767367
 30
0.0
 10
15473.48406201336
 20
-3371.612901441621
 30
0.0
 10
15469.189264415
 20
-3368.11269408215
 30
0.0
 10
15464.97651579335
 20
-3364.679336422089
 30
0.0
 10
15462.32920014801
 20
-3360.459302177874
 30
0.0
 10
15461.97744364826
 20
-3357.148224995646
 30
0.0
  0
SPLINE
  5
3531E4
330
18
100
AcDbEntity
  8
姿図
100
AcDbSpline
210
0.0
220
0.0
230
1.0
 70
     8
 71
     3
 72
    11
 73
     7
 74
     0
 42
0.000000001
 43
0.0000000001
 40
0.3142573428806394
 40
0.3142573428806394
 40
0.3142573428806394
 40
0.3142573428806394
 40
1.0
 40
1.0
 40
1.0
 40
1.690173445998052
 40
1.690173445998052
 40
1.690173445998052
 40
1.690173445998052
 10
15481.46631402592
 20
-3372.44877464092
 30
0.0
 10
15478.17875618428
 20
-3372.624097694975
 30
0.0
 10
15473.68769684203
 20
-3370.886598605479
 30
0.0
 10
15469.62019968379
 20
-3367.571638316463
 30
0.0
 10
15465.63160370958
 20
-3364.320963336587
 30
0.0
 10
15463.04628497395
 20
-3360.365099848897
 30
0.0
 10
15462.48391482913
 20
-3357.143162952512
 30
0.0
  0
SPLINE
  5
3531E5
330
18
100
AcDbEntity
  8
姿図
100
AcDbSpline
210
0.0
220
0.0
230
1.0
 70
     8
 71
     3
 72
    11
 73
     7
 74
     0
 42
0.000000001
 43
0.0000000001
 40
0.3536413394393382
 40
0.3536413394393382
 40
0.3536413394393382
 40
0.3536413394393382
 40
1.0
 40
1.0
 40
1.0
 40
1.650209421469303
 40
1.650209421469303
 40
1.650209421469303
 40
1.650209421469303
 10
15481.31920909096
 20
-3371.919061828781
 30
0.0
 10
15478.09522197774
 20
-3371.878260419115
 30
0.0
 10
15473.88502509743
 20
-3370.155155989478
 30
0.0
 10
15470.05113495258
 20
-3367.030582550775
 30
0.0
 10
15466.29349591865
 20
-3363.968135697299
 30
0.0
 10
15463.78132755567
 20
-3360.279802825127
 30
0.0
 10
15463.03276906937
 20
-3357.1689023573
 30
0.0
  0
SPLINE
  5
3531E6
330
18
100
AcDbEntity
  8
姿図
100
AcDbSpline
210
0.0
220
0.0
230
1.0
 70
     8
 71
     3
 72
    11
 73
     7
 74
     0
 42
0.000000001
 43
0.0000000001
 40
0.3944223840632796
 40
0.3944223840632796
 40
0.3944223840632796
 40
0.3944223840632796
 40
1.0
 40
1.0
 40
1.0
 40
1.60874644322287
 40
1.60874644322287
 40
1.60874644322287
 40
1.60874644322287
 10
15481.12847077352
 20
-3371.350262985948
 30
0.0
 10
15477.99638294329
 20
-3371.11419224018
 30
0.0
 10
15474.07406673252
 20
-3369.416959879568
 30
0.0
 10
15470.48207022137
 20
-3366.489526785088
 30
0.0
 10
15466.96405076288
 20
-3363.622368038911
 30
0.0
 10
15464.53772263702
 20
-3360.206601960778
 30
0.0
 10
15463.62828852163
 20
-3357.229712628598
 30
0.0
  0
SPLINE
  5
3531E7
330
18
100
AcDbEntity
  8
姿図
100
AcDbSpline
210
0.0
220
0.0
230
1.0
 70
     8
 71
     3
 72
    11
 73
     7
 74
     0
 42
0.000000001
 43
0.0000000001
 40
0.4369980186941804
 40
0.4369980186941804
 40
0.4369980186941804
 40
0.4369980186941804
 40
1.0
 40
1.0
 40
1.0
 40
1.565392169551839
 40
1.565392169551839
 40
1.565392169551839
 40
1.565392169551839
 10
15480.88746530041
 20
-3370.737828868649
 30
0.0
 10
15477.87742758855
 20
-3370.328405057154
 30
0.0
 10
15474.2524637188
 20
-3368.670088511459
 30
0.0
 10
15470.91300549016
 20
-3365.948471019401
 30
0.0
 10
15467.64553563255
 20
-3363.285508267013
 30
0.0
 10
15465.31979612612
 20
-3360.149298031619
 30
0.0
 10
15464.276458664
 20
-3357.331010948478
 30
0.0
  0
SPLINE
  5
3531E8
330
18
100
AcDbEntity
  8
姿図
100
AcDbSpline
210
0.0
220
0.0
230
1.0
 70
     8
 71
     3
 72
    11
 73
     7
 74
     0
 42
0.000000001
 43
0.0000000001
 40
0.481879997568997
 40
0.481879997568997
 40
0.481879997568997
 40
0.481879997568997
 40
1.0
 40
1.0
 40
1.0
 40
1.519633642026464
 40
1.519633642026464
 40
1.519633642026464
 40
1.519633642026464
 10
15480.58726097806
 20
-3370.075139894555
 30
0.0
 10
15477.73221998401
 20
-3369.516193065889
 30
0.0
 10
15474.41718057513
 20
-3367.912068005256
 30
0.0
 10
15471.34394075894
 20
-3365.407415253715
 30
0.0
 10
15468.34091497656
 20
-3362.959972384634
 30
0.0
 10
15466.13335498866
 20
-3360.112784318233
 30
0.0
 10
15464.98573204149
 20
-3357.480054958538
 30
0.0
  0
SPLINE
  5
3531E9
330
18
100
AcDbEntity
  8
姿図
100
AcDbSpline
210
0.0
220
0.0
230
1.0
 70
     8
 71
     3
 72
    11
 73
     7
 74
     0
 42
0.000000001
 43
0.0000000001
 40
0.5297770028492169
 40
0.5297770028492169
 40
0.5297770028492169
 40
0.5297770028492169
 40
1.0
 40
1.0
 40
1.0
 40
1.470753821489875
 40
1.470753821489875
 40
1.470753821489875
 40
1.470753821489875
 10
15480.21516452096
 20
-3369.352388967693
 30
0.0
 10
15477.55231165971
 20
-3368.670858535118
 30
0.0
 10
15474.56401373821
 20
-3367.139472508421
 30
0.0
 10
15471.77487602774
 20
-3364.866359488028
 30
0.0
 10
15469.05433265111
 20
-3362.649137602614
 30
0.0
 10
15466.98664121186
 20
-3360.103838220544
 30
0.0
 10
15465.76844006997
 20
-3357.687131207043
 30
0.0
  0
SPLINE
  5
3531EA
330
18
100
AcDbEntity
  8
姿図
100
AcDbSpline
210
0.0
220
0.0
230
1.0
 70
     8
 71
     3
 72
    11
 73
     7
 74
     0
 42
0.000000001
 43
0.0000000001
 40
0.0386121084381379
 40
0.0386121084381379
 40
0.0386121084381379
 40
0.0386121084381379
 40
1.0
 40
1.0
 40
1.0
 40
1.99935959912693
 40
1.99935959912693
 40
1.99935959912693
 40
1.99935959912693
 10
15480.97616059397
 20
-3376.110271622818
 30
0.0
 10
15477.9792828703
 20
-3378.63554978907
 30
0.0
 10
15471.44427499472
 20
-3377.088601831598
 30
0.0
 10
15465.74178226468
 20
-3372.441140207646
 30
0.0
 10
15459.96636204681
 20
-3367.734217239778
 30
0.0
 10
15457.13313081563
 20
-3361.548756885128
 30
0.0
 10
15459.12336253816
 20
-3358.253800509919
 30
0.0
  0
ARC
  5
3531EB
330
18
100
AcDbEntity
  8
姿図
100
AcDbCircle
 10
15463.06357045407
 20
-3360.933737842572
 30
0.0
 40
4.765217993700172
100
AcDbArc
 50
137.9248936100415
 51
145.7783724838747
  0
ARC
  5
3531EC
330
18
100
AcDbEntity
  8
姿図
100
AcDbCircle
 10
15482.67488987671
 20
-3360.937767866833
 30
0.0
 40
10.37465278630733
100
AcDbArc
 50
17.44882884850821
 51
27.46470538252923
  0
SPLINE
  5
3531ED
330
18
100
AcDbEntity
  8
姿図
100
AcDbSpline
210
0.0
220
0.0
230
1.0
 70
     8
 71
     3
 72
    17
 73
    13
 74
     0
 42
0.000000001
 43
0.0000000001
 40
0.0
 40
0.0
 40
0.0
 40
0.0
 40
1.0
 40
1.0
 40
1.0
 40
2.0
 40
2.0
 40
2.0
 40
3.0
 40
3.0
 40
3.0
 40
4.0
 40
4.0
 40
4.0
 40
4.0
 10
15481.6346463935
 20
-3333.049620085539
 30
0.0
 10
15481.6346463935
 20
-3333.049620085539
 30
0.0
 10
15481.37427066077
 20
-3332.72307469076
 30
0.0
 10
15481.37427066077
 20
-3332.72307469076
 30
0.0
 10
15481.37427066077
 20
-3332.72307469076
 30
0.0
 10
15481.32357127292
 20
-3332.644721091356
 30
0.0
 10
15481.374823745
 20
-3332.574479394008
 30
0.0
 10
15481.40561210053
 20
-3332.532260631036
 30
0.0
 10
15481.47308837673
 20
-3332.492991650628
 30
0.0
 10
15481.61025326604
 20
-3332.475292955234
 30
0.0
 10
15481.61025326604
 20
-3332.475292955234
 30
0.0
 10
15481.92528082599
 20
-3332.801520470869
 30
0.0
 10
15481.92528082599
 20
-3332.801520470869
 30
0.0
  0
POLYLINE
  5
3531EE
330
18
100
AcDbEntity
  8
姿図
100
AcDb2dPolyline
 66
     1
 10
0.0
 20
0.0
 30
0.0
  0
VERTEX
  5
3531EF
330
3531EE
100
AcDbEntity
  8
姿図
100
AcDbVertex
100
AcDb2dVertex
 10
15481.41003677438
 20
-3332.540464713796
 30
0.0
  0
VERTEX
  5
3531F0
330
3531EE
100
AcDbEntity
  8
姿図
100
AcDbVertex
100
AcDb2dVertex
 10
15482.6131793384
 20
-3331.00040167234
 30
0.0
  0
VERTEX
  5
3531F1
330
3531EE
100
AcDbEntity
  8
姿図
100
AcDbVertex
100
AcDb2dVertex
 10
15483.62778725739
 20
-3330.034014051589
 30
0.0
  0
SEQEND
  5
3531F2
330
3531EE
100
AcDbEntity
  8
姿図
  0
POLYLINE
  5
3531F3
330
18
100
AcDbEntity
  8
姿図
100
AcDb2dPolyline
 66
     1
 10
0.0
 20
0.0
 30
0.0
  0
VERTEX
  5
3531F4
330
3531F3
100
AcDbEntity
  8
姿図
100
AcDbVertex
100
AcDb2dVertex
 10
15481.61025326604
 20
-3332.475292955234
 30
0.0
  0
VERTEX
  5
3531F5
330
3531F3
100
AcDbEntity
  8
姿図
100
AcDbVertex
100
AcDb2dVertex
 10
15482.79016629235
 20
-3330.988602542077
 30
0.0
  0
VERTEX
  5
3531F6
330
3531F3
100
AcDbEntity
  8
姿図
100
AcDbVertex
100
AcDb2dVertex
 10
15483.71049845288
 20
-3330.115190360488
 30
0.0
  0
SEQEND
  5
3531F7
330
3531F3
100
AcDbEntity
  8
姿図
  0
ARC
  5
3531F8
330
18
100
AcDbEntity
  8
姿図
100
AcDbCircle
 10
15476.70175788059
 20
-3373.361025432076
 30
0.0
 40
5.082211445174903
100
AcDbArc
 50
318.2161718189204
 51
350.2742989310759
  0
SPLINE
  5
3531F9
330
18
100
AcDbEntity
  8
姿図
100
AcDbSpline
210
0.0
220
0.0
230
1.0
 70
     8
 71
     3
 72
    11
 73
     7
 74
     0
 42
0.000000001
 43
0.0000000001
 40
0.0386121084381379
 40
0.0386121084381379
 40
0.0386121084381379
 40
0.0386121084381379
 40
1.0
 40
1.0
 40
1.0
 40
1.99935959912693
 40
1.99935959912693
 40
1.99935959912693
 40
1.99935959912693
 10
15480.49138050268
 20
-3376.747414889244
 30
0.0
 10
15477.60735566547
 20
-3379.22509327911
 30
0.0
 10
15471.0723477899
 20
-3377.678145321638
 30
0.0
 10
15465.36985505986
 20
-3373.030683697686
 30
0.0
 10
15459.59443484198
 20
-3368.323760729817
 30
0.0
 10
15456.7612036108
 20
-3362.138300375168
 30
0.0
 10
15458.75143533334
 20
-3358.843343999959
 30
0.0
  0
ENDSEC
  0
SECTION
  2
OBJECTS
  0
DICTIONARY
  5
C
330
0
100
AcDbDictionary
281
     1
  3
ACAD_GROUP
350
D
  3
ACAD_IMAGE_VARS
350
2F1759
  3
ACAD_LAYOUT
350
353
  3
ACAD_MLINESTYLE
350
E
  3
ACAD_PLOTSETTINGS
350
354
  3
ACAD_PLOTSTYLENAME
350
351
  3
ACAD_SCALELIST
350
CD53
  3
AcadDim
350
5182D
  3
AcDbVariableDictionary
350
E0D
  3
APPDATA
350
2F1758
  3
DWGPROPS
350
353518
  0
DICTIONARY
  5
559E
330
2
100
AcDbDictionary
280
     1
281
     1
  3
ACAD_LAYERFILTERS
360
29A509
  3
ACAD_LAYERSTATES
360
559F
  3
ACLYDICTIONARY
360
29A508
  0
DICTIONARY
  5
CD7F
330
F
100
AcDbDictionary
280
     1
281
     1
  3
ADSK_XREC_LAYER_RECONCILED
360
CD80
  0
DICTIONARY
  5
CD85
330
34
100
AcDbDictionary
280
     1
281
     1
  3
ADSK_XREC_LAYER_RECONCILED
360
CD86
  0
DICTIONARY
  5
CD8D
330
2F4
100
AcDbDictionary
280
     1
281
     1
  3
ADSK_XREC_LAYER_RECONCILED
360
CD8E
  0
DICTIONARY
  5
D25F
330
18
100
AcDbDictionary
280
     1
281
     1
  3
ACAD_SORTENTS
360
D260
  0
DICTIONARY
  5
D
102
{ACAD_REACTORS
330
C
102
}
330
C
100
AcDbDictionary
281
     1
  0
RASTERVARIABLES
  5
2F1759
102
{ACAD_REACTORS
330
C
102
}
330
C
100
AcDbRasterVariables
 90
        0
 70
     1
 71
     1
 72
     0
  0
DICTIONARY
  5
353
102
{ACAD_REACTORS
330
C
102
}
330
C
100
AcDbDictionary
281
     1
  3
Model
350
355
  3
ﾚｲｱｳﾄ1
350
356
  0
DICTIONARY
  5
E
102
{ACAD_REACTORS
330
C
102
}
330
C
100
AcDbDictionary
281
     1
  3
STANDARD
350
1B
  0
DICTIONARY
  5
354
102
{ACAD_REACTORS
330
C
102
}
330
C
100
AcDbDictionary
281
     1
  0
ACDBDICTIONARYWDFLT
  5
351
102
{ACAD_REACTORS
330
C
102
}
330
C
100
AcDbDictionary
281
     1
  3
Normal
350
352
100
AcDbDictionaryWithDefault
340
352
  0
DICTIONARY
  5
CD53
102
{ACAD_REACTORS
330
C
102
}
330
C
100
AcDbDictionary
281
     1
  3
A0
350
CD54
  3
A1
350
35DF8
  3
A2
350
35DF9
  3
A3
350
35DFA
  3
A4
350
35DFB
  3
A5
350
35DFC
  3
A6
350
35DFD
  3
A7
350
35DFE
  3
A8
350
35DFF
  3
A9
350
35E00
  3
B0
350
35E01
  3
B1
350
35E02
  3
B2
350
35E03
  3
B3
350
35E04
  3
B4
350
35E05
  3
B5
350
35E06
  3
B6
350
35E07
  3
B7
350
35E08
  3
B8
350
35E09
  3
B9
350
35E0A
  3
C0
350
35E0B
  3
C1
350
35E0C
  3
C2
350
35E0D
  3
C3
350
35E0E
  3
C4
350
35E0F
  3
C5
350
35E10
  3
C6
350
35E11
  3
C7
350
35E12
  3
C8
350
35E13
  3
C9
350
35E14
  3
D0
350
35E15
  3
D1
350
35E16
  3
D2
350
35E17
  0
XRECORD
  5
5182D
102
{ACAD_REACTORS
330
C
102
}
330
C
100
AcDbXrecord
280
     1
 90
   990106
  3
OPEN30
 60
     0
 61
     0
 62
     4
 63
     4
 64
     1
 65
     0
 66
     0
 67
     3
 68
     1
 69
     0
 70
     0
 71
     0
 72
     0
 40
0.0
170
     0
340
0
  0
DICTIONARY
  5
E0D
102
{ACAD_REACTORS
330
C
102
}
330
C
100
AcDbDictionary
281
     1
  3
DIMASSOC
350
E0E
  3
INDEXCTL
350
D04A
  3
PROJECTNAME
350
E0F
  3
SORTENTS
350
D049
  0
DICTIONARY
  5
2F1758
102
{ACAD_REACTORS
330
C
102
}
330
C
100
AcDbDictionary
281
     1
  0
XRECORD
  5
353518
102
{ACAD_REACTORS
330
C
102
}
330
C
100
AcDbXrecord
280
     1
  1
DWGPROPS COOKIE
  2

  3

  4

  6

  7

  8
SPAX
  9

300
=
301
=
302
=
303
=
304
=
305
=
306
=
307
=
308
=
309
=
 40
0.0
 41
2448636.244629629
 42
2456821.28001353
  1

 90
        0
  0
DICTIONARY
  5
29A509
102
{ACAD_REACTORS
330
559E
102
}
330
559E
100
AcDbDictionary
281
     1
  0
DICTIONARY
  5
559F
102
{ACAD_REACTORS
330
559E
102
}
330
559E
100
AcDbDictionary
281
     1
  0
DICTIONARY
  5
29A508
102
{ACAD_REACTORS
330
559E
102
}
330
559E
100
AcDbDictionary
281
     1
1001
ACAD
1000
<All
  0
XRECORD
  5
CD80
102
{ACAD_REACTORS
330
CD7F
102
}
330
CD7F
100
AcDbXrecord
280
     1
290
     1
  0
XRECORD
  5
CD86
102
{ACAD_REACTORS
330
CD85
102
}
330
CD85
100
AcDbXrecord
280
     1
290
     1
  0
XRECORD
  5
CD8E
102
{ACAD_REACTORS
330
CD8D
102
}
330
CD8D
100
AcDbXrecord
280
     1
290
     1
  0
SORTENTSTABLE
  5
D260
102
{ACAD_REACTORS
330
D25F
102
}
330
D25F
100
AcDbSortentsTable
330
18
331
0
  5
33CEEB
331
8182F
  5
2FEC53
331
3073B9
  5
307455
  0
LAYOUT
  5
355
102
{ACAD_REACTORS
330
353
102
}
330
353
100
AcDbPlotSettings
  1

  2
JUST PDF 2
  4
A4
  6

 40
3.174999952316284
 41
3.174999952316284
 42
3.175003051757812
 43
3.17498779296875
 44
209.8886566162109
 45
297.0530090332031
 46
14.27171755861552
 47
9.855173074625782
 48
15447.00480758574
 49
-4013.672796824707
140
15971.99046307046
141
-3200.694771408708
142
1.0
143
3.0
 70
  3748
 72
     1
 73
     0
 74
     4
  7
spax form.ctb
 75
    16
147
1.0
148
-15447.00480758574
149
4013.672796824707
100
AcDbLayout
  1
Model
 70
     1
 71
     0
 10
0.0
 20
0.0
 11
12.0
 21
9.0
 12
0.0
 22
0.0
 32
0.0
 14
15453.51412911625
 24
-3408.956844902249
 34
0.0
 15
15559.13069341742
 25
-3280.877625112149
 35
0.0
146
0.0
 13
0.0
 23
0.0
 33
0.0
 16
1.0
 26
0.0
 36
0.0
 17
0.0
 27
1.0
 37
0.0
 76
     0
330
18
331
3523F0
1001
ACAD_PSEXT
1000
JUST PDF 2
1000
JUST PDF 2
1000
JUST PDF 2 Port:
1000

1070
     0
  0
LAYOUT
  5
356
102
{ACAD_REACTORS
330
353
102
}
330
353
100
AcDbPlotSettings
  1

  2
Canon LASER SHOT LBP-750
  4

  6

 40
0.0
 41
0.0
 42
0.0
 43
0.0
 44
0.0
 45
0.0
 46
0.0
 47
0.0
 48
0.0
 49
0.0
140
0.0
141
0.0
142
1.0
143
1.0
 70
   688
 72
     0
 73
     0
 74
     5
  7
spax form.ctb
 75
    16
147
1.0
148
0.0
149
0.0
100
AcDbLayout
  1
ﾚｲｱｳﾄ1
 70
     0
 71
     1
 10
0.0
 20
0.0
 11
12.0
 21
9.0
 12
0.0
 22
0.0
 32
0.0
 14
1.000000000000000E+20
 24
1.000000000000000E+20
 34
1.000000000000000E+20
 15
-1.000000000000000E+20
 25
-1.000000000000000E+20
 35
-1.000000000000000E+20
146
0.0
 13
0.0
 23
0.0
 33
0.0
 16
1.0
 26
0.0
 36
0.0
 17
0.0
 27
1.0
 37
0.0
 76
     0
330
15
  0
MLINESTYLE
  5
1B
102
{ACAD_REACTORS
330
E
102
}
330
E
100
AcDbMlineStyle
  2
STANDARD
 70
     0
  3

 62
     0
 51
90.0
 52
90.0
 71
     2
 49
0.5
 62
   256
  6
BYLAYER
 49
-0.5
 62
   256
  6
BYLAYER
  0
ACDBPLACEHOLDER
  5
352
102
{ACAD_REACTORS
330
351
102
}
330
351
  0
SCALE
  5
CD54
102
{ACAD_REACTORS
330
CD53
102
}
330
CD53
100
AcDbScale
 70
     0
300
1:1
140
1.0
141
1.0
290
     1
1001
ACAD
1000
AcRTDxfName
1000
SCALE
1000
AcRTDxfName
1000
SCALE
  0
SCALE
  5
35DF8
102
{ACAD_REACTORS
330
CD53
102
}
330
CD53
100
AcDbScale
 70
     0
300
1:2
140
1.0
141
2.0
290
     0
1001
ACAD
1000
AcRTDxfName
1000
SCALE
1000
AcRTDxfName
1000
SCALE
  0
SCALE
  5
35DF9
102
{ACAD_REACTORS
330
CD53
102
}
330
CD53
100
AcDbScale
 70
     0
300
1:4
140
1.0
141
4.0
290
     0
1001
ACAD
1000
AcRTDxfName
1000
SCALE
1000
AcRTDxfName
1000
SCALE
  0
SCALE
  5
35DFA
102
{ACAD_REACTORS
330
CD53
102
}
330
CD53
100
AcDbScale
 70
     0
300
1:5
140
1.0
141
5.0
290
     0
1001
ACAD
1000
AcRTDxfName
1000
SCALE
1000
AcRTDxfName
1000
SCALE
  0
SCALE
  5
35DFB
102
{ACAD_REACTORS
330
CD53
102
}
330
CD53
100
AcDbScale
 70
     0
300
1:8
140
1.0
141
8.0
290
     0
1001
ACAD
1000
AcRTDxfName
1000
SCALE
1000
AcRTDxfName
1000
SCALE
  0
SCALE
  5
35DFC
102
{ACAD_REACTORS
330
CD53
102
}
330
CD53
100
AcDbScale
 70
     0
300
1:10
140
1.0
141
10.0
290
     0
1001
ACAD
1000
AcRTDxfName
1000
SCALE
1000
AcRTDxfName
1000
SCALE
  0
SCALE
  5
35DFD
102
{ACAD_REACTORS
330
CD53
102
}
330
CD53
100
AcDbScale
 70
     0
300
1:16
140
1.0
141
16.0
290
     0
1001
ACAD
1000
AcRTDxfName
1000
SCALE
1000
AcRTDxfName
1000
SCALE
  0
SCALE
  5
35DFE
102
{ACAD_REACTORS
330
CD53
102
}
330
CD53
100
AcDbScale
 70
     0
300
1:20
140
1.0
141
20.0
290
     0
1001
ACAD
1000
AcRTDxfName
1000
SCALE
1000
AcRTDxfName
1000
SCALE
  0
SCALE
  5
35DFF
102
{ACAD_REACTORS
330
CD53
102
}
330
CD53
100
AcDbScale
 70
     0
300
1:30
140
1.0
141
30.0
290
     0
1001
ACAD
1000
AcRTDxfName
1000
SCALE
1000
AcRTDxfName
1000
SCALE
  0
SCALE
  5
35E00
102
{ACAD_REACTORS
330
CD53
102
}
330
CD53
100
AcDbScale
 70
     0
300
1:40
140
1.0
141
40.0
290
     0
1001
ACAD
1000
AcRTDxfName
1000
SCALE
1000
AcRTDxfName
1000
SCALE
  0
SCALE
  5
35E01
102
{ACAD_REACTORS
330
CD53
102
}
330
CD53
100
AcDbScale
 70
     0
300
1:50
140
1.0
141
50.0
290
     0
1001
ACAD
1000
AcRTDxfName
1000
SCALE
1000
AcRTDxfName
1000
SCALE
  0
SCALE
  5
35E02
102
{ACAD_REACTORS
330
CD53
102
}
330
CD53
100
AcDbScale
 70
     0
300
1:100
140
1.0
141
100.0
290
     0
1001
ACAD
1000
AcRTDxfName
1000
SCALE
1000
AcRTDxfName
1000
SCALE
  0
SCALE
  5
35E03
102
{ACAD_REACTORS
330
CD53
102
}
330
CD53
100
AcDbScale
 70
     0
300
2:1
140
2.0
141
1.0
290
     0
1001
ACAD
1000
AcRTDxfName
1000
SCALE
1000
AcRTDxfName
1000
SCALE
  0
SCALE
  5
35E04
102
{ACAD_REACTORS
330
CD53
102
}
330
CD53
100
AcDbScale
 70
     0
300
4:1
140
4.0
141
1.0
290
     0
1001
ACAD
1000
AcRTDxfName
1000
SCALE
1000
AcRTDxfName
1000
SCALE
  0
SCALE
  5
35E05
102
{ACAD_REACTORS
330
CD53
102
}
330
CD53
100
AcDbScale
 70
     0
300
8:1
140
8.0
141
1.0
290
     0
1001
ACAD
1000
AcRTDxfName
1000
SCALE
1000
AcRTDxfName
1000
SCALE
  0
SCALE
  5
35E06
102
{ACAD_REACTORS
330
CD53
102
}
330
CD53
100
AcDbScale
 70
     0
300
10:1
140
10.0
141
1.0
290
     0
1001
ACAD
1000
AcRTDxfName
1000
SCALE
1000
AcRTDxfName
1000
SCALE
  0
SCALE
  5
35E07
102
{ACAD_REACTORS
330
CD53
102
}
330
CD53
100
AcDbScale
 70
     0
300
100:1
140
100.0
141
1.0
290
     0
1001
ACAD
1000
AcRTDxfName
1000
SCALE
1000
AcRTDxfName
1000
SCALE
  0
SCALE
  5
35E08
102
{ACAD_REACTORS
330
CD53
102
}
330
CD53
100
AcDbScale
 70
     0
300
1/128" = 1'-0"
140
0.0078125
141
12.0
290
     0
1001
ACAD
1000
AcRTDxfName
1000
SCALE
1000
AcRTDxfName
1000
SCALE
  0
SCALE
  5
35E09
102
{ACAD_REACTORS
330
CD53
102
}
330
CD53
100
AcDbScale
 70
     0
300
1/64" = 1'-0"
140
0.015625
141
12.0
290
     0
1001
ACAD
1000
AcRTDxfName
1000
SCALE
1000
AcRTDxfName
1000
SCALE
  0
SCALE
  5
35E0A
102
{ACAD_REACTORS
330
CD53
102
}
330
CD53
100
AcDbScale
 70
     0
300
1/32" = 1'-0"
140
0.03125
141
12.0
290
     0
1001
ACAD
1000
AcRTDxfName
1000
SCALE
1000
AcRTDxfName
1000
SCALE
  0
SCALE
  5
35E0B
102
{ACAD_REACTORS
330
CD53
102
}
330
CD53
100
AcDbScale
 70
     0
300
1/16" = 1'-0"
140
0.0625
141
12.0
290
     0
1001
ACAD
1000
AcRTDxfName
1000
SCALE
1000
AcRTDxfName
1000
SCALE
  0
SCALE
  5
35E0C
102
{ACAD_REACTORS
330
CD53
102
}
330
CD53
100
AcDbScale
 70
     0
300
3/32" = 1'-0"
140
0.09375
141
12.0
290
     0
1001
ACAD
1000
AcRTDxfName
1000
SCALE
1000
AcRTDxfName
1000
SCALE
  0
SCALE
  5
35E0D
102
{ACAD_REACTORS
330
CD53
102
}
330
CD53
100
AcDbScale
 70
     0
300
1/8" = 1'-0"
140
0.125
141
12.0
290
     0
1001
ACAD
1000
AcRTDxfName
1000
SCALE
1000
AcRTDxfName
1000
SCALE
  0
SCALE
  5
35E0E
102
{ACAD_REACTORS
330
CD53
102
}
330
CD53
100
AcDbScale
 70
     0
300
3/16" = 1'-0"
140
0.1875
141
12.0
290
     0
1001
ACAD
1000
AcRTDxfName
1000
SCALE
1000
AcRTDxfName
1000
SCALE
  0
SCALE
  5
35E0F
102
{ACAD_REACTORS
330
CD53
102
}
330
CD53
100
AcDbScale
 70
     0
300
1/4" = 1'-0"
140
0.25
141
12.0
290
     0
1001
ACAD
1000
AcRTDxfName
1000
SCALE
1000
AcRTDxfName
1000
SCALE
  0
SCALE
  5
35E10
102
{ACAD_REACTORS
330
CD53
102
}
330
CD53
100
AcDbScale
 70
     0
300
3/8" = 1'-0"
140
0.375
141
12.0
290
     0
1001
ACAD
1000
AcRTDxfName
1000
SCALE
1000
AcRTDxfName
1000
SCALE
  0
SCALE
  5
35E11
102
{ACAD_REACTORS
330
CD53
102
}
330
CD53
100
AcDbScale
 70
     0
300
1/2" = 1'-0"
140
0.5
141
12.0
290
     0
1001
ACAD
1000
AcRTDxfName
1000
SCALE
1000
AcRTDxfName
1000
SCALE
  0
SCALE
  5
35E12
102
{ACAD_REACTORS
330
CD53
102
}
330
CD53
100
AcDbScale
 70
     0
300
3/4" = 1'-0"
140
0.75
141
12.0
290
     0
1001
ACAD
1000
AcRTDxfName
1000
SCALE
1000
AcRTDxfName
1000
SCALE
  0
SCALE
  5
35E13
102
{ACAD_REACTORS
330
CD53
102
}
330
CD53
100
AcDbScale
 70
     0
300
1" = 1'-0"
140
1.0
141
12.0
290
     0
1001
ACAD
1000
AcRTDxfName
1000
SCALE
1000
AcRTDxfName
1000
SCALE
  0
SCALE
  5
35E14
102
{ACAD_REACTORS
330
CD53
102
}
330
CD53
100
AcDbScale
 70
     0
300
1-1/2" = 1'-0"
140
1.5
141
12.0
290
     0
1001
ACAD
1000
AcRTDxfName
1000
SCALE
1000
AcRTDxfName
1000
SCALE
  0
SCALE
  5
35E15
102
{ACAD_REACTORS
330
CD53
102
}
330
CD53
100
AcDbScale
 70
     0
300
3" = 1'-0"
140
3.0
141
12.0
290
     0
1001
ACAD
1000
AcRTDxfName
1000
SCALE
1000
AcRTDxfName
1000
SCALE
  0
SCALE
  5
35E16
102
{ACAD_REACTORS
330
CD53
102
}
330
CD53
100
AcDbScale
 70
     0
300
6" = 1'-0"
140
6.0
141
12.0
290
     0
1001
ACAD
1000
AcRTDxfName
1000
SCALE
1000
AcRTDxfName
1000
SCALE
  0
SCALE
  5
35E17
102
{ACAD_REACTORS
330
CD53
102
}
330
CD53
100
AcDbScale
 70
     0
300
1'-0" = 1'-0"
140
12.0
141
12.0
290
     0
1001
ACAD
1000
AcRTDxfName
1000
SCALE
1000
AcRTDxfName
1000
SCALE
  0
DICTIONARYVAR
  5
E0E
102
{ACAD_REACTORS
330
E0D
102
}
330
E0D
100
DictionaryVariables
280
     0
  1
1
  0
DICTIONARYVAR
  5
D04A
102
{ACAD_REACTORS
330
E0D
102
}
330
E0D
100
DictionaryVariables
280
     0
  1
0
  0
DICTIONARYVAR
  5
E0F
102
{ACAD_REACTORS
330
E0D
102
}
330
E0D
100
DictionaryVariables
280
     0
  1

  0
DICTIONARYVAR
  5
D049
102
{ACAD_REACTORS
330
E0D
102
}
330
E0D
100
DictionaryVariables
280
     0
  1
127
  0
ENDSEC
  0
EOF
