  0
SECTION
  2
HEADER
  9
$ACADVER
  1
AC1015
  9
$ACADMAINTVER
 70
     6
  9
$DWGCODEPAGE
  3
ANSI_932
  9
$INSBASE
 10
0.0
 20
0.0
 30
0.0
  9
$EXTMIN
 10
18515.47799504284
 20
-16628.05984969668
 30
-0.000000000000013
  9
$EXTMAX
 10
18590.22799504284
 20
-16507.2709748261
 30
0.0000000000000288
  9
$LIMMIN
 10
0.0
 20
0.0
  9
$LIMMAX
 10
420.0
 20
297.0
  9
$ORTHOMODE
 70
     1
  9
$REGENMODE
 70
     1
  9
$FILLMODE
 70
     1
  9
$QTEXTMODE
 70
     0
  9
$MIRRTEXT
 70
     1
  9
$LTSCALE
 40
5.0
  9
$ATTMODE
 70
     0
  9
$TEXTSIZE
 40
3.5
  9
$TRACEWID
 40
1.0
  9
$TEXTSTYLE
  7
STANDARD
  9
$CLAYER
  8
0
  9
$CELTYPE
  6
BYLAYER
  9
$CECOLOR
 62
   256
  9
$CELTSCALE
 40
1.0
  9
$DISPSILH
 70
     0
  9
$DIMSCALE
 40
1.0
  9
$DIMASZ
 40
2.5
  9
$DIMEXO
 40
1.5
  9
$DIMDLI
 40
7.0
  9
$DIMRND
 40
0.0
  9
$DIMDLE
 40
0.0
  9
$DIMEXE
 40
1.0
  9
$DIMTP
 40
0.0
  9
$DIMTM
 40
0.0
  9
$DIMTXT
 40
3.0
  9
$DIMCEN
 40
0.0
  9
$DIMTSZ
 40
0.0
  9
$DIMTOL
 70
     0
  9
$DIMLIM
 70
     0
  9
$DIMTIH
 70
     0
  9
$DIMTOH
 70
     0
  9
$DIMSE1
 70
     0
  9
$DIMSE2
 70
     0
  9
$DIMTAD
 70
     3
  9
$DIMZIN
 70
     9
  9
$DIMBLK
  1
OPEN30
  9
$DIMASO
 70
     1
  9
$DIMSHO
 70
     0
  9
$DIMPOST
  1

  9
$DIMAPOST
  1

  9
$DIMALT
 70
     0
  9
$DIMALTD
 70
     0
  9
$DIMALTF
 40
25.4
  9
$DIMLFAC
 40
1.0
  9
$DIMTOFL
 70
     1
  9
$DIMTVP
 40
0.0
  9
$DIMTIX
 70
     0
  9
$DIMSOXD
 70
     0
  9
$DIMSAH
 70
     0
  9
$DIMBLK1
  1

  9
$DIMBLK2
  1

  9
$DIMSTYLE
  2
STANDARD
  9
$DIMCLRD
 70
     8
  9
$DIMCLRE
 70
     8
  9
$DIMCLRT
 70
   256
  9
$DIMTFAC
 40
0.6
  9
$DIMGAP
 40
1.0
  9
$DIMJUST
 70
     0
  9
$DIMSD1
 70
     0
  9
$DIMSD2
 70
     0
  9
$DIMTOLJ
 70
     1
  9
$DIMTZIN
 70
     9
  9
$DIMALTZ
 70
     9
  9
$DIMALTTZ
 70
     9
  9
$DIMUPT
 70
     0
  9
$DIMDEC
 70
     3
  9
$DIMTDEC
 70
     3
  9
$DIMALTU
 70
     2
  9
$DIMALTTD
 70
     0
  9
$DIMTXSTY
  7
STANDARD
  9
$DIMAUNIT
 70
     0
  9
$DIMADEC
 70
     3
  9
$DIMALTRND
 40
0.0
  9
$DIMAZIN
 70
     2
  9
$DIMDSEP
 70
    46
  9
$DIMATFIT
 70
     0
  9
$DIMFRAC
 70
     0
  9
$DIMLDRBLK
  1
OPEN30
  9
$DIMLUNIT
 70
     2
  9
$DIMLWD
 70
    -2
  9
$DIMLWE
 70
    -2
  9
$DIMTMOVE
 70
     0
  9
$LUNITS
 70
     2
  9
$LUPREC
 70
     2
  9
$SKETCHINC
 40
0.1
  9
$FILLETRAD
 40
1.0
  9
$AUNITS
 70
     0
  9
$AUPREC
 70
     1
  9
$MENU
  1
FM
  9
$ELEVATION
 40
0.0
  9
$PELEVATION
 40
0.0
  9
$THICKNESS
 40
0.0
  9
$LIMCHECK
 70
     0
  9
$CHAMFERA
 40
0.0
  9
$CHAMFERB
 40
0.0
  9
$CHAMFERC
 40
0.0
  9
$CHAMFERD
 40
0.0
  9
$SKPOLY
 70
     0
  9
$TDCREATE
 40
2448636.619629629
  9
$TDUCREATE
 40
2448636.244629629
  9
$TDUPDATE
 40
2456825.76770294
  9
$TDUUPDATE
 40
2456825.39270294
  9
$TDINDWG
 40
107.7425033218
  9
$TDUSRTIMER
 40
2456825.392446412
  9
$USRTIMER
 70
     1
  9
$ANGBASE
 50
0.0
  9
$ANGDIR
 70
     0
  9
$PDMODE
 70
     3
  9
$PDSIZE
 40
0.0
  9
$PLINEWID
 40
0.0
  9
$SPLFRAME
 70
     0
  9
$SPLINETYPE
 70
     6
  9
$SPLINESEGS
 70
     8
  9
$HANDSEED
  5
3A7CAD
  9
$SURFTAB1
 70
     6
  9
$SURFTAB2
 70
     6
  9
$SURFTYPE
 70
     6
  9
$SURFU
 70
     6
  9
$SURFV
 70
     6
  9
$UCSBASE
  2

  9
$UCSNAME
  2

  9
$UCSORG
 10
0.0
 20
0.0
 30
0.0
  9
$UCSXDIR
 10
1.0
 20
0.0
 30
0.0
  9
$UCSYDIR
 10
0.0
 20
1.0
 30
0.0
  9
$UCSORTHOREF
  2

  9
$UCSORTHOVIEW
 70
     0
  9
$UCSORGTOP
 10
0.0
 20
0.0
 30
0.0
  9
$UCSORGBOTTOM
 10
0.0
 20
0.0
 30
0.0
  9
$UCSORGLEFT
 10
0.0
 20
0.0
 30
0.0
  9
$UCSORGRIGHT
 10
0.0
 20
0.0
 30
0.0
  9
$UCSORGFRONT
 10
0.0
 20
0.0
 30
0.0
  9
$UCSORGBACK
 10
0.0
 20
0.0
 30
0.0
  9
$PUCSBASE
  2

  9
$PUCSNAME
  2

  9
$PUCSORG
 10
0.0
 20
0.0
 30
0.0
  9
$PUCSXDIR
 10
1.0
 20
0.0
 30
0.0
  9
$PUCSYDIR
 10
0.0
 20
1.0
 30
0.0
  9
$PUCSORTHOREF
  2

  9
$PUCSORTHOVIEW
 70
     0
  9
$PUCSORGTOP
 10
0.0
 20
0.0
 30
0.0
  9
$PUCSORGBOTTOM
 10
0.0
 20
0.0
 30
0.0
  9
$PUCSORGLEFT
 10
0.0
 20
0.0
 30
0.0
  9
$PUCSORGRIGHT
 10
0.0
 20
0.0
 30
0.0
  9
$PUCSORGFRONT
 10
0.0
 20
0.0
 30
0.0
  9
$PUCSORGBACK
 10
0.0
 20
0.0
 30
0.0
  9
$USERI1
 70
     0
  9
$USERI2
 70
     0
  9
$USERI3
 70
     0
  9
$USERI4
 70
     0
  9
$USERI5
 70
     0
  9
$USERR1
 40
0.0
  9
$USERR2
 40
0.0
  9
$USERR3
 40
0.0
  9
$USERR4
 40
0.0
  9
$USERR5
 40
0.0
  9
$WORLDVIEW
 70
     0
  9
$SHADEDGE
 70
     3
  9
$SHADEDIF
 70
    70
  9
$TILEMODE
 70
     1
  9
$MAXACTVP
 70
    16
  9
$PINSBASE
 10
0.0
 20
0.0
 30
0.0
  9
$PLIMCHECK
 70
     0
  9
$PEXTMIN
 10
1.000000000000000E+20
 20
1.000000000000000E+20
 30
1.000000000000000E+20
  9
$PEXTMAX
 10
-1.000000000000000E+20
 20
-1.000000000000000E+20
 30
-1.000000000000000E+20
  9
$PLIMMIN
 10
0.0
 20
0.0
  9
$PLIMMAX
 10
0.0
 20
0.0
  9
$UNITMODE
 70
     0
  9
$VISRETAIN
 70
     0
  9
$PLINEGEN
 70
     0
  9
$PSLTSCALE
 70
     0
  9
$TREEDEPTH
 70
  3020
  9
$CMLSTYLE
  2
STANDARD
  9
$CMLJUST
 70
     0
  9
$CMLSCALE
 40
1.0
  9
$PROXYGRAPHICS
 70
     1
  9
$MEASUREMENT
 70
     0
  9
$CELWEIGHT
370
    -1
  9
$ENDCAPS
280
     0
  9
$JOINSTYLE
280
     0
  9
$LWDISPLAY
290
     1
  9
$INSUNITS
 70
     0
  9
$HYPERLINKBASE
  1

  9
$STYLESHEET
  1
spax form.ctb
  9
$XEDIT
290
     1
  9
$CEPSNTYPE
380
     0
  9
$PSTYLEMODE
290
     1
  9
$FINGERPRINTGUID
  2
{E5B35D22-A717-11D3-9160-00E0294F7E09}
  9
$VERSIONGUID
  2
{545814E5-AEE3-498C-B61F-9F500955D519}
  9
$EXTNAMES
290
     1
  9
$PSVPSCALE
 40
0.0
  9
$OLESTARTUP
290
     0
  0
ENDSEC
  0
SECTION
  2
CLASSES
  0
CLASS
  1
LWPOLYLINE
  2
AcDbPolyline
  3
ObjectDBX Classes
 90
        0
280
     0
281
     1
  0
CLASS
  1
ACDBDICTIONARYWDFLT
  2
AcDbDictionaryWithDefault
  3
ObjectDBX Classes
 90
        0
280
     0
281
     0
  0
CLASS
  1
ACDBPLACEHOLDER
  2
AcDbPlaceHolder
  3
ObjectDBX Classes
 90
        0
280
     0
281
     0
  0
CLASS
  1
LAYOUT
  2
AcDbLayout
  3
ObjectDBX Classes
 90
        0
280
     0
281
     0
  0
CLASS
  1
DICTIONARYVAR
  2
AcDbDictionaryVar
  3
ObjectDBX Classes
 90
        0
280
     0
281
     0
  0
CLASS
  1
MATERIAL
  2
AcDbMaterial
  3
ObjectDBX Classes
 90
     1153
280
     0
281
     0
  0
CLASS
  1
SORTENTSTABLE
  2
AcDbSortentsTable
  3
ObjectDBX Classes
 90
        0
280
     0
281
     0
  0
CLASS
  1
VISUALSTYLE
  2
AcDbVisualStyle
  3
ObjectDBX Classes
 90
     4095
280
     0
281
     0
  0
CLASS
  1
TABLESTYLE
  2
AcDbTableStyle
  3
ObjectDBX Classes
 90
     4095
280
     0
281
     0
  0
CLASS
  1
SCALE
  2
AcDbScale
  3
ObjectDBX Classes
 90
     1153
280
     0
281
     0
  0
CLASS
  1
MLEADERSTYLE
  2
AcDbMLeaderStyle
  3
ACDB_MLEADERSTYLE_CLASS
 90
     4095
280
     0
281
     0
  0
CLASS
  1
CELLSTYLEMAP
  2
AcDbCellStyleMap
  3
ObjectDBX Classes
 90
     1152
280
     0
281
     0
  0
CLASS
  1
MULTILEADER
  2
AcDbMLeader
  3
ACDB_MLEADER_CLASS
 90
     1025
280
     0
281
     1
  0
CLASS
  1
DIMASSOC
  2
AcDbDimAssoc
  3
"AcDbDimAssoc|Product Desc:     AcDim ARX App For Dimension|Company:          Autodesk, Inc.|WEB Address:      www.autodesk.com"
 90
        0
280
     0
281
     0
  0
CLASS
  1
LARGE_RADIAL_DIMENSION
  2
AcDbRadialDimensionLarge
  3
ObjectDBX Classes
 90
     1025
280
     0
281
     1
  0
CLASS
  1
RASTERVARIABLES
  2
AcDbRasterVariables
  3
ISM
 90
        0
280
     0
281
     0
  0
CLASS
  1
AEC_VARS_DWG_SETUP
  2
AecDbVarsDwgSetup
  3
AecBase60
 90
      129
280
     0
281
     0
  0
CLASS
  1
AEC_DISP_REP_2D_SECTION
  2
AecDbDispRep2dSection
  3
AecBase60
 90
      129
280
     0
281
     0
  0
CLASS
  1
AEC_DISP_PROPS_2D_SECTION
  2
AecDbDispProps2dSection
  3
AecBase60
 90
      129
280
     0
281
     0
  0
CLASS
  1
AEC_DISP_REP_CLIP_VOLUME_MODEL
  2
AecDbDispRepClipVolModel
  3
AecBase60
 90
      129
280
     0
281
     0
  0
CLASS
  1
AEC_DISP_PROPS_CLIP_VOLUME
  2
AecDbDispPropsClipVol
  3
AecBase60
 90
      129
280
     0
281
     0
  0
CLASS
  1
AEC_DISP_REP_CLIP_VOLUME_PLAN
  2
AecDbDispRepClipVolPlan
  3
AecBase60
 90
      129
280
     0
281
     0
  0
CLASS
  1
AEC_DISP_REP_CLIP_VOLUME_RESULT
  2
AecDbDispRepClipVolResult
  3
AecBase60
 90
      129
280
     0
281
     0
  0
CLASS
  1
AEC_DISP_REP_CLIP_VOLUME_RESULT_SUBDIV
  2
AecDbDispRepClipVolResSubDiv
  3
AecBase60
 90
      129
280
     0
281
     0
  0
CLASS
  1
AEC_DISP_PROPS_CLIP_VOLUME_RESULT
  2
AecDbDispPropsClipVolResSubDiv
  3
AecBase60
 90
      129
280
     0
281
     0
  0
CLASS
  1
AEC_DISP_REP_DISPLAYTHEME
  2
AecDbDispRepDisplayTheme
  3
AecBase60
 90
      129
280
     0
281
     0
  0
CLASS
  1
AEC_DISP_PROPS_DISPLAYTHEME
  2
AecDbDispPropsDisplayTheme
  3
AecBase60
 90
      129
280
     0
281
     0
  0
CLASS
  1
AEC_DISP_REP_ENT_REF
  2
AecDbDispRepEntRef
  3
AecBase60
 90
      129
280
     0
281
     0
  0
CLASS
  1
AEC_DISP_PROPS_ENT_REF
  2
AecDbDispPropsEntRef
  3
AecBase60
 90
      129
280
     0
281
     0
  0
CLASS
  1
AEC_DISP_REP_LAYOUT_CURVE
  2
AecDbDispRepLayoutCurve
  3
AecBase60
 90
      129
280
     0
281
     0
  0
CLASS
  1
AEC_DISP_PROPS_LAYOUT_CURVE
  2
AecDbDispPropsLayoutCurve
  3
AecBase60
 90
      129
280
     0
281
     0
  0
CLASS
  1
AEC_DISP_REP_LAYOUT_GRID2D
  2
AecDbDispRepLayoutGrid2d
  3
AecBase60
 90
      129
280
     0
281
     0
  0
CLASS
  1
AEC_DISP_PROPS_LAYOUT_GRID2D
  2
AecDbDispPropsLayoutGrid2d
  3
AecBase60
 90
      129
280
     0
281
     0
  0
CLASS
  1
AEC_DISP_REP_LAYOUT_GRID3D
  2
AecDbDispRepLayoutGrid3d
  3
AecBase60
 90
      129
280
     0
281
     0
  0
CLASS
  1
AEC_DISP_PROPS_LAYOUT_GRID3D
  2
AecDbDispPropsLayoutGrid3d
  3
AecBase60
 90
      129
280
     0
281
     0
  0
CLASS
  1
AEC_DISP_REP_MASKBLOCK_REF
  2
AecDbDispRepMaskBlockRef
  3
AecBase60
 90
      129
280
     0
281
     0
  0
CLASS
  1
AEC_DISP_PROPS_MASKBLOCK
  2
AecDbDispPropsMaskBlock
  3
AecBase60
 90
      129
280
     0
281
     0
  0
CLASS
  1
AEC_DISP_REP_MASKBLOCK_REF_RCP
  2
AecDbDispRepMaskBlockRefRcp
  3
AecArchBase60
 90
      129
280
     0
281
     0
  0
CLASS
  1
AEC_DISP_REP_MASS_ELEM_MODEL
  2
AecDbDispRepMassElemModel
  3
AecBase60
 90
      129
280
     0
281
     0
  0
CLASS
  1
AEC_DISP_PROPS_MASS_ELEM_MODEL
  2
AecDbDispPropsMassElem
  3
AecBase60
 90
      129
280
     0
281
     0
  0
CLASS
  1
AEC_DISP_REP_MASS_ELEM_SCHEM
  2
AecDbDispRepMassElemSchem
  3
AecBase60
 90
      129
280
     0
281
     0
  0
CLASS
  1
AEC_DISPREPAECDBDISPREPMASSELEMPLAN50
  2
AecDbDispRepMassElemPlan50
  3
AecArchDACHBase60
 90
      129
280
     0
281
     0
  0
CLASS
  1
AEC_DISPROPSMASSELEMPLANCOMMON
  2
AecDbDispPropsMassElemPlanCommon
  3
AecArchDACHBase60
 90
      129
280
     0
281
     0
  0
CLASS
  1
AEC_DISPREPAECDBDISPREPMASSELEMPLAN100
  2
AecDbDispRepMassElemPlan100
  3
AecArchDACHBase60
 90
      129
280
     0
281
     0
  0
CLASS
  1
AEC_DISP_REP_MASS_ELEM_RCP
  2
AecDbDispRepMassElemRcp
  3
AecArchBase60
 90
      129
280
     0
281
     0
  0
CLASS
  1
AEC_DISP_REP_MASS_GROUP_MODEL
  2
AecDbDispRepMassGroupModel
  3
AecBase60
 90
      129
280
     0
281
     0
  0
CLASS
  1
AEC_DISP_PROPS_MASS_GROUP
  2
AecDbDispPropsMassGroup
  3
AecBase60
 90
      129
280
     0
281
     0
  0
CLASS
  1
AEC_DISP_REP_MASS_GROUP_PLAN
  2
AecDbDispRepMassGroupPlan
  3
AecBase60
 90
      129
280
     0
281
     0
  0
CLASS
  1
AEC_DISPREPAECDBDISPREPMASSGROUPPLAN50
  2
AecDbDispRepMassGroupPlan50
  3
AecArchDACHBase60
 90
      129
280
     0
281
     0
  0
CLASS
  1
AEC_DISPROPSMASSGROUPPLANCOMMON
  2
AecDbDispPropsMassGroupPlanCommon
  3
AecArchDACHBase60
 90
      129
280
     0
281
     0
  0
CLASS
  1
AEC_DISPREPAECDBDISPREPMASSGROUPPLAN100
  2
AecDbDispRepMassGroupPlan100
  3
AecArchDACHBase60
 90
      129
280
     0
281
     0
  0
CLASS
  1
AEC_DISP_REP_MASS_GROUP_RCP
  2
AecDbDispRepMassGroupRcp
  3
AecArchBase60
 90
      129
280
     0
281
     0
  0
CLASS
  1
AEC_DISP_REP_MVBLOCK_REF
  2
AecDbDispRepMvBlockRef
  3
AecBase60
 90
      129
280
     0
281
     0
  0
CLASS
  1
AEC_DISP_REP_MVBLOCK_REF_MODEL
  2
AecDbDispRepMvBlockRefModel
  3
AecBase60
 90
      129
280
     0
281
     0
  0
CLASS
  1
AEC_AECDBDISPREPMVBLOCKREFPLAN100
  2
AecDbDispRepMvBlockRefPlan100
  3
AecBase60
 90
      129
280
     0
281
     0
  0
CLASS
  1
AEC_AECDBDISPREPMVBLOCKREFPLAN50
  2
AecDbDispRepMvBlockRefPlan50
  3
AecBase60
 90
      129
280
     0
281
     0
  0
CLASS
  1
AEC_DISP_REP_POLYGON_MODEL
  2
AecDbDispRepPolygonModel
  3
AecBase60
 90
      129
280
     0
281
     0
  0
CLASS
  1
AEC_DISP_PROPS_POLYGON_MODEL
  2
AecDbDispPropsPolygonModel
  3
AecBase60
 90
      129
280
     0
281
     0
  0
CLASS
  1
AEC_DISP_REP_POLYGON_TRUECOLOUR
  2
AecDbDispRepPolygonTrueColour
  3
AecBase60
 90
      129
280
     0
281
     0
  0
CLASS
  1
AEC_DISP_PROPS_POLYGON_TRUECOLOUR
  2
AecDbDispPropsPolygonTrueColour
  3
AecBase60
 90
      129
280
     0
281
     0
  0
CLASS
  1
AEC_DISP_REP_SLICE
  2
AecDbDispRepSlice
  3
AecBase60
 90
      129
280
     0
281
     0
  0
CLASS
  1
AEC_DISP_PROPS_SLICE
  2
AecDbDispPropsSlice
  3
AecBase60
 90
      129
280
     0
281
     0
  0
CLASS
  1
AEC_DISP_REP_ANCHOR
  2
AecDbDispRepAnchor
  3
AecBase60
 90
      129
280
     0
281
     0
  0
CLASS
  1
AEC_DISP_REP_ANCHOR_ENT_TO_NODE
  2
AecDbDispRepAnchorEntToNode
  3
AecBase60
 90
      129
280
     0
281
     0
  0
CLASS
  1
AEC_DISP_PROPS_ENT
  2
AecDbDispPropsEnt
  3
AecBase60
 90
      129
280
     0
281
     0
  0
CLASS
  1
AEC_DISP_REP_MATERIAL
  2
AecDbDispRepMaterial
  3
AecBase60
 90
      129
280
     0
281
     0
  0
CLASS
  1
AEC_DISP_PROPS_MATERIAL
  2
AecDbDispPropsMaterial
  3
AecBase60
 90
      129
280
     0
281
     0
  0
CLASS
  1
AEC_DISP_REP_EDITINPLACEPROFILE
  2
AecDbDispRepEditInPlaceProfile
  3
AecBase60
 90
      129
280
     0
281
     0
  0
CLASS
  1
AEC_DISP_PROPS_EDITINPLACEPROFILE_MODEL
  2
AecDbDispPropsEditInPlaceProfile
  3
AecBase60
 90
      129
280
     0
281
     0
  0
CLASS
  1
SUN
  2
AcDbSun
  3
SCENEOE
 90
     1153
280
     0
281
     0
  0
ENDSEC
  0
SECTION
  2
TABLES
  0
TABLE
  2
VPORT
  5
8
330
0
100
AcDbSymbolTable
 70
     2
  0
VPORT
  5
3A6CE7
330
8
100
AcDbSymbolTableRecord
100
AcDbViewportTableRecord
  2
*Active
 70
     0
 10
0.0
 20
0.0
 11
1.0
 21
1.0
 12
18552.85299504284
 22
-16567.66541226139
 13
0.0
 23
0.0
 14
1.0
 24
1.0
 15
20.0
 25
20.0
 16
0.0
 26
0.0
 36
1.0
 17
0.0
 27
0.0
 37
0.0
 40
123.2046523679925
 41
2.027568922305764
 42
50.0
 43
0.0
 44
0.0
 50
0.0
 51
0.0
 71
    16
 72
   100
 73
     1
 74
     0
 75
     0
 76
     0
 77
     0
 78
     0
281
     0
 65
     1
110
0.0
120
0.0
130
0.0
111
1.0
121
0.0
131
0.0
112
0.0
122
1.0
132
0.0
 79
     0
146
0.0
  0
ENDTAB
  0
TABLE
  2
LTYPE
  5
5
330
0
100
AcDbSymbolTable
 70
     4
  0
LTYPE
  5
12
330
5
100
AcDbSymbolTableRecord
100
AcDbLinetypeTableRecord
  2
BYBLOCK
 70
     0
  3

 72
    65
 73
     0
 40
0.0
  0
LTYPE
  5
13
330
5
100
AcDbSymbolTableRecord
100
AcDbLinetypeTableRecord
  2
BYLAYER
 70
     0
  3

 72
    65
 73
     0
 40
0.0
  0
LTYPE
  5
14
330
5
100
AcDbSymbolTableRecord
100
AcDbLinetypeTableRecord
  2
CONTINUOUS
 70
     0
  3
Solid line
 72
    65
 73
     0
 40
0.0
  0
LTYPE
  5
25
330
5
100
AcDbSymbolTableRecord
100
AcDbLinetypeTableRecord
  2
CENTER
 70
     0
  3
____ _ ____ _ ____ _ ____ _ ____ _ ____ _ ____
 72
    65
 73
     4
 40
2.0
 49
1.25
 74
     0
 49
-0.25
 74
     0
 49
0.25
 74
     0
 49
-0.25
 74
     0
  0
LTYPE
  5
26
330
5
100
AcDbSymbolTableRecord
100
AcDbLinetypeTableRecord
  2
PHANTOM
 70
     0
  3
_____ _ _ _____ _ _ _____ _ _ _____ _ _ ____
 72
    65
 73
     6
 40
2.5
 49
1.25
 74
     0
 49
-0.25
 74
     0
 49
0.25
 74
     0
 49
-0.25
 74
     0
 49
0.25
 74
     0
 49
-0.25
 74
     0
  0
LTYPE
  5
27
330
5
100
AcDbSymbolTableRecord
100
AcDbLinetypeTableRecord
  2
HIDDEN
 70
     0
  3
_ _ _ _ _ _ _ _ _ _ _ _ _ _ _ _ _ _ _ _ _ _ _
 72
    65
 73
     2
 40
0.375
 49
0.25
 74
     0
 49
-0.125
 74
     0
  0
ENDTAB
  0
TABLE
  2
LAYER
  5
2
102
{ACAD_XDICTIONARY
360
559E
102
}
330
0
100
AcDbSymbolTable
 70
    21
  0
LAYER
  5
F
102
{ACAD_XDICTIONARY
360
CD7F
102
}
330
2
100
AcDbSymbolTableRecord
100
AcDbLayerTableRecord
  2
0
 70
     0
 62
     7
  6
CONTINUOUS
370
    -3
390
352
  0
LAYER
  5
34
102
{ACAD_XDICTIONARY
360
CD85
102
}
330
2
100
AcDbSymbolTableRecord
100
AcDbLayerTableRecord
  2
寸法線
 70
     0
 62
     7
  6
CONTINUOUS
370
    -3
390
352
  0
LAYER
  5
36
330
2
100
AcDbSymbolTableRecord
100
AcDbLayerTableRecord
  2
DEFPOINTS
 70
     0
 62
     7
  6
CONTINUOUS
290
     0
370
    -3
390
352
  0
LAYER
  5
2F4
102
{ACAD_XDICTIONARY
360
CD8D
102
}
330
2
100
AcDbSymbolTableRecord
100
AcDbLayerTableRecord
  2
文字
 70
     0
 62
     7
  6
CONTINUOUS
370
    -3
390
352
  0
LAYER
  5
306B15
330
2
100
AcDbSymbolTableRecord
100
AcDbLayerTableRecord
  2
C-SUNPO
 70
     0
 62
     7
  6
CONTINUOUS
370
    -3
390
352
  0
LAYER
  5
31D3CB
330
2
100
AcDbSymbolTableRecord
100
AcDbLayerTableRecord
  2
姿図
 70
     0
 62
     8
  6
CONTINUOUS
370
    -3
390
352
  0
ENDTAB
  0
TABLE
  2
STYLE
  5
3
330
0
100
AcDbSymbolTable
 70
     1
  0
STYLE
  5
10
330
3
100
AcDbSymbolTableRecord
100
AcDbTextStyleTableRecord
  2
STANDARD
 70
     0
 40
0.0
 41
1.0
 50
0.0
 71
     0
 42
3.5
  3
MONOTXT
  4
BIGFONT
  0
ENDTAB
  0
TABLE
  2
VIEW
  5
6
330
0
100
AcDbSymbolTable
 70
     0
  0
ENDTAB
  0
TABLE
  2
UCS
  5
7
330
0
100
AcDbSymbolTable
 70
     0
  0
ENDTAB
  0
TABLE
  2
APPID
  5
9
330
0
100
AcDbSymbolTable
 70
    23
  0
APPID
  5
11
330
9
100
AcDbSymbolTableRecord
100
AcDbRegAppTableRecord
  2
ACAD
 70
     0
  0
APPID
  5
C058
330
9
100
AcDbSymbolTableRecord
100
AcDbRegAppTableRecord
  2
AcAecLayerStandard
 70
     0
  0
APPID
  5
CD77
330
9
100
AcDbSymbolTableRecord
100
AcDbRegAppTableRecord
  2
ACAD_MLEADERVER
 70
     0
  0
APPID
  5
D036
330
9
100
AcDbSymbolTableRecord
100
AcDbRegAppTableRecord
  2
ACAD_PSEXT
 70
     0
  0
APPID
  5
D28E
330
9
100
AcDbSymbolTableRecord
100
AcDbRegAppTableRecord
  2
ACAD_DSTYLE_DIMJAG
 70
     0
  0
APPID
  5
D28F
330
9
100
AcDbSymbolTableRecord
100
AcDbRegAppTableRecord
  2
ACAD_DSTYLE_DIMTALN
 70
     0
  0
APPID
  5
10E35
330
9
100
AcDbSymbolTableRecord
100
AcDbRegAppTableRecord
  2
ACAD_EXEMPT_FROM_CAD_STANDARDS
 70
     0
  0
APPID
  5
36B90
330
9
100
AcDbSymbolTableRecord
100
AcDbRegAppTableRecord
  2
ACAD_DSTYLE_DIMRADIAL_EXTENSION
 70
     0
  0
APPID
  5
4CBB9
330
9
100
AcDbSymbolTableRecord
100
AcDbRegAppTableRecord
  2
WACOM_STRING
 70
     0
  0
APPID
  5
4CBBA
330
9
100
AcDbSymbolTableRecord
100
AcDbRegAppTableRecord
  2
WACOM_DRSYM_ARROW
 70
     0
  0
APPID
  5
83B4C
330
9
100
AcDbSymbolTableRecord
100
AcDbRegAppTableRecord
  2
ACAD_DSTYLE_DIMRADIAL_EXTE
 70
     0
  0
APPID
  5
83B4D
330
9
100
AcDbSymbolTableRecord
100
AcDbRegAppTableRecord
  2
ACAD_DSTYLE_DIMBREAK
 70
     0
  0
APPID
  5
83B4E
330
9
100
AcDbSymbolTableRecord
100
AcDbRegAppTableRecord
  2
ACAD_DSTYLE_DIMARC_LENGTH_
 70
     0
  0
APPID
  5
8B472
330
9
100
AcDbSymbolTableRecord
100
AcDbRegAppTableRecord
  2
LAYER_SCALE
 70
     0
  0
APPID
  5
8B473
330
9
100
AcDbSymbolTableRecord
100
AcDbRegAppTableRecord
  2
KCAD_DIM_EXT
 70
     0
  0
APPID
  5
16ECBA
330
9
100
AcDbSymbolTableRecord
100
AcDbRegAppTableRecord
  2
GENIUS_GENDTOL_13
 70
     0
  0
APPID
  5
23CCFB
330
9
100
AcDbSymbolTableRecord
100
AcDbRegAppTableRecord
  2
AcadAnnotative
 70
     0
  0
APPID
  5
31A28D
330
9
100
AcDbSymbolTableRecord
100
AcDbRegAppTableRecord
  2
ACAD_DSTYLE_DIMFLIPARROW_WHICH_SYMBOL
 70
     0
  0
APPID
  5
3A6CE8
330
9
100
AcDbSymbolTableRecord
100
AcDbRegAppTableRecord
  2
AECBASE
 70
     0
  0
APPID
  5
3A6CE9
330
9
100
AcDbSymbolTableRecord
100
AcDbRegAppTableRecord
  2
AEC_2DSECTION_XDATA
 70
     0
  0
APPID
  5
3A6CEA
330
9
100
AcDbSymbolTableRecord
100
AcDbRegAppTableRecord
  2
AEC_MASSGROUP_XDADA
 70
     0
  0
APPID
  5
3A7C27
330
9
100
AcDbSymbolTableRecord
100
AcDbRegAppTableRecord
  2
ACAD_SPLINE_DATA
 70
     0
  0
APPID
  5
3A7C28
330
9
100
AcDbSymbolTableRecord
100
AcDbRegAppTableRecord
  2
ACAD_SPLINE_DATA2
 70
     0
  0
ENDTAB
  0
TABLE
  2
DIMSTYLE
  5
A
330
0
100
AcDbSymbolTable
 70
     3
100
AcDbDimStyleTable
  0
DIMSTYLE
105
1CC
330
A
100
AcDbSymbolTableRecord
100
AcDbDimStyleTableRecord
  2
STANDARD
 70
     0
 41
2.5
 42
1.5
 43
7.0
 44
1.0
 45
0.0
 73
     0
 74
     0
 77
     3
 78
     8
 79
     2
140
3.0
141
0.0
146
0.6
147
1.0
171
     0
172
     1
176
     8
177
     8
271
     3
178
   256
179
     3
271
     3
272
     3
274
     0
289
     0
340
10
341
265D
342
265D
1001
ACAD_DSTYLE_DIMJAG
1070
   388
1040
1.5
1001
ACAD_DSTYLE_DIMTALN
1070
   392
1070
     0
  0
ENDTAB
  0
TABLE
  2
BLOCK_RECORD
  5
1
330
0
100
AcDbSymbolTable
 70
    25
  0
BLOCK_RECORD
  5
18
102
{ACAD_XDICTIONARY
360
D25F
102
}
330
1
100
AcDbSymbolTableRecord
100
AcDbBlockTableRecord
  2
*MODEL_SPACE
340
355
  0
BLOCK_RECORD
  5
15
330
1
100
AcDbSymbolTableRecord
100
AcDbBlockTableRecord
  2
*PAPER_SPACE
340
356
  0
BLOCK_RECORD
  5
416
330
1
100
AcDbSymbolTableRecord
100
AcDbBlockTableRecord
  2
SUN
340
0
  0
BLOCK_RECORD
  5
265D
330
1
100
AcDbSymbolTableRecord
100
AcDbBlockTableRecord
  2
_OPEN30
340
0
102
{BLKREFS
331
3A49D2
331
3A49D3
331
3A49DB
331
3A49DC
331
3A49E4
331
3A49E5
331
3A49ED
331
3A49EE
331
3A49F6
331
3A49F7
331
3A49FF
331
3A4A00
331
3A671A
331
3A671B
331
3A6724
331
3A6725
331
3A672E
331
3A672F
331
3A6738
331
3A6739
331
3A6742
331
3A6743
331
3A674C
331
3A674D
331
3A7BD5
331
3A7BD6
331
3A7BE1
331
3A7BE2
331
3A7BED
331
3A7BEE
331
3A7BF9
331
3A7BFA
331
3A7C05
331
3A7C06
331
3A7C11
331
3A7C12
102
}
  0
BLOCK_RECORD
  5
352B8A
330
1
100
AcDbSymbolTableRecord
100
AcDbBlockTableRecord
  2
_OPEN
340
0
102
{BLKREFS
331
0
331
0
331
0
331
0
331
0
331
0
102
}
  0
BLOCK_RECORD
  5
35A9FD
330
1
100
AcDbSymbolTableRecord
100
AcDbBlockTableRecord
  2
_None
340
0
102
{BLKREFS
331
3A6757
331
3A6758
331
3A7C1E
331
3A7C1F
102
}
  0
ENDTAB
  0
ENDSEC
  0
SECTION
  2
BLOCKS
  0
BLOCK
  5
39
330
18
100
AcDbEntity
  8
0
100
AcDbBlockBegin
  2
*MODEL_SPACE
 70
     0
 10
0.0
 20
0.0
 30
0.0
  3
*MODEL_SPACE
  1
*MODEL_SPACE
  0
ENDBLK
  5
3A
330
18
100
AcDbEntity
  8
0
100
AcDbBlockEnd
  0
BLOCK
  5
37
330
15
100
AcDbEntity
 67
     1
  8
0
100
AcDbBlockBegin
  2
*PAPER_SPACE
 70
     0
 10
0.0
 20
0.0
 30
0.0
  3
*PAPER_SPACE
  1
*PAPER_SPACE
  0
ENDBLK
  5
38
330
15
100
AcDbEntity
 67
     1
  8
0
100
AcDbBlockEnd
  0
BLOCK
  5
41A
330
416
100
AcDbEntity
  8
0
100
AcDbBlockBegin
  2
SUN
 70
     0
 10
0.0
 20
0.0
 30
0.0
  3
SUN
  1
SUN
  0
LINE
  5
417
330
416
100
AcDbEntity
  8
0
100
AcDbLine
 10
-0.0000000000000568
 20
0.0
 30
0.0
 11
-1.500000000000057
 21
0.0
 31
0.0
  0
LINE
  5
418
330
416
100
AcDbEntity
  8
0
100
AcDbLine
 10
-0.0000000000000568
 20
0.0000000000000284
 30
0.0
 11
-1.500000000000057
 21
0.401923788646684
 31
0.0
  0
LINE
  5
419
330
416
100
AcDbEntity
  8
0
100
AcDbLine
 10
-0.0000000000000568
 20
0.0000000000000284
 30
0.0
 11
-1.500000000000057
 21
-0.4019237886466556
 31
0.0
  0
ENDBLK
  5
41B
330
416
100
AcDbEntity
  8
0
100
AcDbBlockEnd
  0
BLOCK
  5
265E
330
265D
100
AcDbEntity
  8
0
100
AcDbBlockBegin
  2
_OPEN30
 70
     0
 10
0.0
 20
0.0
 30
0.0
  3
_OPEN30
  1
_OPEN30
  0
LINE
  5
265F
330
265D
100
AcDbEntity
  8
0
  6
ByBlock
 62
     0
100
AcDbLine
 10
-1.0
 20
0.26794919
 30
0.0
 11
0.0
 21
0.0
 31
0.0
  0
LINE
  5
2660
330
265D
100
AcDbEntity
  8
0
  6
ByBlock
 62
     0
100
AcDbLine
 10
0.0
 20
0.0
 30
0.0
 11
-1.0
 21
-0.26794919
 31
0.0
  0
LINE
  5
2661
330
265D
100
AcDbEntity
  8
0
  6
ByBlock
 62
     0
100
AcDbLine
 10
0.0
 20
0.0
 30
0.0
 11
-1.0
 21
0.0
 31
0.0
  0
ENDBLK
  5
2662
330
265D
100
AcDbEntity
  8
0
100
AcDbBlockEnd
  0
BLOCK
  5
352B8B
330
352B8A
100
AcDbEntity
  8
0
100
AcDbBlockBegin
  2
_OPEN
 70
     0
 10
0.0
 20
0.0
 30
0.0
  3
_OPEN
  1
_OPEN
  0
LINE
  5
352B8C
330
352B8A
100
AcDbEntity
  8
0
  6
ByBlock
 62
     0
100
AcDbLine
 10
-1.0
 20
0.1666666666666667
 30
0.0
 11
0.0
 21
0.0
 31
0.0
  0
LINE
  5
352B8D
330
352B8A
100
AcDbEntity
  8
0
  6
ByBlock
 62
     0
100
AcDbLine
 10
0.0
 20
0.0
 30
0.0
 11
-1.0
 21
-0.1666666666666667
 31
0.0
  0
LINE
  5
352B8E
330
352B8A
100
AcDbEntity
  8
0
  6
ByBlock
 62
     0
100
AcDbLine
 10
0.0
 20
0.0
 30
0.0
 11
-1.0
 21
0.0
 31
0.0
  0
ENDBLK
  5
352B8F
330
352B8A
100
AcDbEntity
  8
0
100
AcDbBlockEnd
  0
BLOCK
  5
35A9FE
330
35A9FD
100
AcDbEntity
  8
0
 48
3.0
100
AcDbBlockBegin
  2
_None
 70
     0
 10
0.0
 20
0.0
 30
0.0
  3
_None
  1
_None
  0
ENDBLK
  5
35A9FF
330
35A9FD
100
AcDbEntity
  8
0
 48
3.0
100
AcDbBlockEnd
  0
ENDSEC
  0
SECTION
  2
ENTITIES
  0
MTEXT
  5
8182F
330
18
100
AcDbEntity
  8
0
100
AcDbMText
 10
5598.734167156057
 20
-2635.335630549191
 30
0.0
 40
3.0
 41
0.0
 71
     7
 72
     1
  1
\A1;
 73
     1
 44
1.0
  0
MTEXT
  5
3073B9
330
18
100
AcDbEntity
  8
C-SUNPO
 62
     7
100
AcDbMText
 10
8897.245354628265
 20
-2466.345110988794
 30
0.0
 40
2.0
 41
0.0
 71
     5
 72
     1
  1
\A1;\P\P 
 11
0.999998667560571
 21
0.001632445123950444
 31
0.0
 73
     1
 44
1.0
  0
TEXT
  5
3A6D56
330
18
100
AcDbEntity
  8
文字
100
AcDbText
 10
18515.47799504284
 20
-16628.05984969668
 30
0.0
 40
9.75
  1
SX-900DF
100
AcDbText
  0
SPLINE
  5
3A7654
330
18
100
AcDbEntity
  8
姿図
100
AcDbSpline
210
0.0
220
0.0
230
1.0
 70
     8
 71
     3
 72
    26
 73
    22
 74
     0
 42
0.000000001
 43
0.0000000001
 40
0.0
 40
0.0
 40
0.0
 40
0.0
 40
0.1264422350829495
 40
0.1264422350829495
 40
0.1588844121662647
 40
0.1588844121662647
 40
0.1751106177118944
 40
0.1751106177118944
 40
0.1858741810274541
 40
0.1858741810274541
 40
0.1957084812443391
 40
0.1957084812443391
 40
0.2081347559133095
 40
0.2081347559133095
 40
0.2307818527987925
 40
0.2307818527987925
 40
0.2883799021281352
 40
0.2883799021281352
 40
0.5072725936264543
 40
0.5072725936264543
 40
1.002470307424774
 40
1.002470307424774
 40
1.002470307424774
 40
1.002470307424774
 10
18577.88528482096
 20
-16520.32467911915
 30
0.0000000000000089
 10
18577.88864621328
 20
-16520.32498415986
 30
-0.0000000000000011
 10
18577.89265206956
 20
-16520.32459633984
 30
0.0000000000000089
 10
18577.89587933516
 20
-16520.32067751562
 30
0.0000000000000188
 10
18577.8965868241
 20
-16520.31952345977
 30
0.0000000000000089
 10
18577.89735239178
 20
-16520.3170047113
 30
0.0000000000000089
 10
18577.89758071285
 20
-16520.31596114442
 30
0.0000000000000089
 10
18577.89780107503
 20
-16520.31381257979
 30
0.0000000000000089
 10
18577.89784536729
 20
-16520.31286103818
 30
0.0000000000000188
 10
18577.89781900437
 20
-16520.31083653108
 30
0.0000000000000288
 10
18577.89775878508
 20
-16520.30984570646
 30
0.0000000000000089
 10
18577.89753307861
 20
-16520.30757212716
 30
0.0000000000000288
 10
18577.89734889681
 20
-16520.30633063459
 30
0.0000000000000188
 10
18577.89675992025
 20
-16520.30304476812
 30
0.0000000000000188
 10
18577.89626775323
 20
-16520.30101146903
 30
0.0000000000000188
 10
18577.89457092587
 20
-16520.2947772118
 30
0.0000000000000188
 10
18577.8929715476
 20
-16520.29035471485
 30
0.0000000000000288
 10
18577.88565651943
 20
-16520.27207376974
 30
0.0000000000000188
 10
18577.87709563668
 20
-16520.25690311773
 30
-0.0000000000000011
 10
18577.85607427806
 20
-16520.22224774106
 30
0.0000000000000089
 10
18577.83583506512
 20
-16520.19397313174
 30
-0.0000000000000011
 10
18577.80897960443
 20
-16520.16196345252
 30
0.0000000000000188
  0
SPLINE
  5
3A7655
330
18
100
AcDbEntity
  8
姿図
100
AcDbSpline
210
0.0
220
0.0
230
1.0
 70
     8
 71
     3
 72
    16
 73
    12
 74
     0
 42
0.000000001
 43
0.0000000001
 40
15.85860550385592
 40
15.85860550385592
 40
15.85860550385592
 40
15.85860550385592
 40
16.11243786898941
 40
16.11243786898941
 40
16.67677331177295
 40
16.67677331177295
 40
17.2411087545565
 40
17.2411087545565
 40
17.80544419734004
 40
17.80544419734004
 40
18.35651257010812
 40
18.35651257010812
 40
18.35651257010812
 40
18.35651257010812
 10
18574.64112719753
 20
-16515.3421094554
 30
0.0000000000000188
 10
18574.65388439796
 20
-16515.3282900904
 30
0.0000000000000188
 10
18574.66606090306
 20
-16515.31350589896
 30
0.0000000000000188
 10
18574.70322578933
 20
-16515.26319662696
 30
-0.0000000000000011
 10
18574.7273893014
 20
-16515.22208200726
 30
0.0000000000000089
 10
18574.77031153931
 20
-16515.12854248528
 30
0.0000000000000089
 10
18574.78907531038
 20
-16515.07612078211
 30
0.0000000000000188
 10
18574.81975264638
 20
-16514.96315789035
 30
0.0000000000000188
 10
18574.83169319627
 20
-16514.90252425464
 30
-0.0000000000000011
 10
18574.84807780931
 20
-16514.77882203305
 30
-0.0000000000000011
 10
18574.85269142023
 20
-16514.71584291124
 30
0.0000000000000188
 10
18574.85409313804
 20
-16514.65348578182
 30
0.0000000000000089
  0
SPLINE
  5
3A7656
330
18
100
AcDbEntity
  8
姿図
100
AcDbSpline
210
0.0
220
0.0
230
1.0
 70
     8
 71
     3
 72
    30
 73
    26
 74
     0
 42
0.000000001
 43
0.0000000001
 40
5.468358937646049
 40
5.468358937646049
 40
5.468358937646049
 40
5.468358937646049
 40
5.554474529312383
 40
5.554474529312383
 40
5.597484804418004
 40
5.597484804418004
 40
5.640495079523625
 40
5.640495079523625
 40
5.653252350784877
 40
5.653252350784877
 40
5.659630986415502
 40
5.659630986415502
 40
5.666009622046128
 40
5.666009622046128
 40
5.672394292855955
 40
5.672394292855955
 40
5.678778963665781
 40
5.678778963665781
 40
5.691548305285435
 40
5.691548305285435
 40
5.734612320533793
 40
5.734612320533793
 40
5.77767633578215
 40
5.77767633578215
 40
5.877831414689104
 40
5.877831414689104
 40
5.877831414689104
 40
5.877831414689104
 10
18577.78430512797
 20
-16518.89912382006
 30
0.0000000000000188
 10
18577.78680119413
 20
-16518.89962179794
 30
0.0000000000000089
 10
18577.78924091904
 20
-16518.89985366691
 30
-0.0000000000000011
 10
18577.79277186416
 20
-16518.89929544092
 30
0.0000000000000188
 10
18577.79404669654
 20
-16518.8989374453
 30
0.0000000000000089
 10
18577.79647512651
 20
-16518.89743429614
 30
0.0000000000000089
 10
18577.79764050903
 20
-16518.89639139408
 30
0.0000000000000288
 10
18577.79878987677
 20
-16518.89355779135
 30
0.0000000000000188
 10
18577.79905283107
 20
-16518.89272214456
 30
-0.0000000000000011
 10
18577.7993273734
 20
-16518.89114019876
 30
0.0000000000000188
 10
18577.7994000492
 20
-16518.89056037018
 30
0.0000000000000188
 10
18577.79948906726
 20
-16518.88929854127
 30
-0.0000000000000011
 10
18577.79950575736
 20
-16518.88861731593
 30
0.0000000000000188
 10
18577.79947553461
 20
-16518.88718029358
 30
0.0000000000000089
 10
18577.79942878379
 20
-16518.88643459063
 30
0.0000000000000188
 10
18577.79928162956
 20
-16518.88493356342
 30
-0.0000000000000011
 10
18577.79918090354
 20
-16518.88417833024
 30
-0.0000000000000011
 10
18577.79882662321
 20
-16518.88196039273
 30
0.0000000000000089
 10
18577.79851667185
 20
-16518.88054537063
 30
0.0000000000000388
 10
18577.79719669368
 20
-16518.87521332503
 30
-0.0000000000000011
 10
18577.79593610538
 20
-16518.87171541731
 30
0.0000000000000288
 10
18577.79333790314
 20
-16518.86513452708
 30
0.0000000000000288
 10
18577.79199234738
 20
-16518.86213334373
 30
-0.0000000000000011
 10
18577.78788445241
 20
-16518.85343692482
 30
0.0000000000000188
 10
18577.78492758156
 20
-16518.84797493938
 30
0.0000000000000188
 10
18577.78190889118
 20
-16518.84271659009
 30
0.0000000000000288
  0
SPLINE
  5
3A7657
330
18
100
AcDbEntity
  8
姿図
100
AcDbSpline
210
0.0
220
0.0
230
1.0
 70
    12
 71
     2
 72
     6
 73
     3
 74
     0
 42
0.000000001
 43
0.0000000001
 40
22.18928893771569
 40
22.18928893771569
 40
22.18928893771569
 40
29.25375354177516
 40
29.25375354177516
 40
29.25375354177516
 10
18576.80093099849
 20
-16519.94731109772
 30
0.0000000000000288
 41
0.9999999984713707
 10
18576.82822856585
 20
-16518.75276945907
 30
0.0000000000000188
 41
0.9999999989658331
 10
18576.85556244014
 20
-16517.55665967446
 30
0.0000000000000089
 41
0.9999999999300861
  0
SPLINE
  5
3A7658
330
18
100
AcDbEntity
  8
姿図
100
AcDbSpline
210
0.0
220
0.0
230
1.0
 70
     8
 71
     3
 72
    26
 73
    22
 74
     0
 42
0.000000001
 43
0.0000000001
 40
5.508613077618151
 40
5.508613077618151
 40
5.508613077618151
 40
5.508613077618151
 40
6.179005067686559
 40
6.179005067686559
 40
6.340002190112532
 40
6.340002190112532
 40
6.392156946112854
 40
6.392156946112854
 40
6.417035445654846
 40
6.417035445654846
 40
6.433276212519534
 40
6.433276212519534
 40
6.447901642471058
 40
6.447901642471058
 40
6.46599523881348
 40
6.46599523881348
 40
6.498353151737191
 40
6.498353151737191
 40
6.578911697646714
 40
6.578911697646714
 40
6.714781857145347
 40
6.714781857145347
 40
6.714781857145347
 40
6.714781857145347
 10
18576.42750661543
 20
-16519.17305483786
 30
0.0000000000000188
 10
18576.36497397832
 20
-16519.146081278
 30
0.0000000000000089
 10
18576.32133229557
 20
-16519.1343910463
 30
0.0000000000000188
 10
18576.2910240715
 20
-16519.13468605389
 30
0.0000000000000089
 10
18576.28419425605
 20
-16519.13545113865
 30
-0.0000000000000011
 10
18576.27793927438
 20
-16519.13933616579
 30
-0.0000000000000011
 10
18576.27642814174
 20
-16519.14063849003
 30
0.0000000000000188
 10
18576.2748238809
 20
-16519.14332627614
 30
0.0000000000000188
 10
18576.27434856055
 20
-16519.1444028827
 30
0.0000000000000188
 10
18576.27386148413
 20
-16519.14659295876
 30
0.0000000000000388
 10
18576.27374831491
 20
-16519.14755320296
 30
0.0000000000000188
 10
18576.27374114046
 20
-16519.14958055772
 30
0.0000000000000188
 10
18576.27382667746
 20
-16519.1505639276
 30
0.0000000000000089
 10
18576.2741872871
 20
-16519.15279546918
 30
0.0000000000000089
 10
18576.27449407703
 20
-16519.1539987593
 30
0.0000000000000089
 10
18576.27548555153
 20
-16519.15714752725
 30
0.0000000000000089
 10
18576.27632243893
 20
-16519.15907150056
 30
0.0000000000000188
 10
18576.2791955149
 20
-16519.16489090276
 30
0.0000000000000188
 10
18576.28189953805
 20
-16519.16895219296
 30
-0.0000000000000011
 10
18576.28886639803
 20
-16519.1783609766
 30
0.0000000000000288
 10
18576.29394839421
 20
-16519.18405011018
 30
0.0000000000000188
 10
18576.29845459555
 20
-16519.18876832509
 30
0.0000000000000288
  0
SPLINE
  5
3A7659
330
18
100
AcDbEntity
  8
姿図
100
AcDbSpline
210
0.0
220
0.0
230
1.0
 70
     8
 71
     3
 72
    10
 73
     6
 74
     0
 42
0.000000001
 43
0.0000000001
 40
0.505347474080478
 40
0.505347474080478
 40
0.505347474080478
 40
0.505347474080478
 40
0.5908081871204214
 40
0.5908081871204214
 40
0.6018930666040991
 40
0.6018930666040991
 40
0.6018930666040991
 40
0.6018930666040991
 10
18576.6375144477
 20
-16519.76266806846
 30
0.0000000000000089
 10
18576.63547890172
 20
-16519.75350085393
 30
-0.0000000000000011
 10
18576.63216952387
 20
-16519.74339736293
 30
-0.0000000000000011
 10
18576.62668430875
 20
-16519.73284823056
 30
0.0000000000000188
 10
18576.62602947481
 20
-16519.73164937682
 30
0.0000000000000188
 10
18576.62535004972
 20
-16519.73046627963
 30
0.0000000000000089
  0
SPLINE
  5
3A765A
330
18
100
AcDbEntity
  8
姿図
100
AcDbSpline
210
0.0
220
0.0
230
1.0
 70
     8
 71
     3
 72
    26
 73
    22
 74
     0
 42
0.000000001
 43
0.0000000001
 40
0.0
 40
0.0
 40
0.0
 40
0.0
 40
0.128245973690629
 40
0.128245973690629
 40
0.1709107023387558
 40
0.1709107023387558
 40
0.1890943956851749
 40
0.1890943956851749
 40
0.2007783270636655
 40
0.2007783270636655
 40
0.2111470640880597
 40
0.2111470640880597
 40
0.2237033505467542
 40
0.2237033505467542
 40
0.2457537947997618
 40
0.2457537947997618
 40
0.2995509632558
 40
0.2995509632558
 40
0.4920237835540287
 40
0.4920237835540287
 40
0.793426644719398
 40
0.793426644719398
 40
0.793426644719398
 40
0.793426644719398
 10
18577.83649195008
 20
-16519.61311622647
 30
0.0000000000000188
 10
18577.84000808592
 20
-16519.61362534514
 30
0.0000000000000188
 10
18577.84409768224
 20
-16519.61352828945
 30
0.0000000000000188
 10
18577.84782916348
 20
-16519.61020038984
 30
0.0000000000000188
 10
18577.84876017634
 20
-16519.60897929328
 30
0.0000000000000188
 10
18577.84967427684
 20
-16519.60633206847
 30
0.0000000000000089
 10
18577.84992549159
 20
-16519.6053361108
 30
-0.0000000000000011
 10
18577.85017648613
 20
-16519.60328606558
 30
0.0000000000000188
 10
18577.8502334025
 20
-16519.60238594734
 30
0.0000000000000188
 10
18577.85023007726
 20
-16519.60047666683
 30
0.0000000000000188
 10
18577.85018240869
 20
-16519.59954996188
 30
0.0000000000000288
 10
18577.84998821416
 20
-16519.59745346642
 30
0.0000000000000288
 10
18577.84982779715
 20
-16519.59632621197
 30
-0.0000000000000011
 10
18577.84931571003
 20
-16519.59338978012
 30
0.0000000000000288
 10
18577.84889089864
 20
-16519.59159483964
 30
-0.0000000000000011
 10
18577.84744884199
 20
-16519.5862028958
 30
0.0000000000000089
 10
18577.84611108292
 20
-16519.58242845402
 30
0.0000000000000089
 10
18577.84018820586
 20
-16519.56736801279
 30
0.0000000000000188
 10
18577.83346067391
 20
-16519.55508158961
 30
0.0000000000000288
 10
18577.8196803526
 20
-16519.53175910534
 30
0.0000000000000089
 10
18577.80886123393
 20
-16519.51558619055
 30
0.0000000000000188
 10
18577.79534604101
 20
-16519.4975522496
 30
0.0000000000000188
  0
SPLINE
  5
3A765B
330
18
100
AcDbEntity
  8
姿図
100
AcDbSpline
210
0.0
220
0.0
230
1.0
 70
     8
 71
     3
 72
    30
 73
    26
 74
     0
 42
0.000000001
 43
0.0000000001
 40
16.78601875418834
 40
16.78601875418834
 40
16.78601875418834
 40
16.78601875418834
 40
16.8861738330952
 40
16.8861738330952
 40
16.92923784834355
 40
16.92923784834355
 40
16.97230186359191
 40
16.97230186359191
 40
16.98507120521156
 40
16.98507120521156
 40
16.99145587602139
 40
16.99145587602139
 40
16.99784054683122
 40
16.99784054683122
 40
17.00421918246185
 40
17.00421918246185
 40
17.01059781809247
 40
17.01059781809247
 40
17.02335508935372
 40
17.02335508935372
 40
17.06636536445934
 40
17.06636536445934
 40
17.10937563956496
 40
17.10937563956496
 40
17.1954912312313
 40
17.1954912312313
 40
17.1954912312313
 40
17.1954912312313
 10
18576.40043590229
 20
-16517.85380797552
 30
0.0000000000000188
 10
18576.39547380495
 20
-16517.85335338666
 30
-0.0000000000000011
 10
18576.39060623122
 20
-16517.85321435008
 30
0.0000000000000089
 10
18576.38387554674
 20
-16517.85415211958
 30
0.0000000000000388
 10
18576.38167506029
 20
-16517.85461491693
 30
0.0000000000000188
 10
18576.3774612341
 20
-16517.85631950942
 30
0.0000000000000188
 10
18576.37542916974
 20
-16517.85746041661
 30
0.0000000000000188
 10
18576.37339324824
 20
-16517.86039018715
 30
-0.0000000000000011
 10
18576.37292418646
 20
-16517.86124756332
 30
0.0000000000000188
 10
18576.37242205607
 20
-16517.86285245089
 30
-0.0000000000000011
 10
18576.3722863568
 20
-16517.86343844224
 30
0.0000000000000089
 10
18576.37211074251
 20
-16517.86470842001
 30
0.0000000000000388
 10
18576.37207024988
 20
-16517.86539167092
 30
0.0000000000000188
 10
18576.37209845664
 20
-16517.86682725016
 30
0.0000000000000089
 10
18576.37216686871
 20
-16517.86756939472
 30
0.0000000000000089
 10
18576.37239666238
 20
-16517.86905944066
 30
0.0000000000000089
 10
18576.37255861706
 20
-16517.86980722628
 30
-0.0000000000000011
 10
18576.3731356518
 20
-16517.87199876191
 30
-0.000000000000011
 10
18576.37364949029
 20
-16517.87339046524
 30
-0.0000000000000011
 10
18576.37584768491
 20
-16517.87862037487
 30
-0.0000000000000011
 10
18576.37796939464
 20
-16517.88201629712
 30
-0.0000000000000011
 10
18576.38234232695
 20
-16517.8883881088
 30
0.0000000000000188
 10
18576.38460861237
 20
-16517.89128096534
 30
0.0000000000000089
 10
18576.3908487194
 20
-16517.89883366587
 30
0.0000000000000089
 10
18576.39510886341
 20
-16517.90339780676
 30
0.0000000000000089
 10
18576.39943428855
 20
-16517.90778290049
 30
0.0000000000000089
  0
SPLINE
  5
3A765C
330
18
100
AcDbEntity
  8
姿図
100
AcDbSpline
210
0.0
220
0.0
230
1.0
 70
     8
 71
     3
 72
    12
 73
     8
 74
     0
 42
0.000000001
 43
0.0000000001
 40
2.214246753416005
 40
2.214246753416005
 40
2.214246753416005
 40
2.214246753416005
 40
2.273337669201671
 40
2.273337669201671
 40
2.651501823638109
 40
2.651501823638109
 40
2.971189770913845
 40
2.971189770913845
 40
2.971189770913845
 40
2.971189770913845
 10
18576.85556244014
 20
-16517.55665967446
 30
0.0000000000000089
 10
18576.85376992396
 20
-16517.5624329126
 30
0.0000000000000089
 10
18576.85203164082
 20
-16517.56827475638
 30
-0.000000000000011
 10
18576.83960297516
 20
-16517.61180858135
 30
-0.0000000000000011
 10
18576.82991364408
 20
-16517.65646457566
 30
0.0000000000000188
 10
18576.81733136977
 20
-16517.74152141265
 30
0.0000000000000188
 10
18576.81359048612
 20
-16517.78153313495
 30
0.0000000000000089
 10
18576.8120367037
 20
-16517.81866179188
 30
0.0000000000000288
  0
SPLINE
  5
3A765D
330
18
100
AcDbEntity
  8
姿図
100
AcDbSpline
210
0.0
220
0.0
230
1.0
 70
     8
 71
     3
 72
    12
 73
     8
 74
     0
 42
0.000000001
 43
0.0000000001
 40
2.214246753415932
 40
2.214246753415932
 40
2.214246753415932
 40
2.214246753415932
 40
2.27333766920167
 40
2.27333766920167
 40
2.65150182363811
 40
2.65150182363811
 40
2.971189770913846
 40
2.971189770913846
 40
2.971189770913846
 40
2.971189770913846
 10
18552.17645763872
 20
-16510.28047862949
 30
0.0000000000000188
 10
18552.18164989564
 20
-16510.28472780556
 30
-0.0000000000000011
 10
18552.18666402818
 20
-16510.28910112624
 30
0.0000000000000089
 10
18552.22236842543
 20
-16510.32220072619
 30
0.0000000000000089
 10
18552.24931490251
 20
-16510.35912055358
 30
0.0000000000000089
 10
18552.28249179788
 20
-16510.43494507451
 30
0.0000000000000089
 10
18552.29137995082
 20
-16510.47264933912
 30
0.0000000000000089
 10
18552.29377082181
 20
-16510.50940273951
 30
0.0000000000000089
  0
SPLINE
  5
3A765E
330
18
100
AcDbEntity
  8
姿図
100
AcDbSpline
210
0.0
220
0.0
230
1.0
 70
     8
 71
     3
 72
    14
 73
    10
 74
     0
 42
0.000000001
 43
0.0000000001
 40
0.0518711334186413
 40
0.0518711334186413
 40
0.0518711334186413
 40
0.0518711334186413
 40
0.3761852694724612
 40
0.3761852694724612
 40
0.7523705389449225
 40
0.7523705389449225
 40
1.132719326167469
 40
1.132719326167469
 40
1.510190416961686
 40
1.510190416961686
 40
1.510190416961686
 40
1.510190416961686
 10
18552.15275587216
 20
-16510.40845910933
 30
0.0000000000000188
 10
18552.15091294714
 20
-16510.37163724239
 30
0.0000000000000188
 10
18552.14240859174
 20
-16510.33375705669
 30
-0.0000000000000011
 10
18552.10985039044
 20
-16510.2585347432
 30
0.0000000000000188
 10
18552.08340181254
 20
-16510.22226134044
 30
0.0000000000000089
 10
18552.02214114339
 20
-16510.16577832563
 30
0.0000000000000188
 10
18551.98313051196
 20
-16510.14194347879
 30
0.0000000000000089
 10
18551.89807211196
 20
-16510.11242907118
 30
0.0000000000000288
 10
18551.85208230361
 20
-16510.10660591997
 30
0.0000000000000288
 10
18551.80893948098
 20
-16510.10898939276
 30
0.0000000000000188
  0
SPLINE
  5
3A765F
330
18
100
AcDbEntity
  8
姿図
100
AcDbSpline
210
0.0
220
0.0
230
1.0
 70
     8
 71
     3
 72
    14
 73
    10
 74
     0
 42
0.000000001
 43
0.0000000001
 40
0.0516007629148517
 40
0.0516007629148517
 40
0.0516007629148517
 40
0.0516007629148517
 40
0.3775999287975693
 40
0.3775999287975693
 40
0.7551998575951386
 40
0.7551998575951386
 40
1.136339040160537
 40
1.136339040160537
 40
1.513620557812546
 40
1.513620557812546
 40
1.513620557812546
 40
1.513620557812546
 10
18545.54151725328
 20
-16516.45867147627
 30
0.0000000000000089
 10
18545.53934250614
 20
-16516.49606065434
 30
0.0000000000000188
 10
18545.53116042109
 20
-16516.53572069501
 30
0.0000000000000188
 10
18545.50087155429
 20
-16516.61722034608
 30
0.0000000000000188
 10
18545.47665479963
 20
-16516.65842321759
 30
0.0000000000000288
 10
18545.42109286576
 20
-16516.72616626623
 30
0.0000000000000188
 10
18545.38597967382
 20
-16516.75710320886
 30
0.0000000000000188
 10
18545.31002448383
 20
-16516.80217939928
 30
0.0000000000000089
 10
18545.269249421
 20
-16516.81650191068
 30
0.0000000000000089
 10
18545.23117288194
 20
-16516.82226446314
 30
0.0000000000000089
  0
SPLINE
  5
3A7660
330
18
100
AcDbEntity
  8
姿図
100
AcDbSpline
210
0.0
220
0.0
230
1.0
 70
     8
 71
     3
 72
    14
 73
    10
 74
     0
 42
0.000000001
 43
0.0000000001
 40
1.526591127950939
 40
1.526591127950939
 40
1.526591127950939
 40
1.526591127950939
 40
1.903872645602957
 40
1.903872645602957
 40
2.285011828168357
 40
2.285011828168357
 40
2.662611756965921
 40
2.662611756965921
 40
2.988610922850349
 40
2.988610922850349
 40
2.988610922850349
 40
2.988610922850349
 10
18552.77141279033
 20
-16516.11665586712
 30
0.0000000000000089
 10
18552.72790174766
 20
-16516.11852820422
 30
0.0000000000000188
 10
18552.68154710868
 20
-16516.1123592088
 30
0.0000000000000089
 10
18552.59568982297
 20
-16516.08242527846
 30
0.0000000000000089
 10
18552.55626322214
 20
-16516.0584636999
 30
0.0000000000000089
 10
18552.4942636842
 20
-16516.0017219438
 30
0.0000000000000089
 10
18552.46748107384
 20
-16515.96529154516
 30
0.0000000000000089
 10
18552.4344860591
 20
-16515.88971394051
 30
0.0000000000000089
 10
18552.42586587398
 20
-16515.85162624058
 30
0.0000000000000089
 10
18552.42400427818
 20
-16515.81461477969
 30
0.0000000000000089
  0
SPLINE
  5
3A7661
330
18
100
AcDbEntity
  8
姿図
100
AcDbSpline
210
0.0
220
0.0
230
1.0
 70
     8
 71
     3
 72
    16
 73
    12
 74
     0
 42
0.000000001
 43
0.0000000001
 40
7.430778314876192
 40
7.430778314876192
 40
7.430778314876192
 40
7.430778314876192
 40
7.48439642458809
 40
7.48439642458809
 40
8.051682043090178
 40
8.051682043090178
 40
8.618967661592267
 40
8.618967661592267
 40
9.186253280094355
 40
9.186253280094355
 40
9.198233509684796
 40
9.198233509684796
 40
9.198233509684796
 40
9.198233509684796
 10
18534.5874613812
 20
-16518.95457574336
 30
0.0000000000000089
 10
18534.58812676921
 20
-16518.95041515685
 30
0.0000000000000089
 10
18534.58878768682
 20
-16518.94620239631
 30
-0.0000000000000011
 10
18534.5963831787
 20
-16518.89680060632
 30
0.0000000000000089
 10
18534.60275916587
 20
-16518.84569955483
 30
0.0000000000000188
 10
18534.61370465203
 20
-16518.73471574782
 30
0.0000000000000089
 10
18534.61828108198
 20
-16518.67473999445
 30
0.0000000000000188
 10
18534.62527887759
 20
-16518.55027053336
 30
-0.0000000000000011
 10
18534.62769880503
 20
-16518.48577430816
 30
0.0000000000000089
 10
18534.62909814981
 20
-16518.42040675954
 30
0.0000000000000188
 10
18534.62912667221
 20
-16518.41905315418
 30
0.0000000000000089
 10
18534.62915477378
 20
-16518.41769787973
 30
0.0000000000000089
  0
SPLINE
  5
3A7662
330
18
100
AcDbEntity
  8
姿図
100
AcDbSpline
210
0.0
220
0.0
230
1.0
 70
     8
 71
     1
 72
     9
 73
     7
 74
     0
 42
0.000000001
 43
0.0000000001
 40
8.843010394358767
 40
8.843010394358767
 40
8.844295783825991
 40
8.845581173293212
 40
8.846866562760436
 40
8.848151952227658
 40
8.84943734169488
 40
8.850046236987634
 40
8.850046236987634
 10
18537.2033703676
 20
-16517.18620130136
 30
0.0000000000000188
 10
18537.12570390907
 20
-16517.53525152351
 30
0.0000000000000188
 10
18537.04953683734
 20
-16517.88540384933
 30
0.0000000000000089
 10
18536.97488404166
 20
-16518.2366387053
 30
0.0000000000000188
 10
18536.90176019087
 20
-16518.58893618729
 30
0.0000000000000089
 10
18536.83017972617
 20
-16518.94227606444
 30
0.0000000000000188
 10
18536.79700954831
 20
-16519.11013894805
 30
0.0000000000000089
  0
SPLINE
  5
3A7663
330
18
100
AcDbEntity
  8
姿図
100
AcDbSpline
210
7.530158414385312E-10
220
1.567458576152556E-11
230
-1.0
 70
    12
 71
     2
 72
     6
 73
     3
 74
     0
 42
0.000000001
 43
0.0000000001
 40
3.438957747159619
 40
3.438957747159619
 40
3.438957747159619
 40
27.9798144579688
 40
27.9798144579688
 40
27.9798144579688
 10
18575.48607905986
 20
-16522.89801232301
 30
0.0000000000000089
 41
1.000002949620377
 10
18575.39948581472
 20
-16518.73675435582
 30
0.0000000000000288
 41
1.000012270378906
 10
18575.3135944663
 20
-16514.61048607743
 30
0.0000000000000288
 41
1.000004411873195
  0
ELLIPSE
  5
3A7664
330
18
100
AcDbEntity
  8
姿図
100
AcDbEllipse
 10
18576.17528028314
 20
-16508.11997434961
 30
0.0000000000000014
 11
0.06309259537054744
 21
-0.6273025252676169
 31
1.049939124189298E-16
210
-1.666545791913228E-17
220
1.656974764790396E-16
230
1.0
 40
0.3266547503873759
 41
1.290961286430822
 42
2.861757613225796
  0
LINE
  5
3A7665
330
18
100
AcDbEntity
  8
姿図
100
AcDbLine
 10
18577.9228579163
 20
-16508.78843804517
 30
0.0000000000000014
 11
18577.08007510462
 21
-16508.86730487218
 31
0.0000000000000014
  0
ELLIPSE
  5
3A7666
330
18
100
AcDbEntity
  8
姿図
100
AcDbEllipse
 10
18576.46091340973
 20
-16511.10862438184
 30
0.0000000000000014
 11
0.04077444956302772
 21
0.0569605723704284
 31
3.888579933804730E-18
210
-3.231153159914877E-17
220
-4.513815278383455E-17
230
1.0
 40
0.908374465235719
 41
0.6674062465666986
 42
2.67181090378285
  0
ELLIPSE
  5
3A7667
330
18
100
AcDbEntity
  8
姿図
100
AcDbEllipse
 10
18576.46091340973
 20
-16510.43198920092
 30
0.0000000000000014
 11
0.04077444956303928
 21
0.05696057237044466
 31
3.888579933805833E-18
210
-3.231153159914873E-17
220
-4.513815278383451E-17
230
1.0
 40
0.9083744652357183
 41
0.66740624656714
 42
2.671810903783259
  0
LINE
  5
3A7668
330
18
100
AcDbEntity
  8
姿図
100
AcDbLine
 10
18576.61950867854
 20
-16510.25339228078
 30
0.0000000000000014
 11
18576.40113321375
 21
-16509.78937688188
 31
0.0000000000000014
  0
LINE
  5
3A7669
330
18
100
AcDbEntity
  8
姿図
100
AcDbLine
 10
18576.61950867854
 20
-16509.57675709986
 30
0.0000000000000014
 11
18576.40113321375
 21
-16509.11274170096
 31
0.0000000000000014
  0
LINE
  5
3A766A
330
18
100
AcDbEntity
  8
姿図
100
AcDbLine
 10
18576.61950867854
 20
-16508.90012191894
 30
0.0000000000000014
 11
18576.39057838072
 21
-16508.41367906896
 31
0.0000000000000014
  0
ELLIPSE
  5
3A766B
330
18
100
AcDbEntity
  8
姿図
100
AcDbEllipse
 10
18576.46091340973
 20
-16509.75535402
 30
0.0000000000000014
 11
0.04077444956303928
 21
0.05696057237044466
 31
3.888579933805833E-18
210
-3.231153159914873E-17
220
-4.513815278383451E-17
230
1.0
 40
0.9083744652357183
 41
0.6674062465669841
 42
2.671810903783383
  0
ELLIPSE
  5
3A766C
330
18
100
AcDbEntity
  8
姿図
100
AcDbEllipse
 10
18576.46091340973
 20
-16509.07871883908
 30
0.0000000000000014
 11
0.04077444956303928
 21
0.05696057237044466
 31
3.888579933805833E-18
210
-3.231153159914873E-17
220
-4.513815278383451E-17
230
1.0
 40
0.9083744652357183
 41
0.6674062465673603
 42
2.671810903782924
  0
LINE
  5
3A766D
330
18
100
AcDbEntity
  8
姿図
100
AcDbLine
 10
18576.61950867854
 20
-16510.9300274617
 30
0.0000000000000014
 11
18576.40113321375
 21
-16510.46601206281
 31
0.0000000000000014
  0
LINE
  5
3A766E
330
18
100
AcDbEntity
  8
姿図
100
AcDbLine
 10
18576.39057838072
 20
-16508.41367906896
 30
0.0000000000000014
 11
18576.38964678144
 21
-16508.27342568637
 31
0.0000000000000014
  0
LINE
  5
3A766F
330
18
100
AcDbEntity
  8
姿図
100
AcDbLine
 10
18576.46091340973
 20
-16511.04096086374
 30
0.0000000000000014
 11
18576.55972848256
 21
-16511.03171384168
 31
0.0000000000000014
  0
ELLIPSE
  5
3A7670
330
18
100
AcDbEntity
  8
姿図
100
AcDbEllipse
 10
18576.55972848256
 20
-16510.96405032359
 30
0.0000000000000014
 11
0.04077444956302177
 21
0.05696057237043142
 31
-7.777159867609348E-18
210
6.462306319828893E-17
220
9.027630556767526E-17
230
1.0
 40
0.9083744652357181
 41
3.80899890015702
 42
5.813403557372653
  0
LINE
  5
3A7671
330
18
100
AcDbEntity
  8
姿図
100
AcDbLine
 10
18576.46091340973
 20
-16509.68769050191
 30
0.0000000000000014
 11
18576.55972848256
 21
-16509.67844347984
 31
0.0000000000000014
  0
LINE
  5
3A7672
330
18
100
AcDbEntity
  8
姿図
100
AcDbLine
 10
18576.46091340973
 20
-16510.36432568283
 30
0.0000000000000014
 11
18576.55972848256
 21
-16510.35507866076
 31
0.0000000000000014
  0
LINE
  5
3A7673
330
18
100
AcDbEntity
  8
姿図
100
AcDbLine
 10
18576.46091340973
 20
-16509.01105532098
 30
0.0000000000000014
 11
18576.55972848256
 21
-16509.00180829892
 31
0.0000000000000014
  0
ELLIPSE
  5
3A7674
330
18
100
AcDbEntity
  8
姿図
100
AcDbEllipse
 10
18576.55972848256
 20
-16509.61077996175
 30
0.0000000000000014
 11
0.04077444956302177
 21
0.05696057237043142
 31
-7.777159867609348E-18
210
6.462306319828893E-17
220
9.027630556767526E-17
230
1.0
 40
0.9083744652357181
 41
3.808998900156833
 42
5.813403557372844
  0
ELLIPSE
  5
3A7675
330
18
100
AcDbEntity
  8
姿図
100
AcDbEllipse
 10
18576.55972848256
 20
-16510.28741514267
 30
0.0000000000000014
 11
0.04077444956302177
 21
0.05696057237043142
 31
-7.777159867609348E-18
210
6.462306319828893E-17
220
9.027630556767526E-17
230
1.0
 40
0.9083744652357181
 41
3.808998900156709
 42
5.813403557372572
  0
ELLIPSE
  5
3A7676
330
18
100
AcDbEntity
  8
姿図
100
AcDbEllipse
 10
18577.13492804334
 20
-16509.49538008076
 30
0.0000000000000014
 11
0.05437706711424071
 21
-0.6281180723226359
 31
0.0
210
0.0
220
0.0
230
1.0
 40
0.3301839125655894
 41
3.14388787013195
 42
4.437113948144849
  0
ELLIPSE
  5
3A7677
330
18
100
AcDbEntity
  8
姿図
100
AcDbEllipse
 10
18576.55972848256
 20
-16508.93414478083
 30
0.0000000000000014
 11
0.04077444956302177
 21
0.05696057237043142
 31
-7.777159867609348E-18
210
6.462306319828893E-17
220
9.027630556767526E-17
230
1.0
 40
0.9083744652357181
 41
3.80899890015702
 42
5.813403557372702
  0
LINE
  5
3A7678
330
18
100
AcDbEntity
  8
姿図
100
AcDbLine
 10
18577.78260620277
 20
-16510.10165031563
 30
0.0000000000000014
 11
18578.00098166757
 21
-16510.56566571453
 31
0.0000000000000014
  0
LINE
  5
3A7679
330
18
100
AcDbEntity
  8
姿図
100
AcDbLine
 10
18578.7393551617
 20
-16510.417585138
 30
0.0000000000000014
 11
18578.51042486388
 21
-16509.93114228802
 31
0.0000000000000014
  0
LINE
  5
3A767A
330
18
100
AcDbEntity
  8
姿図
100
AcDbLine
 10
18578.58075989288
 20
-16510.52851854004
 30
0.0000000000000014
 11
18578.67957496572
 21
-16510.51927151798
 31
0.0000000000000014
  0
ELLIPSE
  5
3A767B
330
18
100
AcDbEntity
  8
姿図
100
AcDbEllipse
 10
18578.58075989288
 20
-16510.59618205814
 30
0.0000000000000014
 11
0.04077444956303928
 21
0.05696057237044466
 31
3.888579933805833E-18
210
-3.231153159914873E-17
220
-4.513815278383451E-17
230
1.0
 40
0.9083744652357183
 41
0.66740624656764
 42
2.671810903783141
  0
LINE
  5
3A767C
330
18
100
AcDbEntity
  8
姿図
100
AcDbLine
 10
18577.94120147158
 20
-16510.66735209451
 30
0.0000000000000014
 11
18577.84238639875
 21
-16510.67659911657
 31
0.0000000000000014
  0
ELLIPSE
  5
3A767D
330
18
100
AcDbEntity
  8
姿図
100
AcDbEllipse
 10
18577.84238639874
 20
-16510.74426263467
 30
0.0000000000000014
 11
0.04077444956303432
 21
0.05696057237044818
 31
3.888579933805835E-18
210
-3.231153159914478E-17
220
-4.513815278383739E-17
230
1.0
 40
0.9083744652357181
 41
0.6674062465667575
 42
2.671810903783107
  0
ELLIPSE
  5
3A767E
330
18
100
AcDbEntity
  8
姿図
100
AcDbEllipse
 10
18577.94120147158
 20
-16510.59968857642
 30
0.0000000000000014
 11
0.0407744495630275
 21
0.05696057237042731
 31
3.888579933804645E-18
210
-3.231153159914882E-17
220
-4.513815278383401E-17
230
1.0
 40
0.9083744652357181
 41
3.808998900156757
 42
5.813403557372718
  0
ELLIPSE
  5
3A767F
330
18
100
AcDbEntity
  8
姿図
100
AcDbEllipse
 10
18578.67957496572
 20
-16510.45160799989
 30
0.0000000000000014
 11
0.04077444956302177
 21
0.05696057237043142
 31
-7.777159867609348E-18
210
6.462306319828893E-17
220
9.027630556767526E-17
230
1.0
 40
0.9083744652357181
 41
3.808998900156673
 42
5.813403557372901
  0
LINE
  5
3A7680
330
18
100
AcDbEntity
  8
姿図
100
AcDbLine
 10
18578.51042486388
 20
-16509.93114228802
 30
0.0000000000000014
 11
18578.5094932646
 21
-16509.79088890543
 31
0.0000000000000014
  0
LINE
  5
3A7681
330
18
100
AcDbEntity
  8
姿図
100
AcDbLine
 10
18577.77205136975
 20
-16509.40258768363
 30
0.0000000000000014
 11
18578.00098166757
 21
-16509.8890305336
 31
0.0000000000000014
  0
LINE
  5
3A7682
330
18
100
AcDbEntity
  8
姿図
100
AcDbLine
 10
18577.94120147158
 20
-16509.99071691359
 30
0.0000000000000014
 11
18577.84238639875
 21
-16509.99996393565
 31
0.0000000000000014
  0
LINE
  5
3A7683
330
18
100
AcDbEntity
  8
姿図
100
AcDbLine
 10
18577.77111977046
 20
-16509.26233430104
 30
0.0000000000000014
 11
18577.77205136975
 21
-16509.40258768363
 31
0.0000000000000014
  0
LINE
  5
3A7684
330
18
100
AcDbEntity
  8
姿図
100
AcDbLine
 10
18578.2910843315
 20
-16509.0288441931
 30
0.0000000000000014
 11
18577.98144383396
 21
-16508.80719226224
 31
0.0000000000000014
  0
LINE
  5
3A7685
330
18
100
AcDbEntity
  8
姿図
100
AcDbLine
 10
18578.51042486388
 20
-16509.93114228802
 30
0.0000000000000014
 11
18577.77205136975
 21
-16509.40258768363
 31
0.0000000000000014
  0
ELLIPSE
  5
3A7686
330
18
100
AcDbEntity
  8
姿図
100
AcDbEllipse
 10
18578.2951267663
 20
-16509.63743756867
 30
0.0000000000000014
 11
0.06309259537054744
 21
-0.6273025252676169
 31
1.049939124189298E-16
210
-1.666545791913228E-17
220
1.656974764790396E-16
230
1.0
 40
0.3266547503873759
 41
1.29096128643083
 42
2.861757613225647
  0
ELLIPSE
  5
3A7687
330
18
100
AcDbEntity
  8
姿図
100
AcDbEllipse
 10
18577.84238639874
 20
-16510.06762745375
 30
0.0000000000000014
 11
0.04077444956303432
 21
0.05696057237044818
 31
3.888579933805835E-18
210
-3.231153159914478E-17
220
-4.513815278383739E-17
230
1.0
 40
0.9083744652357181
 41
0.6674062465679877
 42
2.671810903783201
  0
ELLIPSE
  5
3A7688
330
18
100
AcDbEntity
  8
姿図
100
AcDbEllipse
 10
18577.94120147158
 20
-16509.9230533955
 30
0.0000000000000014
 11
0.0407744495630275
 21
0.05696057237042731
 31
3.888579933804645E-18
210
-3.231153159914882E-17
220
-4.513815278383401E-17
230
1.0
 40
0.9083744652357181
 41
3.808998900156948
 42
5.813403557372959
  0
ELLIPSE
  5
3A7689
330
18
100
AcDbEntity
  8
姿図
100
AcDbEllipse
 10
18577.98548626876
 20
-16509.41578563779
 30
0.0000000000000014
 11
0.06309259537054744
 21
-0.6273025252676169
 31
1.049939124189298E-16
210
-1.666545791913228E-17
220
1.656974764790396E-16
230
1.0
 40
0.3266547503873759
 41
2.861757613225715
 42
4.432553940020625
  0
LINE
  5
3A768A
330
18
100
AcDbEntity
  8
姿図
100
AcDbLine
 10
18578.7393551617
 20
-16511.09422031892
 30
0.0000000000000014
 11
18578.5209796969
 21
-16510.63020492002
 31
0.0000000000000014
  0
LINE
  5
3A768B
330
18
100
AcDbEntity
  8
姿図
100
AcDbLine
 10
18576.17123784835
 20
-16507.51138097405
 30
0.0000000000000014
 11
18575.86159735081
 21
-16507.28972904318
 31
0.0000000000000014
  0
ELLIPSE
  5
3A768C
330
18
100
AcDbEntity
  8
姿図
100
AcDbEllipse
 10
18575.01508156018
 20
-16507.9779168617
 30
0.0000000000000014
 11
0.05437706711424071
 21
-0.6281180723226359
 31
0.0
210
0.0
220
0.0
230
1.0
 40
0.3301839125655894
 41
3.143887870131958
 42
4.437113948144826
  0
ELLIPSE
  5
3A768D
330
18
100
AcDbEntity
  8
姿図
100
AcDbEllipse
 10
18575.72253991559
 20
-16510.58006977745
 30
0.0000000000000014
 11
0.04077444956302233
 21
0.05696057237043226
 31
-3.888579933804726E-18
210
3.231153159914451E-17
220
4.513815278383754E-17
230
1.0
 40
0.9083744652357192
 41
0.6674062465669471
 42
2.671810903782859
  0
LINE
  5
3A768E
330
18
100
AcDbEntity
  8
姿図
100
AcDbLine
 10
18575.82135498843
 20
-16510.50315923729
 30
0.0000000000000014
 11
18575.72253991559
 21
-16510.51240625936
 31
0.0000000000000014
  0
LINE
  5
3A768F
330
18
100
AcDbEntity
  8
姿図
100
AcDbLine
 10
18575.82135498843
 20
-16508.47325369453
 30
0.0000000000000014
 11
18575.72253991559
 21
-16508.48250071659
 31
0.0000000000000014
  0
LINE
  5
3A7690
330
18
100
AcDbEntity
  8
姿図
100
AcDbLine
 10
18575.65127328731
 20
-16507.74487108198
 30
0.0000000000000014
 11
18575.6522048866
 21
-16507.88512446457
 31
0.0000000000000014
  0
LINE
  5
3A7691
330
18
100
AcDbEntity
  8
姿図
100
AcDbLine
 10
18575.82135498843
 20
-16509.82652405636
 30
0.0000000000000014
 11
18575.72253991559
 21
-16509.83577107843
 31
0.0000000000000014
  0
LINE
  5
3A7692
330
18
100
AcDbEntity
  8
姿図
100
AcDbLine
 10
18575.82135498843
 20
-16509.14988887545
 30
0.0000000000000014
 11
18575.72253991559
 21
-16509.15913589751
 31
0.0000000000000014
  0
ELLIPSE
  5
3A7693
330
18
100
AcDbEntity
  8
姿図
100
AcDbEllipse
 10
18575.72253991559
 20
-16509.90343459653
 30
0.0000000000000014
 11
0.04077444956303396
 21
0.05696057237044842
 31
3.888579933805834E-18
210
-3.231153159914449E-17
220
-4.513815278383759E-17
230
1.0
 40
0.9083744652357192
 41
0.6674062465670006
 42
2.67181090378307
  0
ELLIPSE
  5
3A7694
330
18
100
AcDbEntity
  8
姿図
100
AcDbEllipse
 10
18575.72253991559
 20
-16509.22679941561
 30
0.0000000000000014
 11
0.04077444956303396
 21
0.05696057237044842
 31
3.888579933805834E-18
210
-3.231153159914449E-17
220
-4.513815278383759E-17
230
1.0
 40
0.9083744652357192
 41
0.6674062465671249
 42
2.671810903782978
  0
ELLIPSE
  5
3A7695
330
18
100
AcDbEntity
  8
姿図
100
AcDbEllipse
 10
18575.72253991559
 20
-16508.55016423469
 30
0.0000000000000014
 11
0.04077444956303396
 21
0.05696057237044842
 31
3.888579933805834E-18
210
-3.231153159914449E-17
220
-4.513815278383759E-17
230
1.0
 40
0.9083744652357192
 41
0.6674062465673204
 42
2.671810903783249
  0
LINE
  5
3A7696
330
18
100
AcDbEntity
  8
姿図
100
AcDbLine
 10
18575.80301143315
 20
-16507.2709748261
 30
0.0000000000000014
 11
18574.96022862146
 21
-16507.34984165311
 31
0.0000000000000014
  0
ELLIPSE
  5
3A7697
330
18
100
AcDbEntity
  8
姿図
100
AcDbEllipse
 10
18575.86563978561
 20
-16507.89832241874
 30
0.0000000000000014
 11
0.06309259537054744
 21
-0.6273025252676169
 31
1.049939124189298E-16
210
-1.666545791913228E-17
220
1.656974764790396E-16
230
1.0
 40
0.3266547503873759
 41
2.861757613225734
 42
4.432553940020584
  0
LINE
  5
3A7698
330
18
100
AcDbEntity
  8
姿図
100
AcDbLine
 10
18575.66275971961
 20
-16509.93745745841
 30
0.0000000000000014
 11
18575.88113518442
 21
-16510.40147285731
 31
0.0000000000000014
  0
ELLIPSE
  5
3A7699
330
18
100
AcDbEntity
  8
姿図
100
AcDbEllipse
 10
18575.82135498843
 20
-16510.4354957192
 30
0.0000000000000014
 11
0.04077444956302709
 21
0.05696057237042759
 31
3.888579933804671E-18
210
-3.231153159914870E-17
220
-4.513815278383457E-17
230
1.0
 40
0.9083744652357192
 41
3.808998900156817
 42
5.813403557372729
  0
LINE
  5
3A769A
330
18
100
AcDbEntity
  8
姿図
100
AcDbLine
 10
18576.39057838072
 20
-16508.41367906896
 30
0.0000000000000014
 11
18575.6522048866
 21
-16507.88512446457
 31
0.0000000000000014
  0
LINE
  5
3A769B
330
18
100
AcDbEntity
  8
姿図
100
AcDbLine
 10
18575.6522048866
 20
-16507.88512446457
 30
0.0000000000000014
 11
18575.88113518442
 21
-16508.37156731454
 31
0.0000000000000014
  0
LINE
  5
3A769C
330
18
100
AcDbEntity
  8
姿図
100
AcDbLine
 10
18575.66275971961
 20
-16509.26082227749
 30
0.0000000000000014
 11
18575.88113518442
 21
-16509.72483767639
 31
0.0000000000000014
  0
LINE
  5
3A769D
330
18
100
AcDbEntity
  8
姿図
100
AcDbLine
 10
18575.66275971961
 20
-16508.58418709657
 30
0.0000000000000014
 11
18575.88113518442
 21
-16509.04820249547
 31
0.0000000000000014
  0
ELLIPSE
  5
3A769E
330
18
100
AcDbEntity
  8
姿図
100
AcDbEllipse
 10
18575.82135498843
 20
-16509.75886053828
 30
0.0000000000000014
 11
0.04077444956302709
 21
0.05696057237042759
 31
3.888579933804671E-18
210
-3.231153159914870E-17
220
-4.513815278383457E-17
230
1.0
 40
0.9083744652357192
 41
3.808998900156848
 42
5.813403557372545
  0
ELLIPSE
  5
3A769F
330
18
100
AcDbEntity
  8
姿図
100
AcDbEllipse
 10
18575.82135498843
 20
-16509.08222535735
 30
0.0000000000000014
 11
0.04077444956302709
 21
0.05696057237042759
 31
3.888579933804671E-18
210
-3.231153159914870E-17
220
-4.513815278383457E-17
230
1.0
 40
0.9083744652357192
 41
3.808998900156624
 42
5.813403557372816
  0
ELLIPSE
  5
3A76A0
330
18
100
AcDbEntity
  8
姿図
100
AcDbEllipse
 10
18575.82135498843
 20
-16508.40559017643
 30
0.0000000000000014
 11
0.04077444956302709
 21
0.05696057237042759
 31
3.888579933804671E-18
210
-3.231153159914870E-17
220
-4.513815278383457E-17
230
1.0
 40
0.9083744652357192
 41
3.808998900157184
 42
5.813403557372866
  0
LINE
  5
3A76A1
330
18
100
AcDbEntity
  8
姿図
100
AcDbLine
 10
18575.66275971961
 20
-16510.61409263933
 30
0.0000000000000014
 11
18575.88113518442
 21
-16511.07810803823
 31
0.0000000000000014
  0
LINE
  5
3A76A2
330
18
100
AcDbEntity
  8
姿図
100
AcDbLine
 10
18576.46091340973
 20
-16511.71759604467
 30
0.0000000000000014
 11
18576.55972848256
 21
-16511.7083490226
 31
0.0000000000000014
  0
LINE
  5
3A76A3
330
18
100
AcDbEntity
  8
姿図
100
AcDbLine
 10
18578.7393551617
 20
-16511.77085549984
 30
0.0000000000000014
 11
18578.5209796969
 21
-16511.30684010094
 31
0.0000000000000014
  0
LINE
  5
3A76A4
330
18
100
AcDbEntity
  8
姿図
100
AcDbLine
 10
18577.78260620277
 20
-16511.45492067748
 30
0.0000000000000014
 11
18578.00098166757
 21
-16511.91893607637
 31
0.0000000000000014
  0
LINE
  5
3A76A5
330
18
100
AcDbEntity
  8
姿図
100
AcDbLine
 10
18575.66275971961
 20
-16511.29072782026
 30
0.0000000000000014
 11
18575.88113518442
 21
-16511.75474321915
 31
0.0000000000000014
  0
LINE
  5
3A76A6
330
18
100
AcDbEntity
  8
姿図
100
AcDbLine
 10
18576.61950867854
 20
-16519.04964963276
 30
0.0000000000000014
 11
18576.41610570896
 21
-16518.61744856036
 31
0.0000000000000014
  0
LINE
  5
3A76A7
330
18
100
AcDbEntity
  8
姿図
100
AcDbLine
 10
18578.7393551617
 20
-16519.21384248997
 30
0.0000000000000014
 11
18578.5209796969
 21
-16518.74982709108
 31
0.0000000000000014
  0
LINE
  5
3A76A8
330
18
100
AcDbEntity
  8
姿図
100
AcDbLine
 10
18577.78306124925
 20
-16518.89887457374
 30
0.0000000000000014
 11
18578.00098166757
 21
-16519.3619230665
 31
0.0000000000000014
  0
ELLIPSE
  5
3A76A9
330
18
100
AcDbEntity
  8
姿図
100
AcDbEllipse
 10
18558.37872891451
 20
-16259.24463609553
 30
0.0000000000000014
 11
-4.797140927162225
 21
-486.1469938952276
 31
-2.698789312221136E-14
210
-5.477393773410836E-19
220
-5.550844883974054E-17
230
1.0
 40
0.0509529088182855
 41
1.005428428192962
 42
1.010474847289326
  0
LINE
  5
3A76AA
330
18
100
AcDbEntity
  8
姿図
100
AcDbLine
 10
18577.94753193729
 20
-16520.76808975563
 30
0.0000000000000014
 11
18576.68515144731
 21
-16519.86443188361
 31
0.0000000000000014
  0
ELLIPSE
  5
3A76AB
330
18
100
AcDbEntity
  8
姿図
100
AcDbEllipse
 10
18557.30135297854
 20
-16477.70481773942
 30
0.0000000000000014
 11
-20.82283882651531
 21
42.58118269877863
 31
-1.315610693758508E-15
210
-1.219306866792505E-17
220
2.493393378939952E-17
230
1.0
 40
0.0898112888334005
 41
2.866072935780159
 42
2.880426324101852
  0
ELLIPSE
  5
3A76AC
330
18
100
AcDbEntity
  8
姿図
100
AcDbEllipse
 10
18575.82135498843
 20
-16519.23175307118
 30
0.0000000000000014
 11
0.04077444956302709
 21
0.05696057237042759
 31
3.888579933804671E-18
210
-3.231153159914870E-17
220
-4.513815278383457E-17
230
1.0
 40
0.9083744652357192
 41
5.379795226951904
 42
5.813403557372927
  0
ELLIPSE
  5
3A76AD
330
18
100
AcDbEntity
  8
姿図
100
AcDbEllipse
 10
18576.55972848256
 20
-16519.08367249465
 30
0.0000000000000014
 11
0.04077444956301913
 21
0.05696057237042773
 31
0.0
210
0.0
220
0.0
230
1.0
 40
0.9083744652357186
 41
3.808998900156733
 42
5.813403557372704
  0
LINE
  5
3A76AE
330
18
100
AcDbEntity
  8
姿図
100
AcDbLine
 10
18576.46091340973
 20
-16519.1605830348
 30
0.0000000000000014
 11
18576.55972848256
 21
-16519.15133601274
 31
0.0000000000000014
  0
LINE
  5
3A76AF
330
18
100
AcDbEntity
  8
姿図
100
AcDbLine
 10
18576.43062306487
 20
-16519.32493097076
 30
0.0000000000000014
 11
18576.42750661511
 21
-16519.17305483789
 31
0.0000000000000014
  0
LINE
  5
3A76B0
330
18
100
AcDbEntity
  8
姿図
100
AcDbLine
 10
18576.58657251344
 20
-16519.65630035913
 30
0.0000000000000014
 11
18576.43062306769
 21
-16519.32493097043
 31
0.0000000000000014
  0
ELLIPSE
  5
3A76B1
330
18
100
AcDbEntity
  8
姿図
100
AcDbEllipse
 10
18576.68515144731
 20
-16519.69527308838
 30
0.0000000000000014
 11
-0.01631684599602441
 21
0.1743642779465949
 31
-9.721449834512365E-18
210
-5.172084878144090E-18
220
5.526967929193044E-17
230
1.0
 40
0.3284334526200731
 41
1.936727186806237
 42
2.86402240480802
  0
ELLIPSE
  5
3A76B2
330
18
100
AcDbEntity
  8
姿図
100
AcDbEllipse
 10
18576.46091340973
 20
-16519.2282465529
 30
0.0000000000000014
 11
0.04077444956302772
 21
0.0569605723704284
 31
3.888579933804730E-18
210
-3.231153159914877E-17
220
-4.513815278383455E-17
230
1.0
 40
0.908374465235719
 41
0.6674062465667715
 42
1.199235524511626
  0
ELLIPSE
  5
3A76B3
330
18
100
AcDbEntity
  8
姿図
100
AcDbEllipse
 10
18576.64611876296
 20
-16519.69892573046
 30
0.0000000000000014
 11
0.09217619101472235
 21
-0.1667469793939119
 31
1.057644122911552E-17
210
-2.685589719099226E-17
220
4.858239081278762E-17
230
1.0
 40
0.1762382375576921
 41
4.358020013766092
 42
4.80466361244018
  0
LINE
  5
3A76B4
330
18
100
AcDbEntity
  8
姿図
100
AcDbLine
 10
18578.7393551617
 20
-16519.8904776709
 30
0.0000000000000014
 11
18578.5209796969
 21
-16519.426462272
 31
0.0000000000000014
  0
LINE
  5
3A76B5
330
18
100
AcDbEntity
  8
姿図
100
AcDbLine
 10
18578.7393551617
 20
-16521.24374803274
 30
0.0000000000000014
 11
18578.5209796969
 21
-16520.77973263384
 31
0.0000000000000014
  0
LINE
  5
3A76B6
330
18
100
AcDbEntity
  8
姿図
100
AcDbLine
 10
18578.7393551617
 20
-16520.56711285182
 30
0.0000000000000014
 11
18578.5209796969
 21
-16520.10309745293
 31
0.0000000000000014
  0
ELLIPSE
  5
3A76B7
330
18
100
AcDbEntity
  8
姿図
100
AcDbEllipse
 10
18578.58075989288
 20
-16520.06907459104
 30
0.0000000000000014
 11
0.04077444956302772
 21
0.0569605723704284
 31
3.888579933804730E-18
210
-3.231153159914877E-17
220
-4.513815278383455E-17
230
1.0
 40
0.908374465235719
 41
0.6674062465671117
 42
2.671810903782999
  0
ELLIPSE
  5
3A76B8
330
18
100
AcDbEntity
  8
姿図
100
AcDbEllipse
 10
18578.58075989288
 20
-16520.74570977196
 30
0.0000000000000014
 11
0.04077444956302772
 21
0.0569605723704284
 31
3.888579933804730E-18
210
-3.231153159914877E-17
220
-4.513815278383455E-17
230
1.0
 40
0.908374465235719
 41
0.6674062465671138
 42
2.671810903782835
  0
ELLIPSE
  5
3A76B9
330
18
100
AcDbEntity
  8
姿図
100
AcDbEllipse
 10
18578.58075989288
 20
-16519.39243941011
 30
0.0000000000000014
 11
0.04077444956302772
 21
0.0569605723704284
 31
3.888579933804730E-18
210
-3.231153159914877E-17
220
-4.513815278383455E-17
230
1.0
 40
0.908374465235719
 41
0.6674062465672714
 42
2.671810903782924
  0
LINE
  5
3A76BA
330
18
100
AcDbEntity
  8
姿図
100
AcDbLine
 10
18577.79757869798
 20
-16519.60635717504
 30
0.0000000000000014
 11
18578.00098166757
 21
-16520.03855824743
 31
0.0000000000000014
  0
LINE
  5
3A76BB
330
18
100
AcDbEntity
  8
姿図
100
AcDbLine
 10
18577.80897960413
 20
-16520.16196345256
 30
0.0000000000000014
 11
18577.81209605389
 21
-16520.31383958543
 31
0.0000000000000014
  0
LINE
  5
3A76BC
330
18
100
AcDbEntity
  8
姿図
100
AcDbLine
 10
18577.94120147158
 20
-16520.14024462741
 30
0.0000000000000014
 11
18577.84238639875
 21
-16520.14949164947
 31
0.0000000000000014
  0
LINE
  5
3A76BD
330
18
100
AcDbEntity
  8
姿図
100
AcDbLine
 10
18577.79534604046
 20
-16519.49755224967
 30
0.0000000000000014
 11
18577.79757869572
 21
-16519.6063571753
 31
0.0000000000000014
  0
LINE
  5
3A76BE
330
18
100
AcDbEntity
  8
姿図
100
AcDbLine
 10
18577.94120147158
 20
-16519.46360944649
 30
0.0000000000000014
 11
18577.84238639875
 21
-16519.47285646855
 31
0.0000000000000014
  0
LINE
  5
3A76BF
330
18
100
AcDbEntity
  8
姿図
100
AcDbLine
 10
18577.81209605671
 20
-16520.3138395851
 30
0.0000000000000014
 11
18577.96804550246
 21
-16520.6452089738
 31
0.0000000000000014
  0
ELLIPSE
  5
3A76C0
330
18
100
AcDbEntity
  8
姿図
100
AcDbEllipse
 10
18577.84238639874
 20
-16520.21715516757
 30
0.0000000000000014
 11
0.0407744495630228
 21
0.05696057237043198
 31
3.888579933804733E-18
210
-3.231153159914463E-17
220
-4.513815278383753E-17
230
1.0
 40
0.908374465235718
 41
0.6674062465669202
 42
1.199235524648299
  0
ELLIPSE
  5
3A76C1
330
18
100
AcDbEntity
  8
姿図
100
AcDbEllipse
 10
18577.94120147158
 20
-16520.07258110931
 30
0.0000000000000014
 11
0.04077444956302492
 21
0.05696057237042366
 31
7.777159867608844E-18
210
-6.462306319829826E-17
220
-9.027630556766847E-17
230
1.0
 40
0.9083744652357175
 41
3.808998900156816
 42
5.813403557372785
  0
ELLIPSE
  5
3A76C2
330
18
100
AcDbEntity
  8
姿図
100
AcDbEllipse
 10
18577.94753193728
 20
-16520.5989309604
 30
0.0000000000000014
 11
-0.01631684599602441
 21
0.1743642779465949
 31
-9.721449834512365E-18
210
-5.172084878144090E-18
220
5.526967929193044E-17
230
1.0
 40
0.3284334526200731
 41
2.864022404808038
 42
3.791317622809779
  0
ELLIPSE
  5
3A76C3
330
18
100
AcDbEntity
  8
姿図
100
AcDbEllipse
 10
18577.90849925294
 20
-16520.60258360248
 30
0.0000000000000014
 11
0.09217619101472235
 21
-0.1667469793939119
 31
1.057644122911552E-17
210
-2.685589719099226E-17
220
4.858239081278762E-17
230
1.0
 40
0.1762382375576921
 41
0.7697837615025532
 42
1.216427360176595
  0
ELLIPSE
  5
3A76C4
330
18
100
AcDbEntity
  8
姿図
100
AcDbEllipse
 10
18557.30135297854
 20
-16477.70481773942
 30
0.0000000000000014
 11
-20.82283882651531
 21
42.58118269877863
 31
-1.315610693758508E-15
210
-1.219306866792505E-17
220
2.493393378939952E-17
230
1.0
 40
0.0898112888334005
 41
3.072805797846053
 42
3.087159186167753
  0
ELLIPSE
  5
3A76C5
330
18
100
AcDbEntity
  8
姿図
100
AcDbEllipse
 10
18577.84238639874
 20
-16519.54051998664
 30
0.0000000000000014
 11
0.0407744495630228
 21
0.05696057237043198
 31
3.888579933804733E-18
210
-3.231153159914463E-17
220
-4.513815278383753E-17
230
1.0
 40
0.908374465235718
 41
0.6674062465669227
 42
1.462696070731774
  0
ELLIPSE
  5
3A76C6
330
18
100
AcDbEntity
  8
姿図
100
AcDbEllipse
 10
18577.94120147158
 20
-16519.39594592839
 30
0.0000000000000014
 11
0.04077444956302492
 21
0.05696057237042366
 31
7.777159867608844E-18
210
-6.462306319829826E-17
220
-9.027630556766847E-17
230
1.0
 40
0.9083744652357175
 41
3.808998900157097
 42
5.813403557372832
  0
ELLIPSE
  5
3A76C7
330
18
100
AcDbEntity
  8
姿図
100
AcDbEllipse
 10
18557.30072738939
 20
-16477.02685327457
 30
0.0000000000000014
 11
-20.80837884282621
 21
42.55161308954256
 31
2.629394191011153E-15
210
2.438613733585007E-17
220
-4.986786757879895E-17
230
1.0
 40
0.0898112888334005
 41
3.072872848347417
 42
3.080408125087992
  0
LINE
  5
3A76C8
330
18
100
AcDbEntity
  8
姿図
100
AcDbLine
 10
18578.58075989288
 20
-16520.00141107294
 30
0.0000000000000014
 11
18578.67957496572
 21
-16519.99216405088
 31
0.0000000000000014
  0
LINE
  5
3A76C9
330
18
100
AcDbEntity
  8
姿図
100
AcDbLine
 10
18578.58075989288
 20
-16519.32477589202
 30
0.0000000000000014
 11
18578.67957496572
 21
-16519.31552886996
 31
0.0000000000000014
  0
LINE
  5
3A76CA
330
18
100
AcDbEntity
  8
姿図
100
AcDbLine
 10
18578.58075989288
 20
-16520.67804625386
 30
0.0000000000000014
 11
18578.67957496572
 21
-16520.6687992318
 31
0.0000000000000014
  0
ELLIPSE
  5
3A76CB
330
18
100
AcDbEntity
  8
姿図
100
AcDbEllipse
 10
18578.67957496572
 20
-16519.92450053279
 30
0.0000000000000014
 11
0.04077444956301913
 21
0.05696057237042773
 31
0.0
210
0.0
220
0.0
230
1.0
 40
0.9083744652357186
 41
3.808998900156633
 42
5.813403557372653
  0
ELLIPSE
  5
3A76CC
330
18
100
AcDbEntity
  8
姿図
100
AcDbEllipse
 10
18578.67957496572
 20
-16520.60113571371
 30
0.0000000000000014
 11
0.04077444956301913
 21
0.05696057237042773
 31
0.0
210
0.0
220
0.0
230
1.0
 40
0.9083744652357186
 41
3.808998900156507
 42
5.813403557372811
  0
ELLIPSE
  5
3A76CD
330
18
100
AcDbEntity
  8
姿図
100
AcDbEllipse
 10
18578.67957496572
 20
-16521.27777089463
 30
0.0000000000000014
 11
0.04077444956302177
 21
0.05696057237043142
 31
-7.777159867609348E-18
210
6.462306319828893E-17
220
9.027630556767526E-17
230
1.0
 40
0.9083744652357181
 41
5.379795226951762
 42
5.813403557372785
  0
ELLIPSE
  5
3A76CE
330
18
100
AcDbEntity
  8
姿図
100
AcDbEllipse
 10
18578.67957496572
 20
-16519.24786535187
 30
0.0000000000000014
 11
0.04077444956301913
 21
0.05696057237042773
 31
0.0
210
0.0
220
0.0
230
1.0
 40
0.9083744652357186
 41
3.808998900156414
 42
5.813403557372719
  0
LINE
  5
3A76CF
330
18
100
AcDbEntity
  8
姿図
100
AcDbLine
 10
18576.61950867854
 20
-16514.31320336631
 30
0.0000000000000014
 11
18576.40113321375
 21
-16513.84918796741
 31
0.0000000000000014
  0
LINE
  5
3A76D0
330
18
100
AcDbEntity
  8
姿図
100
AcDbLine
 10
18576.61950867854
 20
-16512.28329782355
 30
0.0000000000000014
 11
18576.40113321375
 21
-16511.81928242465
 31
0.0000000000000014
  0
LINE
  5
3A76D1
330
18
100
AcDbEntity
  8
姿図
100
AcDbLine
 10
18576.61950867854
 20
-16512.95993300447
 30
0.0000000000000014
 11
18576.40113321375
 21
-16512.49591760557
 31
0.0000000000000014
  0
LINE
  5
3A76D2
330
18
100
AcDbEntity
  8
姿図
100
AcDbLine
 10
18576.61950867854
 20
-16513.63656818539
 30
0.0000000000000014
 11
18576.40113321375
 21
-16513.17255278649
 31
0.0000000000000014
  0
LINE
  5
3A76D3
330
18
100
AcDbEntity
  8
姿図
100
AcDbLine
 10
18576.61950867854
 20
-16518.37301445183
 30
0.0000000000000014
 11
18576.40158826023
 21
-16517.90996595907
 31
0.0000000000000014
  0
LINE
  5
3A76D4
330
18
100
AcDbEntity
  8
姿図
100
AcDbLine
 10
18576.61950867854
 20
-16516.34310890907
 30
0.0000000000000014
 11
18576.40113321375
 21
-16515.87909351018
 31
0.0000000000000014
  0
LINE
  5
3A76D5
330
18
100
AcDbEntity
  8
姿図
100
AcDbLine
 10
18576.61950867854
 20
-16517.01974408999
 30
0.0000000000000014
 11
18576.40113321375
 21
-16516.5557286911
 31
0.0000000000000014
  0
LINE
  5
3A76D6
330
18
100
AcDbEntity
  8
姿図
100
AcDbLine
 10
18576.61950867854
 20
-16517.69637927091
 30
0.0000000000000014
 11
18576.40113321375
 21
-16517.23236387202
 31
0.0000000000000014
  0
LINE
  5
3A76D7
330
18
100
AcDbEntity
  8
姿図
100
AcDbLine
 10
18576.61950867854
 20
-16515.66647372815
 30
0.0000000000000014
 11
18576.40113321375
 21
-16515.20245832926
 31
0.0000000000000014
  0
LINE
  5
3A76D8
330
18
100
AcDbEntity
  8
姿図
100
AcDbLine
 10
18576.61950867854
 20
-16514.98983854723
 30
0.0000000000000014
 11
18576.40113321375
 21
-16514.52582314834
 31
0.0000000000000014
  0
ELLIPSE
  5
3A76D9
330
18
100
AcDbEntity
  8
姿図
100
AcDbEllipse
 10
18576.46091340973
 20
-16517.87497619105
 30
0.0000000000000014
 11
0.04077444956302772
 21
0.0569605723704284
 31
3.888579933804730E-18
210
-3.231153159914877E-17
220
-4.513815278383455E-17
230
1.0
 40
0.908374465235719
 41
0.6674062465669873
 42
1.830516517602442
  0
ELLIPSE
  5
3A76DA
330
18
100
AcDbEntity
  8
姿図
100
AcDbEllipse
 10
18576.46091340973
 20
-16518.55161137198
 30
0.0000000000000014
 11
0.04077444956302772
 21
0.0569605723704284
 31
3.888579933804730E-18
210
-3.231153159914877E-17
220
-4.513815278383455E-17
230
1.0
 40
0.908374465235719
 41
0.6674062465667715
 42
1.46269607064669
  0
ELLIPSE
  5
3A76DB
330
18
100
AcDbEntity
  8
姿図
100
AcDbEllipse
 10
18576.46091340973
 20
-16513.81516510553
 30
0.0000000000000014
 11
0.04077444956302772
 21
0.0569605723704284
 31
3.888579933804730E-18
210
-3.231153159914877E-17
220
-4.513815278383455E-17
230
1.0
 40
0.908374465235719
 41
0.6674062465669873
 42
2.671810903782851
  0
ELLIPSE
  5
3A76DC
330
18
100
AcDbEntity
  8
姿図
100
AcDbEllipse
 10
18576.46091340973
 20
-16515.84507064829
 30
0.0000000000000014
 11
0.04077444956302772
 21
0.0569605723704284
 31
3.888579933804730E-18
210
-3.231153159914877E-17
220
-4.513815278383455E-17
230
1.0
 40
0.908374465235719
 41
0.6674062465668904
 42
2.671810903783141
  0
ELLIPSE
  5
3A76DD
330
18
100
AcDbEntity
  8
姿図
100
AcDbEllipse
 10
18576.46091340973
 20
-16516.52170582921
 30
0.0000000000000014
 11
0.04077444956302772
 21
0.0569605723704284
 31
3.888579933804730E-18
210
-3.231153159914877E-17
220
-4.513815278383455E-17
230
1.0
 40
0.908374465235719
 41
0.6674062465668275
 42
2.671810903782999
  0
ELLIPSE
  5
3A76DE
330
18
100
AcDbEntity
  8
姿図
100
AcDbEllipse
 10
18576.46091340973
 20
-16517.19834101014
 30
0.0000000000000014
 11
0.04077444956302772
 21
0.0569605723704284
 31
3.888579933804730E-18
210
-3.231153159914877E-17
220
-4.513815278383455E-17
230
1.0
 40
0.908374465235719
 41
0.6674062465667715
 42
2.671810903782776
  0
ELLIPSE
  5
3A76DF
330
18
100
AcDbEntity
  8
姿図
100
AcDbEllipse
 10
18576.46091340973
 20
-16514.49180028645
 30
0.0000000000000014
 11
0.04077444956302772
 21
0.0569605723704284
 31
3.888579933804730E-18
210
-3.231153159914877E-17
220
-4.513815278383455E-17
230
1.0
 40
0.908374465235719
 41
0.6674062465671117
 42
2.671810903783074
  0
ELLIPSE
  5
3A76E0
330
18
100
AcDbEntity
  8
姿図
100
AcDbEllipse
 10
18576.46091340973
 20
-16515.16843546737
 30
0.0000000000000014
 11
0.04077444956302772
 21
0.0569605723704284
 31
3.888579933804730E-18
210
-3.231153159914877E-17
220
-4.513815278383455E-17
230
1.0
 40
0.908374465235719
 41
0.6674062465663877
 42
2.671810903782819
  0
ELLIPSE
  5
3A76E1
330
18
100
AcDbEntity
  8
姿図
100
AcDbEllipse
 10
18576.46091340973
 20
-16511.78525956276
 30
0.0000000000000014
 11
0.04077444956302772
 21
0.0569605723704284
 31
3.888579933804730E-18
210
-3.231153159914877E-17
220
-4.513815278383455E-17
230
1.0
 40
0.908374465235719
 41
0.6674062465670556
 42
2.671810903782919
  0
ELLIPSE
  5
3A76E2
330
18
100
AcDbEntity
  8
姿図
100
AcDbEllipse
 10
18576.46091340973
 20
-16512.46189474368
 30
0.0000000000000014
 11
0.04077444956302772
 21
0.0569605723704284
 31
3.888579933804730E-18
210
-3.231153159914877E-17
220
-4.513815278383455E-17
230
1.0
 40
0.908374465235719
 41
0.6674062465668229
 42
2.671810903782974
  0
ELLIPSE
  5
3A76E3
330
18
100
AcDbEntity
  8
姿図
100
AcDbEllipse
 10
18576.46091340973
 20
-16513.13852992461
 30
0.0000000000000014
 11
0.04077444956302772
 21
0.0569605723704284
 31
3.888579933804730E-18
210
-3.231153159914877E-17
220
-4.513815278383455E-17
230
1.0
 40
0.908374465235719
 41
0.6674062465671117
 42
2.671810903783024
  0
LINE
  5
3A76E4
330
18
100
AcDbEntity
  8
姿図
100
AcDbLine
 10
18576.40158825853
 20
-16517.90996595927
 30
0.0000000000000014
 11
18576.40043590128
 21
-16517.85380797558
 31
0.0000000000000014
  0
LINE
  5
3A76E5
330
18
100
AcDbEntity
  8
姿図
100
AcDbLine
 10
18576.4161057067
 20
-16518.61744856063
 30
0.0000000000000014
 11
18576.41387305144
 21
-16518.508643635
 31
0.0000000000000014
  0
ELLIPSE
  5
3A76E6
330
18
100
AcDbEntity
  8
姿図
100
AcDbEllipse
 10
18557.30010180025
 20
-16476.34888880971
 30
0.0000000000000014
 11
-20.79391885913712
 21
42.52204348030641
 31
-2.627566994505298E-15
210
-2.438613733585013E-17
220
4.986786757879906E-17
230
1.0
 40
0.0898112888334006
 41
2.880054474313594
 42
2.880292129410969
  0
ELLIPSE
  5
3A76E7
330
18
100
AcDbEntity
  8
姿図
100
AcDbEllipse
 10
18557.30072738939
 20
-16477.02685327457
 30
0.0000000000000014
 11
-20.80837884282621
 21
42.55161308954256
 31
2.629394191011153E-15
210
2.438613733585007E-17
220
-4.986786757879895E-17
230
1.0
 40
0.0898112888334005
 41
2.872823996859904
 42
2.880359273600474
  0
LINE
  5
3A76E8
330
18
100
AcDbEntity
  8
姿図
100
AcDbLine
 10
18576.46091340973
 20
-16513.74750158743
 30
0.0000000000000014
 11
18576.55972848256
 21
-16513.73825456537
 31
0.0000000000000014
  0
LINE
  5
3A76E9
330
18
100
AcDbEntity
  8
姿図
100
AcDbLine
 10
18576.46091340973
 20
-16514.42413676835
 30
0.0000000000000014
 11
18576.55972848256
 21
-16514.41488974629
 31
0.0000000000000014
  0
LINE
  5
3A76EA
330
18
100
AcDbEntity
  8
姿図
100
AcDbLine
 10
18576.46091340973
 20
-16512.39423122559
 30
0.0000000000000014
 11
18576.55972848256
 21
-16512.38498420352
 31
0.0000000000000014
  0
LINE
  5
3A76EB
330
18
100
AcDbEntity
  8
姿図
100
AcDbLine
 10
18576.46091340973
 20
-16513.07086640651
 30
0.0000000000000014
 11
18576.55972848256
 21
-16513.06161938445
 31
0.0000000000000014
  0
LINE
  5
3A76EC
330
18
100
AcDbEntity
  8
姿図
100
AcDbLine
 10
18576.46091340973
 20
-16517.80731267296
 30
0.0000000000000014
 11
18576.55972848256
 21
-16517.7980656509
 31
0.0000000000000014
  0
LINE
  5
3A76ED
330
18
100
AcDbEntity
  8
姿図
100
AcDbLine
 10
18576.46091340973
 20
-16518.48394785388
 30
0.0000000000000014
 11
18576.55972848256
 21
-16518.47470083182
 31
0.0000000000000014
  0
LINE
  5
3A76EE
330
18
100
AcDbEntity
  8
姿図
100
AcDbLine
 10
18576.46091340973
 20
-16515.7774071302
 30
0.0000000000000014
 11
18576.55972848256
 21
-16515.76816010813
 31
0.0000000000000014
  0
LINE
  5
3A76EF
330
18
100
AcDbEntity
  8
姿図
100
AcDbLine
 10
18576.46091340973
 20
-16516.45404231112
 30
0.0000000000000014
 11
18576.55972848256
 21
-16516.44479528905
 31
0.0000000000000014
  0
LINE
  5
3A76F0
330
18
100
AcDbEntity
  8
姿図
100
AcDbLine
 10
18576.46091340973
 20
-16517.13067749204
 30
0.0000000000000014
 11
18576.55972848256
 21
-16517.12143046998
 31
0.0000000000000014
  0
LINE
  5
3A76F1
330
18
100
AcDbEntity
  8
姿図
100
AcDbLine
 10
18576.52928685273
 20
-16516.44764398829
 30
0.0000000000000014
 11
18576.53948706853
 21
-16516.82389232153
 31
0.0000000000000014
  0
LINE
  5
3A76F2
330
18
100
AcDbEntity
  8
姿図
100
AcDbLine
 10
18576.46091340973
 20
-16515.10077194928
 30
0.0000000000000014
 11
18576.55972848256
 21
-16515.09152492721
 31
0.0000000000000014
  0
ELLIPSE
  5
3A76F3
330
18
100
AcDbEntity
  8
姿図
100
AcDbEllipse
 10
18576.55972848256
 20
-16517.73040213281
 30
0.0000000000000014
 11
0.04077444956301913
 21
0.05696057237042773
 31
0.0
210
0.0
220
0.0
230
1.0
 40
0.9083744652357186
 41
3.808998900156664
 42
5.813403557372635
  0
ELLIPSE
  5
3A76F4
330
18
100
AcDbEntity
  8
姿図
100
AcDbEllipse
 10
18576.55972848256
 20
-16518.40703731373
 30
0.0000000000000014
 11
0.04077444956301913
 21
0.05696057237042773
 31
0.0
210
0.0
220
0.0
230
1.0
 40
0.9083744652357186
 41
3.808998900156701
 42
5.813403557372721
  0
ELLIPSE
  5
3A76F5
330
18
100
AcDbEntity
  8
姿図
100
AcDbEllipse
 10
18576.55972848256
 20
-16513.67059104728
 30
0.0000000000000014
 11
0.04077444956302054
 21
0.05696057237042965
 31
0.0
210
0.0
220
0.0
230
1.0
 40
0.9083744652357184
 41
3.808998900156944
 42
5.813403557372685
  0
ELLIPSE
  5
3A76F6
330
18
100
AcDbEntity
  8
姿図
100
AcDbEllipse
 10
18576.55972848256
 20
-16515.70049659004
 30
0.0000000000000014
 11
0.04077444956302054
 21
0.05696057237042965
 31
0.0
210
0.0
220
0.0
230
1.0
 40
0.9083744652357184
 41
3.808998900156665
 42
5.813403557372685
  0
ELLIPSE
  5
3A76F7
330
18
100
AcDbEntity
  8
姿図
100
AcDbEllipse
 10
18556.40048460869
 20
-16516.28532580559
 30
0.0000000000000014
 11
-20.12390636427689
 21
-3.814900630616825E-13
 31
-1.117101209551046E-15
210
-5.551115123125783E-17
220
-1.052328121613186E-30
230
1.0
 40
0.258819045102515
 41
3.173482583937681
 42
3.237425862011138
  0
ELLIPSE
  5
3A76F8
330
18
100
AcDbEntity
  8
姿図
100
AcDbEllipse
 10
18556.40048460869
 20
-16516.86046570937
 30
0.0000000000000014
 11
-20.13949821201701
 21
-3.834625887223409E-13
 31
-1.117966730968923E-15
210
-5.551115123125783E-17
220
-1.056950353479716E-30
230
1.0
 40
0.258819045102515
 41
3.048817195001321
 42
3.090682397459626
  0
ELLIPSE
  5
3A76F9
330
18
100
AcDbEntity
  8
姿図
100
AcDbEllipse
 10
18556.40048460869
 20
-16516.86046570937
 30
0.0000000000000014
 11
-20.13949821201701
 21
-3.834625887223409E-13
 31
-1.117966730968923E-15
210
-5.551115123125783E-17
220
-1.056950353479716E-30
230
1.0
 40
0.258819045102515
 41
3.143468445217585
 42
3.219953961483735
  0
ELLIPSE
  5
3A76FA
330
18
100
AcDbEntity
  8
姿図
100
AcDbEllipse
 10
18576.8907564307
 20
-16517.74912215345
 30
0.0000000000000014
 11
-0.02392420980733846
 21
-0.3495180895951371
 31
1.944755070642358E-17
210
3.790819955422905E-18
220
5.538156367497357E-17
230
1.0
 40
0.163803715364946
 41
3.940366134145706
 42
4.140498290499586
  0
ELLIPSE
  5
3A76FB
330
18
100
AcDbEntity
  8
姿図
100
AcDbEllipse
 10
18576.55972848256
 20
-16516.37713177097
 30
0.0000000000000014
 11
0.04077444956302054
 21
0.05696057237042965
 31
0.0
210
0.0
220
0.0
230
1.0
 40
0.9083744652357184
 41
3.808998900156953
 42
5.813403557372611
  0
ELLIPSE
  5
3A76FC
330
18
100
AcDbEntity
  8
姿図
100
AcDbEllipse
 10
18576.55972848256
 20
-16517.05376695188
 30
0.0000000000000014
 11
0.04077444956302054
 21
0.05696057237042965
 31
0.0
210
0.0
220
0.0
230
1.0
 40
0.9083744652357184
 41
3.808998900157146
 42
5.813403557372803
  0
ELLIPSE
  5
3A76FD
330
18
100
AcDbEntity
  8
姿図
100
AcDbEllipse
 10
18576.55972848256
 20
-16514.3472262282
 30
0.0000000000000014
 11
0.04077444956302054
 21
0.05696057237042965
 31
0.0
210
0.0
220
0.0
230
1.0
 40
0.9083744652357184
 41
3.808998900156944
 42
5.813403557372685
  0
ELLIPSE
  5
3A76FE
330
18
100
AcDbEntity
  8
姿図
100
AcDbEllipse
 10
18576.55972848256
 20
-16515.02386140911
 30
0.0000000000000014
 11
0.04077444956302054
 21
0.05696057237042965
 31
0.0
210
0.0
220
0.0
230
1.0
 40
0.9083744652357184
 41
3.808998900157137
 42
5.813403557372877
  0
ELLIPSE
  5
3A76FF
330
18
100
AcDbEntity
  8
姿図
100
AcDbEllipse
 10
18576.55972848256
 20
-16512.31732068543
 30
0.0000000000000014
 11
0.04077444956302054
 21
0.05696057237042965
 31
0.0
210
0.0
220
0.0
230
1.0
 40
0.9083744652357184
 41
3.808998900156944
 42
5.813403557372635
  0
ELLIPSE
  5
3A7700
330
18
100
AcDbEntity
  8
姿図
100
AcDbEllipse
 10
18576.55972848256
 20
-16512.99395586635
 30
0.0000000000000014
 11
0.04077444956302054
 21
0.05696057237042965
 31
0.0
210
0.0
220
0.0
230
1.0
 40
0.9083744652357184
 41
3.808998900157069
 42
5.813403557372808
  0
LINE
  5
3A7701
330
18
100
AcDbEntity
  8
姿図
100
AcDbLine
 10
18578.7393551617
 20
-16513.8007610426
 30
0.0000000000000014
 11
18578.5209796969
 21
-16513.33674564371
 31
0.0000000000000014
  0
LINE
  5
3A7702
330
18
100
AcDbEntity
  8
姿図
100
AcDbLine
 10
18578.7393551617
 20
-16514.47739622353
 30
0.0000000000000014
 11
18578.5209796969
 21
-16514.01338082463
 31
0.0000000000000014
  0
LINE
  5
3A7703
330
18
100
AcDbEntity
  8
姿図
100
AcDbLine
 10
18578.7393551617
 20
-16512.44749068076
 30
0.0000000000000014
 11
18578.5209796969
 21
-16511.98347528187
 31
0.0000000000000014
  0
LINE
  5
3A7704
330
18
100
AcDbEntity
  8
姿図
100
AcDbLine
 10
18578.7393551617
 20
-16513.12412586168
 30
0.0000000000000014
 11
18578.5209796969
 21
-16512.66011046279
 31
0.0000000000000014
  0
LINE
  5
3A7705
330
18
100
AcDbEntity
  8
姿図
100
AcDbLine
 10
18578.7393551617
 20
-16517.86057212813
 30
0.0000000000000014
 11
18578.5209796969
 21
-16517.39655672924
 31
0.0000000000000014
  0
LINE
  5
3A7706
330
18
100
AcDbEntity
  8
姿図
100
AcDbLine
 10
18578.7393551617
 20
-16518.53720730905
 30
0.0000000000000014
 11
18578.5209796969
 21
-16518.07319191016
 31
0.0000000000000014
  0
LINE
  5
3A7707
330
18
100
AcDbEntity
  8
姿図
100
AcDbLine
 10
18578.7393551617
 20
-16515.83066658537
 30
0.0000000000000014
 11
18578.5209796969
 21
-16515.36665118647
 31
0.0000000000000014
  0
LINE
  5
3A7708
330
18
100
AcDbEntity
  8
姿図
100
AcDbLine
 10
18578.7393551617
 20
-16516.50730176629
 30
0.0000000000000014
 11
18578.5209796969
 21
-16516.04328636739
 31
0.0000000000000014
  0
LINE
  5
3A7709
330
18
100
AcDbEntity
  8
姿図
100
AcDbLine
 10
18578.7393551617
 20
-16517.18393694721
 30
0.0000000000000014
 11
18578.5209796969
 21
-16516.71992154832
 31
0.0000000000000014
  0
LINE
  5
3A770A
330
18
100
AcDbEntity
  8
姿図
100
AcDbLine
 10
18578.7393551617
 20
-16515.15403140445
 30
0.0000000000000014
 11
18578.5209796969
 21
-16514.69001600555
 31
0.0000000000000014
  0
ELLIPSE
  5
3A770B
330
18
100
AcDbEntity
  8
姿図
100
AcDbEllipse
 10
18578.58075989288
 20
-16518.03916904827
 30
0.0000000000000014
 11
0.04077444956302772
 21
0.0569605723704284
 31
3.888579933804730E-18
210
-3.231153159914877E-17
220
-4.513815278383455E-17
230
1.0
 40
0.908374465235719
 41
0.6674062465674321
 42
2.671810903783085
  0
ELLIPSE
  5
3A770C
330
18
100
AcDbEntity
  8
姿図
100
AcDbEllipse
 10
18578.58075989288
 20
-16518.71580422919
 30
0.0000000000000014
 11
0.04077444956302772
 21
0.0569605723704284
 31
3.888579933804730E-18
210
-3.231153159914877E-17
220
-4.513815278383455E-17
230
1.0
 40
0.908374465235719
 41
0.6674062465669873
 42
2.671810903782875
  0
ELLIPSE
  5
3A770D
330
18
100
AcDbEntity
  8
姿図
100
AcDbEllipse
 10
18578.58075989288
 20
-16516.00926350551
 30
0.0000000000000014
 11
0.04077444956302772
 21
0.0569605723704284
 31
3.888579933804730E-18
210
-3.231153159914877E-17
220
-4.513815278383455E-17
230
1.0
 40
0.908374465235719
 41
0.6674062465671117
 42
2.671810903782999
  0
ELLIPSE
  5
3A770E
330
18
100
AcDbEntity
  8
姿図
100
AcDbEllipse
 10
18578.58075989288
 20
-16516.68589868643
 30
0.0000000000000014
 11
0.04077444956302772
 21
0.0569605723704284
 31
3.888579933804730E-18
210
-3.231153159914877E-17
220
-4.513815278383455E-17
230
1.0
 40
0.908374465235719
 41
0.6674062465669561
 42
2.671810903782844
  0
ELLIPSE
  5
3A770F
330
18
100
AcDbEntity
  8
姿図
100
AcDbEllipse
 10
18578.58075989288
 20
-16517.36253386735
 30
0.0000000000000014
 11
0.04077444956302772
 21
0.0569605723704284
 31
3.888579933804730E-18
210
-3.231153159914877E-17
220
-4.513815278383455E-17
230
1.0
 40
0.908374465235719
 41
0.6674062465670799
 42
2.671810903782968
  0
ELLIPSE
  5
3A7710
330
18
100
AcDbEntity
  8
姿図
100
AcDbEllipse
 10
18578.58075989288
 20
-16513.97935796274
 30
0.0000000000000014
 11
0.04077444956302772
 21
0.0569605723704284
 31
3.888579933804730E-18
210
-3.231153159914877E-17
220
-4.513815278383455E-17
230
1.0
 40
0.908374465235719
 41
0.6674062465670799
 42
2.671810903783017
  0
ELLIPSE
  5
3A7711
330
18
100
AcDbEntity
  8
姿図
100
AcDbEllipse
 10
18578.58075989288
 20
-16514.65599314366
 30
0.0000000000000014
 11
0.04077444956302772
 21
0.0569605723704284
 31
3.888579933804730E-18
210
-3.231153159914877E-17
220
-4.513815278383455E-17
230
1.0
 40
0.908374465235719
 41
0.667406246567148
 42
2.671810903783085
  0
ELLIPSE
  5
3A7712
330
18
100
AcDbEntity
  8
姿図
100
AcDbEllipse
 10
18578.58075989288
 20
-16515.33262832458
 30
0.0000000000000014
 11
0.04077444956302772
 21
0.0569605723704284
 31
3.888579933804730E-18
210
-3.231153159914877E-17
220
-4.513815278383455E-17
230
1.0
 40
0.908374465235719
 41
0.6674062465669873
 42
2.671810903782924
  0
ELLIPSE
  5
3A7713
330
18
100
AcDbEntity
  8
姿図
100
AcDbEllipse
 10
18578.58075989288
 20
-16511.94945241998
 30
0.0000000000000014
 11
0.04077444956303928
 21
0.05696057237044466
 31
3.888579933805833E-18
210
-3.231153159914873E-17
220
-4.513815278383451E-17
230
1.0
 40
0.9083744652357183
 41
0.6674062465670405
 42
2.671810903783109
  0
ELLIPSE
  5
3A7714
330
18
100
AcDbEntity
  8
姿図
100
AcDbEllipse
 10
18578.58075989288
 20
-16512.6260876009
 30
0.0000000000000014
 11
0.04077444956302772
 21
0.0569605723704284
 31
3.888579933804730E-18
210
-3.231153159914877E-17
220
-4.513815278383455E-17
230
1.0
 40
0.908374465235719
 41
0.667406246567148
 42
2.671810903783036
  0
ELLIPSE
  5
3A7715
330
18
100
AcDbEntity
  8
姿図
100
AcDbEllipse
 10
18578.58075989288
 20
-16513.30272278182
 30
0.0000000000000014
 11
0.04077444956302772
 21
0.0569605723704284
 31
3.888579933804730E-18
210
-3.231153159914877E-17
220
-4.513815278383455E-17
230
1.0
 40
0.908374465235719
 41
0.6674062465670241
 42
2.671810903782961
  0
LINE
  5
3A7716
330
18
100
AcDbEntity
  8
姿図
100
AcDbLine
 10
18577.78260620277
 20
-16513.48482622024
 30
0.0000000000000014
 11
18578.00098166757
 21
-16513.94884161913
 31
0.0000000000000014
  0
LINE
  5
3A7717
330
18
100
AcDbEntity
  8
姿図
100
AcDbLine
 10
18577.94120147158
 20
-16514.05052799912
 30
0.0000000000000014
 11
18577.84238639875
 21
-16514.05977502118
 31
0.0000000000000014
  0
LINE
  5
3A7718
330
18
100
AcDbEntity
  8
姿図
100
AcDbLine
 10
18577.94120147158
 20
-16513.37389281819
 30
0.0000000000000014
 11
18577.84238639875
 21
-16513.38313984026
 31
0.0000000000000014
  0
LINE
  5
3A7719
330
18
100
AcDbEntity
  8
姿図
100
AcDbLine
 10
18577.78260620277
 20
-16512.80819103932
 30
0.0000000000000014
 11
18578.00098166757
 21
-16513.27220643821
 31
0.0000000000000014
  0
LINE
  5
3A771A
330
18
100
AcDbEntity
  8
姿図
100
AcDbLine
 10
18577.94120147158
 20
-16512.69725763727
 30
0.0000000000000014
 11
18577.84238639875
 21
-16512.70650465934
 31
0.0000000000000014
  0
LINE
  5
3A771B
330
18
100
AcDbEntity
  8
姿図
100
AcDbLine
 10
18577.78260620277
 20
-16512.1315558584
 30
0.0000000000000014
 11
18578.00098166757
 21
-16512.59557125729
 31
0.0000000000000014
  0
LINE
  5
3A771C
330
18
100
AcDbEntity
  8
姿図
100
AcDbLine
 10
18577.94120147158
 20
-16512.02062245635
 30
0.0000000000000014
 11
18577.84238639875
 21
-16512.02986947841
 31
0.0000000000000014
  0
LINE
  5
3A771D
330
18
100
AcDbEntity
  8
姿図
100
AcDbLine
 10
18577.78260620277
 20
-16517.54463730577
 30
0.0000000000000014
 11
18578.00098166757
 21
-16518.00865270466
 31
0.0000000000000014
  0
LINE
  5
3A771E
330
18
100
AcDbEntity
  8
姿図
100
AcDbLine
 10
18577.7819088903
 20
-16518.84271659025
 30
0.0000000000000014
 11
18577.78306124755
 21
-16518.89887457393
 31
0.0000000000000014
  0
LINE
  5
3A771F
330
18
100
AcDbEntity
  8
姿図
100
AcDbLine
 10
18577.94120147158
 20
-16518.78697426556
 30
0.0000000000000014
 11
18577.84238639875
 21
-16518.79622128763
 31
0.0000000000000014
  0
LINE
  5
3A7720
330
18
100
AcDbEntity
  8
姿図
100
AcDbLine
 10
18577.78260620277
 20
-16518.22127248669
 30
0.0000000000000014
 11
18578.00098166757
 21
-16518.68528788559
 31
0.0000000000000014
  0
LINE
  5
3A7721
330
18
100
AcDbEntity
  8
姿図
100
AcDbLine
 10
18577.94120147158
 20
-16518.11033908464
 30
0.0000000000000014
 11
18577.84238639875
 21
-16518.11958610671
 31
0.0000000000000014
  0
LINE
  5
3A7722
330
18
100
AcDbEntity
  8
姿図
100
AcDbLine
 10
18577.78260620277
 20
-16515.514731763
 30
0.0000000000000014
 11
18578.00098166757
 21
-16515.9787471619
 31
0.0000000000000014
  0
LINE
  5
3A7723
330
18
100
AcDbEntity
  8
姿図
100
AcDbLine
 10
18577.94120147158
 20
-16517.43370390372
 30
0.0000000000000014
 11
18577.84238639875
 21
-16517.44295092579
 31
0.0000000000000014
  0
LINE
  5
3A7724
330
18
100
AcDbEntity
  8
姿図
100
AcDbLine
 10
18577.78260620277
 20
-16516.86800212484
 30
0.0000000000000014
 11
18578.00098166757
 21
-16517.33201752373
 31
0.0000000000000014
  0
LINE
  5
3A7725
330
18
100
AcDbEntity
  8
姿図
100
AcDbLine
 10
18577.94120147158
 20
-16516.7570687228
 30
0.0000000000000014
 11
18577.84238639875
 21
-16516.76631574486
 31
0.0000000000000014
  0
LINE
  5
3A7726
330
18
100
AcDbEntity
  8
姿図
100
AcDbLine
 10
18577.78260620277
 20
-16516.19136694392
 30
0.0000000000000014
 11
18578.00098166757
 21
-16516.65538234282
 31
0.0000000000000014
  0
LINE
  5
3A7727
330
18
100
AcDbEntity
  8
姿図
100
AcDbLine
 10
18577.94120147158
 20
-16516.08043354188
 30
0.0000000000000014
 11
18577.84238639875
 21
-16516.08968056394
 31
0.0000000000000014
  0
LINE
  5
3A7728
330
18
100
AcDbEntity
  8
姿図
100
AcDbLine
 10
18577.94120147158
 20
-16515.40379836096
 30
0.0000000000000014
 11
18577.84238639875
 21
-16515.41304538302
 31
0.0000000000000014
  0
LINE
  5
3A7729
330
18
100
AcDbEntity
  8
姿図
100
AcDbLine
 10
18577.78260620277
 20
-16514.83809658208
 30
0.0000000000000014
 11
18578.00098166757
 21
-16515.30211198098
 31
0.0000000000000014
  0
LINE
  5
3A772A
330
18
100
AcDbEntity
  8
姿図
100
AcDbLine
 10
18577.94120147158
 20
-16514.72716318003
 30
0.0000000000000014
 11
18577.84238639875
 21
-16514.7364102021
 31
0.0000000000000014
  0
LINE
  5
3A772B
330
18
100
AcDbEntity
  8
姿図
100
AcDbLine
 10
18577.78260620277
 20
-16514.16146140116
 30
0.0000000000000014
 11
18578.00098166757
 21
-16514.62547680005
 31
0.0000000000000014
  0
ELLIPSE
  5
3A772C
330
18
100
AcDbEntity
  8
姿図
100
AcDbEllipse
 10
18577.84238639874
 20
-16518.86388480572
 30
0.0000000000000014
 11
0.0407744495630228
 21
0.05696057237043198
 31
3.888579933804733E-18
210
-3.231153159914463E-17
220
-4.513815278383753E-17
230
1.0
 40
0.908374465235718
 41
0.6674062465666386
 42
1.830516517601721
  0
ELLIPSE
  5
3A772D
330
18
100
AcDbEntity
  8
姿図
100
AcDbEllipse
 10
18577.94120147158
 20
-16518.71931074747
 30
0.0000000000000014
 11
0.04077444956302492
 21
0.05696057237042366
 31
7.777159867608844E-18
210
-6.462306319829826E-17
220
-9.027630556766847E-17
230
1.0
 40
0.9083744652357175
 41
3.808998900156779
 42
5.813403557372749
  0
ELLIPSE
  5
3A772E
330
18
100
AcDbEntity
  8
姿図
100
AcDbEllipse
 10
18577.84238639874
 20
-16518.1872496248
 30
0.0000000000000014
 11
0.0407744495630228
 21
0.05696057237043198
 31
3.888579933804733E-18
210
-3.231153159914463E-17
220
-4.513815278383753E-17
230
1.0
 40
0.908374465235718
 41
0.6674062465669787
 42
2.671810903782915
  0
ELLIPSE
  5
3A772F
330
18
100
AcDbEntity
  8
姿図
100
AcDbEllipse
 10
18577.94120147158
 20
-16518.04267556655
 30
0.0000000000000014
 11
0.04077444956302618
 21
0.05696057237042552
 31
-3.888579933804548E-18
210
3.231153159914902E-17
220
4.513815278383435E-17
230
1.0
 40
0.9083744652357175
 41
3.80899890015719
 42
5.813403557373379
  0
ELLIPSE
  5
3A7730
330
18
100
AcDbEntity
  8
姿図
100
AcDbEllipse
 10
18557.30010180025
 20
-16476.34888880971
 30
0.0000000000000014
 11
-20.79391885913712
 21
42.52204348030641
 31
-2.627566994505298E-15
210
-2.438613733585013E-17
220
4.986786757879906E-17
230
1.0
 40
0.0898112888334006
 41
3.072939992536941
 42
3.073177647634316
  0
ELLIPSE
  5
3A7731
330
18
100
AcDbEntity
  8
姿図
100
AcDbEllipse
 10
18577.84238639874
 20
-16517.51061444388
 30
0.0000000000000014
 11
0.0407744495630228
 21
0.05696057237043198
 31
3.888579933804733E-18
210
-3.231153159914463E-17
220
-4.513815278383753E-17
230
1.0
 40
0.908374465235718
 41
0.6674062465666698
 42
2.671810903782841
  0
ELLIPSE
  5
3A7732
330
18
100
AcDbEntity
  8
姿図
100
AcDbEllipse
 10
18577.94120147158
 20
-16517.36604038563
 30
0.0000000000000014
 11
0.04077444956302618
 21
0.05696057237042552
 31
-3.888579933804548E-18
210
3.231153159914902E-17
220
4.513815278383435E-17
230
1.0
 40
0.9083744652357175
 41
3.808998900156782
 42
5.813403557372797
  0
ELLIPSE
  5
3A7733
330
18
100
AcDbEntity
  8
姿図
100
AcDbEllipse
 10
18577.84238639874
 20
-16516.83397926296
 30
0.0000000000000014
 11
0.0407744495630228
 21
0.05696057237043198
 31
3.888579933804733E-18
210
-3.231153159914463E-17
220
-4.513815278383753E-17
230
1.0
 40
0.908374465235718
 41
0.6674062465669538
 42
2.671810903782891
  0
ELLIPSE
  5
3A7734
330
18
100
AcDbEntity
  8
姿図
100
AcDbEllipse
 10
18577.94120147158
 20
-16516.68940520471
 30
0.0000000000000014
 11
0.04077444956302618
 21
0.05696057237042552
 31
-3.888579933804548E-18
210
3.231153159914902E-17
220
4.513815278383435E-17
230
1.0
 40
0.9083744652357175
 41
3.808998900157067
 42
5.813403557373014
  0
ELLIPSE
  5
3A7735
330
18
100
AcDbEntity
  8
姿図
100
AcDbEllipse
 10
18577.84238639874
 20
-16516.15734408204
 30
0.0000000000000014
 11
0.0407744495630228
 21
0.05696057237043198
 31
3.888579933804733E-18
210
-3.231153159914463E-17
220
-4.513815278383753E-17
230
1.0
 40
0.908374465235718
 41
0.6674062465669787
 42
2.671810903782915
  0
ELLIPSE
  5
3A7736
330
18
100
AcDbEntity
  8
姿図
100
AcDbEllipse
 10
18577.94120147158
 20
-16516.01277002379
 30
0.0000000000000014
 11
0.04077444956302618
 21
0.05696057237042552
 31
-3.888579933804548E-18
210
3.231153159914902E-17
220
4.513815278383435E-17
230
1.0
 40
0.9083744652357175
 41
3.808998900156782
 42
5.813403557372797
  0
ELLIPSE
  5
3A7737
330
18
100
AcDbEntity
  8
姿図
100
AcDbEllipse
 10
18577.84238639874
 20
-16515.48070890112
 30
0.0000000000000014
 11
0.0407744495630228
 21
0.05696057237043198
 31
3.888579933804733E-18
210
-3.231153159914463E-17
220
-4.513815278383753E-17
230
1.0
 40
0.908374465235718
 41
0.6674062465668864
 42
2.671810903783139
  0
ELLIPSE
  5
3A7738
330
18
100
AcDbEntity
  8
姿図
100
AcDbEllipse
 10
18577.94120147158
 20
-16515.33613484287
 30
0.0000000000000014
 11
0.04077444956302618
 21
0.05696057237042552
 31
-3.888579933804548E-18
210
3.231153159914902E-17
220
4.513815278383435E-17
230
1.0
 40
0.9083744652357175
 41
3.808998900157258
 42
5.81340355737299
  0
ELLIPSE
  5
3A7739
330
18
100
AcDbEntity
  8
姿図
100
AcDbEllipse
 10
18577.84238639874
 20
-16514.8040737202
 30
0.0000000000000014
 11
0.0407744495630228
 21
0.05696057237043198
 31
3.888579933804733E-18
210
-3.231153159914463E-17
220
-4.513815278383753E-17
230
1.0
 40
0.908374465235718
 41
0.6674062465670783
 42
2.671810903783331
  0
ELLIPSE
  5
3A773A
330
18
100
AcDbEntity
  8
姿図
100
AcDbEllipse
 10
18577.94120147158
 20
-16514.65949966195
 30
0.0000000000000014
 11
0.04077444956302618
 21
0.05696057237042552
 31
-3.888579933804548E-18
210
3.231153159914902E-17
220
4.513815278383435E-17
230
1.0
 40
0.9083744652357175
 41
3.808998900157067
 42
5.813403557372797
  0
ELLIPSE
  5
3A773B
330
18
100
AcDbEntity
  8
姿図
100
AcDbEllipse
 10
18577.84238639874
 20
-16514.12743853928
 30
0.0000000000000014
 11
0.0407744495630228
 21
0.05696057237043198
 31
3.888579933804733E-18
210
-3.231153159914463E-17
220
-4.513815278383753E-17
230
1.0
 40
0.908374465235718
 41
0.6674062465670099
 42
2.671810903783262
  0
ELLIPSE
  5
3A773C
330
18
100
AcDbEntity
  8
姿図
100
AcDbEllipse
 10
18577.94120147158
 20
-16513.98286448103
 30
0.0000000000000014
 11
0.04077444956302618
 21
0.05696057237042552
 31
-3.888579933804548E-18
210
3.231153159914902E-17
220
4.513815278383435E-17
230
1.0
 40
0.9083744652357175
 41
3.808998900156622
 42
5.81340355737292
  0
ELLIPSE
  5
3A773D
330
18
100
AcDbEntity
  8
姿図
100
AcDbEllipse
 10
18577.84238639874
 20
-16513.45080335835
 30
0.0000000000000014
 11
0.0407744495630228
 21
0.05696057237043198
 31
3.888579933804733E-18
210
-3.231153159914463E-17
220
-4.513815278383753E-17
230
1.0
 40
0.908374465235718
 41
0.6674062465666947
 42
2.671810903783231
  0
ELLIPSE
  5
3A773E
330
18
100
AcDbEntity
  8
姿図
100
AcDbEllipse
 10
18577.94120147158
 20
-16513.3062293001
 30
0.0000000000000014
 11
0.04077444956302618
 21
0.05696057237042552
 31
-3.888579933804548E-18
210
3.231153159914902E-17
220
4.513815278383435E-17
230
1.0
 40
0.9083744652357175
 41
3.808998900156782
 42
5.813403557372797
  0
ELLIPSE
  5
3A773F
330
18
100
AcDbEntity
  8
姿図
100
AcDbEllipse
 10
18577.84238639874
 20
-16512.77416817743
 30
0.0000000000000014
 11
0.0407744495630228
 21
0.05696057237043198
 31
3.888579933804733E-18
210
-3.231153159914463E-17
220
-4.513815278383753E-17
230
1.0
 40
0.908374465235718
 41
0.6674062465668553
 42
2.671810903783083
  0
ELLIPSE
  5
3A7740
330
18
100
AcDbEntity
  8
姿図
100
AcDbEllipse
 10
18577.94120147158
 20
-16512.62959411918
 30
0.0000000000000014
 11
0.04077444956302618
 21
0.05696057237042552
 31
-3.888579933804548E-18
210
3.231153159914902E-17
220
4.513815278383435E-17
230
1.0
 40
0.9083744652357175
 41
3.808998900156777
 42
5.813403557372797
  0
ELLIPSE
  5
3A7741
330
18
100
AcDbEntity
  8
姿図
100
AcDbEllipse
 10
18577.84238639874
 20
-16512.09753299651
 30
0.0000000000000014
 11
0.0407744495630228
 21
0.05696057237043198
 31
3.888579933804733E-18
210
-3.231153159914463E-17
220
-4.513815278383753E-17
230
1.0
 40
0.908374465235718
 41
0.6674062465666901
 42
2.671810903782891
  0
ELLIPSE
  5
3A7742
330
18
100
AcDbEntity
  8
姿図
100
AcDbEllipse
 10
18577.94120147158
 20
-16511.95295893826
 30
0.0000000000000014
 11
0.0407744495630275
 21
0.05696057237042731
 31
3.888579933804645E-18
210
-3.231153159914882E-17
220
-4.513815278383401E-17
230
1.0
 40
0.9083744652357181
 41
3.808998900156912
 42
5.813403557372872
  0
LINE
  5
3A7743
330
18
100
AcDbEntity
  8
姿図
100
AcDbLine
 10
18578.58075989288
 20
-16513.91169444465
 30
0.0000000000000014
 11
18578.67957496572
 21
-16513.90244742258
 31
0.0000000000000014
  0
LINE
  5
3A7744
330
18
100
AcDbEntity
  8
姿図
100
AcDbLine
 10
18578.58075989288
 20
-16511.88178890189
 30
0.0000000000000014
 11
18578.67957496572
 21
-16511.87254187982
 31
0.0000000000000014
  0
LINE
  5
3A7745
330
18
100
AcDbEntity
  8
姿図
100
AcDbLine
 10
18578.58075989288
 20
-16512.55842408281
 30
0.0000000000000014
 11
18578.67957496572
 21
-16512.54917706074
 31
0.0000000000000014
  0
LINE
  5
3A7746
330
18
100
AcDbEntity
  8
姿図
100
AcDbLine
 10
18578.58075989288
 20
-16513.23505926373
 30
0.0000000000000014
 11
18578.67957496572
 21
-16513.22581224166
 31
0.0000000000000014
  0
LINE
  5
3A7747
330
18
100
AcDbEntity
  8
姿図
100
AcDbLine
 10
18578.58075989288
 20
-16517.97150553018
 30
0.0000000000000014
 11
18578.67957496572
 21
-16517.96225850811
 31
0.0000000000000014
  0
LINE
  5
3A7748
330
18
100
AcDbEntity
  8
姿図
100
AcDbLine
 10
18578.58075989288
 20
-16518.6481407111
 30
0.0000000000000014
 11
18578.67957496572
 21
-16518.63889368904
 31
0.0000000000000014
  0
LINE
  5
3A7749
330
18
100
AcDbEntity
  8
姿図
100
AcDbLine
 10
18578.58075989288
 20
-16515.94159998741
 30
0.0000000000000014
 11
18578.67957496572
 21
-16515.93235296535
 31
0.0000000000000014
  0
LINE
  5
3A774A
330
18
100
AcDbEntity
  8
姿図
100
AcDbLine
 10
18578.58075989288
 20
-16516.61823516833
 30
0.0000000000000014
 11
18578.67957496572
 21
-16516.60898814627
 31
0.0000000000000014
  0
LINE
  5
3A774B
330
18
100
AcDbEntity
  8
姿図
100
AcDbLine
 10
18578.58075989288
 20
-16517.29487034926
 30
0.0000000000000014
 11
18578.67957496572
 21
-16517.28562332719
 31
0.0000000000000014
  0
LINE
  5
3A774C
330
18
100
AcDbEntity
  8
姿図
100
AcDbLine
 10
18578.58075989288
 20
-16514.58832962557
 30
0.0000000000000014
 11
18578.67957496572
 21
-16514.57908260351
 31
0.0000000000000014
  0
LINE
  5
3A774D
330
18
100
AcDbEntity
  8
姿図
100
AcDbLine
 10
18578.58075989288
 20
-16515.26496480649
 30
0.0000000000000014
 11
18578.67957496572
 21
-16515.25571778443
 31
0.0000000000000014
  0
ELLIPSE
  5
3A774E
330
18
100
AcDbEntity
  8
姿図
100
AcDbEllipse
 10
18578.67957496572
 20
-16517.89459499002
 30
0.0000000000000014
 11
0.04077444956302054
 21
0.05696057237042965
 31
0.0
210
0.0
220
0.0
230
1.0
 40
0.9083744652357184
 41
3.808998900157078
 42
5.8134035573731
  0
ELLIPSE
  5
3A774F
330
18
100
AcDbEntity
  8
姿図
100
AcDbEllipse
 10
18578.67957496572
 20
-16518.57123017094
 30
0.0000000000000014
 11
0.04077444956302054
 21
0.05696057237042965
 31
0.0
210
0.0
220
0.0
230
1.0
 40
0.9083744652357184
 41
3.808998900156706
 42
5.813403557372963
  0
ELLIPSE
  5
3A7750
330
18
100
AcDbEntity
  8
姿図
100
AcDbEllipse
 10
18578.67957496572
 20
-16515.86468944725
 30
0.0000000000000014
 11
0.04077444956302054
 21
0.05696057237042965
 31
0.0
210
0.0
220
0.0
230
1.0
 40
0.9083744652357184
 41
3.808998900156737
 42
5.813403557372994
  0
ELLIPSE
  5
3A7751
330
18
100
AcDbEntity
  8
姿図
100
AcDbEllipse
 10
18578.67957496572
 20
-16516.54132462818
 30
0.0000000000000014
 11
0.04077444956302054
 21
0.05696057237042965
 31
0.0
210
0.0
220
0.0
230
1.0
 40
0.9083744652357184
 41
3.808998900157022
 42
5.813403557372752
  0
ELLIPSE
  5
3A7752
330
18
100
AcDbEntity
  8
姿図
100
AcDbEllipse
 10
18578.67957496572
 20
-16517.2179598091
 30
0.0000000000000014
 11
0.04077444956302054
 21
0.05696057237042965
 31
0.0
210
0.0
220
0.0
230
1.0
 40
0.9083744652357184
 41
3.808998900156638
 42
5.813403557372579
  0
ELLIPSE
  5
3A7753
330
18
100
AcDbEntity
  8
姿図
100
AcDbEllipse
 10
18578.67957496572
 20
-16513.83478390449
 30
0.0000000000000014
 11
0.04077444956302054
 21
0.05696057237042965
 31
0.0
210
0.0
220
0.0
230
1.0
 40
0.9083744652357184
 41
3.808998900156422
 42
5.813403557372648
  0
ELLIPSE
  5
3A7754
330
18
100
AcDbEntity
  8
姿図
100
AcDbEllipse
 10
18578.67957496572
 20
-16514.51141908541
 30
0.0000000000000014
 11
0.04077444956302054
 21
0.05696057237042965
 31
0.0
210
0.0
220
0.0
230
1.0
 40
0.9083744652357184
 41
3.808998900156578
 42
5.813403557372803
  0
ELLIPSE
  5
3A7755
330
18
100
AcDbEntity
  8
姿図
100
AcDbEllipse
 10
18578.67957496572
 20
-16515.18805426633
 30
0.0000000000000014
 11
0.04077444956302054
 21
0.05696057237042965
 31
0.0
210
0.0
220
0.0
230
1.0
 40
0.9083744652357184
 41
3.808998900157022
 42
5.813403557373044
  0
ELLIPSE
  5
3A7756
330
18
100
AcDbEntity
  8
姿図
100
AcDbEllipse
 10
18578.67957496572
 20
-16511.80487836173
 30
0.0000000000000014
 11
0.04077444956302177
 21
0.05696057237043142
 31
-7.777159867609348E-18
210
6.462306319828893E-17
220
9.027630556767526E-17
230
1.0
 40
0.9083744652357181
 41
3.808998900156864
 42
5.813403557372728
  0
ELLIPSE
  5
3A7757
330
18
100
AcDbEntity
  8
姿図
100
AcDbEllipse
 10
18578.67957496572
 20
-16512.48151354265
 30
0.0000000000000014
 11
0.04077444956302177
 21
0.05696057237043142
 31
-7.777159867609348E-18
210
6.462306319828893E-17
220
9.027630556767526E-17
230
1.0
 40
0.9083744652357181
 41
3.808998900156512
 42
5.813403557373049
  0
ELLIPSE
  5
3A7758
330
18
100
AcDbEntity
  8
姿図
100
AcDbEllipse
 10
18578.67957496572
 20
-16513.15814872357
 30
0.0000000000000014
 11
0.04077444956302054
 21
0.05696057237042965
 31
0.0
210
0.0
220
0.0
230
1.0
 40
0.9083744652357184
 41
3.808998900156478
 42
5.813403557372704
  0
LINE
  5
3A7759
330
18
100
AcDbEntity
  8
姿図
100
AcDbLine
 10
18574.34921036028
 20
-16515.23370847476
 30
0.0000000000000014
 11
18573.83567251921
 21
-16515.28176486546
 31
0.0000000000000014
  0
ELLIPSE
  5
3A775A
330
18
100
AcDbEntity
  8
姿図
100
AcDbEllipse
 10
18556.10472776714
 20
-16509.00903365526
 30
0.0000000000000014
 11
12.11309932373158
 21
34.24547220764034
 31
0.0
210
0.0
220
0.0
230
1.0
 40
0.5306663220532382
 41
4.635006625735985
 42
4.718323401449883
  0
ELLIPSE
  5
3A775B
330
18
100
AcDbEntity
  8
姿図
100
AcDbEllipse
 10
18556.72052031574
 20
-16506.12609150481
 30
0.0000000000000014
 11
12.0971905597633
 21
34.2056226089775
 31
4.028085341671579E-15
210
-3.701743464227722E-17
220
-1.046692943349817E-16
230
1.0
 40
0.5306015190202692
 41
4.552834753258026
 42
4.631677754451532
  0
LINE
  5
3A775C
330
18
100
AcDbEntity
  8
姿図
100
AcDbLine
 10
18575.82135498843
 20
-16513.8863351419
 30
0.0000000000000014
 11
18575.72253991559
 21
-16513.89558216397
 31
0.0000000000000014
  0
LINE
  5
3A775D
330
18
100
AcDbEntity
  8
姿図
100
AcDbLine
 10
18575.82135498843
 20
-16513.20969996097
 30
0.0000000000000014
 11
18575.72253991559
 21
-16513.21894698304
 31
0.0000000000000014
  0
LINE
  5
3A775E
330
18
100
AcDbEntity
  8
姿図
100
AcDbLine
 10
18575.82135498843
 20
-16512.53306478005
 30
0.0000000000000014
 11
18575.72253991559
 21
-16512.54231180212
 31
0.0000000000000014
  0
LINE
  5
3A775F
330
18
100
AcDbEntity
  8
姿図
100
AcDbLine
 10
18575.82135498843
 20
-16511.85642959913
 30
0.0000000000000014
 11
18575.72253991559
 21
-16511.8656766212
 31
0.0000000000000014
  0
LINE
  5
3A7760
330
18
100
AcDbEntity
  8
姿図
100
AcDbLine
 10
18575.82135498843
 20
-16518.62278140835
 30
0.0000000000000014
 11
18575.72253991559
 21
-16518.63202843041
 31
0.0000000000000014
  0
LINE
  5
3A7761
330
18
100
AcDbEntity
  8
姿図
100
AcDbLine
 10
18575.82135498843
 20
-16517.94614622743
 30
0.0000000000000014
 11
18575.72253991559
 21
-16517.95539324949
 31
0.0000000000000014
  0
LINE
  5
3A7762
330
18
100
AcDbEntity
  8
姿図
100
AcDbLine
 10
18575.82135498843
 20
-16517.2695110465
 30
0.0000000000000014
 11
18575.72253991559
 21
-16517.27875806857
 31
0.0000000000000014
  0
LINE
  5
3A7763
330
18
100
AcDbEntity
  8
姿図
100
AcDbLine
 10
18575.82135498843
 20
-16516.59287586558
 30
0.0000000000000014
 11
18575.72253991559
 21
-16516.60212288765
 31
0.0000000000000014
  0
LINE
  5
3A7764
330
18
100
AcDbEntity
  8
姿図
100
AcDbLine
 10
18575.82135498843
 20
-16515.91624068466
 30
0.0000000000000014
 11
18575.72253991559
 21
-16515.92548770673
 31
0.0000000000000014
  0
LINE
  5
3A7765
330
18
100
AcDbEntity
  8
姿図
100
AcDbLine
 10
18575.82135498843
 20
-16515.23960550374
 30
0.0000000000000014
 11
18575.72253991559
 21
-16515.2488525258
 31
0.0000000000000014
  0
LINE
  5
3A7766
330
18
100
AcDbEntity
  8
姿図
100
AcDbLine
 10
18575.82135498843
 20
-16514.56297032282
 30
0.0000000000000014
 11
18575.72253991559
 21
-16514.57221734488
 31
0.0000000000000014
  0
ELLIPSE
  5
3A7767
330
18
100
AcDbEntity
  8
姿図
100
AcDbEllipse
 10
18575.72253991559
 20
-16518.69969194851
 30
0.0000000000000014
 11
0.04077444956302233
 21
0.05696057237043226
 31
-3.888579933804726E-18
210
3.231153159914451E-17
220
4.513815278383754E-17
230
1.0
 40
0.9083744652357192
 41
0.6674062465669471
 42
2.671810903782884
  0
ELLIPSE
  5
3A7768
330
18
100
AcDbEntity
  8
姿図
100
AcDbEllipse
 10
18575.72253991559
 20
-16518.02305676759
 30
0.0000000000000014
 11
0.04077444956302233
 21
0.05696057237043226
 31
-3.888579933804726E-18
210
3.231153159914451E-17
220
4.513815278383754E-17
230
1.0
 40
0.9083744652357192
 41
0.6674062465665955
 42
2.671810903782768
  0
ELLIPSE
  5
3A7769
330
18
100
AcDbEntity
  8
姿図
100
AcDbEllipse
 10
18575.72253991559
 20
-16517.34642158666
 30
0.0000000000000014
 11
0.04077444956302233
 21
0.05696057237043226
 31
-3.888579933804726E-18
210
3.231153159914451E-17
220
4.513815278383754E-17
230
1.0
 40
0.9083744652357192
 41
0.6674062465671594
 42
2.671810903782743
  0
ELLIPSE
  5
3A776A
330
18
100
AcDbEntity
  8
姿図
100
AcDbEllipse
 10
18575.72253991559
 20
-16516.66978640574
 30
0.0000000000000014
 11
0.04077444956302233
 21
0.05696057237043226
 31
-3.888579933804726E-18
210
3.231153159914451E-17
220
4.513815278383754E-17
230
1.0
 40
0.9083744652357192
 41
0.6674062465669471
 42
2.67181090378281
  0
ELLIPSE
  5
3A776B
330
18
100
AcDbEntity
  8
姿図
100
AcDbEllipse
 10
18575.72253991559
 20
-16515.99315122482
 30
0.0000000000000014
 11
0.04077444956302233
 21
0.05696057237043226
 31
-3.888579933804726E-18
210
3.231153159914451E-17
220
4.513815278383754E-17
230
1.0
 40
0.9083744652357192
 41
0.6674062465673514
 42
2.671810903782983
  0
ELLIPSE
  5
3A776C
330
18
100
AcDbEntity
  8
姿図
100
AcDbEllipse
 10
18575.72253991559
 20
-16515.31651604389
 30
0.0000000000000014
 11
0.04077444956302233
 21
0.05696057237043226
 31
-3.888579933804726E-18
210
3.231153159914451E-17
220
4.513815278383754E-17
230
1.0
 40
0.9083744652357192
 41
0.6674062465669721
 42
2.671810903782982
  0
ELLIPSE
  5
3A776D
330
18
100
AcDbEntity
  8
姿図
100
AcDbEllipse
 10
18575.72253991559
 20
-16514.63988086297
 30
0.0000000000000014
 11
0.04077444956302233
 21
0.05696057237043226
 31
-3.888579933804726E-18
210
3.231153159914451E-17
220
4.513815278383754E-17
230
1.0
 40
0.9083744652357192
 41
0.667406246567283
 42
2.671810903782915
  0
ELLIPSE
  5
3A776E
330
18
100
AcDbEntity
  8
姿図
100
AcDbEllipse
 10
18575.72253991559
 20
-16513.96324568205
 30
0.0000000000000014
 11
0.04077444956302233
 21
0.05696057237043226
 31
-3.888579933804726E-18
210
3.231153159914451E-17
220
4.513815278383754E-17
230
1.0
 40
0.9083744652357192
 41
0.6674062465668796
 42
2.671810903782743
  0
ELLIPSE
  5
3A776F
330
18
100
AcDbEntity
  8
姿図
100
AcDbEllipse
 10
18575.72253991559
 20
-16513.28661050113
 30
0.0000000000000014
 11
0.04077444956302233
 21
0.05696057237043226
 31
-3.888579933804726E-18
210
3.231153159914451E-17
220
4.513815278383754E-17
230
1.0
 40
0.9083744652357192
 41
0.6674062465670032
 42
2.671810903782915
  0
ELLIPSE
  5
3A7770
330
18
100
AcDbEntity
  8
姿図
100
AcDbEllipse
 10
18575.72253991559
 20
-16512.60997532021
 30
0.0000000000000014
 11
0.04077444956302233
 21
0.05696057237043226
 31
-3.888579933804726E-18
210
3.231153159914451E-17
220
4.513815278383754E-17
230
1.0
 40
0.9083744652357192
 41
0.6674062465670032
 42
2.671810903782866
  0
ELLIPSE
  5
3A7771
330
18
100
AcDbEntity
  8
姿図
100
AcDbEllipse
 10
18575.72253991559
 20
-16511.93334013929
 30
0.0000000000000014
 11
0.04077444956302233
 21
0.05696057237043226
 31
-3.888579933804726E-18
210
3.231153159914451E-17
220
4.513815278383754E-17
230
1.0
 40
0.9083744652357192
 41
0.6674062465668796
 42
2.671810903783108
  0
ELLIPSE
  5
3A7772
330
18
100
AcDbEntity
  8
姿図
100
AcDbEllipse
 10
18556.40048460869
 20
-16518.55205366168
 30
0.0000000000000014
 11
-22.05759265623591
 21
-6.330367010184398E-13
 31
1.224442361737794E-15
210
5.551115123125783E-17
220
1.593129249997122E-30
230
1.0
 40
0.2588190451025202
 41
3.729026483883834
 42
3.761863642495804
  0
LINE
  5
3A7773
330
18
100
AcDbEntity
  8
姿図
100
AcDbLine
 10
18575.66275971961
 20
-16518.73371481039
 30
0.0000000000000014
 11
18575.88113518442
 21
-16519.19773020929
 31
0.0000000000000014
  0
LINE
  5
3A7774
330
18
100
AcDbEntity
  8
姿図
100
AcDbLine
 10
18575.66275971961
 20
-16513.32063336302
 30
0.0000000000000014
 11
18575.88113518442
 21
-16513.78464876192
 31
0.0000000000000014
  0
LINE
  5
3A7775
330
18
100
AcDbEntity
  8
姿図
100
AcDbLine
 10
18575.66275971961
 20
-16513.99726854394
 30
0.0000000000000014
 11
18575.88113518442
 21
-16514.46128394284
 31
0.0000000000000014
  0
LINE
  5
3A7776
330
18
100
AcDbEntity
  8
姿図
100
AcDbLine
 10
18575.66275971961
 20
-16512.6439981821
 30
0.0000000000000014
 11
18575.88113518442
 21
-16513.108013581
 31
0.0000000000000014
  0
LINE
  5
3A7777
330
18
100
AcDbEntity
  8
姿図
100
AcDbLine
 10
18575.66275971961
 20
-16511.96736300118
 30
0.0000000000000014
 11
18575.88113518442
 21
-16512.43137840008
 31
0.0000000000000014
  0
LINE
  5
3A7778
330
18
100
AcDbEntity
  8
姿図
100
AcDbLine
 10
18575.66275971961
 20
-16517.38044444855
 30
0.0000000000000014
 11
18575.88113518442
 21
-16517.84445984745
 31
0.0000000000000014
  0
LINE
  5
3A7779
330
18
100
AcDbEntity
  8
姿図
100
AcDbLine
 10
18575.66275971961
 20
-16518.05707962947
 30
0.0000000000000014
 11
18575.88113518442
 21
-16518.52109502837
 31
0.0000000000000014
  0
LINE
  5
3A777A
330
18
100
AcDbEntity
  8
姿図
100
AcDbLine
 10
18575.66275971961
 20
-16515.35053890579
 30
0.0000000000000014
 11
18575.88113518442
 21
-16515.81455430468
 31
0.0000000000000014
  0
LINE
  5
3A777B
330
18
100
AcDbEntity
  8
姿図
100
AcDbLine
 10
18575.66275971961
 20
-16516.70380926763
 30
0.0000000000000014
 11
18575.88113518442
 21
-16517.16782466652
 31
0.0000000000000014
  0
LINE
  5
3A777C
330
18
100
AcDbEntity
  8
姿図
100
AcDbLine
 10
18575.66275971961
 20
-16516.02717408671
 30
0.0000000000000014
 11
18575.88113518442
 21
-16516.4911894856
 31
0.0000000000000014
  0
LINE
  5
3A777D
330
18
100
AcDbEntity
  8
姿図
100
AcDbLine
 10
18575.66275971961
 20
-16514.67390372486
 30
0.0000000000000014
 11
18575.88113518442
 21
-16515.13791912376
 31
0.0000000000000014
  0
ELLIPSE
  5
3A777E
330
18
100
AcDbEntity
  8
姿図
100
AcDbEllipse
 10
18575.82135498843
 20
-16518.55511789026
 30
0.0000000000000014
 11
0.04077444956302451
 21
0.05696057237042387
 31
3.888579933804393E-18
210
-3.231153159914852E-17
220
-4.513815278383423E-17
230
1.0
 40
0.9083744652357186
 41
3.808998900156581
 42
5.813403557372885
  0
ELLIPSE
  5
3A777F
330
18
100
AcDbEntity
  8
姿図
100
AcDbEllipse
 10
18575.82135498843
 20
-16517.87848270934
 30
0.0000000000000014
 11
0.04077444956302451
 21
0.05696057237042387
 31
3.888579933804393E-18
210
-3.231153159914852E-17
220
-4.513815278383423E-17
230
1.0
 40
0.9083744652357186
 41
3.808998900156897
 42
5.813403557372916
  0
ELLIPSE
  5
3A7780
330
18
100
AcDbEntity
  8
姿図
100
AcDbEllipse
 10
18575.82135498843
 20
-16517.20184752841
 30
0.0000000000000014
 11
0.04077444956302451
 21
0.05696057237042387
 31
3.888579933804393E-18
210
-3.231153159914852E-17
220
-4.513815278383423E-17
230
1.0
 40
0.9083744652357186
 41
3.808998900156773
 42
5.813403557372792
  0
ELLIPSE
  5
3A7781
330
18
100
AcDbEntity
  8
姿図
100
AcDbEllipse
 10
18575.82135498843
 20
-16516.52521234749
 30
0.0000000000000014
 11
0.04077444956302585
 21
0.05696057237042578
 31
3.888579933804547E-18
210
-3.231153159914856E-17
220
-4.513815278383462E-17
230
1.0
 40
0.9083744652357183
 41
3.808998900156934
 42
5.813403557373269
  0
ELLIPSE
  5
3A7782
330
18
100
AcDbEntity
  8
姿図
100
AcDbEllipse
 10
18575.82135498843
 20
-16515.84857716657
 30
0.0000000000000014
 11
0.04077444956302585
 21
0.05696057237042578
 31
3.888579933804547E-18
210
-3.231153159914856E-17
220
-4.513815278383462E-17
230
1.0
 40
0.9083744652357183
 41
3.808998900156452
 42
5.81340355737276
  0
ELLIPSE
  5
3A7783
330
18
100
AcDbEntity
  8
姿図
100
AcDbEllipse
 10
18575.82135498843
 20
-16515.17194198565
 30
0.0000000000000014
 11
0.04077444956302585
 21
0.05696057237042578
 31
3.888579933804547E-18
210
-3.231153159914856E-17
220
-4.513815278383462E-17
230
1.0
 40
0.9083744652357183
 41
3.808998900156965
 42
5.813403557372935
  0
ELLIPSE
  5
3A7784
330
18
100
AcDbEntity
  8
姿図
100
AcDbEllipse
 10
18575.82135498843
 20
-16514.49530680473
 30
0.0000000000000014
 11
0.04077444956302585
 21
0.05696057237042578
 31
3.888579933804547E-18
210
-3.231153159914856E-17
220
-4.513815278383462E-17
230
1.0
 40
0.9083744652357183
 41
3.808998900157052
 42
5.813403557372792
  0
ELLIPSE
  5
3A7785
330
18
100
AcDbEntity
  8
姿図
100
AcDbEllipse
 10
18575.82135498843
 20
-16513.81867162381
 30
0.0000000000000014
 11
0.04077444956302585
 21
0.05696057237042578
 31
3.888579933804547E-18
210
-3.231153159914856E-17
220
-4.513815278383462E-17
230
1.0
 40
0.9083744652357183
 41
3.808998900156897
 42
5.813403557372867
  0
ELLIPSE
  5
3A7786
330
18
100
AcDbEntity
  8
姿図
100
AcDbEllipse
 10
18575.82135498843
 20
-16513.14203644289
 30
0.0000000000000014
 11
0.04077444956302585
 21
0.05696057237042578
 31
3.888579933804547E-18
210
-3.231153159914856E-17
220
-4.513815278383462E-17
230
1.0
 40
0.9083744652357183
 41
3.808998900157176
 42
5.813403557372916
  0
ELLIPSE
  5
3A7787
330
18
100
AcDbEntity
  8
姿図
100
AcDbEllipse
 10
18575.82135498843
 20
-16512.46540126196
 30
0.0000000000000014
 11
0.04077444956302585
 21
0.05696057237042578
 31
3.888579933804547E-18
210
-3.231153159914856E-17
220
-4.513815278383462E-17
230
1.0
 40
0.9083744652357183
 41
3.808998900156742
 42
5.813403557372712
  0
ELLIPSE
  5
3A7788
330
18
100
AcDbEntity
  8
姿図
100
AcDbEllipse
 10
18575.82135498843
 20
-16511.78876608104
 30
0.0000000000000014
 11
0.04077444956302585
 21
0.05696057237042578
 31
3.888579933804547E-18
210
-3.231153159914856E-17
220
-4.513815278383462E-17
230
1.0
 40
0.9083744652357183
 41
3.808998900156483
 42
5.813403557372792
  0
ELLIPSE
  5
3A7789
330
18
100
AcDbEntity
  8
姿図
100
AcDbEllipse
 10
18576.55972848256
 20
-16511.64068550451
 30
0.0000000000000014
 11
0.04077444956302054
 21
0.05696057237042965
 31
0.0
210
0.0
220
0.0
230
1.0
 40
0.9083744652357184
 41
3.808998900156913
 42
5.813403557372654
  0
ELLIPSE
  5
3A778A
330
18
100
AcDbEntity
  8
姿図
100
AcDbEllipse
 10
18578.58075989288
 20
-16511.27281723906
 30
0.0000000000000014
 11
0.04077444956303928
 21
0.05696057237044466
 31
3.888579933805833E-18
210
-3.231153159914873E-17
220
-4.513815278383451E-17
230
1.0
 40
0.9083744652357183
 41
0.6674062465672639
 42
2.671810903783432
  0
LINE
  5
3A778B
330
18
100
AcDbEntity
  8
姿図
100
AcDbLine
 10
18577.94120147158
 20
-16511.34398727542
 30
0.0000000000000014
 11
18577.84238639875
 21
-16511.35323429749
 31
0.0000000000000014
  0
ELLIPSE
  5
3A778C
330
18
100
AcDbEntity
  8
姿図
100
AcDbEllipse
 10
18577.84238639874
 20
-16511.42089781559
 30
0.0000000000000014
 11
0.04077444956303432
 21
0.05696057237044818
 31
3.888579933805835E-18
210
-3.231153159914478E-17
220
-4.513815278383739E-17
230
1.0
 40
0.9083744652357181
 41
0.6674062465670622
 42
2.671810903783181
  0
ELLIPSE
  5
3A778D
330
18
100
AcDbEntity
  8
姿図
100
AcDbEllipse
 10
18577.94120147158
 20
-16511.27632375734
 30
0.0000000000000014
 11
0.0407744495630275
 21
0.05696057237042731
 31
3.888579933804645E-18
210
-3.231153159914882E-17
220
-4.513815278383401E-17
230
1.0
 40
0.9083744652357181
 41
3.80899890015716
 42
5.813403557372792
  0
LINE
  5
3A778E
330
18
100
AcDbEntity
  8
姿図
100
AcDbLine
 10
18578.58075989288
 20
-16511.20515372096
 30
0.0000000000000014
 11
18578.67957496572
 21
-16511.1959066989
 31
0.0000000000000014
  0
LINE
  5
3A778F
330
18
100
AcDbEntity
  8
姿図
100
AcDbLine
 10
18575.82135498843
 20
-16511.17979441821
 30
0.0000000000000014
 11
18575.72253991559
 21
-16511.18904144028
 31
0.0000000000000014
  0
ELLIPSE
  5
3A7790
330
18
100
AcDbEntity
  8
姿図
100
AcDbEllipse
 10
18575.72253991559
 20
-16511.25670495837
 30
0.0000000000000014
 11
0.04077444956302233
 21
0.05696057237043226
 31
-3.888579933804726E-18
210
3.231153159914451E-17
220
4.513815278383754E-17
230
1.0
 40
0.9083744652357192
 41
0.6674062465669471
 42
2.671810903782859
  0
ELLIPSE
  5
3A7791
330
18
100
AcDbEntity
  8
姿図
100
AcDbEllipse
 10
18570.2840211104
 20
-16519.193765867
 30
0.0000000000000014
 11
-0.1336773392768379
 21
0.4352628646698797
 31
2.527576956973219E-17
210
1.629723296148898E-17
220
-5.306494237082085E-17
230
1.0
 40
0.738618946039477
 41
4.318335530375434
 42
5.623669093019634
  0
ELLIPSE
  5
3A7792
330
18
100
AcDbEntity
  8
姿図
100
AcDbEllipse
 10
18570.2840211104
 20
-16519.193765867
 30
0.0000000000000014
 11
-0.1336773392768379
 21
0.4352628646698797
 31
2.527576956973219E-17
210
1.629723296148898E-17
220
-5.306494237082085E-17
230
1.0
 40
0.738618946039477
 41
3.822881783457571
 42
4.318335530375473
  0
LINE
  5
3A7793
330
18
100
AcDbEntity
  8
姿図
100
AcDbLine
 10
18576.84997242149
 20
-16519.98241673205
 30
0.0000000000000014
 11
18576.92056154504
 21
-16509.34192874399
 31
0.0000000000000014
  0
LINE
  5
3A7794
330
18
100
AcDbEntity
  8
姿図
100
AcDbLine
 10
18574.75199547431
 20
-16515.16837575328
 30
0.0000000000000014
 11
18574.80071506188
 21
-16507.82446552494
 31
0.0000000000000014
  0
LINE
  5
3A7795
330
18
100
AcDbEntity
  8
姿図
100
AcDbLine
 10
18576.61950867854
 20
-16511.60666264262
 30
0.0000000000000014
 11
18576.40113321375
 21
-16511.14264724373
 31
0.0000000000000014
  0
ELLIPSE
  5
3A7796
330
18
100
AcDbEntity
  8
姿図
100
AcDbEllipse
 10
18578.67957496572
 20
-16511.12824318081
 30
0.0000000000000014
 11
0.04077444956302177
 21
0.05696057237043142
 31
-7.777159867609348E-18
210
6.462306319828893E-17
220
9.027630556767526E-17
230
1.0
 40
0.9083744652357181
 41
3.808998900156461
 42
5.813403557372752
  0
LINE
  5
3A7797
330
18
100
AcDbEntity
  8
姿図
100
AcDbLine
 10
18577.78260620277
 20
-16510.77828549656
 30
0.0000000000000014
 11
18578.00098166757
 21
-16511.24230089545
 31
0.0000000000000014
  0
ELLIPSE
  5
3A7798
330
18
100
AcDbEntity
  8
姿図
100
AcDbEllipse
 10
18575.82135498843
 20
-16511.11213090012
 30
0.0000000000000014
 11
0.04077444956302585
 21
0.05696057237042578
 31
3.888579933804547E-18
210
-3.231153159914856E-17
220
-4.513815278383462E-17
230
1.0
 40
0.9083744652357183
 41
3.808998900156551
 42
5.81340355737281
  0
LINE
  5
3A7799
330
18
100
AcDbEntity
  8
姿図
100
AcDbLine
 10
18547.05914187108
 20
-16510.52247810437
 30
0.0000000000000014
 11
18547.24472319809
 21
-16510.65532396849
 31
0.0000000000000014
  0
ELLIPSE
  5
3A779A
330
18
100
AcDbEntity
  8
姿図
100
AcDbEllipse
 10
18556.40048460869
 20
-16515.67635414276
 30
0.0000000000000014
 11
-21.99523039592227
 21
-4.212382935016680E-14
 31
2.441961121748800E-15
210
1.110223024625157E-16
220
2.126226658603508E-31
230
1.0
 40
0.2588190451025204
 41
5.151017883384803
 42
5.195965363531555
  0
LINE
  5
3A779B
330
18
100
AcDbEntity
  8
姿図
100
AcDbLine
 10
18552.16068247164
 20
-16510.26835537768
 30
0.0000000000000014
 11
18552.0227799218
 21
-16510.16963971649
 31
0.0000000000000014
  0
ELLIPSE
  5
3A779C
330
18
100
AcDbEntity
  8
姿図
100
AcDbEllipse
 10
18556.40048460869
 20
-16515.67635414276
 30
0.0000000000000014
 11
-21.99523039592227
 21
-4.212382935016680E-14
 31
2.441961121748800E-15
210
1.110223024625157E-16
220
2.126226658603508E-31
230
1.0
 40
0.2588190451025204
 41
4.922687502237706
 42
4.96763498238446
  0
ELLIPSE
  5
3A779D
330
18
100
AcDbEntity
  8
姿図
100
AcDbEllipse
 10
18551.95893291585
 20
-16510.55467773969
 30
0.0000000000000014
 11
-0.1907994478464239
 21
-0.2937917253303977
 31
-5.833855071956941E-17
210
-9.070358557838993E-17
220
-1.396647799640267E-16
230
1.0
 40
0.9139391364489758
 41
3.038071040901397
 42
3.100190541308247
  0
LINE
  5
3A779E
330
18
100
AcDbEntity
  8
姿図
100
AcDbLine
 10
18535.29377232404
 20
-16511.06179152172
 30
0.0000000000000014
 11
18534.45098951236
 21
-16511.14065834873
 31
0.0000000000000014
  0
ELLIPSE
  5
3A779F
330
18
100
AcDbEntity
  8
姿図
100
AcDbEllipse
 10
18556.40048460869
 20
-16518.04457727599
 30
0.0000000000000014
 11
-22.04658755147467
 21
-6.321089468706394E-13
 31
1.223831455703077E-15
210
5.551115123125783E-17
220
1.591588506041613E-30
230
1.0
 40
0.2588190451025204
 41
4.96784917457373
 42
5.150803691193217
  0
ELLIPSE
  5
3A77A0
330
18
100
AcDbEntity
  8
姿図
100
AcDbEllipse
 10
18549.08850222698
 20
-16518.22347577151
 30
0.0000000000000014
 11
0.2480392822003031
 21
0.3819292429295491
 31
5.056007729029348E-17
210
-6.046905705224812E-17
220
-9.310985330935856E-17
230
1.0
 40
0.9139391364489745
 41
0.6260041342852541
 42
2.752838026093648
  0
ELLIPSE
  5
3A77A1
330
18
100
AcDbEntity
  8
姿図
100
AcDbEllipse
 10
18556.40048460869
 20
-16516.86046570937
 30
0.0000000000000014
 11
-20.13949821201701
 21
-3.834625887223409E-13
 31
-1.117966730968923E-15
210
-5.551115123125783E-17
220
-1.056950353479716E-30
230
1.0
 40
0.258819045102515
 41
4.992404269734823
 42
5.183640316118966
  0
ELLIPSE
  5
3A77A2
330
18
100
AcDbEntity
  8
姿図
100
AcDbEllipse
 10
18549.08850222698
 20
-16518.22347577151
 30
0.0000000000000014
 11
0.2480392822003031
 21
0.3819292429295491
 31
5.056007729029348E-17
210
-6.046905705224812E-17
220
-9.310985330935856E-17
230
1.0
 40
0.9139391364489745
 41
0.2886548266583326
 42
0.6260041342852678
  0
ELLIPSE
  5
3A77A3
330
18
100
AcDbEntity
  8
姿図
100
AcDbEllipse
 10
18556.40048460869
 20
-16516.28532580559
 30
0.0000000000000014
 11
-20.12390636427689
 21
-3.814900630616825E-13
 31
-1.117101209551046E-15
210
-5.551115123125783E-17
220
-1.052328121613186E-30
230
1.0
 40
0.258819045102515
 41
4.992407196796089
 42
5.184287718027582
  0
LINE
  5
3A77A4
330
18
100
AcDbEntity
  8
姿図
100
AcDbLine
 10
18535.1420341782
 20
-16511.5356877776
 30
0.0000000000000014
 11
18535.19909815617
 21
-16520.12673765527
 31
0.0000000000000014
  0
ELLIPSE
  5
3A77A5
330
18
100
AcDbEntity
  8
姿図
100
AcDbEllipse
 10
18535.66604117403
 20
-16511.91079104523
 30
0.0000000000000014
 11
0.0630925953705448
 21
-0.6273025252676169
 31
0.0
210
0.0
220
0.0
230
1.0
 40
0.3266547503873701
 41
1.290961286430747
 42
2.861757613225721
  0
LINE
  5
3A77A6
330
18
100
AcDbEntity
  8
姿図
100
AcDbLine
 10
18534.29054435348
 20
-16511.75570995953
 30
0.0000000000000014
 11
18534.29147595278
 21
-16511.61528222055
 31
0.0000000000000014
  0
LINE
  5
3A77A7
330
18
100
AcDbEntity
  8
姿図
100
AcDbLine
 10
18536.18146053882
 20
-16519.2155436421
 30
0.0000000000000014
 11
18536.39983600362
 21
-16518.71065749983
 31
0.0000000000000014
  0
LINE
  5
3A77A8
330
18
100
AcDbEntity
  8
姿図
100
AcDbLine
 10
18536.34005580764
 20
-16519.2967946504
 30
0.0000000000000014
 11
18536.24124073481
 21
-16519.30604167246
 31
0.0000000000000014
  0
LINE
  5
3A77A9
330
18
100
AcDbEntity
  8
姿図
100
AcDbLine
 10
18536.20046628524
 20
-16519.29533872674
 30
0.0000000000000014
 11
18536.30395625528
 21
-16519.3694206116
 31
0.0000000000000014
  0
LINE
  5
3A77AA
330
18
100
AcDbEntity
  8
姿図
100
AcDbLine
 10
18536.18146053882
 20
-16513.80246219473
 30
0.0000000000000014
 11
18536.41039083665
 21
-16513.27317317859
 31
0.0000000000000014
  0
LINE
  5
3A77AB
330
18
100
AcDbEntity
  8
姿図
100
AcDbLine
 10
18536.34005580764
 20
-16513.88371320302
 30
0.0000000000000014
 11
18536.24124073481
 21
-16513.89296022509
 31
0.0000000000000014
  0
LINE
  5
3A77AC
330
18
100
AcDbEntity
  8
姿図
100
AcDbLine
 10
18536.18146053882
 20
-16514.47909737565
 30
0.0000000000000014
 11
18536.39983600362
 21
-16513.97421123339
 31
0.0000000000000014
  0
LINE
  5
3A77AD
330
18
100
AcDbEntity
  8
姿図
100
AcDbLine
 10
18536.20046628524
 20
-16513.88225727937
 30
0.0000000000000014
 11
18536.38307090234
 21
-16514.01297230628
 31
0.0000000000000014
  0
LINE
  5
3A77AE
330
18
100
AcDbEntity
  8
姿図
100
AcDbLine
 10
18536.18146053882
 20
-16517.86227328026
 30
0.0000000000000014
 11
18536.37510237684
 21
-16517.4145715173
 31
0.0000000000000014
  0
LINE
  5
3A77AF
330
18
100
AcDbEntity
  8
姿図
100
AcDbLine
 10
18536.34005580764
 20
-16517.94352428856
 30
0.0000000000000014
 11
18536.24124073481
 21
-16517.95277131062
 31
0.0000000000000014
  0
LINE
  5
3A77B0
330
18
100
AcDbEntity
  8
姿図
100
AcDbLine
 10
18536.18146053882
 20
-16518.53890846118
 30
0.0000000000000014
 11
18536.39983600362
 21
-16518.03402231891
 31
0.0000000000000014
  0
LINE
  5
3A77B1
330
18
100
AcDbEntity
  8
姿図
100
AcDbLine
 10
18536.34005580764
 20
-16518.62015946947
 30
0.0000000000000014
 11
18536.24124073481
 21
-16518.62940649154
 31
0.0000000000000014
  0
LINE
  5
3A77B2
330
18
100
AcDbEntity
  8
姿図
100
AcDbLine
 10
18536.20046628524
 20
-16517.9420683649
 30
0.0000000000000014
 11
18536.38307090234
 21
-16518.07278339181
 31
0.0000000000000014
  0
LINE
  5
3A77B3
330
18
100
AcDbEntity
  8
姿図
100
AcDbLine
 10
18536.20046628524
 20
-16518.61870354582
 30
0.0000000000000014
 11
18536.38307090234
 21
-16518.74941857272
 31
0.0000000000000014
  0
LINE
  5
3A77B4
330
18
100
AcDbEntity
  8
姿図
100
AcDbLine
 10
18536.18146053882
 20
-16515.83236773749
 30
0.0000000000000014
 11
18536.39983600362
 21
-16515.32748159523
 31
0.0000000000000014
  0
LINE
  5
3A77B5
330
18
100
AcDbEntity
  8
姿図
100
AcDbLine
 10
18536.32756793599
 20
-16515.91478734914
 30
0.0000000000000014
 11
18536.24124073481
 21
-16515.92286576785
 31
0.0000000000000014
  0
LINE
  5
3A77B6
330
18
100
AcDbEntity
  8
姿図
100
AcDbLine
 10
18536.18146053882
 20
-16516.50900291842
 30
0.0000000000000014
 11
18536.27594086817
 21
-16516.2905635024
 31
0.0000000000000014
  0
LINE
  5
3A77B7
330
18
100
AcDbEntity
  8
姿図
100
AcDbLine
 10
18536.32278800234
 20
-16517.2685050127
 30
0.0000000000000014
 11
18536.24124073481
 21
-16517.27613612969
 31
0.0000000000000014
  0
LINE
  5
3A77B8
330
18
100
AcDbEntity
  8
姿図
100
AcDbLine
 10
18536.27707361277
 20
-16516.24878073259
 30
0.0000000000000014
 11
18536.26148214884
 21
-16516.82389232153
 31
0.0000000000000014
  0
LINE
  5
3A77B9
330
18
100
AcDbEntity
  8
姿図
100
AcDbLine
 10
18536.20046628524
 20
-16515.91216282213
 30
0.0000000000000014
 11
18536.30898755889
 21
-16515.98984629712
 31
0.0000000000000014
  0
LINE
  5
3A77BA
330
18
100
AcDbEntity
  8
姿図
100
AcDbLine
 10
18536.20046628524
 20
-16517.26543318398
 30
0.0000000000000014
 11
18536.36156383778
 21
-16517.38075267178
 31
0.0000000000000014
  0
LINE
  5
3A77BB
330
18
100
AcDbEntity
  8
姿図
100
AcDbLine
 10
18536.18146053882
 20
-16515.15573255657
 30
0.0000000000000014
 11
18536.39983600362
 21
-16514.65084641431
 31
0.0000000000000014
  0
LINE
  5
3A77BC
330
18
100
AcDbEntity
  8
姿図
100
AcDbLine
 10
18536.34005580764
 20
-16515.23698356487
 30
0.0000000000000014
 11
18536.24124073481
 21
-16515.24623058694
 31
0.0000000000000014
  0
LINE
  5
3A77BD
330
18
100
AcDbEntity
  8
姿図
100
AcDbLine
 10
18536.20046628524
 20
-16515.23552764121
 30
0.0000000000000014
 11
18536.38307090234
 21
-16515.36624266812
 31
0.0000000000000014
  0
LINE
  5
3A77BE
330
18
100
AcDbEntity
  8
姿図
100
AcDbLine
 10
18536.34005580764
 20
-16514.56034838394
 30
0.0000000000000014
 11
18536.24124073481
 21
-16514.56959540601
 31
0.0000000000000014
  0
LINE
  5
3A77BF
330
18
100
AcDbEntity
  8
姿図
100
AcDbLine
 10
18536.20046628524
 20
-16514.55889246029
 30
0.0000000000000014
 11
18536.38307090234
 21
-16514.6896074872
 31
0.0000000000000014
  0
LINE
  5
3A77C0
330
18
100
AcDbEntity
  8
姿図
100
AcDbLine
 10
18535.93040556038
 20
-16519.59148400261
 30
0.0000000000000014
 11
18535.88040767234
 21
-16512.06424238199
 31
0.0000000000000014
  0
ELLIPSE
  5
3A77C1
330
18
100
AcDbEntity
  8
姿図
100
AcDbEllipse
 10
18556.72052031574
 20
-16506.12609150481
 30
0.0000000000000014
 11
12.0971905597633
 21
34.2056226089775
 31
4.028085341671579E-15
210
-3.701743464227722E-17
220
-1.046692943349817E-16
230
1.0
 40
0.5306015190202692
 41
2.132850903174913
 42
2.178852095897546
  0
LINE
  5
3A77C2
330
18
100
AcDbEntity
  8
姿図
100
AcDbLine
 10
18534.91615173034
 20
-16518.92381720801
 30
0.0000000000000014
 11
18534.40261388926
 21
-16518.97187359871
 31
0.0000000000000014
  0
LINE
  5
3A77C3
330
18
100
AcDbEntity
  8
姿図
100
AcDbLine
 10
18534.06161405567
 20
-16519.05135078489
 30
0.0000000000000014
 11
18534.27998952047
 21
-16518.54646464262
 31
0.0000000000000014
  0
ELLIPSE
  5
3A77C4
330
18
100
AcDbEntity
  8
姿図
100
AcDbEllipse
 10
18556.40048460869
 20
-16518.55205366168
 30
0.0000000000000014
 11
-21.53229570541463
 21
-4.362781209896944E-14
 31
-1.195282523259435E-15
210
-5.551115123125783E-17
220
-1.124743087522147E-31
230
1.0
 40
0.2588190451025201
 41
0.0667579305343701
 42
0.1004537543484347
  0
LINE
  5
3A77C5
330
18
100
AcDbEntity
  8
姿図
100
AcDbLine
 10
18534.08061980209
 20
-16519.80778105044
 30
0.0000000000000014
 11
18534.26322441919
 21
-16519.93849607735
 31
0.0000000000000014
  0
LINE
  5
3A77C6
330
18
100
AcDbEntity
  8
姿図
100
AcDbLine
 10
18534.06161405567
 20
-16520.40462114672
 30
0.0000000000000014
 11
18534.27998952047
 21
-16519.89973500446
 31
0.0000000000000014
  0
LINE
  5
3A77C7
330
18
100
AcDbEntity
  8
姿図
100
AcDbLine
 10
18534.22020932449
 20
-16520.48587215503
 30
0.0000000000000014
 11
18534.12139425165
 21
-16520.49511917709
 31
0.0000000000000014
  0
LINE
  5
3A77C8
330
18
100
AcDbEntity
  8
姿図
100
AcDbLine
 10
18534.22020932449
 20
-16519.13260179318
 30
0.0000000000000014
 11
18534.12139425165
 21
-16519.14184881524
 31
0.0000000000000014
  0
LINE
  5
3A77C9
330
18
100
AcDbEntity
  8
姿図
100
AcDbLine
 10
18534.06161405567
 20
-16519.72798596581
 30
0.0000000000000014
 11
18534.27998952047
 21
-16519.22309982354
 31
0.0000000000000014
  0
LINE
  5
3A77CA
330
18
100
AcDbEntity
  8
姿図
100
AcDbLine
 10
18534.22020932449
 20
-16519.80923697411
 30
0.0000000000000014
 11
18534.12139425165
 21
-16519.81848399617
 31
0.0000000000000014
  0
LINE
  5
3A77CB
330
18
100
AcDbEntity
  8
姿図
100
AcDbLine
 10
18534.08061980209
 20
-16519.13114586952
 30
0.0000000000000014
 11
18534.26322441919
 21
-16519.26186089643
 31
0.0000000000000014
  0
LINE
  5
3A77CC
330
18
100
AcDbEntity
  8
姿図
100
AcDbLine
 10
18534.06161405567
 20
-16521.08125632764
 30
0.0000000000000014
 11
18534.27998952047
 21
-16520.57637018539
 31
0.0000000000000014
  0
LINE
  5
3A77CD
330
18
100
AcDbEntity
  8
姿図
100
AcDbLine
 10
18534.22020932449
 20
-16521.16250733595
 30
0.0000000000000014
 11
18534.12139425165
 21
-16521.17175435801
 31
0.0000000000000014
  0
LINE
  5
3A77CE
330
18
100
AcDbEntity
  8
姿図
100
AcDbLine
 10
18534.08061980209
 20
-16521.16105141229
 30
0.0000000000000014
 11
18534.26322441919
 21
-16521.2917664392
 31
0.0000000000000014
  0
LINE
  5
3A77CF
330
18
100
AcDbEntity
  8
姿図
100
AcDbLine
 10
18534.08061980209
 20
-16520.48441623136
 30
0.0000000000000014
 11
18534.26322441919
 21
-16520.61513125827
 31
0.0000000000000014
  0
LINE
  5
3A77D0
330
18
100
AcDbEntity
  8
姿図
100
AcDbLine
 10
18534.22020932449
 20
-16521.83914251687
 30
0.0000000000000014
 11
18534.12139425165
 21
-16521.84838953894
 31
0.0000000000000014
  0
LINE
  5
3A77D1
330
18
100
AcDbEntity
  8
姿図
100
AcDbLine
 10
18534.06161405567
 20
-16521.75789150857
 30
0.0000000000000014
 11
18534.27998952047
 21
-16521.25300536631
 31
0.0000000000000014
  0
ELLIPSE
  5
3A77D2
330
18
100
AcDbEntity
  8
姿図
100
AcDbEllipse
 10
18534.12139425164
 20
-16519.07418529716
 30
0.0000000000000014
 11
0.04077444956302648
 21
0.05696057237042533
 31
0.0
210
0.0
220
0.0
230
1.0
 40
0.9083744652357201
 41
1.804594242940603
 42
3.808998900156939
  0
ELLIPSE
  5
3A77D3
330
18
100
AcDbEntity
  8
姿図
100
AcDbEllipse
 10
18534.12139425164
 20
-16519.75082047808
 30
0.0000000000000014
 11
0.04077444956302648
 21
0.05696057237042533
 31
0.0
210
0.0
220
0.0
230
1.0
 40
0.9083744652357201
 41
1.804594242940676
 42
3.80899890015725
  0
ELLIPSE
  5
3A77D4
330
18
100
AcDbEntity
  8
姿図
100
AcDbEllipse
 10
18534.12139425164
 20
-16520.427455659
 30
0.0000000000000014
 11
0.04077444956302648
 21
0.05696057237042533
 31
0.0
210
0.0
220
0.0
230
1.0
 40
0.9083744652357201
 41
1.804594242940915
 42
3.808998900157249
  0
ELLIPSE
  5
3A77D5
330
18
100
AcDbEntity
  8
姿図
100
AcDbEllipse
 10
18534.12139425164
 20
-16521.10409083992
 30
0.0000000000000014
 11
0.04077444956302517
 21
0.05696057237042347
 31
0.0
210
0.0
220
0.0
230
1.0
 40
0.9083744652357209
 41
1.804594242940485
 42
3.808998900156777
  0
ELLIPSE
  5
3A77D6
330
18
100
AcDbEntity
  8
姿図
100
AcDbEllipse
 10
18534.12139425164
 20
-16521.78072602084
 30
0.0000000000000014
 11
0.04077444956302517
 21
0.05696057237042347
 31
0.0
210
0.0
220
0.0
230
1.0
 40
0.9083744652357209
 41
1.804594242940884
 42
3.808998900157218
  0
ELLIPSE
  5
3A77D7
330
18
100
AcDbEntity
  8
姿図
100
AcDbEllipse
 10
18536.24124073481
 20
-16519.23837815437
 30
0.0000000000000014
 11
0.04077444956302618
 21
0.05696057237042552
 31
-3.888579933804548E-18
210
3.231153159914902E-17
220
4.513815278383435E-17
230
1.0
 40
0.9083744652357175
 41
1.804594242940764
 42
3.808998900157057
  0
ELLIPSE
  5
3A77D8
330
18
100
AcDbEntity
  8
姿図
100
AcDbEllipse
 10
18534.22020932449
 20
-16519.87690049219
 30
0.0000000000000014
 11
0.04077444956302303
 21
0.05696057237043183
 31
3.888579933804730E-18
210
-3.231153159914517E-17
220
-4.513815278383706E-17
230
1.0
 40
0.9083744652357212
 41
4.946186896530127
 42
6.950591553746752
  0
ELLIPSE
  5
3A77D9
330
18
100
AcDbEntity
  8
姿図
100
AcDbEllipse
 10
18534.22020932449
 20
-16520.55353567311
 30
0.0000000000000014
 11
0.04077444956302303
 21
0.05696057237043183
 31
3.888579933804730E-18
210
-3.231153159914517E-17
220
-4.513815278383706E-17
230
1.0
 40
0.9083744652357212
 41
4.946186896530643
 42
6.950591553746944
  0
ELLIPSE
  5
3A77DA
330
18
100
AcDbEntity
  8
姿図
100
AcDbEllipse
 10
18534.22020932449
 20
-16521.23017085404
 30
0.0000000000000014
 11
0.04077444956302303
 21
0.05696057237043183
 31
3.888579933804730E-18
210
-3.231153159914517E-17
220
-4.513815278383706E-17
230
1.0
 40
0.9083744652357212
 41
4.946186896530488
 42
6.950591553746789
  0
ELLIPSE
  5
3A77DB
330
18
100
AcDbEntity
  8
姿図
100
AcDbEllipse
 10
18534.22020932449
 20
-16519.20026531127
 30
0.0000000000000014
 11
0.04077444956302303
 21
0.05696057237043183
 31
3.888579933804730E-18
210
-3.231153159914517E-17
220
-4.513815278383706E-17
230
1.0
 40
0.9083744652357212
 41
4.946186896530451
 42
6.950591553746752
  0
ELLIPSE
  5
3A77DC
330
18
100
AcDbEntity
  8
姿図
100
AcDbEllipse
 10
18534.22020932449
 20
-16521.90680603496
 30
0.0000000000000014
 11
0.04077444956302303
 21
0.05696057237043183
 31
3.888579933804730E-18
210
-3.231153159914517E-17
220
-4.513815278383706E-17
230
1.0
 40
0.9083744652357212
 41
6.074134062573671
 42
6.95059155374682
  0
ELLIPSE
  5
3A77DD
330
18
100
AcDbEntity
  8
姿図
100
AcDbEllipse
 10
18556.10472776714
 20
-16509.00903365526
 30
0.0000000000000014
 11
12.11309932373158
 21
34.24547220764034
 31
0.0
210
0.0
220
0.0
230
1.0
 40
0.5306663220532382
 41
2.04631906000344
 42
2.129635835717337
  0
LINE
  5
3A77DE
330
18
100
AcDbEntity
  8
姿図
100
AcDbLine
 10
18534.08061980209
 20
-16513.71806442215
 30
0.0000000000000014
 11
18534.26322441919
 21
-16513.84877944906
 31
0.0000000000000014
  0
LINE
  5
3A77DF
330
18
100
AcDbEntity
  8
姿図
100
AcDbLine
 10
18534.06161405567
 20
-16514.31490451843
 30
0.0000000000000014
 11
18534.27998952047
 21
-16513.81001837617
 31
0.0000000000000014
  0
LINE
  5
3A77E0
330
18
100
AcDbEntity
  8
姿図
100
AcDbLine
 10
18534.22020932449
 20
-16514.39615552673
 30
0.0000000000000014
 11
18534.12139425165
 21
-16514.40540254879
 31
0.0000000000000014
  0
LINE
  5
3A77E1
330
18
100
AcDbEntity
  8
姿図
100
AcDbLine
 10
18534.08061980209
 20
-16514.39469960308
 30
0.0000000000000014
 11
18534.26322441919
 21
-16514.52541462998
 31
0.0000000000000014
  0
LINE
  5
3A77E2
330
18
100
AcDbEntity
  8
姿図
100
AcDbLine
 10
18534.06161405567
 20
-16512.28499897567
 30
0.0000000000000014
 11
18534.29054435348
 21
-16511.75570995953
 31
0.0000000000000014
  0
LINE
  5
3A77E3
330
18
100
AcDbEntity
  8
姿図
100
AcDbLine
 10
18534.22020932449
 20
-16512.36624998396
 30
0.0000000000000014
 11
18534.12139425165
 21
-16512.37549700603
 31
0.0000000000000014
  0
LINE
  5
3A77E4
330
18
100
AcDbEntity
  8
姿図
100
AcDbLine
 10
18534.06161405567
 20
-16512.96163415659
 30
0.0000000000000014
 11
18534.27998952047
 21
-16512.45674801433
 31
0.0000000000000014
  0
LINE
  5
3A77E5
330
18
100
AcDbEntity
  8
姿図
100
AcDbLine
 10
18534.22020932449
 20
-16513.04288516489
 30
0.0000000000000014
 11
18534.12139425165
 21
-16513.05213218695
 31
0.0000000000000014
  0
LINE
  5
3A77E6
330
18
100
AcDbEntity
  8
姿図
100
AcDbLine
 10
18534.06161405567
 20
-16513.63826933751
 30
0.0000000000000014
 11
18534.27998952047
 21
-16513.13338319525
 31
0.0000000000000014
  0
LINE
  5
3A77E7
330
18
100
AcDbEntity
  8
姿図
100
AcDbLine
 10
18534.22020932449
 20
-16513.71952034581
 30
0.0000000000000014
 11
18534.12139425165
 21
-16513.72876736788
 31
0.0000000000000014
  0
LINE
  5
3A77E8
330
18
100
AcDbEntity
  8
姿図
100
AcDbLine
 10
18534.08061980209
 20
-16512.36479406031
 30
0.0000000000000014
 11
18534.26322441919
 21
-16512.49550908722
 31
0.0000000000000014
  0
LINE
  5
3A77E9
330
18
100
AcDbEntity
  8
姿図
100
AcDbLine
 10
18534.08061980209
 20
-16513.04142924123
 30
0.0000000000000014
 11
18534.26322441919
 21
-16513.17214426814
 31
0.0000000000000014
  0
LINE
  5
3A77EA
330
18
100
AcDbEntity
  8
姿図
100
AcDbLine
 10
18534.08061980209
 20
-16517.77787550768
 30
0.0000000000000014
 11
18534.26322441919
 21
-16517.90859053459
 31
0.0000000000000014
  0
LINE
  5
3A77EB
330
18
100
AcDbEntity
  8
姿図
100
AcDbLine
 10
18534.06161405567
 20
-16518.37471560396
 30
0.0000000000000014
 11
18534.27998952047
 21
-16517.8698294617
 31
0.0000000000000014
  0
LINE
  5
3A77EC
330
18
100
AcDbEntity
  8
姿図
100
AcDbLine
 10
18534.22020932449
 20
-16518.45596661226
 30
0.0000000000000014
 11
18534.12139425165
 21
-16518.46521363432
 31
0.0000000000000014
  0
LINE
  5
3A77ED
330
18
100
AcDbEntity
  8
姿図
100
AcDbLine
 10
18534.08061980209
 20
-16518.45451068861
 30
0.0000000000000014
 11
18534.26322441919
 21
-16518.58522571551
 31
0.0000000000000014
  0
LINE
  5
3A77EE
330
18
100
AcDbEntity
  8
姿図
100
AcDbLine
 10
18534.08061980209
 20
-16515.74796996492
 30
0.0000000000000014
 11
18534.26322441919
 21
-16515.87868499183
 31
0.0000000000000014
  0
LINE
  5
3A77EF
330
18
100
AcDbEntity
  8
姿図
100
AcDbLine
 10
18534.06161405567
 20
-16516.3448100612
 30
0.0000000000000014
 11
18534.27998952047
 21
-16515.83992391893
 31
0.0000000000000014
  0
LINE
  5
3A77F0
330
18
100
AcDbEntity
  8
姿図
100
AcDbLine
 10
18534.22020932449
 20
-16516.42606106949
 30
0.0000000000000014
 11
18534.12139425165
 21
-16516.43530809156
 31
0.0000000000000014
  0
LINE
  5
3A77F1
330
18
100
AcDbEntity
  8
姿図
100
AcDbLine
 10
18534.06161405567
 20
-16517.02144524212
 30
0.0000000000000014
 11
18534.27998952047
 21
-16516.51655909985
 31
0.0000000000000014
  0
LINE
  5
3A77F2
330
18
100
AcDbEntity
  8
姿図
100
AcDbLine
 10
18534.22020932449
 20
-16517.10269625042
 30
0.0000000000000014
 11
18534.12139425165
 21
-16517.11194327248
 31
0.0000000000000014
  0
LINE
  5
3A77F3
330
18
100
AcDbEntity
  8
姿図
100
AcDbLine
 10
18534.06161405567
 20
-16517.69808042304
 30
0.0000000000000014
 11
18534.27998952047
 21
-16517.19319428078
 31
0.0000000000000014
  0
LINE
  5
3A77F4
330
18
100
AcDbEntity
  8
姿図
100
AcDbLine
 10
18534.22020932449
 20
-16517.77933143134
 30
0.0000000000000014
 11
18534.12139425165
 21
-16517.7885784534
 31
0.0000000000000014
  0
LINE
  5
3A77F5
330
18
100
AcDbEntity
  8
姿図
100
AcDbLine
 10
18534.08061980209
 20
-16516.42460514584
 30
0.0000000000000014
 11
18534.26322441919
 21
-16516.55532017275
 31
0.0000000000000014
  0
LINE
  5
3A77F6
330
18
100
AcDbEntity
  8
姿図
100
AcDbLine
 10
18534.08061980209
 20
-16517.10124032676
 30
0.0000000000000014
 11
18534.26322441919
 21
-16517.23195535367
 31
0.0000000000000014
  0
LINE
  5
3A77F7
330
18
100
AcDbEntity
  8
姿図
100
AcDbLine
 10
18534.22020932449
 20
-16515.07279070765
 30
0.0000000000000014
 11
18534.12139425165
 21
-16515.08203772971
 31
0.0000000000000014
  0
LINE
  5
3A77F8
330
18
100
AcDbEntity
  8
姿図
100
AcDbLine
 10
18534.06161405567
 20
-16515.66817488028
 30
0.0000000000000014
 11
18534.27998952047
 21
-16515.16328873802
 31
0.0000000000000014
  0
LINE
  5
3A77F9
330
18
100
AcDbEntity
  8
姿図
100
AcDbLine
 10
18534.22020932449
 20
-16515.74942588857
 30
0.0000000000000014
 11
18534.12139425165
 21
-16515.75867291064
 31
0.0000000000000014
  0
LINE
  5
3A77FA
330
18
100
AcDbEntity
  8
姿図
100
AcDbLine
 10
18534.08061980209
 20
-16515.071334784
 30
0.0000000000000014
 11
18534.26322441919
 21
-16515.20204981091
 31
0.0000000000000014
  0
LINE
  5
3A77FB
330
18
100
AcDbEntity
  8
姿図
100
AcDbLine
 10
18534.06161405567
 20
-16514.99153969936
 30
0.0000000000000014
 11
18534.27998952047
 21
-16514.48665355709
 31
0.0000000000000014
  0
ELLIPSE
  5
3A77FC
330
18
100
AcDbEntity
  8
姿図
100
AcDbEllipse
 10
18534.12139425164
 20
-16517.72091493531
 30
0.0000000000000014
 11
0.04077444956302648
 21
0.05696057237042533
 31
0.0
210
0.0
220
0.0
230
1.0
 40
0.9083744652357201
 41
1.804594242940693
 42
3.808998900156747
  0
ELLIPSE
  5
3A77FD
330
18
100
AcDbEntity
  8
姿図
100
AcDbEllipse
 10
18534.12139425164
 20
-16518.39755011623
 30
0.0000000000000014
 11
0.04077444956302648
 21
0.05696057237042533
 31
0.0
210
0.0
220
0.0
230
1.0
 40
0.9083744652357201
 41
1.804594242940521
 42
3.808998900156814
  0
ELLIPSE
  5
3A77FE
330
18
100
AcDbEntity
  8
姿図
100
AcDbEllipse
 10
18534.12139425164
 20
-16513.66110384978
 30
0.0000000000000014
 11
0.04077444956302779
 21
0.05696057237042713
 31
3.888579933804672E-18
210
-3.231153159914925E-17
220
-4.513815278383414E-17
230
1.0
 40
0.9083744652357209
 41
1.804594242940522
 42
3.808998900156824
  0
ELLIPSE
  5
3A77FF
330
18
100
AcDbEntity
  8
姿図
100
AcDbEllipse
 10
18534.12139425164
 20
-16515.69100939255
 30
0.0000000000000014
 11
0.04077444956302648
 21
0.05696057237042533
 31
0.0
210
0.0
220
0.0
230
1.0
 40
0.9083744652357201
 41
1.804594242940334
 42
3.80899890015687
  0
ELLIPSE
  5
3A7800
330
18
100
AcDbEntity
  8
姿図
100
AcDbEllipse
 10
18534.12139425164
 20
-16516.36764457347
 30
0.0000000000000014
 11
0.04077444956302648
 21
0.05696057237042533
 31
0.0
210
0.0
220
0.0
230
1.0
 40
0.9083744652357201
 41
1.804594242940608
 42
3.808998900156902
  0
ELLIPSE
  5
3A7801
330
18
100
AcDbEntity
  8
姿図
100
AcDbEllipse
 10
18534.12139425164
 20
-16517.04427975439
 30
0.0000000000000014
 11
0.04077444956302648
 21
0.05696057237042533
 31
0.0
210
0.0
220
0.0
230
1.0
 40
0.9083744652357201
 41
1.804594242940608
 42
3.808998900156902
  0
ELLIPSE
  5
3A7802
330
18
100
AcDbEntity
  8
姿図
100
AcDbEllipse
 10
18534.12139425164
 20
-16514.3377390307
 30
0.0000000000000014
 11
0.04077444956302779
 21
0.05696057237042713
 31
3.888579933804672E-18
210
-3.231153159914925E-17
220
-4.513815278383414E-17
230
1.0
 40
0.9083744652357209
 41
1.804594242940522
 42
3.808998900156824
  0
ELLIPSE
  5
3A7803
330
18
100
AcDbEntity
  8
姿図
100
AcDbEllipse
 10
18534.12139425164
 20
-16515.01437421163
 30
0.0000000000000014
 11
0.04077444956302648
 21
0.05696057237042533
 31
0.0
210
0.0
220
0.0
230
1.0
 40
0.9083744652357201
 41
1.804594242940453
 42
3.808998900157027
  0
ELLIPSE
  5
3A7804
330
18
100
AcDbEntity
  8
姿図
100
AcDbEllipse
 10
18534.12139425164
 20
-16512.30783348794
 30
0.0000000000000014
 11
0.04077444956302779
 21
0.05696057237042713
 31
3.888579933804672E-18
210
-3.231153159914925E-17
220
-4.513815278383414E-17
230
1.0
 40
0.9083744652357209
 41
1.804594242940792
 42
3.808998900157135
  0
ELLIPSE
  5
3A7805
330
18
100
AcDbEntity
  8
姿図
100
AcDbEllipse
 10
18534.12139425164
 20
-16512.98446866887
 30
0.0000000000000014
 11
0.04077444956302779
 21
0.05696057237042713
 31
3.888579933804672E-18
210
-3.231153159914925E-17
220
-4.513815278383414E-17
230
1.0
 40
0.9083744652357209
 41
1.804594242940609
 42
3.808998900156911
  0
LINE
  5
3A7806
330
18
100
AcDbEntity
  8
姿図
100
AcDbLine
 10
18536.26763242725
 20
-16516.59703123889
 30
0.0000000000000014
 11
18536.24124073481
 21
-16516.59950094877
 31
0.0000000000000014
  0
LINE
  5
3A7807
330
18
100
AcDbEntity
  8
姿図
100
AcDbLine
 10
18536.18146053882
 20
-16517.18563809934
 30
0.0000000000000014
 11
18536.26700258597
 21
-16516.98786407641
 31
0.0000000000000014
  0
LINE
  5
3A7808
330
18
100
AcDbEntity
  8
姿図
100
AcDbLine
 10
18536.20046628524
 20
-16516.58879800305
 30
0.0000000000000014
 11
18536.26657273427
 21
-16516.6361194038
 31
0.0000000000000014
  0
ELLIPSE
  5
3A7809
330
18
100
AcDbEntity
  8
姿図
100
AcDbEllipse
 10
18536.24124073481
 20
-16517.88510779253
 30
0.0000000000000014
 11
0.04077444956302618
 21
0.05696057237042552
 31
-3.888579933804548E-18
210
3.231153159914902E-17
220
4.513815278383435E-17
230
1.0
 40
0.9083744652357175
 41
1.804594242940832
 42
3.808998900156845
  0
ELLIPSE
  5
3A780A
330
18
100
AcDbEntity
  8
姿図
100
AcDbEllipse
 10
18536.24124073481
 20
-16518.56174297346
 30
0.0000000000000014
 11
0.04077444956302618
 21
0.05696057237042552
 31
-3.888579933804548E-18
210
3.231153159914902E-17
220
4.513815278383435E-17
230
1.0
 40
0.9083744652357175
 41
1.804594242940847
 42
3.8089989001569
  0
ELLIPSE
  5
3A780B
330
18
100
AcDbEntity
  8
姿図
100
AcDbEllipse
 10
18536.24124073481
 20
-16515.85520224976
 30
0.0000000000000014
 11
0.0407744495630275
 21
0.05696057237042731
 31
3.888579933804645E-18
210
-3.231153159914882E-17
220
-4.513815278383401E-17
230
1.0
 40
0.9083744652357181
 41
1.804594242940848
 42
3.808998900156912
  0
ELLIPSE
  5
3A780C
330
18
100
AcDbEntity
  8
姿図
100
AcDbEllipse
 10
18536.24124073481
 20
-16516.53183743069
 30
0.0000000000000014
 11
0.04077444956302618
 21
0.05696057237042552
 31
-3.888579933804548E-18
210
3.231153159914902E-17
220
4.513815278383435E-17
230
1.0
 40
0.9083744652357175
 41
1.804594242940723
 42
3.808998900156777
  0
ELLIPSE
  5
3A780D
330
18
100
AcDbEntity
  8
姿図
100
AcDbEllipse
 10
18536.24124073481
 20
-16517.20847261161
 30
0.0000000000000014
 11
0.04077444956302618
 21
0.05696057237042552
 31
-3.888579933804548E-18
210
3.231153159914902E-17
220
4.513815278383435E-17
230
1.0
 40
0.9083744652357175
 41
1.804594242940692
 42
3.808998900156467
  0
ELLIPSE
  5
3A780E
330
18
100
AcDbEntity
  8
姿図
100
AcDbEllipse
 10
18536.24124073481
 20
-16513.825296707
 30
0.0000000000000014
 11
0.0407744495630275
 21
0.05696057237042731
 31
3.888579933804645E-18
210
-3.231153159914882E-17
220
-4.513815278383401E-17
230
1.0
 40
0.9083744652357181
 41
1.804594242940803
 42
3.808998900156824
  0
ELLIPSE
  5
3A780F
330
18
100
AcDbEntity
  8
姿図
100
AcDbEllipse
 10
18536.24124073481
 20
-16514.50193188792
 30
0.0000000000000014
 11
0.0407744495630275
 21
0.05696057237042731
 31
3.888579933804645E-18
210
-3.231153159914882E-17
220
-4.513815278383401E-17
230
1.0
 40
0.9083744652357181
 41
1.804594242940766
 42
3.808998900156787
  0
ELLIPSE
  5
3A7810
330
18
100
AcDbEntity
  8
姿図
100
AcDbEllipse
 10
18536.24124073481
 20
-16515.17856706884
 30
0.0000000000000014
 11
0.0407744495630275
 21
0.05696057237042731
 31
3.888579933804645E-18
210
-3.231153159914882E-17
220
-4.513815278383401E-17
230
1.0
 40
0.9083744652357181
 41
1.804594242940876
 42
3.808998900156855
  0
ELLIPSE
  5
3A7811
330
18
100
AcDbEntity
  8
姿図
100
AcDbEllipse
 10
18534.22020932449
 20
-16517.84699494943
 30
0.0000000000000014
 11
0.04077444956302303
 21
0.05696057237043183
 31
3.888579933804730E-18
210
-3.231153159914517E-17
220
-4.513815278383706E-17
230
1.0
 40
0.9083744652357212
 41
4.946186896530419
 42
6.950591553746441
  0
ELLIPSE
  5
3A7812
330
18
100
AcDbEntity
  8
姿図
100
AcDbEllipse
 10
18534.22020932449
 20
-16518.52363013035
 30
0.0000000000000014
 11
0.04077444956302303
 21
0.05696057237043183
 31
3.888579933804730E-18
210
-3.231153159914517E-17
220
-4.513815278383706E-17
230
1.0
 40
0.9083744652357212
 41
4.946186896530518
 42
6.95059155374682
  0
ELLIPSE
  5
3A7813
330
18
100
AcDbEntity
  8
姿図
100
AcDbEllipse
 10
18534.22020932449
 20
-16513.7871838639
 30
0.0000000000000014
 11
0.04077444956303463
 21
0.05696057237044796
 31
3.888579933805807E-18
210
-3.231153159914484E-17
220
-4.513815278383687E-17
230
1.0
 40
0.9083744652357204
 41
4.946186896530406
 42
6.950591553746625
  0
ELLIPSE
  5
3A7814
330
18
100
AcDbEntity
  8
姿図
100
AcDbEllipse
 10
18534.22020932449
 20
-16515.81708940666
 30
0.0000000000000014
 11
0.04077444956302303
 21
0.05696057237043183
 31
3.888579933804730E-18
210
-3.231153159914517E-17
220
-4.513815278383706E-17
230
1.0
 40
0.9083744652357212
 41
4.946186896530169
 42
6.950591553746752
  0
ELLIPSE
  5
3A7815
330
18
100
AcDbEntity
  8
姿図
100
AcDbEllipse
 10
18534.22020932449
 20
-16516.49372458759
 30
0.0000000000000014
 11
0.04077444956302303
 21
0.05696057237043183
 31
3.888579933804730E-18
210
-3.231153159914517E-17
220
-4.513815278383706E-17
230
1.0
 40
0.9083744652357212
 41
4.946186896530518
 42
6.95059155374654
  0
ELLIPSE
  5
3A7816
330
18
100
AcDbEntity
  8
姿図
100
AcDbEllipse
 10
18534.22020932449
 20
-16517.17035976851
 30
0.0000000000000014
 11
0.04077444956302303
 21
0.05696057237043183
 31
3.888579933804730E-18
210
-3.231153159914517E-17
220
-4.513815278383706E-17
230
1.0
 40
0.9083744652357212
 41
4.946186896530611
 42
6.950591553746913
  0
ELLIPSE
  5
3A7817
330
18
100
AcDbEntity
  8
姿図
100
AcDbEllipse
 10
18534.22020932449
 20
-16514.46381904482
 30
0.0000000000000014
 11
0.04077444956302303
 21
0.05696057237043183
 31
3.888579933804730E-18
210
-3.231153159914517E-17
220
-4.513815278383706E-17
230
1.0
 40
0.9083744652357212
 41
4.946186896530611
 42
6.950591553747201
  0
ELLIPSE
  5
3A7818
330
18
100
AcDbEntity
  8
姿図
100
AcDbEllipse
 10
18534.22020932449
 20
-16515.14045422574
 30
0.0000000000000014
 11
0.04077444956302303
 21
0.05696057237043183
 31
3.888579933804730E-18
210
-3.231153159914517E-17
220
-4.513815278383706E-17
230
1.0
 40
0.9083744652357212
 41
4.946186896530643
 42
6.950591553746944
  0
ELLIPSE
  5
3A7819
330
18
100
AcDbEntity
  8
姿図
100
AcDbEllipse
 10
18534.22020932449
 20
-16512.43391350206
 30
0.0000000000000014
 11
0.04077444956303463
 21
0.05696057237044796
 31
3.888579933805807E-18
210
-3.231153159914484E-17
220
-4.513815278383687E-17
230
1.0
 40
0.9083744652357204
 41
4.946186896530376
 42
6.950591553746025
  0
ELLIPSE
  5
3A781A
330
18
100
AcDbEntity
  8
姿図
100
AcDbEllipse
 10
18534.22020932449
 20
-16513.11054868298
 30
0.0000000000000014
 11
0.04077444956303463
 21
0.05696057237044796
 31
3.888579933805807E-18
210
-3.231153159914484E-17
220
-4.513815278383687E-17
230
1.0
 40
0.9083744652357204
 41
4.946186896530474
 42
6.950591553746981
  0
ELLIPSE
  5
3A781B
330
18
100
AcDbEntity
  8
姿図
100
AcDbEllipse
 10
18536.34005580764
 20
-16519.36445816849
 30
0.0000000000000014
 11
0.0407744495630228
 21
0.05696057237043198
 31
3.888579933804733E-18
210
-3.231153159914463E-17
220
-4.513815278383753E-17
230
1.0
 40
0.908374465235718
 41
6.006282980254767
 42
6.950591553746565
  0
ELLIPSE
  5
3A781C
330
18
100
AcDbEntity
  8
姿図
100
AcDbEllipse
 10
18536.62568893423
 20
-16513.28619677637
 30
0.0000000000000014
 11
0.05437706711423806
 21
-0.6281180723226355
 31
-1.399918910453696E-16
210
1.915108353182203E-17
220
-2.212171841785135E-16
230
1.0
 40
0.3301839125655837
 41
3.143887870131871
 42
4.437113948144754
  0
LINE
  5
3A781D
330
18
100
AcDbEntity
  8
姿図
100
AcDbLine
 10
18536.41039083665
 20
-16513.27317317859
 30
0.0000000000000014
 11
18536.41132243593
 21
-16513.13274543962
 31
0.0000000000000014
  0
ELLIPSE
  5
3A781E
330
18
100
AcDbEntity
  8
姿図
100
AcDbEllipse
 10
18536.34005580764
 20
-16518.01118780665
 30
0.0000000000000014
 11
0.0407744495630228
 21
0.05696057237043198
 31
3.888579933804733E-18
210
-3.231153159914463E-17
220
-4.513815278383753E-17
230
1.0
 40
0.908374465235718
 41
4.946186896530421
 42
6.950591553746442
  0
ELLIPSE
  5
3A781F
330
18
100
AcDbEntity
  8
姿図
100
AcDbEllipse
 10
18536.34005580764
 20
-16518.68782298757
 30
0.0000000000000014
 11
0.0407744495630228
 21
0.05696057237043198
 31
3.888579933804733E-18
210
-3.231153159914463E-17
220
-4.513815278383753E-17
230
1.0
 40
0.908374465235718
 41
4.946186896530445
 42
6.950591553746509
  0
ELLIPSE
  5
3A7820
330
18
100
AcDbEntity
  8
姿図
100
AcDbEllipse
 10
18536.34005580764
 20
-16513.95137672112
 30
0.0000000000000014
 11
0.04077444956303432
 21
0.05696057237044818
 31
3.888579933805835E-18
210
-3.231153159914478E-17
220
-4.513815278383739E-17
230
1.0
 40
0.9083744652357181
 41
4.946186896530444
 42
6.950591553746381
  0
ELLIPSE
  5
3A7821
330
18
100
AcDbEntity
  8
姿図
100
AcDbEllipse
 10
18536.34005580764
 20
-16514.62801190204
 30
0.0000000000000014
 11
0.04077444956303432
 21
0.05696057237044818
 31
3.888579933805835E-18
210
-3.231153159914478E-17
220
-4.513815278383739E-17
230
1.0
 40
0.9083744652357181
 41
4.946186896530483
 42
6.950591553746505
  0
ELLIPSE
  5
3A7822
330
18
100
AcDbEntity
  8
姿図
100
AcDbEllipse
 10
18536.34005580764
 20
-16515.30464708296
 30
0.0000000000000014
 11
0.04077444956303432
 21
0.05696057237044818
 31
3.888579933805835E-18
210
-3.231153159914478E-17
220
-4.513815278383739E-17
230
1.0
 40
0.9083744652357181
 41
4.946186896530291
 42
6.950591553746593
  0
LINE
  5
3A7823
330
18
100
AcDbEntity
  8
姿図
100
AcDbLine
 10
18538.0029263597
 20
-16513.98400913019
 30
0.0000000000000014
 11
18538.00025415549
 21
-16513.58170560105
 31
0.0000000000000014
  0
LINE
  5
3A7824
330
18
100
AcDbEntity
  8
姿図
100
AcDbLine
 10
18537.41361880719
 20
-16512.57925474078
 30
0.0000000000000014
 11
18536.57083599551
 21
-16512.65812156779
 31
0.0000000000000014
  0
LINE
  5
3A7825
330
18
100
AcDbEntity
  8
姿図
100
AcDbLine
 10
18537.47220472485
 20
-16512.59800895785
 30
0.0000000000000014
 11
18537.78184522239
 21
-16512.81966088872
 31
0.0000000000000014
  0
LINE
  5
3A7826
330
18
100
AcDbEntity
  8
姿図
100
AcDbLine
 10
18537.26188066135
 20
-16513.05315099665
 30
0.0000000000000014
 11
18537.27243072661
 21
-16514.64147589257
 31
0.0000000000000014
  0
LINE
  5
3A7827
330
18
100
AcDbEntity
  8
姿図
100
AcDbLine
 10
18537.64045782284
 20
-16514.29059559162
 30
0.0000000000000014
 11
18536.97946807566
 21
-16514.92078908498
 31
0.0000000000000014
  0
ELLIPSE
  5
3A7828
330
18
100
AcDbEntity
  8
姿図
100
AcDbEllipse
 10
18537.47624715965
 20
-16513.20660233342
 30
0.0000000000000014
 11
0.0630925953705448
 21
-0.6273025252676169
 31
0.0
210
0.0
220
0.0
230
1.0
 40
0.3266547503873701
 41
2.861757613225559
 42
4.432553940020501
  0
ELLIPSE
  5
3A7829
330
18
100
AcDbEntity
  8
姿図
100
AcDbEllipse
 10
18537.78588765719
 20
-16513.42825426429
 30
0.0000000000000014
 11
0.0630925953705448
 21
-0.6273025252676169
 31
0.0
210
0.0
220
0.0
230
1.0
 40
0.3266547503873701
 41
1.290961286430781
 42
2.861757613225615
  0
ELLIPSE
  5
3A782A
330
18
100
AcDbEntity
  8
姿図
100
AcDbEllipse
 10
18556.40048460869
 20
-16515.60869062467
 30
0.0000000000000014
 11
-19.43899392638164
 21
-3.695852190835743E-13
 31
-2.158161863261747E-15
210
-1.110223024625157E-16
220
-2.110819219048410E-30
230
1.0
 40
0.2588190451025151
 41
5.28687662288746
 42
6.018106658722737
  0
ELLIPSE
  5
3A782B
330
18
100
AcDbEntity
  8
姿図
100
AcDbEllipse
 10
18556.40048460869
 20
-16521.76607077106
 30
0.0000000000000014
 11
-22.12729165305705
 21
-8.241969717382603E-13
 31
0.0
210
0.0
220
0.0
230
1.0
 40
0.2588190451024983
 41
5.241510706344444
 42
6.274432771330732
  0
ELLIPSE
  5
3A782C
330
18
100
AcDbEntity
  8
姿図
100
AcDbEllipse
 10
18556.40048460869
 20
-16516.86046570937
 30
0.0000000000000014
 11
-20.13949821201701
 21
-3.834625887223409E-13
 31
-1.117966730968923E-15
210
-5.551115123125783E-17
220
-1.056950353479716E-30
230
1.0
 40
0.258819045102515
 41
5.268090580583092
 42
6.550261017675986
  0
ELLIPSE
  5
3A782D
330
18
100
AcDbEntity
  8
姿図
100
AcDbEllipse
 10
18556.40048460869
 20
-16516.28532580559
 30
0.0000000000000014
 11
-20.12390636427689
 21
-3.814900630616825E-13
 31
-1.117101209551046E-15
210
-5.551115123125783E-17
220
-1.052328121613186E-30
230
1.0
 40
0.258819045102515
 41
5.266606351960423
 42
6.276168753067862
  0
ELLIPSE
  5
3A782E
330
18
100
AcDbEntity
  8
姿図
100
AcDbEllipse
 10
18547.82746603174
 20
-16617.12617058656
 30
0.0000000000000014
 11
-22.6450971561371
 21
-422.5351665769942
 31
2.348907431735062E-14
210
2.970768119157230E-18
220
5.543160152658212E-17
230
1.0
 40
0.0186593157869327
 41
4.459498662982783
 42
4.472829220484885
  0
LINE
  5
3A782F
330
18
100
AcDbEntity
  8
姿図
100
AcDbLine
 10
18547.04160595397
 20
-16512.87814839028
 30
0.0000000000000014
 11
18547.05914187107
 21
-16510.52247810437
 31
0.0000000000000014
  0
LINE
  5
3A7830
330
18
100
AcDbEntity
  8
姿図
100
AcDbLine
 10
18550.84705299645
 20
-16510.16800892519
 30
0.0000000000000014
 11
18550.82951707935
 21
-16512.52367921111
 31
0.0000000000000014
  0
ELLIPSE
  5
3A7831
330
18
100
AcDbEntity
  8
姿図
100
AcDbEllipse
 10
18545.81475153842
 20
-16263.10326774711
 30
0.0000000000000014
 11
-26.03051405134906
 21
476.7384280245423
 31
0.0
210
0.0
220
0.0
230
1.0
 40
0.0171889472793754
 41
2.115486356435118
 42
2.128957736158343
  0
ELLIPSE
  5
3A7832
330
18
100
AcDbEntity
  8
姿図
100
AcDbEllipse
 10
18564.97350318563
 20
-16615.52166047144
 30
0.0000000000000014
 11
-22.84156025172853
 21
418.2800728533459
 31
-2.325380320982035E-14
210
-3.026859354980771E-18
220
5.542856694399325E-17
230
1.0
 40
0.0174416807856973
 41
1.315822296819269
 42
1.32915285432137
  0
LINE
  5
3A7833
330
18
100
AcDbEntity
  8
姿図
100
AcDbLine
 10
18547.24472319809
 20
-16510.65532396849
 30
0.0000000000000014
 11
18547.26216930745
 21
-16512.85176662861
 31
0.0000000000000014
  0
ELLIPSE
  5
3A7834
330
18
100
AcDbEntity
  8
姿図
100
AcDbEllipse
 10
18534.50584245107
 20
-16511.76873355731
 30
0.0000000000000014
 11
0.05437706711423806
 21
-0.6281180723226355
 31
-1.399918910453696E-16
210
1.915108353182203E-17
220
-2.212171841785135E-16
230
1.0
 40
0.3301839125655837
 41
3.143887870131944
 42
4.437113948144803
  0
ELLIPSE
  5
3A7835
330
18
100
AcDbEntity
  8
姿図
100
AcDbEllipse
 10
18535.3564006765
 20
-16511.68913911435
 30
0.0000000000000014
 11
0.0630925953705448
 21
-0.6273025252676169
 31
0.0
210
0.0
220
0.0
230
1.0
 40
0.3266547503873701
 41
2.861757613225725
 42
4.43255394002059
  0
LINE
  5
3A7836
330
18
100
AcDbEntity
  8
姿図
100
AcDbLine
 10
18535.3523582417
 20
-16511.08054573879
 30
0.0000000000000014
 11
18535.66199873924
 21
-16511.30219766966
 31
0.0000000000000014
  0
ELLIPSE
  5
3A7837
330
18
100
AcDbEntity
  8
姿図
100
AcDbEllipse
 10
18556.40048460869
 20
-16515.60869062467
 30
0.0000000000000014
 11
-19.43899392638164
 21
-3.695852190835743E-13
 31
-2.158161863261747E-15
210
-1.110223024625157E-16
220
-2.110819219048410E-30
230
1.0
 40
0.2588190451025151
 41
5.002357841538155
 42
5.202574393620892
  0
ELLIPSE
  5
3A7838
330
18
100
AcDbEntity
  8
姿図
100
AcDbEllipse
 10
18556.40048460869
 20
-16516.28532580559
 30
0.0000000000000014
 11
-20.12390636427689
 21
-3.814900630616825E-13
 31
-1.117101209551046E-15
210
-5.551115123125783E-17
220
-1.052328121613186E-30
230
1.0
 40
0.258819045102515
 41
3.563618606471713
 42
4.915675910959883
  0
ELLIPSE
  5
3A7839
330
18
100
AcDbEntity
  8
姿図
100
AcDbEllipse
 10
18556.40048460869
 20
-16516.86046570937
 30
0.0000000000000014
 11
-20.13949821201701
 21
-3.834625887223409E-13
 31
-1.117966730968923E-15
210
-5.551115123125783E-17
220
-1.056950353479716E-30
230
1.0
 40
0.258819045102515
 41
3.565790486621951
 42
4.913638423115042
  0
ELLIPSE
  5
3A783A
330
18
100
AcDbEntity
  8
姿図
100
AcDbEllipse
 10
18556.40048460869
 20
-16515.60869062467
 30
0.0000000000000014
 11
-19.43899392638164
 21
-3.695852190835743E-13
 31
-2.158161863261747E-15
210
-1.110223024625157E-16
220
-2.110819219048410E-30
230
1.0
 40
0.2588190451025151
 41
3.476409367365063
 42
4.924634818196502
  0
ELLIPSE
  5
3A783B
330
18
100
AcDbEntity
  8
姿図
100
AcDbEllipse
 10
18556.40048460869
 20
-16521.76607077106
 30
0.0000000000000014
 11
-22.12729165305705
 21
-3.795482328869187E-13
 31
-2.456622866581997E-15
210
-1.110223024625157E-16
220
-1.904359529010099E-30
230
1.0
 40
0.2588190451025165
 41
3.844220094436217
 42
4.877142159422503
  0
LINE
  5
3A783C
330
18
100
AcDbEntity
  8
姿図
100
AcDbLine
 10
18581.58709313018
 20
-16527.17915221843
 30
0.0000000000000014
 11
18581.58709313018
 21
-16527.58278123584
 31
0.0000000000000014
  0
ELLIPSE
  5
3A783D
330
18
100
AcDbEntity
  8
姿図
100
AcDbEllipse
 10
18556.40048460869
 20
-16523.32702244044
 30
0.0000000000000014
 11
16.64734076836731
 21
0.0
 31
0.0
210
0.0
220
0.0
230
1.0
 40
0.2673555525296201
 41
5.294295046974248
 42
5.96194421627353
  0
LINE
  5
3A783E
330
18
100
AcDbEntity
  8
姿図
100
AcDbLine
 10
18534.06161405567
 20
-16523.11116187041
 30
0.0000000000000014
 11
18534.25328452752
 21
-16522.6680179247
 31
0.0000000000000014
  0
LINE
  5
3A783F
330
18
100
AcDbEntity
  8
姿図
100
AcDbLine
 10
18534.22020932449
 20
-16522.51577769779
 30
0.0000000000000014
 11
18534.12139425165
 21
-16522.52502471985
 31
0.0000000000000014
  0
LINE
  5
3A7840
330
18
100
AcDbEntity
  8
姿図
100
AcDbLine
 10
18534.06161405567
 20
-16522.43452668949
 30
0.0000000000000014
 11
18534.26873279056
 21
-16521.95566621334
 31
0.0000000000000014
  0
LINE
  5
3A7841
330
18
100
AcDbEntity
  8
姿図
100
AcDbLine
 10
18534.08061980209
 20
-16522.51432177413
 30
0.0000000000000014
 11
18534.25392723074
 21
-16522.63838153537
 31
0.0000000000000014
  0
LINE
  5
3A7842
330
18
100
AcDbEntity
  8
姿図
100
AcDbLine
 10
18534.05551753643
 20
-16524.20596381156
 30
0.0000000000000014
 11
18534.05551753643
 21
-16523.14016106406
 31
0.0000000000000014
  0
ELLIPSE
  5
3A7843
330
18
100
AcDbEntity
  8
姿図
100
AcDbEllipse
 10
18534.12139425164
 20
-16523.13399638268
 30
0.0000000000000014
 11
0.04077444956302779
 21
0.05696057237042713
 31
3.888579933804672E-18
210
-3.231153159914925E-17
220
-4.513815278383414E-17
230
1.0
 40
0.9083744652357209
 41
1.804594242940401
 42
2.238202573361832
  0
ELLIPSE
  5
3A7844
330
18
100
AcDbEntity
  8
姿図
100
AcDbEllipse
 10
18534.12139425164
 20
-16522.45736120176
 30
0.0000000000000014
 11
0.04077444956302517
 21
0.05696057237042347
 31
0.0
210
0.0
220
0.0
230
1.0
 40
0.9083744652357209
 41
1.804594242940566
 42
3.808998900156902
  0
ELLIPSE
  5
3A7845
330
18
100
AcDbEntity
  8
姿図
100
AcDbEllipse
 10
18534.22020932449
 20
-16522.58344121588
 30
0.0000000000000014
 11
0.04077444956302303
 21
0.05696057237043183
 31
3.888579933804730E-18
210
-3.231153159914517E-17
220
-4.513815278383706E-17
230
1.0
 40
0.9083744652357212
 41
0.0854693314817033
 42
0.6674062465672337
  0
LINE
  5
3A7846
330
18
100
AcDbEntity
  8
姿図
100
AcDbLine
 10
18531.21387608719
 20
-16527.17915221843
 30
0.0000000000000014
 11
18531.21387608719
 21
-16527.58278123584
 31
0.0000000000000014
  0
ELLIPSE
  5
3A7847
330
18
100
AcDbEntity
  8
姿図
100
AcDbEllipse
 10
18556.40048460869
 20
-16523.32702244044
 30
0.0000000000000014
 11
16.64734076836731
 21
0.0
 31
0.0
210
0.0
220
0.0
230
1.0
 40
0.2673555525296201
 41
3.462833744495849
 42
4.125008924128273
  0
ELLIPSE
  5
3A7848
330
18
100
AcDbEntity
  8
姿図
100
AcDbEllipse
 10
18556.40048460869
 20
-16527.84348880832
 30
0.0000000000000014
 11
20.80917596045914
 21
0.0
 31
0.0
210
0.0
220
0.0
230
1.0
 40
0.26735555252962
 41
5.180243681212037
 42
5.322468918601666
  0
ELLIPSE
  5
3A7849
330
18
100
AcDbEntity
  8
姿図
100
AcDbEllipse
 10
18556.40048460869
 20
-16527.82815711739
 30
0.0000000000000014
 11
19.58542994057645
 21
0.0
 31
0.0
210
0.0
220
0.0
230
1.0
 40
0.26735555252962
 41
5.209599264642355
 42
5.36730999924912
  0
ELLIPSE
  5
3A784A
330
18
100
AcDbEntity
  8
姿図
100
AcDbEllipse
 10
18556.40048460869
 20
-16527.84348880832
 30
0.0000000000000014
 11
-20.80917596045083
 21
9.669722907402855E-13
 31
0.0
210
0.0
220
0.0
230
1.0
 40
0.2673555525297561
 41
1.089652412152444
 42
2.038651027622367
  0
ELLIPSE
  5
3A784B
330
18
100
AcDbEntity
  8
姿図
100
AcDbEllipse
 10
18556.40048460869
 20
-16527.58278123584
 30
0.0000000000000014
 11
-25.18660852146923
 21
3.203175647387420E-13
 31
0.0
210
0.0
220
0.0
230
1.0
 40
0.267355552529936
 41
1.170295413114174
 42
1.957465960389582
  0
ELLIPSE
  5
3A784C
330
18
100
AcDbEntity
  8
姿図
100
AcDbEllipse
 10
18556.40048460869
 20
-16527.82815711739
 30
0.0000000000000014
 11
19.58542994056877
 21
5.969901724187227E-13
 31
0.0
210
0.0
220
0.0
230
1.0
 40
0.2673555525297447
 41
4.202483262015896
 42
5.20959926464257
  0
ELLIPSE
  5
3A784D
330
18
100
AcDbEntity
  8
姿図
100
AcDbEllipse
 10
18556.40048460869
 20
-16527.58278123584
 30
0.0000000000000014
 11
25.18660852149495
 21
0.0
 31
0.0
210
0.0
220
0.0
230
1.0
 40
0.2673555525296203
 41
5.099058613978904
 42
5.204636642587372
  0
ELLIPSE
  5
3A784E
330
18
100
AcDbEntity
  8
姿図
100
AcDbEllipse
 10
18556.40048460869
 20
-16527.17915221843
 30
0.0000000000000014
 11
25.18660852149495
 21
0.0
 31
0.0
210
0.0
220
0.0
230
1.0
 40
0.2673555525296203
 41
6.253210353381123
 42
9.42477796076938
  0
LINE
  5
3A784F
330
18
100
AcDbEntity
  8
姿図
100
AcDbLine
 10
18534.08061980209
 20
-16521.83768659321
 30
0.0000000000000014
 11
18534.26322441919
 21
-16521.96840162012
 31
0.0000000000000014
  0
LINE
  5
3A7850
330
18
100
AcDbEntity
  8
姿図
100
AcDbLine
 10
18534.27617106677
 20
-16521.61267174424
 30
0.0000000000000014
 11
18534.22182089727
 21
-16524.11887170579
 31
0.0000000000000014
  0
LINE
  5
3A7851
330
18
100
AcDbEntity
  8
姿図
100
AcDbLine
 10
18575.88723170365
 20
-16519.2255883898
 30
0.0000000000000014
 11
18575.88723170365
 21
-16523.0260421778
 31
0.0000000000000014
  0
LINE
  5
3A7852
330
18
100
AcDbEntity
  8
姿図
100
AcDbLine
 10
18578.74545168094
 20
-16524.20596381156
 30
0.0000000000000014
 11
18578.74545168094
 21
-16521.27160621325
 31
0.0000000000000014
  0
SPLINE
  5
3A7853
330
18
100
AcDbEntity
  8
姿図
100
AcDbSpline
210
0.0
220
0.0
230
1.0
 70
     8
 71
     3
 72
    26
 73
    22
 74
     0
 42
0.000000001
 43
0.0000000001
 40
5.061336783911485
 40
5.061336783911485
 40
5.061336783911485
 40
5.061336783911485
 40
5.424423750909746
 40
5.424423750909746
 40
5.597379662847512
 40
5.597379662847512
 40
5.659540508070473
 40
5.659540508070473
 40
5.681680215509581
 40
5.681680215509581
 40
5.695637545270647
 40
5.695637545270647
 40
5.707793438358563
 40
5.707793438358563
 40
5.722098011649362
 40
5.722098011649362
 40
5.746604578651288
 40
5.746604578651288
 40
5.804790417739905
 40
5.804790417739905
 40
5.95015367802265
 40
5.95015367802265
 40
5.95015367802265
 40
5.95015367802265
 10
18576.41387305201
 20
-16518.50864363494
 30
0.0000000000000188
 10
18576.38702827168
 20
-16518.49939270774
 30
-0.0000000000000011
 10
18576.36609284858
 20
-16518.49444285722
 30
0.0000000000000089
 10
18576.34370216738
 20
-16518.49259924443
 30
0.0000000000000388
 10
18576.33513317338
 20
-16518.49262707333
 30
-0.0000000000000011
 10
18576.32688050625
 20
-16518.4961294505
 30
0.0000000000000089
 10
18576.32460517357
 20
-16518.49755777753
 30
-0.0000000000000011
 10
18576.32255583043
 20
-16518.50067346244
 30
0.0000000000000089
 10
18576.32204810542
 20
-16518.50170363776
 30
0.0000000000000188
 10
18576.32151407483
 20
-16518.5038000353
 30
0.0000000000000089
 10
18576.32137921184
 20
-16518.50471154046
 30
0.0000000000000288
 10
18576.32132766653
 20
-16518.50663006636
 30
0.0000000000000089
 10
18576.32138660067
 20
-16518.50755230222
 30
0.0000000000000089
 10
18576.32167729955
 20
-16518.50961130275
 30
0.0000000000000089
 10
18576.32192997671
 20
-16518.51070173367
 30
0.0000000000000188
 10
18576.32274706402
 20
-16518.51350407703
 30
0.0000000000000089
 10
18576.32343147762
 20
-16518.51519321933
 30
-0.0000000000000011
 10
18576.32574181752
 20
-16518.5201864175
 30
0.0000000000000089
 10
18576.32787774906
 20
-16518.52362143841
 30
0.0000000000000089
 10
18576.33516512562
 20
-16518.53412098112
 30
0.0000000000000188
 10
18576.34183978744
 20
-16518.54148428254
 30
-0.0000000000000011
 10
18576.34724746644
 20
-16518.54706085592
 30
-0.0000000000000011
  0
SPLINE
  5
3A7854
330
18
100
AcDbEntity
  8
姿図
100
AcDbSpline
210
0.0
220
0.0
230
1.0
 70
     8
 71
     3
 72
    10
 73
     6
 74
     0
 42
0.000000001
 43
0.0000000001
 40
1.049331515521564
 40
1.049331515521564
 40
1.049331515521564
 40
1.049331515521564
 40
1.060416395005242
 40
1.060416395005242
 40
1.145877108045186
 40
1.145877108045186
 40
1.145877108045186
 40
1.145877108045186
 10
18577.9951402964
 20
-16520.71101196239
 30
0.0000000000000188
 10
18577.99544984588
 20
-16520.71193028916
 30
0.0000000000000188
 10
18577.99572178761
 20
-16520.71285505473
 30
0.0000000000000188
 10
18577.99776246339
 20
-16520.72093846054
 30
-0.000000000000011
 10
18577.99720448289
 20
-16520.72827355577
 30
0.0000000000000089
 10
18577.99516893691
 20
-16520.73452653459
 30
-0.0000000000000011
  0
SPLINE
  5
3A7855
330
18
100
AcDbEntity
  8
姿図
100
AcDbSpline
210
0.0
220
0.0
230
1.0
 70
    11
 71
     3
 72
    38
 73
    34
 74
     0
 42
0.000000001
 43
0.0000000001
 40
0.0
 40
0.0
 40
0.0
 40
0.0
 40
0.4899871145494815
 40
0.4899871145494815
 40
0.979974229098963
 40
0.979974229098963
 40
1.469880324151053
 40
1.469880324151053
 40
1.959786419203144
 40
1.959786419203144
 40
2.449692514255234
 40
2.449692514255234
 40
2.939598609307323
 40
2.939598609307323
 40
3.429585723856796
 40
3.429585723856796
 40
3.919572838406268
 40
3.919572838406268
 40
4.409171093943909
 40
4.409171093943909
 40
4.898769349481551
 40
4.898769349481551
 40
5.388322667025809
 40
5.388322667025809
 40
5.877875984570069
 40
5.877875984570069
 40
6.367429302114321
 40
6.367429302114321
 40
6.856982619658574
 40
6.856982619658574
 40
7.346580875196199
 40
7.346580875196199
 40
7.836179130733825
 40
7.836179130733825
 40
7.836179130733825
 40
7.836179130733825
 10
18571.02847887322
 20
-16519.14781444666
 30
-0.0000000000000011
 10
18571.02926956691
 20
-16519.20282646275
 30
0.0000000000000089
 10
18571.02152698701
 20
-16519.2595482217
 30
0.0000000000000089
 10
18570.98809560351
 20
-16519.35956352032
 30
-0.0000000000000011
 10
18570.96239879555
 20
-16519.40286002487
 30
0.0000000000000089
 10
18570.90242183848
 20
-16519.46693813316
 30
0.0000000000000089
 10
18570.86414390461
 20
-16519.49199394984
 30
0.0000000000000089
 10
18570.77953795944
 20
-16519.51782342893
 30
0.0000000000000089
 10
18570.73320153035
 20
-16519.51859921826
 30
0.0000000000000188
 10
18570.64572751757
 20
-16519.49951979097
 30
-0.0000000000000011
 10
18570.59876780017
 20
-16519.47839467746
 30
0.0000000000000188
 10
18570.51176966601
 20
-16519.4151357099
 30
0.0000000000000089
 10
18570.47173913796
 20
-16519.37299961351
 30
-0.0000000000000011
 10
18570.40806445509
 20
-16519.28195118115
 30
0.0000000000000188
 10
18570.38017867666
 20
-16519.22696749055
 30
0.0000000000000288
 10
18570.34258070165
 20
-16519.11145959661
 30
-0.0000000000000011
 10
18570.33287680512
 20
-16519.05093249288
 30
0.0000000000000188
 10
18570.33137129617
 20
-16518.9409685322
 30
0.0000000000000089
 10
18570.33945590895
 20
-16518.88419924193
 30
-0.0000000000000011
 10
18570.37406034151
 20
-16518.78392407247
 30
0.0000000000000089
 10
18570.40057214386
 20
-16518.74042094636
 30
0.0000000000000188
 10
18570.46206260561
 20
-16518.67594634336
 30
0.0000000000000188
 10
18570.50113787292
 20
-16518.65067530754
 30
0.0000000000000089
 10
18570.5868438657
 20
-16518.6245389912
 30
0.0000000000000188
 10
18570.63346643377
 20
-16518.62367620524
 30
0.0000000000000188
 10
18570.72087745721
 20
-16518.64274189358
 30
0.0000000000000288
 10
18570.76749393504
 20
-16518.6639415492
 30
0.0000000000000188
 10
18570.85331718175
 20
-16518.7274910303
 30
0.0000000000000188
 10
18570.89253208818
 20
-16518.76983835689
 30
0.0000000000000089
 10
18570.9546905795
 20
-16518.86128269792
 30
0.0000000000000089
 10
18570.98177807501
 20
-16518.91647665511
 30
0.0000000000000188
 10
18571.01827305536
 20
-16519.03225969983
 30
0.0000000000000288
 10
18571.02768880703
 20
-16519.09284608869
 30
0.0000000000000089
 10
18571.02847887322
 20
-16519.14781444666
 30
-0.0000000000000011
  0
SPLINE
  5
3A7856
330
18
100
AcDbEntity
  8
姿図
100
AcDbSpline
210
0.0
220
0.0
230
1.0
 70
     8
 71
     3
 72
    24
 73
    20
 74
     0
 42
0.000000001
 43
0.0000000001
 40
9.158211213992672
 40
9.158211213992672
 40
9.158211213992672
 40
9.158211213992672
 40
9.170191443583112
 40
9.170191443583112
 40
9.737477062085201
 40
9.737477062085201
 40
10.30476268058729
 40
10.30476268058729
 40
10.87204829908938
 40
10.87204829908938
 40
11.43933391759147
 40
11.43933391759147
 40
12.01567227050256
 40
12.01567227050256
 40
12.59201062341365
 40
12.59201062341365
 40
13.16834897632474
 40
13.16834897632474
 40
13.72927459805347
 40
13.72927459805347
 40
13.72927459805347
 40
13.72927459805347
 10
18575.3135944663
 20
-16514.61048607743
 30
0.0000000000000288
 10
18575.31362256787
 20
-16514.61183609244
 30
0.0000000000000188
 10
18575.31364918655
 20
-16514.61318453775
 30
0.0000000000000188
 10
18575.31486482056
 20
-16514.67830737911
 30
0.0000000000000388
 10
18575.31277262149
 20
-16514.74277293579
 30
0.0000000000000188
 10
18575.30120874488
 20
-16514.86766968647
 30
0.0000000000000188
 10
18575.29173946083
 20
-16514.92810330855
 30
-0.0000000000000011
 10
18575.26573802605
 20
-16515.04049603713
 30
0.0000000000000089
 10
18575.24918197167
 20
-16515.09254972979
 30
0.0000000000000089
 10
18575.21026088006
 20
-16515.18516453156
 30
0.0000000000000388
 10
18575.18789048633
 20
-16515.22572223188
 30
-0.0000000000000011
 10
18575.13931471751
 20
-16515.29438318009
 30
-0.0000000000000011
 10
18575.11139161578
 20
-16515.32463457638
 30
0.0000000000000188
 10
18575.04992435042
 20
-16515.37275874561
 30
0.0000000000000188
 10
18575.01637957104
 20
-16515.39063828997
 30
0.0000000000000188
 10
18574.94570707751
 20
-16515.41249328316
 30
0.0000000000000089
 10
18574.90852258636
 20
-16515.41648738712
 30
0.0000000000000089
 10
18574.83407036047
 20
-16515.41113784726
 30
-0.0000000000000011
 10
18574.79683081795
 20
-16515.40214884638
 30
0.0000000000000188
 10
18574.76046724205
 20
-16515.3880140551
 30
0.0000000000000089
  0
SPLINE
  5
3A7857
330
18
100
AcDbEntity
  8
姿図
100
AcDbSpline
210
0.0
220
0.0
230
1.0
 70
     8
 71
     3
 72
    10
 73
     6
 74
     0
 42
0.000000001
 43
0.0000000001
 40
0.0588189760599532
 40
0.0588189760599532
 40
0.0588189760599532
 40
0.0588189760599532
 40
0.3767108973350863
 40
0.3767108973350863
 40
0.456659258613309
 40
0.456659258613309
 40
0.456659258613309
 40
0.456659258613309
 10
18552.65029379654
 20
-16515.9766010479
 30
0.0000000000000188
 10
18552.65268389813
 20
-16516.01316249278
 30
-0.0000000000000011
 10
18552.66153446809
 20
-16516.05068966084
 30
0.0000000000000089
 10
18552.68047361016
 20
-16516.09402289187
 30
0.0000000000000288
 10
18552.68468337807
 20
-16516.1025468461
 30
-0.000000000000011
 10
18552.68921233133
 20
-16516.11086820382
 30
-0.0000000000000011
  0
SPLINE
  5
3A7858
330
18
100
AcDbEntity
  8
姿図
100
AcDbSpline
210
0.0
220
0.0
230
1.0
 70
    11
 71
     3
 72
    38
 73
    34
 74
     0
 42
0.000000001
 43
0.0000000001
 40
0.0
 40
0.0
 40
0.0
 40
0.0
 40
0.4899871145494814
 40
0.4899871145494814
 40
0.9799742290989628
 40
0.9799742290989628
 40
1.469880324151052
 40
1.469880324151052
 40
1.959786419203141
 40
1.959786419203141
 40
2.44969251425523
 40
2.44969251425523
 40
2.939598609307319
 40
2.939598609307319
 40
3.429585723856792
 40
3.429585723856792
 40
3.919572838406264
 40
3.919572838406264
 40
4.409171093943907
 40
4.409171093943907
 40
4.898769349481549
 40
4.898769349481549
 40
5.388322667025805
 40
5.388322667025805
 40
5.877875984570061
 40
5.877875984570061
 40
6.367429302114317
 40
6.367429302114317
 40
6.856982619658573
 40
6.856982619658573
 40
7.346580875196197
 40
7.346580875196197
 40
7.836179130733821
 40
7.836179130733821
 40
7.836179130733821
 40
7.836179130733821
 10
18549.29409501236
 20
-16518.02386673718
 30
0.0000000000000288
 10
18549.29371088742
 20
-16518.07881800002
 30
0.0000000000000089
 10
18549.28246536883
 20
-16518.13837713619
 30
0.0000000000000089
 10
18549.23768918397
 20
-16518.25007893273
 30
0.0000000000000089
 10
18549.20416300094
 20
-16518.30222508414
 30
0.0000000000000089
 10
18549.12715232717
 20
-16518.38677315072
 30
0.0000000000000089
 10
18549.07853697827
 20
-16518.42481336508
 30
0.0000000000000089
 10
18548.97238409763
 20
-16518.47914779155
 30
0.0000000000000188
 10
18548.91485054251
 20
-16518.49544479423
 30
0.0000000000000089
 10
18548.80727252815
 20
-16518.50551184417
 30
0.0000000000000188
 10
18548.75006784426
 20
-16518.49995193854
 30
0.0000000000000089
 10
18548.64517717582
 20
-16518.46536676995
 30
0.0000000000000089
 10
18548.59748656395
 20
-16518.43633877729
 30
0.0000000000000288
 10
18548.52242695453
 20
-16518.36602130553
 30
0.0000000000000089
 10
18548.49005575769
 20
-16518.32004176928
 30
0.0000000000000288
 10
18548.44747802902
 20
-16518.21651447024
 30
0.0000000000000288
 10
18548.43726737757
 20
-16518.15896318238
 30
0.0000000000000188
 10
18548.43812786833
 20
-16518.04909560628
 30
0.0000000000000188
 10
18548.44924027025
 20
-16517.9894577206
 30
-0.000000000000011
 10
18548.49345906783
 20
-16517.87740405533
 30
-0.0000000000000011
 10
18548.52656991296
 20
-16517.82499156201
 30
0.0000000000000089
 10
18548.60277964161
 20
-16517.73994052347
 30
0.0000000000000188
 10
18548.65095821584
 20
-16517.70163121195
 30
0.0000000000000188
 10
18548.75646490418
 20
-16517.64692212897
 30
0.0000000000000188
 10
18548.813797305
 20
-16517.63052543045
 30
0.0000000000000089
 10
18548.92129785329
 20
-16517.62046562972
 30
0.0000000000000089
 10
18548.97863346757
 20
-16517.62613180267
 30
-0.0000000000000011
 10
18549.08407828815
 20
-16517.6611002408
 30
0.0000000000000188
 10
18549.13218318334
 20
-16517.69039943534
 30
-0.0000000000000011
 10
18549.20804043352
 20
-16517.76122018827
 30
-0.0000000000000011
 10
18549.24084752049
 20
-16517.80746414319
 30
0.0000000000000188
 10
18549.28406879133
 20
-16517.91133524866
 30
0.0000000000000288
 10
18549.29447883246
 20
-16517.96895908425
 30
0.0000000000000089
 10
18549.29409501236
 20
-16518.02386673718
 30
0.0000000000000288
  0
SPLINE
  5
3A7859
330
18
100
AcDbEntity
  8
姿図
100
AcDbSpline
210
0.0
220
0.0
230
1.0
 70
     8
 71
     3
 72
    14
 73
    10
 74
     0
 42
0.000000001
 43
0.0000000001
 40
1.516995086374685
 40
1.516995086374685
 40
1.516995086374685
 40
1.516995086374685
 40
1.894466177168912
 40
1.894466177168912
 40
2.274814964391462
 40
2.274814964391462
 40
2.651000233863917
 40
2.651000233863917
 40
2.975314369919599
 40
2.975314369919599
 40
2.975314369919599
 40
2.975314369919599
 10
18546.17383634458
 20
-16510.63631707209
 30
0.0000000000000089
 10
18546.13477990852
 20
-16510.64162572903
 30
0.0000000000000089
 10
18546.09312297793
 20
-16510.65565078006
 30
0.0000000000000089
 10
18546.01598307232
 20
-16510.70034355337
 30
0.0000000000000288
 10
18545.98054691918
 20
-16510.73114506066
 30
0.0000000000000089
 10
18545.92470332246
 20
-16510.7985865831
 30
0.0000000000000288
 10
18545.90047027321
 20
-16510.83960272511
 30
-0.0000000000000011
 10
18545.87022421327
 20
-16510.92070220262
 30
0.0000000000000089
 10
18545.86207333346
 20
-16510.96014096963
 30
0.0000000000000188
 10
18545.85989985225
 20
-16510.99733868811
 30
-0.0000000000000011
  0
SPLINE
  5
3A785A
330
18
100
AcDbEntity
  8
姿図
100
AcDbSpline
210
6.199883605235527E-9
220
1.399442168760865E-10
230
1.0
 70
    12
 71
     2
 72
     6
 73
     3
 74
     0
 42
0.000000001
 43
0.0000000001
 40
18.67224162152367
 40
18.67224162152367
 40
18.67224162152367
 40
24.03177626439027
 40
24.03177626439027
 40
24.03177626439027
 10
18535.12959545108
 20
-16520.18820173004
 30
-0.000000000000011
 41
1.000007196260523
 10
18535.10914606863
 20
-16519.28238450993
 30
0.0000000000000089
 41
1.000006449331705
 10
18535.08865610202
 20
-16518.37469817531
 30
0.0000000000000188
 41
1.000004680735829
  0
SPLINE
  5
3A785B
330
18
100
AcDbEntity
  8
姿図
100
AcDbSpline
210
0.0
220
0.0
230
1.0
 70
     8
 71
     3
 72
    24
 73
    20
 74
     0
 42
0.000000001
 43
0.0000000001
 40
0.0132670700154636
 40
0.0132670700154636
 40
0.0132670700154636
 40
0.0132670700154636
 40
0.5643354427835523
 40
0.5643354427835523
 40
1.128670885567105
 40
1.128670885567105
 40
1.693006328350657
 40
1.693006328350657
 40
2.257341771134209
 40
2.257341771134209
 40
2.838611106649443
 40
2.838611106649443
 40
3.419880442164678
 40
3.419880442164678
 40
4.001149777679912
 40
4.001149777679912
 40
4.582419113195146
 40
4.582419113195146
 40
4.599511058232551
 40
4.599511058232551
 40
4.599511058232551
 40
4.599511058232551
 10
18535.08865610203
 20
-16518.37469817533
 30
0.0000000000000188
 10
18535.09005781986
 20
-16518.43679296187
 30
0.0000000000000089
 10
18535.09058038644
 20
-16518.49929144499
 30
-0.0000000000000011
 10
18535.08960717251
 20
-16518.62155148228
 30
0.0000000000000288
 10
18535.08806312686
 20
-16518.68121222284
 30
0.0000000000000288
 10
18535.08302473404
 20
-16518.79177584629
 30
0.0000000000000089
 10
18535.07952857077
 20
-16518.84276882101
 30
-0.0000000000000011
 10
18535.07107358569
 20
-16518.93308292971
 30
0.0000000000000089
 10
18535.06611755886
 20
-16518.97240013093
 30
0.0000000000000188
 10
18535.05533805858
 20
-16519.03898257182
 30
-0.0000000000000011
 10
18535.04911108634
 20
-16519.06819858126
 30
0.0000000000000089
 10
18535.03567021937
 20
-16519.1138050794
 30
-0.0000000000000011
 10
18535.02846021105
 20
-16519.13020195814
 30
0.0000000000000288
 10
18535.01371759919
 20
-16519.14868115262
 30
-0.0000000000000011
 10
18535.00617601223
 20
-16519.15077873194
 30
0.0000000000000089
 10
18534.9913948533
 20
-16519.14123528459
 30
0.0000000000000188
 10
18534.98415590727
 20
-16519.12958953049
 30
0.0000000000000388
 10
18534.97713931178
 20
-16519.11196230351
 30
0.0000000000000188
 10
18534.97693883292
 20
-16519.11145309783
 30
0.0000000000000288
 10
18534.97673830907
 20
-16519.11093818722
 30
0.0000000000000089
  0
SPLINE
  5
3A785C
330
18
100
AcDbEntity
  8
姿図
100
AcDbSpline
210
0.0
220
0.0
230
1.0
 70
    11
 71
     3
 72
    38
 73
    34
 74
     0
 42
0.000000001
 43
0.0000000001
 40
0.0
 40
0.0
 40
0.0
 40
0.0
 40
0.4899871145494816
 40
0.4899871145494816
 40
0.9799742290989633
 40
0.9799742290989633
 40
1.469880324151052
 40
1.469880324151052
 40
1.959786419203141
 40
1.959786419203141
 40
2.44969251425523
 40
2.44969251425523
 40
2.939598609307319
 40
2.939598609307319
 40
3.429585723856792
 40
3.429585723856792
 40
3.919572838406264
 40
3.919572838406264
 40
4.409171093943907
 40
4.409171093943907
 40
4.898769349481552
 40
4.898769349481552
 40
5.388322667025808
 40
5.388322667025808
 40
5.877875984570063
 40
5.877875984570063
 40
6.367429302114317
 40
6.367429302114317
 40
6.856982619658572
 40
6.856982619658572
 40
7.346580875196196
 40
7.346580875196196
 40
7.83617913073382
 40
7.83617913073382
 40
7.83617913073382
 40
7.83617913073382
 10
18534.66610074783
 20
-16522.33352175052
 30
0.0000000000000188
 10
18534.6649259292
 20
-16522.38870596512
 30
0.0000000000000089
 10
18534.66142299051
 20
-16522.45046895213
 30
0.0000000000000089
 10
18534.65007818914
 20
-16522.5705568653
 30
0.0000000000000188
 10
18534.64224881408
 20
-16522.62888274655
 30
0.0000000000000188
 10
18534.62521509737
 20
-16522.72748379542
 30
0.0000000000000089
 10
18534.61487768235
 20
-16522.7743332768
 30
-0.0000000000000011
 10
18534.59333074688
 20
-16522.84774979044
 30
0.0000000000000089
 10
18534.58213362086
 20
-16522.87431716693
 30
-0.000000000000011
 10
18534.56202961928
 20
-16522.90346364416
 30
0.0000000000000089
 10
18534.55178465278
 20
-16522.90798268889
 30
0.0000000000000188
 10
18534.53389211849
 20
-16522.89174492162
 30
0.0000000000000089
 10
18534.52623203468
 20
-16522.87098794165
 30
0.0000000000000089
 10
18534.51484710813
 20
-16522.81358781167
 30
-0.0000000000000011
 10
18534.51036168972
 20
-16522.77311573162
 30
0.0000000000000188
 10
18534.50538193607
 20
-16522.67669491128
 30
0.0000000000000288
 10
18534.50487518114
 20
-16522.62074511736
 30
0.0000000000000188
 10
18534.50724118085
 20
-16522.51039540923
 30
0.0000000000000288
 10
18534.51026896998
 20
-16522.44864456546
 30
0.0000000000000188
 10
18534.51988333501
 20
-16522.32854665134
 30
0.0000000000000188
 10
18534.52648237779
 20
-16522.27020033942
 30
0.0000000000000089
 10
18534.54120164468
 20
-16522.1715618497
 30
0.0000000000000188
 10
18534.55030495159
 20
-16522.12469294991
 30
0.0000000000000188
 10
18534.57010564716
 20
-16522.05125927911
 30
-0.0000000000000011
 10
18534.58081547991
 20
-16522.02469508098
 30
0.0000000000000188
 10
18534.60090500475
 20
-16521.99556959191
 30
-0.0000000000000011
 10
18534.61162414121
 20
-16521.99106639481
 30
0.0000000000000188
 10
18534.63124571508
 20
-16522.007346256
 30
0.0000000000000089
 10
18534.64013570384
 20
-16522.02812874803
 30
-0.0000000000000011
 10
18534.65383446271
 20
-16522.08556721412
 30
0.0000000000000188
 10
18534.65955405416
 20
-16522.12605415655
 30
-0.0000000000000011
 10
18534.66628034465
 20
-16522.22246163563
 30
0.0000000000000089
 10
18534.66727463411
 20
-16522.27838133071
 30
0.0000000000000288
 10
18534.66610074783
 20
-16522.33352175052
 30
0.0000000000000188
  0
SPLINE
  5
3A785D
330
18
100
AcDbEntity
  8
姿図
 62
     8
100
AcDbSpline
210
0.0
220
0.0
230
1.0
 70
     8
 71
     3
 72
    11
 73
     7
 74
     0
 42
0.000000001
 43
0.0000000001
 40
0.0
 40
0.0
 40
0.0
 40
0.0
 40
1.0
 40
1.0
 40
1.0
 40
2.0
 40
2.0
 40
2.0
 40
2.0
 10
18550.99779347808
 20
-16524.2434804558
 30
0.0000000000000014
 10
18550.99779347808
 20
-16524.04795324353
 30
0.0000000000000014
 10
18553.35382142063
 20
-16523.88946772235
 30
0.0000000000000014
 10
18556.26018305944
 20
-16523.88946772235
 30
0.0000000000000014
 10
18559.16654469825
 20
-16523.88946772235
 30
0.0000000000000014
 10
18561.52257264081
 20
-16524.04795324353
 30
0.0000000000000014
 10
18561.52257264081
 20
-16524.2434804558
 30
0.0000000000000014
  0
POLYLINE
  5
3A785E
330
18
100
AcDbEntity
  8
姿図
 62
     8
100
AcDb2dPolyline
 66
     1
 10
0.0
 20
0.0
 30
0.0000000000000014
  0
VERTEX
  5
3A785F
330
3A785E
100
AcDbEntity
  8
姿図
 62
     8
100
AcDbVertex
100
AcDb2dVertex
 10
18550.99779347808
 20
-16524.2434804558
 30
0.0000000000000014
  0
VERTEX
  5
3A7860
330
3A785E
100
AcDbEntity
  8
姿図
 62
     8
100
AcDbVertex
100
AcDb2dVertex
 10
18550.99779347808
 20
-16526.21004147486
 30
0.0000000000000014
  0
SEQEND
  5
3A7861
330
3A785E
100
AcDbEntity
  8
姿図
 62
     8
  0
POLYLINE
  5
3A7862
330
18
100
AcDbEntity
  8
姿図
 62
     8
100
AcDb2dPolyline
 66
     1
 10
0.0
 20
0.0
 30
0.0000000000000014
  0
VERTEX
  5
3A7863
330
3A7862
100
AcDbEntity
  8
姿図
 62
     8
100
AcDbVertex
100
AcDb2dVertex
 10
18561.52257264081
 20
-16524.2434804558
 30
0.0000000000000014
  0
VERTEX
  5
3A7864
330
3A7862
100
AcDbEntity
  8
姿図
 62
     8
100
AcDbVertex
100
AcDb2dVertex
 10
18561.52257264081
 20
-16526.21004147486
 30
0.0000000000000014
  0
SEQEND
  5
3A7865
330
3A7862
100
AcDbEntity
  8
姿図
 62
     8
  0
POLYLINE
  5
3A7866
330
18
100
AcDbEntity
  8
姿図
 62
     8
100
AcDb2dPolyline
 66
     1
 10
0.0
 20
0.0
 30
0.0000000000000014
  0
VERTEX
  5
3A7867
330
3A7866
100
AcDbEntity
  8
姿図
 62
     8
100
AcDbVertex
100
AcDb2dVertex
 10
18550.99779347808
 20
-16526.21004147486
 30
0.0000000000000014
  0
VERTEX
  5
3A7868
330
3A7866
100
AcDbEntity
  8
姿図
 62
     8
100
AcDbVertex
100
AcDb2dVertex
 10
18561.52257264081
 20
-16526.21004147486
 30
0.0000000000000014
  0
SEQEND
  5
3A7869
330
3A7866
100
AcDbEntity
  8
姿図
 62
     8
  0
SPLINE
  5
3A786A
330
18
100
AcDbEntity
  8
姿図
 62
     8
100
AcDbSpline
210
0.0
220
0.0
230
1.0
 70
     8
 71
     3
 72
    32
 73
    28
 74
     0
 42
0.000000001
 43
0.0000000001
 40
0.0
 40
0.0
 40
0.0
 40
0.0
 40
1.0
 40
1.0
 40
1.0
 40
2.0
 40
2.0
 40
2.0
 40
3.0
 40
3.0
 40
3.0
 40
4.0
 40
4.0
 40
4.0
 40
5.0
 40
5.0
 40
5.0
 40
6.0
 40
6.0
 40
6.0
 40
7.0
 40
7.0
 40
7.0
 40
8.0
 40
8.0
 40
8.0
 40
9.0
 40
9.0
 40
9.0
 40
9.0
 10
18549.44027856209
 20
-16526.21004147486
 30
0.0000000000000014
 10
18549.44027856209
 20
-16526.21004147486
 30
0.0000000000000014
 10
18547.47380573754
 20
-16526.21004147486
 30
0.0000000000000014
 10
18547.47380573754
 20
-16526.21004147486
 30
0.0000000000000014
 10
18547.47380573754
 20
-16526.21004147486
 30
0.0000000000000014
 10
18547.17482637371
 20
-16526.57181532454
 30
0.0000000000000014
 10
18547.17482637371
 20
-16526.57181532454
 30
0.0000000000000014
 10
18547.17482637371
 20
-16526.57181532454
 30
0.0000000000000014
 10
18547.17482637371
 20
-16528.14502886199
 30
0.0000000000000014
 10
18547.17482637371
 20
-16528.14502886199
 30
0.0000000000000014
 10
18547.17482637371
 20
-16528.14502886199
 30
0.0000000000000014
 10
18547.47380573754
 20
-16528.00347668531
 30
0.0000000000000014
 10
18547.47380573754
 20
-16528.00347668531
 30
0.0000000000000014
 10
18547.47380573754
 20
-16528.00347668531
 30
0.0000000000000014
 10
18547.47380573754
 20
-16528.00347668531
 30
0.0000000000000014
 10
18547.47380573754
 20
-16528.00347668531
 30
0.0000000000000014
 10
18547.47380573754
 20
-16528.00347668531
 30
0.0000000000000014
 10
18562.985719439
 20
-16528.00347668531
 30
0.0000000000000014
 10
18562.985719439
 20
-16528.00347668531
 30
0.0000000000000014
 10
18562.985719439
 20
-16528.00347668531
 30
0.0000000000000014
 10
18564.81337411646
 20
-16528.13947260832
 30
0.0000000000000014
 10
18564.81337411646
 20
-16528.13947260832
 30
0.0000000000000014
 10
18564.81337411646
 20
-16528.13947260832
 30
0.0000000000000014
 10
18567.75272049924
 20
-16528.14502886199
 30
0.0000000000000014
 10
18567.75272049924
 20
-16528.14502886199
 30
0.0000000000000014
 10
18567.75272049924
 20
-16528.14502886199
 30
0.0000000000000014
 10
18569.08992554772
 20
-16528.20799973685
 30
0.0000000000000014
 10
18569.12132279065
 20
-16529.84418414915
 30
0.0000000000000014
  0
POLYLINE
  5
3A786B
330
18
100
AcDbEntity
  8
姿図
 62
     8
100
AcDb2dPolyline
 66
     1
 10
0.0
 20
0.0
 30
0.0000000000000014
  0
VERTEX
  5
3A786C
330
3A786B
100
AcDbEntity
  8
姿図
 62
     8
100
AcDbVertex
100
AcDb2dVertex
 10
18565.55015099121
 20
-16528.14502886199
 30
0.0000000000000014
  0
VERTEX
  5
3A786D
330
3A786B
100
AcDbEntity
  8
姿図
 62
     8
100
AcDbVertex
100
AcDb2dVertex
 10
18565.55015099121
 20
-16526.57181532454
 30
0.0000000000000014
  0
VERTEX
  5
3A786E
330
3A786B
100
AcDbEntity
  8
姿図
 62
     8
100
AcDbVertex
100
AcDb2dVertex
 10
18562.79689500893
 20
-16526.21004147486
 30
0.0000000000000014
  0
VERTEX
  5
3A786F
330
3A786B
100
AcDbEntity
  8
姿図
 62
     8
100
AcDbVertex
100
AcDb2dVertex
 10
18549.44027856209
 20
-16526.21004147486
 30
0.0000000000000014
  0
SEQEND
  5
3A7870
330
3A786B
100
AcDbEntity
  8
姿図
 62
     8
  0
POLYLINE
  5
3A7871
330
18
100
AcDbEntity
  8
姿図
 62
     8
100
AcDb2dPolyline
 66
     1
 10
0.0
 20
0.0
 30
0.0000000000000014
  0
VERTEX
  5
3A7872
330
3A7871
100
AcDbEntity
  8
姿図
 62
     8
100
AcDbVertex
100
AcDb2dVertex
 10
18562.79689500893
 20
-16526.21004147486
 30
0.0000000000000014
  0
VERTEX
  5
3A7873
330
3A7871
100
AcDbEntity
  8
姿図
 62
     8
100
AcDbVertex
100
AcDb2dVertex
 10
18562.79689500893
 20
-16528.00347668531
 30
0.0000000000000014
  0
SEQEND
  5
3A7874
330
3A7871
100
AcDbEntity
  8
姿図
 62
     8
  0
SPLINE
  5
3A7875
330
18
100
AcDbEntity
  8
姿図
 62
     8
100
AcDbSpline
210
0.0
220
0.0
230
1.0
 70
     8
 71
     3
 72
    23
 73
    19
 74
     0
 42
0.000000001
 43
0.0000000001
 40
0.0
 40
0.0
 40
0.0
 40
0.0
 40
1.0
 40
1.0
 40
1.0
 40
2.0
 40
2.0
 40
2.0
 40
3.0
 40
3.0
 40
3.0
 40
4.0
 40
4.0
 40
4.0
 40
5.0
 40
5.0
 40
5.0
 40
6.0
 40
6.0
 40
6.0
 40
6.0
 10
18567.75272049924
 20
-16528.8057820755
 30
0.0000000000000014
 10
18567.75272049924
 20
-16528.8057820755
 30
0.0000000000000014
 10
18564.81337411646
 20
-16528.8057820755
 30
0.0000000000000014
 10
18564.81337411646
 20
-16528.8057820755
 30
0.0000000000000014
 10
18564.81337411646
 20
-16528.8057820755
 30
0.0000000000000014
 10
18562.79689500893
 20
-16528.63274446139
 30
0.0000000000000014
 10
18562.79689500893
 20
-16528.63274446139
 30
0.0000000000000014
 10
18562.79689500893
 20
-16528.63274446139
 30
0.0000000000000014
 10
18547.47380573754
 20
-16528.63274446139
 30
0.0000000000000014
 10
18547.47380573754
 20
-16528.63274446139
 30
0.0000000000000014
 10
18547.47380573754
 20
-16528.63274446139
 30
0.0000000000000014
 10
18547.17482637371
 20
-16528.8057820755
 30
0.0000000000000014
 10
18547.17482637371
 20
-16528.8057820755
 30
0.0000000000000014
 10
18547.17482637371
 20
-16528.8057820755
 30
0.0000000000000014
 10
18543.02148266259
 20
-16528.8057820755
 30
0.0000000000000014
 10
18543.02148266259
 20
-16528.8057820755
 30
0.0000000000000014
 10
18543.02148266259
 20
-16528.8057820755
 30
0.0000000000000014
 10
18542.14059597058
 20
-16528.91602520375
 30
0.0000000000000014
 10
18542.14059597058
 20
-16529.84418414915
 30
0.0000000000000014
  0
POLYLINE
  5
3A7876
330
18
100
AcDbEntity
  8
姿図
 62
     8
100
AcDb2dPolyline
 66
     1
 10
0.0
 20
0.0
 30
0.0000000000000014
  0
VERTEX
  5
3A7877
330
3A7876
100
AcDbEntity
  8
姿図
 62
     8
100
AcDbVertex
100
AcDb2dVertex
 10
18547.47380573754
 20
-16528.63274446139
 30
0.0000000000000014
  0
VERTEX
  5
3A7878
330
3A7876
100
AcDbEntity
  8
姿図
 62
     8
100
AcDbVertex
100
AcDb2dVertex
 10
18547.47380573754
 20
-16528.00347668531
 30
0.0000000000000014
  0
VERTEX
  5
3A7879
330
3A7876
100
AcDbEntity
  8
姿図
 62
     8
100
AcDbVertex
100
AcDb2dVertex
 10
18547.47380573754
 20
-16526.21004147486
 30
0.0000000000000014
  0
SEQEND
  5
3A787A
330
3A7876
100
AcDbEntity
  8
姿図
 62
     8
  0
SPLINE
  5
3A787B
330
18
100
AcDbEntity
  8
姿図
 62
     8
100
AcDbSpline
210
0.0
220
0.0
230
1.0
 70
     8
 71
     3
 72
    14
 73
    10
 74
     0
 42
0.000000001
 43
0.0000000001
 40
0.0
 40
0.0
 40
0.0
 40
0.0
 40
1.0
 40
1.0
 40
1.0
 40
2.0
 40
2.0
 40
2.0
 40
3.0
 40
3.0
 40
3.0
 40
3.0
 10
18547.17482637371
 20
-16528.8057820755
 30
0.0000000000000014
 10
18547.17482637371
 20
-16528.8057820755
 30
0.0000000000000014
 10
18547.17482637371
 20
-16528.14502886199
 30
0.0000000000000014
 10
18547.17482637371
 20
-16528.14502886199
 30
0.0000000000000014
 10
18547.17482637371
 20
-16528.14502886199
 30
0.0000000000000014
 10
18543.02148266259
 20
-16528.14502886199
 30
0.0000000000000014
 10
18543.02148266259
 20
-16528.14502886199
 30
0.0000000000000014
 10
18543.02148266259
 20
-16528.14502886199
 30
0.0000000000000014
 10
18541.62139493375
 20
-16528.25527199025
 30
0.0000000000000014
 10
18541.62139493375
 20
-16529.84418414915
 30
0.0000000000000014
  0
POLYLINE
  5
3A787C
330
18
100
AcDbEntity
  8
姿図
 62
     8
100
AcDb2dPolyline
 66
     1
 10
0.0
 20
0.0
 30
0.0000000000000014
  0
VERTEX
  5
3A787D
330
3A787C
100
AcDbEntity
  8
姿図
 62
     8
100
AcDbVertex
100
AcDb2dVertex
 10
18562.985719439
 20
-16528.63274446139
 30
0.0000000000000014
  0
VERTEX
  5
3A787E
330
3A787C
100
AcDbEntity
  8
姿図
 62
     8
100
AcDbVertex
100
AcDb2dVertex
 10
18562.985719439
 20
-16528.00347668531
 30
0.0000000000000014
  0
SEQEND
  5
3A787F
330
3A787C
100
AcDbEntity
  8
姿図
 62
     8
  0
POLYLINE
  5
3A7880
330
18
100
AcDbEntity
  8
姿図
 62
     8
100
AcDb2dPolyline
 66
     1
 10
0.0
 20
0.0
 30
0.0000000000000014
  0
VERTEX
  5
3A7881
330
3A7880
100
AcDbEntity
  8
姿図
 62
     8
100
AcDbVertex
100
AcDb2dVertex
 10
18564.81337411646
 20
-16528.8057820755
 30
0.0000000000000014
  0
VERTEX
  5
3A7882
330
3A7880
100
AcDbEntity
  8
姿図
 62
     8
100
AcDbVertex
100
AcDb2dVertex
 10
18564.81337411646
 20
-16528.13947260832
 30
0.0000000000000014
  0
SEQEND
  5
3A7883
330
3A7880
100
AcDbEntity
  8
姿図
 62
     8
  0
SPLINE
  5
3A7884
330
18
100
AcDbEntity
  8
姿図
 62
     8
100
AcDbSpline
210
0.0
220
0.0
230
1.0
 70
     8
 71
     3
 72
    17
 73
    13
 74
     0
 42
0.000000001
 43
0.0000000001
 40
0.0
 40
0.0
 40
0.0
 40
0.0
 40
1.0
 40
1.0
 40
1.0
 40
2.0
 40
2.0
 40
2.0
 40
3.0
 40
3.0
 40
3.0
 40
4.0
 40
4.0
 40
4.0
 40
4.0
 10
18548.87927333103
 20
-16529.35950432531
 30
0.0000000000000014
 10
18548.87927333103
 20
-16529.35950432531
 30
0.0000000000000014
 10
18548.16595619397
 20
-16529.35950432531
 30
0.0000000000000014
 10
18548.16595619397
 20
-16529.35950432531
 30
0.0000000000000014
 10
18548.16595619397
 20
-16529.35950432531
 30
0.0000000000000014
 10
18547.56817385532
 20
-16529.28083482898
 30
0.0000000000000014
 10
18547.56817385532
 20
-16529.28083482898
 30
0.0000000000000014
 10
18547.56817385532
 20
-16529.28083482898
 30
0.0000000000000014
 10
18545.75895182891
 20
-16529.28083482898
 30
0.0000000000000014
 10
18545.75895182891
 20
-16529.28083482898
 30
0.0000000000000014
 10
18545.75895182891
 20
-16529.28083482898
 30
0.0000000000000014
 10
18545.38139116326
 20
-16529.59551281427
 30
0.0000000000000014
 10
18545.38139116326
 20
-16530.16189790999
 30
0.0000000000000014
  0
POLYLINE
  5
3A7885
330
18
100
AcDbEntity
  8
姿図
 62
     8
100
AcDb2dPolyline
 66
     1
 10
0.0
 20
0.0
 30
0.0000000000000014
  0
VERTEX
  5
3A7886
330
3A7885
100
AcDbEntity
  8
姿図
 62
     8
100
AcDbVertex
100
AcDb2dVertex
 10
18561.90560136562
 20
-16529.35950432531
 30
0.0000000000000014
  0
VERTEX
  5
3A7887
330
3A7885
100
AcDbEntity
  8
姿図
 62
     8
100
AcDbVertex
100
AcDb2dVertex
 10
18550.85677046841
 20
-16529.35950432531
 30
0.0000000000000014
  0
SEQEND
  5
3A7888
330
3A7885
100
AcDbEntity
  8
姿図
 62
     8
  0
POLYLINE
  5
3A7889
330
18
100
AcDbEntity
  8
姿図
 62
     8
100
AcDb2dPolyline
 66
     1
 10
0.0
 20
0.0
 30
0.0000000000000014
  0
VERTEX
  5
3A788A
330
3A7889
100
AcDbEntity
  8
姿図
 62
     8
100
AcDbVertex
100
AcDb2dVertex
 10
18564.9364936421
 20
-16529.28083482898
 30
0.0000000000000014
  0
VERTEX
  5
3A788B
330
3A7889
100
AcDbEntity
  8
姿図
 62
     8
100
AcDbVertex
100
AcDb2dVertex
 10
18563.84834986897
 20
-16529.33172305699
 30
0.0000000000000014
  0
SEQEND
  5
3A788C
330
3A7889
100
AcDbEntity
  8
姿図
 62
     8
  0
POLYLINE
  5
3A788D
330
18
100
AcDbEntity
  8
姿図
 62
     8
100
AcDb2dPolyline
 66
     1
 10
0.0
 20
0.0
 30
0.0000000000000014
  0
VERTEX
  5
3A788E
330
3A788D
100
AcDbEntity
  8
姿図
 62
     8
100
AcDbVertex
100
AcDb2dVertex
 10
18564.9364936421
 20
-16528.96312106814
 30
0.0000000000000014
  0
VERTEX
  5
3A788F
330
3A788D
100
AcDbEntity
  8
姿図
 62
     8
100
AcDbVertex
100
AcDb2dVertex
 10
18564.9364936421
 20
-16528.96312106814
 30
0.0000000000000014
  0
SEQEND
  5
3A7890
330
3A788D
100
AcDbEntity
  8
姿図
 62
     8
  0
POLYLINE
  5
3A7891
330
18
100
AcDbEntity
  8
姿図
 62
     8
100
AcDb2dPolyline
 66
     1
 10
0.0
 20
0.0
 30
0.0000000000000014
  0
VERTEX
  5
3A7892
330
3A7891
100
AcDbEntity
  8
姿図
 62
     8
100
AcDbVertex
100
AcDb2dVertex
 10
18547.56817385532
 20
-16528.96312106814
 30
0.0000000000000014
  0
VERTEX
  5
3A7893
330
3A7891
100
AcDbEntity
  8
姿図
 62
     8
100
AcDbVertex
100
AcDb2dVertex
 10
18547.56817385532
 20
-16528.96312106814
 30
0.0000000000000014
  0
SEQEND
  5
3A7894
330
3A7891
100
AcDbEntity
  8
姿図
 62
     8
  0
SPLINE
  5
3A7895
330
18
100
AcDbEntity
  8
姿図
 62
     8
100
AcDbSpline
210
0.0
220
0.0
230
1.0
 70
     8
 71
     3
 72
    17
 73
    13
 74
     0
 42
0.000000001
 43
0.0000000001
 40
0.0
 40
0.0
 40
0.0
 40
0.0
 40
1.0
 40
1.0
 40
1.0
 40
2.0
 40
2.0
 40
2.0
 40
3.0
 40
3.0
 40
3.0
 40
4.0
 40
4.0
 40
4.0
 40
4.0
 10
18567.75272049924
 20
-16528.8057820755
 30
0.0000000000000014
 10
18567.75272049924
 20
-16528.8057820755
 30
0.0000000000000014
 10
18568.38181188631
 20
-16528.91602520375
 30
0.0000000000000014
 10
18568.36611326485
 20
-16529.84418414915
 30
0.0000000000000014
 10
18568.36611326485
 20
-16529.84418414915
 30
0.0000000000000014
 10
18567.7684191207
 20
-16565.1158115755
 30
0.0000000000000014
 10
18567.7684191207
 20
-16565.1158115755
 30
0.0000000000000014
 10
18567.7684191207
 20
-16565.1158115755
 30
0.0000000000000014
 10
18567.57950649613
 20
-16567.25541020867
 30
0.0000000000000014
 10
18568.24025970964
 20
-16567.53851456202
 30
0.0000000000000014
 10
18568.24025970964
 20
-16567.53851456202
 30
0.0000000000000014
 10
18569.35054030292
 20
-16567.53851456202
 30
0.0000000000000014
 10
18569.35054030292
 20
-16567.53851456202
 30
0.0000000000000014
  0
POLYLINE
  5
3A7896
330
18
100
AcDbEntity
  8
姿図
 62
     8
100
AcDb2dPolyline
 66
     1
 10
0.0
 20
0.0
 30
0.0000000000000014
  0
VERTEX
  5
3A7897
330
3A7896
100
AcDbEntity
  8
姿図
 62
     8
100
AcDbVertex
100
AcDb2dVertex
 10
18568.41664871484
 20
-16565.24175332522
 30
0.0000000000000014
  0
VERTEX
  5
3A7898
330
3A7896
100
AcDbEntity
  8
姿図
 62
     8
100
AcDbVertex
100
AcDb2dVertex
 10
18569.12132279065
 20
-16529.84418414915
 30
0.0000000000000014
  0
SEQEND
  5
3A7899
330
3A7896
100
AcDbEntity
  8
姿図
 62
     8
  0
SPLINE
  5
3A789A
330
18
100
AcDbEntity
  8
姿図
 62
     8
100
AcDbSpline
210
0.0
220
0.0
230
1.0
 70
     8
 71
     3
 72
    14
 73
    10
 74
     0
 42
0.000000001
 43
0.0000000001
 40
0.0
 40
0.0
 40
0.0
 40
0.0
 40
1.0
 40
1.0
 40
1.0
 40
2.0
 40
2.0
 40
2.0
 40
3.0
 40
3.0
 40
3.0
 40
3.0
 10
18567.68966142988
 20
-16528.13947260832
 30
0.0000000000000014
 10
18567.68966142988
 20
-16528.13947260832
 30
0.0000000000000014
 10
18570.69444813359
 20
-16528.47258324466
 30
0.0000000000000014
 10
18570.69444813359
 20
-16528.47258324466
 30
0.0000000000000014
 10
18570.69444813359
 20
-16528.47258324466
 30
0.0000000000000014
 10
18571.70127657532
 20
-16528.8057820755
 30
0.0000000000000014
 10
18571.73285020725
 20
-16529.84418414915
 30
0.0000000000000014
 10
18571.73285020725
 20
-16529.84418414915
 30
0.0000000000000014
 10
18570.21661031849
 20
-16564.58893761694
 30
0.0000000000000014
 10
18570.21661031849
 20
-16564.58893761694
 30
0.0000000000000014
  0
POLYLINE
  5
3A789B
330
18
100
AcDbEntity
  8
姿図
 62
     8
100
AcDb2dPolyline
 66
     1
 10
0.0
 20
0.0
 30
0.0000000000000014
  0
VERTEX
  5
3A789C
330
3A789B
100
AcDbEntity
  8
姿図
 62
     8
100
AcDbVertex
100
AcDb2dVertex
 10
18564.9364936421
 20
-16529.28083482898
 30
0.0000000000000014
  0
VERTEX
  5
3A789D
330
3A789B
100
AcDbEntity
  8
姿図
 62
     8
100
AcDbVertex
100
AcDb2dVertex
 10
18568.04958319501
 20
-16529.28083482898
 30
0.0000000000000014
  0
SEQEND
  5
3A789E
330
3A789B
100
AcDbEntity
  8
姿図
 62
     8
  0
SPLINE
  5
3A789F
330
18
100
AcDbEntity
  8
姿図
 62
     8
100
AcDbSpline
210
0.0
220
0.0
230
1.0
 70
     8
 71
     3
 72
    11
 73
     7
 74
     0
 42
0.000000001
 43
0.0000000001
 40
0.0
 40
0.0
 40
0.0
 40
0.0
 40
1.0
 40
1.0
 40
1.0
 40
2.0
 40
2.0
 40
2.0
 40
2.0
 10
18549.44036675659
 20
-16525.93469823773
 30
0.0000000000000014
 10
18549.44036675659
 20
-16525.83477386629
 30
0.0000000000000014
 10
18549.63756966442
 20
-16525.75381131289
 30
0.0000000000000014
 10
18549.8808101026
 20
-16525.75381131289
 30
0.0000000000000014
 10
18550.12413873529
 20
-16525.75381131289
 30
0.0000000000000014
 10
18550.3213416431
 20
-16525.83477386629
 30
0.0000000000000014
 10
18550.3213416431
 20
-16525.93469823773
 30
0.0000000000000014
  0
POLYLINE
  5
3A78A0
330
18
100
AcDbEntity
  8
姿図
 62
     8
100
AcDb2dPolyline
 66
     1
 10
0.0
 20
0.0
 30
0.0000000000000014
  0
VERTEX
  5
3A78A1
330
3A78A0
100
AcDbEntity
  8
姿図
 62
     8
100
AcDbVertex
100
AcDb2dVertex
 10
18549.44036675659
 20
-16525.93469823773
 30
0.0000000000000014
  0
VERTEX
  5
3A78A2
330
3A78A0
100
AcDbEntity
  8
姿図
 62
     8
100
AcDbVertex
100
AcDb2dVertex
 10
18549.44036675659
 20
-16526.20995328036
 30
0.0000000000000014
  0
SEQEND
  5
3A78A3
330
3A78A0
100
AcDbEntity
  8
姿図
 62
     8
  0
POLYLINE
  5
3A78A4
330
18
100
AcDbEntity
  8
姿図
 62
     8
100
AcDb2dPolyline
 66
     1
 10
0.0
 20
0.0
 30
0.0000000000000014
  0
VERTEX
  5
3A78A5
330
3A78A4
100
AcDbEntity
  8
姿図
 62
     8
100
AcDbVertex
100
AcDb2dVertex
 10
18550.3213416431
 20
-16525.93469823773
 30
0.0000000000000014
  0
VERTEX
  5
3A78A6
330
3A78A4
100
AcDbEntity
  8
姿図
 62
     8
100
AcDbVertex
100
AcDb2dVertex
 10
18550.3213416431
 20
-16526.20995328036
 30
0.0000000000000014
  0
SEQEND
  5
3A78A7
330
3A78A4
100
AcDbEntity
  8
姿図
 62
     8
  0
SPLINE
  5
3A78A8
330
18
100
AcDbEntity
  8
姿図
 62
     8
100
AcDbSpline
210
0.0
220
0.0
230
1.0
 70
    11
 71
     3
 72
    17
 73
    13
 74
     0
 42
0.000000001
 43
0.0000000001
 40
0.0
 40
0.0
 40
0.0
 40
0.0
 40
1.0
 40
1.0
 40
1.0
 40
2.0
 40
2.0
 40
2.0
 40
3.0
 40
3.0
 40
3.0
 40
4.0
 40
4.0
 40
4.0
 40
4.0
 10
18550.7854211158
 20
-16529.48620266309
 30
0.0000000000000014
 10
18550.7854211158
 20
-16529.58401036647
 30
0.0000000000000014
 10
18550.38043195985
 20
-16529.66320902981
 30
0.0000000000000014
 10
18549.8808982971
 20
-16529.66320902981
 30
0.0000000000000014
 10
18549.38118824535
 20
-16529.66320902981
 30
0.0000000000000014
 10
18548.97628728389
 20
-16529.58401036647
 30
0.0000000000000014
 10
18548.97628728389
 20
-16529.48620266309
 30
0.0000000000000014
 10
18548.97628728389
 20
-16529.3884831542
 30
0.0000000000000014
 10
18549.38118824535
 20
-16529.30919629636
 30
0.0000000000000014
 10
18549.8808982971
 20
-16529.30919629636
 30
0.0000000000000014
 10
18550.38043195985
 20
-16529.30919629636
 30
0.0000000000000014
 10
18550.7854211158
 20
-16529.3884831542
 30
0.0000000000000014
 10
18550.7854211158
 20
-16529.48620266309
 30
0.0000000000000014
  0
SPLINE
  5
3A78A9
330
18
100
AcDbEntity
  8
姿図
 62
     8
100
AcDbSpline
210
0.0
220
0.0
230
1.0
 70
     8
 71
     3
 72
    11
 73
     7
 74
     0
 42
0.000000001
 43
0.0000000001
 40
0.0
 40
0.0
 40
0.0
 40
0.0
 40
1.0
 40
1.0
 40
1.0
 40
2.0
 40
2.0
 40
2.0
 40
2.0
 10
18548.93959837081
 20
-16528.95112661579
 30
0.0000000000000014
 10
18548.93959837081
 20
-16528.84935015978
 30
0.0000000000000014
 10
18549.36099170425
 20
-16528.76697649435
 30
0.0000000000000014
 10
18549.8808982971
 20
-16528.76697649435
 30
0.0000000000000014
 10
18550.40071669545
 20
-16528.76697649435
 30
0.0000000000000014
 10
18550.82202183438
 20
-16528.84935015978
 30
0.0000000000000014
 10
18550.82202183438
 20
-16528.95112661579
 30
0.0000000000000014
  0
SPLINE
  5
3A78AA
330
18
100
AcDbEntity
  8
姿図
 62
     8
100
AcDbSpline
210
0.0
220
0.0
230
1.0
 70
     8
 71
     3
 72
     8
 73
     4
 74
     0
 42
0.000000001
 43
0.0000000001
 40
0.0
 40
0.0
 40
0.0
 40
0.0
 40
1.0
 40
1.0
 40
1.0
 40
1.0
 10
18548.97628728389
 20
-16529.48620266309
 30
0.0000000000000014
 10
18548.97628728389
 20
-16529.48620266309
 30
0.0000000000000014
 10
18548.72202253289
 20
-16529.19075107936
 30
0.0000000000000014
 10
18548.93959837081
 20
-16528.95112661579
 30
0.0000000000000014
  0
SPLINE
  5
3A78AB
330
18
100
AcDbEntity
  8
姿図
 62
     8
100
AcDbSpline
210
0.0
220
0.0
230
1.0
 70
     8
 71
     3
 72
     8
 73
     4
 74
     0
 42
0.000000001
 43
0.0000000001
 40
0.0
 40
0.0
 40
0.0
 40
0.0
 40
1.0
 40
1.0
 40
1.0
 40
1.0
 10
18550.75966832104
 20
-16529.48620266309
 30
0.0000000000000014
 10
18550.75966832104
 20
-16529.48620266309
 30
0.0000000000000014
 10
18551.01393307205
 20
-16529.19075107936
 30
0.0000000000000014
 10
18550.79635723413
 20
-16528.95112661579
 30
0.0000000000000014
  0
SPLINE
  5
3A78AC
330
18
100
AcDbEntity
  8
姿図
 62
     8
100
AcDbSpline
210
0.0
220
0.0
230
1.0
 70
     8
 71
     3
 72
    11
 73
     7
 74
     0
 42
0.000000001
 43
0.0000000001
 40
0.0
 40
0.0
 40
0.0
 40
0.0
 40
1.0
 40
1.0
 40
1.0
 40
2.0
 40
2.0
 40
2.0
 40
2.0
 10
18562.46651840217
 20
-16525.93469823773
 30
0.0000000000000014
 10
18562.46651840217
 20
-16525.83477386629
 30
0.0000000000000014
 10
18562.6638095045
 20
-16525.75381131289
 30
0.0000000000000014
 10
18562.90704994268
 20
-16525.75381131289
 30
0.0000000000000014
 10
18563.15037857537
 20
-16525.75381131289
 30
0.0000000000000014
 10
18563.34758148318
 20
-16525.83477386629
 30
0.0000000000000014
 10
18563.34758148318
 20
-16525.93469823773
 30
0.0000000000000014
  0
POLYLINE
  5
3A78AD
330
18
100
AcDbEntity
  8
姿図
 62
     8
100
AcDb2dPolyline
 66
     1
 10
0.0
 20
0.0
 30
0.0000000000000014
  0
VERTEX
  5
3A78AE
330
3A78AD
100
AcDbEntity
  8
姿図
 62
     8
100
AcDbVertex
100
AcDb2dVertex
 10
18562.46651840217
 20
-16525.93469823773
 30
0.0000000000000014
  0
VERTEX
  5
3A78AF
330
3A78AD
100
AcDbEntity
  8
姿図
 62
     8
100
AcDbVertex
100
AcDb2dVertex
 10
18562.46651840217
 20
-16526.20995328036
 30
0.0000000000000014
  0
SEQEND
  5
3A78B0
330
3A78AD
100
AcDbEntity
  8
姿図
 62
     8
  0
POLYLINE
  5
3A78B1
330
18
100
AcDbEntity
  8
姿図
 62
     8
100
AcDb2dPolyline
 66
     1
 10
0.0
 20
0.0
 30
0.0000000000000014
  0
VERTEX
  5
3A78B2
330
3A78B1
100
AcDbEntity
  8
姿図
 62
     8
100
AcDbVertex
100
AcDb2dVertex
 10
18563.34758148318
 20
-16525.93469823773
 30
0.0000000000000014
  0
VERTEX
  5
3A78B3
330
3A78B1
100
AcDbEntity
  8
姿図
 62
     8
100
AcDbVertex
100
AcDb2dVertex
 10
18563.34758148318
 20
-16526.28236096699
 30
0.0000000000000014
  0
SEQEND
  5
3A78B4
330
3A78B1
100
AcDbEntity
  8
姿図
 62
     8
  0
SPLINE
  5
3A78B5
330
18
100
AcDbEntity
  8
姿図
 62
     8
100
AcDbSpline
210
0.0
220
0.0
230
1.0
 70
    11
 71
     3
 72
    17
 73
    13
 74
     0
 42
0.000000001
 43
0.0000000001
 40
0.0
 40
0.0
 40
0.0
 40
0.0
 40
1.0
 40
1.0
 40
1.0
 40
2.0
 40
2.0
 40
2.0
 40
3.0
 40
3.0
 40
3.0
 40
4.0
 40
4.0
 40
4.0
 40
4.0
 10
18563.81166095589
 20
-16529.48620266309
 30
0.0000000000000014
 10
18563.81166095589
 20
-16529.58401036647
 30
0.0000000000000014
 10
18563.40667179993
 20
-16529.66320902981
 30
0.0000000000000014
 10
18562.90722633168
 20
-16529.66320902981
 30
0.0000000000000014
 10
18562.40751627993
 20
-16529.66320902981
 30
0.0000000000000014
 10
18562.00252712398
 20
-16529.58401036647
 30
0.0000000000000014
 10
18562.00252712398
 20
-16529.48620266309
 30
0.0000000000000014
 10
18562.00252712398
 20
-16529.3884831542
 30
0.0000000000000014
 10
18562.40751627993
 20
-16529.30919629636
 30
0.0000000000000014
 10
18562.90722633168
 20
-16529.30919629636
 30
0.0000000000000014
 10
18563.40667179993
 20
-16529.30919629636
 30
0.0000000000000014
 10
18563.81166095589
 20
-16529.3884831542
 30
0.0000000000000014
 10
18563.81166095589
 20
-16529.48620266309
 30
0.0000000000000014
  0
SPLINE
  5
3A78B6
330
18
100
AcDbEntity
  8
姿図
 62
     8
100
AcDbSpline
210
0.0
220
0.0
230
1.0
 70
     8
 71
     3
 72
    11
 73
     7
 74
     0
 42
0.000000001
 43
0.0000000001
 40
0.0
 40
0.0
 40
0.0
 40
0.0
 40
1.0
 40
1.0
 40
1.0
 40
2.0
 40
2.0
 40
2.0
 40
2.0
 10
18561.96583821089
 20
-16528.95112661579
 30
0.0000000000000014
 10
18561.96583821089
 20
-16528.84935015978
 30
0.0000000000000014
 10
18562.38723154433
 20
-16528.76697649435
 30
0.0000000000000014
 10
18562.90722633168
 20
-16528.76697649435
 30
0.0000000000000014
 10
18563.42704473003
 20
-16528.76697649435
 30
0.0000000000000014
 10
18563.84834986897
 20
-16528.84935015978
 30
0.0000000000000014
 10
18563.84834986897
 20
-16528.95112661579
 30
0.0000000000000014
  0
SPLINE
  5
3A78B7
330
18
100
AcDbEntity
  8
姿図
 62
     8
100
AcDbSpline
210
0.0
220
0.0
230
1.0
 70
     8
 71
     3
 72
     8
 73
     4
 74
     0
 42
0.000000001
 43
0.0000000001
 40
0.0
 40
0.0
 40
0.0
 40
0.0
 40
1.0
 40
1.0
 40
1.0
 40
1.0
 10
18562.00252712398
 20
-16529.48620266309
 30
0.0000000000000014
 10
18562.00252712398
 20
-16529.48620266309
 30
0.0000000000000014
 10
18561.74826237297
 20
-16529.19075107936
 30
0.0000000000000014
 10
18561.96583821089
 20
-16528.95112661579
 30
0.0000000000000014
  0
SPLINE
  5
3A78B8
330
18
100
AcDbEntity
  8
姿図
 62
     8
100
AcDbSpline
210
0.0
220
0.0
230
1.0
 70
     8
 71
     3
 72
     8
 73
     4
 74
     0
 42
0.000000001
 43
0.0000000001
 40
0.0
 40
0.0
 40
0.0
 40
0.0
 40
1.0
 40
1.0
 40
1.0
 40
1.0
 10
18563.78590816113
 20
-16529.48620266309
 30
0.0000000000000014
 10
18563.78590816113
 20
-16529.48620266309
 30
0.0000000000000014
 10
18564.04017291214
 20
-16529.19075107936
 30
0.0000000000000014
 10
18563.82259707421
 20
-16528.95112661579
 30
0.0000000000000014
  0
POLYLINE
  5
3A78B9
330
18
100
AcDbEntity
  8
姿図
 62
     8
100
AcDb2dPolyline
 66
     1
 10
0.0
 20
0.0
 30
0.0000000000000014
  0
VERTEX
  5
3A78BA
330
3A78B9
100
AcDbEntity
  8
姿図
 62
     8
100
AcDbVertex
100
AcDb2dVertex
 10
18545.38139116326
 20
-16529.84418414915
 30
0.0000000000000014
  0
VERTEX
  5
3A78BB
330
3A78B9
100
AcDbEntity
  8
姿図
 62
     8
100
AcDbVertex
100
AcDb2dVertex
 10
18544.77277435646
 20
-16555.03166509687
 30
0.0000000000000014
  0
SEQEND
  5
3A78BC
330
3A78B9
100
AcDbEntity
  8
姿図
 62
     8
  0
POLYLINE
  5
3A78BD
330
18
100
AcDbEntity
  8
姿図
 62
     8
100
AcDb2dPolyline
 66
     1
 10
0.0
 20
0.0
 30
0.0000000000000014
  0
VERTEX
  5
3A78BE
330
3A78BD
100
AcDbEntity
  8
姿図
 62
     8
100
AcDbVertex
100
AcDb2dVertex
 10
18542.14059597058
 20
-16529.84418414915
 30
0.0000000000000014
  0
VERTEX
  5
3A78BF
330
3A78BD
100
AcDbEntity
  8
姿図
 62
     8
100
AcDbVertex
100
AcDb2dVertex
 10
18542.43948713991
 20
-16557.24233555005
 30
0.0000000000000014
  0
SEQEND
  5
3A78C0
330
3A78BD
100
AcDbEntity
  8
姿図
 62
     8
  0
POLYLINE
  5
3A78C1
330
18
100
AcDbEntity
  8
姿図
 62
     8
100
AcDb2dPolyline
 66
     1
 10
0.0
 20
0.0
 30
0.0000000000000014
  0
VERTEX
  5
3A78C2
330
3A78C1
100
AcDbEntity
  8
姿図
 62
     8
100
AcDbVertex
100
AcDb2dVertex
 10
18541.62139493375
 20
-16529.84418414915
 30
0.0000000000000014
  0
VERTEX
  5
3A78C3
330
3A78C1
100
AcDbEntity
  8
姿図
 62
     8
100
AcDbVertex
100
AcDb2dVertex
 10
18541.93502232754
 20
-16557.76177012989
 30
0.0000000000000014
  0
SEQEND
  5
3A78C4
330
3A78C1
100
AcDbEntity
  8
姿図
 62
     8
  0
SPLINE
  5
3A78C5
330
18
100
AcDbEntity
  8
姿図
100
AcDbSpline
210
0.0
220
0.0
230
1.0
 70
     8
 71
     3
 72
     8
 73
     4
 74
     0
 42
0.000000001
 43
0.0000000001
 40
0.0
 40
0.0
 40
0.0
 40
0.0
 40
1.0
 40
1.0
 40
1.0
 40
1.0
 10
18570.13229637399
 20
-16566.65639314698
 30
0.0000000000000014
 10
18569.96543237507
 20
-16567.18767683067
 30
0.0000000000000014
 10
18569.67774190757
 20
-16567.53851456202
 30
0.0000000000000014
 10
18569.35054030292
 20
-16567.53851456202
 30
0.0000000000000014
  0
SPLINE
  5
3A78C6
330
18
100
AcDbEntity
  8
姿図
100
AcDbSpline
210
0.0
220
0.0
230
1.0
 70
     8
 71
     3
 72
    14
 73
    10
 74
     0
 42
0.000000001
 43
0.0000000001
 40
0.0
 40
0.0
 40
0.0
 40
0.0
 40
1.0
 40
1.0
 40
1.0
 40
2.0
 40
2.0
 40
2.0
 40
3.0
 40
3.0
 40
3.0
 40
3.0
 10
18569.35054030292
 20
-16567.53851456202
 30
0.0000000000000014
 10
18568.83477885169
 20
-16567.53851456202
 30
0.0000000000000014
 10
18568.41664871484
 20
-16566.66521259725
 30
0.0000000000000014
 10
18568.41664871484
 20
-16565.58782855343
 30
0.0000000000000014
 10
18568.41664871484
 20
-16564.51044450963
 30
0.0000000000000014
 10
18568.83477885169
 20
-16563.63696615584
 30
0.0000000000000014
 10
18569.35054030292
 20
-16563.63696615584
 30
0.0000000000000014
 10
18569.67306759894
 20
-16563.63696615584
 30
0.0000000000000014
 10
18569.95731848083
 20
-16563.97810249191
 30
0.0000000000000014
 10
18570.12524081379
 20
-16564.49703894523
 30
0.0000000000000014
  0
SPLINE
  5
3A78C7
330
18
100
AcDbEntity
  8
姿図
100
AcDbSpline
210
0.0
220
0.0
230
1.0
 70
     8
 71
     3
 72
    14
 73
    10
 74
     0
 42
0.000000001
 43
0.0000000001
 40
0.0
 40
0.0
 40
0.0
 40
0.0
 40
1.0
 40
1.0
 40
1.0
 40
2.0
 40
2.0
 40
2.0
 40
3.0
 40
3.0
 40
3.0
 40
3.0
 10
18569.46739801887
 20
-16566.73012375116
 30
0.0000000000000014
 10
18569.16533184745
 20
-16566.73012375116
 30
0.0000000000000014
 10
18568.92041571371
 20
-16566.21859563606
 30
0.0000000000000014
 10
18568.92041571371
 20
-16565.58782855343
 30
0.0000000000000014
 10
18568.92041571371
 20
-16564.95688508181
 30
0.0000000000000014
 10
18569.16533184745
 20
-16564.44535696671
 30
0.0000000000000014
 10
18569.46739801887
 20
-16564.44535696671
 30
0.0000000000000014
 10
18569.46739801887
 20
-16564.44535696671
 30
0.0000000000000014
 10
18569.64890230522
 20
-16564.37109719552
 30
0.0000000000000014
 10
18570.01438032401
 20
-16564.48380976984
 30
0.0000000000000014
  0
SPLINE
  5
3A78C8
330
18
100
AcDbEntity
  8
姿図
100
AcDbSpline
210
0.0
220
0.0
230
1.0
 70
    11
 71
     3
 72
    17
 73
    13
 74
     0
 42
0.000000001
 43
0.0000000001
 40
0.0
 40
0.0
 40
0.0
 40
0.0
 40
1.0
 40
1.0
 40
1.0
 40
2.0
 40
2.0
 40
2.0
 40
3.0
 40
3.0
 40
3.0
 40
4.0
 40
4.0
 40
4.0
 40
4.0
 10
18570.01438032401
 20
-16566.69149455902
 30
0.0000000000000014
 10
18569.75085515023
 20
-16566.69149455902
 30
0.0000000000000014
 10
18569.53715987042
 20
-16566.19725256643
 30
0.0000000000000014
 10
18569.53715987042
 20
-16565.58765216443
 30
0.0000000000000014
 10
18569.53715987042
 20
-16564.97805176243
 30
0.0000000000000014
 10
18569.75085515023
 20
-16564.48380976984
 30
0.0000000000000014
 10
18570.01438032401
 20
-16564.48380976984
 30
0.0000000000000014
 10
18570.27781730329
 20
-16564.48380976984
 30
0.0000000000000014
 10
18570.4915125831
 20
-16564.97805176243
 30
0.0000000000000014
 10
18570.4915125831
 20
-16565.58765216443
 30
0.0000000000000014
 10
18570.4915125831
 20
-16566.19725256643
 30
0.0000000000000014
 10
18570.27781730329
 20
-16566.69149455902
 30
0.0000000000000014
 10
18570.01438032401
 20
-16566.69149455902
 30
0.0000000000000014
  0
SPLINE
  5
3A78C9
330
18
100
AcDbEntity
  8
姿図
100
AcDbSpline
210
0.0
220
0.0
230
1.0
 70
     8
 71
     3
 72
     8
 73
     4
 74
     0
 42
0.000000001
 43
0.0000000001
 40
0.0
 40
0.0
 40
0.0
 40
0.0
 40
1.0
 40
1.0
 40
1.0
 40
1.0
 10
18569.46739801887
 20
-16566.73012375116
 30
0.0000000000000014
 10
18569.46739801887
 20
-16566.73012375116
 30
0.0000000000000014
 10
18569.64890230522
 20
-16566.80420713335
 30
0.0000000000000014
 10
18570.01438032401
 20
-16566.69149455902
 30
0.0000000000000014
  0
SPLINE
  5
3A78CA
330
18
100
AcDbEntity
  8
姿図
100
AcDbSpline
210
0.0
220
0.0
230
1.0
 70
     8
 71
     3
 72
    11
 73
     7
 74
     0
 42
0.000000001
 43
0.0000000001
 40
0.0
 40
0.0
 40
0.0
 40
0.0
 40
1.0
 40
1.0
 40
1.0
 40
2.0
 40
2.0
 40
2.0
 40
2.0
 10
18539.88740281806
 20
-16561.24230902114
 30
0.0000000000000014
 10
18540.1057724065
 20
-16560.30418409695
 30
0.0000000000000014
 10
18540.51340739754
 20
-16559.45151964577
 30
0.0000000000000014
 10
18541.12265502153
 20
-16558.72276847075
 30
0.0000000000000014
 10
18542.25251479438
 20
-16557.37127591285
 30
0.0000000000000014
 10
18543.92485895276
 20
-16556.62700250538
 30
0.0000000000000014
 10
18545.8061358878
 20
-16556.41612944965
 30
0.0000000000000014
  0
SPLINE
  5
3A78CB
330
18
100
AcDbEntity
  8
姿図
100
AcDbSpline
210
0.0
220
0.0
230
1.0
 70
     8
 71
     3
 72
    11
 73
     7
 74
     0
 42
0.000000001
 43
0.0000000001
 40
0.0
 40
0.0
 40
0.0
 40
0.0
 40
1.0
 40
1.0
 40
1.0
 40
2.0
 40
2.0
 40
2.0
 40
2.0
 10
18564.5573454754
 20
-16571.92936606866
 30
0.0000000000000014
 10
18564.77174631123
 20
-16573.94725628824
 30
0.0000000000000014
 10
18564.34250366706
 20
-16575.78117277538
 30
0.0000000000000014
 10
18563.18389248636
 20
-16577.1672375783
 30
0.0000000000000014
 10
18562.58672750922
 20
-16577.88143666039
 30
0.0000000000000014
 10
18561.83804437662
 20
-16578.42612590847
 30
0.0000000000000014
 10
18560.97567853016
 20
-16578.80642060369
 30
0.0000000000000014
  0
SPLINE
  5
3A78CC
330
18
100
AcDbEntity
  8
姿図
100
AcDbSpline
210
0.0
220
0.0
230
1.0
 70
     8
 71
     3
 72
    11
 73
     7
 74
     0
 42
0.000000001
 43
0.0000000001
 40
0.0
 40
0.0
 40
0.0
 40
0.0
 40
1.0
 40
1.0
 40
1.0
 40
2.0
 40
2.0
 40
2.0
 40
2.0
 10
18549.68722316939
 20
-16556.76132273285
 30
0.0000000000000014
 10
18552.36648396398
 20
-16557.40699468641
 30
0.0000000000000014
 10
18555.26102753944
 20
-16558.79094282127
 30
0.0000000000000014
 10
18557.93649597043
 20
-16561.0277317963
 30
0.0000000000000014
 10
18560.46441499857
 20
-16563.14131305121
 30
0.0000000000000014
 10
18562.34789679617
 20
-16565.62187163144
 30
0.0000000000000014
 10
18563.45835377846
 20
-16568.07403158184
 30
0.0000000000000014
  0
SPLINE
  5
3A78CD
330
18
100
AcDbEntity
  8
姿図
100
AcDbSpline
210
0.0
220
0.0
230
1.0
 70
     8
 71
     3
 72
     8
 73
     4
 74
     0
 42
0.000000001
 43
0.0000000001
 40
0.0
 40
0.0
 40
0.0
 40
0.0
 40
1.0
 40
1.0
 40
1.0
 40
1.0
 10
18571.42690347772
 20
-16561.64676901008
 30
0.0000000000000014
 10
18571.50045769289
 20
-16563.18029502136
 30
0.0000000000000014
 10
18571.19521651938
 20
-16564.624744585
 30
0.0000000000000014
 10
18570.47731326818
 20
-16565.85311761727
 30
0.0000000000000014
  0
SPLINE
  5
3A78CE
330
18
100
AcDbEntity
  8
姿図
100
AcDbSpline
210
0.0
220
0.0
230
1.0
 70
     8
 71
     3
 72
    11
 73
     7
 74
     0
 42
0.000000001
 43
0.0000000001
 40
0.0
 40
0.0
 40
0.0
 40
0.0
 40
1.0
 40
1.0
 40
1.0
 40
2.0
 40
2.0
 40
2.0
 40
2.0
 10
18558.76455415538
 20
-16548.0854531227
 30
0.0000000000000014
 10
18561.14263072359
 20
-16548.57934233728
 30
0.0000000000000014
 10
18563.62601152791
 20
-16549.76908617741
 30
0.0000000000000014
 10
18565.84586715844
 20
-16551.6247867067
 30
0.0000000000000014
 10
18566.62806420204
 20
-16552.27883713801
 30
0.0000000000000014
 10
18567.3347667514
 20
-16552.9797188502
 30
0.0000000000000014
 10
18567.96156508141
 20
-16553.71182141631
 30
0.0000000000000014
  0
SPLINE
  5
3A78CF
330
18
100
AcDbEntity
  8
姿図
100
AcDbSpline
210
0.0
220
0.0
230
1.0
 70
     8
 71
     3
 72
     8
 73
     4
 74
     0
 42
0.000000001
 43
0.0000000001
 40
0.0
 40
0.0
 40
0.0
 40
0.0
 40
1.0
 40
1.0
 40
1.0
 40
1.0
 10
18550.99691153305
 20
-16549.60901315518
 30
0.0000000000000014
 10
18552.03575457922
 20
-16548.71242784171
 30
0.0000000000000014
 10
18553.34112141226
 20
-16548.15777261484
 30
0.0000000000000014
 10
18554.7955369547
 20
-16547.93561066278
 30
0.0000000000000014
  0
SPLINE
  5
3A78D0
330
18
100
AcDbEntity
  8
姿図
100
AcDbSpline
210
0.0
220
0.0
230
1.0
 70
     8
 71
     3
 72
     8
 73
     4
 74
     0
 42
0.000000001
 43
0.0000000001
 40
0.0
 40
0.0
 40
0.0
 40
0.0
 40
1.0
 40
1.0
 40
1.0
 40
1.0
 10
18550.99779347808
 20
-16549.6094541277
 30
0.0000000000000014
 10
18550.99779347808
 20
-16549.6094541277
 30
0.0000000000000014
 10
18542.44892395168
 20
-16556.7663498195
 30
0.0000000000000014
 10
18541.12265502153
 20
-16558.72276847075
 30
0.0000000000000014
  0
SPLINE
  5
3A78D1
330
18
100
AcDbEntity
  8
姿図
100
AcDbSpline
210
0.0
220
0.0
230
1.0
 70
     8
 71
     3
 72
     8
 73
     4
 74
     0
 42
0.000000001
 43
0.0000000001
 40
0.0
 40
0.0
 40
0.0
 40
0.0
 40
1.0
 40
1.0
 40
1.0
 40
1.0
 10
18569.54218695707
 20
-16567.49706314581
 30
0.0000000000000014
 10
18568.33259935386
 20
-16569.54529227427
 30
0.0000000000000014
 10
18565.08466040647
 20
-16574.94597083572
 30
0.0000000000000014
 10
18563.18389248636
 20
-16577.1672375783
 30
0.0000000000000014
  0
SPLINE
  5
3A78D2
330
18
100
AcDbEntity
  8
姿図
100
AcDbSpline
210
0.0
220
0.0
230
1.0
 70
     8
 71
     3
 72
    11
 73
     7
 74
     0
 42
0.000000001
 43
0.0000000001
 40
0.0
 40
0.0
 40
0.0
 40
0.0
 40
1.0
 40
1.0
 40
1.0
 40
2.0
 40
2.0
 40
2.0
 40
2.0
 10
18540.56702965512
 20
-16561.18374787141
 30
0.0000000000000014
 10
18540.79016174671
 20
-16560.53922244638
 30
0.0000000000000014
 10
18541.1184216854
 20
-16559.94673177789
 30
0.0000000000000014
 10
18541.55718933586
 20
-16559.4219744874
 30
0.0000000000000014
 10
18542.52247816685
 20
-16558.26724386481
 30
0.0000000000000014
 10
18543.90554435669
 20
-16557.58056146753
 30
0.0000000000000014
 10
18545.52902876062
 20
-16557.33749741835
 30
0.0000000000000014
  0
SPLINE
  5
3A78D3
330
18
100
AcDbEntity
  8
姿図
100
AcDbSpline
210
0.0
220
0.0
230
1.0
 70
     8
 71
     3
 72
    11
 73
     7
 74
     0
 42
0.000000001
 43
0.0000000001
 40
0.0
 40
0.0
 40
0.0
 40
0.0
 40
1.0
 40
1.0
 40
1.0
 40
2.0
 40
2.0
 40
2.0
 40
2.0
 10
18563.79931372553
 20
-16572.59646928636
 30
0.0000000000000014
 10
18563.85099570405
 20
-16574.24394259499
 30
0.0000000000000014
 10
18563.42060653134
 20
-16575.73301857696
 30
0.0000000000000014
 10
18562.45205450374
 20
-16576.89136517416
 30
0.0000000000000014
 10
18562.01849032895
 20
-16577.40994884947
 30
0.0000000000000014
 10
18561.50070040416
 20
-16577.83416440699
 30
0.0000000000000014
 10
18560.91464793436
 20
-16578.16612851479
 30
0.0000000000000014
  0
SPLINE
  5
3A78D4
330
18
100
AcDbEntity
  8
姿図
100
AcDbSpline
210
0.0
220
0.0
230
1.0
 70
     8
 71
     3
 72
     8
 73
     4
 74
     0
 42
0.000000001
 43
0.0000000001
 40
0.0
 40
0.0
 40
0.0
 40
0.0
 40
1.0
 40
1.0
 40
1.0
 40
1.0
 10
18562.06540980433
 20
-16567.57873125521
 30
0.0000000000000014
 10
18562.15536819699
 20
-16567.74365497509
 30
0.0000000000000014
 10
18562.24126964252
 20
-16567.90893147296
 30
0.0000000000000014
 10
18562.32311414094
 20
-16568.07385519283
 30
0.0000000000000014
  0
SPLINE
  5
3A78D5
330
18
100
AcDbEntity
  8
姿図
100
AcDbSpline
210
0.0
220
0.0
230
1.0
 70
     8
 71
     3
 72
    17
 73
    13
 74
     0
 42
0.000000001
 43
0.0000000001
 40
0.0
 40
0.0
 40
0.0
 40
0.0
 40
1.0
 40
1.0
 40
1.0
 40
2.0
 40
2.0
 40
2.0
 40
3.0
 40
3.0
 40
3.0
 40
4.0
 40
4.0
 40
4.0
 40
4.0
 10
18549.44448569569
 20
-16557.76498514582
 30
0.0000000000000014
 10
18549.83618368428
 20
-16557.84973108948
 30
0.0000000000000014
 10
18550.31393330489
 20
-16557.97840686878
 30
0.0000000000000014
 10
18550.7955634836
 20
-16558.13336460985
 30
0.0000000000000014
 10
18550.7955634836
 20
-16558.13336460985
 30
0.0000000000000014
 10
18550.94328927547
 20
-16557.9147304379
 30
0.0000000000000014
 10
18550.94328927547
 20
-16557.9147304379
 30
0.0000000000000014
 10
18553.12839627198
 20
-16558.61746423465
 30
0.0000000000000014
 10
18555.39420123837
 20
-16559.85941922031
 30
0.0000000000000014
 10
18557.48211789301
 20
-16561.60496481584
 30
0.0000000000000014
 10
18559.51958729217
 20
-16563.30817705013
 30
0.0000000000000014
 10
18561.11484945527
 20
-16565.26344917286
 30
0.0000000000000014
 10
18562.19329183311
 20
-16567.2395351982
 30
0.0000000000000014
  0
SPLINE
  5
3A78D6
330
18
100
AcDbEntity
  8
姿図
100
AcDbSpline
210
0.0
220
0.0
230
1.0
 70
     8
 71
     3
 72
     8
 73
     4
 74
     0
 42
0.000000001
 43
0.0000000001
 40
0.0
 40
0.0
 40
0.0
 40
0.0
 40
1.0
 40
1.0
 40
1.0
 40
1.0
 10
18549.68722316939
 20
-16556.76132273285
 30
0.0000000000000014
 10
18549.68722316939
 20
-16556.76132273285
 30
0.0000000000000014
 10
18558.62132628315
 20
-16548.0550260193
 30
0.0000000000000014
 10
18558.76455415538
 20
-16548.08571770621
 30
0.0000000000000014
  0
SPLINE
  5
3A78D7
330
18
100
AcDbEntity
  8
姿図
100
AcDbSpline
210
0.0
220
0.0
230
1.0
 70
     8
 71
     3
 72
    14
 73
    10
 74
     0
 42
0.000000001
 43
0.0000000001
 40
0.0
 40
0.0
 40
0.0
 40
0.0
 40
1.0
 40
1.0
 40
1.0
 40
2.0
 40
2.0
 40
2.0
 40
3.0
 40
3.0
 40
3.0
 40
3.0
 10
18549.68722316939
 20
-16556.76132273285
 30
0.0000000000000014
 10
18549.68722316939
 20
-16556.76132273285
 30
0.0000000000000014
 10
18549.86908023375
 20
-16557.61090037643
 30
0.0000000000000014
 10
18549.86908023375
 20
-16557.61090037643
 30
0.0000000000000014
 10
18549.50633624454
 20
-16557.51609128613
 30
0.0000000000000014
 10
18546.14048124717
 20
-16559.95449289412
 30
0.0000000000000014
 10
18544.49468363408
 20
-16561.16575619288
 30
0.0000000000000014
 10
18544.49468363408
 20
-16561.16575619288
 30
0.0000000000000014
 10
18544.20029038439
 20
-16561.49163488
 30
0.0000000000000014
 10
18544.49468363408
 20
-16561.56254326009
 30
0.0000000000000014
  0
POLYLINE
  5
3A78D8
330
18
100
AcDbEntity
  8
姿図
100
AcDb2dPolyline
 66
     1
 10
0.0
 20
0.0
 30
0.0000000000000014
  0
VERTEX
  5
3A78D9
330
3A78D8
100
AcDbEntity
  8
姿図
100
AcDbVertex
100
AcDb2dVertex
 10
18545.8061358878
 20
-16556.41612944965
 30
0.0000000000000014
  0
VERTEX
  5
3A78DA
330
3A78D8
100
AcDbEntity
  8
姿図
100
AcDbVertex
100
AcDb2dVertex
 10
18545.92678596736
 20
-16556.99239232967
 30
0.0000000000000014
  0
SEQEND
  5
3A78DB
330
3A78D8
100
AcDbEntity
  8
姿図
  0
POLYLINE
  5
3A78DC
330
18
100
AcDbEntity
  8
姿図
100
AcDb2dPolyline
 66
     1
 10
0.0
 20
0.0
 30
0.0000000000000014
  0
VERTEX
  5
3A78DD
330
3A78DC
100
AcDbEntity
  8
姿図
100
AcDbVertex
100
AcDb2dVertex
 10
18555.23509835568
 20
-16548.30761507476
 30
0.0000000000000014
  0
VERTEX
  5
3A78DE
330
3A78DC
100
AcDbEntity
  8
姿図
100
AcDbVertex
100
AcDb2dVertex
 10
18554.7955369547
 20
-16547.93605163529
 30
0.0000000000000014
  0
VERTEX
  5
3A78DF
330
3A78DC
100
AcDbEntity
  8
姿図
100
AcDbVertex
100
AcDb2dVertex
 10
18545.8061358878
 20
-16556.41612944965
 30
0.0000000000000014
  0
SEQEND
  5
3A78E0
330
3A78DC
100
AcDbEntity
  8
姿図
  0
SPLINE
  5
3A78E1
330
18
100
AcDbEntity
  8
姿図
100
AcDbSpline
210
0.0
220
0.0
230
1.0
 70
     8
 71
     3
 72
    17
 73
    13
 74
     0
 42
0.000000001
 43
0.0000000001
 40
0.0
 40
0.0
 40
0.0
 40
0.0
 40
1.0
 40
1.0
 40
1.0
 40
2.0
 40
2.0
 40
2.0
 40
3.0
 40
3.0
 40
3.0
 40
4.0
 40
4.0
 40
4.0
 40
4.0
 10
18541.10678001106
 20
-16561.1733409201
 30
0.0000000000000014
 10
18541.41872396677
 20
-16561.0784436353
 30
0.0000000000000014
 10
18541.78067420545
 20
-16560.8955282369
 30
0.0000000000000014
 10
18542.14059597058
 20
-16560.5534217613
 30
0.0000000000000014
 10
18542.14059597058
 20
-16560.5534217613
 30
0.0000000000000014
 10
18554.80497376648
 20
-16548.6239687556
 30
0.0000000000000014
 10
18555.78031677078
 20
-16547.82378003348
 30
0.0000000000000014
 10
18555.78031677078
 20
-16547.82378003348
 30
0.0000000000000014
 10
18556.12639199899
 20
-16547.54296873719
 30
0.0000000000000014
 10
18556.66137985179
 20
-16547.54296873719
 30
0.0000000000000014
 10
18557.19627951008
 20
-16547.54296873719
 30
0.0000000000000014
 10
18558.19411211253
 20
-16547.93666899681
 30
0.0000000000000014
 10
18558.46601576406
 20
-16548.32975189491
 30
0.0000000000000014
  0
POLYLINE
  5
3A78E2
330
18
100
AcDbEntity
  8
姿図
100
AcDb2dPolyline
 66
     1
 10
0.0
 20
0.0
 30
0.0000000000000014
  0
VERTEX
  5
3A78E3
330
3A78E2
100
AcDbEntity
  8
姿図
100
AcDbVertex
100
AcDb2dVertex
 10
18563.45773641694
 20
-16568.07385519283
 30
0.0000000000000014
  0
VERTEX
  5
3A78E4
330
3A78E2
100
AcDbEntity
  8
姿図
100
AcDbVertex
100
AcDb2dVertex
 10
18567.80854761939
 20
-16561.64676901008
 30
0.0000000000000014
  0
SEQEND
  5
3A78E5
330
3A78E2
100
AcDbEntity
  8
姿図
  0
POLYLINE
  5
3A78E6
330
18
100
AcDbEntity
  8
姿図
100
AcDb2dPolyline
 66
     1
 10
0.0
 20
0.0
 30
0.0000000000000014
  0
VERTEX
  5
3A78E7
330
3A78E6
100
AcDbEntity
  8
姿図
100
AcDbVertex
100
AcDb2dVertex
 10
18562.32302594644
 20
-16568.07385519283
 30
0.0000000000000014
  0
VERTEX
  5
3A78E8
330
3A78E6
100
AcDbEntity
  8
姿図
100
AcDbVertex
100
AcDb2dVertex
 10
18563.45773641694
 20
-16568.07385519283
 30
0.0000000000000014
  0
SEQEND
  5
3A78E9
330
3A78E6
100
AcDbEntity
  8
姿図
  0
POLYLINE
  5
3A78EA
330
18
100
AcDbEntity
  8
姿図
100
AcDb2dPolyline
 66
     1
 10
0.0
 20
0.0
 30
0.0000000000000014
  0
VERTEX
  5
3A78EB
330
3A78EA
100
AcDbEntity
  8
姿図
100
AcDbVertex
100
AcDb2dVertex
 10
18564.5571690864
 20
-16571.92936606866
 30
0.0000000000000014
  0
VERTEX
  5
3A78EC
330
3A78EA
100
AcDbEntity
  8
姿図
100
AcDbVertex
100
AcDb2dVertex
 10
18567.72564478694
 20
-16567.53851456202
 30
0.0000000000000014
  0
SEQEND
  5
3A78ED
330
3A78EA
100
AcDbEntity
  8
姿図
  0
SPLINE
  5
3A78EE
330
18
100
AcDbEntity
  8
姿図
100
AcDbSpline
210
0.0
220
0.0
230
1.0
 70
     8
 71
     3
 72
    14
 73
    10
 74
     0
 42
0.000000001
 43
0.0000000001
 40
0.0
 40
0.0
 40
0.0
 40
0.0
 40
1.0
 40
1.0
 40
1.0
 40
2.0
 40
2.0
 40
2.0
 40
3.0
 40
3.0
 40
3.0
 40
3.0
 10
18568.24025970964
 20
-16567.53851456202
 30
0.0000000000000014
 10
18568.24025970964
 20
-16567.53851456202
 30
0.0000000000000014
 10
18567.18615901451
 20
-16567.53851456202
 30
0.0000000000000014
 10
18567.18615901451
 20
-16567.53851456202
 30
0.0000000000000014
 10
18567.18615901451
 20
-16567.53851456202
 30
0.0000000000000014
 10
18566.97378665224
 20
-16567.47483813115
 30
0.0000000000000014
 10
18566.45467380992
 20
-16568.20685250276
 30
0.0000000000000014
 10
18566.02825338983
 20
-16568.8079862325
 30
0.0000000000000014
 10
18562.05182785093
 20
-16574.66216092634
 30
0.0000000000000014
 10
18560.64459636738
 20
-16576.73490812653
 30
0.0000000000000014
  0
POLYLINE
  5
3A78EF
330
18
100
AcDbEntity
  8
姿図
100
AcDb2dPolyline
 66
     1
 10
0.0
 20
0.0
 30
0.0000000000000014
  0
VERTEX
  5
3A78F0
330
3A78EF
100
AcDbEntity
  8
姿図
100
AcDbVertex
100
AcDb2dVertex
 10
18563.80337067264
 20
-16572.59646928636
 30
0.0000000000000014
  0
VERTEX
  5
3A78F1
330
3A78EF
100
AcDbEntity
  8
姿図
100
AcDbVertex
100
AcDb2dVertex
 10
18563.57803371849
 20
-16572.41778722408
 30
0.0000000000000014
  0
SEQEND
  5
3A78F2
330
3A78EF
100
AcDbEntity
  8
姿図
  0
POLYLINE
  5
3A78F3
330
18
100
AcDbEntity
  8
姿図
100
AcDb2dPolyline
 66
     1
 10
0.0
 20
0.0
 30
0.0000000000000014
  0
VERTEX
  5
3A78F4
330
3A78F3
100
AcDbEntity
  8
姿図
100
AcDbVertex
100
AcDb2dVertex
 10
18562.1930272496
 20
-16567.2395351982
 30
0.0000000000000014
  0
VERTEX
  5
3A78F5
330
3A78F3
100
AcDbEntity
  8
姿図
100
AcDbVertex
100
AcDb2dVertex
 10
18562.06540980433
 20
-16567.64082018505
 30
0.0000000000000014
  0
SEQEND
  5
3A78F6
330
3A78F3
100
AcDbEntity
  8
姿図
  0
POLYLINE
  5
3A78F7
330
18
100
AcDbEntity
  8
姿図
100
AcDb2dPolyline
 66
     1
 10
0.0
 20
0.0
 30
0.0000000000000014
  0
VERTEX
  5
3A78F8
330
3A78F7
100
AcDbEntity
  8
姿図
100
AcDbVertex
100
AcDb2dVertex
 10
18564.61043856597
 20
-16571.85545907548
 30
0.0000000000000014
  0
VERTEX
  5
3A78F9
330
3A78F7
100
AcDbEntity
  8
姿図
100
AcDbVertex
100
AcDb2dVertex
 10
18564.11840143595
 20
-16571.62368392263
 30
0.0000000000000014
  0
SEQEND
  5
3A78FA
330
3A78F7
100
AcDbEntity
  8
姿図
  0
SPLINE
  5
3A78FB
330
18
100
AcDbEntity
  8
姿図
100
AcDbSpline
210
0.0
220
0.0
230
1.0
 70
     8
 71
     3
 72
    14
 73
    10
 74
     0
 42
0.000000001
 43
0.0000000001
 40
0.0
 40
0.0
 40
0.0
 40
0.0
 40
1.0
 40
1.0
 40
1.0
 40
2.0
 40
2.0
 40
2.0
 40
3.0
 40
3.0
 40
3.0
 40
3.0
 10
18559.66213699072
 20
-16573.95581790249
 30
0.0000000000000014
 10
18559.98869385152
 20
-16574.36635656461
 30
0.0000000000000014
 10
18560.1539703494
 20
-16573.84724372228
 30
0.0000000000000014
 10
18560.1539703494
 20
-16573.84724372228
 30
0.0000000000000014
 10
18560.1539703494
 20
-16573.84724372228
 30
0.0000000000000014
 10
18562.46651840217
 20
-16568.79705011418
 30
0.0000000000000014
 10
18562.46651840217
 20
-16568.79705011418
 30
0.0000000000000014
 10
18562.67897895895
 20
-16568.30157339856
 30
0.0000000000000014
 10
18562.46651840217
 20
-16568.07403158184
 30
0.0000000000000014
 10
18562.46651840217
 20
-16568.07403158184
 30
0.0000000000000014
  0
SPLINE
  5
3A78FC
330
18
100
AcDbEntity
  8
姿図
100
AcDbSpline
210
0.0
220
0.0
230
1.0
 70
     8
 71
     3
 72
     8
 73
     4
 74
     0
 42
0.000000001
 43
0.0000000001
 40
0.0
 40
0.0
 40
0.0
 40
0.0
 40
1.0
 40
1.0
 40
1.0
 40
1.0
 10
18559.71317422538
 20
-16574.0206341144
 30
0.0000000000000014
 10
18559.68018948141
 20
-16573.98359242331
 30
0.0000000000000014
 10
18559.64826307147
 20
-16573.939142394
 30
0.0000000000000014
 10
18559.61836513509
 20
-16573.88587291442
 30
0.0000000000000014
  0
SPLINE
  5
3A78FD
330
18
100
AcDbEntity
  8
姿図
100
AcDbSpline
210
0.0
220
0.0
230
1.0
 70
     8
 71
     3
 72
    11
 73
     7
 74
     0
 42
0.000000001
 43
0.0000000001
 40
0.0
 40
0.0
 40
0.0
 40
0.0
 40
1.0
 40
1.0
 40
1.0
 40
2.0
 40
2.0
 40
2.0
 40
2.0
 10
18563.69065809832
 20
-16567.72954385466
 30
0.0000000000000014
 10
18563.69065809832
 20
-16567.72954385466
 30
0.0000000000000014
 10
18560.34270658497
 20
-16574.11729528926
 30
0.0000000000000014
 10
18560.34270658497
 20
-16574.11729528926
 30
0.0000000000000014
 10
18560.34270658497
 20
-16574.11729528926
 30
0.0000000000000014
 10
18559.98763551749
 20
-16574.32772737247
 30
0.0000000000000014
 10
18559.71317422538
 20
-16574.0206341144
 30
0.0000000000000014
  0
SPLINE
  5
3A78FE
330
18
100
AcDbEntity
  8
姿図
100
AcDbSpline
210
0.0
220
0.0
230
1.0
 70
     8
 71
     3
 72
     8
 73
     4
 74
     0
 42
0.000000001
 43
0.0000000001
 40
0.0039469307402094
 40
0.0039469307402094
 40
0.0039469307402094
 40
0.0039469307402094
 40
1.0
 40
1.0
 40
1.0
 40
1.0
 10
18571.55411190622
 20
-16556.8681262755
 30
0.0000000000000014
 10
18572.2735943565
 20
-16558.91542886067
 30
0.0000000000000014
 10
18572.27490779972
 20
-16560.87860734889
 30
0.0000000000000014
 10
18571.43272431489
 20
-16562.37296254452
 30
0.0000000000000014
  0
SPLINE
  5
3A78FF
330
18
100
AcDbEntity
  8
姿図
100
AcDbSpline
210
0.0
220
0.0
230
1.0
 70
     8
 71
     3
 72
     8
 73
     4
 74
     0
 42
0.000000001
 43
0.0000000001
 40
0.0
 40
0.0
 40
0.0
 40
0.0
 40
1.0
 40
1.0
 40
1.0
 40
1.0
 10
18570.6405612925
 20
-16554.87828190775
 30
0.0000000000000014
 10
18570.84437878802
 20
-16555.23785089487
 30
0.0000000000000014
 10
18571.02764696443
 20
-16555.59865460502
 30
0.0000000000000014
 10
18571.18957207121
 20
-16555.95866456465
 30
0.0000000000000014
  0
SPLINE
  5
3A7900
330
18
100
AcDbEntity
  8
姿図
100
AcDbSpline
210
0.0
220
0.0
230
1.0
 70
     8
 71
     3
 72
    11
 73
     7
 74
     0
 42
0.000000001
 43
0.0000000001
 40
0.0
 40
0.0
 40
0.0
 40
0.0
 40
1.0
 40
1.0
 40
1.0
 40
2.0
 40
2.0
 40
2.0
 40
2.0
 10
18565.00616729915
 20
-16549.05885584794
 30
0.0000000000000014
 10
18565.63349479617
 20
-16549.45890611175
 30
0.0000000000000014
 10
18566.25200284294
 20
-16549.91072654859
 30
0.0000000000000014
 10
18566.85269560017
 20
-16550.41281785192
 30
0.0000000000000014
 10
18567.25645003309
 20
-16550.75033821338
 30
0.0000000000000014
 10
18567.63912597989
 20
-16551.0998530272
 30
0.0000000000000014
 10
18568.00010607905
 20
-16551.45871645829
 30
0.0000000000000014
  0
SPLINE
  5
3A7901
330
18
100
AcDbEntity
  8
姿図
100
AcDbSpline
210
0.0
220
0.0
230
1.0
 70
     8
 71
     3
 72
     8
 73
     4
 74
     0
 42
0.000000001
 43
0.0000000001
 40
0.0220224807344469
 40
0.0220224807344469
 40
0.0220224807344469
 40
0.0220224807344469
 40
1.0
 40
1.0
 40
1.0
 40
1.0
 10
18560.48941984966
 20
-16547.09376810755
 30
0.0000000000000014
 10
18561.68965241151
 20
-16547.37870665147
 30
0.0000000000000014
 10
18562.9377452081
 20
-16547.86951834294
 30
0.0000000000000014
 10
18564.1677021629
 20
-16548.55729371163
 30
0.0000000000000014
  0
SPLINE
  5
3A7902
330
18
100
AcDbEntity
  8
姿図
100
AcDbSpline
210
0.0
220
0.0
230
1.0
 70
     8
 71
     3
 72
     8
 73
     4
 74
     0
 42
0.000000001
 43
0.0000000001
 40
0.0
 40
0.0
 40
0.0
 40
0.0
 40
0.9930441751332382
 40
0.9930441751332382
 40
0.9930441751332382
 40
0.9930441751332382
 10
18554.19140461186
 20
-16548.09092118187
 30
0.0000000000000014
 10
18555.46964984819
 20
-16546.98337138683
 30
0.0000000000000014
 10
18557.348957462
 20
-16546.60273221993
 30
0.0000000000000014
 10
18559.4459448825
 20
-16546.89614715193
 30
0.0000000000000014
  0
POLYLINE
  5
3A7903
330
18
100
AcDbEntity
  8
姿図
100
AcDb2dPolyline
 66
     1
 10
0.0
 20
0.0
 30
0.0000000000000014
  0
VERTEX
  5
3A7904
330
3A7903
100
AcDbEntity
  8
姿図
100
AcDbVertex
100
AcDb2dVertex
 10
18570.25806173471
 20
-16563.63696615584
 30
0.0000000000000014
  0
VERTEX
  5
3A7905
330
3A7903
100
AcDbEntity
  8
姿図
100
AcDbVertex
100
AcDb2dVertex
 10
18571.42663889421
 20
-16561.64676901008
 30
0.0000000000000014
  0
VERTEX
  5
3A7906
330
3A7903
100
AcDbEntity
  8
姿図
100
AcDbVertex
100
AcDb2dVertex
 10
18571.42663889421
 20
-16561.64676901008
 30
0.0000000000000014
  0
VERTEX
  5
3A7907
330
3A7903
100
AcDbEntity
  8
姿図
100
AcDbVertex
100
AcDb2dVertex
 10
18570.72593357102
 20
-16561.36366465672
 30
0.0000000000000014
  0
SEQEND
  5
3A7908
330
3A7903
100
AcDbEntity
  8
姿図
  0
SPLINE
  5
3A7909
330
18
100
AcDbEntity
  8
姿図
100
AcDbSpline
210
0.0
220
0.0
230
1.0
 70
     8
 71
     3
 72
    11
 73
     7
 74
     0
 42
0.000000001
 43
0.0000000001
 40
0.0
 40
0.0
 40
0.0
 40
0.0
 40
1.0
 40
1.0
 40
1.0
 40
2.0
 40
2.0
 40
2.0
 40
2.0
 10
18570.32808816978
 20
-16562.03217898646
 30
0.0000000000000014
 10
18570.32808816978
 20
-16562.03217898646
 30
0.0000000000000014
 10
18571.5991473413
 20
-16559.94770191742
 30
0.0000000000000014
 10
18571.5991473413
 20
-16559.94770191742
 30
0.0000000000000014
 10
18571.5991473413
 20
-16559.94770191742
 30
0.0000000000000014
 10
18571.93075867109
 20
-16558.91441512491
 30
0.0000000000000014
 10
18570.4915125831
 20
-16558.02691384521
 30
0.0000000000000014
  0
SPLINE
  5
3A790A
330
18
100
AcDbEntity
  8
姿図
100
AcDbSpline
210
0.0
220
0.0
230
1.0
 70
     8
 71
     3
 72
    29
 73
    25
 74
     0
 42
0.000000001
 43
0.0000000001
 40
0.0
 40
0.0
 40
0.0
 40
0.0
 40
1.0
 40
1.0
 40
1.0
 40
2.0
 40
2.0
 40
2.0
 40
3.0
 40
3.0
 40
3.0
 40
4.0
 40
4.0
 40
4.0
 40
5.0
 40
5.0
 40
5.0
 40
6.0
 40
6.0
 40
6.0
 40
7.0
 40
7.0
 40
7.0
 40
7.921323331948138
 40
7.921323331948138
 40
7.921323331948138
 40
7.921323331948138
 10
18561.25975302305
 20
-16547.30316788461
 30
0.0000000000000014
 10
18561.25975302305
 20
-16547.30316788461
 30
0.0000000000000014
 10
18561.23938009294
 20
-16546.80090019228
 30
0.0000000000000014
 10
18561.23938009294
 20
-16546.80090019228
 30
0.0000000000000014
 10
18561.23938009294
 20
-16546.80090019228
 30
0.0000000000000014
 10
18560.18536759233
 20
-16547.21250393593
 30
0.0000000000000014
 10
18560.18536759233
 20
-16547.21250393593
 30
0.0000000000000014
 10
18559.68204156597
 20
-16547.47990966783
 30
0.0000000000000014
 10
18559.4459448825
 20
-16547.07086356475
 30
0.0000000000000014
 10
18559.4459448825
 20
-16547.07086356475
 30
0.0000000000000014
 10
18559.4459448825
 20
-16547.07086356475
 30
0.0000000000000014
 10
18559.4459448825
 20
-16546.14270461935
 30
0.0000000000000014
 10
18559.4459448825
 20
-16546.14270461935
 30
0.0000000000000014
 10
18559.4459448825
 20
-16546.14270461935
 30
0.0000000000000014
 10
18560.53144282055
 20
-16544.82119819233
 30
0.0000000000000014
 10
18560.53144282055
 20
-16544.82119819233
 30
0.0000000000000014
 10
18560.53144282055
 20
-16544.82119819233
 30
0.0000000000000014
 10
18566.36303972171
 20
-16539.06236175581
 30
0.0000000000000014
 10
18566.36303972171
 20
-16539.06236175581
 30
0.0000000000000014
 10
18566.36303972171
 20
-16539.06236175581
 30
0.0000000000000014
 10
18566.62541836696
 20
-16538.7473309925
 30
0.0000000000000014
 10
18566.98172415748
 20
-16539.25065701887
 30
0.0000000000000014
 10
18566.98172415748
 20
-16539.25065701887
 30
0.0000000000000014
 10
18566.98172415748
 20
-16544.16614380239
 30
0.0000000000000014
 10
18566.98172415748
 20
-16544.93961204635
 30
0.0000000000000014
  0
POLYLINE
  5
3A790B
330
18
100
AcDbEntity
  8
姿図
100
AcDb2dPolyline
 66
     1
 10
0.0
 20
0.0
 30
0.0000000000000014
  0
VERTEX
  5
3A790C
330
3A790B
100
AcDbEntity
  8
姿図
100
AcDbVertex
100
AcDb2dVertex
 10
18560.67784569487
 20
-16547.02023992025
 30
0.0000000000000014
  0
VERTEX
  5
3A790D
330
3A790B
100
AcDbEntity
  8
姿図
100
AcDbVertex
100
AcDb2dVertex
 10
18560.67784569487
 20
-16547.14018444379
 30
0.0000000000000014
  0
SEQEND
  5
3A790E
330
3A790B
100
AcDbEntity
  8
姿図
  0
SPLINE
  5
3A790F
330
18
100
AcDbEntity
  8
姿図
100
AcDbSpline
210
0.0
220
0.0
230
1.0
 70
     8
 71
     3
 72
    11
 73
     7
 74
     0
 42
0.000000001
 43
0.0000000001
 40
0.0
 40
0.0
 40
0.0
 40
0.0
 40
1.0
 40
1.0
 40
1.0
 40
2.0
 40
2.0
 40
2.0
 40
2.0
 10
18560.05501611748
 20
-16547.26930119561
 30
0.0000000000000014
 10
18560.05501611748
 20
-16547.26930119561
 30
0.0000000000000014
 10
18560.05501611748
 20
-16546.2056754942
 30
0.0000000000000014
 10
18560.05501611748
 20
-16546.2056754942
 30
0.0000000000000014
 10
18560.05501611748
 20
-16546.2056754942
 30
0.0000000000000014
 10
18559.57171024321
 20
-16545.92248294634
 30
0.0000000000000014
 10
18559.4459448825
 20
-16546.14270461935
 30
0.0000000000000014
  0
POLYLINE
  5
3A7910
330
18
100
AcDbEntity
  8
姿図
100
AcDb2dPolyline
 66
     1
 10
0.0
 20
0.0
 30
0.0000000000000014
  0
VERTEX
  5
3A7911
330
3A7910
100
AcDbEntity
  8
姿図
100
AcDbVertex
100
AcDb2dVertex
 10
18560.05501611748
 20
-16546.2056754942
 30
0.0000000000000014
  0
VERTEX
  5
3A7912
330
3A7910
100
AcDbEntity
  8
姿図
100
AcDbVertex
100
AcDb2dVertex
 10
18566.98172415748
 20
-16539.25065701887
 30
0.0000000000000014
  0
SEQEND
  5
3A7913
330
3A7910
100
AcDbEntity
  8
姿図
  0
SPLINE
  5
3A7914
330
18
100
AcDbEntity
  8
姿図
100
AcDbSpline
210
0.0
220
0.0
230
1.0
 70
     8
 71
     3
 72
    29
 73
    25
 74
     0
 42
0.000000001
 43
0.0000000001
 40
0.0
 40
0.0
 40
0.0
 40
0.0
 40
1.0
 40
1.0
 40
1.0
 40
2.0
 40
2.0
 40
2.0
 40
3.0
 40
3.0
 40
3.0
 40
4.0
 40
4.0
 40
4.0
 40
5.0
 40
5.0
 40
5.0
 40
6.0
 40
6.0
 40
6.0
 40
7.0
 40
7.0
 40
7.0
 40
8.0
 40
8.0
 40
8.0
 40
8.0
 10
18563.51832604023
 20
-16541.80062467265
 30
0.0000000000000014
 10
18563.51832604023
 20
-16541.80062467265
 30
0.0000000000000014
 10
18562.19955364279
 20
-16538.92398458122
 30
0.0000000000000014
 10
18562.19955364279
 20
-16538.92398458122
 30
0.0000000000000014
 10
18562.19955364279
 20
-16538.92398458122
 30
0.0000000000000014
 10
18562.05950077266
 20
-16538.78957615926
 30
0.0000000000000014
 10
18561.7595512693
 20
-16539.00512352362
 30
0.0000000000000014
 10
18561.7595512693
 20
-16539.00512352362
 30
0.0000000000000014
 10
18555.52860966034
 20
-16545.15157479909
 30
0.0000000000000014
 10
18555.52860966034
 20
-16545.15157479909
 30
0.0000000000000014
 10
18555.52860966034
 20
-16545.15157479909
 30
0.0000000000000014
 10
18554.89943007877
 20
-16546.2056754942
 30
0.0000000000000014
 10
18554.89943007877
 20
-16546.2056754942
 30
0.0000000000000014
 10
18554.89943007877
 20
-16546.2056754942
 30
0.0000000000000014
 10
18555.28351713761
 20
-16546.94227597995
 30
0.0000000000000014
 10
18555.28351713761
 20
-16546.94227597995
 30
0.0000000000000014
 10
18555.28351713761
 20
-16546.94227597995
 30
0.0000000000000014
 10
18555.33987342477
 20
-16547.08021218202
 30
0.0000000000000014
 10
18555.70182366345
 20
-16546.94501000953
 30
0.0000000000000014
 10
18555.93986062599
 20
-16546.85610995091
 30
0.0000000000000014
 10
18557.3221330653
 20
-16546.36424920989
 30
0.0000000000000014
 10
18557.3221330653
 20
-16546.36424920989
 30
0.0000000000000014
 10
18557.3221330653
 20
-16546.36424920989
 30
0.0000000000000014
 10
18557.55101297628
 20
-16546.82047158921
 30
0.0000000000000014
 10
18557.55101297628
 20
-16546.82047158921
 30
0.0000000000000014
  0
POLYLINE
  5
3A7915
330
18
100
AcDbEntity
  8
姿図
100
AcDb2dPolyline
 66
     1
 10
0.0
 20
0.0
 30
0.0000000000000014
  0
VERTEX
  5
3A7916
330
3A7915
100
AcDbEntity
  8
姿図
100
AcDbVertex
100
AcDb2dVertex
 10
18557.10120583627
 20
-16546.44203676118
 30
0.0000000000000014
  0
VERTEX
  5
3A7917
330
3A7915
100
AcDbEntity
  8
姿図
100
AcDbVertex
100
AcDb2dVertex
 10
18557.31174037293
 20
-16546.84117825993
 30
0.0000000000000014
  0
SEQEND
  5
3A7918
330
3A7915
100
AcDbEntity
  8
姿図
  0
SPLINE
  5
3A7919
330
18
100
AcDbEntity
  8
姿図
100
AcDbSpline
210
0.0
220
0.0
230
1.0
 70
     8
 71
     3
 72
    14
 73
    10
 74
     0
 42
0.000000001
 43
0.0000000001
 40
0.0
 40
0.0
 40
0.0
 40
0.0
 40
1.0
 40
1.0
 40
1.0
 40
2.0
 40
2.0
 40
2.0
 40
3.0
 40
3.0
 40
3.0
 40
3.0
 10
18555.40028665905
 20
-16547.02023992025
 30
0.0000000000000014
 10
18555.40028665905
 20
-16547.02023992025
 30
0.0000000000000014
 10
18555.59793053939
 20
-16547.02023992025
 30
0.0000000000000014
 10
18555.56018329228
 20
-16546.80090019228
 30
0.0000000000000014
 10
18555.56018329228
 20
-16546.80090019228
 30
0.0000000000000014
 10
18555.23509835568
 20
-16546.14270461935
 30
0.0000000000000014
 10
18555.23509835568
 20
-16546.14270461935
 30
0.0000000000000014
 10
18555.23509835568
 20
-16546.14270461935
 30
0.0000000000000014
 10
18554.89943007877
 20
-16546.05883164737
 30
0.0000000000000014
 10
18554.89943007877
 20
-16546.2056754942
 30
0.0000000000000014
  0
POLYLINE
  5
3A791A
330
18
100
AcDbEntity
  8
姿図
100
AcDb2dPolyline
 66
     1
 10
0.0
 20
0.0
 30
0.0000000000000014
  0
VERTEX
  5
3A791B
330
3A791A
100
AcDbEntity
  8
姿図
100
AcDbVertex
100
AcDb2dVertex
 10
18555.23509835568
 20
-16546.14270461935
 30
0.0000000000000014
  0
VERTEX
  5
3A791C
330
3A791A
100
AcDbEntity
  8
姿図
100
AcDbVertex
100
AcDb2dVertex
 10
18555.8626022417
 20
-16545.18799912866
 30
0.0000000000000014
  0
VERTEX
  5
3A791D
330
3A791A
100
AcDbEntity
  8
姿図
100
AcDbVertex
100
AcDb2dVertex
 10
18562.21833907185
 20
-16538.96499502493
 30
0.0000000000000014
  0
SEQEND
  5
3A791E
330
3A791A
100
AcDbEntity
  8
姿図
  0
SPLINE
  5
3A791F
330
18
100
AcDbEntity
  8
姿図
100
AcDbSpline
210
0.0
220
0.0
230
1.0
 70
     8
 71
     3
 72
    32
 73
    28
 74
     0
 42
0.000000001
 43
0.0000000001
 40
0.0
 40
0.0
 40
0.0
 40
0.0
 40
1.0
 40
1.0
 40
1.0
 40
2.0
 40
2.0
 40
2.0
 40
3.0
 40
3.0
 40
3.0
 40
4.0
 40
4.0
 40
4.0
 40
5.0
 40
5.0
 40
5.0
 40
6.0
 40
6.0
 40
6.0
 40
7.0
 40
7.0
 40
7.0
 40
8.0
 40
8.0
 40
8.0
 40
9.0
 40
9.0
 40
9.0
 40
9.0
 10
18559.40131846418
 20
-16541.3313417243
 30
0.0000000000000014
 10
18559.40131846418
 20
-16541.3313417243
 30
0.0000000000000014
 10
18558.54477345489
 20
-16540.44648627967
 30
0.0000000000000014
 10
18558.54477345489
 20
-16540.44648627967
 30
0.0000000000000014
 10
18558.54477345489
 20
-16540.44648627967
 30
0.0000000000000014
 10
18558.48630049967
 20
-16540.29029381556
 30
0.0000000000000014
 10
18557.51086930087
 20
-16541.23423957693
 30
0.0000000000000014
 10
18557.51086930087
 20
-16541.23423957693
 30
0.0000000000000014
 10
18552.28781446766
 20
-16546.11880390914
 30
0.0000000000000014
 10
18552.28781446766
 20
-16546.11880390914
 30
0.0000000000000014
 10
18552.28781446766
 20
-16546.11880390914
 30
0.0000000000000014
 10
18551.2966846474
 20
-16547.54296873719
 30
0.0000000000000014
 10
18551.2966846474
 20
-16547.54296873719
 30
0.0000000000000014
 10
18551.2966846474
 20
-16547.54296873719
 30
0.0000000000000014
 10
18551.17091928669
 20
-16547.6214618445
 30
0.0000000000000014
 10
18551.45402364005
 20
-16547.93605163529
 30
0.0000000000000014
 10
18551.45402364005
 20
-16547.93605163529
 30
0.0000000000000014
 10
18551.94173923945
 20
-16548.39236999177
 30
0.0000000000000014
 10
18551.94173923945
 20
-16548.39236999177
 30
0.0000000000000014
 10
18551.94173923945
 20
-16548.39236999177
 30
0.0000000000000014
 10
18552.0046219198
 20
-16548.45525267212
 30
0.0000000000000014
 10
18552.19344634988
 20
-16548.39236999177
 30
0.0000000000000014
 10
18552.19344634988
 20
-16548.39236999177
 30
0.0000000000000014
 10
18554.11282331004
 20
-16547.44586658982
 30
0.0000000000000014
 10
18554.11282331004
 20
-16547.44586658982
 30
0.0000000000000014
 10
18554.11282331004
 20
-16547.44586658982
 30
0.0000000000000014
 10
18554.47812493983
 20
-16547.86240922561
 30
0.0000000000000014
 10
18554.47812493983
 20
-16547.86240922561
 30
0.0000000000000014
  0
POLYLINE
  5
3A7920
330
18
100
AcDbEntity
  8
姿図
100
AcDb2dPolyline
 66
     1
 10
0.0
 20
0.0
 30
0.0000000000000014
  0
VERTEX
  5
3A7921
330
3A7920
100
AcDbEntity
  8
姿図
100
AcDbVertex
100
AcDb2dVertex
 10
18553.91588498573
 20
-16547.54296873719
 30
0.0000000000000014
  0
VERTEX
  5
3A7922
330
3A7920
100
AcDbEntity
  8
姿図
100
AcDbVertex
100
AcDb2dVertex
 10
18554.30155954562
 20
-16547.93605163529
 30
0.0000000000000014
  0
SEQEND
  5
3A7923
330
3A7920
100
AcDbEntity
  8
姿図
  0
SPLINE
  5
3A7924
330
18
100
AcDbEntity
  8
姿図
100
AcDbSpline
210
0.0
220
0.0
230
1.0
 70
     8
 71
     3
 72
    14
 73
    10
 74
     0
 42
0.000000001
 43
0.0000000001
 40
0.0
 40
0.0
 40
0.0
 40
0.0
 40
1.0
 40
1.0
 40
1.0
 40
2.0
 40
2.0
 40
2.0
 40
3.0
 40
3.0
 40
3.0
 40
3.0
 10
18551.2966846474
 20
-16547.54296873719
 30
0.0000000000000014
 10
18551.2966846474
 20
-16547.54296873719
 30
0.0000000000000014
 10
18551.48542088297
 20
-16547.36993112308
 30
0.0000000000000014
 10
18551.61127443819
 20
-16547.54296873719
 30
0.0000000000000014
 10
18551.61127443819
 20
-16547.54296873719
 30
0.0000000000000014
 10
18552.17774772841
 20
-16548.17223651327
 30
0.0000000000000014
 10
18552.17774772841
 20
-16548.17223651327
 30
0.0000000000000014
 10
18552.17774772841
 20
-16548.17223651327
 30
0.0000000000000014
 10
18552.25641722474
 20
-16548.25072962058
 30
0.0000000000000014
 10
18552.19344634988
 20
-16548.39236999177
 30
0.0000000000000014
  0
POLYLINE
  5
3A7925
330
18
100
AcDbEntity
  8
姿図
100
AcDb2dPolyline
 66
     1
 10
0.0
 20
0.0
 30
0.0000000000000014
  0
VERTEX
  5
3A7926
330
3A7925
100
AcDbEntity
  8
姿図
100
AcDbVertex
100
AcDb2dVertex
 10
18551.5169063204
 20
-16547.46606313092
 30
0.0000000000000014
  0
VERTEX
  5
3A7927
330
3A7925
100
AcDbEntity
  8
姿図
100
AcDbVertex
100
AcDb2dVertex
 10
18552.48448820847
 20
-16546.11880390914
 30
0.0000000000000014
  0
VERTEX
  5
3A7928
330
3A7925
100
AcDbEntity
  8
姿図
100
AcDbVertex
100
AcDb2dVertex
 10
18558.54477345489
 20
-16540.44648627967
 30
0.0000000000000014
  0
SEQEND
  5
3A7929
330
3A7925
100
AcDbEntity
  8
姿図
  0
SPLINE
  5
3A792A
330
18
100
AcDbEntity
  8
姿図
100
AcDbSpline
210
0.0
220
0.0
230
1.0
 70
     8
 71
     3
 72
    26
 73
    22
 74
     0
 42
0.000000001
 43
0.0000000001
 40
0.0
 40
0.0
 40
0.0
 40
0.0
 40
1.0
 40
1.0
 40
1.0
 40
2.0
 40
2.0
 40
2.0
 40
3.0
 40
3.0
 40
3.0
 40
4.0
 40
4.0
 40
4.0
 40
5.0
 40
5.0
 40
5.0
 40
6.0
 40
6.0
 40
6.0
 40
7.0
 40
7.0
 40
7.0
 40
7.0
 10
18564.62463788089
 20
-16547.8820765997
 30
0.0000000000000014
 10
18564.62463788089
 20
-16547.8820765997
 30
0.0000000000000014
 10
18564.20430288148
 20
-16548.39236999177
 30
0.0000000000000014
 10
18564.20430288148
 20
-16548.39236999177
 30
0.0000000000000014
 10
18564.20430288148
 20
-16548.39236999177
 30
0.0000000000000014
 10
18564.07121737705
 20
-16548.99808983564
 30
0.0000000000000014
 10
18564.07121737705
 20
-16548.99808983564
 30
0.0000000000000014
 10
18564.07121737705
 20
-16548.99808983564
 30
0.0000000000000014
 10
18564.11840143595
 20
-16549.15772188536
 30
0.0000000000000014
 10
18564.33077379821
 20
-16549.26673029058
 30
0.0000000000000014
 10
18564.33077379821
 20
-16549.26673029058
 30
0.0000000000000014
 10
18564.51959822829
 20
-16549.37009424763
 30
0.0000000000000014
 10
18564.70833446386
 20
-16549.26673029058
 30
0.0000000000000014
 10
18564.70833446386
 20
-16549.26673029058
 30
0.0000000000000014
 10
18565.41635993076
 20
-16548.77222371448
 30
0.0000000000000014
 10
18565.41635993076
 20
-16548.77222371448
 30
0.0000000000000014
 10
18565.41635993076
 20
-16548.77222371448
 30
0.0000000000000014
 10
18565.39254741506
 20
-16549.31267962643
 30
0.0000000000000014
 10
18565.39254741506
 20
-16549.31267962643
 30
0.0000000000000014
 10
18565.39254741506
 20
-16549.31267962643
 30
0.0000000000000014
 10
18568.08891794317
 20
-16546.2056754942
 30
0.0000000000000014
 10
18568.08891794317
 20
-16546.2056754942
 30
0.0000000000000014
  0
POLYLINE
  5
3A792B
330
18
100
AcDbEntity
  8
姿図
100
AcDb2dPolyline
 66
     1
 10
0.0
 20
0.0
 30
0.0000000000000014
  0
VERTEX
  5
3A792C
330
3A792B
100
AcDbEntity
  8
姿図
100
AcDbVertex
100
AcDb2dVertex
 10
18565.43638008286
 20
-16546.89667942211
 30
0.0000000000000014
  0
VERTEX
  5
3A792D
330
3A792B
100
AcDbEntity
  8
姿図
100
AcDbVertex
100
AcDb2dVertex
 10
18564.62463788089
 20
-16547.8820765997
 30
0.0000000000000014
  0
SEQEND
  5
3A792E
330
3A792B
100
AcDbEntity
  8
姿図
  0
POLYLINE
  5
3A792F
330
18
100
AcDbEntity
  8
姿図
100
AcDb2dPolyline
 66
     1
 10
0.0
 20
0.0
 30
0.0000000000000014
  0
VERTEX
  5
3A7930
330
3A792F
100
AcDbEntity
  8
姿図
100
AcDbVertex
100
AcDb2dVertex
 10
18568.12904644185
 20
-16543.83006837207
 30
0.0000000000000014
  0
VERTEX
  5
3A7931
330
3A792F
100
AcDbEntity
  8
姿図
100
AcDbVertex
100
AcDb2dVertex
 10
18566.07711314427
 20
-16546.11880390914
 30
0.0000000000000014
  0
VERTEX
  5
3A7932
330
3A792F
100
AcDbEntity
  8
姿図
100
AcDbVertex
100
AcDb2dVertex
 10
18565.43638008286
 20
-16546.89667942211
 30
0.0000000000000014
  0
SEQEND
  5
3A7933
330
3A792F
100
AcDbEntity
  8
姿図
  0
SPLINE
  5
3A7934
330
18
100
AcDbEntity
  8
姿図
100
AcDbSpline
210
0.0
220
0.0
230
1.0
 70
     8
 71
     3
 72
    11
 73
     7
 74
     0
 42
0.000000001
 43
0.0000000001
 40
0.0
 40
0.0
 40
0.0
 40
0.0
 40
1.0
 40
1.0
 40
1.0
 40
2.0
 40
2.0
 40
2.0
 40
2.0
 10
18564.20430288148
 20
-16548.39236999177
 30
0.0000000000000014
 10
18564.69122473036
 20
-16548.14066288133
 30
0.0000000000000014
 10
18564.87361096174
 20
-16548.6440771022
 30
0.0000000000000014
 10
18564.87361096174
 20
-16548.6440771022
 30
0.0000000000000014
 10
18564.87361096174
 20
-16548.6440771022
 30
0.0000000000000014
 10
18564.70833446386
 20
-16549.26673029058
 30
0.0000000000000014
 10
18564.70833446386
 20
-16549.26673029058
 30
0.0000000000000014
  0
POLYLINE
  5
3A7935
330
18
100
AcDbEntity
  8
姿図
100
AcDb2dPolyline
 66
     1
 10
0.0
 20
0.0
 30
0.0000000000000014
  0
VERTEX
  5
3A7936
330
3A7935
100
AcDbEntity
  8
姿図
100
AcDbVertex
100
AcDb2dVertex
 10
18564.87361096174
 20
-16548.6440771022
 30
0.0000000000000014
  0
VERTEX
  5
3A7937
330
3A7935
100
AcDbEntity
  8
姿図
100
AcDbVertex
100
AcDb2dVertex
 10
18568.12904644185
 20
-16544.91556631012
 30
0.0000000000000014
  0
SEQEND
  5
3A7938
330
3A7935
100
AcDbEntity
  8
姿図
  0
SPLINE
  5
3A7939
330
18
100
AcDbEntity
  8
姿図
100
AcDbSpline
210
0.0
220
0.0
230
1.0
 70
     8
 71
     3
 72
     8
 73
     4
 74
     0
 42
0.000000001
 43
0.0000000001
 40
0.0
 40
0.0
 40
0.0
 40
0.0
 40
1.0
 40
1.0
 40
1.0
 40
1.0
 10
18570.95188788669
 20
-16547.73946608899
 30
0.0000000000000014
 10
18570.95188788669
 20
-16547.73946608899
 30
0.0000000000000014
 10
18571.05631017777
 20
-16547.89680508163
 30
0.0000000000000014
 10
18571.26877073455
 20
-16547.73946608899
 30
0.0000000000000014
  0
SPLINE
  5
3A793A
330
18
100
AcDbEntity
  8
姿図
100
AcDbSpline
210
0.0
220
0.0
230
1.0
 70
     8
 71
     3
 72
    17
 73
    13
 74
     0
 42
0.000000001
 43
0.0000000001
 40
0.0
 40
0.0
 40
0.0
 40
0.0
 40
1.0
 40
1.0
 40
1.0
 40
2.0
 40
2.0
 40
2.0
 40
3.0
 40
3.0
 40
3.0
 40
4.0
 40
4.0
 40
4.0
 40
4.0
 10
18570.88962256785
 20
-16549.16530661258
 30
0.0000000000000014
 10
18570.88962256785
 20
-16549.16530661258
 30
0.0000000000000014
 10
18574.87927728214
 20
-16544.23126516441
 30
0.0000000000000014
 10
18574.87927728214
 20
-16544.23126516441
 30
0.0000000000000014
 10
18574.87927728214
 20
-16544.23126516441
 30
0.0000000000000014
 10
18575.1249871664
 20
-16544.12878315239
 30
0.0000000000000014
 10
18575.29149838731
 20
-16544.31346244084
 30
0.0000000000000014
 10
18575.45783321922
 20
-16544.4982299238
 30
0.0000000000000014
 10
18575.41020818782
 20
-16544.57345983452
 30
0.0000000000000014
 10
18575.37493038678
 20
-16544.6442800201
 30
0.0000000000000014
 10
18575.37493038678
 20
-16544.6442800201
 30
0.0000000000000014
 10
18570.82594613697
 20
-16550.6256311867
 30
0.0000000000000014
 10
18570.82594613697
 20
-16550.6256311867
 30
0.0000000000000014
  0
POLYLINE
  5
3A793B
330
18
100
AcDbEntity
  8
姿図
100
AcDb2dPolyline
 66
     1
 10
0.0
 20
0.0
 30
0.0000000000000014
  0
VERTEX
  5
3A793C
330
3A793B
100
AcDbEntity
  8
姿図
100
AcDbVertex
100
AcDb2dVertex
 10
18574.87927728214
 20
-16544.23126516441
 30
0.0000000000000014
  0
VERTEX
  5
3A793D
330
3A793B
100
AcDbEntity
  8
姿図
100
AcDbVertex
100
AcDb2dVertex
 10
18570.97878720998
 20
-16547.12228095977
 30
0.0000000000000014
  0
SEQEND
  5
3A793E
330
3A793B
100
AcDbEntity
  8
姿図
  0
SPLINE
  5
3A793F
330
18
100
AcDbEntity
  8
姿図
100
AcDbSpline
210
0.0
220
0.0
230
1.0
 70
     8
 71
     3
 72
    14
 73
    10
 74
     0
 42
0.000000001
 43
0.0000000001
 40
0.0
 40
0.0
 40
0.0
 40
0.0
 40
1.0
 40
1.0
 40
1.0
 40
2.0
 40
2.0
 40
2.0
 40
3.0
 40
3.0
 40
3.0
 40
3.0
 10
18571.73285020725
 20
-16549.43306512249
 30
0.0000000000000014
 10
18571.73285020725
 20
-16549.43306512249
 30
0.0000000000000014
 10
18572.22453455927
 20
-16550.0364919093
 30
0.0000000000000014
 10
18572.22453455927
 20
-16550.0364919093
 30
0.0000000000000014
 10
18572.22453455927
 20
-16550.0364919093
 30
0.0000000000000014
 10
18572.44863679038
 20
-16550.24877607707
 30
0.0000000000000014
 10
18572.87338151492
 20
-16550.13077183259
 30
0.0000000000000014
 10
18572.87338151492
 20
-16550.13077183259
 30
0.0000000000000014
 10
18570.73272454772
 20
-16552.76073190023
 30
0.0000000000000014
 10
18570.73272454772
 20
-16552.76073190023
 30
0.0000000000000014
  0
SPLINE
  5
3A7940
330
18
100
AcDbEntity
  8
姿図
100
AcDbSpline
210
0.0
220
0.0
230
1.0
 70
     8
 71
     3
 72
    38
 73
    34
 74
     0
 42
0.000000001
 43
0.0000000001
 40
0.0
 40
0.0
 40
0.0
 40
0.0
 40
1.0
 40
1.0
 40
1.0
 40
2.0
 40
2.0
 40
2.0
 40
3.0
 40
3.0
 40
3.0
 40
4.0
 40
4.0
 40
4.0
 40
5.0
 40
5.0
 40
5.0
 40
6.0
 40
6.0
 40
6.0
 40
7.0
 40
7.0
 40
7.0
 40
8.0
 40
8.0
 40
8.0
 40
9.0
 40
9.0
 40
9.0
 40
10.0
 40
10.0
 40
10.0
 40
11.0
 40
11.0
 40
11.0
 40
11.0
 10
18572.29517835585
 20
-16556.69120810328
 30
0.0000000000000014
 10
18572.29517835585
 20
-16556.69120810328
 30
0.0000000000000014
 10
18572.49502709875
 20
-16556.25614462193
 30
0.0000000000000014
 10
18572.02098164726
 20
-16556.19167444052
 30
0.0000000000000014
 10
18571.98314620564
 20
-16556.18664735388
 30
0.0000000000000014
 10
18571.94098923339
 20
-16556.18373693529
 30
0.0000000000000014
 10
18571.89415795251
 20
-16556.18373693529
 30
0.0000000000000014
 10
18571.89415795251
 20
-16556.18373693529
 30
0.0000000000000014
 10
18571.50469102901
 20
-16556.18373693529
 30
0.0000000000000014
 10
18571.50469102901
 20
-16556.18373693529
 30
0.0000000000000014
 10
18571.29223047224
 20
-16556.18373693529
 30
0.0000000000000014
 10
18571.11531230002
 20
-16556.25455712088
 30
0.0000000000000014
 10
18571.11531230002
 20
-16556.54956773209
 30
0.0000000000000014
 10
18571.11531230002
 20
-16556.8444901488
 30
0.0000000000000014
 10
18571.44568890677
 20
-16556.8681262755
 30
0.0000000000000014
 10
18571.44568890677
 20
-16556.8681262755
 30
0.0000000000000014
 10
18571.44568890677
 20
-16556.8681262755
 30
0.0000000000000014
 10
18571.89415795251
 20
-16556.8681262755
 30
0.0000000000000014
 10
18571.89415795251
 20
-16556.8681262755
 30
0.0000000000000014
 10
18572.11826018363
 20
-16556.8681262755
 30
0.0000000000000014
 10
18572.29517835585
 20
-16556.69120810328
 30
0.0000000000000014
 10
18572.29517835585
 20
-16556.69120810328
 30
0.0000000000000014
 10
18572.29517835585
 20
-16556.69120810328
 30
0.0000000000000014
 10
18577.99413072511
 20
-16548.99808983564
 30
0.0000000000000014
 10
18577.99413072511
 20
-16548.99808983564
 30
0.0000000000000014
 10
18578.13577109629
 20
-16548.82117166343
 30
0.0000000000000014
 10
18578.12571692299
 20
-16548.59486456974
 30
0.0000000000000014
 10
18578.05886549002
 20
-16548.44643322186
 30
0.0000000000000014
 10
18577.99183766804
 20
-16548.29782548497
 30
0.0000000000000014
 10
18577.78193475184
 20
-16548.33733662214
 30
0.0000000000000014
 10
18577.78193475184
 20
-16548.33733662214
 30
0.0000000000000014
 10
18577.78193475184
 20
-16548.33733662214
 30
0.0000000000000014
 10
18571.96621286114
 20
-16549.12614825342
 30
0.0000000000000014
 10
18571.96621286114
 20
-16549.12614825342
 30
0.0000000000000014
  0
SPLINE
  5
3A7941
330
18
100
AcDbEntity
  8
姿図
100
AcDbSpline
210
0.0
220
0.0
230
1.0
 70
     8
 71
     3
 72
    14
 73
    10
 74
     0
 42
0.000000001
 43
0.0000000001
 40
0.0
 40
0.0
 40
0.0
 40
0.0
 40
1.0
 40
1.0
 40
1.0
 40
2.0
 40
2.0
 40
2.0
 40
3.0
 40
3.0
 40
3.0
 40
3.0
 10
18577.90187927538
 20
-16548.33742481664
 30
0.0000000000000014
 10
18577.90187927538
 20
-16548.33742481664
 30
0.0000000000000014
 10
18578.05886549002
 20
-16548.44643322186
 30
0.0000000000000014
 10
18578.05886549002
 20
-16548.44643322186
 30
0.0000000000000014
 10
18578.05886549002
 20
-16548.44643322186
 30
0.0000000000000014
 10
18577.89993899632
 20
-16548.20751431431
 30
0.0000000000000014
 10
18577.41610395504
 20
-16548.86826752781
 30
0.0000000000000014
 10
18577.41610395504
 20
-16548.86826752781
 30
0.0000000000000014
 10
18572.02098164726
 20
-16556.19167444052
 30
0.0000000000000014
 10
18572.02098164726
 20
-16556.19167444052
 30
0.0000000000000014
  0
POLYLINE
  5
3A7942
330
18
100
AcDbEntity
  8
姿図
100
AcDb2dPolyline
 66
     1
 10
0.0
 20
0.0
 30
0.0000000000000014
  0
VERTEX
  5
3A7943
330
3A7942
100
AcDbEntity
  8
姿図
100
AcDbVertex
100
AcDb2dVertex
 10
18571.11531230002
 20
-16556.54956773209
 30
0.0000000000000014
  0
VERTEX
  5
3A7944
330
3A7942
100
AcDbEntity
  8
姿図
100
AcDbVertex
100
AcDb2dVertex
 10
18571.29223047224
 20
-16555.13369318729
 30
0.0000000000000014
  0
VERTEX
  5
3A7945
330
3A7942
100
AcDbEntity
  8
姿図
100
AcDbVertex
100
AcDb2dVertex
 10
18570.78167249667
 20
-16555.13369318729
 30
0.0000000000000014
  0
SEQEND
  5
3A7946
330
3A7942
100
AcDbEntity
  8
姿図
  0
POLYLINE
  5
3A7947
330
18
100
AcDbEntity
  8
姿図
100
AcDb2dPolyline
 66
     1
 10
0.0
 20
0.0
 30
0.0000000000000014
  0
VERTEX
  5
3A7948
330
3A7947
100
AcDbEntity
  8
姿図
100
AcDbVertex
100
AcDb2dVertex
 10
18571.06927476966
 20
-16555.6994609215
 30
0.0000000000000014
  0
VERTEX
  5
3A7949
330
3A7947
100
AcDbEntity
  8
姿図
100
AcDbVertex
100
AcDb2dVertex
 10
18571.22167487016
 20
-16555.6994609215
 30
0.0000000000000014
  0
SEQEND
  5
3A794A
330
3A7947
100
AcDbEntity
  8
姿図
  0
SPLINE
  5
3A794B
330
18
100
AcDbEntity
  8
姿図
100
AcDbSpline
210
0.0
220
0.0
230
1.0
 70
     8
 71
     3
 72
    32
 73
    28
 74
     0
 42
0.000000001
 43
0.0000000001
 40
0.0
 40
0.0
 40
0.0
 40
0.0
 40
1.0
 40
1.0
 40
1.0
 40
2.0
 40
2.0
 40
2.0
 40
3.0
 40
3.0
 40
3.0
 40
4.0
 40
4.0
 40
4.0
 40
5.0
 40
5.0
 40
5.0
 40
6.0
 40
6.0
 40
6.0
 40
7.0
 40
7.0
 40
7.0
 40
8.0
 40
8.0
 40
8.0
 40
9.0
 40
9.0
 40
9.0
 40
9.0
 10
18575.80126261236
 20
-16551.95833831554
 30
0.0000000000000014
 10
18575.80126261236
 20
-16551.95833831554
 30
0.0000000000000014
 10
18578.87925075323
 20
-16552.67941656883
 30
0.0000000000000014
 10
18578.87925075323
 20
-16552.67941656883
 30
0.0000000000000014
 10
18578.87925075323
 20
-16552.67941656883
 30
0.0000000000000014
 10
18579.15053704325
 20
-16552.83287500336
 30
0.0000000000000014
 10
18578.87925075323
 20
-16553.26943779125
 30
0.0000000000000014
 10
18578.87925075323
 20
-16553.26943779125
 30
0.0000000000000014
 10
18574.78490916436
 20
-16559.60559544182
 30
0.0000000000000014
 10
18574.78490916436
 20
-16559.60559544182
 30
0.0000000000000014
 10
18574.78490916436
 20
-16559.60559544182
 30
0.0000000000000014
 10
18573.35721655621
 20
-16561.1394742311
 30
0.0000000000000014
 10
18573.35721655621
 20
-16561.1394742311
 30
0.0000000000000014
 10
18573.35721655621
 20
-16561.1394742311
 30
0.0000000000000014
 10
18573.26276024392
 20
-16561.19847635335
 30
0.0000000000000014
 10
18573.0150218861
 20
-16561.1394742311
 30
0.0000000000000014
 10
18573.0150218861
 20
-16561.1394742311
 30
0.0000000000000014
 10
18572.54309310267
 20
-16560.99783385992
 30
0.0000000000000014
 10
18572.54309310267
 20
-16560.99783385992
 30
0.0000000000000014
 10
18572.54309310267
 20
-16560.99783385992
 30
0.0000000000000014
 10
18572.34245060925
 20
-16560.96237966988
 30
0.0000000000000014
 10
18572.3306325459
 20
-16560.7736434343
 30
0.0000000000000014
 10
18572.3306325459
 20
-16560.7736434343
 30
0.0000000000000014
 10
18572.38963466814
 20
-16559.6998753651
 30
0.0000000000000014
 10
18572.38963466814
 20
-16559.6998753651
 30
0.0000000000000014
 10
18572.38963466814
 20
-16559.6998753651
 30
0.0000000000000014
 10
18572.079895575
 20
-16559.6998753651
 30
0.0000000000000014
 10
18572.079895575
 20
-16559.6998753651
 30
0.0000000000000014
  0
POLYLINE
  5
3A794C
330
18
100
AcDbEntity
  8
姿図
100
AcDb2dPolyline
 66
     1
 10
0.0
 20
0.0
 30
0.0000000000000014
  0
VERTEX
  5
3A794D
330
3A794C
100
AcDbEntity
  8
姿図
100
AcDbVertex
100
AcDb2dVertex
 10
18572.05987542291
 20
-16559.19258058612
 30
0.0000000000000014
  0
VERTEX
  5
3A794E
330
3A794C
100
AcDbEntity
  8
姿図
100
AcDbVertex
100
AcDb2dVertex
 10
18572.43681872703
 20
-16559.19258058612
 30
0.0000000000000014
  0
VERTEX
  5
3A794F
330
3A794C
100
AcDbEntity
  8
姿図
100
AcDbVertex
100
AcDb2dVertex
 10
18572.38963466814
 20
-16559.6998753651
 30
0.0000000000000014
  0
SEQEND
  5
3A7950
330
3A794C
100
AcDbEntity
  8
姿図
  0
SPLINE
  5
3A7951
330
18
100
AcDbEntity
  8
姿図
100
AcDbSpline
210
0.0
220
0.0
230
1.0
 70
     8
 71
     3
 72
    14
 73
    10
 74
     0
 42
0.000000001
 43
0.0000000001
 40
0.0
 40
0.0
 40
0.0
 40
0.0
 40
1.0
 40
1.0
 40
1.0
 40
2.0
 40
2.0
 40
2.0
 40
3.0
 40
3.0
 40
3.0
 40
3.0
 10
18572.3306325459
 20
-16560.7736434343
 30
0.0000000000000014
 10
18572.3306325459
 20
-16560.7736434343
 30
0.0000000000000014
 10
18572.37781660479
 20
-16560.57308913538
 30
0.0000000000000014
 10
18572.55482297152
 20
-16560.62027319428
 30
0.0000000000000014
 10
18572.55482297152
 20
-16560.62027319428
 30
0.0000000000000014
 10
18573.28639637062
 20
-16560.83273375105
 30
0.0000000000000014
 10
18573.28639637062
 20
-16560.83273375105
 30
0.0000000000000014
 10
18573.28639637062
 20
-16560.83273375105
 30
0.0000000000000014
 10
18573.45158467399
 20
-16560.96237966988
 30
0.0000000000000014
 10
18573.35721655621
 20
-16561.1394742311
 30
0.0000000000000014
  0
POLYLINE
  5
3A7952
330
18
100
AcDbEntity
  8
姿図
100
AcDb2dPolyline
 66
     1
 10
0.0
 20
0.0
 30
0.0000000000000014
  0
VERTEX
  5
3A7953
330
3A7952
100
AcDbEntity
  8
姿図
100
AcDbVertex
100
AcDb2dVertex
 10
18578.95668552652
 20
-16552.76073190023
 30
0.0000000000000014
  0
VERTEX
  5
3A7954
330
3A7952
100
AcDbEntity
  8
姿図
100
AcDbVertex
100
AcDb2dVertex
 10
18574.4780804898
 20
-16559.44622797561
 30
0.0000000000000014
  0
VERTEX
  5
3A7955
330
3A7952
100
AcDbEntity
  8
姿図
100
AcDbVertex
100
AcDb2dVertex
 10
18573.28639637062
 20
-16560.83273375105
 30
0.0000000000000014
  0
SEQEND
  5
3A7956
330
3A7952
100
AcDbEntity
  8
姿図
  0
SPLINE
  5
3A7957
330
18
100
AcDbEntity
  8
姿図
100
AcDbSpline
210
0.0
220
0.0
230
1.0
 70
     8
 71
     3
 72
     8
 73
     4
 74
     0
 42
0.000000001
 43
0.0000000001
 40
1.0
 40
1.0
 40
1.0
 40
1.0
 40
2.0
 40
2.0
 40
2.0
 40
2.0
 10
18572.43681872703
 20
-16565.0616601509
 30
0.0000000000000014
 10
18572.43681872703
 20
-16565.0616601509
 30
0.0000000000000014
 10
18572.61382509376
 20
-16564.95053507762
 30
0.0000000000000014
 10
18572.43681872703
 20
-16564.7736169054
 30
0.0000000000000014
  0
SPLINE
  5
3A7958
330
18
100
AcDbEntity
  8
姿図
100
AcDbSpline
210
0.0
220
0.0
230
1.0
 70
     8
 71
     3
 72
     8
 73
     4
 74
     0
 42
0.000000001
 43
0.0000000001
 40
2.0
 40
2.0
 40
2.0
 40
2.0
 40
3.0
 40
3.0
 40
3.0
 40
3.0
 10
18572.43681872703
 20
-16564.7736169054
 30
0.0000000000000014
 10
18572.25981236031
 20
-16564.59652234417
 30
0.0000000000000014
 10
18571.82333776692
 20
-16564.31341799081
 30
0.0000000000000014
 10
18571.82333776692
 20
-16564.31341799081
 30
0.0000000000000014
  0
SPLINE
  5
3A7959
330
18
100
AcDbEntity
  8
姿図
100
AcDbSpline
210
0.0
220
0.0
230
1.0
 70
     8
 71
     3
 72
     8
 73
     4
 74
     0
 42
0.000000001
 43
0.0000000001
 40
3.0
 40
3.0
 40
3.0
 40
3.0
 40
4.0
 40
4.0
 40
4.0
 40
4.0
 10
18571.82333776692
 20
-16564.31341799081
 30
0.0000000000000014
 10
18571.68169739574
 20
-16564.21904987302
 30
0.0000000000000014
 10
18571.63213208528
 20
-16564.33705411751
 30
0.0000000000000014
 10
18571.63213208528
 20
-16564.33705411751
 30
0.0000000000000014
  0
SPLINE
  5
3A795A
330
18
100
AcDbEntity
  8
姿図
100
AcDbSpline
210
0.0
220
0.0
230
1.0
 70
     8
 71
     3
 72
     8
 73
     4
 74
     0
 42
0.000000001
 43
0.0000000001
 40
4.0
 40
4.0
 40
4.0
 40
4.0
 40
5.0
 40
5.0
 40
5.0
 40
5.0
 10
18571.63213208528
 20
-16564.33705411751
 30
0.0000000000000014
 10
18571.46456253033
 20
-16564.50215422638
 30
0.0000000000000014
 10
18571.63213208528
 20
-16564.58893761694
 30
0.0000000000000014
 10
18571.63213208528
 20
-16564.58893761694
 30
0.0000000000000014
  0
SPLINE
  5
3A795B
330
18
100
AcDbEntity
  8
姿図
100
AcDbSpline
210
0.0
220
0.0
230
1.0
 70
    24
 71
     3
 72
     8
 73
     4
 74
     0
 42
0.000000001
 43
0.0000000001
 40
5.0
 40
5.0
 40
5.0
 40
5.0
 40
6.0
 40
6.0
 40
6.0
 40
6.0
 10
18571.63213208528
 20
-16564.58893761694
 30
0.0000000000000014
 10
18571.63213208528
 20
-16564.58893761694
 30
0.0000000000000014
 10
18572.13007824698
 20
-16564.96235314097
 30
0.0000000000000014
 10
18572.13007824698
 20
-16564.96235314097
 30
0.0000000000000014
  0
SPLINE
  5
3A795C
330
18
100
AcDbEntity
  8
姿図
100
AcDbSpline
210
0.0
220
0.0
230
1.0
 70
     8
 71
     3
 72
     8
 73
     4
 74
     0
 42
0.000000001
 43
0.0000000001
 40
6.0
 40
6.0
 40
6.0
 40
6.0
 40
7.0
 40
7.0
 40
7.0
 40
7.0
 10
18572.13007824698
 20
-16564.96235314097
 30
0.0000000000000014
 10
18572.42500066369
 20
-16565.19836162994
 30
0.0000000000000014
 10
18572.60200703041
 20
-16564.96235314097
 30
0.0000000000000014
 10
18572.60200703041
 20
-16564.96235314097
 30
0.0000000000000014
  0
SPLINE
  5
3A795D
330
18
100
AcDbEntity
  8
姿図
100
AcDbSpline
210
0.0
220
0.0
230
1.0
 70
    24
 71
     3
 72
     8
 73
     4
 74
     0
 42
0.000000001
 43
0.0000000001
 40
7.0
 40
7.0
 40
7.0
 40
7.0
 40
8.0
 40
8.0
 40
8.0
 40
8.0
 10
18572.60200703041
 20
-16564.96235314097
 30
0.0000000000000014
 10
18572.60200703041
 20
-16564.96235314097
 30
0.0000000000000014
 10
18573.75841334855
 20
-16563.75003150818
 30
0.0000000000000014
 10
18573.75841334855
 20
-16563.75003150818
 30
0.0000000000000014
  0
SPLINE
  5
3A795E
330
18
100
AcDbEntity
  8
姿図
100
AcDbSpline
210
0.0
220
0.0
230
1.0
 70
    24
 71
     3
 72
     8
 73
     4
 74
     0
 42
0.000000001
 43
0.0000000001
 40
8.0
 40
8.0
 40
8.0
 40
8.0
 40
9.0
 40
9.0
 40
9.0
 40
9.0
 10
18573.75841334855
 20
-16563.75003150818
 30
0.0000000000000014
 10
18573.75841334855
 20
-16563.75003150818
 30
0.0000000000000014
 10
18578.10596135441
 20
-16556.8681262755
 30
0.0000000000000014
 10
18578.10596135441
 20
-16556.8681262755
 30
0.0000000000000014
  0
SPLINE
  5
3A795F
330
18
100
AcDbEntity
  8
姿図
100
AcDbSpline
210
0.0
220
0.0
230
1.0
 70
     8
 71
     3
 72
     8
 73
     4
 74
     0
 42
0.000000001
 43
0.0000000001
 40
9.0
 40
9.0
 40
9.0
 40
9.0
 40
10.0
 40
10.0
 40
10.0
 40
10.0
 10
18578.10596135441
 20
-16556.8681262755
 30
0.0000000000000014
 10
18578.2650642371
 20
-16556.62038791768
 30
0.0000000000000014
 10
18578.05886549002
 20
-16556.47874754651
 30
0.0000000000000014
 10
18578.05886549002
 20
-16556.47874754651
 30
0.0000000000000014
  0
SPLINE
  5
3A7960
330
18
100
AcDbEntity
  8
姿図
100
AcDbSpline
210
0.0
220
0.0
230
1.0
 70
    24
 71
     3
 72
     8
 73
     4
 74
     0
 42
0.000000001
 43
0.0000000001
 40
10.0
 40
10.0
 40
10.0
 40
10.0
 40
11.0
 40
11.0
 40
11.0
 40
11.0
 10
18578.05886549002
 20
-16556.47874754651
 30
0.0000000000000014
 10
18578.05886549002
 20
-16556.47874754651
 30
0.0000000000000014
 10
18577.18820936031
 20
-16555.88643326701
 30
0.0000000000000014
 10
18577.18820936031
 20
-16555.88643326701
 30
0.0000000000000014
  0
POLYLINE
  5
3A7961
330
18
100
AcDbEntity
  8
姿図
100
AcDb2dPolyline
 66
     1
 10
0.0
 20
0.0
 30
0.0000000000000014
  0
VERTEX
  5
3A7962
330
3A7961
100
AcDbEntity
  8
姿図
100
AcDbVertex
100
AcDb2dVertex
 10
18571.73285020725
 20
-16564.27725824474
 30
0.0000000000000014
  0
VERTEX
  5
3A7963
330
3A7961
100
AcDbEntity
  8
姿図
100
AcDbVertex
100
AcDb2dVertex
 10
18571.95307188025
 20
-16562.61426270365
 30
0.0000000000000014
  0
VERTEX
  5
3A7964
330
3A7961
100
AcDbEntity
  8
姿図
100
AcDbVertex
100
AcDb2dVertex
 10
18571.43272431489
 20
-16562.37296254452
 30
0.0000000000000014
  0
SEQEND
  5
3A7965
330
3A7961
100
AcDbEntity
  8
姿図
  0
POLYLINE
  5
3A7966
330
18
100
AcDbEntity
  8
姿図
100
AcDb2dPolyline
 66
     1
 10
0.0
 20
0.0
 30
0.0000000000000014
  0
VERTEX
  5
3A7967
330
3A7966
100
AcDbEntity
  8
姿図
100
AcDbVertex
100
AcDb2dVertex
 10
18571.77809398709
 20
-16562.90583372925
 30
0.0000000000000014
  0
VERTEX
  5
3A7968
330
3A7966
100
AcDbEntity
  8
姿図
100
AcDbVertex
100
AcDb2dVertex
 10
18571.43272431489
 20
-16562.7245058319
 30
0.0000000000000014
  0
SEQEND
  5
3A7969
330
3A7966
100
AcDbEntity
  8
姿図
  0
POLYLINE
  5
3A796A
330
18
100
AcDbEntity
  8
姿図
100
AcDb2dPolyline
 66
     1
 10
0.0
 20
0.0
 30
0.0000000000000014
  0
VERTEX
  5
3A796B
330
3A796A
100
AcDbEntity
  8
姿図
100
AcDbVertex
100
AcDb2dVertex
 10
18571.55760773057
 20
-16564.48380976984
 30
0.0000000000000014
  0
VERTEX
  5
3A796C
330
3A796A
100
AcDbEntity
  8
姿図
100
AcDbVertex
100
AcDb2dVertex
 10
18571.77809398709
 20
-16562.90583372925
 30
0.0000000000000014
  0
VERTEX
  5
3A796D
330
3A796A
100
AcDbEntity
  8
姿図
100
AcDbVertex
100
AcDb2dVertex
 10
18571.95307188025
 20
-16562.61426270365
 30
0.0000000000000014
  0
SEQEND
  5
3A796E
330
3A796A
100
AcDbEntity
  8
姿図
  0
SPLINE
  5
3A796F
330
18
100
AcDbEntity
  8
姿図
100
AcDbSpline
210
0.0
220
0.0
230
1.0
 70
     8
 71
     3
 72
    14
 73
    10
 74
     0
 42
0.000000001
 43
0.0000000001
 40
0.0
 40
0.0
 40
0.0
 40
0.0
 40
1.0
 40
1.0
 40
1.0
 40
2.0
 40
2.0
 40
2.0
 40
3.0
 40
3.0
 40
3.0
 40
3.0
 10
18569.60506963743
 20
-16567.42774226676
 30
0.0000000000000014
 10
18569.60506963743
 20
-16567.42774226676
 30
0.0000000000000014
 10
18569.93747471774
 20
-16567.73130774472
 30
0.0000000000000014
 10
18570.12524081379
 20
-16567.53851456202
 30
0.0000000000000014
 10
18570.12524081379
 20
-16567.53851456202
 30
0.0000000000000014
 10
18571.12713036337
 20
-16566.47259580356
 30
0.0000000000000014
 10
18571.12713036337
 20
-16566.47259580356
 30
0.0000000000000014
 10
18571.12713036337
 20
-16566.47259580356
 30
0.0000000000000014
 10
18572.18352411556
 20
-16565.0008059441
 30
0.0000000000000014
 10
18572.18352411556
 20
-16565.0008059441
 30
0.0000000000000014
  0
SPLINE
  5
3A7970
330
18
100
AcDbEntity
  8
姿図
100
AcDbSpline
210
0.0
220
0.0
230
1.0
 70
     8
 71
     3
 72
     8
 73
     4
 74
     0
 42
0.000000001
 43
0.0000000001
 40
0.0
 40
0.0
 40
0.0
 40
0.0
 40
1.0
 40
1.0
 40
1.0
 40
1.0
 10
18570.01438032401
 20
-16567.605365995
 30
0.0000000000000014
 10
18570.01438032401
 20
-16567.605365995
 30
0.0000000000000014
 10
18570.32808816978
 20
-16567.49706314581
 30
0.0000000000000014
 10
18569.86859481121
 20
-16567.21043101234
 30
0.0000000000000014
  0
POLYLINE
  5
3A7971
330
18
100
AcDbEntity
  8
姿図
100
AcDb2dPolyline
 66
     1
 10
0.0
 20
0.0
 30
0.0000000000000014
  0
VERTEX
  5
3A7972
330
3A7971
100
AcDbEntity
  8
姿図
100
AcDbVertex
100
AcDb2dVertex
 10
18566.98172415748
 20
-16545.10985879935
 30
0.0000000000000014
  0
VERTEX
  5
3A7973
330
3A7971
100
AcDbEntity
  8
姿図
100
AcDbVertex
100
AcDb2dVertex
 10
18566.98172415748
 20
-16545.10985879935
 30
0.0000000000000014
  0
SEQEND
  5
3A7974
330
3A7971
100
AcDbEntity
  8
姿図
  0
SPLINE
  5
3A7975
330
18
100
AcDbEntity
  8
姿図
100
AcDbSpline
210
0.0
220
0.0
230
1.0
 70
     8
 71
     3
 72
    14
 73
    10
 74
     0
 42
0.000000001
 43
0.0000000001
 40
0.0478849985969701
 40
0.0478849985969701
 40
0.0478849985969701
 40
0.0478849985969701
 40
1.0
 40
1.0
 40
1.0
 40
2.0
 40
2.0
 40
2.0
 40
3.0
 40
3.0
 40
3.0
 40
3.0
 10
18567.08811518976
 20
-16544.99112772577
 30
0.0000000000000014
 10
18566.55132220679
 20
-16544.72243961151
 30
0.0000000000000014
 10
18565.7969160869
 20
-16544.48716592319
 30
0.0000000000000014
 10
18565.24446884519
 20
-16544.36011733272
 30
0.0000000000000014
 10
18565.24446884519
 20
-16544.36011733272
 30
0.0000000000000014
 10
18564.87361096174
 20
-16544.34918121439
 30
0.0000000000000014
 10
18564.87361096174
 20
-16543.83006837207
 30
0.0000000000000014
 10
18564.87361096174
 20
-16543.83006837207
 30
0.0000000000000014
 10
18561.60591644577
 20
-16547.41429295789
 30
0.0000000000000014
 10
18561.60591644577
 20
-16547.41429295789
 30
0.0000000000000014
  0
SPLINE
  5
3A7976
330
18
100
AcDbEntity
  8
姿図
100
AcDbSpline
210
0.0
220
0.0
230
1.0
 70
     8
 71
     3
 72
    14
 73
    10
 74
     0
 42
0.000000001
 43
0.0000000001
 40
0.0
 40
0.0
 40
0.0
 40
0.0
 40
1.0
 40
1.0
 40
1.0
 40
2.0
 40
2.0
 40
2.0
 40
3.0
 40
3.0
 40
3.0
 40
3.0
 10
18565.43629188835
 20
-16546.89526831007
 30
0.0000000000000014
 10
18565.40568839595
 20
-16546.6391514745
 30
0.0000000000000014
 10
18565.27665983864
 20
-16546.38206449941
 30
0.0000000000000014
 10
18565.05661455464
 20
-16546.18442061908
 30
0.0000000000000014
 10
18564.61652398665
 20
-16545.78930924741
 30
0.0000000000000014
 10
18563.97852495481
 20
-16545.78234188171
 30
0.0000000000000014
 10
18563.63165597607
 20
-16546.16872199762
 30
0.0000000000000014
 10
18563.63165597607
 20
-16546.16872199762
 30
0.0000000000000014
 10
18562.21833907185
 20
-16547.63601393743
 30
0.0000000000000014
 10
18562.21833907185
 20
-16547.63601393743
 30
0.0000000000000014
  0
SPLINE
  5
3A7977
330
18
100
AcDbEntity
  8
姿図
100
AcDbSpline
210
0.0
220
0.0
230
1.0
 70
     8
 71
     3
 72
    14
 73
    10
 74
     0
 42
0.000000001
 43
0.0000000001
 40
0.0
 40
0.0
 40
0.0
 40
0.0
 40
1.0
 40
1.0
 40
1.0
 40
2.0
 40
2.0
 40
2.0
 40
3.0
 40
3.0
 40
3.0
 40
3.0
 10
18565.03324301145
 20
-16547.32036581261
 30
0.0000000000000014
 10
18564.98164922743
 20
-16547.22229352572
 30
0.0000000000000014
 10
18564.91100543084
 20
-16547.13004207599
 30
0.0000000000000014
 10
18564.82184078871
 20
-16547.04987327313
 30
0.0000000000000014
 10
18564.46491763667
 20
-16546.72946264517
 30
0.0000000000000014
 10
18563.9474804899
 20
-16546.723818197
 30
0.0000000000000014
 10
18563.66614002659
 20
-16547.03717326475
 30
0.0000000000000014
 10
18563.66614002659
 20
-16547.03717326475
 30
0.0000000000000014
 10
18562.9350076
 20
-16547.93605163529
 30
0.0000000000000014
 10
18562.9350076
 20
-16547.93605163529
 30
0.0000000000000014
  0
SPLINE
  5
3A7978
330
18
100
AcDbEntity
  8
姿図
100
AcDbSpline
210
0.0
220
0.0
230
1.0
 70
     8
 71
     3
 72
    11
 73
     7
 74
     0
 42
0.000000001
 43
0.0000000001
 40
0.0
 40
0.0
 40
0.0
 40
0.0
 40
1.0
 40
1.0
 40
1.0
 40
2.0
 40
2.0
 40
2.0
 40
2.0
 10
18559.61836513509
 20
-16573.88587291442
 30
0.0000000000000014
 10
18559.61836513509
 20
-16573.88587291442
 30
0.0000000000000014
 10
18561.60124213713
 20
-16569.48937695962
 30
0.0000000000000014
 10
18561.60124213713
 20
-16569.48937695962
 30
0.0000000000000014
 10
18561.60124213713
 20
-16569.48937695962
 30
0.0000000000000014
 10
18561.68784913869
 20
-16569.11190448848
 30
0.0000000000000014
 10
18562.12908623521
 20
-16569.48937695962
 30
0.0000000000000014
  0
SPLINE
  5
3A7979
330
18
100
AcDbEntity
  8
姿図
100
AcDbSpline
210
0.0
220
0.0
230
1.0
 70
     8
 71
     3
 72
     8
 73
     4
 74
     0
 42
0.000000001
 43
0.0000000001
 40
0.0
 40
0.0
 40
0.0
 40
0.0
 40
1.0
 40
1.0
 40
1.0
 40
1.0
 10
18558.63482004205
 20
-16572.06201060057
 30
0.0000000000000014
 10
18559.12571064354
 20
-16571.16507250909
 30
0.0000000000000014
 10
18560.03993485753
 20
-16569.027943322
 30
0.0000000000000014
 10
18560.60870120482
 20
-16564.83217805513
 30
0.0000000000000014
  0
SPLINE
  5
3A797A
330
18
100
AcDbEntity
  8
姿図
100
AcDbSpline
210
0.0
220
0.0
230
1.0
 70
     8
 71
     3
 72
     8
 73
     4
 74
     0
 42
0.000000001
 43
0.0000000001
 40
0.0
 40
0.0
 40
0.0
 40
0.0
 40
1.0
 40
1.0
 40
1.0
 40
1.0
 10
18545.70030248467
 20
-16561.88815736371
 30
0.0000000000000014
 10
18546.45560020497
 20
-16561.27917432323
 30
0.0000000000000014
 10
18548.56097937113
 20
-16559.74264969886
 30
0.0000000000000014
 10
18552.11424768654
 20
-16558.34035710747
 30
0.0000000000000014
  0
SPLINE
  5
3A797B
330
18
100
AcDbEntity
  8
姿図
100
AcDbSpline
210
0.0
220
0.0
230
1.0
 70
     8
 71
     3
 72
     8
 73
     4
 74
     0
 42
0.000000001
 43
0.0000000001
 40
0.0
 40
0.0
 40
0.0
 40
0.0
 40
1.0
 40
1.0
 40
1.0
 40
1.0
 10
18560.64486095089
 20
-16576.73508451555
 30
0.0000000000000014
 10
18561.36029475601
 20
-16579.61498780356
 30
0.0000000000000014
 10
18561.11573140029
 20
-16582.16133948274
 30
0.0000000000000014
 10
18559.51985187568
 20
-16584.0702212971
 30
0.0000000000000014
  0
SPLINE
  5
3A797C
330
18
100
AcDbEntity
  8
姿図
100
AcDbSpline
210
0.0
220
0.0
230
1.0
 70
     8
 71
     3
 72
    11
 73
     7
 74
     0
 42
0.000000001
 43
0.0000000001
 40
0.0
 40
0.0
 40
0.0
 40
0.0
 40
1.0
 40
1.0
 40
1.0
 40
2.0
 40
2.0
 40
2.0
 40
2.0
 10
18542.79023667676
 20
-16561.2612708392
 30
0.0000000000000014
 10
18546.23335005841
 20
-16561.67022874777
 30
0.0000000000000014
 10
18550.12184567822
 20
-16563.38420071138
 30
0.0000000000000014
 10
18553.59088824363
 20
-16566.284388735
 30
0.0000000000000014
 10
18556.37174910523
 20
-16568.60937221264
 30
0.0000000000000014
 10
18558.45005255909
 20
-16571.3345823431
 30
0.0000000000000014
 10
18559.6867158746
 20
-16574.03262856675
 30
0.0000000000000014
  0
SPLINE
  5
3A797D
330
18
100
AcDbEntity
  8
姿図
100
AcDbSpline
210
0.0
220
0.0
230
1.0
 70
     8
 71
     3
 72
     8
 73
     4
 74
     0
 42
0.000000001
 43
0.0000000001
 40
0.0
 40
0.0
 40
0.0
 40
0.0
 40
1.0
 40
1.0
 40
1.0
 40
1.0
 10
18539.88793198507
 20
-16561.24239721564
 30
0.0000000000000014
 10
18540.28348432925
 20
-16561.19538954576
 30
0.0000000000000014
 10
18540.69023737526
 20
-16561.16998952901
 30
0.0000000000000014
 10
18541.10660362205
 20
-16561.16610897089
 30
0.0000000000000014
  0
SPLINE
  5
3A797E
330
18
100
AcDbEntity
  8
姿図
100
AcDbSpline
210
0.0
220
0.0
230
1.0
 70
     8
 71
     3
 72
     8
 73
     4
 74
     0
 42
0.000000001
 43
0.0000000001
 40
0.0
 40
0.0
 40
0.0
 40
0.0
 40
1.0
 40
1.0
 40
1.0
 40
1.0
 10
18534.92822593664
 20
-16563.54894804224
 30
0.0000000000000014
 10
18536.20951567047
 20
-16562.2367902325
 30
0.0000000000000014
 10
18537.85363758801
 20
-16561.48440293079
 30
0.0000000000000014
 10
18539.88793198507
 20
-16561.24239721564
 30
0.0000000000000014
  0
SPLINE
  5
3A797F
330
18
100
AcDbEntity
  8
姿図
100
AcDbSpline
210
0.0
220
0.0
230
1.0
 70
     8
 71
     3
 72
    11
 73
     7
 74
     0
 42
0.000000001
 43
0.0000000001
 40
0.0
 40
0.0
 40
0.0
 40
0.0
 40
1.0
 40
1.0
 40
1.0
 40
2.0
 40
2.0
 40
2.0
 40
2.0
 10
18549.72908197474
 20
-16556.95687359221
 30
0.0000000000000014
 10
18549.72908197474
 20
-16556.95687359221
 30
0.0000000000000014
 10
18544.36389118672
 20
-16560.83661430916
 30
0.0000000000000014
 10
18544.36389118672
 20
-16560.83661430916
 30
0.0000000000000014
 10
18544.36389118672
 20
-16560.83661430916
 30
0.0000000000000014
 10
18543.29823701176
 20
-16561.31304101223
 30
0.0000000000000014
 10
18542.79032487126
 20
-16561.26171181171
 30
0.0000000000000014
  0
SPLINE
  5
3A7980
330
18
100
AcDbEntity
  8
姿図
100
AcDbSpline
210
0.0
220
0.0
230
1.0
 70
     8
 71
     3
 72
     8
 73
     4
 74
     0
 42
0.000000001
 43
0.0000000001
 40
0.0
 40
0.0
 40
0.0
 40
0.0
 40
1.0
 40
1.0
 40
1.0
 40
1.0
 10
18560.34270658497
 20
-16574.11729528926
 30
0.0000000000000014
 10
18560.34270658497
 20
-16574.11729528926
 30
0.0000000000000014
 10
18560.20362385437
 20
-16574.73783180958
 30
0.0000000000000014
 10
18560.37860174753
 20
-16575.70656022618
 30
0.0000000000000014
  0
SPLINE
  5
3A7981
330
18
100
AcDbEntity
  8
姿図
100
AcDbSpline
210
0.0
220
0.0
230
1.0
 70
     8
 71
     3
 72
    17
 73
    13
 74
     0
 42
0.000000001
 43
0.0000000001
 40
0.0
 40
0.0
 40
0.0
 40
0.0
 40
1.0
 40
1.0
 40
1.0
 40
2.0
 40
2.0
 40
2.0
 40
3.0
 40
3.0
 40
3.0
 40
4.0
 40
4.0
 40
4.0
 40
4.0
 10
18527.91729214666
 20
-16573.58477688253
 30
0.0000000000000014
 10
18527.87231295033
 20
-16571.99304249954
 30
0.0000000000000014
 10
18528.27633196676
 20
-16570.58757490604
 30
0.0000000000000014
 10
18529.18244228651
 20
-16569.50366446904
 30
0.0000000000000014
 10
18532.39880760197
 20
-16565.65626748746
 30
0.0000000000000014
 10
18540.72436864777
 20
-16567.31891025054
 30
0.0000000000000014
 10
18547.77860593853
 20
-16573.21630025066
 30
0.0000000000000014
 10
18554.83257864579
 20
-16579.11386663977
 30
0.0000000000000014
 10
18557.94363972514
 20
-16587.01309545999
 30
0.0000000000000014
 10
18554.72718621518
 20
-16590.86049244158
 30
0.0000000000000014
 10
18553.86323286768
 20
-16591.89377923408
 30
0.0000000000000014
 10
18552.63062649928
 20
-16592.52966159786
 30
0.0000000000000014
 10
18551.15319219166
 20
-16592.79283399363
 30
0.0000000000000014
  0
SPLINE
  5
3A7982
330
18
100
AcDbEntity
  8
姿図
100
AcDbSpline
210
0.0
220
0.0
230
1.0
 70
     8
 71
     3
 72
    11
 73
     7
 74
     0
 42
0.000000001
 43
0.0000000001
 40
0.0
 40
0.0
 40
0.0
 40
0.0
 40
1.0
 40
1.0
 40
1.0
 40
2.0
 40
2.0
 40
2.0
 40
2.0
 10
18529.57737726917
 20
-16571.20087947715
 30
0.0000000000000014
 10
18532.38354995302
 20
-16567.88247312218
 30
0.0000000000000014
 10
18539.89745699136
 20
-16569.62343260358
 30
0.0000000000000014
 10
18546.36052653117
 20
-16575.08902231894
 30
0.0000000000000014
 10
18552.82333148747
 20
-16580.55461203431
 30
0.0000000000000014
 10
18555.7878133035
 20
-16587.67525978554
 30
0.0000000000000014
 10
18552.98119964713
 20
-16590.99366614051
 30
0.0000000000000014
  0
SPLINE
  5
3A7983
330
18
100
AcDbEntity
  8
姿図
100
AcDbSpline
210
0.0
220
0.0
230
1.0
 70
    11
 71
     3
 72
    17
 73
    13
 74
     0
 42
0.000000001
 43
0.0000000001
 40
0.0
 40
0.0
 40
0.0
 40
0.0
 40
1.0
 40
1.0
 40
1.0
 40
2.0
 40
2.0
 40
2.0
 40
3.0
 40
3.0
 40
3.0
 40
4.0
 40
4.0
 40
4.0
 40
4.0
 10
18548.86339832056
 20
-16595.04514520112
 30
0.0000000000000014
 10
18546.20512781758
 20
-16598.30710707443
 30
0.0000000000000014
 10
18538.92405426611
 20
-16596.77322828514
 30
0.0000000000000014
 10
18532.5998910679
 20
-16591.61949433098
 30
0.0000000000000014
 10
18526.2760806477
 20
-16586.46540759881
 30
0.0000000000000014
 10
18523.30436688247
 20
-16579.64338643341
 30
0.0000000000000014
 10
18525.96263738545
 20
-16576.38160094911
 30
0.0000000000000014
 10
18528.62099608293
 20
-16573.11981546481
 30
0.0000000000000014
 10
18535.9022460234
 20
-16574.65351786509
 30
0.0000000000000014
 10
18542.22640922161
 20
-16579.80725181924
 30
0.0000000000000014
 10
18548.55021964182
 20
-16584.96116216241
 30
0.0000000000000014
 10
18551.52210979605
 20
-16591.78318332782
 30
0.0000000000000014
 10
18548.86339832056
 20
-16595.04514520112
 30
0.0000000000000014
  0
SPLINE
  5
3A7984
330
18
100
AcDbEntity
  8
姿図
100
AcDbSpline
210
0.0
220
0.0
230
1.0
 70
     8
 71
     3
 72
    11
 73
     7
 74
     0
 42
0.000000001
 43
0.0000000001
 40
0.0
 40
0.0
 40
0.0
 40
0.0
 40
1.0
 40
1.0
 40
1.0
 40
2.0
 40
2.0
 40
2.0
 40
2.0
 10
18546.51345579868
 20
-16584.89695656451
 30
0.0000000000000014
 10
18544.68439000918
 20
-16584.12790050181
 30
0.0000000000000014
 10
18542.7748026388
 20
-16582.98384141403
 30
0.0000000000000014
 10
18540.95490907758
 20
-16581.50076265824
 30
0.0000000000000014
 10
18539.11058563912
 20
-16579.99757555586
 30
0.0000000000000014
 10
18537.5888776912
 20
-16578.33405084775
 30
0.0000000000000014
 10
18536.46192833692
 20
-16576.6758178098
 30
0.0000000000000014
  0
POLYLINE
  5
3A7985
330
18
100
AcDbEntity
  8
姿図
100
AcDb2dPolyline
 66
     1
 10
0.0
 20
0.0
 30
0.0000000000000014
  0
VERTEX
  5
3A7986
330
3A7985
100
AcDbEntity
  8
姿図
100
AcDbVertex
100
AcDb2dVertex
 10
18531.16214428646
 20
-16567.09736566
 30
0.0000000000000014
  0
VERTEX
  5
3A7987
330
3A7985
100
AcDbEntity
  8
姿図
100
AcDbVertex
100
AcDb2dVertex
 10
18534.92822593664
 20
-16563.54894804224
 30
0.0000000000000014
  0
SEQEND
  5
3A7988
330
3A7985
100
AcDbEntity
  8
姿図
  0
SPLINE
  5
3A7989
330
18
100
AcDbEntity
  8
姿図
100
AcDbSpline
210
0.0
220
0.0
230
1.0
 70
     8
 71
     3
 72
    17
 73
    13
 74
     0
 42
0.000000001
 43
0.0000000001
 40
0.0
 40
0.0
 40
0.0
 40
0.0
 40
1.0
 40
1.0
 40
1.0
 40
2.0
 40
2.0
 40
2.0
 40
3.0
 40
3.0
 40
3.0
 40
4.0
 40
4.0
 40
4.0
 40
4.0
 10
18554.72718621518
 20
-16590.86049244158
 30
0.0000000000000014
 10
18554.72718621518
 20
-16590.86049244158
 30
0.0000000000000014
 10
18556.46770472407
 20
-16588.67044655292
 30
0.0000000000000014
 10
18556.46770472407
 20
-16588.67044655292
 30
0.0000000000000014
 10
18559.80445553558
 20
-16584.67964531009
 30
0.0000000000000014
 10
18556.79631744077
 20
-16576.66876224958
 30
0.0000000000000014
 10
18549.74984126623
 20
-16570.77719308664
 30
0.0000000000000014
 10
18542.70283592468
 20
-16564.88580031271
 30
0.0000000000000014
 10
18534.28564079067
 20
-16563.34468957421
 30
0.0000000000000014
 10
18530.94933095167
 20
-16567.33566720604
 30
0.0000000000000014
 10
18530.94933095167
 20
-16567.33566720604
 30
0.0000000000000014
 10
18529.48098067782
 20
-16569.17734480941
 30
0.0000000000000014
 10
18529.48098067782
 20
-16569.17734480941
 30
0.0000000000000014
  0
SPLINE
  5
3A798A
330
18
100
AcDbEntity
  8
姿図
100
AcDbSpline
210
0.0
220
0.0
230
1.0
 70
     8
 71
     3
 72
    14
 73
    10
 74
     0
 42
0.000000001
 43
0.0000000001
 40
0.0
 40
0.0
 40
0.0
 40
0.0
 40
1.0
 40
1.0
 40
1.0
 40
2.0
 40
2.0
 40
2.0
 40
3.0
 40
3.0
 40
3.0
 40
3.0
 10
18557.04317385356
 20
-16587.83400989022
 30
0.0000000000000014
 10
18557.04317385356
 20
-16587.83400989022
 30
0.0000000000000014
 10
18559.41525319559
 20
-16584.26195614576
 30
0.0000000000000014
 10
18559.41525319559
 20
-16584.26195614576
 30
0.0000000000000014
 10
18562.3150002467
 20
-16579.86140324384
 30
0.0000000000000014
 10
18559.59455261938
 20
-16572.14314954297
 30
0.0000000000000014
 10
18553.07239276283
 20
-16566.68990705797
 30
0.0000000000000014
 10
18547.42432862158
 20
-16561.96797338856
 30
0.0000000000000014
 10
18540.56032687292
 20
-16560.38214803724
 30
0.0000000000000014
 10
18536.37364563982
 20
-16562.39562853169
 30
0.0000000000000014
  0
SPLINE
  5
3A798B
330
18
100
AcDbEntity
  8
姿図
100
AcDbSpline
210
0.0
220
0.0
230
1.0
 70
    11
 71
     3
 72
    17
 73
    13
 74
     0
 42
0.000000001
 43
0.0000000001
 40
0.0
 40
0.0
 40
0.0
 40
0.0
 40
1.0
 40
1.0
 40
1.0
 40
2.0
 40
2.0
 40
2.0
 40
3.0
 40
3.0
 40
3.0
 40
4.0
 40
4.0
 40
4.0
 40
4.0
 10
18548.61495440673
 20
-16594.98887710846
 30
0.0000000000000014
 10
18546.07839231734
 20
-16598.10161388336
 30
0.0000000000000014
 10
18538.97503068862
 20
-16596.5112906124
 30
0.0000000000000014
 10
18532.7485869993
 20
-16591.4371080996
 30
0.0000000000000014
 10
18526.52240789348
 20
-16586.36274919779
 30
0.0000000000000014
 10
18523.53129133767
 20
-16579.72611287685
 30
0.0000000000000014
 10
18526.06785342706
 20
-16576.61355249096
 30
0.0000000000000014
 10
18528.60450371094
 20
-16573.50116849407
 30
0.0000000000000014
 10
18535.70804172867
 20
-16575.09113898701
 30
0.0000000000000014
 10
18541.93448541799
 20
-16580.16549788882
 30
0.0000000000000014
 10
18548.16066452381
 20
-16585.23985679063
 30
0.0000000000000014
 10
18551.15186927412
 20
-16591.87631672257
 30
0.0000000000000014
 10
18548.61495440673
 20
-16594.98887710846
 30
0.0000000000000014
  0
POLYLINE
  5
3A798C
330
18
100
AcDbEntity
  8
姿図
100
AcDb2dPolyline
 66
     1
 10
0.0
 20
0.0
 30
0.0000000000000014
  0
VERTEX
  5
3A798D
330
3A798C
100
AcDbEntity
  8
姿図
100
AcDbVertex
100
AcDb2dVertex
 10
18529.61274326471
 20
-16571.15907528292
 30
0.0000000000000014
  0
VERTEX
  5
3A798E
330
3A798C
100
AcDbEntity
  8
姿図
100
AcDbVertex
100
AcDb2dVertex
 10
18525.96263738545
 20
-16576.38160094911
 30
0.0000000000000014
  0
SEQEND
  5
3A798F
330
3A798C
100
AcDbEntity
  8
姿図
  0
POLYLINE
  5
3A7990
330
18
100
AcDbEntity
  8
姿図
100
AcDb2dPolyline
 66
     1
 10
0.0
 20
0.0
 30
0.0000000000000014
  0
VERTEX
  5
3A7991
330
3A7990
100
AcDbEntity
  8
姿図
100
AcDbVertex
100
AcDb2dVertex
 10
18552.98119964713
 20
-16590.99366614051
 30
0.0000000000000014
  0
VERTEX
  5
3A7992
330
3A7990
100
AcDbEntity
  8
姿図
100
AcDbVertex
100
AcDb2dVertex
 10
18548.86339832056
 20
-16595.04514520112
 30
0.0000000000000014
  0
SEQEND
  5
3A7993
330
3A7990
100
AcDbEntity
  8
姿図
  0
SPLINE
  5
3A7994
330
18
100
AcDbEntity
  8
姿図
100
AcDbSpline
210
0.0
220
0.0
230
1.0
 70
     8
 71
     3
 72
    14
 73
    10
 74
     0
 42
0.000000001
 43
0.0000000001
 40
0.0
 40
0.0
 40
0.0
 40
0.0
 40
1.0
 40
1.0
 40
1.0
 40
2.0
 40
2.0
 40
2.0
 40
3.0
 40
3.0
 40
3.0
 40
3.0
 10
18567.79734691756
 20
-16563.39002154855
 30
0.0000000000000014
 10
18567.79734691756
 20
-16563.39002154855
 30
0.0000000000000014
 10
18567.64203639847
 20
-16563.36532708782
 30
0.0000000000000014
 10
18567.64203639847
 20
-16563.36532708782
 30
0.0000000000000014
 10
18567.05765962422
 20
-16563.36532708782
 30
0.0000000000000014
 10
18566.58379056173
 20
-16564.35486940703
 30
0.0000000000000014
 10
18566.58379056173
 20
-16565.57565771208
 30
0.0000000000000014
 10
18566.58379056173
 20
-16566.44172772764
 30
0.0000000000000014
 10
18566.82235669127
 20
-16567.19155738878
 30
0.0000000000000014
 10
18567.16949025352
 20
-16567.55403679449
 30
0.0000000000000014
  0
SPLINE
  5
3A7995
330
18
100
AcDbEntity
  8
姿図
100
AcDbSpline
210
0.0
220
0.0
230
1.0
 70
     8
 71
     3
 72
     8
 73
     4
 74
     0
 42
0.000000001
 43
0.0000000001
 40
0.0
 40
0.0
 40
0.0
 40
0.0
 40
0.0001341872790085
 40
0.0001341872790085
 40
0.0001341872790085
 40
0.0001341872790085
 10
18549.51806611339
 20
-16592.18923081781
 30
0.0000000000000014
 10
18549.51804759227
 20
-16592.18932419264
 30
0.0000000000000014
 10
18549.51802906861
 20
-16592.18941756618
 30
0.0000000000000014
 10
18549.5180105424
 20
-16592.18951093842
 30
0.0000000000000014
  0
SPLINE
  5
3A7996
330
18
100
AcDbEntity
  8
姿図
100
AcDbSpline
210
0.0
220
0.0
230
1.0
 70
     8
 71
     3
 72
    11
 73
     7
 74
     0
 42
0.000000001
 43
0.0000000001
 40
0.0514768077159905
 40
0.0514768077159905
 40
0.0514768077159905
 40
0.0514768077159905
 40
1.0
 40
1.0
 40
1.0
 40
1.99935959912693
 40
1.99935959912693
 40
1.99935959912693
 40
1.99935959912693
 10
18548.98296310939
 20
-16593.59379273482
 30
0.0000000000000014
 10
18546.04191968871
 20
-16595.93221080057
 30
0.0000000000000014
 10
18539.60535038673
 20
-16594.36502916816
 30
0.0000000000000014
 10
18533.97916489412
 20
-16589.77975700667
 30
0.0000000000000014
 10
18528.20374467625
 20
-16585.0728340388
 30
0.0000000000000014
 10
18525.37051344507
 20
-16578.88737368415
 30
0.0000000000000014
 10
18527.36074516761
 20
-16575.59241730894
 30
0.0000000000000014
  0
SPLINE
  5
3A7997
330
18
100
AcDbEntity
  8
姿図
100
AcDbSpline
210
0.0
220
0.0
230
1.0
 70
     8
 71
     3
 72
    11
 73
     7
 74
     0
 42
0.000000001
 43
0.0000000001
 40
0.0757593931857056
 40
0.0757593931857056
 40
0.0757593931857056
 40
0.0757593931857056
 40
1.0
 40
1.0
 40
1.0
 40
1.955653258244389
 40
1.955653258244389
 40
1.955653258244389
 40
1.955653258244389
 10
18549.18122213885
 20
-16593.22466629537
 30
0.0000000000000014
 10
18546.1438284028
 20
-16595.30893604115
 30
0.0000000000000014
 10
18539.89225298325
 20
-16593.70658854138
 30
0.0000000000000014
 10
18534.41010016292
 20
-16589.23870124098
 30
0.0000000000000014
 10
18528.88726418499
 20
-16584.73763248207
 30
0.0000000000000014
 10
18526.05489526232
 20
-16578.88452408631
 30
0.0000000000000014
 10
18527.55807601926
 20
-16575.49989032361
 30
0.0000000000000014
  0
SPLINE
  5
3A7998
330
18
100
AcDbEntity
  8
姿図
100
AcDbSpline
210
0.0
220
0.0
230
1.0
 70
     8
 71
     3
 72
    11
 73
     7
 74
     0
 42
0.000000001
 43
0.0000000001
 40
0.1032501974754412
 40
0.1032501974754412
 40
0.1032501974754412
 40
0.1032501974754412
 40
1.0
 40
1.0
 40
1.0
 40
1.916038734962438
 40
1.916038734962438
 40
1.916038734962438
 40
1.916038734962438
 10
18549.33269669751
 20
-16592.85983214276
 30
0.0000000000000014
 10
18546.2035480819
 20
-16594.67002396849
 30
0.0000000000000014
 10
18540.1601259616
 20
-16593.03263900922
 30
0.0000000000000014
 10
18534.8410354317
 20
-16588.69764547529
 30
0.0000000000000014
 10
18529.547136584
 20
-16584.38315871315
 30
0.0000000000000014
 10
18526.72527302137
 20
-16578.82640076893
 30
0.0000000000000014
 10
18527.82431065915
 20
-16575.39219528296
 30
0.0000000000000014
  0
SPLINE
  5
3A7999
330
18
100
AcDbEntity
  8
姿図
100
AcDbSpline
210
0.0
220
0.0
230
1.0
 70
     8
 71
     3
 72
    11
 73
     7
 74
     0
 42
0.000000001
 43
0.0000000001
 40
0.1323499937987221
 40
0.1323499937987221
 40
0.1323499937987221
 40
0.1323499937987221
 40
1.0
 40
1.0
 40
1.0
 40
1.878224141983641
 40
1.878224141983641
 40
1.878224141983641
 40
1.878224141983641
 10
18549.44992452665
 20
-16592.48413466512
 30
0.0000000000000014
 10
18546.24302441704
 20
-16594.01986031001
 30
0.0000000000000014
 10
18540.41845516946
 20
-16592.3509114212
 30
0.0000000000000014
 10
18535.27197070049
 20
-16588.15658970961
 30
0.0000000000000014
 10
18530.19660696769
 20
-16584.02020738192
 30
0.0000000000000014
 10
18527.39339707022
 20
-16578.74200023968
 30
0.0000000000000014
 10
18528.13908197906
 20
-16575.28705163279
 30
0.0000000000000014
  0
SPLINE
  5
3A799A
330
18
100
AcDbEntity
  8
姿図
100
AcDbSpline
210
0.0
220
0.0
230
1.0
 70
     8
 71
     3
 72
    11
 73
     7
 74
     0
 42
0.000000001
 43
0.0000000001
 40
0.1641920493002541
 40
0.1641920493002541
 40
0.1641920493002541
 40
0.1641920493002541
 40
1.0
 40
1.0
 40
1.0
 40
1.841127923927267
 40
1.841127923927267
 40
1.841127923927267
 40
1.841127923927267
 10
18549.51737408101
 20
-16592.09924369052
 30
0.0000000000000014
 10
18546.2473589631
 20
-16593.35290513786
 30
0.0000000000000014
 10
18540.66051860868
 20
-16591.65592743126
 30
0.0000000000000014
 10
18535.70290596928
 20
-16587.61553394392
 30
0.0000000000000014
 10
18530.84192577565
 20
-16583.65387254846
 30
0.0000000000000014
 10
18528.06520172806
 20
-16578.64481051032
 30
0.0000000000000014
 10
18528.49442378951
 20
-16575.19334313291
 30
0.0000000000000014
  0
SPLINE
  5
3A799B
330
18
100
AcDbEntity
  8
姿図
100
AcDbSpline
210
0.0
220
0.0
230
1.0
 70
     8
 71
     3
 72
    11
 73
     7
 74
     0
 42
0.000000001
 43
0.0000000001
 40
0.2012469607704792
 40
0.2012469607704792
 40
0.2012469607704792
 40
0.2012469607704792
 40
1.0
 40
1.0
 40
1.0
 40
1.804139848512499
 40
1.804139848512499
 40
1.804139848512499
 40
1.804139848512499
 10
18549.49998381642
 20
-16591.70758256139
 30
0.0000000000000014
 10
18546.18415433654
 20
-16592.65677489129
 30
0.0000000000000014
 10
18540.87166188183
 20
-16590.93574388525
 30
0.0000000000000014
 10
18536.13384123807
 20
-16587.07447817823
 30
0.0000000000000014
 10
18531.48661961419
 20
-16583.28702836973
 30
0.0000000000000014
 10
18528.74437683173
 20
-16578.54227009096
 30
0.0000000000000014
 10
18528.88723781217
 20
-16575.11643019727
 30
0.0000000000000014
  0
SPLINE
  5
3A799C
330
18
100
AcDbEntity
  8
姿図
100
AcDbSpline
210
0.0
220
0.0
230
1.0
 70
     8
 71
     3
 72
    11
 73
     7
 74
     0
 42
0.000000001
 43
0.0000000001
 40
0.2383717968276542
 40
0.2383717968276542
 40
0.2383717968276542
 40
0.2383717968276542
 40
1.0
 40
1.0
 40
1.0
 40
1.766855141465714
 40
1.766855141465714
 40
1.766855141465714
 40
1.766855141465714
 10
18549.45589313279
 20
-16591.28162604019
 30
0.0000000000000014
 10
18546.12249777321
 20
-16591.95111383456
 30
0.0000000000000014
 10
18541.08239039581
 20
-16590.21522231562
 30
0.0000000000000014
 10
18536.56477650686
 20
-16586.53342241255
 30
0.0000000000000014
 10
18532.13302772287
 20
-16582.92158130796
 30
0.0000000000000014
 10
18529.43370080325
 20
-16578.43914674124
 30
0.0000000000000014
 10
18529.31681092845
 20
-16575.06018073118
 30
0.0000000000000014
  0
SPLINE
  5
3A799D
330
18
100
AcDbEntity
  8
姿図
100
AcDbSpline
210
0.0
220
0.0
230
1.0
 70
     8
 71
     3
 72
    11
 73
     7
 74
     0
 42
0.000000001
 43
0.0000000001
 40
0.2759365766446367
 40
0.2759365766446367
 40
0.2759365766446367
 40
0.2759365766446367
 40
1.0
 40
1.0
 40
1.0
 40
1.728960078216898
 40
1.728960078216898
 40
1.728960078216898
 40
1.728960078216898
 10
18549.38141453709
 20
-16590.82213200603
 30
0.0000000000000014
 10
18546.05753098342
 20
-16591.23409023838
 30
0.0000000000000014
 10
18541.29050937401
 20
-16589.49257400633
 30
0.0000000000000014
 10
18536.99571177565
 20
-16585.99236664686
 30
0.0000000000000014
 10
18532.782963154
 20
-16582.5590089868
 30
0.0000000000000014
 10
18530.13564750866
 20
-16578.33897474258
 30
0.0000000000000014
 10
18529.78389100892
 20
-16575.02789756035
 30
0.0000000000000014
  0
SPLINE
  5
3A799E
330
18
100
AcDbEntity
  8
姿図
100
AcDbSpline
210
0.0
220
0.0
230
1.0
 70
     8
 71
     3
 72
    11
 73
     7
 74
     0
 42
0.000000001
 43
0.0000000001
 40
0.3142573428806394
 40
0.3142573428806394
 40
0.3142573428806394
 40
0.3142573428806394
 40
1.0
 40
1.0
 40
1.0
 40
1.690173445998052
 40
1.690173445998052
 40
1.690173445998052
 40
1.690173445998052
 10
18549.27276138657
 20
-16590.32844720563
 30
0.0000000000000014
 10
18545.98520354494
 20
-16590.50377025968
 30
0.0000000000000014
 10
18541.49414420269
 20
-16588.76627117019
 30
0.0000000000000014
 10
18537.42664704444
 20
-16585.45131088117
 30
0.0000000000000014
 10
18533.43805107024
 20
-16582.2006359013
 30
0.0000000000000014
 10
18530.8527323346
 20
-16578.24477241361
 30
0.0000000000000014
 10
18530.29036218979
 20
-16575.02283551722
 30
0.0000000000000014
  0
SPLINE
  5
3A799F
330
18
100
AcDbEntity
  8
姿図
100
AcDbSpline
210
0.0
220
0.0
230
1.0
 70
     8
 71
     3
 72
    11
 73
     7
 74
     0
 42
0.000000001
 43
0.0000000001
 40
0.3536413394393382
 40
0.3536413394393382
 40
0.3536413394393382
 40
0.3536413394393382
 40
1.0
 40
1.0
 40
1.0
 40
1.650209421469303
 40
1.650209421469303
 40
1.650209421469303
 40
1.650209421469303
 10
18549.12565645161
 20
-16589.79873439349
 30
0.0000000000000014
 10
18545.9016693384
 20
-16589.75793298383
 30
0.0000000000000014
 10
18541.69147245809
 20
-16588.03482855419
 30
0.0000000000000014
 10
18537.85758231323
 20
-16584.91025511549
 30
0.0000000000000014
 10
18534.0999432793
 20
-16581.84780826201
 30
0.0000000000000014
 10
18531.58777491633
 20
-16578.15947538984
 30
0.0000000000000014
 10
18530.83921643002
 20
-16575.04857492201
 30
0.0000000000000014
  0
SPLINE
  5
3A79A0
330
18
100
AcDbEntity
  8
姿図
100
AcDbSpline
210
0.0
220
0.0
230
1.0
 70
     8
 71
     3
 72
    11
 73
     7
 74
     0
 42
0.000000001
 43
0.0000000001
 40
0.3944223840632796
 40
0.3944223840632796
 40
0.3944223840632796
 40
0.3944223840632796
 40
1.0
 40
1.0
 40
1.0
 40
1.60874644322287
 40
1.60874644322287
 40
1.60874644322287
 40
1.60874644322287
 10
18548.93491813417
 20
-16589.22993555065
 30
0.0000000000000014
 10
18545.80283030395
 20
-16588.99386480489
 30
0.0000000000000014
 10
18541.88051409317
 20
-16587.29663244428
 30
0.0000000000000014
 10
18538.28851758202
 20
-16584.3691993498
 30
0.0000000000000014
 10
18534.77049812354
 20
-16581.50204060362
 30
0.0000000000000014
 10
18532.34416999767
 20
-16578.08627452549
 30
0.0000000000000014
 10
18531.43473588229
 20
-16575.10938519331
 30
0.0000000000000014
  0
SPLINE
  5
3A79A1
330
18
100
AcDbEntity
  8
姿図
100
AcDbSpline
210
0.0
220
0.0
230
1.0
 70
     8
 71
     3
 72
    11
 73
     7
 74
     0
 42
0.000000001
 43
0.0000000001
 40
0.4369980186941804
 40
0.4369980186941804
 40
0.4369980186941804
 40
0.4369980186941804
 40
1.0
 40
1.0
 40
1.0
 40
1.565392169551839
 40
1.565392169551839
 40
1.565392169551839
 40
1.565392169551839
 10
18548.69391266106
 20
-16588.61750143336
 30
0.0000000000000014
 10
18545.6838749492
 20
-16588.20807762186
 30
0.0000000000000014
 10
18542.05891107945
 20
-16586.54976107617
 30
0.0000000000000014
 10
18538.71945285081
 20
-16583.82814358411
 30
0.0000000000000014
 10
18535.4519829932
 20
-16581.16518083172
 30
0.0000000000000014
 10
18533.12624348677
 20
-16578.02897059633
 30
0.0000000000000014
 10
18532.08290602465
 20
-16575.21068351319
 30
0.0000000000000014
  0
SPLINE
  5
3A79A2
330
18
100
AcDbEntity
  8
姿図
100
AcDbSpline
210
0.0
220
0.0
230
1.0
 70
     8
 71
     3
 72
    11
 73
     7
 74
     0
 42
0.000000001
 43
0.0000000001
 40
0.481879997568997
 40
0.481879997568997
 40
0.481879997568997
 40
0.481879997568997
 40
1.0
 40
1.0
 40
1.0
 40
1.519633642026464
 40
1.519633642026464
 40
1.519633642026464
 40
1.519633642026464
 10
18548.39370833871
 20
-16587.95481245926
 30
0.0000000000000014
 10
18545.53866734466
 20
-16587.3958656306
 30
0.0000000000000014
 10
18542.22362793579
 20
-16585.79174056996
 30
0.0000000000000014
 10
18539.1503881196
 20
-16583.28708781843
 30
0.0000000000000014
 10
18536.14736233722
 20
-16580.83964494934
 30
0.0000000000000014
 10
18533.93980234931
 20
-16577.99245688294
 30
0.0000000000000014
 10
18532.79217940214
 20
-16575.35972752325
 30
0.0000000000000014
  0
SPLINE
  5
3A79A3
330
18
100
AcDbEntity
  8
姿図
100
AcDbSpline
210
0.0
220
0.0
230
1.0
 70
     8
 71
     3
 72
    11
 73
     7
 74
     0
 42
0.000000001
 43
0.0000000001
 40
0.5297770028492169
 40
0.5297770028492169
 40
0.5297770028492169
 40
0.5297770028492169
 40
1.0
 40
1.0
 40
1.0
 40
1.470753821489875
 40
1.470753821489875
 40
1.470753821489875
 40
1.470753821489875
 10
18548.02161188161
 20
-16587.2320615324
 30
0.0000000000000014
 10
18545.35875902037
 20
-16586.55053109983
 30
0.0000000000000014
 10
18542.37046109886
 20
-16585.01914507313
 30
0.0000000000000014
 10
18539.58132338839
 20
-16582.74603205274
 30
0.0000000000000014
 10
18536.86078001176
 20
-16580.52881016732
 30
0.0000000000000014
 10
18534.79308857251
 20
-16577.98351078525
 30
0.0000000000000014
 10
18533.57488743062
 20
-16575.56680377175
 30
0.0000000000000014
  0
SPLINE
  5
3A79A4
330
18
100
AcDbEntity
  8
姿図
100
AcDbSpline
210
0.0
220
0.0
230
1.0
 70
     8
 71
     3
 72
    11
 73
     7
 74
     0
 42
0.000000001
 43
0.0000000001
 40
0.0386121084381379
 40
0.0386121084381379
 40
0.0386121084381379
 40
0.0386121084381379
 40
1.0
 40
1.0
 40
1.0
 40
1.99935959912693
 40
1.99935959912693
 40
1.99935959912693
 40
1.99935959912693
 10
18548.78260795462
 20
-16593.98994418753
 30
0.0000000000000014
 10
18545.78573023095
 20
-16596.51522235378
 30
0.0000000000000014
 10
18539.25072235538
 20
-16594.96827439631
 30
0.0000000000000014
 10
18533.54822962534
 20
-16590.32081277236
 30
0.0000000000000014
 10
18527.77280940746
 20
-16585.61388980449
 30
0.0000000000000014
 10
18524.93957817628
 20
-16579.42842944984
 30
0.0000000000000014
 10
18526.92980989882
 20
-16576.13347307463
 30
0.0000000000000014
  0
ARC
  5
3A79A5
330
18
100
AcDbEntity
  8
姿図
100
AcDbCircle
 10
18530.87001781472
 20
-16578.81341040728
 30
0.0000000000000014
 40
4.765217993700172
100
AcDbArc
 50
137.9248936100408
 51
145.7783724837881
  0
ARC
  5
3A79A6
330
18
100
AcDbEntity
  8
姿図
100
AcDbCircle
 10
18550.48133723736
 20
-16578.81744043154
 30
0.0000000000000014
 40
10.37465278630733
100
AcDbArc
 50
17.44882884848328
 51
27.46470538248264
  0
SPLINE
  5
3A79A7
330
18
100
AcDbEntity
  8
姿図
100
AcDbSpline
210
0.0
220
0.0
230
1.0
 70
     8
 71
     3
 72
    17
 73
    13
 74
     0
 42
0.000000001
 43
0.0000000001
 40
0.0
 40
0.0
 40
0.0
 40
0.0
 40
1.0
 40
1.0
 40
1.0
 40
2.0
 40
2.0
 40
2.0
 40
3.0
 40
3.0
 40
3.0
 40
4.0
 40
4.0
 40
4.0
 40
4.0
 10
18549.44109375415
 20
-16550.92929265025
 30
0.0000000000000014
 10
18549.44109375415
 20
-16550.92929265025
 30
0.0000000000000014
 10
18549.18071802143
 20
-16550.60274725547
 30
0.0000000000000014
 10
18549.18071802143
 20
-16550.60274725547
 30
0.0000000000000014
 10
18549.18071802143
 20
-16550.60274725547
 30
0.0000000000000014
 10
18549.13001863358
 20
-16550.52439365607
 30
0.0000000000000014
 10
18549.18127110566
 20
-16550.45415195871
 30
0.0000000000000014
 10
18549.21205946119
 20
-16550.41193319574
 30
0.0000000000000014
 10
18549.27953573738
 20
-16550.37266421534
 30
0.0000000000000014
 10
18549.41670062669
 20
-16550.35496551994
 30
0.0000000000000014
 10
18549.41670062669
 20
-16550.35496551994
 30
0.0000000000000014
 10
18549.73172818665
 20
-16550.68119303558
 30
0.0000000000000014
 10
18549.73172818665
 20
-16550.68119303558
 30
0.0000000000000014
  0
POLYLINE
  5
3A79A8
330
18
100
AcDbEntity
  8
姿図
100
AcDb2dPolyline
 66
     1
 10
0.0
 20
0.0
 30
0.0000000000000014
  0
VERTEX
  5
3A79A9
330
3A79A8
100
AcDbEntity
  8
姿図
100
AcDbVertex
100
AcDb2dVertex
 10
18549.21648413504
 20
-16550.4201372785
 30
0.0000000000000014
  0
VERTEX
  5
3A79AA
330
3A79A8
100
AcDbEntity
  8
姿図
100
AcDbVertex
100
AcDb2dVertex
 10
18550.41962669906
 20
-16548.88007423705
 30
0.0000000000000014
  0
VERTEX
  5
3A79AB
330
3A79A8
100
AcDbEntity
  8
姿図
100
AcDbVertex
100
AcDb2dVertex
 10
18551.43423461804
 20
-16547.9136866163
 30
0.0000000000000014
  0
SEQEND
  5
3A79AC
330
3A79A8
100
AcDbEntity
  8
姿図
  0
POLYLINE
  5
3A79AD
330
18
100
AcDbEntity
  8
姿図
100
AcDb2dPolyline
 66
     1
 10
0.0
 20
0.0
 30
0.0000000000000014
  0
VERTEX
  5
3A79AE
330
3A79AD
100
AcDbEntity
  8
姿図
100
AcDbVertex
100
AcDb2dVertex
 10
18549.41670062669
 20
-16550.35496551994
 30
0.0000000000000014
  0
VERTEX
  5
3A79AF
330
3A79AD
100
AcDbEntity
  8
姿図
100
AcDbVertex
100
AcDb2dVertex
 10
18550.596613653
 20
-16548.86827510679
 30
0.0000000000000014
  0
VERTEX
  5
3A79B0
330
3A79AD
100
AcDbEntity
  8
姿図
100
AcDbVertex
100
AcDb2dVertex
 10
18551.51694581353
 20
-16547.9948629252
 30
0.0000000000000014
  0
SEQEND
  5
3A79B1
330
3A79AD
100
AcDbEntity
  8
姿図
  0
ARC
  5
3A79B2
330
18
100
AcDbEntity
  8
姿図
100
AcDbCircle
 10
18544.50820524124
 20
-16591.24069799679
 30
0.0000000000000014
 40
5.082211445174903
100
AcDbArc
 50
318.2161718189155
 51
350.2742989310811
  0
SPLINE
  5
3A79B3
330
18
100
AcDbEntity
  8
姿図
100
AcDbSpline
210
0.0
220
0.0
230
1.0
 70
     8
 71
     3
 72
    11
 73
     7
 74
     0
 42
0.000000001
 43
0.0000000001
 40
0.0386121084381379
 40
0.0386121084381379
 40
0.0386121084381379
 40
0.0386121084381379
 40
1.0
 40
1.0
 40
1.0
 40
1.99935959912693
 40
1.99935959912693
 40
1.99935959912693
 40
1.99935959912693
 10
18548.29782786333
 20
-16594.62708745396
 30
0.0000000000000014
 10
18545.41380302613
 20
-16597.10476584382
 30
0.0000000000000014
 10
18538.87879515055
 20
-16595.55781788635
 30
0.0000000000000014
 10
18533.17630242051
 20
-16590.91035626239
 30
0.0000000000000014
 10
18527.40088220264
 20
-16586.20343329453
 30
0.0000000000000014
 10
18524.56765097145
 20
-16580.01797293988
 30
0.0000000000000014
 10
18526.557882694
 20
-16576.72301656467
 30
0.0000000000000014
  0
ELLIPSE
  5
3A79B4
330
18
100
AcDbEntity
  8
姿図
100
AcDbEllipse
 10
18556.40048460869
 20
-16527.58278123584
 30
0.0000000000000014
 11
25.18660852149495
 21
0.0
 31
0.0
210
0.0
220
0.0
230
1.0
 40
0.2673555525296203
 41
10.53872102571436
 42
10.59507337388397
  0
ELLIPSE
  5
3A79B5
330
18
100
AcDbEntity
  8
姿図
100
AcDbEllipse
 10
18556.40048460869
 20
-16527.84348880832
 30
0.0000000000000014
 11
20.80917596045914
 21
0.0
 31
0.0
210
0.0
220
0.0
230
1.0
 40
0.26735555252962
 41
10.43381641944167
 42
10.51443037292207
  0
ELLIPSE
  5
3A79B6
330
18
100
AcDbEntity
  8
姿図
100
AcDbEllipse
 10
18556.40048460869
 20
-16527.82815711739
 30
0.0000000000000014
 11
19.58542994057645
 21
0.0
 31
0.0
210
0.0
220
0.0
230
1.0
 40
0.26735555252962
 41
10.3945860001764
 42
10.48566856919573
  0
ELLIPSE
  5
3A79B7
330
18
100
AcDbEntity
  8
姿図
100
AcDbEllipse
 10
18556.40048460869
 20
-16527.58278123584
 30
0.0000000000000014
 11
25.18660852149495
 21
0.0
 31
0.0
210
0.0
220
0.0
230
1.0
 40
0.2673555525296203
 41
5.360102617759432
 42
10.37025380618192
  0
ELLIPSE
  5
3A79B8
330
18
100
AcDbEntity
  8
姿図
100
AcDbEllipse
 10
18556.40048460869
 20
-16527.84348880832
 30
0.0000000000000014
 11
20.80917596045914
 21
0.0
 31
0.0
210
0.0
220
0.0
230
1.0
 40
0.26735555252962
 41
5.535210901125867
 42
10.207236421254
  0
ELLIPSE
  5
3A79B9
330
18
100
AcDbEntity
  8
姿図
100
AcDbEllipse
 10
18556.40048460869
 20
-16527.82815711739
 30
0.0000000000000014
 11
19.58542994057645
 21
0.0
 31
0.0
210
0.0
220
0.0
230
1.0
 40
0.26735555252962
 41
5.60711382873112
 42
10.141780490638
  0
ENDSEC
  0
SECTION
  2
OBJECTS
  0
DICTIONARY
  5
C
330
0
100
AcDbDictionary
281
     1
  3
ACAD_GROUP
350
D
  3
ACAD_IMAGE_VARS
350
2F1759
  3
ACAD_LAYOUT
350
353
  3
ACAD_MLINESTYLE
350
E
  3
ACAD_PLOTSETTINGS
350
354
  3
ACAD_PLOTSTYLENAME
350
351
  3
ACAD_SCALELIST
350
CD53
  3
AcadDim
350
5182D
  3
AcDbVariableDictionary
350
E0D
  3
AEC_DISP_REPS
350
3A6CED
  3
AEC_DISPLAY_PROPS_DEFAULTS
350
3A6CEF
  3
AEC_VARS
350
3A6CEB
  3
APPDATA
350
2F1758
  3
DWGPROPS
350
3A7CAC
  0
DICTIONARY
  5
559E
330
2
100
AcDbDictionary
280
     1
281
     1
  3
ACAD_LAYERFILTERS
360
29A509
  3
ACAD_LAYERSTATES
360
559F
  3
ACLYDICTIONARY
360
29A508
  0
DICTIONARY
  5
CD7F
330
F
100
AcDbDictionary
280
     1
281
     1
  3
ADSK_XREC_LAYER_RECONCILED
360
CD80
  0
DICTIONARY
  5
CD85
330
34
100
AcDbDictionary
280
     1
281
     1
  3
ADSK_XREC_LAYER_RECONCILED
360
CD86
  0
DICTIONARY
  5
CD8D
330
2F4
100
AcDbDictionary
280
     1
281
     1
  3
ADSK_XREC_LAYER_RECONCILED
360
CD8E
  0
DICTIONARY
  5
D25F
330
18
100
AcDbDictionary
280
     1
281
     1
  3
ACAD_SORTENTS
360
D260
  0
DICTIONARY
  5
D
102
{ACAD_REACTORS
330
C
102
}
330
C
100
AcDbDictionary
281
     1
  0
RASTERVARIABLES
  5
2F1759
102
{ACAD_REACTORS
330
C
102
}
330
C
100
AcDbRasterVariables
 90
        0
 70
     1
 71
     1
 72
     0
  0
DICTIONARY
  5
353
102
{ACAD_REACTORS
330
C
102
}
330
C
100
AcDbDictionary
281
     1
  3
Model
350
355
  3
ﾚｲｱｳﾄ1
350
356
  0
DICTIONARY
  5
E
102
{ACAD_REACTORS
330
C
102
}
330
C
100
AcDbDictionary
281
     1
  3
STANDARD
350
1B
  0
DICTIONARY
  5
354
102
{ACAD_REACTORS
330
C
102
}
330
C
100
AcDbDictionary
281
     1
  0
ACDBDICTIONARYWDFLT
  5
351
102
{ACAD_REACTORS
330
C
102
}
330
C
100
AcDbDictionary
281
     1
  3
Normal
350
352
100
AcDbDictionaryWithDefault
340
352
  0
DICTIONARY
  5
CD53
102
{ACAD_REACTORS
330
C
102
}
330
C
100
AcDbDictionary
281
     1
  3
A0
350
CD54
  3
A1
350
35DF8
  3
A2
350
35DF9
  3
A3
350
35DFA
  3
A4
350
35DFB
  3
A5
350
35DFC
  3
A6
350
35DFD
  3
A7
350
35DFE
  3
A8
350
35DFF
  3
A9
350
35E00
  3
B0
350
35E01
  3
B1
350
35E02
  3
B2
350
35E03
  3
B3
350
35E04
  3
B4
350
35E05
  3
B5
350
35E06
  3
B6
350
35E07
  3
B7
350
35E08
  3
B8
350
35E09
  3
B9
350
35E0A
  3
C0
350
35E0B
  3
C1
350
35E0C
  3
C2
350
35E0D
  3
C3
350
35E0E
  3
C4
350
35E0F
  3
C5
350
35E10
  3
C6
350
35E11
  3
C7
350
35E12
  3
C8
350
35E13
  3
C9
350
35E14
  3
D0
350
35E15
  3
D1
350
35E16
  3
D2
350
35E17
  0
XRECORD
  5
5182D
102
{ACAD_REACTORS
330
C
102
}
330
C
100
AcDbXrecord
280
     1
 90
   990106
  3
OPEN30
 60
     0
 61
     0
 62
     4
 63
     4
 64
     1
 65
     0
 66
     0
 67
     3
 68
     1
 69
     0
 70
     0
 71
     0
 72
     0
 40
0.0
170
     0
340
0
  0
DICTIONARY
  5
E0D
102
{ACAD_REACTORS
330
C
102
}
330
C
100
AcDbDictionary
281
     1
  3
DIMASSOC
350
E0E
  3
INDEXCTL
350
D04A
  3
PROJECTNAME
350
E0F
  3
SORTENTS
350
D049
  0
DICTIONARY
  5
3A6CED
102
{ACAD_REACTORS
330
C
102
}
330
C
100
AcDbDictionary
281
     1
  3
AecDbDispRep2dSection
350
3A6CEE
  3
AecDbDispRepAnchor
350
3A6D24
  3
AecDbDispRepAnchorEntToNode
350
3A6D25
  3
AecDbDispRepClipVolModel
350
3A6CF1
  3
AecDbDispRepClipVolPlan
350
3A6CF3
  3
AecDbDispRepClipVolResSubDiv
350
3A6CF6
  3
AecDbDispRepClipVolResult
350
3A6CF5
  3
AecDbDispRepDisplayTheme
350
3A6CF8
  3
AecDbDispRepEditInPlaceProfile
350
3A6D29
  3
AecDbDispRepEntRef
350
3A6CFA
  3
AecDbDispRepLayoutCurve
350
3A6CFC
  3
AecDbDispRepLayoutGrid2d
350
3A6CFE
  3
AecDbDispRepLayoutGrid3d
350
3A6D00
  3
AecDbDispRepMaskBlockRef
350
3A6D02
  3
AecDbDispRepMaskBlockRefRcp
350
3A6D04
  3
AecDbDispRepMassElemModel
350
3A6D06
  3
AecDbDispRepMassElemPlan100
350
3A6D0C
  3
AecDbDispRepMassElemPlan50
350
3A6D0A
  3
AecDbDispRepMassElemRcp
350
3A6D0E
  3
AecDbDispRepMassElemSchem
350
3A6D08
  3
AecDbDispRepMassGroupModel
350
3A6D10
  3
AecDbDispRepMassGroupPlan
350
3A6D12
  3
AecDbDispRepMassGroupPlan100
350
3A6D16
  3
AecDbDispRepMassGroupPlan50
350
3A6D14
  3
AecDbDispRepMassGroupRcp
350
3A6D18
  3
AecDbDispRepMaterial
350
3A6D27
  3
AecDbDispRepMvBlockRef
350
3A6D1A
  3
AecDbDispRepMvBlockRefModel
350
3A6D1B
  3
AecDbDispRepMvBlockRefPlan100
350
3A6D1C
  3
AecDbDispRepMvBlockRefPlan50
350
3A6D1D
  3
AecDbDispRepPolygonModel
350
3A6D1E
  3
AecDbDispRepPolygonTrueColour
350
3A6D20
  3
AecDbDispRepSlice
350
3A6D22
  0
DICTIONARY
  5
3A6CEF
102
{ACAD_REACTORS
330
C
102
}
330
C
100
AcDbDictionary
281
     1
  3
*A1
350
3A6CF0
  3
*A10
350
3A6D03
  3
*A11
350
3A6D05
  3
*A12
350
3A6D07
  3
*A13
350
3A6D09
  3
*A14
350
3A6D0B
  3
*A15
350
3A6D0D
  3
*A16
350
3A6D0F
  3
*A17
350
3A6D11
  3
*A18
350
3A6D13
  3
*A19
350
3A6D15
  3
*A2
350
3A6CF2
  3
*A20
350
3A6D17
  3
*A21
350
3A6D19
  3
*A22
350
3A6D1F
  3
*A23
350
3A6D21
  3
*A24
350
3A6D23
  3
*A25
350
3A6D26
  3
*A26
350
3A6D28
  3
*A27
350
3A6D2A
  3
*A3
350
3A6CF4
  3
*A4
350
3A6CF7
  3
*A5
350
3A6CF9
  3
*A6
350
3A6CFB
  3
*A7
350
3A6CFD
  3
*A8
350
3A6CFF
  3
*A9
350
3A6D01
  0
DICTIONARY
  5
3A6CEB
102
{ACAD_REACTORS
330
C
102
}
330
C
100
AcDbDictionary
281
     1
  3
AEC_VARS_DWG_SETUP
350
3A6CEC
  0
DICTIONARY
  5
2F1758
102
{ACAD_REACTORS
330
C
102
}
330
C
100
AcDbDictionary
281
     1
  0
XRECORD
  5
3A7CAC
102
{ACAD_REACTORS
330
C
102
}
330
C
100
AcDbXrecord
280
     1
  1
DWGPROPS COOKIE
  2

  3

  4

  6

  7

  8
SPAX
  9

300
=
301
=
302
=
303
=
304
=
305
=
306
=
307
=
308
=
309
=
 40
0.0
 41
2448636.244629629
 42
2456825.39270294
  1

 90
        0
  0
DICTIONARY
  5
29A509
102
{ACAD_REACTORS
330
559E
102
}
330
559E
100
AcDbDictionary
281
     1
  0
DICTIONARY
  5
559F
102
{ACAD_REACTORS
330
559E
102
}
330
559E
100
AcDbDictionary
281
     1
  0
DICTIONARY
  5
29A508
102
{ACAD_REACTORS
330
559E
102
}
330
559E
100
AcDbDictionary
281
     1
1001
ACAD
1000
<All
  0
XRECORD
  5
CD80
102
{ACAD_REACTORS
330
CD7F
102
}
330
CD7F
100
AcDbXrecord
280
     1
290
     1
  0
XRECORD
  5
CD86
102
{ACAD_REACTORS
330
CD85
102
}
330
CD85
100
AcDbXrecord
280
     1
290
     1
  0
XRECORD
  5
CD8E
102
{ACAD_REACTORS
330
CD8D
102
}
330
CD8D
100
AcDbXrecord
280
     1
290
     1
  0
SORTENTSTABLE
  5
D260
102
{ACAD_REACTORS
330
D25F
102
}
330
D25F
100
AcDbSortentsTable
330
18
331
8182F
  5
307455
331
3073B9
  5
33CEEB
  0
LAYOUT
  5
355
102
{ACAD_REACTORS
330
353
102
}
330
353
100
AcDbPlotSettings
  1

  2
ApeosPort-IV C3370
  4
A4
  6

 40
4.900083065032959
 41
4.900054931640625
 42
4.90008544921875
 43
4.90008544921875
 44
210.0156707763672
 45
297.0106506347656
 46
-4.892248868942261
 47
-4.894744873046875
 48
19575.83938702182
 49
-3951.642105398166
140
19872.83938702182
141
-3741.642105398166
142
1.0
143
1.0
 70
  3748
 72
     1
 73
     1
 74
     4
  7
spax form.ctb
 75
     0
147
0.5298262113580999
148
-19575.83938702182
149
3951.642105398166
100
AcDbLayout
  1
Model
 70
     1
 71
     0
 10
0.0
 20
0.0
 11
12.0
 21
9.0
 12
0.0
 22
0.0
 32
0.0
 14
18515.47799504284
 24
-16628.05984969668
 34
-0.000000000000013
 15
18590.22799504284
 25
-16507.2709748261
 35
0.0000000000000288
146
0.0
 13
0.0
 23
0.0
 33
0.0
 16
1.0
 26
0.0
 36
0.0
 17
0.0
 27
1.0
 37
0.0
 76
     0
330
18
331
3A6CE7
1001
ACAD_PSEXT
1000
ApeosPort-IV C3370
1000
FX ApeosPort-IV C3370
1000
192.168.6.107
1000

1070
     0
  0
LAYOUT
  5
356
102
{ACAD_REACTORS
330
353
102
}
330
353
100
AcDbPlotSettings
  1

  2
Canon LASER SHOT LBP-750
  4

  6

 40
0.0
 41
0.0
 42
0.0
 43
0.0
 44
0.0
 45
0.0
 46
0.0
 47
0.0
 48
0.0
 49
0.0
140
0.0
141
0.0
142
1.0
143
1.0
 70
   688
 72
     0
 73
     0
 74
     5
  7
spax form.ctb
 75
    16
147
1.0
148
0.0
149
0.0
100
AcDbLayout
  1
ﾚｲｱｳﾄ1
 70
     0
 71
     1
 10
0.0
 20
0.0
 11
12.0
 21
9.0
 12
0.0
 22
0.0
 32
0.0
 14
1.000000000000000E+20
 24
1.000000000000000E+20
 34
1.000000000000000E+20
 15
-1.000000000000000E+20
 25
-1.000000000000000E+20
 35
-1.000000000000000E+20
146
0.0
 13
0.0
 23
0.0
 33
0.0
 16
1.0
 26
0.0
 36
0.0
 17
0.0
 27
1.0
 37
0.0
 76
     0
330
15
  0
MLINESTYLE
  5
1B
102
{ACAD_REACTORS
330
E
102
}
330
E
100
AcDbMlineStyle
  2
STANDARD
 70
     0
  3

 62
     0
 51
90.0
 52
90.0
 71
     2
 49
0.5
 62
   256
  6
BYLAYER
 49
-0.5
 62
   256
  6
BYLAYER
  0
ACDBPLACEHOLDER
  5
352
102
{ACAD_REACTORS
330
351
102
}
330
351
  0
SCALE
  5
CD54
102
{ACAD_REACTORS
330
CD53
102
}
330
CD53
100
AcDbScale
 70
     0
300
1:1
140
1.0
141
1.0
290
     1
1001
ACAD
1000
AcRTDxfName
1000
SCALE
1000
AcRTDxfName
1000
SCALE
  0
SCALE
  5
35DF8
102
{ACAD_REACTORS
330
CD53
102
}
330
CD53
100
AcDbScale
 70
     0
300
1:2
140
1.0
141
2.0
290
     0
1001
ACAD
1000
AcRTDxfName
1000
SCALE
1000
AcRTDxfName
1000
SCALE
  0
SCALE
  5
35DF9
102
{ACAD_REACTORS
330
CD53
102
}
330
CD53
100
AcDbScale
 70
     0
300
1:4
140
1.0
141
4.0
290
     0
1001
ACAD
1000
AcRTDxfName
1000
SCALE
1000
AcRTDxfName
1000
SCALE
  0
SCALE
  5
35DFA
102
{ACAD_REACTORS
330
CD53
102
}
330
CD53
100
AcDbScale
 70
     0
300
1:5
140
1.0
141
5.0
290
     0
1001
ACAD
1000
AcRTDxfName
1000
SCALE
1000
AcRTDxfName
1000
SCALE
  0
SCALE
  5
35DFB
102
{ACAD_REACTORS
330
CD53
102
}
330
CD53
100
AcDbScale
 70
     0
300
1:8
140
1.0
141
8.0
290
     0
1001
ACAD
1000
AcRTDxfName
1000
SCALE
1000
AcRTDxfName
1000
SCALE
  0
SCALE
  5
35DFC
102
{ACAD_REACTORS
330
CD53
102
}
330
CD53
100
AcDbScale
 70
     0
300
1:10
140
1.0
141
10.0
290
     0
1001
ACAD
1000
AcRTDxfName
1000
SCALE
1000
AcRTDxfName
1000
SCALE
  0
SCALE
  5
35DFD
102
{ACAD_REACTORS
330
CD53
102
}
330
CD53
100
AcDbScale
 70
     0
300
1:16
140
1.0
141
16.0
290
     0
1001
ACAD
1000
AcRTDxfName
1000
SCALE
1000
AcRTDxfName
1000
SCALE
  0
SCALE
  5
35DFE
102
{ACAD_REACTORS
330
CD53
102
}
330
CD53
100
AcDbScale
 70
     0
300
1:20
140
1.0
141
20.0
290
     0
1001
ACAD
1000
AcRTDxfName
1000
SCALE
1000
AcRTDxfName
1000
SCALE
  0
SCALE
  5
35DFF
102
{ACAD_REACTORS
330
CD53
102
}
330
CD53
100
AcDbScale
 70
     0
300
1:30
140
1.0
141
30.0
290
     0
1001
ACAD
1000
AcRTDxfName
1000
SCALE
1000
AcRTDxfName
1000
SCALE
  0
SCALE
  5
35E00
102
{ACAD_REACTORS
330
CD53
102
}
330
CD53
100
AcDbScale
 70
     0
300
1:40
140
1.0
141
40.0
290
     0
1001
ACAD
1000
AcRTDxfName
1000
SCALE
1000
AcRTDxfName
1000
SCALE
  0
SCALE
  5
35E01
102
{ACAD_REACTORS
330
CD53
102
}
330
CD53
100
AcDbScale
 70
     0
300
1:50
140
1.0
141
50.0
290
     0
1001
ACAD
1000
AcRTDxfName
1000
SCALE
1000
AcRTDxfName
1000
SCALE
  0
SCALE
  5
35E02
102
{ACAD_REACTORS
330
CD53
102
}
330
CD53
100
AcDbScale
 70
     0
300
1:100
140
1.0
141
100.0
290
     0
1001
ACAD
1000
AcRTDxfName
1000
SCALE
1000
AcRTDxfName
1000
SCALE
  0
SCALE
  5
35E03
102
{ACAD_REACTORS
330
CD53
102
}
330
CD53
100
AcDbScale
 70
     0
300
2:1
140
2.0
141
1.0
290
     0
1001
ACAD
1000
AcRTDxfName
1000
SCALE
1000
AcRTDxfName
1000
SCALE
  0
SCALE
  5
35E04
102
{ACAD_REACTORS
330
CD53
102
}
330
CD53
100
AcDbScale
 70
     0
300
4:1
140
4.0
141
1.0
290
     0
1001
ACAD
1000
AcRTDxfName
1000
SCALE
1000
AcRTDxfName
1000
SCALE
  0
SCALE
  5
35E05
102
{ACAD_REACTORS
330
CD53
102
}
330
CD53
100
AcDbScale
 70
     0
300
8:1
140
8.0
141
1.0
290
     0
1001
ACAD
1000
AcRTDxfName
1000
SCALE
1000
AcRTDxfName
1000
SCALE
  0
SCALE
  5
35E06
102
{ACAD_REACTORS
330
CD53
102
}
330
CD53
100
AcDbScale
 70
     0
300
10:1
140
10.0
141
1.0
290
     0
1001
ACAD
1000
AcRTDxfName
1000
SCALE
1000
AcRTDxfName
1000
SCALE
  0
SCALE
  5
35E07
102
{ACAD_REACTORS
330
CD53
102
}
330
CD53
100
AcDbScale
 70
     0
300
100:1
140
100.0
141
1.0
290
     0
1001
ACAD
1000
AcRTDxfName
1000
SCALE
1000
AcRTDxfName
1000
SCALE
  0
SCALE
  5
35E08
102
{ACAD_REACTORS
330
CD53
102
}
330
CD53
100
AcDbScale
 70
     0
300
1/128" = 1'-0"
140
0.0078125
141
12.0
290
     0
1001
ACAD
1000
AcRTDxfName
1000
SCALE
1000
AcRTDxfName
1000
SCALE
  0
SCALE
  5
35E09
102
{ACAD_REACTORS
330
CD53
102
}
330
CD53
100
AcDbScale
 70
     0
300
1/64" = 1'-0"
140
0.015625
141
12.0
290
     0
1001
ACAD
1000
AcRTDxfName
1000
SCALE
1000
AcRTDxfName
1000
SCALE
  0
SCALE
  5
35E0A
102
{ACAD_REACTORS
330
CD53
102
}
330
CD53
100
AcDbScale
 70
     0
300
1/32" = 1'-0"
140
0.03125
141
12.0
290
     0
1001
ACAD
1000
AcRTDxfName
1000
SCALE
1000
AcRTDxfName
1000
SCALE
  0
SCALE
  5
35E0B
102
{ACAD_REACTORS
330
CD53
102
}
330
CD53
100
AcDbScale
 70
     0
300
1/16" = 1'-0"
140
0.0625
141
12.0
290
     0
1001
ACAD
1000
AcRTDxfName
1000
SCALE
1000
AcRTDxfName
1000
SCALE
  0
SCALE
  5
35E0C
102
{ACAD_REACTORS
330
CD53
102
}
330
CD53
100
AcDbScale
 70
     0
300
3/32" = 1'-0"
140
0.09375
141
12.0
290
     0
1001
ACAD
1000
AcRTDxfName
1000
SCALE
1000
AcRTDxfName
1000
SCALE
  0
SCALE
  5
35E0D
102
{ACAD_REACTORS
330
CD53
102
}
330
CD53
100
AcDbScale
 70
     0
300
1/8" = 1'-0"
140
0.125
141
12.0
290
     0
1001
ACAD
1000
AcRTDxfName
1000
SCALE
1000
AcRTDxfName
1000
SCALE
  0
SCALE
  5
35E0E
102
{ACAD_REACTORS
330
CD53
102
}
330
CD53
100
AcDbScale
 70
     0
300
3/16" = 1'-0"
140
0.1875
141
12.0
290
     0
1001
ACAD
1000
AcRTDxfName
1000
SCALE
1000
AcRTDxfName
1000
SCALE
  0
SCALE
  5
35E0F
102
{ACAD_REACTORS
330
CD53
102
}
330
CD53
100
AcDbScale
 70
     0
300
1/4" = 1'-0"
140
0.25
141
12.0
290
     0
1001
ACAD
1000
AcRTDxfName
1000
SCALE
1000
AcRTDxfName
1000
SCALE
  0
SCALE
  5
35E10
102
{ACAD_REACTORS
330
CD53
102
}
330
CD53
100
AcDbScale
 70
     0
300
3/8" = 1'-0"
140
0.375
141
12.0
290
     0
1001
ACAD
1000
AcRTDxfName
1000
SCALE
1000
AcRTDxfName
1000
SCALE
  0
SCALE
  5
35E11
102
{ACAD_REACTORS
330
CD53
102
}
330
CD53
100
AcDbScale
 70
     0
300
1/2" = 1'-0"
140
0.5
141
12.0
290
     0
1001
ACAD
1000
AcRTDxfName
1000
SCALE
1000
AcRTDxfName
1000
SCALE
  0
SCALE
  5
35E12
102
{ACAD_REACTORS
330
CD53
102
}
330
CD53
100
AcDbScale
 70
     0
300
3/4" = 1'-0"
140
0.75
141
12.0
290
     0
1001
ACAD
1000
AcRTDxfName
1000
SCALE
1000
AcRTDxfName
1000
SCALE
  0
SCALE
  5
35E13
102
{ACAD_REACTORS
330
CD53
102
}
330
CD53
100
AcDbScale
 70
     0
300
1" = 1'-0"
140
1.0
141
12.0
290
     0
1001
ACAD
1000
AcRTDxfName
1000
SCALE
1000
AcRTDxfName
1000
SCALE
  0
SCALE
  5
35E14
102
{ACAD_REACTORS
330
CD53
102
}
330
CD53
100
AcDbScale
 70
     0
300
1-1/2" = 1'-0"
140
1.5
141
12.0
290
     0
1001
ACAD
1000
AcRTDxfName
1000
SCALE
1000
AcRTDxfName
1000
SCALE
  0
SCALE
  5
35E15
102
{ACAD_REACTORS
330
CD53
102
}
330
CD53
100
AcDbScale
 70
     0
300
3" = 1'-0"
140
3.0
141
12.0
290
     0
1001
ACAD
1000
AcRTDxfName
1000
SCALE
1000
AcRTDxfName
1000
SCALE
  0
SCALE
  5
35E16
102
{ACAD_REACTORS
330
CD53
102
}
330
CD53
100
AcDbScale
 70
     0
300
6" = 1'-0"
140
6.0
141
12.0
290
     0
1001
ACAD
1000
AcRTDxfName
1000
SCALE
1000
AcRTDxfName
1000
SCALE
  0
SCALE
  5
35E17
102
{ACAD_REACTORS
330
CD53
102
}
330
CD53
100
AcDbScale
 70
     0
300
1'-0" = 1'-0"
140
12.0
141
12.0
290
     0
1001
ACAD
1000
AcRTDxfName
1000
SCALE
1000
AcRTDxfName
1000
SCALE
  0
DICTIONARYVAR
  5
E0E
102
{ACAD_REACTORS
330
E0D
102
}
330
E0D
100
DictionaryVariables
280
     0
  1
1
  0
DICTIONARYVAR
  5
D04A
102
{ACAD_REACTORS
330
E0D
102
}
330
E0D
100
DictionaryVariables
280
     0
  1
0
  0
DICTIONARYVAR
  5
E0F
102
{ACAD_REACTORS
330
E0D
102
}
330
E0D
100
DictionaryVariables
280
     0
  1

  0
DICTIONARYVAR
  5
D049
102
{ACAD_REACTORS
330
E0D
102
}
330
E0D
100
DictionaryVariables
280
     0
  1
127
  0
ENDSEC
  0
EOF
