  0
SECTION
  2
HEADER
  9
$ACADVER
  1
AC1015
  9
$ACADMAINTVER
 70
     6
  9
$DWGCODEPAGE
  3
ANSI_932
  9
$INSBASE
 10
0.0
 20
0.0
 30
0.0
  9
$EXTMIN
 10
16047.94201271437
 20
-2839.233250851463
 30
0.0
  9
$EXTMAX
 10
16561.57896088473
 20
-2424.009206494978
 30
0.0
  9
$LIMMIN
 10
0.0
 20
0.0
  9
$LIMMAX
 10
420.0
 20
297.0
  9
$ORTHOMODE
 70
     1
  9
$REGENMODE
 70
     1
  9
$FILLMODE
 70
     1
  9
$QTEXTMODE
 70
     0
  9
$MIRRTEXT
 70
     1
  9
$LTSCALE
 40
5.0
  9
$ATTMODE
 70
     0
  9
$TEXTSIZE
 40
3.5
  9
$TRACEWID
 40
1.0
  9
$TEXTSTYLE
  7
STANDARD
  9
$CLAYER
  8
寸法線
  9
$CELTYPE
  6
BYLAYER
  9
$CECOLOR
 62
   256
  9
$CELTSCALE
 40
1.0
  9
$DISPSILH
 70
     0
  9
$DIMSCALE
 40
1.0
  9
$DIMASZ
 40
2.5
  9
$DIMEXO
 40
1.5
  9
$DIMDLI
 40
7.0
  9
$DIMRND
 40
0.0
  9
$DIMDLE
 40
0.0
  9
$DIMEXE
 40
1.0
  9
$DIMTP
 40
0.0
  9
$DIMTM
 40
0.0
  9
$DIMTXT
 40
3.0
  9
$DIMCEN
 40
0.0
  9
$DIMTSZ
 40
0.0
  9
$DIMTOL
 70
     0
  9
$DIMLIM
 70
     0
  9
$DIMTIH
 70
     0
  9
$DIMTOH
 70
     0
  9
$DIMSE1
 70
     0
  9
$DIMSE2
 70
     0
  9
$DIMTAD
 70
     3
  9
$DIMZIN
 70
     9
  9
$DIMBLK
  1
OPEN30
  9
$DIMASO
 70
     1
  9
$DIMSHO
 70
     0
  9
$DIMPOST
  1

  9
$DIMAPOST
  1

  9
$DIMALT
 70
     0
  9
$DIMALTD
 70
     0
  9
$DIMALTF
 40
25.4
  9
$DIMLFAC
 40
1.0
  9
$DIMTOFL
 70
     1
  9
$DIMTVP
 40
0.0
  9
$DIMTIX
 70
     0
  9
$DIMSOXD
 70
     0
  9
$DIMSAH
 70
     0
  9
$DIMBLK1
  1

  9
$DIMBLK2
  1

  9
$DIMSTYLE
  2
STANDARD
  9
$DIMCLRD
 70
     8
  9
$DIMCLRE
 70
     8
  9
$DIMCLRT
 70
   256
  9
$DIMTFAC
 40
0.6
  9
$DIMGAP
 40
1.0
  9
$DIMJUST
 70
     0
  9
$DIMSD1
 70
     0
  9
$DIMSD2
 70
     0
  9
$DIMTOLJ
 70
     1
  9
$DIMTZIN
 70
     9
  9
$DIMALTZ
 70
     9
  9
$DIMALTTZ
 70
     9
  9
$DIMUPT
 70
     0
  9
$DIMDEC
 70
     3
  9
$DIMTDEC
 70
     3
  9
$DIMALTU
 70
     2
  9
$DIMALTTD
 70
     0
  9
$DIMTXSTY
  7
STANDARD
  9
$DIMAUNIT
 70
     0
  9
$DIMADEC
 70
     3
  9
$DIMALTRND
 40
0.0
  9
$DIMAZIN
 70
     2
  9
$DIMDSEP
 70
    46
  9
$DIMATFIT
 70
     0
  9
$DIMFRAC
 70
     0
  9
$DIMLDRBLK
  1
OPEN30
  9
$DIMLUNIT
 70
     2
  9
$DIMLWD
 70
    -2
  9
$DIMLWE
 70
    -2
  9
$DIMTMOVE
 70
     0
  9
$LUNITS
 70
     2
  9
$LUPREC
 70
     2
  9
$SKETCHINC
 40
0.1
  9
$FILLETRAD
 40
1.0
  9
$AUNITS
 70
     0
  9
$AUPREC
 70
     1
  9
$MENU
  1
FM
  9
$ELEVATION
 40
0.0
  9
$PELEVATION
 40
0.0
  9
$THICKNESS
 40
0.0
  9
$LIMCHECK
 70
     0
  9
$CHAMFERA
 40
0.0
  9
$CHAMFERB
 40
0.0
  9
$CHAMFERC
 40
0.0
  9
$CHAMFERD
 40
0.0
  9
$SKPOLY
 70
     0
  9
$TDCREATE
 40
2448636.619629629
  9
$TDUCREATE
 40
2448636.244629629
  9
$TDUPDATE
 40
2456821.656290521
  9
$TDUUPDATE
 40
2456821.281290521
  9
$TDINDWG
 40
100.6437840394
  9
$TDUSRTIMER
 40
2456821.280296967
  9
$USRTIMER
 70
     1
  9
$ANGBASE
 50
0.0
  9
$ANGDIR
 70
     0
  9
$PDMODE
 70
     3
  9
$PDSIZE
 40
0.0
  9
$PLINEWID
 40
0.0
  9
$SPLFRAME
 70
     0
  9
$SPLINETYPE
 70
     6
  9
$SPLINESEGS
 70
     8
  9
$HANDSEED
  5
353523
  9
$SURFTAB1
 70
     6
  9
$SURFTAB2
 70
     6
  9
$SURFTYPE
 70
     6
  9
$SURFU
 70
     6
  9
$SURFV
 70
     6
  9
$UCSBASE
  2

  9
$UCSNAME
  2

  9
$UCSORG
 10
0.0
 20
0.0
 30
0.0
  9
$UCSXDIR
 10
1.0
 20
0.0
 30
0.0
  9
$UCSYDIR
 10
0.0
 20
1.0
 30
0.0
  9
$UCSORTHOREF
  2

  9
$UCSORTHOVIEW
 70
     0
  9
$UCSORGTOP
 10
0.0
 20
0.0
 30
0.0
  9
$UCSORGBOTTOM
 10
0.0
 20
0.0
 30
0.0
  9
$UCSORGLEFT
 10
0.0
 20
0.0
 30
0.0
  9
$UCSORGRIGHT
 10
0.0
 20
0.0
 30
0.0
  9
$UCSORGFRONT
 10
0.0
 20
0.0
 30
0.0
  9
$UCSORGBACK
 10
0.0
 20
0.0
 30
0.0
  9
$PUCSBASE
  2

  9
$PUCSNAME
  2

  9
$PUCSORG
 10
0.0
 20
0.0
 30
0.0
  9
$PUCSXDIR
 10
1.0
 20
0.0
 30
0.0
  9
$PUCSYDIR
 10
0.0
 20
1.0
 30
0.0
  9
$PUCSORTHOREF
  2

  9
$PUCSORTHOVIEW
 70
     0
  9
$PUCSORGTOP
 10
0.0
 20
0.0
 30
0.0
  9
$PUCSORGBOTTOM
 10
0.0
 20
0.0
 30
0.0
  9
$PUCSORGLEFT
 10
0.0
 20
0.0
 30
0.0
  9
$PUCSORGRIGHT
 10
0.0
 20
0.0
 30
0.0
  9
$PUCSORGFRONT
 10
0.0
 20
0.0
 30
0.0
  9
$PUCSORGBACK
 10
0.0
 20
0.0
 30
0.0
  9
$USERI1
 70
     0
  9
$USERI2
 70
     0
  9
$USERI3
 70
     0
  9
$USERI4
 70
     0
  9
$USERI5
 70
     0
  9
$USERR1
 40
0.0
  9
$USERR2
 40
0.0
  9
$USERR3
 40
0.0
  9
$USERR4
 40
0.0
  9
$USERR5
 40
0.0
  9
$WORLDVIEW
 70
     0
  9
$SHADEDGE
 70
     3
  9
$SHADEDIF
 70
    70
  9
$TILEMODE
 70
     1
  9
$MAXACTVP
 70
    16
  9
$PINSBASE
 10
0.0
 20
0.0
 30
0.0
  9
$PLIMCHECK
 70
     0
  9
$PEXTMIN
 10
1.000000000000000E+20
 20
1.000000000000000E+20
 30
1.000000000000000E+20
  9
$PEXTMAX
 10
-1.000000000000000E+20
 20
-1.000000000000000E+20
 30
-1.000000000000000E+20
  9
$PLIMMIN
 10
0.0
 20
0.0
  9
$PLIMMAX
 10
0.0
 20
0.0
  9
$UNITMODE
 70
     0
  9
$VISRETAIN
 70
     0
  9
$PLINEGEN
 70
     0
  9
$PSLTSCALE
 70
     0
  9
$TREEDEPTH
 70
  3020
  9
$CMLSTYLE
  2
STANDARD
  9
$CMLJUST
 70
     0
  9
$CMLSCALE
 40
1.0
  9
$PROXYGRAPHICS
 70
     1
  9
$MEASUREMENT
 70
     0
  9
$CELWEIGHT
370
    -1
  9
$ENDCAPS
280
     0
  9
$JOINSTYLE
280
     0
  9
$LWDISPLAY
290
     1
  9
$INSUNITS
 70
     0
  9
$HYPERLINKBASE
  1

  9
$STYLESHEET
  1
spax form.ctb
  9
$XEDIT
290
     1
  9
$CEPSNTYPE
380
     0
  9
$PSTYLEMODE
290
     1
  9
$FINGERPRINTGUID
  2
{E5B35D22-A717-11D3-9160-00E0294F7E09}
  9
$VERSIONGUID
  2
{9E2C0BC0-6756-4007-BAC9-954CCE605043}
  9
$EXTNAMES
290
     1
  9
$PSVPSCALE
 40
0.0
  9
$OLESTARTUP
290
     0
  0
ENDSEC
  0
SECTION
  2
CLASSES
  0
CLASS
  1
LWPOLYLINE
  2
AcDbPolyline
  3
ObjectDBX Classes
 90
        0
280
     0
281
     1
  0
CLASS
  1
ACDBDICTIONARYWDFLT
  2
AcDbDictionaryWithDefault
  3
ObjectDBX Classes
 90
        0
280
     0
281
     0
  0
CLASS
  1
ACDBPLACEHOLDER
  2
AcDbPlaceHolder
  3
ObjectDBX Classes
 90
        0
280
     0
281
     0
  0
CLASS
  1
LAYOUT
  2
AcDbLayout
  3
ObjectDBX Classes
 90
        0
280
     0
281
     0
  0
CLASS
  1
DICTIONARYVAR
  2
AcDbDictionaryVar
  3
ObjectDBX Classes
 90
        0
280
     0
281
     0
  0
CLASS
  1
MATERIAL
  2
AcDbMaterial
  3
ObjectDBX Classes
 90
     1153
280
     0
281
     0
  0
CLASS
  1
SORTENTSTABLE
  2
AcDbSortentsTable
  3
ObjectDBX Classes
 90
        0
280
     0
281
     0
  0
CLASS
  1
VISUALSTYLE
  2
AcDbVisualStyle
  3
ObjectDBX Classes
 90
     4095
280
     0
281
     0
  0
CLASS
  1
TABLESTYLE
  2
AcDbTableStyle
  3
ObjectDBX Classes
 90
     4095
280
     0
281
     0
  0
CLASS
  1
SCALE
  2
AcDbScale
  3
ObjectDBX Classes
 90
     1153
280
     0
281
     0
  0
CLASS
  1
MLEADERSTYLE
  2
AcDbMLeaderStyle
  3
ACDB_MLEADERSTYLE_CLASS
 90
     4095
280
     0
281
     0
  0
CLASS
  1
CELLSTYLEMAP
  2
AcDbCellStyleMap
  3
ObjectDBX Classes
 90
     1152
280
     0
281
     0
  0
CLASS
  1
MULTILEADER
  2
AcDbMLeader
  3
ACDB_MLEADER_CLASS
 90
     1025
280
     0
281
     1
  0
CLASS
  1
DIMASSOC
  2
AcDbDimAssoc
  3
"AcDbDimAssoc|Product Desc:     AcDim ARX App For Dimension|Company:          Autodesk, Inc.|WEB Address:      www.autodesk.com"
 90
        0
280
     0
281
     0
  0
CLASS
  1
LARGE_RADIAL_DIMENSION
  2
AcDbRadialDimensionLarge
  3
ObjectDBX Classes
 90
     1025
280
     0
281
     1
  0
CLASS
  1
RASTERVARIABLES
  2
AcDbRasterVariables
  3
ISM
 90
        0
280
     0
281
     0
  0
CLASS
  1
SUN
  2
AcDbSun
  3
SCENEOE
 90
     1153
280
     0
281
     0
  0
ENDSEC
  0
SECTION
  2
TABLES
  0
TABLE
  2
VPORT
  5
8
330
0
100
AcDbSymbolTable
 70
     1
  0
VPORT
  5
3523F0
330
8
100
AcDbSymbolTableRecord
100
AcDbViewportTableRecord
  2
*Active
 70
     0
 10
0.0
 20
0.0
 11
1.0
 21
1.0
 12
16098.24176826201
 22
-2786.276756344679
 13
0.0
 23
0.0
 14
1.0
 24
1.0
 15
20.0
 25
20.0
 16
0.0
 26
0.0
 36
1.0
 17
0.0
 27
0.0
 37
0.0
 40
216.8466049247308
 41
1.731829573934837
 42
50.0
 43
0.0
 44
0.0
 50
0.0
 51
0.0
 71
    16
 72
   100
 73
     1
 74
     0
 75
     0
 76
     0
 77
     0
 78
     0
281
     0
 65
     1
110
0.0
120
0.0
130
0.0
111
1.0
121
0.0
131
0.0
112
0.0
122
1.0
132
0.0
 79
     0
146
0.0
  0
ENDTAB
  0
TABLE
  2
LTYPE
  5
5
330
0
100
AcDbSymbolTable
 70
     4
  0
LTYPE
  5
12
330
5
100
AcDbSymbolTableRecord
100
AcDbLinetypeTableRecord
  2
BYBLOCK
 70
     0
  3

 72
    65
 73
     0
 40
0.0
  0
LTYPE
  5
13
330
5
100
AcDbSymbolTableRecord
100
AcDbLinetypeTableRecord
  2
BYLAYER
 70
     0
  3

 72
    65
 73
     0
 40
0.0
  0
LTYPE
  5
14
330
5
100
AcDbSymbolTableRecord
100
AcDbLinetypeTableRecord
  2
CONTINUOUS
 70
     0
  3
Solid line
 72
    65
 73
     0
 40
0.0
  0
LTYPE
  5
25
330
5
100
AcDbSymbolTableRecord
100
AcDbLinetypeTableRecord
  2
CENTER
 70
     0
  3
____ _ ____ _ ____ _ ____ _ ____ _ ____ _ ____
 72
    65
 73
     4
 40
2.0
 49
1.25
 74
     0
 49
-0.25
 74
     0
 49
0.25
 74
     0
 49
-0.25
 74
     0
  0
LTYPE
  5
26
330
5
100
AcDbSymbolTableRecord
100
AcDbLinetypeTableRecord
  2
PHANTOM
 70
     0
  3
_____ _ _ _____ _ _ _____ _ _ _____ _ _ ____
 72
    65
 73
     6
 40
2.5
 49
1.25
 74
     0
 49
-0.25
 74
     0
 49
0.25
 74
     0
 49
-0.25
 74
     0
 49
0.25
 74
     0
 49
-0.25
 74
     0
  0
LTYPE
  5
27
330
5
100
AcDbSymbolTableRecord
100
AcDbLinetypeTableRecord
  2
HIDDEN
 70
     0
  3
_ _ _ _ _ _ _ _ _ _ _ _ _ _ _ _ _ _ _ _ _ _ _
 72
    65
 73
     2
 40
0.375
 49
0.25
 74
     0
 49
-0.125
 74
     0
  0
ENDTAB
  0
TABLE
  2
LAYER
  5
2
102
{ACAD_XDICTIONARY
360
559E
102
}
330
0
100
AcDbSymbolTable
 70
    18
  0
LAYER
  5
F
102
{ACAD_XDICTIONARY
360
CD7F
102
}
330
2
100
AcDbSymbolTableRecord
100
AcDbLayerTableRecord
  2
0
 70
     0
 62
     7
  6
CONTINUOUS
370
    -3
390
352
  0
LAYER
  5
34
102
{ACAD_XDICTIONARY
360
CD85
102
}
330
2
100
AcDbSymbolTableRecord
100
AcDbLayerTableRecord
  2
寸法線
 70
     0
 62
     7
  6
CONTINUOUS
370
    -3
390
352
  0
LAYER
  5
36
330
2
100
AcDbSymbolTableRecord
100
AcDbLayerTableRecord
  2
DEFPOINTS
 70
     0
 62
    -7
  6
CONTINUOUS
290
     0
370
    -3
390
352
  0
LAYER
  5
2F4
102
{ACAD_XDICTIONARY
360
CD8D
102
}
330
2
100
AcDbSymbolTableRecord
100
AcDbLayerTableRecord
  2
文字
 70
     0
 62
     7
  6
CONTINUOUS
370
    -3
390
352
  0
LAYER
  5
306B15
330
2
100
AcDbSymbolTableRecord
100
AcDbLayerTableRecord
  2
C-SUNPO
 70
     0
 62
     7
  6
CONTINUOUS
370
    -3
390
352
  0
LAYER
  5
31D3CB
330
2
100
AcDbSymbolTableRecord
100
AcDbLayerTableRecord
  2
姿図
 70
     0
 62
     8
  6
CONTINUOUS
370
    -3
390
352
  0
LAYER
  5
31E2C9
330
2
100
AcDbSymbolTableRecord
100
AcDbLayerTableRecord
  2
下書き線
 70
     0
 62
    -3
  6
HIDDEN
290
     0
370
    -3
390
352
  0
ENDTAB
  0
TABLE
  2
STYLE
  5
3
330
0
100
AcDbSymbolTable
 70
     1
  0
STYLE
  5
10
330
3
100
AcDbSymbolTableRecord
100
AcDbTextStyleTableRecord
  2
STANDARD
 70
     0
 40
0.0
 41
1.0
 50
0.0
 71
     0
 42
3.5
  3
MONOTXT
  4
BIGFONT
  0
ENDTAB
  0
TABLE
  2
VIEW
  5
6
330
0
100
AcDbSymbolTable
 70
     0
  0
ENDTAB
  0
TABLE
  2
UCS
  5
7
330
0
100
AcDbSymbolTable
 70
     0
  0
ENDTAB
  0
TABLE
  2
APPID
  5
9
330
0
100
AcDbSymbolTable
 70
    18
  0
APPID
  5
11
330
9
100
AcDbSymbolTableRecord
100
AcDbRegAppTableRecord
  2
ACAD
 70
     0
  0
APPID
  5
C058
330
9
100
AcDbSymbolTableRecord
100
AcDbRegAppTableRecord
  2
AcAecLayerStandard
 70
     0
  0
APPID
  5
CD77
330
9
100
AcDbSymbolTableRecord
100
AcDbRegAppTableRecord
  2
ACAD_MLEADERVER
 70
     0
  0
APPID
  5
D036
330
9
100
AcDbSymbolTableRecord
100
AcDbRegAppTableRecord
  2
ACAD_PSEXT
 70
     0
  0
APPID
  5
D28E
330
9
100
AcDbSymbolTableRecord
100
AcDbRegAppTableRecord
  2
ACAD_DSTYLE_DIMJAG
 70
     0
  0
APPID
  5
D28F
330
9
100
AcDbSymbolTableRecord
100
AcDbRegAppTableRecord
  2
ACAD_DSTYLE_DIMTALN
 70
     0
  0
APPID
  5
10E35
330
9
100
AcDbSymbolTableRecord
100
AcDbRegAppTableRecord
  2
ACAD_EXEMPT_FROM_CAD_STANDARDS
 70
     0
  0
APPID
  5
36B90
330
9
100
AcDbSymbolTableRecord
100
AcDbRegAppTableRecord
  2
ACAD_DSTYLE_DIMRADIAL_EXTENSION
 70
     0
  0
APPID
  5
4CBB9
330
9
100
AcDbSymbolTableRecord
100
AcDbRegAppTableRecord
  2
WACOM_STRING
 70
     0
  0
APPID
  5
4CBBA
330
9
100
AcDbSymbolTableRecord
100
AcDbRegAppTableRecord
  2
WACOM_DRSYM_ARROW
 70
     0
  0
APPID
  5
83B4C
330
9
100
AcDbSymbolTableRecord
100
AcDbRegAppTableRecord
  2
ACAD_DSTYLE_DIMRADIAL_EXTE
 70
     0
  0
APPID
  5
83B4D
330
9
100
AcDbSymbolTableRecord
100
AcDbRegAppTableRecord
  2
ACAD_DSTYLE_DIMBREAK
 70
     0
  0
APPID
  5
83B4E
330
9
100
AcDbSymbolTableRecord
100
AcDbRegAppTableRecord
  2
ACAD_DSTYLE_DIMARC_LENGTH_
 70
     0
  0
APPID
  5
8B472
330
9
100
AcDbSymbolTableRecord
100
AcDbRegAppTableRecord
  2
LAYER_SCALE
 70
     0
  0
APPID
  5
8B473
330
9
100
AcDbSymbolTableRecord
100
AcDbRegAppTableRecord
  2
KCAD_DIM_EXT
 70
     0
  0
APPID
  5
16ECBA
330
9
100
AcDbSymbolTableRecord
100
AcDbRegAppTableRecord
  2
GENIUS_GENDTOL_13
 70
     0
  0
APPID
  5
23CCFB
330
9
100
AcDbSymbolTableRecord
100
AcDbRegAppTableRecord
  2
AcadAnnotative
 70
     0
  0
APPID
  5
31A28D
330
9
100
AcDbSymbolTableRecord
100
AcDbRegAppTableRecord
  2
ACAD_DSTYLE_DIMFLIPARROW_WHICH_SYMBOL
 70
     0
  0
ENDTAB
  0
TABLE
  2
DIMSTYLE
  5
A
330
0
100
AcDbSymbolTable
 70
     2
100
AcDbDimStyleTable
  0
DIMSTYLE
105
1CC
330
A
100
AcDbSymbolTableRecord
100
AcDbDimStyleTableRecord
  2
STANDARD
 70
     0
 41
2.5
 42
1.5
 43
7.0
 44
1.0
 45
0.0
 73
     0
 74
     0
 77
     3
 78
     8
 79
     2
140
3.0
141
0.0
146
0.6
147
1.0
171
     0
172
     1
176
     8
177
     8
271
     3
178
   256
179
     3
271
     3
272
     3
274
     0
289
     0
340
10
341
265D
342
265D
1001
ACAD_DSTYLE_DIMJAG
1070
   388
1040
1.5
1001
ACAD_DSTYLE_DIMTALN
1070
   392
1070
     0
  0
ENDTAB
  0
TABLE
  2
BLOCK_RECORD
  5
1
330
0
100
AcDbSymbolTable
 70
    20
  0
BLOCK_RECORD
  5
18
102
{ACAD_XDICTIONARY
360
D25F
102
}
330
1
100
AcDbSymbolTableRecord
100
AcDbBlockTableRecord
  2
*MODEL_SPACE
340
355
  0
BLOCK_RECORD
  5
15
330
1
100
AcDbSymbolTableRecord
100
AcDbBlockTableRecord
  2
*PAPER_SPACE
340
356
  0
BLOCK_RECORD
  5
416
330
1
100
AcDbSymbolTableRecord
100
AcDbBlockTableRecord
  2
SUN
340
0
  0
BLOCK_RECORD
  5
265D
330
1
100
AcDbSymbolTableRecord
100
AcDbBlockTableRecord
  2
_OPEN30
340
0
102
{BLKREFS
331
33E39C
331
33E39D
331
33E3A5
331
33E3A6
331
33E3AE
331
33E3AF
331
33E3B7
331
33E3B8
331
33E3C2
331
33E3C3
331
33E3CB
331
33E3CC
331
33E3DD
331
33E3DE
331
33EA92
331
33EA93
331
33EAED
331
33EAEE
331
35348F
331
353490
331
353498
331
353499
331
3534A1
331
3534A2
331
3534AA
331
3534AB
331
3534B3
331
3534B4
331
3534BE
331
3534BF
331
3534C7
331
3534C8
331
3534D0
331
3534D1
331
3534D9
331
3534DA
102
}
  0
ENDTAB
  0
ENDSEC
  0
SECTION
  2
BLOCKS
  0
BLOCK
  5
39
330
18
100
AcDbEntity
  8
0
100
AcDbBlockBegin
  2
*MODEL_SPACE
 70
     0
 10
0.0
 20
0.0
 30
0.0
  3
*MODEL_SPACE
  1
*MODEL_SPACE
  0
ENDBLK
  5
3A
330
18
100
AcDbEntity
  8
0
100
AcDbBlockEnd
  0
BLOCK
  5
37
330
15
100
AcDbEntity
 67
     1
  8
0
100
AcDbBlockBegin
  2
*PAPER_SPACE
 70
     0
 10
0.0
 20
0.0
 30
0.0
  3
*PAPER_SPACE
  1
*PAPER_SPACE
  0
ENDBLK
  5
38
330
15
100
AcDbEntity
 67
     1
  8
0
100
AcDbBlockEnd
  0
BLOCK
  5
41A
330
416
100
AcDbEntity
  8
0
100
AcDbBlockBegin
  2
SUN
 70
     0
 10
0.0
 20
0.0
 30
0.0
  3
SUN
  1
SUN
  0
LINE
  5
417
330
416
100
AcDbEntity
  8
0
100
AcDbLine
 10
-0.0000000000000568
 20
0.0
 30
0.0
 11
-1.500000000000057
 21
0.0
 31
0.0
  0
LINE
  5
418
330
416
100
AcDbEntity
  8
0
100
AcDbLine
 10
-0.0000000000000568
 20
0.0000000000000284
 30
0.0
 11
-1.500000000000057
 21
0.401923788646684
 31
0.0
  0
LINE
  5
419
330
416
100
AcDbEntity
  8
0
100
AcDbLine
 10
-0.0000000000000568
 20
0.0000000000000284
 30
0.0
 11
-1.500000000000057
 21
-0.4019237886466556
 31
0.0
  0
ENDBLK
  5
41B
330
416
100
AcDbEntity
  8
0
100
AcDbBlockEnd
  0
BLOCK
  5
265E
330
265D
100
AcDbEntity
  8
0
100
AcDbBlockBegin
  2
_OPEN30
 70
     0
 10
0.0
 20
0.0
 30
0.0
  3
_OPEN30
  1
_OPEN30
  0
LINE
  5
265F
330
265D
100
AcDbEntity
  8
0
  6
ByBlock
 62
     0
100
AcDbLine
 10
-1.0
 20
0.26794919
 30
0.0
 11
0.0
 21
0.0
 31
0.0
  0
LINE
  5
2660
330
265D
100
AcDbEntity
  8
0
  6
ByBlock
 62
     0
100
AcDbLine
 10
0.0
 20
0.0
 30
0.0
 11
-1.0
 21
-0.26794919
 31
0.0
  0
LINE
  5
2661
330
265D
100
AcDbEntity
  8
0
  6
ByBlock
 62
     0
100
AcDbLine
 10
0.0
 20
0.0
 30
0.0
 11
-1.0
 21
0.0
 31
0.0
  0
ENDBLK
  5
2662
330
265D
100
AcDbEntity
  8
0
100
AcDbBlockEnd
  0
ENDSEC
  0
SECTION
  2
ENTITIES
  0
MTEXT
  5
8182F
330
18
100
AcDbEntity
  8
0
100
AcDbMText
 10
5598.734167156057
 20
-2635.335630549191
 30
0.0
 40
3.0
 41
0.0
 71
     7
 72
     1
  1
\A1;
 73
     1
 44
1.0
  0
MTEXT
  5
3073B9
330
18
100
AcDbEntity
  8
C-SUNPO
 62
     7
100
AcDbMText
 10
8897.245354628265
 20
-2466.345110988794
 30
0.0
 40
2.0
 41
0.0
 71
     5
 72
     1
  1
\A1;\P\P 
 11
0.999998667560571
 21
0.001632445123950444
 31
0.0
 73
     1
 44
1.0
  0
LINE
  5
33E298
330
18
100
AcDbEntity
  8
DEFPOINTS
  6
HIDDEN
 62
     3
100
AcDbLine
 10
16400.32661012994
 20
-2432.500297254591
 30
0.0
 11
16400.32661012994
 21
-2464.015940943557
 31
0.0
  0
LINE
  5
33E299
330
18
100
AcDbEntity
  8
DEFPOINTS
  6
HIDDEN
 62
     3
100
AcDbLine
 10
16400.32661012994
 20
-2432.500297254591
 30
0.0
 11
16558.62807284488
 21
-2432.50029725459
 31
0.0
  0
LINE
  5
33E29A
330
18
100
AcDbEntity
  8
DEFPOINTS
  6
HIDDEN
 62
     3
100
AcDbLine
 10
16400.32661012994
 20
-2442.712706394924
 30
0.0
 11
16558.62807284488
 21
-2442.712706394927
 31
0.0
  0
LINE
  5
33E29B
330
18
100
AcDbEntity
  8
DEFPOINTS
  6
HIDDEN
 62
     3
100
AcDbLine
 10
16400.32661012994
 20
-2453.364323669241
 30
0.0
 11
16558.62807284488
 21
-2453.364323669241
 31
0.0
  0
LINE
  5
33E29C
330
18
100
AcDbEntity
  8
DEFPOINTS
  6
HIDDEN
 62
     3
100
AcDbLine
 10
16400.32661012994
 20
-2464.015940943557
 30
0.0
 11
16558.62807284488
 21
-2464.015940943558
 31
0.0
  0
LINE
  5
33E29D
330
18
100
AcDbEntity
  8
DEFPOINTS
  6
HIDDEN
 62
     3
100
AcDbLine
 10
16484.86206184661
 20
-2432.500297254591
 30
0.0
 11
16484.86206184662
 21
-2464.015940943558
 31
0.0
  0
LINE
  5
33E29E
330
18
100
AcDbEntity
  8
下書き線
100
AcDbLine
 10
16183.41868957807
 20
-2424.009206494978
 30
0.0
 11
16183.41868957807
 21
-2549.207797721852
 31
0.0
  0
LINE
  5
33E29F
330
18
100
AcDbEntity
  8
下書き線
100
AcDbLine
 10
16190.4047673542
 20
-2429.507801996861
 30
0.0
 11
16190.40476735419
 21
-2552.200292979584
 31
0.0
  0
LINE
  5
33E2A0
330
18
100
AcDbEntity
  8
下書き線
100
AcDbLine
 10
16183.41868957807
 20
-2489.357799859358
 30
0.0
 11
16190.4047673542
 21
-2489.357799859361
 31
0.0
  0
LINE
  5
33E2A1
330
18
100
AcDbEntity
  8
下書き線
100
AcDbLine
 10
16183.41868957807
 20
-2479.382800215609
 30
0.0
 11
16190.4047673542
 21
-2479.382800215609
 31
0.0
  0
LINE
  5
33E2A2
330
18
100
AcDbEntity
  8
下書き線
100
AcDbLine
 10
16190.40476735419
 20
-2472.400295829597
 30
0.0
 11
16262.67989959141
 21
-2472.400295829597
 31
0.0
  0
LINE
  5
33E2A3
330
18
100
AcDbEntity
  8
下書き線
100
AcDbLine
 10
16183.41868957807
 20
-2469.407800571854
 30
0.0
 11
16190.4047673542
 21
-2469.407800571854
 31
0.0
  0
LINE
  5
33E2A4
330
18
100
AcDbEntity
  8
下書き線
100
AcDbLine
 10
16183.41868957807
 20
-2459.432800928104
 30
0.0
 11
16190.4047673542
 21
-2459.43280092811
 31
0.0
  0
LINE
  5
33E2A5
330
18
100
AcDbEntity
  8
下書き線
100
AcDbLine
 10
16190.40476735419
 20
-2462.425296185845
 30
0.0
 11
16262.67989959141
 21
-2462.425296185845
 31
0.0
  0
LINE
  5
33E2A6
330
18
100
AcDbEntity
  8
下書き線
100
AcDbLine
 10
16190.40476735419
 20
-2462.425296185845
 30
0.0
 11
16262.67989959141
 21
-2462.425296185845
 31
0.0
  0
LINE
  5
33E2A7
330
18
100
AcDbEntity
  8
下書き線
100
AcDbLine
 10
16183.41868957807
 20
-2459.432800928104
 30
0.0
 11
16190.4047673542
 21
-2459.43280092811
 31
0.0
  0
LINE
  5
33E2A8
330
18
100
AcDbEntity
  8
下書き線
100
AcDbLine
 10
16183.41868957807
 20
-2449.457801284355
 30
0.0
 11
16190.4047673542
 21
-2449.457801284366
 31
0.0
  0
LINE
  5
33E2A9
330
18
100
AcDbEntity
  8
下書き線
100
AcDbLine
 10
16190.40476735419
 20
-2452.450296542095
 30
0.0
 11
16262.67989959141
 21
-2452.450296542095
 31
0.0
  0
LINE
  5
33E2AA
330
18
100
AcDbEntity
  8
下書き線
100
AcDbLine
 10
16190.40476735419
 20
-2442.475296898343
 30
0.0
 11
16262.67989959141
 21
-2442.475296898343
 31
0.0
  0
LINE
  5
33E2AB
330
18
100
AcDbEntity
  8
下書き線
100
AcDbLine
 10
16183.41868957807
 20
-2439.482801640605
 30
0.0
 11
16190.4047673542
 21
-2439.482801640605
 31
0.0
  0
LINE
  5
33E2AC
330
18
100
AcDbEntity
  8
下書き線
100
AcDbLine
 10
16183.41868957807
 20
-2429.507801996856
 30
0.0
 11
16190.4047673542
 21
-2429.507801996861
 31
0.0
  0
LINE
  5
33E2AD
330
18
100
AcDbEntity
  8
下書き線
100
AcDbLine
 10
16190.40476735419
 20
-2432.500297254594
 30
0.0
 11
16262.67989959141
 21
-2432.500297254594
 31
0.0
  0
LINE
  5
33E2B6
330
18
100
AcDbEntity
  8
下書き線
100
AcDbLine
 10
16183.41868957807
 20
-2499.332799503105
 30
0.0
 11
16190.4047673542
 21
-2499.33279950311
 31
0.0
  0
LINE
  5
33E2B7
330
18
100
AcDbEntity
  8
下書き線
100
AcDbLine
 10
16183.41868957807
 20
-2509.307799146854
 30
0.0
 11
16190.4047673542
 21
-2509.30779914686
 31
0.0
  0
LINE
  5
33E2B8
330
18
100
AcDbEntity
  8
下書き線
100
AcDbLine
 10
16183.41868957807
 20
-2519.282798790604
 30
0.0
 11
16190.4047673542
 21
-2519.282798790609
 31
0.0
  0
LINE
  5
33E2B9
330
18
100
AcDbEntity
  8
下書き線
100
AcDbLine
 10
16244.72442837759
 20
-2429.507801996861
 30
0.0
 11
16244.72442837759
 21
-2552.200292979587
 31
0.0
  0
LINE
  5
33E2BA
330
18
100
AcDbEntity
  8
下書き線
100
AcDbLine
 10
16190.40476735419
 20
-2512.300294404595
 30
0.0
 11
16262.6798995914
 21
-2512.300294404595
 31
0.0
  0
LINE
  5
33E2BB
330
18
100
AcDbEntity
  8
下書き線
100
AcDbLine
 10
16183.41868957807
 20
-2509.307799146857
 30
0.0
 11
16190.4047673542
 21
-2509.307799146863
 31
0.0
  0
LINE
  5
33E2BC
330
18
100
AcDbEntity
  8
下書き線
100
AcDbLine
 10
16183.41868957807
 20
-2499.332799503108
 30
0.0
 11
16190.4047673542
 21
-2499.33279950311
 31
0.0
  0
LINE
  5
33E2BD
330
18
100
AcDbEntity
  8
下書き線
100
AcDbLine
 10
16190.40476735419
 20
-2502.325294760845
 30
0.0
 11
16262.6798995914
 21
-2502.325294760845
 31
0.0
  0
LINE
  5
33E2BE
330
18
100
AcDbEntity
  8
下書き線
100
AcDbLine
 10
16190.40476735419
 20
-2482.375295473346
 30
0.0
 11
16262.6798995914
 21
-2482.375295473346
 31
0.0
  0
LINE
  5
33E2BF
330
18
100
AcDbEntity
  8
下書き線
100
AcDbLine
 10
16183.41868957807
 20
-2479.382800215609
 30
0.0
 11
16190.4047673542
 21
-2479.382800215609
 31
0.0
  0
LINE
  5
33E2C8
330
18
100
AcDbEntity
  8
下書き線
100
AcDbLine
 10
16190.40476735419
 20
-2532.250293692094
 30
0.0
 11
16262.6798995914
 21
-2532.250293692094
 31
0.0
  0
LINE
  5
33E2C9
330
18
100
AcDbEntity
  8
下書き線
100
AcDbLine
 10
16183.41868957807
 20
-2529.257798434353
 30
0.0
 11
16190.4047673542
 21
-2529.257798434359
 31
0.0
  0
LINE
  5
33E2CC
330
18
100
AcDbEntity
  8
下書き線
100
AcDbLine
 10
16190.40476735419
 20
-2542.22529333584
 30
0.0
 11
16262.6798995914
 21
-2542.22529333584
 31
0.0
  0
LINE
  5
33E2CD
330
18
100
AcDbEntity
  8
下書き線
100
AcDbLine
 10
16190.40476735419
 20
-2492.350295117096
 30
0.0
 11
16262.6798995914
 21
-2492.350295117096
 31
0.0
  0
LINE
  5
33E2CE
330
18
100
AcDbEntity
  8
下書き線
100
AcDbLine
 10
16183.41868957807
 20
-2489.357799859358
 30
0.0
 11
16190.4047673542
 21
-2489.357799859358
 31
0.0
  0
LINE
  5
33E2D2
330
18
100
AcDbEntity
  8
下書き線
100
AcDbLine
 10
16183.41868957807
 20
-2519.282798790607
 30
0.0
 11
16190.4047673542
 21
-2519.282798790612
 31
0.0
  0
LINE
  5
33E2D3
330
18
100
AcDbEntity
  8
下書き線
100
AcDbLine
 10
16190.40476735419
 20
-2522.275294048347
 30
0.0
 11
16262.6798995914
 21
-2522.275294048347
 31
0.0
  0
LINE
  5
33E2D4
330
18
100
AcDbEntity
  8
下書き線
100
AcDbLine
 10
16183.41868957807
 20
-2539.232798078103
 30
0.0
 11
16190.4047673542
 21
-2539.232798078106
 31
0.0
  0
LINE
  5
33E2D5
330
18
100
AcDbEntity
  8
下書き線
100
AcDbLine
 10
16190.40476735419
 20
-2552.200292979587
 30
0.0
 11
16262.6798995914
 21
-2552.200292979587
 31
0.0
  0
LINE
  5
33E2D6
330
18
100
AcDbEntity
  8
下書き線
100
AcDbLine
 10
16183.41868957807
 20
-2549.20779772185
 30
0.0
 11
16190.4047673542
 21
-2549.207797721852
 31
0.0
  0
LINE
  5
33E2E7
330
18
100
AcDbEntity
  8
DEFPOINTS
  6
HIDDEN
 62
     3
100
AcDbLine
 10
16400.32661012994
 20
-2498.84054099481
 30
0.0
 11
16561.57896088473
 21
-2498.84054099481
 31
0.0
  0
LINE
  5
33E2E8
330
18
100
AcDbEntity
  8
DEFPOINTS
  6
HIDDEN
 62
     3
100
AcDbLine
 10
16400.32661012994
 20
-2509.052950135143
 30
0.0
 11
16561.57896088473
 21
-2509.052950135146
 31
0.0
  0
LINE
  5
33E2E9
330
18
100
AcDbEntity
  8
DEFPOINTS
  6
HIDDEN
 62
     3
100
AcDbLine
 10
16400.32661012994
 20
-2519.70456740946
 30
0.0
 11
16561.57896088473
 21
-2519.70456740946
 31
0.0
  0
LINE
  5
33E2EA
330
18
100
AcDbEntity
  8
DEFPOINTS
  6
HIDDEN
 62
     3
100
AcDbLine
 10
16400.32661012994
 20
-2530.356184683776
 30
0.0
 11
16561.57896088473
 21
-2530.356184683777
 31
0.0
  0
LINE
  5
33E2F6
330
18
100
AcDbEntity
  8
DEFPOINTS
  6
HIDDEN
 62
     3
100
AcDbLine
 10
16400.32661012994
 20
-2540.568593824109
 30
0.0
 11
16561.57896088473
 21
-2540.568593824109
 31
0.0
  0
LINE
  5
33E2F7
330
18
100
AcDbEntity
  8
DEFPOINTS
  6
HIDDEN
 62
     3
100
AcDbLine
 10
16400.32661012994
 20
-2550.781002964443
 30
0.0
 11
16561.57896088473
 21
-2550.781002964446
 31
0.0
  0
LINE
  5
33E2F8
330
18
100
AcDbEntity
  8
DEFPOINTS
  6
HIDDEN
 62
     3
100
AcDbLine
 10
16400.32661012994
 20
-2561.43262023876
 30
0.0
 11
16561.57896088473
 21
-2561.43262023876
 31
0.0
  0
TEXT
  5
352CAA
330
18
100
AcDbEntity
  8
文字
100
AcDbText
 10
16054.98613451153
 20
-2839.233250851463
 30
0.0
 40
9.75
  1
SX-910CBP
100
AcDbText
  0
POLYLINE
  5
35308A
330
18
100
AcDbEntity
  8
姿図
100
AcDb2dPolyline
 66
     1
 10
0.0
 20
0.0
 30
0.0
  0
VERTEX
  5
35308B
330
35308A
100
AcDbEntity
  8
姿図
100
AcDbVertex
100
AcDb2dVertex
 10
16153.11806682612
 20
-2733.105474526811
 30
0.0
  0
VERTEX
  5
35308C
330
35308A
100
AcDbEntity
  8
姿図
100
AcDbVertex
100
AcDb2dVertex
 10
16148.9175390561
 20
-2734.615805383902
 30
0.0
  0
VERTEX
  5
35308D
330
35308A
100
AcDbEntity
  8
姿図
100
AcDbVertex
100
AcDb2dVertex
 10
16100.25789794
 20
-2734.615805383902
 30
0.0
  0
VERTEX
  5
35308E
330
35308A
100
AcDbEntity
  8
姿図
100
AcDbVertex
100
AcDb2dVertex
 10
16098.84193520069
 20
-2733.105474526811
 30
0.0
  0
VERTEX
  5
35308F
330
35308A
100
AcDbEntity
  8
姿図
100
AcDbVertex
100
AcDb2dVertex
 10
16153.11806682612
 20
-2733.105474526811
 30
0.0
  0
VERTEX
  5
353090
330
35308A
100
AcDbEntity
  8
姿図
100
AcDbVertex
100
AcDb2dVertex
 10
16153.44844343287
 20
-2716.822652678084
 30
0.0
  0
VERTEX
  5
353091
330
35308A
100
AcDbEntity
  8
姿図
100
AcDbVertex
100
AcDb2dVertex
 10
16098.84193520069
 20
-2716.822652678084
 30
0.0
  0
SEQEND
  5
353092
330
35308A
100
AcDbEntity
  8
姿図
  0
POLYLINE
  5
353093
330
18
100
AcDbEntity
  8
姿図
100
AcDb2dPolyline
 66
     1
 10
0.0
 20
0.0
 30
0.0
  0
VERTEX
  5
353094
330
353093
100
AcDbEntity
  8
姿図
100
AcDbVertex
100
AcDb2dVertex
 10
16100.25789794
 20
-2734.615805383902
 30
0.0
  0
VERTEX
  5
353095
330
353093
100
AcDbEntity
  8
姿図
100
AcDbVertex
100
AcDb2dVertex
 10
16099.36113623752
 20
-2735.701391516452
 30
0.0
  0
VERTEX
  5
353096
330
353093
100
AcDbEntity
  8
姿図
100
AcDbVertex
100
AcDb2dVertex
 10
16097.89798943933
 20
-2734.285428777149
 30
0.0
  0
VERTEX
  5
353097
330
353093
100
AcDbEntity
  8
姿図
100
AcDbVertex
100
AcDb2dVertex
 10
16098.84193520069
 20
-2733.105474526811
 30
0.0
  0
VERTEX
  5
353098
330
353093
100
AcDbEntity
  8
姿図
100
AcDbVertex
100
AcDb2dVertex
 10
16098.84193520069
 20
-2716.822652678084
 30
0.0
  0
VERTEX
  5
353099
330
353093
100
AcDbEntity
  8
姿図
100
AcDbVertex
100
AcDb2dVertex
 10
16093.7919179816
 20
-2716.822652678084
 30
0.0
  0
VERTEX
  5
35309A
330
353093
100
AcDbEntity
  8
姿図
100
AcDbVertex
100
AcDb2dVertex
 10
16092.09276269443
 20
-2717.530589950485
 30
0.0
  0
VERTEX
  5
35309B
330
353093
100
AcDbEntity
  8
姿図
100
AcDbVertex
100
AcDb2dVertex
 10
16089.4970220938
 20
-2717.562075387914
 30
0.0
  0
SEQEND
  5
35309C
330
353093
100
AcDbEntity
  8
姿図
  0
SPLINE
  5
35309D
330
18
100
AcDbEntity
  8
姿図
100
AcDbSpline
210
0.0
220
0.0
230
1.0
 70
     8
 71
     3
 72
    17
 73
    13
 74
     0
 42
0.000000001
 43
0.0000000001
 40
0.0
 40
0.0
 40
0.0
 40
0.0
 40
1.0
 40
1.0
 40
1.0
 40
2.0
 40
2.0
 40
2.0
 40
3.0
 40
3.0
 40
3.0
 40
4.0
 40
4.0
 40
4.0
 40
4.0
 10
16097.89798943933
 20
-2734.285428777149
 30
0.0
 10
16097.89798943933
 20
-2734.285428777149
 30
0.0
 10
16081.55237310474
 20
-2734.615805383902
 30
0.0
 10
16081.55237310474
 20
-2734.615805383902
 30
0.0
 10
16081.55237310474
 20
-2734.615805383902
 30
0.0
 10
16089.59139021158
 20
-2734.568621325009
 30
0.0
 10
16089.4970220938
 20
-2735.040550108441
 30
0.0
 10
16089.4970220938
 20
-2735.040550108441
 30
0.0
 10
16089.35538172262
 20
-2735.182190479624
 30
0.0
 10
16089.16664548704
 20
-2735.465383027485
 30
0.0
 10
16089.16664548704
 20
-2735.465383027485
 30
0.0
 10
16099.36113623752
 20
-2735.701391516452
 30
0.0
 10
16099.36113623752
 20
-2735.701391516452
 30
0.0
  0
POLYLINE
  5
35309E
330
18
100
AcDbEntity
  8
姿図
100
AcDb2dPolyline
 66
     1
 10
0.0
 20
0.0
 30
0.0
  0
VERTEX
  5
35309F
330
35309E
100
AcDbEntity
  8
姿図
100
AcDbVertex
100
AcDb2dVertex
 10
16089.16664548704
 20
-2735.465383027485
 30
0.0
  0
VERTEX
  5
3530A0
330
35309E
100
AcDbEntity
  8
姿図
100
AcDbVertex
100
AcDb2dVertex
 10
16088.0338752956
 20
-2737.21163417904
 30
0.0
  0
SEQEND
  5
3530A1
330
35309E
100
AcDbEntity
  8
姿図
  0
POLYLINE
  5
3530A2
330
18
100
AcDbEntity
  8
姿図
100
AcDb2dPolyline
 66
     1
 10
0.0
 20
0.0
 30
0.0
  0
VERTEX
  5
3530A3
330
3530A2
100
AcDbEntity
  8
姿図
100
AcDbVertex
100
AcDb2dVertex
 10
16088.86775431772
 20
-2719.245443859114
 30
0.0
  0
VERTEX
  5
3530A4
330
3530A2
100
AcDbEntity
  8
姿図
100
AcDbVertex
100
AcDb2dVertex
 10
16089.4970220938
 20
-2718.867883193467
 30
0.0
  0
VERTEX
  5
3530A5
330
3530A2
100
AcDbEntity
  8
姿図
100
AcDbVertex
100
AcDb2dVertex
 10
16081.66235164949
 20
-2719.245443859114
 30
0.0
  0
SEQEND
  5
3530A6
330
3530A2
100
AcDbEntity
  8
姿図
  0
SPLINE
  5
3530A7
330
18
100
AcDbEntity
  8
姿図
100
AcDbSpline
210
0.0
220
0.0
230
1.0
 70
     8
 71
     3
 72
    38
 73
    34
 74
     0
 42
0.000000001
 43
0.0000000001
 40
0.0
 40
0.0
 40
0.0
 40
0.0
 40
1.0
 40
1.0
 40
1.0
 40
2.0
 40
2.0
 40
2.0
 40
3.0
 40
3.0
 40
3.0
 40
4.0
 40
4.0
 40
4.0
 40
5.0
 40
5.0
 40
5.0
 40
6.0
 40
6.0
 40
6.0
 40
7.0
 40
7.0
 40
7.0
 40
8.0
 40
8.0
 40
8.0
 40
9.0
 40
9.0
 40
9.0
 40
10.0
 40
10.0
 40
10.0
 40
11.0
 40
11.0
 40
11.0
 40
11.0
 10
16089.4970220938
 20
-2718.867883193467
 30
0.0
 10
16089.4970220938
 20
-2718.867883193467
 30
0.0
 10
16089.4970220938
 20
-2717.137330663374
 30
0.0
 10
16089.4970220938
 20
-2717.137330663374
 30
0.0
 10
16089.4970220938
 20
-2717.137330663374
 30
0.0
 10
16080.62412596484
 20
-2717.514891329021
 30
0.0
 10
16080.62412596484
 20
-2717.514891329021
 30
0.0
 10
16080.62412596484
 20
-2717.514891329021
 30
0.0
 10
16075.46386561749
 20
-2717.955422869528
 30
0.0
 10
16075.11779038927
 20
-2718.553205208175
 30
0.0
 10
16075.11779038927
 20
-2718.553205208175
 30
0.0
 10
16075.11779038927
 20
-2720.189389620482
 30
0.0
 10
16075.11779038927
 20
-2720.189389620482
 30
0.0
 10
16075.52674829785
 20
-2719.339900171402
 30
0.0
 10
16081.15893742863
 20
-2719.245443859114
 30
0.0
 10
16081.15893742863
 20
-2719.245443859114
 30
0.0
 10
16081.15893742863
 20
-2719.245443859114
 30
0.0
 10
16092.51759561348
 20
-2719.245443859114
 30
0.0
 10
16092.51759561348
 20
-2719.245443859114
 30
0.0
 10
16092.51759561348
 20
-2719.245443859114
 30
0.0
 10
16095.47519825829
 20
-2718.962251311253
 30
0.0
 10
16095.47519825829
 20
-2718.962251311253
 30
0.0
 10
16095.47519825829
 20
-2718.962251311253
 30
0.0
 10
16098.84193520069
 20
-2718.742029638252
 30
0.0
 10
16098.84193520069
 20
-2718.742029638252
 30
0.0
 10
16098.84193520069
 20
-2718.742029638252
 30
0.0
 10
16093.7919179816
 20
-2718.742029638252
 30
0.0
 10
16093.7919179816
 20
-2718.742029638252
 30
0.0
 10
16093.7919179816
 20
-2718.742029638252
 30
0.0
 10
16092.51759561348
 20
-2719.245443859114
 30
0.0
 10
16092.51759561348
 20
-2719.245443859114
 30
0.0
 10
16092.51759561348
 20
-2719.245443859114
 30
0.0
 10
16092.51759561348
 20
-2731.170487139684
 30
0.0
 10
16092.51759561348
 20
-2731.170487139684
 30
0.0
  0
POLYLINE
  5
3530A8
330
18
100
AcDbEntity
  8
姿図
100
AcDb2dPolyline
 66
     1
 10
0.0
 20
0.0
 30
0.0
  0
VERTEX
  5
3530A9
330
3530A8
100
AcDbEntity
  8
姿図
100
AcDbVertex
100
AcDb2dVertex
 10
16095.41231557794
 20
-2719.056707623541
 30
0.0
  0
VERTEX
  5
3530AA
330
3530A8
100
AcDbEntity
  8
姿図
100
AcDbVertex
100
AcDb2dVertex
 10
16095.41231557794
 20
-2731.170487139684
 30
0.0
  0
VERTEX
  5
3530AB
330
3530A8
100
AcDbEntity
  8
姿図
100
AcDbVertex
100
AcDb2dVertex
 10
16081.15893742863
 20
-2731.453591493042
 30
0.0
  0
SEQEND
  5
3530AC
330
3530A8
100
AcDbEntity
  8
姿図
  0
POLYLINE
  5
3530AD
330
18
100
AcDbEntity
  8
姿図
100
AcDb2dPolyline
 66
     1
 10
0.0
 20
0.0
 30
0.0
  0
VERTEX
  5
3530AE
330
3530AD
100
AcDbEntity
  8
姿図
100
AcDbVertex
100
AcDb2dVertex
 10
16081.66235164949
 20
-2719.245443859114
 30
0.0
  0
VERTEX
  5
3530AF
330
3530AD
100
AcDbEntity
  8
姿図
100
AcDbVertex
100
AcDb2dVertex
 10
16081.66235164949
 20
-2719.245443859114
 30
0.0
  0
SEQEND
  5
3530B0
330
3530AD
100
AcDbEntity
  8
姿図
  0
SPLINE
  5
3530B1
330
18
100
AcDbEntity
  8
姿図
100
AcDbSpline
210
0.0
220
0.0
230
1.0
 70
     8
 71
     3
 72
    11
 73
     7
 74
     0
 42
0.000000001
 43
0.0000000001
 40
0.0
 40
0.0
 40
0.0
 40
0.0
 40
1.0
 40
1.0
 40
1.0
 40
2.0
 40
2.0
 40
2.0
 40
2.0
 10
16081.94554419735
 20
-2736.802588075963
 30
0.0
 10
16081.94554419735
 20
-2736.802588075963
 30
0.0
 10
16081.15893742863
 20
-2732.995407787562
 30
0.0
 10
16081.15893742863
 20
-2732.995407787562
 30
0.0
 10
16081.15893742863
 20
-2732.995407787562
 30
0.0
 10
16081.15893742863
 20
-2719.245443859114
 30
0.0
 10
16081.15893742863
 20
-2719.245443859114
 30
0.0
  0
SPLINE
  5
3530B2
330
18
100
AcDbEntity
  8
姿図
100
AcDbSpline
210
0.0
220
0.0
230
1.0
 70
     8
 71
     3
 72
    14
 73
    10
 74
     0
 42
0.000000001
 43
0.0000000001
 40
0.0
 40
0.0
 40
0.0
 40
0.0
 40
1.0
 40
1.0
 40
1.0
 40
2.0
 40
2.0
 40
2.0
 40
3.0
 40
3.0
 40
3.0
 40
3.0
 10
16098.84193520069
 20
-2733.105474526811
 30
0.0
 10
16098.84193520069
 20
-2733.105474526811
 30
0.0
 10
16081.1817798048
 20
-2733.105474526811
 30
0.0
 10
16081.1817798048
 20
-2733.105474526811
 30
0.0
 10
16081.1817798048
 20
-2733.105474526811
 30
0.0
 10
16075.1491876322
 20
-2733.089775905349
 30
0.0
 10
16075.11779038927
 20
-2733.750529118855
 30
0.0
 10
16075.11779038927
 20
-2733.750529118855
 30
0.0
 10
16077.50909613287
 20
-2737.21163417904
 30
0.0
 10
16077.50909613287
 20
-2737.21163417904
 30
0.0
  0
SPLINE
  5
3530B3
330
18
100
AcDbEntity
  8
姿図
100
AcDbSpline
210
0.0
220
0.0
230
1.0
 70
     8
 71
     3
 72
    29
 73
    25
 74
     0
 42
0.000000001
 43
0.0000000001
 40
0.0
 40
0.0
 40
0.0
 40
0.0
 40
1.0
 40
1.0
 40
1.0
 40
2.0
 40
2.0
 40
2.0
 40
3.0
 40
3.0
 40
3.0
 40
4.0
 40
4.0
 40
4.0
 40
5.0
 40
5.0
 40
5.0
 40
6.0
 40
6.0
 40
6.0
 40
7.0
 40
7.0
 40
7.0
 40
8.0
 40
8.0
 40
8.0
 40
8.0
 10
16075.11779038927
 20
-2724.122423464099
 30
0.0
 10
16075.11779038927
 20
-2724.122423464099
 30
0.0
 10
16074.39415449541
 20
-2723.524552930948
 30
0.0
 10
16074.39415449541
 20
-2723.524552930948
 30
0.0
 10
16074.39415449541
 20
-2723.524552930948
 30
0.0
 10
16074.07947651012
 20
-2723.304331257947
 30
0.0
 10
16074.07947651012
 20
-2722.863887911943
 30
0.0
 10
16074.07947651012
 20
-2722.863887911943
 30
0.0
 10
16074.07947651012
 20
-2720.189389620482
 30
0.0
 10
16074.07947651012
 20
-2720.189389620482
 30
0.0
 10
16074.07947651012
 20
-2720.189389620482
 30
0.0
 10
16075.11779038927
 20
-2720.189389620482
 30
0.0
 10
16075.11779038927
 20
-2720.189389620482
 30
0.0
 10
16075.46386561749
 20
-2720.283757738269
 30
0.0
 10
16075.40089474263
 20
-2720.346728613127
 30
0.0
 10
16075.40089474263
 20
-2720.346728613127
 30
0.0
 10
16075.40089474263
 20
-2720.346728613127
 30
0.0
 10
16075.40089474263
 20
-2722.89528515487
 30
0.0
 10
16075.40089474263
 20
-2722.89528515487
 30
0.0
 10
16075.40089474263
 20
-2722.89528515487
 30
0.0
 10
16075.11779038927
 20
-2723.965172665957
 30
0.0
 10
16075.11779038927
 20
-2723.965172665957
 30
0.0
 10
16075.11779038927
 20
-2723.965172665957
 30
0.0
 10
16075.11779038927
 20
-2733.750529118855
 30
0.0
 10
16075.11779038927
 20
-2733.750529118855
 30
0.0
  0
POLYLINE
  5
3530B4
330
18
100
AcDbEntity
  8
姿図
100
AcDb2dPolyline
 66
     1
 10
0.0
 20
0.0
 30
0.0
  0
VERTEX
  5
3530B5
330
3530B4
100
AcDbEntity
  8
姿図
100
AcDbVertex
100
AcDb2dVertex
 10
16095.56965457058
 20
-2716.822652678084
 30
0.0
  0
VERTEX
  5
3530B6
330
3530B4
100
AcDbEntity
  8
姿図
100
AcDbVertex
100
AcDb2dVertex
 10
16095.56965457058
 20
-2714.242610698912
 30
0.0
  0
VERTEX
  5
3530B7
330
3530B4
100
AcDbEntity
  8
姿図
100
AcDbVertex
100
AcDb2dVertex
 10
16135.02602295098
 20
-2714.242610698912
 30
0.0
  0
VERTEX
  5
3530B8
330
3530B4
100
AcDbEntity
  8
姿図
100
AcDbVertex
100
AcDb2dVertex
 10
16135.02602295098
 20
-2711.851304955312
 30
0.0
  0
VERTEX
  5
3530B9
330
3530B4
100
AcDbEntity
  8
姿図
100
AcDbVertex
100
AcDb2dVertex
 10
16140.94122824062
 20
-2711.851304955312
 30
0.0
  0
VERTEX
  5
3530BA
330
3530B4
100
AcDbEntity
  8
姿図
100
AcDbVertex
100
AcDb2dVertex
 10
16140.94122824062
 20
-2716.822652678084
 30
0.0
  0
SEQEND
  5
3530BB
330
3530B4
100
AcDbEntity
  8
姿図
  0
POLYLINE
  5
3530BC
330
18
100
AcDbEntity
  8
姿図
100
AcDb2dPolyline
 66
     1
 10
0.0
 20
0.0
 30
0.0
  0
VERTEX
  5
3530BD
330
3530BC
100
AcDbEntity
  8
姿図
100
AcDbVertex
100
AcDb2dVertex
 10
16135.02602295098
 20
-2711.851304955312
 30
0.0
  0
VERTEX
  5
3530BE
330
3530BC
100
AcDbEntity
  8
姿図
100
AcDbVertex
100
AcDb2dVertex
 10
16134.08198899511
 20
-2712.858133397037
 30
0.0
  0
VERTEX
  5
3530BF
330
3530BC
100
AcDbEntity
  8
姿図
100
AcDbVertex
100
AcDb2dVertex
 10
16134.08198899511
 20
-2714.242610698912
 30
0.0
  0
SEQEND
  5
3530C0
330
3530BC
100
AcDbEntity
  8
姿図
  0
SPLINE
  5
3530C1
330
18
100
AcDbEntity
  8
姿図
100
AcDbSpline
210
0.0
220
0.0
230
1.0
 70
     8
 71
     3
 72
    17
 73
    13
 74
     0
 42
0.000000001
 43
0.0000000001
 40
0.0
 40
0.0
 40
0.0
 40
0.0
 40
1.0
 40
1.0
 40
1.0
 40
2.0
 40
2.0
 40
2.0
 40
3.0
 40
3.0
 40
3.0
 40
4.0
 40
4.0
 40
4.0
 40
4.0
 10
16144.96871839652
 20
-2716.822652678084
 30
0.0
 10
16144.96871839652
 20
-2716.822652678084
 30
0.0
 10
16145.28339638181
 20
-2716.38220933208
 30
0.0
 10
16145.28339638181
 20
-2716.38220933208
 30
0.0
 10
16145.28339638181
 20
-2716.38220933208
 30
0.0
 10
16145.66086885296
 20
-2716.06753134679
 30
0.0
 10
16146.47896105911
 20
-2716.06753134679
 30
0.0
 10
16146.47896105911
 20
-2716.06753134679
 30
0.0
 10
16150.3806858543
 20
-2716.06753134679
 30
0.0
 10
16150.3806858543
 20
-2716.06753134679
 30
0.0
 10
16150.3806858543
 20
-2716.06753134679
 30
0.0
 10
16151.26174893532
 20
-2716.319238457221
 30
0.0
 10
16150.3806858543
 20
-2716.822652678084
 30
0.0
  0
SPLINE
  5
3530C2
330
18
100
AcDbEntity
  8
姿図
100
AcDbSpline
210
0.0
220
0.0
230
1.0
 70
     8
 71
     3
 72
    23
 73
    19
 74
     0
 42
0.000000001
 43
0.0000000001
 40
0.0
 40
0.0
 40
0.0
 40
0.0
 40
1.0
 40
1.0
 40
1.0
 40
2.0
 40
2.0
 40
2.0
 40
3.0
 40
3.0
 40
3.0
 40
4.0
 40
4.0
 40
4.0
 40
5.0
 40
5.0
 40
5.0
 40
6.0
 40
6.0
 40
6.0
 40
6.0
 10
16150.76697777571
 20
-2716.445092012437
 30
0.0
 10
16150.76697777571
 20
-2716.445092012437
 30
0.0
 10
16150.76697777571
 20
-2715.438263570712
 30
0.0
 10
16150.76697777571
 20
-2715.438263570712
 30
0.0
 10
16150.76697777571
 20
-2715.438263570712
 30
0.0
 10
16150.56942208987
 20
-2715.060702905065
 30
0.0
 10
16149.87709524443
 20
-2715.060702905065
 30
0.0
 10
16149.87709524443
 20
-2715.060702905065
 30
0.0
 10
16146.10148858796
 20
-2715.060702905065
 30
0.0
 10
16146.10148858796
 20
-2715.060702905065
 30
0.0
 10
16146.10148858796
 20
-2715.060702905065
 30
0.0
 10
16145.3777644996
 20
-2715.092188342494
 30
0.0
 10
16144.96871839652
 20
-2715.501146251068
 30
0.0
 10
16144.55967229345
 20
-2715.910192354145
 30
0.0
 10
16144.27656794009
 20
-2716.445092012437
 30
0.0
 10
16144.27656794009
 20
-2716.445092012437
 30
0.0
 10
16144.27656794009
 20
-2716.445092012437
 30
0.0
 10
16144.27656794009
 20
-2716.822652678084
 30
0.0
 10
16144.27656794009
 20
-2716.822652678084
 30
0.0
  0
SPLINE
  5
3530C3
330
18
100
AcDbEntity
  8
姿図
100
AcDbSpline
210
0.0
220
0.0
230
1.0
 70
     8
 71
     3
 72
    17
 73
    13
 74
     0
 42
0.000000001
 43
0.0000000001
 40
0.0
 40
0.0
 40
0.0
 40
0.0
 40
1.0
 40
1.0
 40
1.0
 40
2.0
 40
2.0
 40
2.0
 40
3.0
 40
3.0
 40
3.0
 40
3.721995864890316
 40
3.721995864890316
 40
3.721995864890316
 40
3.721995864890316
 10
16144.59724315155
 20
-2715.941677791574
 30
0.0
 10
16144.59724315155
 20
-2715.941677791574
 30
0.0
 10
16144.59724315155
 20
-2715.060702905065
 30
0.0
 10
16144.59724315155
 20
-2715.060702905065
 30
0.0
 10
16144.59724315155
 20
-2715.060702905065
 30
0.0
 10
16144.28521100134
 20
-2714.336978816698
 30
0.0
 10
16147.5217728579
 20
-2714.336978816698
 30
0.0
 10
16147.5217728579
 20
-2714.336978816698
 30
0.0
 10
16150.00303699415
 20
-2714.431346934484
 30
0.0
 10
16150.00303699415
 20
-2714.746024919774
 30
0.0
 10
16150.00303699415
 20
-2714.746024919774
 30
0.0
 10
16150.00303699415
 20
-2714.95106831967
 30
0.0
 10
16150.00303699415
 20
-2715.065074145766
 30
0.0
  0
SPLINE
  5
3530C4
330
18
100
AcDbEntity
  8
姿図
100
AcDbSpline
210
0.0
220
0.0
230
1.0
 70
     8
 71
     3
 72
     8
 73
     4
 74
     0
 42
0.000000001
 43
0.0000000001
 40
0.0
 40
0.0
 40
0.0
 40
0.0
 40
1.0
 40
1.0
 40
1.0
 40
1.0
 10
16092.72211866501
 20
-2717.268475888746
 30
0.0
 10
16092.64159708414
 20
-2717.301989799736
 30
0.0
 10
16089.4970220938
 20
-2717.268475888746
 30
0.0
 10
16089.4970220938
 20
-2717.268475888746
 30
0.0
  0
SPLINE
  5
3530C5
330
18
100
AcDbEntity
  8
姿図
100
AcDbSpline
210
0.0
220
0.0
230
1.0
 70
     8
 71
     3
 72
    23
 73
    19
 74
     0
 42
0.000000001
 43
0.0000000001
 40
0.0
 40
0.0
 40
0.0
 40
0.0
 40
1.0
 40
1.0
 40
1.0
 40
2.0
 40
2.0
 40
2.0
 40
3.0
 40
3.0
 40
3.0
 40
4.0
 40
4.0
 40
4.0
 40
5.0
 40
5.0
 40
5.0
 40
6.0
 40
6.0
 40
6.0
 40
6.0
 10
16080.18385900784
 20
-2717.082120904744
 30
0.0
 10
16080.18385900784
 20
-2717.082120904744
 30
0.0
 10
16079.52319398883
 20
-2716.508062887297
 30
0.0
 10
16079.52319398883
 20
-2716.508062887297
 30
0.0
 10
16079.52319398883
 20
-2716.508062887297
 30
0.0
 10
16079.11414788576
 20
-2716.287841214295
 30
0.0
 10
16080.18385900784
 20
-2716.287841214295
 30
0.0
 10
16080.18385900784
 20
-2716.287841214295
 30
0.0
 10
16084.08540741403
 20
-2716.287841214295
 30
0.0
 10
16084.08540741403
 20
-2716.287841214295
 30
0.0
 10
16084.08540741403
 20
-2716.287841214295
 30
0.0
 10
16085.01294899791
 20
-2716.193384902005
 30
0.0
 10
16085.55605074495
 20
-2716.822652678084
 30
0.0
 10
16085.55605074495
 20
-2716.822652678084
 30
0.0
 10
16085.97162324122
 20
-2717.287349512304
 30
0.0
 10
16085.97162324122
 20
-2717.287349512304
 30
0.0
 10
16078.89048662716
 20
-2716.587878912153
 30
0.0
 10
16077.3848300787
 20
-2717.900918666918
 30
0.0
 10
16077.3848300787
 20
-2717.900918666918
 30
0.0
  0
SPLINE
  5
3530C6
330
18
100
AcDbEntity
  8
姿図
100
AcDbSpline
210
0.0
220
0.0
230
1.0
 70
     8
 71
     3
 72
    26
 73
    22
 74
     0
 42
0.000000001
 43
0.0000000001
 40
0.0
 40
0.0
 40
0.0
 40
0.0
 40
1.0
 40
1.0
 40
1.0
 40
2.0
 40
2.0
 40
2.0
 40
3.0
 40
3.0
 40
3.0
 40
4.0
 40
4.0
 40
4.0
 40
5.0
 40
5.0
 40
5.0
 40
6.0
 40
6.0
 40
6.0
 40
7.0
 40
7.0
 40
7.0
 40
7.0
 10
16079.44955157916
 20
-2716.404434346737
 30
0.0
 10
16079.44955157916
 20
-2716.404434346737
 30
0.0
 10
16079.44955157916
 20
-2715.375380890355
 30
0.0
 10
16079.44955157916
 20
-2715.375380890355
 30
0.0
 10
16079.44955157916
 20
-2715.375380890355
 30
0.0
 10
16079.30279592683
 20
-2715.060702905065
 30
0.0
 10
16080.21534444527
 20
-2715.060702905065
 30
0.0
 10
16080.21534444527
 20
-2715.060702905065
 30
0.0
 10
16083.80221486617
 20
-2715.060702905065
 30
0.0
 10
16083.80221486617
 20
-2715.060702905065
 30
0.0
 10
16083.80221486617
 20
-2715.060702905065
 30
0.0
 10
16084.90358781468
 20
-2715.054705678887
 30
0.0
 10
16085.0293531754
 20
-2715.280924578067
 30
0.0
 10
16085.0293531754
 20
-2715.280924578067
 30
0.0
 10
16086.09924068648
 20
-2716.404434346737
 30
0.0
 10
16086.09924068648
 20
-2716.404434346737
 30
0.0
 10
16086.09924068648
 20
-2716.404434346737
 30
0.0
 10
16086.2250942417
 20
-2716.570945567653
 30
0.0
 10
16086.2250942417
 20
-2716.822652678084
 30
0.0
 10
16086.2250942417
 20
-2716.822652678084
 30
0.0
 10
16086.2250942417
 20
-2717.137330663374
 30
0.0
 10
16086.2250942417
 20
-2717.137330663374
 30
0.0
  0
POLYLINE
  5
3530C7
330
18
100
AcDbEntity
  8
姿図
100
AcDb2dPolyline
 66
     1
 10
0.0
 20
0.0
 30
0.0
  0
VERTEX
  5
3530C8
330
3530C7
100
AcDbEntity
  8
姿図
100
AcDbVertex
100
AcDb2dVertex
 10
16080.40408068084
 20
-2715.060702905065
 30
0.0
  0
VERTEX
  5
3530C9
330
3530C7
100
AcDbEntity
  8
姿図
100
AcDbVertex
100
AcDb2dVertex
 10
16080.40408068084
 20
-2712.460905357309
 30
0.0
  0
SEQEND
  5
3530CA
330
3530C7
100
AcDbEntity
  8
姿図
  0
POLYLINE
  5
3530CB
330
18
100
AcDbEntity
  8
姿図
100
AcDb2dPolyline
 66
     1
 10
0.0
 20
0.0
 30
0.0
  0
VERTEX
  5
3530CC
330
3530CB
100
AcDbEntity
  8
姿図
100
AcDbVertex
100
AcDb2dVertex
 10
16085.73340988968
 20
-2716.020347287897
 30
0.0
  0
VERTEX
  5
3530CD
330
3530CB
100
AcDbEntity
  8
姿図
100
AcDbVertex
100
AcDb2dVertex
 10
16085.73340988968
 20
-2712.460905357309
 30
0.0
  0
SEQEND
  5
3530CE
330
3530CB
100
AcDbEntity
  8
姿図
  0
SPLINE
  5
3530CF
330
18
100
AcDbEntity
  8
姿図
100
AcDbSpline
210
0.0
220
0.0
230
1.0
 70
     8
 71
     3
 72
    11
 73
     7
 74
     0
 42
0.000000001
 43
0.0000000001
 40
0.0
 40
0.0
 40
0.0
 40
0.0
 40
1.0
 40
1.0
 40
1.0
 40
2.0
 40
2.0
 40
2.0
 40
2.0
 10
16080.40408068084
 20
-2712.460905357309
 30
0.0
 10
16080.40408068084
 20
-2712.054681478317
 30
0.0
 10
16081.59708771756
 20
-2711.725451400097
 30
0.0
 10
16083.06878938251
 20
-2711.725451400097
 30
0.0
 10
16084.54040285296
 20
-2711.725451400097
 30
0.0
 10
16085.73340988968
 20
-2712.054681478317
 30
0.0
 10
16085.73340988968
 20
-2712.460905357309
 30
0.0
  0
POLYLINE
  5
3530D0
330
18
100
AcDbEntity
  8
姿図
100
AcDb2dPolyline
 66
     1
 10
0.0
 20
0.0
 30
0.0
  0
VERTEX
  5
3530D1
330
3530D0
100
AcDbEntity
  8
姿図
100
AcDbVertex
100
AcDb2dVertex
 10
16092.09276269443
 20
-2717.530589950485
 30
0.0
  0
VERTEX
  5
3530D2
330
3530D0
100
AcDbEntity
  8
姿図
100
AcDbVertex
100
AcDb2dVertex
 10
16092.09276269443
 20
-2719.245443859114
 30
0.0
  0
SEQEND
  5
3530D3
330
3530D0
100
AcDbEntity
  8
姿図
  0
POLYLINE
  5
3530D4
330
18
100
AcDbEntity
  8
姿図
100
AcDb2dPolyline
 66
     1
 10
0.0
 20
0.0
 30
0.0
  0
VERTEX
  5
3530D5
330
3530D4
100
AcDbEntity
  8
姿図
100
AcDbVertex
100
AcDb2dVertex
 10
16093.7919179816
 20
-2716.822652678084
 30
0.0
  0
VERTEX
  5
3530D6
330
3530D4
100
AcDbEntity
  8
姿図
100
AcDbVertex
100
AcDb2dVertex
 10
16093.7919179816
 20
-2718.742029638252
 30
0.0
  0
SEQEND
  5
3530D7
330
3530D4
100
AcDbEntity
  8
姿図
  0
SPLINE
  5
3530D8
330
18
100
AcDbEntity
  8
姿図
100
AcDbSpline
210
0.0
220
0.0
230
1.0
 70
     8
 71
     3
 72
    11
 73
     7
 74
     0
 42
0.000000001
 43
0.0000000001
 40
0.0
 40
0.0
 40
0.0
 40
0.0
 40
1.0
 40
1.0
 40
1.0
 40
2.0
 40
2.0
 40
2.0
 40
2.0
 10
16077.50909613287
 20
-2737.21163417904
 30
0.0
 10
16077.50909613287
 20
-2737.016106966767
 30
0.0
 10
16079.86512407543
 20
-2736.857621445589
 30
0.0
 10
16082.77148571424
 20
-2736.857621445589
 30
0.0
 10
16085.67784735304
 20
-2736.857621445589
 30
0.0
 10
16088.0338752956
 20
-2737.016106966767
 30
0.0
 10
16088.0338752956
 20
-2737.21163417904
 30
0.0
  0
POLYLINE
  5
3530D9
330
18
100
AcDbEntity
  8
姿図
100
AcDb2dPolyline
 66
     1
 10
0.0
 20
0.0
 30
0.0
  0
VERTEX
  5
3530DA
330
3530D9
100
AcDbEntity
  8
姿図
100
AcDbVertex
100
AcDb2dVertex
 10
16077.50909613287
 20
-2737.21163417904
 30
0.0
  0
VERTEX
  5
3530DB
330
3530D9
100
AcDbEntity
  8
姿図
100
AcDbVertex
100
AcDb2dVertex
 10
16077.50909613287
 20
-2739.1781951981
 30
0.0
  0
SEQEND
  5
3530DC
330
3530D9
100
AcDbEntity
  8
姿図
  0
POLYLINE
  5
3530DD
330
18
100
AcDbEntity
  8
姿図
100
AcDb2dPolyline
 66
     1
 10
0.0
 20
0.0
 30
0.0
  0
VERTEX
  5
3530DE
330
3530DD
100
AcDbEntity
  8
姿図
100
AcDbVertex
100
AcDb2dVertex
 10
16088.0338752956
 20
-2737.21163417904
 30
0.0
  0
VERTEX
  5
3530DF
330
3530DD
100
AcDbEntity
  8
姿図
100
AcDbVertex
100
AcDb2dVertex
 10
16088.0338752956
 20
-2739.1781951981
 30
0.0
  0
SEQEND
  5
3530E0
330
3530DD
100
AcDbEntity
  8
姿図
  0
POLYLINE
  5
3530E1
330
18
100
AcDbEntity
  8
姿図
100
AcDb2dPolyline
 66
     1
 10
0.0
 20
0.0
 30
0.0
  0
VERTEX
  5
3530E2
330
3530E1
100
AcDbEntity
  8
姿図
100
AcDbVertex
100
AcDb2dVertex
 10
16077.50909613287
 20
-2739.1781951981
 30
0.0
  0
VERTEX
  5
3530E3
330
3530E1
100
AcDbEntity
  8
姿図
100
AcDbVertex
100
AcDb2dVertex
 10
16088.0338752956
 20
-2739.1781951981
 30
0.0
  0
SEQEND
  5
3530E4
330
3530E1
100
AcDbEntity
  8
姿図
  0
SPLINE
  5
3530E5
330
18
100
AcDbEntity
  8
姿図
100
AcDbSpline
210
0.0
220
0.0
230
1.0
 70
     8
 71
     3
 72
    32
 73
    28
 74
     0
 42
0.000000001
 43
0.0000000001
 40
0.0
 40
0.0
 40
0.0
 40
0.0
 40
1.0
 40
1.0
 40
1.0
 40
2.0
 40
2.0
 40
2.0
 40
3.0
 40
3.0
 40
3.0
 40
4.0
 40
4.0
 40
4.0
 40
5.0
 40
5.0
 40
5.0
 40
6.0
 40
6.0
 40
6.0
 40
7.0
 40
7.0
 40
7.0
 40
8.0
 40
8.0
 40
8.0
 40
9.0
 40
9.0
 40
9.0
 40
9.0
 10
16075.95158121689
 20
-2739.1781951981
 30
0.0
 10
16075.95158121689
 20
-2739.1781951981
 30
0.0
 10
16073.98510839233
 20
-2739.1781951981
 30
0.0
 10
16073.98510839233
 20
-2739.1781951981
 30
0.0
 10
16073.98510839233
 20
-2739.1781951981
 30
0.0
 10
16073.6861290285
 20
-2739.539969047781
 30
0.0
 10
16073.6861290285
 20
-2739.539969047781
 30
0.0
 10
16073.6861290285
 20
-2739.539969047781
 30
0.0
 10
16073.6861290285
 20
-2741.113182585228
 30
0.0
 10
16073.6861290285
 20
-2741.113182585228
 30
0.0
 10
16073.6861290285
 20
-2741.113182585228
 30
0.0
 10
16073.98510839233
 20
-2740.971630408549
 30
0.0
 10
16073.98510839233
 20
-2740.971630408549
 30
0.0
 10
16073.98510839233
 20
-2740.971630408549
 30
0.0
 10
16073.98510839233
 20
-2740.971630408549
 30
0.0
 10
16073.98510839233
 20
-2740.971630408549
 30
0.0
 10
16073.98510839233
 20
-2740.971630408549
 30
0.0
 10
16089.4970220938
 20
-2740.971630408549
 30
0.0
 10
16089.4970220938
 20
-2740.971630408549
 30
0.0
 10
16089.4970220938
 20
-2740.971630408549
 30
0.0
 10
16091.32467677126
 20
-2741.107626331564
 30
0.0
 10
16091.32467677126
 20
-2741.107626331564
 30
0.0
 10
16091.32467677126
 20
-2741.107626331564
 30
0.0
 10
16094.26402315404
 20
-2741.113182585228
 30
0.0
 10
16094.26402315404
 20
-2741.113182585228
 30
0.0
 10
16094.26402315404
 20
-2741.113182585228
 30
0.0
 10
16095.60122820252
 20
-2741.176153460087
 30
0.0
 10
16095.63262544544
 20
-2742.812337872393
 30
0.0
  0
POLYLINE
  5
3530E6
330
18
100
AcDbEntity
  8
姿図
100
AcDb2dPolyline
 66
     1
 10
0.0
 20
0.0
 30
0.0
  0
VERTEX
  5
3530E7
330
3530E6
100
AcDbEntity
  8
姿図
100
AcDbVertex
100
AcDb2dVertex
 10
16092.06145364601
 20
-2741.113182585228
 30
0.0
  0
VERTEX
  5
3530E8
330
3530E6
100
AcDbEntity
  8
姿図
100
AcDbVertex
100
AcDb2dVertex
 10
16092.06145364601
 20
-2739.539969047781
 30
0.0
  0
VERTEX
  5
3530E9
330
3530E6
100
AcDbEntity
  8
姿図
100
AcDbVertex
100
AcDb2dVertex
 10
16089.30819766372
 20
-2739.1781951981
 30
0.0
  0
VERTEX
  5
3530EA
330
3530E6
100
AcDbEntity
  8
姿図
100
AcDbVertex
100
AcDb2dVertex
 10
16075.95158121689
 20
-2739.1781951981
 30
0.0
  0
SEQEND
  5
3530EB
330
3530E6
100
AcDbEntity
  8
姿図
  0
POLYLINE
  5
3530EC
330
18
100
AcDbEntity
  8
姿図
100
AcDb2dPolyline
 66
     1
 10
0.0
 20
0.0
 30
0.0
  0
VERTEX
  5
3530ED
330
3530EC
100
AcDbEntity
  8
姿図
100
AcDbVertex
100
AcDb2dVertex
 10
16089.30819766372
 20
-2739.1781951981
 30
0.0
  0
VERTEX
  5
3530EE
330
3530EC
100
AcDbEntity
  8
姿図
100
AcDbVertex
100
AcDb2dVertex
 10
16089.30819766372
 20
-2740.971630408549
 30
0.0
  0
SEQEND
  5
3530EF
330
3530EC
100
AcDbEntity
  8
姿図
  0
SPLINE
  5
3530F0
330
18
100
AcDbEntity
  8
姿図
100
AcDbSpline
210
0.0
220
0.0
230
1.0
 70
     8
 71
     3
 72
    23
 73
    19
 74
     0
 42
0.000000001
 43
0.0000000001
 40
0.0
 40
0.0
 40
0.0
 40
0.0
 40
1.0
 40
1.0
 40
1.0
 40
2.0
 40
2.0
 40
2.0
 40
3.0
 40
3.0
 40
3.0
 40
4.0
 40
4.0
 40
4.0
 40
5.0
 40
5.0
 40
5.0
 40
6.0
 40
6.0
 40
6.0
 40
6.0
 10
16094.26402315404
 20
-2741.773935798736
 30
0.0
 10
16094.26402315404
 20
-2741.773935798736
 30
0.0
 10
16091.32467677126
 20
-2741.773935798736
 30
0.0
 10
16091.32467677126
 20
-2741.773935798736
 30
0.0
 10
16091.32467677126
 20
-2741.773935798736
 30
0.0
 10
16089.30819766372
 20
-2741.600898184627
 30
0.0
 10
16089.30819766372
 20
-2741.600898184627
 30
0.0
 10
16089.30819766372
 20
-2741.600898184627
 30
0.0
 10
16073.98510839233
 20
-2741.600898184627
 30
0.0
 10
16073.98510839233
 20
-2741.600898184627
 30
0.0
 10
16073.98510839233
 20
-2741.600898184627
 30
0.0
 10
16073.6861290285
 20
-2741.773935798736
 30
0.0
 10
16073.6861290285
 20
-2741.773935798736
 30
0.0
 10
16073.6861290285
 20
-2741.773935798736
 30
0.0
 10
16069.53278531738
 20
-2741.773935798736
 30
0.0
 10
16069.53278531738
 20
-2741.773935798736
 30
0.0
 10
16069.53278531738
 20
-2741.773935798736
 30
0.0
 10
16068.65189862537
 20
-2741.884178926991
 30
0.0
 10
16068.65189862537
 20
-2742.812337872393
 30
0.0
  0
POLYLINE
  5
3530F1
330
18
100
AcDbEntity
  8
姿図
100
AcDb2dPolyline
 66
     1
 10
0.0
 20
0.0
 30
0.0
  0
VERTEX
  5
3530F2
330
3530F1
100
AcDbEntity
  8
姿図
100
AcDbVertex
100
AcDb2dVertex
 10
16073.98510839233
 20
-2741.600898184627
 30
0.0
  0
VERTEX
  5
3530F3
330
3530F1
100
AcDbEntity
  8
姿図
100
AcDbVertex
100
AcDb2dVertex
 10
16073.98510839233
 20
-2740.971630408549
 30
0.0
  0
VERTEX
  5
3530F4
330
3530F1
100
AcDbEntity
  8
姿図
100
AcDbVertex
100
AcDb2dVertex
 10
16073.98510839233
 20
-2739.1781951981
 30
0.0
  0
SEQEND
  5
3530F5
330
3530F1
100
AcDbEntity
  8
姿図
  0
SPLINE
  5
3530F6
330
18
100
AcDbEntity
  8
姿図
100
AcDbSpline
210
0.0
220
0.0
230
1.0
 70
     8
 71
     3
 72
    14
 73
    10
 74
     0
 42
0.000000001
 43
0.0000000001
 40
0.0
 40
0.0
 40
0.0
 40
0.0
 40
1.0
 40
1.0
 40
1.0
 40
2.0
 40
2.0
 40
2.0
 40
3.0
 40
3.0
 40
3.0
 40
3.0
 10
16073.6861290285
 20
-2741.773935798736
 30
0.0
 10
16073.6861290285
 20
-2741.773935798736
 30
0.0
 10
16073.6861290285
 20
-2741.113182585228
 30
0.0
 10
16073.6861290285
 20
-2741.113182585228
 30
0.0
 10
16073.6861290285
 20
-2741.113182585228
 30
0.0
 10
16069.53278531738
 20
-2741.113182585228
 30
0.0
 10
16069.53278531738
 20
-2741.113182585228
 30
0.0
 10
16069.53278531738
 20
-2741.113182585228
 30
0.0
 10
16068.13269758855
 20
-2741.223425713482
 30
0.0
 10
16068.13269758855
 20
-2742.812337872393
 30
0.0
  0
POLYLINE
  5
3530F7
330
18
100
AcDbEntity
  8
姿図
100
AcDb2dPolyline
 66
     1
 10
0.0
 20
0.0
 30
0.0
  0
VERTEX
  5
3530F8
330
3530F7
100
AcDbEntity
  8
姿図
100
AcDbVertex
100
AcDb2dVertex
 10
16089.4970220938
 20
-2741.600898184627
 30
0.0
  0
VERTEX
  5
3530F9
330
3530F7
100
AcDbEntity
  8
姿図
100
AcDbVertex
100
AcDb2dVertex
 10
16089.4970220938
 20
-2740.971630408549
 30
0.0
  0
SEQEND
  5
3530FA
330
3530F7
100
AcDbEntity
  8
姿図
  0
POLYLINE
  5
3530FB
330
18
100
AcDbEntity
  8
姿図
100
AcDb2dPolyline
 66
     1
 10
0.0
 20
0.0
 30
0.0
  0
VERTEX
  5
3530FC
330
3530FB
100
AcDbEntity
  8
姿図
100
AcDbVertex
100
AcDb2dVertex
 10
16091.32467677126
 20
-2741.773935798736
 30
0.0
  0
VERTEX
  5
3530FD
330
3530FB
100
AcDbEntity
  8
姿図
100
AcDbVertex
100
AcDb2dVertex
 10
16091.32467677126
 20
-2741.107626331564
 30
0.0
  0
SEQEND
  5
3530FE
330
3530FB
100
AcDbEntity
  8
姿図
  0
SPLINE
  5
3530FF
330
18
100
AcDbEntity
  8
姿図
100
AcDbSpline
210
0.0
220
0.0
230
1.0
 70
     8
 71
     3
 72
    17
 73
    13
 74
     0
 42
0.000000001
 43
0.0000000001
 40
0.0
 40
0.0
 40
0.0
 40
0.0
 40
1.0
 40
1.0
 40
1.0
 40
2.0
 40
2.0
 40
2.0
 40
3.0
 40
3.0
 40
3.0
 40
4.0
 40
4.0
 40
4.0
 40
4.0
 10
16075.39057598582
 20
-2742.009944287704
 30
0.0
 10
16075.39057598582
 20
-2742.009944287704
 30
0.0
 10
16074.67725884877
 20
-2742.009944287704
 30
0.0
 10
16074.67725884877
 20
-2742.009944287704
 30
0.0
 10
16074.67725884877
 20
-2742.009944287704
 30
0.0
 10
16074.07947651012
 20
-2741.931274791381
 30
0.0
 10
16074.07947651012
 20
-2741.931274791381
 30
0.0
 10
16074.07947651012
 20
-2741.931274791381
 30
0.0
 10
16072.2702544837
 20
-2741.931274791381
 30
0.0
 10
16072.2702544837
 20
-2741.931274791381
 30
0.0
 10
16072.2702544837
 20
-2741.931274791381
 30
0.0
 10
16071.89269381805
 20
-2742.245952776671
 30
0.0
 10
16071.89269381805
 20
-2742.812337872393
 30
0.0
  0
POLYLINE
  5
353100
330
18
100
AcDbEntity
  8
姿図
100
AcDb2dPolyline
 66
     1
 10
0.0
 20
0.0
 30
0.0
  0
VERTEX
  5
353101
330
353100
100
AcDbEntity
  8
姿図
100
AcDbVertex
100
AcDb2dVertex
 10
16088.41690402041
 20
-2742.009944287704
 30
0.0
  0
VERTEX
  5
353102
330
353100
100
AcDbEntity
  8
姿図
100
AcDbVertex
100
AcDb2dVertex
 10
16077.36807312321
 20
-2742.009944287704
 30
0.0
  0
SEQEND
  5
353103
330
353100
100
AcDbEntity
  8
姿図
  0
POLYLINE
  5
353104
330
18
100
AcDbEntity
  8
姿図
100
AcDb2dPolyline
 66
     1
 10
0.0
 20
0.0
 30
0.0
  0
VERTEX
  5
353105
330
353104
100
AcDbEntity
  8
姿図
100
AcDbVertex
100
AcDb2dVertex
 10
16091.44779629689
 20
-2741.931274791381
 30
0.0
  0
VERTEX
  5
353106
330
353104
100
AcDbEntity
  8
姿図
100
AcDbVertex
100
AcDb2dVertex
 10
16090.35965252377
 20
-2741.982163019383
 30
0.0
  0
SEQEND
  5
353107
330
353104
100
AcDbEntity
  8
姿図
  0
POLYLINE
  5
353108
330
18
100
AcDbEntity
  8
姿図
100
AcDb2dPolyline
 66
     1
 10
0.0
 20
0.0
 30
0.0
  0
VERTEX
  5
353109
330
353108
100
AcDbEntity
  8
姿図
100
AcDbVertex
100
AcDb2dVertex
 10
16091.44779629689
 20
-2741.931274791381
 30
0.0
  0
VERTEX
  5
35310A
330
353108
100
AcDbEntity
  8
姿図
100
AcDbVertex
100
AcDb2dVertex
 10
16091.44779629689
 20
-2741.931274791381
 30
0.0
  0
SEQEND
  5
35310B
330
353108
100
AcDbEntity
  8
姿図
  0
POLYLINE
  5
35310C
330
18
100
AcDbEntity
  8
姿図
100
AcDb2dPolyline
 66
     1
 10
0.0
 20
0.0
 30
0.0
  0
VERTEX
  5
35310D
330
35310C
100
AcDbEntity
  8
姿図
100
AcDbVertex
100
AcDb2dVertex
 10
16074.07947651012
 20
-2741.931274791381
 30
0.0
  0
VERTEX
  5
35310E
330
35310C
100
AcDbEntity
  8
姿図
100
AcDbVertex
100
AcDb2dVertex
 10
16074.07947651012
 20
-2741.931274791381
 30
0.0
  0
SEQEND
  5
35310F
330
35310C
100
AcDbEntity
  8
姿図
  0
SPLINE
  5
353110
330
18
100
AcDbEntity
  8
姿図
100
AcDbSpline
210
0.0
220
0.0
230
1.0
 70
     8
 71
     3
 72
    17
 73
    13
 74
     0
 42
0.000000001
 43
0.0000000001
 40
0.0
 40
0.0
 40
0.0
 40
0.0
 40
1.0
 40
1.0
 40
1.0
 40
2.0
 40
2.0
 40
2.0
 40
3.0
 40
3.0
 40
3.0
 40
4.0
 40
4.0
 40
4.0
 40
4.0
 10
16094.26402315404
 20
-2741.773935798736
 30
0.0
 10
16094.26402315404
 20
-2741.773935798736
 30
0.0
 10
16094.89311454111
 20
-2741.884178926991
 30
0.0
 10
16094.87741591965
 20
-2742.812337872393
 30
0.0
 10
16094.87741591965
 20
-2742.812337872393
 30
0.0
 10
16094.2797217755
 20
-2778.083965298739
 30
0.0
 10
16094.2797217755
 20
-2778.083965298739
 30
0.0
 10
16094.2797217755
 20
-2778.083965298739
 30
0.0
 10
16094.09080915092
 20
-2780.223563931907
 30
0.0
 10
16094.75156236443
 20
-2780.506668285265
 30
0.0
 10
16094.75156236443
 20
-2780.506668285265
 30
0.0
 10
16095.86184295771
 20
-2780.506668285265
 30
0.0
 10
16095.86184295771
 20
-2780.506668285265
 30
0.0
  0
POLYLINE
  5
353111
330
18
100
AcDbEntity
  8
姿図
100
AcDb2dPolyline
 66
     1
 10
0.0
 20
0.0
 30
0.0
  0
VERTEX
  5
353112
330
353111
100
AcDbEntity
  8
姿図
100
AcDbVertex
100
AcDb2dVertex
 10
16094.92795136964
 20
-2778.209907048456
 30
0.0
  0
VERTEX
  5
353113
330
353111
100
AcDbEntity
  8
姿図
100
AcDbVertex
100
AcDb2dVertex
 10
16095.63262544544
 20
-2742.812337872393
 30
0.0
  0
SEQEND
  5
353114
330
353111
100
AcDbEntity
  8
姿図
  0
SPLINE
  5
353115
330
18
100
AcDbEntity
  8
姿図
100
AcDbSpline
210
0.0
220
0.0
230
1.0
 70
     8
 71
     3
 72
    14
 73
    10
 74
     0
 42
0.000000001
 43
0.0000000001
 40
0.0
 40
0.0
 40
0.0
 40
0.0
 40
1.0
 40
1.0
 40
1.0
 40
2.0
 40
2.0
 40
2.0
 40
3.0
 40
3.0
 40
3.0
 40
3.0
 10
16094.20096408468
 20
-2741.107626331564
 30
0.0
 10
16094.20096408468
 20
-2741.107626331564
 30
0.0
 10
16097.20575078839
 20
-2741.440736967898
 30
0.0
 10
16097.20575078839
 20
-2741.440736967898
 30
0.0
 10
16097.20575078839
 20
-2741.440736967898
 30
0.0
 10
16098.21257923011
 20
-2741.773935798736
 30
0.0
 10
16098.24415286205
 20
-2742.812337872393
 30
0.0
 10
16098.24415286205
 20
-2742.812337872393
 30
0.0
 10
16096.72791297328
 20
-2777.557091340183
 30
0.0
 10
16096.72791297328
 20
-2777.557091340183
 30
0.0
  0
POLYLINE
  5
353116
330
18
100
AcDbEntity
  8
姿図
100
AcDb2dPolyline
 66
     1
 10
0.0
 20
0.0
 30
0.0
  0
VERTEX
  5
353117
330
353116
100
AcDbEntity
  8
姿図
100
AcDbVertex
100
AcDb2dVertex
 10
16091.44779629689
 20
-2741.931274791381
 30
0.0
  0
VERTEX
  5
353118
330
353116
100
AcDbEntity
  8
姿図
100
AcDbVertex
100
AcDb2dVertex
 10
16094.5608858498
 20
-2741.931274791381
 30
0.0
  0
SEQEND
  5
353119
330
353116
100
AcDbEntity
  8
姿図
  0
SPLINE
  5
35311A
330
18
100
AcDbEntity
  8
姿図
100
AcDbSpline
210
0.0
220
0.0
230
1.0
 70
     8
 71
     3
 72
    11
 73
     7
 74
     0
 42
0.000000001
 43
0.0000000001
 40
0.0
 40
0.0
 40
0.0
 40
0.0
 40
1.0
 40
1.0
 40
1.0
 40
2.0
 40
2.0
 40
2.0
 40
2.0
 10
16075.95166941139
 20
-2738.902851960972
 30
0.0
 10
16075.95166941139
 20
-2738.802927589521
 30
0.0
 10
16076.14887231921
 20
-2738.721965036131
 30
0.0
 10
16076.39211275739
 20
-2738.721965036131
 30
0.0
 10
16076.63544139008
 20
-2738.721965036131
 30
0.0
 10
16076.8326442979
 20
-2738.802927589521
 30
0.0
 10
16076.8326442979
 20
-2738.902851960972
 30
0.0
  0
POLYLINE
  5
35311B
330
18
100
AcDbEntity
  8
姿図
100
AcDb2dPolyline
 66
     1
 10
0.0
 20
0.0
 30
0.0
  0
VERTEX
  5
35311C
330
35311B
100
AcDbEntity
  8
姿図
100
AcDbVertex
100
AcDb2dVertex
 10
16075.95166941139
 20
-2738.902851960972
 30
0.0
  0
VERTEX
  5
35311D
330
35311B
100
AcDbEntity
  8
姿図
100
AcDbVertex
100
AcDb2dVertex
 10
16075.95166941139
 20
-2739.178107003598
 30
0.0
  0
SEQEND
  5
35311E
330
35311B
100
AcDbEntity
  8
姿図
  0
POLYLINE
  5
35311F
330
18
100
AcDbEntity
  8
姿図
100
AcDb2dPolyline
 66
     1
 10
0.0
 20
0.0
 30
0.0
  0
VERTEX
  5
353120
330
35311F
100
AcDbEntity
  8
姿図
100
AcDbVertex
100
AcDb2dVertex
 10
16076.8326442979
 20
-2738.902851960972
 30
0.0
  0
VERTEX
  5
353121
330
35311F
100
AcDbEntity
  8
姿図
100
AcDbVertex
100
AcDb2dVertex
 10
16076.8326442979
 20
-2739.178107003598
 30
0.0
  0
SEQEND
  5
353122
330
35311F
100
AcDbEntity
  8
姿図
  0
SPLINE
  5
353123
330
18
100
AcDbEntity
  8
姿図
100
AcDbSpline
210
0.0
220
0.0
230
1.0
 70
    11
 71
     3
 72
    17
 73
    13
 74
     0
 42
0.000000001
 43
0.0000000001
 40
0.0
 40
0.0
 40
0.0
 40
0.0
 40
1.0
 40
1.0
 40
1.0
 40
2.0
 40
2.0
 40
2.0
 40
3.0
 40
3.0
 40
3.0
 40
4.0
 40
4.0
 40
4.0
 40
4.0
 10
16077.2967237706
 20
-2742.454356386324
 30
0.0
 10
16077.2967237706
 20
-2742.552164089712
 30
0.0
 10
16076.89173461464
 20
-2742.63136275305
 30
0.0
 10
16076.3922009519
 20
-2742.63136275305
 30
0.0
 10
16075.89249090014
 20
-2742.63136275305
 30
0.0
 10
16075.48758993869
 20
-2742.552164089712
 30
0.0
 10
16075.48758993869
 20
-2742.454356386324
 30
0.0
 10
16075.48758993869
 20
-2742.356636877439
 30
0.0
 10
16075.89249090014
 20
-2742.277350019599
 30
0.0
 10
16076.3922009519
 20
-2742.277350019599
 30
0.0
 10
16076.89173461464
 20
-2742.277350019599
 30
0.0
 10
16077.2967237706
 20
-2742.356636877439
 30
0.0
 10
16077.2967237706
 20
-2742.454356386324
 30
0.0
  0
SPLINE
  5
353124
330
18
100
AcDbEntity
  8
姿図
100
AcDbSpline
210
0.0
220
0.0
230
1.0
 70
     8
 71
     3
 72
    11
 73
     7
 74
     0
 42
0.000000001
 43
0.0000000001
 40
0.0
 40
0.0
 40
0.0
 40
0.0
 40
1.0
 40
1.0
 40
1.0
 40
2.0
 40
2.0
 40
2.0
 40
2.0
 10
16075.45090102561
 20
-2741.919280339027
 30
0.0
 10
16075.45090102561
 20
-2741.817503883021
 30
0.0
 10
16075.87229435905
 20
-2741.73513021759
 30
0.0
 10
16076.3922009519
 20
-2741.73513021759
 30
0.0
 10
16076.91201935024
 20
-2741.73513021759
 30
0.0
 10
16077.33332448918
 20
-2741.817503883021
 30
0.0
 10
16077.33332448918
 20
-2741.919280339027
 30
0.0
  0
SPLINE
  5
353125
330
18
100
AcDbEntity
  8
姿図
100
AcDbSpline
210
0.0
220
0.0
230
1.0
 70
     8
 71
     3
 72
     8
 73
     4
 74
     0
 42
0.000000001
 43
0.0000000001
 40
0.0
 40
0.0
 40
0.0
 40
0.0
 40
1.0
 40
1.0
 40
1.0
 40
1.0
 10
16075.48758993869
 20
-2742.454356386324
 30
0.0
 10
16075.48758993869
 20
-2742.454356386324
 30
0.0
 10
16075.23332518768
 20
-2742.158904802602
 30
0.0
 10
16075.45090102561
 20
-2741.919280339027
 30
0.0
  0
SPLINE
  5
353126
330
18
100
AcDbEntity
  8
姿図
100
AcDbSpline
210
0.0
220
0.0
230
1.0
 70
     8
 71
     3
 72
     8
 73
     4
 74
     0
 42
0.000000001
 43
0.0000000001
 40
0.0
 40
0.0
 40
0.0
 40
0.0
 40
1.0
 40
1.0
 40
1.0
 40
1.0
 10
16077.27097097584
 20
-2742.454356386324
 30
0.0
 10
16077.27097097584
 20
-2742.454356386324
 30
0.0
 10
16077.52523572685
 20
-2742.158904802602
 30
0.0
 10
16077.30765988892
 20
-2741.919280339027
 30
0.0
  0
SPLINE
  5
353127
330
18
100
AcDbEntity
  8
姿図
100
AcDbSpline
210
0.0
220
0.0
230
1.0
 70
     8
 71
     3
 72
    11
 73
     7
 74
     0
 42
0.000000001
 43
0.0000000001
 40
0.0
 40
0.0
 40
0.0
 40
0.0
 40
1.0
 40
1.0
 40
1.0
 40
2.0
 40
2.0
 40
2.0
 40
2.0
 10
16088.97782105697
 20
-2738.902851960972
 30
0.0
 10
16088.97782105697
 20
-2738.802927589521
 30
0.0
 10
16089.17511215929
 20
-2738.721965036131
 30
0.0
 10
16089.41835259747
 20
-2738.721965036131
 30
0.0
 10
16089.66168123016
 20
-2738.721965036131
 30
0.0
 10
16089.85888413798
 20
-2738.802927589521
 30
0.0
 10
16089.85888413798
 20
-2738.902851960972
 30
0.0
  0
POLYLINE
  5
353128
330
18
100
AcDbEntity
  8
姿図
100
AcDb2dPolyline
 66
     1
 10
0.0
 20
0.0
 30
0.0
  0
VERTEX
  5
353129
330
353128
100
AcDbEntity
  8
姿図
100
AcDbVertex
100
AcDb2dVertex
 10
16088.97782105697
 20
-2738.902851960972
 30
0.0
  0
VERTEX
  5
35312A
330
353128
100
AcDbEntity
  8
姿図
100
AcDbVertex
100
AcDb2dVertex
 10
16088.97782105697
 20
-2739.178107003598
 30
0.0
  0
SEQEND
  5
35312B
330
353128
100
AcDbEntity
  8
姿図
  0
POLYLINE
  5
35312C
330
18
100
AcDbEntity
  8
姿図
100
AcDb2dPolyline
 66
     1
 10
0.0
 20
0.0
 30
0.0
  0
VERTEX
  5
35312D
330
35312C
100
AcDbEntity
  8
姿図
100
AcDbVertex
100
AcDb2dVertex
 10
16089.85888413798
 20
-2738.902851960972
 30
0.0
  0
VERTEX
  5
35312E
330
35312C
100
AcDbEntity
  8
姿図
100
AcDbVertex
100
AcDb2dVertex
 10
16089.85888413798
 20
-2739.250514690235
 30
0.0
  0
SEQEND
  5
35312F
330
35312C
100
AcDbEntity
  8
姿図
  0
SPLINE
  5
353130
330
18
100
AcDbEntity
  8
姿図
100
AcDbSpline
210
0.0
220
0.0
230
1.0
 70
    11
 71
     3
 72
    17
 73
    13
 74
     0
 42
0.000000001
 43
0.0000000001
 40
0.0
 40
0.0
 40
0.0
 40
0.0
 40
1.0
 40
1.0
 40
1.0
 40
2.0
 40
2.0
 40
2.0
 40
3.0
 40
3.0
 40
3.0
 40
4.0
 40
4.0
 40
4.0
 40
4.0
 10
16090.32296361068
 20
-2742.454356386324
 30
0.0
 10
16090.32296361068
 20
-2742.552164089712
 30
0.0
 10
16089.91797445473
 20
-2742.63136275305
 30
0.0
 10
16089.41852898648
 20
-2742.63136275305
 30
0.0
 10
16088.91881893473
 20
-2742.63136275305
 30
0.0
 10
16088.51382977877
 20
-2742.552164089712
 30
0.0
 10
16088.51382977877
 20
-2742.454356386324
 30
0.0
 10
16088.51382977877
 20
-2742.356636877439
 30
0.0
 10
16088.91881893473
 20
-2742.277350019599
 30
0.0
 10
16089.41852898648
 20
-2742.277350019599
 30
0.0
 10
16089.91797445473
 20
-2742.277350019599
 30
0.0
 10
16090.32296361068
 20
-2742.356636877439
 30
0.0
 10
16090.32296361068
 20
-2742.454356386324
 30
0.0
  0
SPLINE
  5
353131
330
18
100
AcDbEntity
  8
姿図
100
AcDbSpline
210
0.0
220
0.0
230
1.0
 70
     8
 71
     3
 72
    11
 73
     7
 74
     0
 42
0.000000001
 43
0.0000000001
 40
0.0
 40
0.0
 40
0.0
 40
0.0
 40
1.0
 40
1.0
 40
1.0
 40
2.0
 40
2.0
 40
2.0
 40
2.0
 10
16088.47714086569
 20
-2741.919280339027
 30
0.0
 10
16088.47714086569
 20
-2741.817503883021
 30
0.0
 10
16088.89853419913
 20
-2741.73513021759
 30
0.0
 10
16089.41852898648
 20
-2741.73513021759
 30
0.0
 10
16089.93834738483
 20
-2741.73513021759
 30
0.0
 10
16090.35965252377
 20
-2741.817503883021
 30
0.0
 10
16090.35965252377
 20
-2741.919280339027
 30
0.0
  0
SPLINE
  5
353132
330
18
100
AcDbEntity
  8
姿図
100
AcDbSpline
210
0.0
220
0.0
230
1.0
 70
     8
 71
     3
 72
     8
 73
     4
 74
     0
 42
0.000000001
 43
0.0000000001
 40
0.0
 40
0.0
 40
0.0
 40
0.0
 40
1.0
 40
1.0
 40
1.0
 40
1.0
 10
16088.51382977877
 20
-2742.454356386324
 30
0.0
 10
16088.51382977877
 20
-2742.454356386324
 30
0.0
 10
16088.25956502776
 20
-2742.158904802602
 30
0.0
 10
16088.47714086569
 20
-2741.919280339027
 30
0.0
  0
SPLINE
  5
353133
330
18
100
AcDbEntity
  8
姿図
100
AcDbSpline
210
0.0
220
0.0
230
1.0
 70
     8
 71
     3
 72
     8
 73
     4
 74
     0
 42
0.000000001
 43
0.0000000001
 40
0.0
 40
0.0
 40
0.0
 40
0.0
 40
1.0
 40
1.0
 40
1.0
 40
1.0
 10
16090.29721081592
 20
-2742.454356386324
 30
0.0
 10
16090.29721081592
 20
-2742.454356386324
 30
0.0
 10
16090.55147556693
 20
-2742.158904802602
 30
0.0
 10
16090.33389972901
 20
-2741.919280339027
 30
0.0
  0
POLYLINE
  5
353134
330
18
100
AcDbEntity
  8
姿図
100
AcDb2dPolyline
 66
     1
 10
0.0
 20
0.0
 30
0.0
  0
VERTEX
  5
353135
330
353134
100
AcDbEntity
  8
姿図
100
AcDbVertex
100
AcDb2dVertex
 10
16071.89269381805
 20
-2742.812337872393
 30
0.0
  0
VERTEX
  5
353136
330
353134
100
AcDbEntity
  8
姿図
100
AcDbVertex
100
AcDb2dVertex
 10
16071.28407701126
 20
-2767.999818820105
 30
0.0
  0
SEQEND
  5
353137
330
353134
100
AcDbEntity
  8
姿図
  0
POLYLINE
  5
353138
330
18
100
AcDbEntity
  8
姿図
100
AcDb2dPolyline
 66
     1
 10
0.0
 20
0.0
 30
0.0
  0
VERTEX
  5
353139
330
353138
100
AcDbEntity
  8
姿図
100
AcDbVertex
100
AcDb2dVertex
 10
16068.65189862537
 20
-2742.812337872393
 30
0.0
  0
VERTEX
  5
35313A
330
353138
100
AcDbEntity
  8
姿図
100
AcDbVertex
100
AcDb2dVertex
 10
16068.9507897947
 20
-2770.210489273285
 30
0.0
  0
SEQEND
  5
35313B
330
353138
100
AcDbEntity
  8
姿図
  0
POLYLINE
  5
35313C
330
18
100
AcDbEntity
  8
姿図
100
AcDb2dPolyline
 66
     1
 10
0.0
 20
0.0
 30
0.0
  0
VERTEX
  5
35313D
330
35313C
100
AcDbEntity
  8
姿図
100
AcDbVertex
100
AcDb2dVertex
 10
16068.13269758855
 20
-2742.812337872393
 30
0.0
  0
VERTEX
  5
35313E
330
35313C
100
AcDbEntity
  8
姿図
100
AcDbVertex
100
AcDb2dVertex
 10
16068.44632498233
 20
-2770.729923853125
 30
0.0
  0
SEQEND
  5
35313F
330
35313C
100
AcDbEntity
  8
姿図
  0
SPLINE
  5
353140
330
18
100
AcDbEntity
  8
姿図
100
AcDbSpline
210
0.0
220
0.0
230
1.0
 70
     8
 71
     3
 72
     8
 73
     4
 74
     0
 42
0.000000001
 43
0.0000000001
 40
0.0
 40
0.0
 40
0.0
 40
0.0
 40
1.0
 40
1.0
 40
1.0
 40
1.0
 10
16096.64359902879
 20
-2779.624546870222
 30
0.0
 10
16096.47673502986
 20
-2780.155830553908
 30
0.0
 10
16096.18904456237
 20
-2780.506668285265
 30
0.0
 10
16095.86184295771
 20
-2780.506668285265
 30
0.0
  0
SPLINE
  5
353141
330
18
100
AcDbEntity
  8
姿図
100
AcDbSpline
210
0.0
220
0.0
230
1.0
 70
     8
 71
     3
 72
    14
 73
    10
 74
     0
 42
0.000000001
 43
0.0000000001
 40
0.0
 40
0.0
 40
0.0
 40
0.0
 40
1.0
 40
1.0
 40
1.0
 40
2.0
 40
2.0
 40
2.0
 40
3.0
 40
3.0
 40
3.0
 40
3.0
 10
16095.86184295771
 20
-2780.506668285265
 30
0.0
 10
16095.34608150648
 20
-2780.506668285265
 30
0.0
 10
16094.92795136964
 20
-2779.633366320483
 30
0.0
 10
16094.92795136964
 20
-2778.555982276675
 30
0.0
 10
16094.92795136964
 20
-2777.478598232866
 30
0.0
 10
16095.34608150648
 20
-2776.605119879078
 30
0.0
 10
16095.86184295771
 20
-2776.605119879078
 30
0.0
 10
16096.18437025373
 20
-2776.605119879078
 30
0.0
 10
16096.46862113563
 20
-2776.946256215149
 30
0.0
 10
16096.63654346858
 20
-2777.46519266847
 30
0.0
  0
SPLINE
  5
353142
330
18
100
AcDbEntity
  8
姿図
100
AcDbSpline
210
0.0
220
0.0
230
1.0
 70
     8
 71
     3
 72
    14
 73
    10
 74
     0
 42
0.000000001
 43
0.0000000001
 40
0.0
 40
0.0
 40
0.0
 40
0.0
 40
1.0
 40
1.0
 40
1.0
 40
2.0
 40
2.0
 40
2.0
 40
3.0
 40
3.0
 40
3.0
 40
3.0
 10
16095.97870067366
 20
-2779.698277474399
 30
0.0
 10
16095.67663450224
 20
-2779.698277474399
 30
0.0
 10
16095.43171836851
 20
-2779.186749359296
 30
0.0
 10
16095.43171836851
 20
-2778.555982276675
 30
0.0
 10
16095.43171836851
 20
-2777.925038805046
 30
0.0
 10
16095.67663450224
 20
-2777.413510689944
 30
0.0
 10
16095.97870067366
 20
-2777.413510689944
 30
0.0
 10
16095.97870067366
 20
-2777.413510689944
 30
0.0
 10
16096.16020496002
 20
-2777.339250918752
 30
0.0
 10
16096.52568297881
 20
-2777.451963493079
 30
0.0
  0
SPLINE
  5
353143
330
18
100
AcDbEntity
  8
姿図
100
AcDbSpline
210
0.0
220
0.0
230
1.0
 70
    11
 71
     3
 72
    17
 73
    13
 74
     0
 42
0.000000001
 43
0.0000000001
 40
0.0
 40
0.0
 40
0.0
 40
0.0
 40
1.0
 40
1.0
 40
1.0
 40
2.0
 40
2.0
 40
2.0
 40
3.0
 40
3.0
 40
3.0
 40
4.0
 40
4.0
 40
4.0
 40
4.0
 10
16096.52568297881
 20
-2779.659648282259
 30
0.0
 10
16096.26215780503
 20
-2779.659648282259
 30
0.0
 10
16096.04846252522
 20
-2779.165406289667
 30
0.0
 10
16096.04846252522
 20
-2778.555805887669
 30
0.0
 10
16096.04846252522
 20
-2777.946205485671
 30
0.0
 10
16096.26215780503
 20
-2777.451963493079
 30
0.0
 10
16096.52568297881
 20
-2777.451963493079
 30
0.0
 10
16096.78911995809
 20
-2777.451963493079
 30
0.0
 10
16097.0028152379
 20
-2777.946205485671
 30
0.0
 10
16097.0028152379
 20
-2778.555805887669
 30
0.0
 10
16097.0028152379
 20
-2779.165406289667
 30
0.0
 10
16096.78911995809
 20
-2779.659648282259
 30
0.0
 10
16096.52568297881
 20
-2779.659648282259
 30
0.0
  0
SPLINE
  5
353144
330
18
100
AcDbEntity
  8
姿図
100
AcDbSpline
210
0.0
220
0.0
230
1.0
 70
     8
 71
     3
 72
     8
 73
     4
 74
     0
 42
0.000000001
 43
0.0000000001
 40
0.0
 40
0.0
 40
0.0
 40
0.0
 40
1.0
 40
1.0
 40
1.0
 40
1.0
 10
16095.97870067366
 20
-2779.698277474399
 30
0.0
 10
16095.97870067366
 20
-2779.698277474399
 30
0.0
 10
16096.16020496002
 20
-2779.772360856586
 30
0.0
 10
16096.52568297881
 20
-2779.659648282259
 30
0.0
  0
SPLINE
  5
353145
330
18
100
AcDbEntity
  8
姿図
100
AcDbSpline
210
0.0
220
0.0
230
1.0
 70
     8
 71
     3
 72
    11
 73
     7
 74
     0
 42
0.000000001
 43
0.0000000001
 40
0.0
 40
0.0
 40
0.0
 40
0.0
 40
1.0
 40
1.0
 40
1.0
 40
2.0
 40
2.0
 40
2.0
 40
2.0
 10
16066.39870547285
 20
-2774.210462744379
 30
0.0
 10
16066.6170750613
 20
-2773.272337820182
 30
0.0
 10
16067.02471005233
 20
-2772.419673369008
 30
0.0
 10
16067.63395767632
 20
-2771.690922193993
 30
0.0
 10
16068.76381744918
 20
-2770.339429636092
 30
0.0
 10
16070.43616160755
 20
-2769.595156228619
 30
0.0
 10
16072.3174385426
 20
-2769.384283172893
 30
0.0
  0
SPLINE
  5
353146
330
18
100
AcDbEntity
  8
姿図
100
AcDbSpline
210
0.0
220
0.0
230
1.0
 70
     8
 71
     3
 72
    11
 73
     7
 74
     0
 42
0.000000001
 43
0.0000000001
 40
0.0
 40
0.0
 40
0.0
 40
0.0
 40
1.0
 40
1.0
 40
1.0
 40
2.0
 40
2.0
 40
2.0
 40
2.0
 10
16091.0686481302
 20
-2784.897519791899
 30
0.0
 10
16091.28304896603
 20
-2786.915410011475
 30
0.0
 10
16090.85380632185
 20
-2788.749326498618
 30
0.0
 10
16089.69519514115
 20
-2790.13539130154
 30
0.0
 10
16089.09803016402
 20
-2790.849590383626
 30
0.0
 10
16088.34934703142
 20
-2791.394279631708
 30
0.0
 10
16087.48698118495
 20
-2791.774574326934
 30
0.0
  0
SPLINE
  5
353147
330
18
100
AcDbEntity
  8
姿図
100
AcDbSpline
210
0.0
220
0.0
230
1.0
 70
     8
 71
     3
 72
    11
 73
     7
 74
     0
 42
0.000000001
 43
0.0000000001
 40
0.0
 40
0.0
 40
0.0
 40
0.0
 40
1.0
 40
1.0
 40
1.0
 40
2.0
 40
2.0
 40
2.0
 40
2.0
 10
16076.19852582418
 20
-2769.729476456084
 30
0.0
 10
16078.87778661878
 20
-2770.375148409646
 30
0.0
 10
16081.77233019424
 20
-2771.759096544506
 30
0.0
 10
16084.44779862523
 20
-2773.995885519545
 30
0.0
 10
16086.97571765336
 20
-2776.109466774445
 30
0.0
 10
16088.85919945097
 20
-2778.59002535468
 30
0.0
 10
16089.96965643325
 20
-2781.042185305076
 30
0.0
  0
SPLINE
  5
353148
330
18
100
AcDbEntity
  8
姿図
100
AcDbSpline
210
0.0
220
0.0
230
1.0
 70
     8
 71
     3
 72
     8
 73
     4
 74
     0
 42
0.000000001
 43
0.0000000001
 40
0.0
 40
0.0
 40
0.0
 40
0.0
 40
1.0
 40
1.0
 40
1.0
 40
1.0
 10
16097.93820613251
 20
-2774.614922733321
 30
0.0
 10
16098.01176034768
 20
-2776.148448744595
 30
0.0
 10
16097.70651917417
 20
-2777.59289830824
 30
0.0
 10
16096.98861592298
 20
-2778.821271340506
 30
0.0
  0
SPLINE
  5
353149
330
18
100
AcDbEntity
  8
姿図
100
AcDbSpline
210
0.0
220
0.0
230
1.0
 70
     8
 71
     3
 72
    11
 73
     7
 74
     0
 42
0.000000001
 43
0.0000000001
 40
0.0
 40
0.0
 40
0.0
 40
0.0
 40
1.0
 40
1.0
 40
1.0
 40
2.0
 40
2.0
 40
2.0
 40
2.0
 10
16085.27585681017
 20
-2761.053606845941
 30
0.0
 10
16087.65393337838
 20
-2761.547496060522
 30
0.0
 10
16090.1373141827
 20
-2762.737239900648
 30
0.0
 10
16092.35716981324
 20
-2764.592940429935
 30
0.0
 10
16093.13936685683
 20
-2765.246990861245
 30
0.0
 10
16093.8460694062
 20
-2765.947872573438
 30
0.0
 10
16094.4728677362
 20
-2766.679975139551
 30
0.0
  0
SPLINE
  5
35314A
330
18
100
AcDbEntity
  8
姿図
100
AcDbSpline
210
0.0
220
0.0
230
1.0
 70
     8
 71
     3
 72
     8
 73
     4
 74
     0
 42
0.000000001
 43
0.0000000001
 40
0.0
 40
0.0
 40
0.0
 40
0.0
 40
1.0
 40
1.0
 40
1.0
 40
1.0
 10
16077.50821418784
 20
-2762.577166878422
 30
0.0
 10
16078.54705723401
 20
-2761.680581564951
 30
0.0
 10
16079.85242406705
 20
-2761.125926338076
 30
0.0
 10
16081.3068396095
 20
-2760.903764386017
 30
0.0
  0
SPLINE
  5
35314B
330
18
100
AcDbEntity
  8
姿図
100
AcDbSpline
210
0.0
220
0.0
230
1.0
 70
     8
 71
     3
 72
     8
 73
     4
 74
     0
 42
0.000000001
 43
0.0000000001
 40
0.0
 40
0.0
 40
0.0
 40
0.0
 40
1.0
 40
1.0
 40
1.0
 40
1.0
 10
16077.50909613287
 20
-2762.577607850935
 30
0.0
 10
16077.50909613287
 20
-2762.577607850935
 30
0.0
 10
16068.96022660648
 20
-2769.734503542732
 30
0.0
 10
16067.63395767632
 20
-2771.690922193993
 30
0.0
  0
SPLINE
  5
35314C
330
18
100
AcDbEntity
  8
姿図
100
AcDbSpline
210
0.0
220
0.0
230
1.0
 70
     8
 71
     3
 72
     8
 73
     4
 74
     0
 42
0.000000001
 43
0.0000000001
 40
0.0
 40
0.0
 40
0.0
 40
0.0
 40
1.0
 40
1.0
 40
1.0
 40
1.0
 10
16096.05348961187
 20
-2780.465216869042
 30
0.0
 10
16094.84390200866
 20
-2782.513445997512
 30
0.0
 10
16091.59596306127
 20
-2787.91412455896
 30
0.0
 10
16089.69519514115
 20
-2790.13539130154
 30
0.0
  0
SPLINE
  5
35314D
330
18
100
AcDbEntity
  8
姿図
100
AcDbSpline
210
0.0
220
0.0
230
1.0
 70
     8
 71
     3
 72
    11
 73
     7
 74
     0
 42
0.000000001
 43
0.0000000001
 40
0.0
 40
0.0
 40
0.0
 40
0.0
 40
1.0
 40
1.0
 40
1.0
 40
2.0
 40
2.0
 40
2.0
 40
2.0
 10
16067.07833230992
 20
-2774.15190159465
 30
0.0
 10
16067.30146440151
 20
-2773.50737616962
 30
0.0
 10
16067.6297243402
 20
-2772.914885501128
 30
0.0
 10
16068.06849199065
 20
-2772.390128210636
 30
0.0
 10
16069.03378082165
 20
-2771.235397588044
 30
0.0
 10
16070.41684701148
 20
-2770.548715190771
 30
0.0
 10
16072.04033141541
 20
-2770.305651141594
 30
0.0
  0
SPLINE
  5
35314E
330
18
100
AcDbEntity
  8
姿図
100
AcDbSpline
210
0.0
220
0.0
230
1.0
 70
     8
 71
     3
 72
    11
 73
     7
 74
     0
 42
0.000000001
 43
0.0000000001
 40
0.0
 40
0.0
 40
0.0
 40
0.0
 40
1.0
 40
1.0
 40
1.0
 40
2.0
 40
2.0
 40
2.0
 40
2.0
 10
16090.31061638032
 20
-2785.564623009594
 30
0.0
 10
16090.36229835884
 20
-2787.212096318233
 30
0.0
 10
16089.93190918614
 20
-2788.701172300197
 30
0.0
 10
16088.96335715854
 20
-2789.859518897395
 30
0.0
 10
16088.52979298374
 20
-2790.378102572706
 30
0.0
 10
16088.01200305896
 20
-2790.802318130231
 30
0.0
 10
16087.42595058915
 20
-2791.134282238031
 30
0.0
  0
SPLINE
  5
35314F
330
18
100
AcDbEntity
  8
姿図
100
AcDbSpline
210
0.0
220
0.0
230
1.0
 70
     8
 71
     3
 72
     8
 73
     4
 74
     0
 42
0.000000001
 43
0.0000000001
 40
0.0
 40
0.0
 40
0.0
 40
0.0
 40
1.0
 40
1.0
 40
1.0
 40
1.0
 10
16088.57671245913
 20
-2780.546884978453
 30
0.0
 10
16088.66667085178
 20
-2780.711808698323
 30
0.0
 10
16088.75257229732
 20
-2780.877085196202
 30
0.0
 10
16088.83441679573
 20
-2781.042008916071
 30
0.0
  0
SPLINE
  5
353150
330
18
100
AcDbEntity
  8
姿図
100
AcDbSpline
210
0.0
220
0.0
230
1.0
 70
     8
 71
     3
 72
    17
 73
    13
 74
     0
 42
0.000000001
 43
0.0000000001
 40
0.0
 40
0.0
 40
0.0
 40
0.0
 40
1.0
 40
1.0
 40
1.0
 40
2.0
 40
2.0
 40
2.0
 40
3.0
 40
3.0
 40
3.0
 40
4.0
 40
4.0
 40
4.0
 40
4.0
 10
16075.95578835048
 20
-2770.73313886906
 30
0.0
 10
16076.34748633908
 20
-2770.817884812717
 30
0.0
 10
16076.82523595968
 20
-2770.946560592016
 30
0.0
 10
16077.3068661384
 20
-2771.101518333091
 30
0.0
 10
16077.3068661384
 20
-2771.101518333091
 30
0.0
 10
16077.45459193026
 20
-2770.882884161138
 30
0.0
 10
16077.45459193026
 20
-2770.882884161138
 30
0.0
 10
16079.63969892677
 20
-2771.585617957884
 30
0.0
 10
16081.90550389317
 20
-2772.82757294355
 30
0.0
 10
16083.99342054781
 20
-2774.573118539085
 30
0.0
 10
16086.03088994697
 20
-2776.27633077337
 30
0.0
 10
16087.62615211006
 20
-2778.231602896098
 30
0.0
 10
16088.7045944879
 20
-2780.207688921439
 30
0.0
  0
SPLINE
  5
353151
330
18
100
AcDbEntity
  8
姿図
100
AcDbSpline
210
0.0
220
0.0
230
1.0
 70
     8
 71
     3
 72
     8
 73
     4
 74
     0
 42
0.000000001
 43
0.0000000001
 40
0.0
 40
0.0
 40
0.0
 40
0.0
 40
1.0
 40
1.0
 40
1.0
 40
1.0
 10
16076.19852582418
 20
-2769.729476456084
 30
0.0
 10
16076.19852582418
 20
-2769.729476456084
 30
0.0
 10
16085.13262893794
 20
-2761.023179742543
 30
0.0
 10
16085.27585681017
 20
-2761.053871429449
 30
0.0
  0
SPLINE
  5
353152
330
18
100
AcDbEntity
  8
姿図
100
AcDbSpline
210
0.0
220
0.0
230
1.0
 70
     8
 71
     3
 72
    14
 73
    10
 74
     0
 42
0.000000001
 43
0.0000000001
 40
0.0
 40
0.0
 40
0.0
 40
0.0
 40
1.0
 40
1.0
 40
1.0
 40
2.0
 40
2.0
 40
2.0
 40
3.0
 40
3.0
 40
3.0
 40
3.0
 10
16076.19852582418
 20
-2769.729476456084
 30
0.0
 10
16076.19852582418
 20
-2769.729476456084
 30
0.0
 10
16076.38038288855
 20
-2770.579054099666
 30
0.0
 10
16076.38038288855
 20
-2770.579054099666
 30
0.0
 10
16076.01763889934
 20
-2770.484245009367
 30
0.0
 10
16072.65178390197
 20
-2772.922646617358
 30
0.0
 10
16071.00598628888
 20
-2774.133909916119
 30
0.0
 10
16071.00598628888
 20
-2774.133909916119
 30
0.0
 10
16070.71159303918
 20
-2774.459788603241
 30
0.0
 10
16071.00598628888
 20
-2774.530696983334
 30
0.0
  0
POLYLINE
  5
353153
330
18
100
AcDbEntity
  8
姿図
100
AcDb2dPolyline
 66
     1
 10
0.0
 20
0.0
 30
0.0
  0
VERTEX
  5
353154
330
353153
100
AcDbEntity
  8
姿図
100
AcDbVertex
100
AcDb2dVertex
 10
16072.3174385426
 20
-2769.384283172893
 30
0.0
  0
VERTEX
  5
353155
330
353153
100
AcDbEntity
  8
姿図
100
AcDbVertex
100
AcDb2dVertex
 10
16072.43808862216
 20
-2769.960546052906
 30
0.0
  0
SEQEND
  5
353156
330
353153
100
AcDbEntity
  8
姿図
  0
POLYLINE
  5
353157
330
18
100
AcDbEntity
  8
姿図
100
AcDb2dPolyline
 66
     1
 10
0.0
 20
0.0
 30
0.0
  0
VERTEX
  5
353158
330
353157
100
AcDbEntity
  8
姿図
100
AcDbVertex
100
AcDb2dVertex
 10
16081.74640101047
 20
-2761.275768797999
 30
0.0
  0
VERTEX
  5
353159
330
353157
100
AcDbEntity
  8
姿図
100
AcDbVertex
100
AcDb2dVertex
 10
16081.3068396095
 20
-2760.90420535853
 30
0.0
  0
VERTEX
  5
35315A
330
353157
100
AcDbEntity
  8
姿図
100
AcDbVertex
100
AcDb2dVertex
 10
16072.3174385426
 20
-2769.384283172893
 30
0.0
  0
SEQEND
  5
35315B
330
353157
100
AcDbEntity
  8
姿図
  0
SPLINE
  5
35315C
330
18
100
AcDbEntity
  8
姿図
100
AcDbSpline
210
0.0
220
0.0
230
1.0
 70
     8
 71
     3
 72
    17
 73
    13
 74
     0
 42
0.000000001
 43
0.0000000001
 40
0.0
 40
0.0
 40
0.0
 40
0.0
 40
1.0
 40
1.0
 40
1.0
 40
2.0
 40
2.0
 40
2.0
 40
3.0
 40
3.0
 40
3.0
 40
4.0
 40
4.0
 40
4.0
 40
4.0
 10
16067.61808266585
 20
-2774.141494643342
 30
0.0
 10
16067.93002662156
 20
-2774.046597358541
 30
0.0
 10
16068.29197686025
 20
-2773.863681960141
 30
0.0
 10
16068.65189862537
 20
-2773.52157548454
 30
0.0
 10
16068.65189862537
 20
-2773.52157548454
 30
0.0
 10
16081.31627642127
 20
-2761.59212247884
 30
0.0
 10
16082.29161942557
 20
-2760.791933756715
 30
0.0
 10
16082.29161942557
 20
-2760.791933756715
 30
0.0
 10
16082.63769465379
 20
-2760.511122460425
 30
0.0
 10
16083.17268250658
 20
-2760.511122460425
 30
0.0
 10
16083.70758216487
 20
-2760.511122460425
 30
0.0
 10
16084.70541476733
 20
-2760.904822720048
 30
0.0
 10
16084.97731841886
 20
-2761.297905618154
 30
0.0
  0
POLYLINE
  5
35315D
330
18
100
AcDbEntity
  8
姿図
100
AcDb2dPolyline
 66
     1
 10
0.0
 20
0.0
 30
0.0
  0
VERTEX
  5
35315E
330
35315D
100
AcDbEntity
  8
姿図
100
AcDbVertex
100
AcDb2dVertex
 10
16089.96903907173
 20
-2781.042008916071
 30
0.0
  0
VERTEX
  5
35315F
330
35315D
100
AcDbEntity
  8
姿図
100
AcDbVertex
100
AcDb2dVertex
 10
16094.31985027419
 20
-2774.614922733321
 30
0.0
  0
SEQEND
  5
353160
330
35315D
100
AcDbEntity
  8
姿図
  0
POLYLINE
  5
353161
330
18
100
AcDbEntity
  8
姿図
100
AcDb2dPolyline
 66
     1
 10
0.0
 20
0.0
 30
0.0
  0
VERTEX
  5
353162
330
353161
100
AcDbEntity
  8
姿図
100
AcDbVertex
100
AcDb2dVertex
 10
16088.83432860123
 20
-2781.042008916071
 30
0.0
  0
VERTEX
  5
353163
330
353161
100
AcDbEntity
  8
姿図
100
AcDbVertex
100
AcDb2dVertex
 10
16089.96903907173
 20
-2781.042008916071
 30
0.0
  0
SEQEND
  5
353164
330
353161
100
AcDbEntity
  8
姿図
  0
POLYLINE
  5
353165
330
18
100
AcDbEntity
  8
姿図
100
AcDb2dPolyline
 66
     1
 10
0.0
 20
0.0
 30
0.0
  0
VERTEX
  5
353166
330
353165
100
AcDbEntity
  8
姿図
100
AcDbVertex
100
AcDb2dVertex
 10
16091.06847174119
 20
-2784.897519791899
 30
0.0
  0
VERTEX
  5
353167
330
353165
100
AcDbEntity
  8
姿図
100
AcDbVertex
100
AcDb2dVertex
 10
16094.23694744174
 20
-2780.506668285265
 30
0.0
  0
SEQEND
  5
353168
330
353165
100
AcDbEntity
  8
姿図
  0
SPLINE
  5
353169
330
18
100
AcDbEntity
  8
姿図
100
AcDbSpline
210
0.0
220
0.0
230
1.0
 70
     8
 71
     3
 72
    14
 73
    10
 74
     0
 42
0.000000001
 43
0.0000000001
 40
0.0
 40
0.0
 40
0.0
 40
0.0
 40
1.0
 40
1.0
 40
1.0
 40
2.0
 40
2.0
 40
2.0
 40
3.0
 40
3.0
 40
3.0
 40
3.0
 10
16094.75156236443
 20
-2780.506668285265
 30
0.0
 10
16094.75156236443
 20
-2780.506668285265
 30
0.0
 10
16093.69746166931
 20
-2780.506668285265
 30
0.0
 10
16093.69746166931
 20
-2780.506668285265
 30
0.0
 10
16093.69746166931
 20
-2780.506668285265
 30
0.0
 10
16093.48508930704
 20
-2780.442991854386
 30
0.0
 10
16092.96597646471
 20
-2781.175006225997
 30
0.0
 10
16092.53955604462
 20
-2781.776139955744
 30
0.0
 10
16088.56313050573
 20
-2787.630314649581
 30
0.0
 10
16087.15589902218
 20
-2789.703061849776
 30
0.0
  0
POLYLINE
  5
35316A
330
18
100
AcDbEntity
  8
姿図
100
AcDb2dPolyline
 66
     1
 10
0.0
 20
0.0
 30
0.0
  0
VERTEX
  5
35316B
330
35316A
100
AcDbEntity
  8
姿図
100
AcDbVertex
100
AcDb2dVertex
 10
16090.31467332744
 20
-2785.564623009594
 30
0.0
  0
VERTEX
  5
35316C
330
35316A
100
AcDbEntity
  8
姿図
100
AcDbVertex
100
AcDb2dVertex
 10
16090.08933637328
 20
-2785.385940947319
 30
0.0
  0
SEQEND
  5
35316D
330
35316A
100
AcDbEntity
  8
姿図
  0
POLYLINE
  5
35316E
330
18
100
AcDbEntity
  8
姿図
100
AcDb2dPolyline
 66
     1
 10
0.0
 20
0.0
 30
0.0
  0
VERTEX
  5
35316F
330
35316E
100
AcDbEntity
  8
姿図
100
AcDbVertex
100
AcDb2dVertex
 10
16088.70432990439
 20
-2780.207688921439
 30
0.0
  0
VERTEX
  5
353170
330
35316E
100
AcDbEntity
  8
姿図
100
AcDbVertex
100
AcDb2dVertex
 10
16088.57671245913
 20
-2780.608973908285
 30
0.0
  0
SEQEND
  5
353171
330
35316E
100
AcDbEntity
  8
姿図
  0
POLYLINE
  5
353172
330
18
100
AcDbEntity
  8
姿図
100
AcDb2dPolyline
 66
     1
 10
0.0
 20
0.0
 30
0.0
  0
VERTEX
  5
353173
330
353172
100
AcDbEntity
  8
姿図
100
AcDbVertex
100
AcDb2dVertex
 10
16091.12174122076
 20
-2784.823612798717
 30
0.0
  0
VERTEX
  5
353174
330
353172
100
AcDbEntity
  8
姿図
100
AcDbVertex
100
AcDb2dVertex
 10
16090.62970409074
 20
-2784.591837645874
 30
0.0
  0
SEQEND
  5
353175
330
353172
100
AcDbEntity
  8
姿図
  0
SPLINE
  5
353176
330
18
100
AcDbEntity
  8
姿図
100
AcDbSpline
210
0.0
220
0.0
230
1.0
 70
     8
 71
     3
 72
    14
 73
    10
 74
     0
 42
0.000000001
 43
0.0000000001
 40
0.0
 40
0.0
 40
0.0
 40
0.0
 40
1.0
 40
1.0
 40
1.0
 40
2.0
 40
2.0
 40
2.0
 40
3.0
 40
3.0
 40
3.0
 40
3.0
 10
16086.17343964551
 20
-2786.92397162573
 30
0.0
 10
16086.49999650631
 20
-2787.334510287847
 30
0.0
 10
16086.6652730042
 20
-2786.815397445522
 30
0.0
 10
16086.6652730042
 20
-2786.815397445522
 30
0.0
 10
16086.6652730042
 20
-2786.815397445522
 30
0.0
 10
16088.97782105697
 20
-2781.765203837423
 30
0.0
 10
16088.97782105697
 20
-2781.765203837423
 30
0.0
 10
16089.19028161374
 20
-2781.269727121794
 30
0.0
 10
16088.97782105697
 20
-2781.042185305076
 30
0.0
 10
16088.97782105697
 20
-2781.042185305076
 30
0.0
  0
SPLINE
  5
353177
330
18
100
AcDbEntity
  8
姿図
100
AcDbSpline
210
0.0
220
0.0
230
1.0
 70
     8
 71
     3
 72
     8
 73
     4
 74
     0
 42
0.000000001
 43
0.0000000001
 40
0.0
 40
0.0
 40
0.0
 40
0.0
 40
1.0
 40
1.0
 40
1.0
 40
1.0
 10
16086.22447688018
 20
-2786.988787837641
 30
0.0
 10
16086.19149213621
 20
-2786.951746146548
 30
0.0
 10
16086.15956572626
 20
-2786.907296117235
 30
0.0
 10
16086.12966778988
 20
-2786.854026637662
 30
0.0
  0
SPLINE
  5
353178
330
18
100
AcDbEntity
  8
姿図
100
AcDbSpline
210
0.0
220
0.0
230
1.0
 70
     8
 71
     3
 72
    11
 73
     7
 74
     0
 42
0.000000001
 43
0.0000000001
 40
0.0
 40
0.0
 40
0.0
 40
0.0
 40
1.0
 40
1.0
 40
1.0
 40
2.0
 40
2.0
 40
2.0
 40
2.0
 10
16090.20196075311
 20
-2780.697697577905
 30
0.0
 10
16090.20196075311
 20
-2780.697697577905
 30
0.0
 10
16086.85400923977
 20
-2787.085449012495
 30
0.0
 10
16086.85400923977
 20
-2787.085449012495
 30
0.0
 10
16086.85400923977
 20
-2787.085449012495
 30
0.0
 10
16086.49893817228
 20
-2787.295881095708
 30
0.0
 10
16086.22447688018
 20
-2786.988787837641
 30
0.0
  0
SPLINE
  5
353179
330
18
100
AcDbEntity
  8
姿図
100
AcDbSpline
210
0.0
220
0.0
230
1.0
 70
     8
 71
     3
 72
     8
 73
     4
 74
     0
 42
0.000000001
 43
0.0000000001
 40
0.0039469307402094
 40
0.0039469307402094
 40
0.0039469307402094
 40
0.0039469307402094
 40
1.0
 40
1.0
 40
1.0
 40
1.0
 10
16098.06541456101
 20
-2769.836279998737
 30
0.0
 10
16098.78489701129
 20
-2771.883582583909
 30
0.0
 10
16098.78621045452
 20
-2773.846761072128
 30
0.0
 10
16097.94402696968
 20
-2775.34111626776
 30
0.0
  0
SPLINE
  5
35317A
330
18
100
AcDbEntity
  8
姿図
100
AcDbSpline
210
0.0
220
0.0
230
1.0
 70
     8
 71
     3
 72
     8
 73
     4
 74
     0
 42
0.000000001
 43
0.0000000001
 40
0.0
 40
0.0
 40
0.0
 40
0.0
 40
1.0
 40
1.0
 40
1.0
 40
1.0
 10
16097.1518639473
 20
-2767.846435630991
 30
0.0
 10
16097.35568144281
 20
-2768.206004618106
 30
0.0
 10
16097.53894961922
 20
-2768.566808328257
 30
0.0
 10
16097.70087472601
 20
-2768.926818287886
 30
0.0
  0
SPLINE
  5
35317B
330
18
100
AcDbEntity
  8
姿図
100
AcDbSpline
210
0.0
220
0.0
230
1.0
 70
     8
 71
     3
 72
    11
 73
     7
 74
     0
 42
0.000000001
 43
0.0000000001
 40
0.0
 40
0.0
 40
0.0
 40
0.0
 40
1.0
 40
1.0
 40
1.0
 40
2.0
 40
2.0
 40
2.0
 40
2.0
 10
16091.51746995395
 20
-2762.027009571179
 30
0.0
 10
16092.14479745097
 20
-2762.42705983499
 30
0.0
 10
16092.76330549773
 20
-2762.87888027183
 30
0.0
 10
16093.36399825496
 20
-2763.380971575154
 30
0.0
 10
16093.76775268789
 20
-2763.718491936618
 30
0.0
 10
16094.15042863468
 20
-2764.068006750437
 30
0.0
 10
16094.51140873384
 20
-2764.426870181532
 30
0.0
  0
SPLINE
  5
35317C
330
18
100
AcDbEntity
  8
姿図
100
AcDbSpline
210
0.0
220
0.0
230
1.0
 70
     8
 71
     3
 72
     8
 73
     4
 74
     0
 42
0.000000001
 43
0.0000000001
 40
0.0220224807344469
 40
0.0220224807344469
 40
0.0220224807344469
 40
0.0220224807344469
 40
1.0
 40
1.0
 40
1.0
 40
1.0
 10
16087.00072250446
 20
-2760.061921830787
 30
0.0
 10
16088.2009550663
 20
-2760.346860374706
 30
0.0
 10
16089.4490478629
 20
-2760.837672066179
 30
0.0
 10
16090.67900481769
 20
-2761.525447434871
 30
0.0
  0
SPLINE
  5
35317D
330
18
100
AcDbEntity
  8
姿図
100
AcDbSpline
210
0.0
220
0.0
230
1.0
 70
     8
 71
     3
 72
     8
 73
     4
 74
     0
 42
0.000000001
 43
0.0000000001
 40
0.0
 40
0.0
 40
0.0
 40
0.0
 40
0.9930441751332382
 40
0.9930441751332382
 40
0.9930441751332382
 40
0.9930441751332382
 10
16080.70270726666
 20
-2761.059074905103
 30
0.0
 10
16081.98095250298
 20
-2759.951525110069
 30
0.0
 10
16083.86026011679
 20
-2759.570885943172
 30
0.0
 10
16085.95724753729
 20
-2759.864300875166
 30
0.0
  0
POLYLINE
  5
35317E
330
18
100
AcDbEntity
  8
姿図
100
AcDb2dPolyline
 66
     1
 10
0.0
 20
0.0
 30
0.0
  0
VERTEX
  5
35317F
330
35317E
100
AcDbEntity
  8
姿図
100
AcDbVertex
100
AcDb2dVertex
 10
16096.7693643895
 20
-2776.605119879078
 30
0.0
  0
VERTEX
  5
353180
330
35317E
100
AcDbEntity
  8
姿図
100
AcDbVertex
100
AcDb2dVertex
 10
16097.937941549
 20
-2774.614922733321
 30
0.0
  0
VERTEX
  5
353181
330
35317E
100
AcDbEntity
  8
姿図
100
AcDbVertex
100
AcDb2dVertex
 10
16097.937941549
 20
-2774.614922733321
 30
0.0
  0
VERTEX
  5
353182
330
35317E
100
AcDbEntity
  8
姿図
100
AcDbVertex
100
AcDb2dVertex
 10
16097.23723622582
 20
-2774.331818379962
 30
0.0
  0
SEQEND
  5
353183
330
35317E
100
AcDbEntity
  8
姿図
  0
SPLINE
  5
353184
330
18
100
AcDbEntity
  8
姿図
100
AcDbSpline
210
0.0
220
0.0
230
1.0
 70
     8
 71
     3
 72
    11
 73
     7
 74
     0
 42
0.000000001
 43
0.0000000001
 40
0.0
 40
0.0
 40
0.0
 40
0.0
 40
1.0
 40
1.0
 40
1.0
 40
2.0
 40
2.0
 40
2.0
 40
2.0
 10
16096.83939082457
 20
-2775.000332709698
 30
0.0
 10
16096.83939082457
 20
-2775.000332709698
 30
0.0
 10
16098.1104499961
 20
-2772.915855640657
 30
0.0
 10
16098.1104499961
 20
-2772.915855640657
 30
0.0
 10
16098.1104499961
 20
-2772.915855640657
 30
0.0
 10
16098.44206132589
 20
-2771.882568848151
 30
0.0
 10
16097.0028152379
 20
-2770.995067568449
 30
0.0
  0
SPLINE
  5
353185
330
18
100
AcDbEntity
  8
姿図
100
AcDbSpline
210
0.0
220
0.0
230
1.0
 70
     8
 71
     3
 72
    29
 73
    25
 74
     0
 42
0.000000001
 43
0.0000000001
 40
0.0
 40
0.0
 40
0.0
 40
0.0
 40
1.0
 40
1.0
 40
1.0
 40
2.0
 40
2.0
 40
2.0
 40
3.0
 40
3.0
 40
3.0
 40
4.0
 40
4.0
 40
4.0
 40
5.0
 40
5.0
 40
5.0
 40
6.0
 40
6.0
 40
6.0
 40
7.0
 40
7.0
 40
7.0
 40
7.921323331948138
 40
7.921323331948138
 40
7.921323331948138
 40
7.921323331948138
 10
16087.77105567784
 20
-2760.271321607845
 30
0.0
 10
16087.77105567784
 20
-2760.271321607845
 30
0.0
 10
16087.75068274774
 20
-2759.769053915516
 30
0.0
 10
16087.75068274774
 20
-2759.769053915516
 30
0.0
 10
16087.75068274774
 20
-2759.769053915516
 30
0.0
 10
16086.69667024712
 20
-2760.180657659169
 30
0.0
 10
16086.69667024712
 20
-2760.180657659169
 30
0.0
 10
16086.19334422076
 20
-2760.448063391063
 30
0.0
 10
16085.95724753729
 20
-2760.039017287987
 30
0.0
 10
16085.95724753729
 20
-2760.039017287987
 30
0.0
 10
16085.95724753729
 20
-2760.039017287987
 30
0.0
 10
16085.95724753729
 20
-2759.110858342584
 30
0.0
 10
16085.95724753729
 20
-2759.110858342584
 30
0.0
 10
16085.95724753729
 20
-2759.110858342584
 30
0.0
 10
16087.04274547534
 20
-2757.789351915569
 30
0.0
 10
16087.04274547534
 20
-2757.789351915569
 30
0.0
 10
16087.04274547534
 20
-2757.789351915569
 30
0.0
 10
16092.87434237651
 20
-2752.030515479047
 30
0.0
 10
16092.87434237651
 20
-2752.030515479047
 30
0.0
 10
16092.87434237651
 20
-2752.030515479047
 30
0.0
 10
16093.13672102175
 20
-2751.715484715745
 30
0.0
 10
16093.49302681228
 20
-2752.218810742106
 30
0.0
 10
16093.49302681228
 20
-2752.218810742106
 30
0.0
 10
16093.49302681228
 20
-2757.13429752563
 30
0.0
 10
16093.49302681228
 20
-2757.907765769592
 30
0.0
  0
POLYLINE
  5
353186
330
18
100
AcDbEntity
  8
姿図
100
AcDb2dPolyline
 66
     1
 10
0.0
 20
0.0
 30
0.0
  0
VERTEX
  5
353187
330
353186
100
AcDbEntity
  8
姿図
100
AcDbVertex
100
AcDb2dVertex
 10
16087.18914834966
 20
-2759.988393643492
 30
0.0
  0
VERTEX
  5
353188
330
353186
100
AcDbEntity
  8
姿図
100
AcDbVertex
100
AcDb2dVertex
 10
16087.18914834966
 20
-2760.108338167033
 30
0.0
  0
SEQEND
  5
353189
330
353186
100
AcDbEntity
  8
姿図
  0
SPLINE
  5
35318A
330
18
100
AcDbEntity
  8
姿図
100
AcDbSpline
210
0.0
220
0.0
230
1.0
 70
     8
 71
     3
 72
    11
 73
     7
 74
     0
 42
0.000000001
 43
0.0000000001
 40
0.0
 40
0.0
 40
0.0
 40
0.0
 40
1.0
 40
1.0
 40
1.0
 40
2.0
 40
2.0
 40
2.0
 40
2.0
 10
16086.56631877227
 20
-2760.237454918845
 30
0.0
 10
16086.56631877227
 20
-2760.237454918845
 30
0.0
 10
16086.56631877227
 20
-2759.173829217443
 30
0.0
 10
16086.56631877227
 20
-2759.173829217443
 30
0.0
 10
16086.56631877227
 20
-2759.173829217443
 30
0.0
 10
16086.083012898
 20
-2758.890636669583
 30
0.0
 10
16085.95724753729
 20
-2759.110858342584
 30
0.0
  0
POLYLINE
  5
35318B
330
18
100
AcDbEntity
  8
姿図
100
AcDb2dPolyline
 66
     1
 10
0.0
 20
0.0
 30
0.0
  0
VERTEX
  5
35318C
330
35318B
100
AcDbEntity
  8
姿図
100
AcDbVertex
100
AcDb2dVertex
 10
16086.56631877227
 20
-2759.173829217443
 30
0.0
  0
VERTEX
  5
35318D
330
35318B
100
AcDbEntity
  8
姿図
100
AcDbVertex
100
AcDb2dVertex
 10
16093.49302681228
 20
-2752.218810742106
 30
0.0
  0
SEQEND
  5
35318E
330
35318B
100
AcDbEntity
  8
姿図
  0
SPLINE
  5
35318F
330
18
100
AcDbEntity
  8
姿図
100
AcDbSpline
210
0.0
220
0.0
230
1.0
 70
     8
 71
     3
 72
    29
 73
    25
 74
     0
 42
0.000000001
 43
0.0000000001
 40
0.0
 40
0.0
 40
0.0
 40
0.0
 40
1.0
 40
1.0
 40
1.0
 40
2.0
 40
2.0
 40
2.0
 40
3.0
 40
3.0
 40
3.0
 40
4.0
 40
4.0
 40
4.0
 40
5.0
 40
5.0
 40
5.0
 40
6.0
 40
6.0
 40
6.0
 40
7.0
 40
7.0
 40
7.0
 40
8.0
 40
8.0
 40
8.0
 40
8.0
 10
16090.02962869502
 20
-2754.768778395891
 30
0.0
 10
16090.02962869502
 20
-2754.768778395891
 30
0.0
 10
16088.71085629759
 20
-2751.892138304462
 30
0.0
 10
16088.71085629759
 20
-2751.892138304462
 30
0.0
 10
16088.71085629759
 20
-2751.892138304462
 30
0.0
 10
16088.57080342745
 20
-2751.757729882494
 30
0.0
 10
16088.2708539241
 20
-2751.973277246857
 30
0.0
 10
16088.2708539241
 20
-2751.973277246857
 30
0.0
 10
16082.03991231514
 20
-2758.119728522322
 30
0.0
 10
16082.03991231514
 20
-2758.119728522322
 30
0.0
 10
16082.03991231514
 20
-2758.119728522322
 30
0.0
 10
16081.41073273356
 20
-2759.173829217443
 30
0.0
 10
16081.41073273356
 20
-2759.173829217443
 30
0.0
 10
16081.41073273356
 20
-2759.173829217443
 30
0.0
 10
16081.7948197924
 20
-2759.91042970319
 30
0.0
 10
16081.7948197924
 20
-2759.91042970319
 30
0.0
 10
16081.7948197924
 20
-2759.91042970319
 30
0.0
 10
16081.85117607956
 20
-2760.048365905262
 30
0.0
 10
16082.21312631825
 20
-2759.913163732771
 30
0.0
 10
16082.45116328078
 20
-2759.824263674147
 30
0.0
 10
16083.83343572009
 20
-2759.332402933125
 30
0.0
 10
16083.83343572009
 20
-2759.332402933125
 30
0.0
 10
16083.83343572009
 20
-2759.332402933125
 30
0.0
 10
16084.06231563108
 20
-2759.788625312442
 30
0.0
 10
16084.06231563108
 20
-2759.788625312442
 30
0.0
  0
POLYLINE
  5
353190
330
18
100
AcDbEntity
  8
姿図
100
AcDb2dPolyline
 66
     1
 10
0.0
 20
0.0
 30
0.0
  0
VERTEX
  5
353191
330
353190
100
AcDbEntity
  8
姿図
100
AcDbVertex
100
AcDb2dVertex
 10
16083.61250849107
 20
-2759.410190484422
 30
0.0
  0
VERTEX
  5
353192
330
353190
100
AcDbEntity
  8
姿図
100
AcDbVertex
100
AcDb2dVertex
 10
16083.82304302772
 20
-2759.809331983171
 30
0.0
  0
SEQEND
  5
353193
330
353190
100
AcDbEntity
  8
姿図
  0
SPLINE
  5
353194
330
18
100
AcDbEntity
  8
姿図
100
AcDbSpline
210
0.0
220
0.0
230
1.0
 70
     8
 71
     3
 72
    14
 73
    10
 74
     0
 42
0.000000001
 43
0.0000000001
 40
0.0
 40
0.0
 40
0.0
 40
0.0
 40
1.0
 40
1.0
 40
1.0
 40
2.0
 40
2.0
 40
2.0
 40
3.0
 40
3.0
 40
3.0
 40
3.0
 10
16081.91158931385
 20
-2759.988393643492
 30
0.0
 10
16081.91158931385
 20
-2759.988393643492
 30
0.0
 10
16082.10923319418
 20
-2759.988393643492
 30
0.0
 10
16082.07148594707
 20
-2759.769053915516
 30
0.0
 10
16082.07148594707
 20
-2759.769053915516
 30
0.0
 10
16081.74640101047
 20
-2759.110858342584
 30
0.0
 10
16081.74640101047
 20
-2759.110858342584
 30
0.0
 10
16081.74640101047
 20
-2759.110858342584
 30
0.0
 10
16081.41073273356
 20
-2759.026985370608
 30
0.0
 10
16081.41073273356
 20
-2759.173829217443
 30
0.0
  0
POLYLINE
  5
353195
330
18
100
AcDbEntity
  8
姿図
100
AcDb2dPolyline
 66
     1
 10
0.0
 20
0.0
 30
0.0
  0
VERTEX
  5
353196
330
353195
100
AcDbEntity
  8
姿図
100
AcDbVertex
100
AcDb2dVertex
 10
16081.74640101047
 20
-2759.110858342584
 30
0.0
  0
VERTEX
  5
353197
330
353195
100
AcDbEntity
  8
姿図
100
AcDbVertex
100
AcDb2dVertex
 10
16082.3739048965
 20
-2758.156152851898
 30
0.0
  0
VERTEX
  5
353198
330
353195
100
AcDbEntity
  8
姿図
100
AcDbVertex
100
AcDb2dVertex
 10
16088.72964172664
 20
-2751.933148748172
 30
0.0
  0
SEQEND
  5
353199
330
353195
100
AcDbEntity
  8
姿図
  0
SPLINE
  5
35319A
330
18
100
AcDbEntity
  8
姿図
100
AcDbSpline
210
0.0
220
0.0
230
1.0
 70
     8
 71
     3
 72
    32
 73
    28
 74
     0
 42
0.000000001
 43
0.0000000001
 40
0.0
 40
0.0
 40
0.0
 40
0.0
 40
1.0
 40
1.0
 40
1.0
 40
2.0
 40
2.0
 40
2.0
 40
3.0
 40
3.0
 40
3.0
 40
4.0
 40
4.0
 40
4.0
 40
5.0
 40
5.0
 40
5.0
 40
6.0
 40
6.0
 40
6.0
 40
7.0
 40
7.0
 40
7.0
 40
8.0
 40
8.0
 40
8.0
 40
9.0
 40
9.0
 40
9.0
 40
9.0
 10
16085.91262111897
 20
-2754.299495447535
 30
0.0
 10
16085.91262111897
 20
-2754.299495447535
 30
0.0
 10
16085.05607610969
 20
-2753.414640002911
 30
0.0
 10
16085.05607610969
 20
-2753.414640002911
 30
0.0
 10
16085.05607610969
 20
-2753.414640002911
 30
0.0
 10
16084.99760315446
 20
-2753.2584475388
 30
0.0
 10
16084.02217195566
 20
-2754.202393300168
 30
0.0
 10
16084.02217195566
 20
-2754.202393300168
 30
0.0
 10
16078.79911712246
 20
-2759.086957632378
 30
0.0
 10
16078.79911712246
 20
-2759.086957632378
 30
0.0
 10
16078.79911712246
 20
-2759.086957632378
 30
0.0
 10
16077.80798730219
 20
-2760.511122460425
 30
0.0
 10
16077.80798730219
 20
-2760.511122460425
 30
0.0
 10
16077.80798730219
 20
-2760.511122460425
 30
0.0
 10
16077.68222194148
 20
-2760.589615567742
 30
0.0
 10
16077.96532629484
 20
-2760.90420535853
 30
0.0
 10
16077.96532629484
 20
-2760.90420535853
 30
0.0
 10
16078.45304189424
 20
-2761.360523715002
 30
0.0
 10
16078.45304189424
 20
-2761.360523715002
 30
0.0
 10
16078.45304189424
 20
-2761.360523715002
 30
0.0
 10
16078.5159245746
 20
-2761.423406395358
 30
0.0
 10
16078.70474900467
 20
-2761.360523715002
 30
0.0
 10
16078.70474900467
 20
-2761.360523715002
 30
0.0
 10
16080.62412596484
 20
-2760.414020313058
 30
0.0
 10
16080.62412596484
 20
-2760.414020313058
 30
0.0
 10
16080.62412596484
 20
-2760.414020313058
 30
0.0
 10
16080.98942759462
 20
-2760.830562948855
 30
0.0
 10
16080.98942759462
 20
-2760.830562948855
 30
0.0
  0
POLYLINE
  5
35319B
330
18
100
AcDbEntity
  8
姿図
100
AcDb2dPolyline
 66
     1
 10
0.0
 20
0.0
 30
0.0
  0
VERTEX
  5
35319C
330
35319B
100
AcDbEntity
  8
姿図
100
AcDbVertex
100
AcDb2dVertex
 10
16080.42718764052
 20
-2760.511122460425
 30
0.0
  0
VERTEX
  5
35319D
330
35319B
100
AcDbEntity
  8
姿図
100
AcDbVertex
100
AcDb2dVertex
 10
16080.81286220041
 20
-2760.90420535853
 30
0.0
  0
SEQEND
  5
35319E
330
35319B
100
AcDbEntity
  8
姿図
  0
SPLINE
  5
35319F
330
18
100
AcDbEntity
  8
姿図
100
AcDbSpline
210
0.0
220
0.0
230
1.0
 70
     8
 71
     3
 72
    14
 73
    10
 74
     0
 42
0.000000001
 43
0.0000000001
 40
0.0
 40
0.0
 40
0.0
 40
0.0
 40
1.0
 40
1.0
 40
1.0
 40
2.0
 40
2.0
 40
2.0
 40
3.0
 40
3.0
 40
3.0
 40
3.0
 10
16077.80798730219
 20
-2760.511122460425
 30
0.0
 10
16077.80798730219
 20
-2760.511122460425
 30
0.0
 10
16077.99672353777
 20
-2760.338084846317
 30
0.0
 10
16078.12257709298
 20
-2760.511122460425
 30
0.0
 10
16078.12257709298
 20
-2760.511122460425
 30
0.0
 10
16078.68905038321
 20
-2761.140390236504
 30
0.0
 10
16078.68905038321
 20
-2761.140390236504
 30
0.0
 10
16078.68905038321
 20
-2761.140390236504
 30
0.0
 10
16078.76771987953
 20
-2761.218883343821
 30
0.0
 10
16078.70474900467
 20
-2761.360523715002
 30
0.0
  0
POLYLINE
  5
3531A0
330
18
100
AcDbEntity
  8
姿図
100
AcDb2dPolyline
 66
     1
 10
0.0
 20
0.0
 30
0.0
  0
VERTEX
  5
3531A1
330
3531A0
100
AcDbEntity
  8
姿図
100
AcDbVertex
100
AcDb2dVertex
 10
16078.0282089752
 20
-2760.434216854154
 30
0.0
  0
VERTEX
  5
3531A2
330
3531A0
100
AcDbEntity
  8
姿図
100
AcDbVertex
100
AcDb2dVertex
 10
16078.99579086326
 20
-2759.086957632378
 30
0.0
  0
VERTEX
  5
3531A3
330
3531A0
100
AcDbEntity
  8
姿図
100
AcDbVertex
100
AcDb2dVertex
 10
16085.05607610969
 20
-2753.414640002911
 30
0.0
  0
SEQEND
  5
3531A4
330
3531A0
100
AcDbEntity
  8
姿図
  0
SPLINE
  5
3531A5
330
18
100
AcDbEntity
  8
姿図
100
AcDbSpline
210
0.0
220
0.0
230
1.0
 70
     8
 71
     3
 72
    26
 73
    22
 74
     0
 42
0.000000001
 43
0.0000000001
 40
0.0
 40
0.0
 40
0.0
 40
0.0
 40
1.0
 40
1.0
 40
1.0
 40
2.0
 40
2.0
 40
2.0
 40
3.0
 40
3.0
 40
3.0
 40
4.0
 40
4.0
 40
4.0
 40
5.0
 40
5.0
 40
5.0
 40
6.0
 40
6.0
 40
6.0
 40
7.0
 40
7.0
 40
7.0
 40
7.0
 10
16091.13594053569
 20
-2760.850230322937
 30
0.0
 10
16091.13594053569
 20
-2760.850230322937
 30
0.0
 10
16090.71560553627
 20
-2761.360523715002
 30
0.0
 10
16090.71560553627
 20
-2761.360523715002
 30
0.0
 10
16090.71560553627
 20
-2761.360523715002
 30
0.0
 10
16090.58252003184
 20
-2761.966243558885
 30
0.0
 10
16090.58252003184
 20
-2761.966243558885
 30
0.0
 10
16090.58252003184
 20
-2761.966243558885
 30
0.0
 10
16090.62970409074
 20
-2762.125875608597
 30
0.0
 10
16090.84207645301
 20
-2762.234884013817
 30
0.0
 10
16090.84207645301
 20
-2762.234884013817
 30
0.0
 10
16091.03090088308
 20
-2762.338247970868
 30
0.0
 10
16091.21963711866
 20
-2762.234884013817
 30
0.0
 10
16091.21963711866
 20
-2762.234884013817
 30
0.0
 10
16091.92766258556
 20
-2761.740377437717
 30
0.0
 10
16091.92766258556
 20
-2761.740377437717
 30
0.0
 10
16091.92766258556
 20
-2761.740377437717
 30
0.0
 10
16091.90385006986
 20
-2762.280833349673
 30
0.0
 10
16091.90385006986
 20
-2762.280833349673
 30
0.0
 10
16091.90385006986
 20
-2762.280833349673
 30
0.0
 10
16094.60022059796
 20
-2759.173829217443
 30
0.0
 10
16094.60022059796
 20
-2759.173829217443
 30
0.0
  0
POLYLINE
  5
3531A6
330
18
100
AcDbEntity
  8
姿図
100
AcDb2dPolyline
 66
     1
 10
0.0
 20
0.0
 30
0.0
  0
VERTEX
  5
3531A7
330
3531A6
100
AcDbEntity
  8
姿図
100
AcDbVertex
100
AcDb2dVertex
 10
16091.94768273765
 20
-2759.864833145345
 30
0.0
  0
VERTEX
  5
3531A8
330
3531A6
100
AcDbEntity
  8
姿図
100
AcDbVertex
100
AcDb2dVertex
 10
16091.13594053569
 20
-2760.850230322937
 30
0.0
  0
SEQEND
  5
3531A9
330
3531A6
100
AcDbEntity
  8
姿図
  0
POLYLINE
  5
3531AA
330
18
100
AcDbEntity
  8
姿図
100
AcDb2dPolyline
 66
     1
 10
0.0
 20
0.0
 30
0.0
  0
VERTEX
  5
3531AB
330
3531AA
100
AcDbEntity
  8
姿図
100
AcDbVertex
100
AcDb2dVertex
 10
16094.64034909665
 20
-2756.798222095307
 30
0.0
  0
VERTEX
  5
3531AC
330
3531AA
100
AcDbEntity
  8
姿図
100
AcDbVertex
100
AcDb2dVertex
 10
16092.58841579907
 20
-2759.086957632378
 30
0.0
  0
VERTEX
  5
3531AD
330
3531AA
100
AcDbEntity
  8
姿図
100
AcDbVertex
100
AcDb2dVertex
 10
16091.94768273765
 20
-2759.864833145345
 30
0.0
  0
SEQEND
  5
3531AE
330
3531AA
100
AcDbEntity
  8
姿図
  0
SPLINE
  5
3531AF
330
18
100
AcDbEntity
  8
姿図
100
AcDbSpline
210
0.0
220
0.0
230
1.0
 70
     8
 71
     3
 72
    11
 73
     7
 74
     0
 42
0.000000001
 43
0.0000000001
 40
0.0
 40
0.0
 40
0.0
 40
0.0
 40
1.0
 40
1.0
 40
1.0
 40
2.0
 40
2.0
 40
2.0
 40
2.0
 10
16090.71560553627
 20
-2761.360523715002
 30
0.0
 10
16091.20252738515
 20
-2761.108816604571
 30
0.0
 10
16091.38491361654
 20
-2761.612230825433
 30
0.0
 10
16091.38491361654
 20
-2761.612230825433
 30
0.0
 10
16091.38491361654
 20
-2761.612230825433
 30
0.0
 10
16091.21963711866
 20
-2762.234884013817
 30
0.0
 10
16091.21963711866
 20
-2762.234884013817
 30
0.0
  0
POLYLINE
  5
3531B0
330
18
100
AcDbEntity
  8
姿図
100
AcDb2dPolyline
 66
     1
 10
0.0
 20
0.0
 30
0.0
  0
VERTEX
  5
3531B1
330
3531B0
100
AcDbEntity
  8
姿図
100
AcDbVertex
100
AcDb2dVertex
 10
16091.38491361654
 20
-2761.612230825433
 30
0.0
  0
VERTEX
  5
3531B2
330
3531B0
100
AcDbEntity
  8
姿図
100
AcDbVertex
100
AcDb2dVertex
 10
16094.64034909665
 20
-2757.883720033355
 30
0.0
  0
SEQEND
  5
3531B3
330
3531B0
100
AcDbEntity
  8
姿図
  0
SPLINE
  5
3531B4
330
18
100
AcDbEntity
  8
姿図
100
AcDbSpline
210
0.0
220
0.0
230
1.0
 70
     8
 71
     3
 72
     8
 73
     4
 74
     0
 42
0.000000001
 43
0.0000000001
 40
0.0
 40
0.0
 40
0.0
 40
0.0
 40
1.0
 40
1.0
 40
1.0
 40
1.0
 10
16097.46319054149
 20
-2760.707619812226
 30
0.0
 10
16097.46319054149
 20
-2760.707619812226
 30
0.0
 10
16097.56761283257
 20
-2760.864958804872
 30
0.0
 10
16097.78007338934
 20
-2760.707619812226
 30
0.0
  0
SPLINE
  5
3531B5
330
18
100
AcDbEntity
  8
姿図
100
AcDbSpline
210
0.0
220
0.0
230
1.0
 70
     8
 71
     3
 72
    17
 73
    13
 74
     0
 42
0.000000001
 43
0.0000000001
 40
0.0
 40
0.0
 40
0.0
 40
0.0
 40
1.0
 40
1.0
 40
1.0
 40
2.0
 40
2.0
 40
2.0
 40
3.0
 40
3.0
 40
3.0
 40
4.0
 40
4.0
 40
4.0
 40
4.0
 10
16097.40092522265
 20
-2762.133460335822
 30
0.0
 10
16097.40092522265
 20
-2762.133460335822
 30
0.0
 10
16101.39057993694
 20
-2757.199418887652
 30
0.0
 10
16101.39057993694
 20
-2757.199418887652
 30
0.0
 10
16101.39057993694
 20
-2757.199418887652
 30
0.0
 10
16101.63628982119
 20
-2757.096936875626
 30
0.0
 10
16101.80280104211
 20
-2757.281616164079
 30
0.0
 10
16101.96913587402
 20
-2757.466383647034
 30
0.0
 10
16101.92151084261
 20
-2757.541613557754
 30
0.0
 10
16101.88623304157
 20
-2757.612433743345
 30
0.0
 10
16101.88623304157
 20
-2757.612433743345
 30
0.0
 10
16097.33724879177
 20
-2763.593784909936
 30
0.0
 10
16097.33724879177
 20
-2763.593784909936
 30
0.0
  0
POLYLINE
  5
3531B6
330
18
100
AcDbEntity
  8
姿図
100
AcDb2dPolyline
 66
     1
 10
0.0
 20
0.0
 30
0.0
  0
VERTEX
  5
3531B7
330
3531B6
100
AcDbEntity
  8
姿図
100
AcDbVertex
100
AcDb2dVertex
 10
16101.39057993694
 20
-2757.199418887652
 30
0.0
  0
VERTEX
  5
3531B8
330
3531B6
100
AcDbEntity
  8
姿図
100
AcDbVertex
100
AcDb2dVertex
 10
16097.49008986478
 20
-2760.090434683005
 30
0.0
  0
SEQEND
  5
3531B9
330
3531B6
100
AcDbEntity
  8
姿図
  0
SPLINE
  5
3531BA
330
18
100
AcDbEntity
  8
姿図
100
AcDbSpline
210
0.0
220
0.0
230
1.0
 70
     8
 71
     3
 72
    14
 73
    10
 74
     0
 42
0.000000001
 43
0.0000000001
 40
0.0
 40
0.0
 40
0.0
 40
0.0
 40
1.0
 40
1.0
 40
1.0
 40
2.0
 40
2.0
 40
2.0
 40
3.0
 40
3.0
 40
3.0
 40
3.0
 10
16098.24415286205
 20
-2762.401218845728
 30
0.0
 10
16098.24415286205
 20
-2762.401218845728
 30
0.0
 10
16098.73583721406
 20
-2763.004645632543
 30
0.0
 10
16098.73583721406
 20
-2763.004645632543
 30
0.0
 10
16098.73583721406
 20
-2763.004645632543
 30
0.0
 10
16098.95993944518
 20
-2763.216929800311
 30
0.0
 10
16099.38468416972
 20
-2763.098925555826
 30
0.0
 10
16099.38468416972
 20
-2763.098925555826
 30
0.0
 10
16097.24402720252
 20
-2765.728885623472
 30
0.0
 10
16097.24402720252
 20
-2765.728885623472
 30
0.0
  0
SPLINE
  5
3531BB
330
18
100
AcDbEntity
  8
姿図
100
AcDbSpline
210
0.0
220
0.0
230
1.0
 70
     8
 71
     3
 72
    38
 73
    34
 74
     0
 42
0.000000001
 43
0.0000000001
 40
0.0
 40
0.0
 40
0.0
 40
0.0
 40
1.0
 40
1.0
 40
1.0
 40
2.0
 40
2.0
 40
2.0
 40
3.0
 40
3.0
 40
3.0
 40
4.0
 40
4.0
 40
4.0
 40
5.0
 40
5.0
 40
5.0
 40
6.0
 40
6.0
 40
6.0
 40
7.0
 40
7.0
 40
7.0
 40
8.0
 40
8.0
 40
8.0
 40
9.0
 40
9.0
 40
9.0
 40
10.0
 40
10.0
 40
10.0
 40
11.0
 40
11.0
 40
11.0
 40
11.0
 10
16098.80648101065
 20
-2769.659361826514
 30
0.0
 10
16098.80648101065
 20
-2769.659361826514
 30
0.0
 10
16099.00632975355
 20
-2769.22429834517
 30
0.0
 10
16098.53228430205
 20
-2769.159828163765
 30
0.0
 10
16098.49444886043
 20
-2769.154801077117
 30
0.0
 10
16098.45229188819
 20
-2769.151890658532
 30
0.0
 10
16098.40546060731
 20
-2769.151890658532
 30
0.0
 10
16098.40546060731
 20
-2769.151890658532
 30
0.0
 10
16098.01599368381
 20
-2769.151890658532
 30
0.0
 10
16098.01599368381
 20
-2769.151890658532
 30
0.0
 10
16097.80353312704
 20
-2769.151890658532
 30
0.0
 10
16097.62661495481
 20
-2769.222710844123
 30
0.0
 10
16097.62661495481
 20
-2769.517721455332
 30
0.0
 10
16097.62661495481
 20
-2769.812643872039
 30
0.0
 10
16097.95699156157
 20
-2769.836279998737
 30
0.0
 10
16097.95699156157
 20
-2769.836279998737
 30
0.0
 10
16097.95699156157
 20
-2769.836279998737
 30
0.0
 10
16098.40546060731
 20
-2769.836279998737
 30
0.0
 10
16098.40546060731
 20
-2769.836279998737
 30
0.0
 10
16098.62956283842
 20
-2769.836279998737
 30
0.0
 10
16098.80648101065
 20
-2769.659361826514
 30
0.0
 10
16098.80648101065
 20
-2769.659361826514
 30
0.0
 10
16098.80648101065
 20
-2769.659361826514
 30
0.0
 10
16104.5054333799
 20
-2761.966243558885
 30
0.0
 10
16104.5054333799
 20
-2761.966243558885
 30
0.0
 10
16104.64707375108
 20
-2761.789325386662
 30
0.0
 10
16104.63701957779
 20
-2761.563018292981
 30
0.0
 10
16104.57016814481
 20
-2761.414586945099
 30
0.0
 10
16104.50314032283
 20
-2761.26597920821
 30
0.0
 10
16104.29323740663
 20
-2761.305490345378
 30
0.0
 10
16104.29323740663
 20
-2761.305490345378
 30
0.0
 10
16104.29323740663
 20
-2761.305490345378
 30
0.0
 10
16098.47751551594
 20
-2762.094301976666
 30
0.0
 10
16098.47751551594
 20
-2762.094301976666
 30
0.0
  0
SPLINE
  5
3531BC
330
18
100
AcDbEntity
  8
姿図
100
AcDbSpline
210
0.0
220
0.0
230
1.0
 70
     8
 71
     3
 72
    14
 73
    10
 74
     0
 42
0.000000001
 43
0.0000000001
 40
0.0
 40
0.0
 40
0.0
 40
0.0
 40
1.0
 40
1.0
 40
1.0
 40
2.0
 40
2.0
 40
2.0
 40
3.0
 40
3.0
 40
3.0
 40
3.0
 10
16104.41318193018
 20
-2761.30557853988
 30
0.0
 10
16104.41318193018
 20
-2761.30557853988
 30
0.0
 10
16104.57016814481
 20
-2761.414586945099
 30
0.0
 10
16104.57016814481
 20
-2761.414586945099
 30
0.0
 10
16104.57016814481
 20
-2761.414586945099
 30
0.0
 10
16104.41124165112
 20
-2761.175668037545
 30
0.0
 10
16103.92740660984
 20
-2761.836421251053
 30
0.0
 10
16103.92740660984
 20
-2761.836421251053
 30
0.0
 10
16098.53228430205
 20
-2769.159828163765
 30
0.0
 10
16098.53228430205
 20
-2769.159828163765
 30
0.0
  0
POLYLINE
  5
3531BD
330
18
100
AcDbEntity
  8
姿図
100
AcDb2dPolyline
 66
     1
 10
0.0
 20
0.0
 30
0.0
  0
VERTEX
  5
3531BE
330
3531BD
100
AcDbEntity
  8
姿図
100
AcDbVertex
100
AcDb2dVertex
 10
16097.62661495481
 20
-2769.517721455332
 30
0.0
  0
VERTEX
  5
3531BF
330
3531BD
100
AcDbEntity
  8
姿図
100
AcDbVertex
100
AcDb2dVertex
 10
16097.80353312704
 20
-2768.101846910531
 30
0.0
  0
VERTEX
  5
3531C0
330
3531BD
100
AcDbEntity
  8
姿図
100
AcDbVertex
100
AcDb2dVertex
 10
16097.29297515146
 20
-2768.101846910531
 30
0.0
  0
SEQEND
  5
3531C1
330
3531BD
100
AcDbEntity
  8
姿図
  0
POLYLINE
  5
3531C2
330
18
100
AcDbEntity
  8
姿図
100
AcDb2dPolyline
 66
     1
 10
0.0
 20
0.0
 30
0.0
  0
VERTEX
  5
3531C3
330
3531C2
100
AcDbEntity
  8
姿図
100
AcDbVertex
100
AcDb2dVertex
 10
16097.58057742445
 20
-2768.667614644733
 30
0.0
  0
VERTEX
  5
3531C4
330
3531C2
100
AcDbEntity
  8
姿図
100
AcDbVertex
100
AcDb2dVertex
 10
16097.73297752495
 20
-2768.667614644733
 30
0.0
  0
SEQEND
  5
3531C5
330
3531C2
100
AcDbEntity
  8
姿図
  0
SPLINE
  5
3531C6
330
18
100
AcDbEntity
  8
姿図
100
AcDbSpline
210
0.0
220
0.0
230
1.0
 70
     8
 71
     3
 72
    32
 73
    28
 74
     0
 42
0.000000001
 43
0.0000000001
 40
0.0
 40
0.0
 40
0.0
 40
0.0
 40
1.0
 40
1.0
 40
1.0
 40
2.0
 40
2.0
 40
2.0
 40
3.0
 40
3.0
 40
3.0
 40
4.0
 40
4.0
 40
4.0
 40
5.0
 40
5.0
 40
5.0
 40
6.0
 40
6.0
 40
6.0
 40
7.0
 40
7.0
 40
7.0
 40
8.0
 40
8.0
 40
8.0
 40
9.0
 40
9.0
 40
9.0
 40
9.0
 10
16102.31256526716
 20
-2764.926492038782
 30
0.0
 10
16102.31256526716
 20
-2764.926492038782
 30
0.0
 10
16105.39055340803
 20
-2765.647570292071
 30
0.0
 10
16105.39055340803
 20
-2765.647570292071
 30
0.0
 10
16105.39055340803
 20
-2765.647570292071
 30
0.0
 10
16105.66183969804
 20
-2765.801028726602
 30
0.0
 10
16105.39055340803
 20
-2766.23759151449
 30
0.0
 10
16105.39055340803
 20
-2766.23759151449
 30
0.0
 10
16101.29621181915
 20
-2772.573749165057
 30
0.0
 10
16101.29621181915
 20
-2772.573749165057
 30
0.0
 10
16101.29621181915
 20
-2772.573749165057
 30
0.0
 10
16099.868519211
 20
-2774.107627954343
 30
0.0
 10
16099.868519211
 20
-2774.107627954343
 30
0.0
 10
16099.868519211
 20
-2774.107627954343
 30
0.0
 10
16099.77406289871
 20
-2774.166630076585
 30
0.0
 10
16099.5263245409
 20
-2774.107627954343
 30
0.0
 10
16099.5263245409
 20
-2774.107627954343
 30
0.0
 10
16099.05439575747
 20
-2773.965987583161
 30
0.0
 10
16099.05439575747
 20
-2773.965987583161
 30
0.0
 10
16099.05439575747
 20
-2773.965987583161
 30
0.0
 10
16098.85375326404
 20
-2773.930533393114
 30
0.0
 10
16098.84193520069
 20
-2773.741797157542
 30
0.0
 10
16098.84193520069
 20
-2773.741797157542
 30
0.0
 10
16098.90093732293
 20
-2772.668029088341
 30
0.0
 10
16098.90093732293
 20
-2772.668029088341
 30
0.0
 10
16098.90093732293
 20
-2772.668029088341
 30
0.0
 10
16098.59119822979
 20
-2772.668029088341
 30
0.0
 10
16098.59119822979
 20
-2772.668029088341
 30
0.0
  0
POLYLINE
  5
3531C7
330
18
100
AcDbEntity
  8
姿図
100
AcDb2dPolyline
 66
     1
 10
0.0
 20
0.0
 30
0.0
  0
VERTEX
  5
3531C8
330
3531C7
100
AcDbEntity
  8
姿図
100
AcDbVertex
100
AcDb2dVertex
 10
16098.5711780777
 20
-2772.160734309364
 30
0.0
  0
VERTEX
  5
3531C9
330
3531C7
100
AcDbEntity
  8
姿図
100
AcDbVertex
100
AcDb2dVertex
 10
16098.94812138183
 20
-2772.160734309364
 30
0.0
  0
VERTEX
  5
3531CA
330
3531C7
100
AcDbEntity
  8
姿図
100
AcDbVertex
100
AcDb2dVertex
 10
16098.90093732293
 20
-2772.668029088341
 30
0.0
  0
SEQEND
  5
3531CB
330
3531C7
100
AcDbEntity
  8
姿図
  0
SPLINE
  5
3531CC
330
18
100
AcDbEntity
  8
姿図
100
AcDbSpline
210
0.0
220
0.0
230
1.0
 70
     8
 71
     3
 72
    14
 73
    10
 74
     0
 42
0.000000001
 43
0.0000000001
 40
0.0
 40
0.0
 40
0.0
 40
0.0
 40
1.0
 40
1.0
 40
1.0
 40
2.0
 40
2.0
 40
2.0
 40
3.0
 40
3.0
 40
3.0
 40
3.0
 10
16098.84193520069
 20
-2773.741797157542
 30
0.0
 10
16098.84193520069
 20
-2773.741797157542
 30
0.0
 10
16098.88911925959
 20
-2773.541242858621
 30
0.0
 10
16099.06612562631
 20
-2773.588426917514
 30
0.0
 10
16099.06612562631
 20
-2773.588426917514
 30
0.0
 10
16099.79769902541
 20
-2773.800887474286
 30
0.0
 10
16099.79769902541
 20
-2773.800887474286
 30
0.0
 10
16099.79769902541
 20
-2773.800887474286
 30
0.0
 10
16099.96288732879
 20
-2773.930533393114
 30
0.0
 10
16099.868519211
 20
-2774.107627954343
 30
0.0
  0
POLYLINE
  5
3531CD
330
18
100
AcDbEntity
  8
姿図
100
AcDb2dPolyline
 66
     1
 10
0.0
 20
0.0
 30
0.0
  0
VERTEX
  5
3531CE
330
3531CD
100
AcDbEntity
  8
姿図
100
AcDbVertex
100
AcDb2dVertex
 10
16105.46798818132
 20
-2765.728885623472
 30
0.0
  0
VERTEX
  5
3531CF
330
3531CD
100
AcDbEntity
  8
姿図
100
AcDbVertex
100
AcDb2dVertex
 10
16100.98938314459
 20
-2772.414381698853
 30
0.0
  0
VERTEX
  5
3531D0
330
3531CD
100
AcDbEntity
  8
姿図
100
AcDbVertex
100
AcDb2dVertex
 10
16099.79769902541
 20
-2773.800887474286
 30
0.0
  0
SEQEND
  5
3531D1
330
3531CD
100
AcDbEntity
  8
姿図
  0
SPLINE
  5
3531D2
330
18
100
AcDbEntity
  8
姿図
100
AcDbSpline
210
0.0
220
0.0
230
1.0
 70
     8
 71
     3
 72
     8
 73
     4
 74
     0
 42
0.000000001
 43
0.0000000001
 40
1.0
 40
1.0
 40
1.0
 40
1.0
 40
2.0
 40
2.0
 40
2.0
 40
2.0
 10
16098.94812138183
 20
-2778.02981387414
 30
0.0
 10
16098.94812138183
 20
-2778.02981387414
 30
0.0
 10
16099.12512774855
 20
-2777.918688800859
 30
0.0
 10
16098.94812138183
 20
-2777.741770628635
 30
0.0
  0
SPLINE
  5
3531D3
330
18
100
AcDbEntity
  8
姿図
100
AcDbSpline
210
0.0
220
0.0
230
1.0
 70
     8
 71
     3
 72
     8
 73
     4
 74
     0
 42
0.000000001
 43
0.0000000001
 40
2.0
 40
2.0
 40
2.0
 40
2.0
 40
3.0
 40
3.0
 40
3.0
 40
3.0
 10
16098.94812138183
 20
-2777.741770628635
 30
0.0
 10
16098.7711150151
 20
-2777.564676067408
 30
0.0
 10
16098.33464042172
 20
-2777.281571714049
 30
0.0
 10
16098.33464042172
 20
-2777.281571714049
 30
0.0
  0
SPLINE
  5
3531D4
330
18
100
AcDbEntity
  8
姿図
100
AcDbSpline
210
0.0
220
0.0
230
1.0
 70
     8
 71
     3
 72
     8
 73
     4
 74
     0
 42
0.000000001
 43
0.0000000001
 40
3.0
 40
3.0
 40
3.0
 40
3.0
 40
4.0
 40
4.0
 40
4.0
 40
4.0
 10
16098.33464042172
 20
-2777.281571714049
 30
0.0
 10
16098.19300005053
 20
-2777.187203596262
 30
0.0
 10
16098.14343474007
 20
-2777.305207840747
 30
0.0
 10
16098.14343474007
 20
-2777.305207840747
 30
0.0
  0
SPLINE
  5
3531D5
330
18
100
AcDbEntity
  8
姿図
100
AcDbSpline
210
0.0
220
0.0
230
1.0
 70
     8
 71
     3
 72
     8
 73
     4
 74
     0
 42
0.000000001
 43
0.0000000001
 40
4.0
 40
4.0
 40
4.0
 40
4.0
 40
5.0
 40
5.0
 40
5.0
 40
5.0
 10
16098.14343474007
 20
-2777.305207840747
 30
0.0
 10
16097.97586518512
 20
-2777.470307949621
 30
0.0
 10
16098.14343474007
 20
-2777.557091340183
 30
0.0
 10
16098.14343474007
 20
-2777.557091340183
 30
0.0
  0
SPLINE
  5
3531D6
330
18
100
AcDbEntity
  8
姿図
100
AcDbSpline
210
0.0
220
0.0
230
1.0
 70
    24
 71
     3
 72
     8
 73
     4
 74
     0
 42
0.000000001
 43
0.0000000001
 40
5.0
 40
5.0
 40
5.0
 40
5.0
 40
6.0
 40
6.0
 40
6.0
 40
6.0
 10
16098.14343474007
 20
-2777.557091340183
 30
0.0
 10
16098.14343474007
 20
-2777.557091340183
 30
0.0
 10
16098.64138090177
 20
-2777.930506864208
 30
0.0
 10
16098.64138090177
 20
-2777.930506864208
 30
0.0
  0
SPLINE
  5
3531D7
330
18
100
AcDbEntity
  8
姿図
100
AcDbSpline
210
0.0
220
0.0
230
1.0
 70
     8
 71
     3
 72
     8
 73
     4
 74
     0
 42
0.000000001
 43
0.0000000001
 40
6.0
 40
6.0
 40
6.0
 40
6.0
 40
7.0
 40
7.0
 40
7.0
 40
7.0
 10
16098.64138090177
 20
-2777.930506864208
 30
0.0
 10
16098.93630331848
 20
-2778.166515353176
 30
0.0
 10
16099.1133096852
 20
-2777.930506864208
 30
0.0
 10
16099.1133096852
 20
-2777.930506864208
 30
0.0
  0
SPLINE
  5
3531D8
330
18
100
AcDbEntity
  8
姿図
100
AcDbSpline
210
0.0
220
0.0
230
1.0
 70
    24
 71
     3
 72
     8
 73
     4
 74
     0
 42
0.000000001
 43
0.0000000001
 40
7.0
 40
7.0
 40
7.0
 40
7.0
 40
8.0
 40
8.0
 40
8.0
 40
8.0
 10
16099.1133096852
 20
-2777.930506864208
 30
0.0
 10
16099.1133096852
 20
-2777.930506864208
 30
0.0
 10
16100.26971600335
 20
-2776.718185231416
 30
0.0
 10
16100.26971600335
 20
-2776.718185231416
 30
0.0
  0
SPLINE
  5
3531D9
330
18
100
AcDbEntity
  8
姿図
100
AcDbSpline
210
0.0
220
0.0
230
1.0
 70
    24
 71
     3
 72
     8
 73
     4
 74
     0
 42
0.000000001
 43
0.0000000001
 40
8.0
 40
8.0
 40
8.0
 40
8.0
 40
9.0
 40
9.0
 40
9.0
 40
9.0
 10
16100.26971600335
 20
-2776.718185231416
 30
0.0
 10
16100.26971600335
 20
-2776.718185231416
 30
0.0
 10
16104.6172640092
 20
-2769.836279998737
 30
0.0
 10
16104.6172640092
 20
-2769.836279998737
 30
0.0
  0
SPLINE
  5
3531DA
330
18
100
AcDbEntity
  8
姿図
100
AcDbSpline
210
0.0
220
0.0
230
1.0
 70
     8
 71
     3
 72
     8
 73
     4
 74
     0
 42
0.000000001
 43
0.0000000001
 40
9.0
 40
9.0
 40
9.0
 40
9.0
 40
10.0
 40
10.0
 40
10.0
 40
10.0
 10
16104.6172640092
 20
-2769.836279998737
 30
0.0
 10
16104.7763668919
 20
-2769.588541640924
 30
0.0
 10
16104.57016814481
 20
-2769.446901269742
 30
0.0
 10
16104.57016814481
 20
-2769.446901269742
 30
0.0
  0
SPLINE
  5
3531DB
330
18
100
AcDbEntity
  8
姿図
100
AcDbSpline
210
0.0
220
0.0
230
1.0
 70
    24
 71
     3
 72
     8
 73
     4
 74
     0
 42
0.000000001
 43
0.0000000001
 40
10.0
 40
10.0
 40
10.0
 40
10.0
 40
11.0
 40
11.0
 40
11.0
 40
11.0
 10
16104.57016814481
 20
-2769.446901269742
 30
0.0
 10
16104.57016814481
 20
-2769.446901269742
 30
0.0
 10
16103.69951201511
 20
-2768.854586990254
 30
0.0
 10
16103.69951201511
 20
-2768.854586990254
 30
0.0
  0
POLYLINE
  5
3531DC
330
18
100
AcDbEntity
  8
姿図
100
AcDb2dPolyline
 66
     1
 10
0.0
 20
0.0
 30
0.0
  0
VERTEX
  5
3531DD
330
3531DC
100
AcDbEntity
  8
姿図
100
AcDbVertex
100
AcDb2dVertex
 10
16098.24415286205
 20
-2777.245411967981
 30
0.0
  0
VERTEX
  5
3531DE
330
3531DC
100
AcDbEntity
  8
姿図
100
AcDbVertex
100
AcDb2dVertex
 10
16098.46437453505
 20
-2775.582416426883
 30
0.0
  0
VERTEX
  5
3531DF
330
3531DC
100
AcDbEntity
  8
姿図
100
AcDbVertex
100
AcDb2dVertex
 10
16097.94402696968
 20
-2775.34111626776
 30
0.0
  0
SEQEND
  5
3531E0
330
3531DC
100
AcDbEntity
  8
姿図
  0
POLYLINE
  5
3531E1
330
18
100
AcDbEntity
  8
姿図
100
AcDb2dPolyline
 66
     1
 10
0.0
 20
0.0
 30
0.0
  0
VERTEX
  5
3531E2
330
3531E1
100
AcDbEntity
  8
姿図
100
AcDbVertex
100
AcDb2dVertex
 10
16098.28939664188
 20
-2775.873987452492
 30
0.0
  0
VERTEX
  5
3531E3
330
3531E1
100
AcDbEntity
  8
姿図
100
AcDbVertex
100
AcDb2dVertex
 10
16097.94402696968
 20
-2775.692659555139
 30
0.0
  0
SEQEND
  5
3531E4
330
3531E1
100
AcDbEntity
  8
姿図
  0
POLYLINE
  5
3531E5
330
18
100
AcDbEntity
  8
姿図
100
AcDb2dPolyline
 66
     1
 10
0.0
 20
0.0
 30
0.0
  0
VERTEX
  5
3531E6
330
3531E5
100
AcDbEntity
  8
姿図
100
AcDbVertex
100
AcDb2dVertex
 10
16098.06891038537
 20
-2777.451963493079
 30
0.0
  0
VERTEX
  5
3531E7
330
3531E5
100
AcDbEntity
  8
姿図
100
AcDbVertex
100
AcDb2dVertex
 10
16098.28939664188
 20
-2775.873987452492
 30
0.0
  0
VERTEX
  5
3531E8
330
3531E5
100
AcDbEntity
  8
姿図
100
AcDbVertex
100
AcDb2dVertex
 10
16098.46437453505
 20
-2775.582416426883
 30
0.0
  0
SEQEND
  5
3531E9
330
3531E5
100
AcDbEntity
  8
姿図
  0
SPLINE
  5
3531EA
330
18
100
AcDbEntity
  8
姿図
100
AcDbSpline
210
0.0
220
0.0
230
1.0
 70
     8
 71
     3
 72
    14
 73
    10
 74
     0
 42
0.000000001
 43
0.0000000001
 40
0.0
 40
0.0
 40
0.0
 40
0.0
 40
1.0
 40
1.0
 40
1.0
 40
2.0
 40
2.0
 40
2.0
 40
3.0
 40
3.0
 40
3.0
 40
3.0
 10
16096.11637229222
 20
-2780.395895989996
 30
0.0
 10
16096.11637229222
 20
-2780.395895989996
 30
0.0
 10
16096.44877737254
 20
-2780.699461467958
 30
0.0
 10
16096.63654346858
 20
-2780.506668285265
 30
0.0
 10
16096.63654346858
 20
-2780.506668285265
 30
0.0
 10
16097.63843301816
 20
-2779.440749526796
 30
0.0
 10
16097.63843301816
 20
-2779.440749526796
 30
0.0
 10
16097.63843301816
 20
-2779.440749526796
 30
0.0
 10
16098.69482677035
 20
-2777.968959667343
 30
0.0
 10
16098.69482677035
 20
-2777.968959667343
 30
0.0
  0
SPLINE
  5
3531EB
330
18
100
AcDbEntity
  8
姿図
100
AcDbSpline
210
0.0
220
0.0
230
1.0
 70
     8
 71
     3
 72
     8
 73
     4
 74
     0
 42
0.000000001
 43
0.0000000001
 40
0.0
 40
0.0
 40
0.0
 40
0.0
 40
1.0
 40
1.0
 40
1.0
 40
1.0
 10
16096.52568297881
 20
-2780.573519718239
 30
0.0
 10
16096.52568297881
 20
-2780.573519718239
 30
0.0
 10
16096.83939082457
 20
-2780.465216869042
 30
0.0
 10
16096.379897466
 20
-2780.17858473558
 30
0.0
  0
POLYLINE
  5
3531EC
330
18
100
AcDbEntity
  8
姿図
100
AcDb2dPolyline
 66
     1
 10
0.0
 20
0.0
 30
0.0
  0
VERTEX
  5
3531ED
330
3531EC
100
AcDbEntity
  8
姿図
100
AcDbVertex
100
AcDb2dVertex
 10
16093.49302681228
 20
-2758.07801252259
 30
0.0
  0
VERTEX
  5
3531EE
330
3531EC
100
AcDbEntity
  8
姿図
100
AcDbVertex
100
AcDb2dVertex
 10
16093.49302681228
 20
-2758.07801252259
 30
0.0
  0
SEQEND
  5
3531EF
330
3531EC
100
AcDbEntity
  8
姿図
  0
SPLINE
  5
3531F0
330
18
100
AcDbEntity
  8
姿図
100
AcDbSpline
210
0.0
220
0.0
230
1.0
 70
     8
 71
     3
 72
    14
 73
    10
 74
     0
 42
0.000000001
 43
0.0000000001
 40
0.0478849985969701
 40
0.0478849985969701
 40
0.0478849985969701
 40
0.0478849985969701
 40
1.0
 40
1.0
 40
1.0
 40
2.0
 40
2.0
 40
2.0
 40
3.0
 40
3.0
 40
3.0
 40
3.0
 10
16093.59941784455
 20
-2757.959281449006
 30
0.0
 10
16093.06262486158
 20
-2757.690593334753
 30
0.0
 10
16092.3082187417
 20
-2757.455319646428
 30
0.0
 10
16091.75577149998
 20
-2757.328271055956
 30
0.0
 10
16091.75577149998
 20
-2757.328271055956
 30
0.0
 10
16091.38491361654
 20
-2757.317334937633
 30
0.0
 10
16091.38491361654
 20
-2756.798222095307
 30
0.0
 10
16091.38491361654
 20
-2756.798222095307
 30
0.0
 10
16088.11721910056
 20
-2760.382446681127
 30
0.0
 10
16088.11721910056
 20
-2760.382446681127
 30
0.0
  0
SPLINE
  5
3531F1
330
18
100
AcDbEntity
  8
姿図
100
AcDbSpline
210
0.0
220
0.0
230
1.0
 70
     8
 71
     3
 72
    14
 73
    10
 74
     0
 42
0.000000001
 43
0.0000000001
 40
0.0
 40
0.0
 40
0.0
 40
0.0
 40
1.0
 40
1.0
 40
1.0
 40
2.0
 40
2.0
 40
2.0
 40
3.0
 40
3.0
 40
3.0
 40
3.0
 10
16091.94759454315
 20
-2759.863422033302
 30
0.0
 10
16091.91699105074
 20
-2759.607305197742
 30
0.0
 10
16091.78796249343
 20
-2759.350218222651
 30
0.0
 10
16091.56791720944
 20
-2759.152574342315
 30
0.0
 10
16091.12782664144
 20
-2758.757462970651
 30
0.0
 10
16090.48982760961
 20
-2758.750495604945
 30
0.0
 10
16090.14295863087
 20
-2759.136875720853
 30
0.0
 10
16090.14295863087
 20
-2759.136875720853
 30
0.0
 10
16088.72964172664
 20
-2760.604167660672
 30
0.0
 10
16088.72964172664
 20
-2760.604167660672
 30
0.0
  0
SPLINE
  5
3531F2
330
18
100
AcDbEntity
  8
姿図
100
AcDbSpline
210
0.0
220
0.0
230
1.0
 70
     8
 71
     3
 72
    14
 73
    10
 74
     0
 42
0.000000001
 43
0.0000000001
 40
0.0
 40
0.0
 40
0.0
 40
0.0
 40
1.0
 40
1.0
 40
1.0
 40
2.0
 40
2.0
 40
2.0
 40
3.0
 40
3.0
 40
3.0
 40
3.0
 10
16091.54454566625
 20
-2760.288519535852
 30
0.0
 10
16091.49295188222
 20
-2760.190447248957
 30
0.0
 10
16091.42230808564
 20
-2760.098195799234
 30
0.0
 10
16091.33314344351
 20
-2760.018026996367
 30
0.0
 10
16090.97622029147
 20
-2759.697616368407
 30
0.0
 10
16090.45878314469
 20
-2759.691971920241
 30
0.0
 10
16090.17744268139
 20
-2760.005326987992
 30
0.0
 10
16090.17744268139
 20
-2760.005326987992
 30
0.0
 10
16089.4463102548
 20
-2760.90420535853
 30
0.0
 10
16089.4463102548
 20
-2760.90420535853
 30
0.0
  0
SPLINE
  5
3531F3
330
18
100
AcDbEntity
  8
姿図
100
AcDbSpline
210
0.0
220
0.0
230
1.0
 70
     8
 71
     3
 72
    11
 73
     7
 74
     0
 42
0.000000001
 43
0.0000000001
 40
0.0
 40
0.0
 40
0.0
 40
0.0
 40
1.0
 40
1.0
 40
1.0
 40
2.0
 40
2.0
 40
2.0
 40
2.0
 10
16086.12966778988
 20
-2786.854026637662
 30
0.0
 10
16086.12966778988
 20
-2786.854026637662
 30
0.0
 10
16088.11254479192
 20
-2782.457530682862
 30
0.0
 10
16088.11254479192
 20
-2782.457530682862
 30
0.0
 10
16088.11254479192
 20
-2782.457530682862
 30
0.0
 10
16088.19915179348
 20
-2782.080058211717
 30
0.0
 10
16088.64038889001
 20
-2782.457530682862
 30
0.0
  0
SPLINE
  5
3531F4
330
18
100
AcDbEntity
  8
姿図
100
AcDbSpline
210
0.0
220
0.0
230
1.0
 70
     8
 71
     3
 72
     8
 73
     4
 74
     0
 42
0.000000001
 43
0.0000000001
 40
0.0
 40
0.0
 40
0.0
 40
0.0
 40
1.0
 40
1.0
 40
1.0
 40
1.0
 10
16085.14612269684
 20
-2785.030164323814
 30
0.0
 10
16085.63701329834
 20
-2784.133226232335
 30
0.0
 10
16086.55123751233
 20
-2781.996097045238
 30
0.0
 10
16087.12000385962
 20
-2777.800331778364
 30
0.0
  0
SPLINE
  5
3531F5
330
18
100
AcDbEntity
  8
姿図
100
AcDbSpline
210
0.0
220
0.0
230
1.0
 70
     8
 71
     3
 72
     8
 73
     4
 74
     0
 42
0.000000001
 43
0.0000000001
 40
0.0
 40
0.0
 40
0.0
 40
0.0
 40
1.0
 40
1.0
 40
1.0
 40
1.0
 10
16072.21160513947
 20
-2774.856311086946
 30
0.0
 10
16072.96690285977
 20
-2774.247328046467
 30
0.0
 10
16075.07228202593
 20
-2772.710803422104
 30
0.0
 10
16078.62555034133
 20
-2771.308510830703
 30
0.0
  0
SPLINE
  5
3531F6
330
18
100
AcDbEntity
  8
姿図
100
AcDbSpline
210
0.0
220
0.0
230
1.0
 70
     8
 71
     3
 72
     8
 73
     4
 74
     0
 42
0.000000001
 43
0.0000000001
 40
0.0
 40
0.0
 40
0.0
 40
0.0
 40
1.0
 40
1.0
 40
1.0
 40
1.0
 10
16087.15616360569
 20
-2789.703238238782
 30
0.0
 10
16087.87159741081
 20
-2792.583141526806
 30
0.0
 10
16087.62703405509
 20
-2795.129493205984
 30
0.0
 10
16086.03115453047
 20
-2797.038375020341
 30
0.0
  0
SPLINE
  5
3531F7
330
18
100
AcDbEntity
  8
姿図
100
AcDbSpline
210
0.0
220
0.0
230
1.0
 70
     8
 71
     3
 72
    11
 73
     7
 74
     0
 42
0.000000001
 43
0.0000000001
 40
0.0
 40
0.0
 40
0.0
 40
0.0
 40
1.0
 40
1.0
 40
1.0
 40
2.0
 40
2.0
 40
2.0
 40
2.0
 10
16069.30153933155
 20
-2774.229424562438
 30
0.0
 10
16072.74465271321
 20
-2774.638382471013
 30
0.0
 10
16076.63314833301
 20
-2776.352354434615
 30
0.0
 10
16080.10219089843
 20
-2779.25254245824
 30
0.0
 10
16082.88305176003
 20
-2781.577525935882
 30
0.0
 10
16084.96135521389
 20
-2784.302736066338
 30
0.0
 10
16086.1980185294
 20
-2787.000782289995
 30
0.0
  0
SPLINE
  5
3531F8
330
18
100
AcDbEntity
  8
姿図
100
AcDbSpline
210
0.0
220
0.0
230
1.0
 70
     8
 71
     3
 72
     8
 73
     4
 74
     0
 42
0.000000001
 43
0.0000000001
 40
0.0
 40
0.0
 40
0.0
 40
0.0
 40
1.0
 40
1.0
 40
1.0
 40
1.0
 10
16066.39923463987
 20
-2774.210550938881
 30
0.0
 10
16066.79478698405
 20
-2774.163543268994
 30
0.0
 10
16067.20154003006
 20
-2774.138143252244
 30
0.0
 10
16067.61790627685
 20
-2774.134262694129
 30
0.0
  0
SPLINE
  5
3531F9
330
18
100
AcDbEntity
  8
姿図
100
AcDbSpline
210
0.0
220
0.0
230
1.0
 70
     8
 71
     3
 72
     8
 73
     4
 74
     0
 42
0.000000001
 43
0.0000000001
 40
0.0
 40
0.0
 40
0.0
 40
0.0
 40
1.0
 40
1.0
 40
1.0
 40
1.0
 10
16061.43952859144
 20
-2776.517101765479
 30
0.0
 10
16062.72081832527
 20
-2775.20494395574
 30
0.0
 10
16064.36494024281
 20
-2774.452556654027
 30
0.0
 10
16066.39923463987
 20
-2774.210550938881
 30
0.0
  0
SPLINE
  5
3531FA
330
18
100
AcDbEntity
  8
姿図
100
AcDbSpline
210
0.0
220
0.0
230
1.0
 70
     8
 71
     3
 72
    11
 73
     7
 74
     0
 42
0.000000001
 43
0.0000000001
 40
0.0
 40
0.0
 40
0.0
 40
0.0
 40
1.0
 40
1.0
 40
1.0
 40
2.0
 40
2.0
 40
2.0
 40
2.0
 10
16076.24038462954
 20
-2769.925027315448
 30
0.0
 10
16076.24038462954
 20
-2769.925027315448
 30
0.0
 10
16070.87519384151
 20
-2773.804768032401
 30
0.0
 10
16070.87519384151
 20
-2773.804768032401
 30
0.0
 10
16070.87519384151
 20
-2773.804768032401
 30
0.0
 10
16069.80953966655
 20
-2774.281194735468
 30
0.0
 10
16069.30162752606
 20
-2774.229865534951
 30
0.0
  0
SPLINE
  5
3531FB
330
18
100
AcDbEntity
  8
姿図
100
AcDbSpline
210
0.0
220
0.0
230
1.0
 70
     8
 71
     3
 72
     8
 73
     4
 74
     0
 42
0.000000001
 43
0.0000000001
 40
0.0
 40
0.0
 40
0.0
 40
0.0
 40
1.0
 40
1.0
 40
1.0
 40
1.0
 10
16086.85400923977
 20
-2787.085449012495
 30
0.0
 10
16086.85400923977
 20
-2787.085449012495
 30
0.0
 10
16086.71492650916
 20
-2787.705985532815
 30
0.0
 10
16086.88990440233
 20
-2788.674713949415
 30
0.0
  0
SPLINE
  5
3531FC
330
18
100
AcDbEntity
  8
姿図
100
AcDbSpline
210
0.0
220
0.0
230
1.0
 70
     8
 71
     3
 72
    17
 73
    13
 74
     0
 42
0.000000001
 43
0.0000000001
 40
0.0443867095866921
 40
0.0443867095866921
 40
0.0443867095866921
 40
0.0443867095866921
 40
1.0
 40
1.0
 40
1.0
 40
2.0
 40
2.0
 40
2.0
 40
3.0
 40
3.0
 40
3.0
 40
4.0
 40
4.0
 40
4.0
 40
4.0
 10
16054.42526383074
 20
-2786.342087818802
 30
0.0
 10
16054.42047096486
 20
-2784.837061584442
 30
0.0
 10
16054.82785387717
 20
-2783.507617411499
 30
0.0
 10
16055.6937449413
 20
-2782.471818192284
 30
0.0
 10
16058.91011025676
 20
-2778.624421210695
 30
0.0
 10
16067.23567130256
 20
-2780.287063973782
 30
0.0
 10
16074.28990859333
 20
-2786.184453973894
 30
0.0
 10
16081.34388130059
 20
-2792.082020363012
 30
0.0
 10
16084.45494237994
 20
-2799.981249183225
 30
0.0
 10
16081.23848886998
 20
-2803.828646164814
 30
0.0
 10
16080.37453552247
 20
-2804.861932957321
 30
0.0
 10
16079.14192915408
 20
-2805.497815321094
 30
0.0
 10
16077.66449484646
 20
-2805.760987716864
 30
0.0
  0
SPLINE
  5
3531FD
330
18
100
AcDbEntity
  8
姿図
100
AcDbSpline
210
0.0
220
0.0
230
1.0
 70
     8
 71
     3
 72
    11
 73
     7
 74
     0
 42
0.000000001
 43
0.0000000001
 40
0.0
 40
0.0
 40
0.0
 40
0.0
 40
1.0
 40
1.0
 40
1.0
 40
2.0
 40
2.0
 40
2.0
 40
2.0
 10
16056.08867992396
 20
-2784.169033200392
 30
0.0
 10
16058.89485260781
 20
-2780.85062684542
 30
0.0
 10
16066.40875964615
 20
-2782.59158632682
 30
0.0
 10
16072.87182918596
 20
-2788.057176042183
 30
0.0
 10
16079.33463414227
 20
-2793.522765757547
 30
0.0
 10
16082.29911595829
 20
-2800.643413508775
 30
0.0
 10
16079.49250230193
 20
-2803.961819863745
 30
0.0
  0
SPLINE
  5
3531FE
330
18
100
AcDbEntity
  8
姿図
100
AcDbSpline
210
0.0
220
0.0
230
1.0
 70
    11
 71
     3
 72
    17
 73
    13
 74
     0
 42
0.000000001
 43
0.0000000001
 40
0.0
 40
0.0
 40
0.0
 40
0.0
 40
1.0
 40
1.0
 40
1.0
 40
2.0
 40
2.0
 40
2.0
 40
3.0
 40
3.0
 40
3.0
 40
4.0
 40
4.0
 40
4.0
 40
4.0
 10
16071.81644647038
 20
-2812.182816665245
 30
0.0
 10
16069.1581759674
 20
-2815.44477853855
 30
0.0
 10
16061.87710241594
 20
-2813.910899749264
 30
0.0
 10
16055.55293921772
 20
-2808.757165795108
 30
0.0
 10
16049.22912879752
 20
-2803.603079062941
 30
0.0
 10
16046.25741503229
 20
-2796.78105789753
 30
0.0
 10
16048.91568553527
 20
-2793.51927241323
 30
0.0
 10
16051.57404423275
 20
-2790.257486928931
 30
0.0
 10
16058.85529417322
 20
-2791.791189329211
 30
0.0
 10
16065.17945737143
 20
-2796.944923283368
 30
0.0
 10
16071.50326779164
 20
-2802.09883362653
 30
0.0
 10
16074.47515794588
 20
-2808.92085479194
 30
0.0
 10
16071.81644647038
 20
-2812.182816665245
 30
0.0
  0
POLYLINE
  5
3531FF
330
18
100
AcDbEntity
  8
姿図
100
AcDb2dPolyline
 66
     1
 10
0.0
 20
0.0
 30
0.0
  0
VERTEX
  5
353200
330
3531FF
100
AcDbEntity
  8
姿図
100
AcDbVertex
100
AcDb2dVertex
 10
16057.67344694125
 20
-2780.065519383241
 30
0.0
  0
VERTEX
  5
353201
330
3531FF
100
AcDbEntity
  8
姿図
100
AcDbVertex
100
AcDb2dVertex
 10
16061.43952859144
 20
-2776.517101765479
 30
0.0
  0
SEQEND
  5
353202
330
3531FF
100
AcDbEntity
  8
姿図
  0
SPLINE
  5
353203
330
18
100
AcDbEntity
  8
姿図
100
AcDbSpline
210
0.0
220
0.0
230
1.0
 70
     8
 71
     3
 72
    17
 73
    13
 74
     0
 42
0.000000001
 43
0.0000000001
 40
0.0
 40
0.0
 40
0.0
 40
0.0
 40
1.0
 40
1.0
 40
1.0
 40
2.0
 40
2.0
 40
2.0
 40
3.0
 40
3.0
 40
3.0
 40
4.0
 40
4.0
 40
4.0
 40
4.0
 10
16081.23848886998
 20
-2803.828646164814
 30
0.0
 10
16081.23848886998
 20
-2803.828646164814
 30
0.0
 10
16082.97900737886
 20
-2801.638600276156
 30
0.0
 10
16082.97900737886
 20
-2801.638600276156
 30
0.0
 10
16086.31575819038
 20
-2797.647799033333
 30
0.0
 10
16083.30762009556
 20
-2789.636915972824
 30
0.0
 10
16076.26114392103
 20
-2783.745346809883
 30
0.0
 10
16069.21413857947
 20
-2777.853954035947
 30
0.0
 10
16060.79694344547
 20
-2776.312843297449
 30
0.0
 10
16057.46063360647
 20
-2780.303820929276
 30
0.0
 10
16057.46063360647
 20
-2780.303820929276
 30
0.0
 10
16055.99228333262
 20
-2782.14549853265
 30
0.0
 10
16055.99228333262
 20
-2782.14549853265
 30
0.0
  0
SPLINE
  5
353204
330
18
100
AcDbEntity
  8
姿図
100
AcDbSpline
210
0.0
220
0.0
230
1.0
 70
     8
 71
     3
 72
    14
 73
    10
 74
     0
 42
0.000000001
 43
0.0000000001
 40
0.0
 40
0.0
 40
0.0
 40
0.0
 40
1.0
 40
1.0
 40
1.0
 40
2.0
 40
2.0
 40
2.0
 40
3.0
 40
3.0
 40
3.0
 40
3.0
 10
16083.55447650835
 20
-2800.802163613462
 30
0.0
 10
16083.55447650835
 20
-2800.802163613462
 30
0.0
 10
16085.92655585038
 20
-2797.230109869002
 30
0.0
 10
16085.92655585038
 20
-2797.230109869002
 30
0.0
 10
16088.8263029015
 20
-2792.829556967082
 30
0.0
 10
16086.10585527418
 20
-2785.111303266211
 30
0.0
 10
16079.58369541762
 20
-2779.658060781211
 30
0.0
 10
16073.93563127637
 20
-2774.936127111802
 30
0.0
 10
16067.07162952772
 20
-2773.350301760483
 30
0.0
 10
16062.88494829461
 20
-2775.363782254929
 30
0.0
  0
SPLINE
  5
353205
330
18
100
AcDbEntity
  8
姿図
100
AcDbSpline
210
0.0
220
0.0
230
1.0
 70
    11
 71
     3
 72
    17
 73
    13
 74
     0
 42
0.000000001
 43
0.0000000001
 40
0.0
 40
0.0
 40
0.0
 40
0.0
 40
1.0
 40
1.0
 40
1.0
 40
2.0
 40
2.0
 40
2.0
 40
3.0
 40
3.0
 40
3.0
 40
4.0
 40
4.0
 40
4.0
 40
4.0
 10
16071.56800255655
 20
-2812.126548572585
 30
0.0
 10
16069.03144046716
 20
-2815.239285347483
 30
0.0
 10
16061.92807883844
 20
-2813.648962076531
 30
0.0
 10
16055.70163514911
 20
-2808.574779563723
 30
0.0
 10
16049.4754560433
 20
-2803.50042066191
 30
0.0
 10
16046.48433948749
 20
-2796.863784340972
 30
0.0
 10
16049.02090157687
 20
-2793.751223955078
 30
0.0
 10
16051.55755186077
 20
-2790.63883995819
 30
0.0
 10
16058.66108987849
 20
-2792.228810451131
 30
0.0
 10
16064.88753356781
 20
-2797.303169352944
 30
0.0
 10
16071.11371267363
 20
-2802.377528254758
 30
0.0
 10
16074.10491742395
 20
-2809.01398818669
 30
0.0
 10
16071.56800255655
 20
-2812.126548572585
 30
0.0
  0
POLYLINE
  5
353206
330
18
100
AcDbEntity
  8
姿図
100
AcDb2dPolyline
 66
     1
 10
0.0
 20
0.0
 30
0.0
  0
VERTEX
  5
353207
330
353206
100
AcDbEntity
  8
姿図
100
AcDbVertex
100
AcDb2dVertex
 10
16056.12404591951
 20
-2784.127229006158
 30
0.0
  0
VERTEX
  5
353208
330
353206
100
AcDbEntity
  8
姿図
100
AcDbVertex
100
AcDb2dVertex
 10
16048.97435719776
 20
-2793.448937292179
 30
0.0
  0
SEQEND
  5
353209
330
353206
100
AcDbEntity
  8
姿図
  0
POLYLINE
  5
35320A
330
18
100
AcDbEntity
  8
姿図
100
AcDb2dPolyline
 66
     1
 10
0.0
 20
0.0
 30
0.0
  0
VERTEX
  5
35320B
330
35320A
100
AcDbEntity
  8
姿図
100
AcDbVertex
100
AcDb2dVertex
 10
16079.49250230193
 20
-2803.961819863745
 30
0.0
  0
VERTEX
  5
35320C
330
35320A
100
AcDbEntity
  8
姿図
100
AcDbVertex
100
AcDb2dVertex
 10
16071.75864421233
 20
-2812.252139048559
 30
0.0
  0
SEQEND
  5
35320D
330
35320A
100
AcDbEntity
  8
姿図
  0
SPLINE
  5
35320E
330
18
100
AcDbEntity
  8
姿図
100
AcDbSpline
210
0.0
220
0.0
230
1.0
 70
     8
 71
     3
 72
    14
 73
    10
 74
     0
 42
0.000000001
 43
0.0000000001
 40
0.0
 40
0.0
 40
0.0
 40
0.0
 40
1.0
 40
1.0
 40
1.0
 40
2.0
 40
2.0
 40
2.0
 40
3.0
 40
3.0
 40
3.0
 40
3.0
 10
16094.30864957235
 20
-2776.358175271787
 30
0.0
 10
16094.30864957235
 20
-2776.358175271787
 30
0.0
 10
16094.15333905327
 20
-2776.333480811058
 30
0.0
 10
16094.15333905327
 20
-2776.333480811058
 30
0.0
 10
16093.56896227902
 20
-2776.333480811058
 30
0.0
 10
16093.09509321653
 20
-2777.323023130272
 30
0.0
 10
16093.09509321653
 20
-2778.543811435315
 30
0.0
 10
16093.09509321653
 20
-2779.409881450884
 30
0.0
 10
16093.33365934607
 20
-2780.159711112022
 30
0.0
 10
16093.68079290832
 20
-2780.522190517723
 30
0.0
  0
SPLINE
  5
35320F
330
18
100
AcDbEntity
  8
姿図
100
AcDbSpline
210
0.0
220
0.0
230
1.0
 70
     8
 71
     3
 72
    11
 73
     7
 74
     0
 42
0.000000001
 43
0.0000000001
 40
0.0514768077159905
 40
0.0514768077159905
 40
0.0514768077159905
 40
0.0514768077159905
 40
1.0
 40
1.0
 40
1.0
 40
1.99935959912693
 40
1.99935959912693
 40
1.99935959912693
 40
1.99935959912693
 10
16071.93601125921
 20
-2810.731464198948
 30
0.0
 10
16068.99496783853
 20
-2813.069882264691
 30
0.0
 10
16062.55839853655
 20
-2811.502700632278
 30
0.0
 10
16056.93221304395
 20
-2806.917428470792
 30
0.0
 10
16051.15679282607
 20
-2802.210505502924
 30
0.0
 10
16048.32356159489
 20
-2796.025045148274
 30
0.0
 10
16050.31379331743
 20
-2792.730088773065
 30
0.0
  0
SPLINE
  5
353210
330
18
100
AcDbEntity
  8
姿図
100
AcDbSpline
210
0.0
220
0.0
230
1.0
 70
     8
 71
     3
 72
    11
 73
     7
 74
     0
 42
0.000000001
 43
0.0000000001
 40
0.0757593931857056
 40
0.0757593931857056
 40
0.0757593931857056
 40
0.0757593931857056
 40
1.0
 40
1.0
 40
1.0
 40
1.955653258244389
 40
1.955653258244389
 40
1.955653258244389
 40
1.955653258244389
 10
16072.13427028867
 20
-2810.362337759497
 30
0.0
 10
16069.09687655263
 20
-2812.446607505279
 30
0.0
 10
16062.84530113307
 20
-2810.844260005505
 30
0.0
 10
16057.36314831274
 20
-2806.376372705105
 30
0.0
 10
16051.84031233481
 20
-2801.875303946194
 30
0.0
 10
16049.00794341215
 20
-2796.022195550434
 30
0.0
 10
16050.51112416908
 20
-2792.637561787734
 30
0.0
  0
SPLINE
  5
353211
330
18
100
AcDbEntity
  8
姿図
100
AcDbSpline
210
0.0
220
0.0
230
1.0
 70
     8
 71
     3
 72
    11
 73
     7
 74
     0
 42
0.000000001
 43
0.0000000001
 40
0.1032501974754412
 40
0.1032501974754412
 40
0.1032501974754412
 40
0.1032501974754412
 40
1.0
 40
1.0
 40
1.0
 40
1.916038734962438
 40
1.916038734962438
 40
1.916038734962438
 40
1.916038734962438
 10
16072.28574484733
 20
-2809.997503606887
 30
0.0
 10
16069.15659623172
 20
-2811.807695432617
 30
0.0
 10
16063.11317411142
 20
-2810.170310473348
 30
0.0
 10
16057.79408358152
 20
-2805.835316939418
 30
0.0
 10
16052.50018473382
 20
-2801.520830177277
 30
0.0
 10
16049.67832117119
 20
-2795.96407223305
 30
0.0
 10
16050.77735880897
 20
-2792.529866747083
 30
0.0
  0
SPLINE
  5
353212
330
18
100
AcDbEntity
  8
姿図
100
AcDbSpline
210
0.0
220
0.0
230
1.0
 70
     8
 71
     3
 72
    11
 73
     7
 74
     0
 42
0.000000001
 43
0.0000000001
 40
0.1323499937987221
 40
0.1323499937987221
 40
0.1323499937987221
 40
0.1323499937987221
 40
1.0
 40
1.0
 40
1.0
 40
1.878224141983641
 40
1.878224141983641
 40
1.878224141983641
 40
1.878224141983641
 10
16072.40297267647
 20
-2809.621806129242
 30
0.0
 10
16069.19607256686
 20
-2811.15753177414
 30
0.0
 10
16063.37150331929
 20
-2809.488582885325
 30
0.0
 10
16058.22501885031
 20
-2805.29426117373
 30
0.0
 10
16053.14965511751
 20
-2801.157878846039
 30
0.0
 10
16050.34644522004
 20
-2795.879671703809
 30
0.0
 10
16051.09213012888
 20
-2792.424723096912
 30
0.0
  0
SPLINE
  5
353213
330
18
100
AcDbEntity
  8
姿図
100
AcDbSpline
210
0.0
220
0.0
230
1.0
 70
     8
 71
     3
 72
    11
 73
     7
 74
     0
 42
0.000000001
 43
0.0000000001
 40
0.1641920493002541
 40
0.1641920493002541
 40
0.1641920493002541
 40
0.1641920493002541
 40
1.0
 40
1.0
 40
1.0
 40
1.841127923927267
 40
1.841127923927267
 40
1.841127923927267
 40
1.841127923927267
 10
16072.47042223082
 20
-2809.236915154645
 30
0.0
 10
16069.20040711293
 20
-2810.490576601983
 30
0.0
 10
16063.6135667585
 20
-2808.79359889538
 30
0.0
 10
16058.6559541191
 20
-2804.753205408043
 30
0.0
 10
16053.79497392547
 20
-2800.791544012579
 30
0.0
 10
16051.01824987788
 20
-2795.782481974439
 30
0.0
 10
16051.44747193933
 20
-2792.331014597031
 30
0.0
  0
SPLINE
  5
353214
330
18
100
AcDbEntity
  8
姿図
100
AcDbSpline
210
0.0
220
0.0
230
1.0
 70
     8
 71
     3
 72
    11
 73
     7
 74
     0
 42
0.000000001
 43
0.0000000001
 40
0.2012469607704792
 40
0.2012469607704792
 40
0.2012469607704792
 40
0.2012469607704792
 40
1.0
 40
1.0
 40
1.0
 40
1.804139848512499
 40
1.804139848512499
 40
1.804139848512499
 40
1.804139848512499
 10
16072.45303196624
 20
-2808.845254025509
 30
0.0
 10
16069.13720248636
 20
-2809.794446355412
 30
0.0
 10
16063.82471003165
 20
-2808.073415349379
 30
0.0
 10
16059.08688938789
 20
-2804.212149642357
 30
0.0
 10
16054.43966776401
 20
-2800.424699833852
 30
0.0
 10
16051.69742498155
 20
-2795.679941555083
 30
0.0
 10
16051.840285962
 20
-2792.254101661393
 30
0.0
  0
SPLINE
  5
353215
330
18
100
AcDbEntity
  8
姿図
100
AcDbSpline
210
0.0
220
0.0
230
1.0
 70
     8
 71
     3
 72
    11
 73
     7
 74
     0
 42
0.000000001
 43
0.0000000001
 40
0.2383717968276542
 40
0.2383717968276542
 40
0.2383717968276542
 40
0.2383717968276542
 40
1.0
 40
1.0
 40
1.0
 40
1.766855141465714
 40
1.766855141465714
 40
1.766855141465714
 40
1.766855141465714
 10
16072.40894128261
 20
-2808.419297504312
 30
0.0
 10
16069.07554592303
 20
-2809.088785298682
 30
0.0
 10
16064.03543854563
 20
-2807.352893779738
 30
0.0
 10
16059.51782465668
 20
-2803.67109387667
 30
0.0
 10
16055.08607587269
 20
-2800.059252772081
 30
0.0
 10
16052.38674895307
 20
-2795.576818205364
 30
0.0
 10
16052.26985907827
 20
-2792.197852195309
 30
0.0
  0
SPLINE
  5
353216
330
18
100
AcDbEntity
  8
姿図
100
AcDbSpline
210
0.0
220
0.0
230
1.0
 70
     8
 71
     3
 72
    11
 73
     7
 74
     0
 42
0.000000001
 43
0.0000000001
 40
0.2759365766446367
 40
0.2759365766446367
 40
0.2759365766446367
 40
0.2759365766446367
 40
1.0
 40
1.0
 40
1.0
 40
1.728960078216898
 40
1.728960078216898
 40
1.728960078216898
 40
1.728960078216898
 10
16072.33446268691
 20
-2807.959803470158
 30
0.0
 10
16069.01057913324
 20
-2808.371761702503
 30
0.0
 10
16064.24355752383
 20
-2806.630245470453
 30
0.0
 10
16059.94875992547
 20
-2803.130038110983
 30
0.0
 10
16055.73601130382
 20
-2799.696680450922
 30
0.0
 10
16053.08869565848
 20
-2795.476646206707
 30
0.0
 10
16052.73693915874
 20
-2792.165569024478
 30
0.0
  0
SPLINE
  5
353217
330
18
100
AcDbEntity
  8
姿図
100
AcDbSpline
210
0.0
220
0.0
230
1.0
 70
     8
 71
     3
 72
    11
 73
     7
 74
     0
 42
0.000000001
 43
0.0000000001
 40
0.3142573428806394
 40
0.3142573428806394
 40
0.3142573428806394
 40
0.3142573428806394
 40
1.0
 40
1.0
 40
1.0
 40
1.690173445998052
 40
1.690173445998052
 40
1.690173445998052
 40
1.690173445998052
 10
16072.22580953639
 20
-2807.466118669753
 30
0.0
 10
16068.93825169476
 20
-2807.641441723808
 30
0.0
 10
16064.44719235251
 20
-2805.903942634312
 30
0.0
 10
16060.37969519426
 20
-2802.588982345296
 30
0.0
 10
16056.39109922006
 20
-2799.33830736542
 30
0.0
 10
16053.80578048442
 20
-2795.38244387773
 30
0.0
 10
16053.24341033961
 20
-2792.160506981344
 30
0.0
  0
SPLINE
  5
353218
330
18
100
AcDbEntity
  8
姿図
100
AcDbSpline
210
0.0
220
0.0
230
1.0
 70
     8
 71
     3
 72
    11
 73
     7
 74
     0
 42
0.000000001
 43
0.0000000001
 40
0.3536413394393382
 40
0.3536413394393382
 40
0.3536413394393382
 40
0.3536413394393382
 40
1.0
 40
1.0
 40
1.0
 40
1.650209421469303
 40
1.650209421469303
 40
1.650209421469303
 40
1.650209421469303
 10
16072.07870460143
 20
-2806.936405857613
 30
0.0
 10
16068.85471748822
 20
-2806.895604447948
 30
0.0
 10
16064.64452060791
 20
-2805.172500018311
 30
0.0
 10
16060.81063046305
 20
-2802.047926579608
 30
0.0
 10
16057.05299142913
 20
-2798.985479726132
 30
0.0
 10
16054.54082306615
 20
-2795.297146853959
 30
0.0
 10
16053.79226457984
 20
-2792.186246386133
 30
0.0
  0
SPLINE
  5
353219
330
18
100
AcDbEntity
  8
姿図
100
AcDbSpline
210
0.0
220
0.0
230
1.0
 70
     8
 71
     3
 72
    11
 73
     7
 74
     0
 42
0.000000001
 43
0.0000000001
 40
0.3944223840632796
 40
0.3944223840632796
 40
0.3944223840632796
 40
0.3944223840632796
 40
1.0
 40
1.0
 40
1.0
 40
1.60874644322287
 40
1.60874644322287
 40
1.60874644322287
 40
1.60874644322287
 10
16071.887966284
 20
-2806.367607014781
 30
0.0
 10
16068.75587845377
 20
-2806.131536269012
 30
0.0
 10
16064.83356224299
 20
-2804.434303908401
 30
0.0
 10
16061.24156573184
 20
-2801.506870813921
 30
0.0
 10
16057.72354627336
 20
-2798.639712067743
 30
0.0
 10
16055.29721814749
 20
-2795.22394598961
 30
0.0
 10
16054.3877840321
 20
-2792.247056657431
 30
0.0
  0
SPLINE
  5
35321A
330
18
100
AcDbEntity
  8
姿図
100
AcDbSpline
210
0.0
220
0.0
230
1.0
 70
     8
 71
     3
 72
    11
 73
     7
 74
     0
 42
0.000000001
 43
0.0000000001
 40
0.4369980186941804
 40
0.4369980186941804
 40
0.4369980186941804
 40
0.4369980186941804
 40
1.0
 40
1.0
 40
1.0
 40
1.565392169551839
 40
1.565392169551839
 40
1.565392169551839
 40
1.565392169551839
 10
16071.64696081088
 20
-2805.755172897482
 30
0.0
 10
16068.63692309902
 20
-2805.345749085987
 30
0.0
 10
16065.01195922927
 20
-2803.687432540292
 30
0.0
 10
16061.67250100063
 20
-2800.965815048234
 30
0.0
 10
16058.40503114302
 20
-2798.302852295846
 30
0.0
 10
16056.07929163659
 20
-2795.166642060452
 30
0.0
 10
16055.03595417447
 20
-2792.34835497731
 30
0.0
  0
SPLINE
  5
35321B
330
18
100
AcDbEntity
  8
姿図
100
AcDbSpline
210
0.0
220
0.0
230
1.0
 70
     8
 71
     3
 72
    11
 73
     7
 74
     0
 42
0.000000001
 43
0.0000000001
 40
0.481879997568997
 40
0.481879997568997
 40
0.481879997568997
 40
0.481879997568997
 40
1.0
 40
1.0
 40
1.0
 40
1.519633642026464
 40
1.519633642026464
 40
1.519633642026464
 40
1.519633642026464
 10
16071.34675648853
 20
-2805.092483923388
 30
0.0
 10
16068.49171549448
 20
-2804.533537094722
 30
0.0
 10
16065.17667608561
 20
-2802.929412034089
 30
0.0
 10
16062.10343626942
 20
-2800.424759282547
 30
0.0
 10
16059.10041048704
 20
-2797.977316413466
 30
0.0
 10
16056.89285049913
 20
-2795.130128347065
 30
0.0
 10
16055.74522755196
 20
-2792.497398987371
 30
0.0
  0
SPLINE
  5
35321C
330
18
100
AcDbEntity
  8
姿図
100
AcDbSpline
210
0.0
220
0.0
230
1.0
 70
     8
 71
     3
 72
    11
 73
     7
 74
     0
 42
0.000000001
 43
0.0000000001
 40
0.5297770028492169
 40
0.5297770028492169
 40
0.5297770028492169
 40
0.5297770028492169
 40
1.0
 40
1.0
 40
1.0
 40
1.470753821489875
 40
1.470753821489875
 40
1.470753821489875
 40
1.470753821489875
 10
16070.97466003143
 20
-2804.369732996526
 30
0.0
 10
16068.31180717019
 20
-2803.68820256395
 30
0.0
 10
16065.32350924868
 20
-2802.156816537253
 30
0.0
 10
16062.53437153821
 20
-2799.88370351686
 30
0.0
 10
16059.81382816158
 20
-2797.666481631446
 30
0.0
 10
16057.74613672233
 20
-2795.121182249376
 30
0.0
 10
16056.52793558044
 20
-2792.704475235876
 30
0.0
  0
SPLINE
  5
35321D
330
18
100
AcDbEntity
  8
姿図
100
AcDbSpline
210
0.0
220
0.0
230
1.0
 70
     8
 71
     3
 72
    11
 73
     7
 74
     0
 42
0.000000001
 43
0.0000000001
 40
0.0386121084381379
 40
0.0386121084381379
 40
0.0386121084381379
 40
0.0386121084381379
 40
1.0
 40
1.0
 40
1.0
 40
1.99935959912693
 40
1.99935959912693
 40
1.99935959912693
 40
1.99935959912693
 10
16071.73565610444
 20
-2811.127615651651
 30
0.0
 10
16068.73877838077
 20
-2813.652893817903
 30
0.0
 10
16062.2037705052
 20
-2812.105945860431
 30
0.0
 10
16056.50127777516
 20
-2807.458484236479
 30
0.0
 10
16050.72585755728
 20
-2802.751561268611
 30
0.0
 10
16047.8926263261
 20
-2796.566100913961
 30
0.0
 10
16049.88285804864
 20
-2793.271144538752
 30
0.0
  0
ARC
  5
35321E
330
18
100
AcDbEntity
  8
姿図
100
AcDbCircle
 10
16076.99263989215
 20
-2791.78559415478
 30
0.0
 40
10.37465278630733
100
AcDbArc
 50
17.44882884851504
 51
27.46470538252997
  0
SPLINE
  5
35321F
330
18
100
AcDbEntity
  8
姿図
100
AcDbSpline
210
0.0
220
0.0
230
1.0
 70
     8
 71
     3
 72
    17
 73
    13
 74
     0
 42
0.000000001
 43
0.0000000001
 40
0.0
 40
0.0
 40
0.0
 40
0.0
 40
1.0
 40
1.0
 40
1.0
 40
2.0
 40
2.0
 40
2.0
 40
3.0
 40
3.0
 40
3.0
 40
4.0
 40
4.0
 40
4.0
 40
4.0
 10
16075.95239640894
 20
-2763.897446373487
 30
0.0
 10
16075.95239640894
 20
-2763.897446373487
 30
0.0
 10
16075.69202067622
 20
-2763.570900978708
 30
0.0
 10
16075.69202067622
 20
-2763.570900978708
 30
0.0
 10
16075.69202067622
 20
-2763.570900978708
 30
0.0
 10
16075.64132128837
 20
-2763.492547379304
 30
0.0
 10
16075.69257376045
 20
-2763.422305681956
 30
0.0
 10
16075.72336211598
 20
-2763.380086918984
 30
0.0
 10
16075.79083839218
 20
-2763.340817938576
 30
0.0
 10
16075.92800328149
 20
-2763.323119243181
 30
0.0
 10
16075.92800328149
 20
-2763.323119243181
 30
0.0
 10
16076.24303084144
 20
-2763.649346758817
 30
0.0
 10
16076.24303084144
 20
-2763.649346758817
 30
0.0
  0
POLYLINE
  5
353220
330
18
100
AcDbEntity
  8
姿図
100
AcDb2dPolyline
 66
     1
 10
0.0
 20
0.0
 30
0.0
  0
VERTEX
  5
353221
330
353220
100
AcDbEntity
  8
姿図
100
AcDbVertex
100
AcDb2dVertex
 10
16075.72778678983
 20
-2763.388291001744
 30
0.0
  0
VERTEX
  5
353222
330
353220
100
AcDbEntity
  8
姿図
100
AcDbVertex
100
AcDb2dVertex
 10
16076.93092935385
 20
-2761.848227960288
 30
0.0
  0
VERTEX
  5
353223
330
353220
100
AcDbEntity
  8
姿図
100
AcDbVertex
100
AcDb2dVertex
 10
16077.94553727284
 20
-2760.881840339536
 30
0.0
  0
SEQEND
  5
353224
330
353220
100
AcDbEntity
  8
姿図
  0
POLYLINE
  5
353225
330
18
100
AcDbEntity
  8
姿図
100
AcDb2dPolyline
 66
     1
 10
0.0
 20
0.0
 30
0.0
  0
VERTEX
  5
353226
330
353225
100
AcDbEntity
  8
姿図
100
AcDbVertex
100
AcDb2dVertex
 10
16075.92800328149
 20
-2763.323119243181
 30
0.0
  0
VERTEX
  5
353227
330
353225
100
AcDbEntity
  8
姿図
100
AcDbVertex
100
AcDb2dVertex
 10
16077.1079163078
 20
-2761.836428830024
 30
0.0
  0
VERTEX
  5
353228
330
353225
100
AcDbEntity
  8
姿図
100
AcDbVertex
100
AcDb2dVertex
 10
16078.02824846833
 20
-2760.963016648436
 30
0.0
  0
SEQEND
  5
353229
330
353225
100
AcDbEntity
  8
姿図
  0
SPLINE
  5
35322A
330
18
100
AcDbEntity
  8
姿図
100
AcDbSpline
210
0.0
220
0.0
230
1.0
 70
     8
 71
     3
 72
    11
 73
     7
 74
     0
 42
0.000000001
 43
0.0000000001
 40
0.0386121084381379
 40
0.0386121084381379
 40
0.0386121084381379
 40
0.0386121084381379
 40
1.0
 40
1.0
 40
1.0
 40
1.99935959912693
 40
1.99935959912693
 40
1.99935959912693
 40
1.99935959912693
 10
16071.25087601315
 20
-2811.764758918076
 30
0.0
 10
16068.36685117595
 20
-2814.242437307943
 30
0.0
 10
16061.83184330037
 20
-2812.69548935047
 30
0.0
 10
16056.12935057033
 20
-2808.048027726518
 30
0.0
 10
16050.35393035246
 20
-2803.34110475865
 30
0.0
 10
16047.52069912128
 20
-2797.155644404
 30
0.0
 10
16049.51093084382
 20
-2793.860688028791
 30
0.0
  0
SPLINE
  5
35339D
330
18
100
AcDbEntity
  8
姿図
100
AcDbSpline
210
0.0
220
0.0
230
1.0
 70
     8
 71
     3
 72
    11
 73
     7
 74
     0
 42
0.000000001
 43
0.0000000001
 40
0.5818723173054643
 40
0.5818723173054643
 40
0.5818723173054643
 40
0.5818723173054643
 40
1.0
 40
1.0
 40
1.0
 40
1.417796651066386
 40
1.417796651066386
 40
1.417796651066386
 40
1.417796651066386
 10
16070.51265110137
 20
-2803.573737118376
 30
0.0
 10
16068.08641540622
 20
-2802.80144650381
 30
0.0
 10
16065.4488067725
 20
-2801.366649670327
 30
0.0
 10
16062.96867352792
 20
-2799.345371499164
 30
0.0
 10
16060.55417605611
 20
-2797.377574667552
 30
0.0
 10
16058.65390797821
 20
-2795.151362286251
 30
0.0
 10
16057.40533094157
 20
-2792.985973144539
 30
0.0
  0
SPLINE
  5
35339E
330
18
100
AcDbEntity
  8
姿図
100
AcDbSpline
210
0.0
220
0.0
230
1.0
 70
     8
 71
     3
 72
    11
 73
     7
 74
     0
 42
0.000000001
 43
0.0000000001
 40
0.6396781780111179
 40
0.6396781780111179
 40
0.6396781780111179
 40
0.6396781780111179
 40
1.0
 40
1.0
 40
1.0
 40
1.358708750309475
 40
1.358708750309475
 40
1.358708750309475
 40
1.358708750309475
 10
16069.92616498139
 20
-2802.674589133485
 30
0.0
 10
16067.79106537112
 20
-2801.852462072277
 30
0.0
 10
16065.53686534883
 20
-2800.546153606268
 30
0.0
 10
16063.39960879671
 20
-2798.804315733477
 30
0.0
 10
16061.32658746318
 20
-2797.114819322894
 30
0.0
 10
16059.63262872403
 20
-2795.234832695579
 30
0.0
 10
16058.40473124532
 20
-2793.36640019883
 30
0.0
  0
SPLINE
  5
35339F
330
18
100
AcDbEntity
  8
姿図
100
AcDbSpline
210
0.0
220
0.0
230
1.0
 70
     8
 71
     3
 72
    11
 73
     7
 74
     0
 42
0.000000001
 43
0.0000000001
 40
0.7067134213786423
 40
0.7067134213786423
 40
0.7067134213786423
 40
0.7067134213786423
 40
1.0
 40
1.0
 40
1.0
 40
1.290157983230625
 40
1.290157983230625
 40
1.290157983230625
 40
1.290157983230625
 10
16069.15459426924
 20
-2801.624719152881
 30
0.0
 10
16067.38729337269
 20
-2800.810273513953
 30
0.0
 10
16065.57017964557
 20
-2799.681041625876
 30
0.0
 10
16063.8305440655
 20
-2798.26325996779
 30
0.0
 10
16062.15368592136
 20
-2796.89663350343
 30
0.0
 10
16060.72485310756
 20
-2795.405366941016
 30
0.0
 10
16059.5900914485
 20
-2793.896396386059
 30
0.0
  0
SPLINE
  5
3533A0
330
18
100
AcDbEntity
  8
姿図
100
AcDbSpline
210
0.0
220
0.0
230
1.0
 70
     8
 71
     3
 72
    11
 73
     7
 74
     0
 42
0.000000001
 43
0.0000000001
 40
0.7916731903329797
 40
0.7916731903329797
 40
0.7916731903329797
 40
0.7916731903329797
 40
1.0
 40
1.0
 40
1.0
 40
1.203459633550784
 40
1.203459633550784
 40
1.203459633550784
 40
1.203459633550784
 10
16068.04358589857
 20
-2800.29998845059
 30
0.0
 10
16066.77532761707
 20
-2799.593491957589
 30
0.0
 10
16065.50054095842
 20
-2798.732004138244
 30
0.0
 10
16064.26484605522
 20
-2797.724927950093
 30
0.0
 10
16063.08902817929
 20
-2796.766645442945
 30
0.0
 10
16062.03516078075
 20
-2795.747079197411
 30
0.0
 10
16061.11911914181
 20
-2794.703097721714
 30
0.0
  0
SPLINE
  5
3533A1
330
18
100
AcDbEntity
  8
姿図
100
AcDbSpline
210
0.0
220
0.0
230
1.0
 70
     8
 71
     3
 72
    11
 73
     7
 74
     0
 42
0.000000001
 43
0.0000000001
 40
0.9558280587290073
 40
0.9558280587290073
 40
0.9558280587290073
 40
0.9558280587290073
 40
1.0
 40
1.0
 40
1.0
 40
1.035516544624892
 40
1.035516544624892
 40
1.035516544624892
 40
1.035516544624892
 10
16065.48663928962
 20
-2797.804743668568
 30
0.0
 10
16065.2215524122
 20
-2797.604391559105
 30
0.0
 10
16064.95778813331
 20
-2797.397404520016
 30
0.0
 10
16064.69578132401
 20
-2797.183872184406
 30
0.0
 10
16064.490526909
 20
-2797.016591418023
 30
0.0
 10
16064.28898860265
 20
-2796.847443196629
 30
0.0
 10
16064.09125085089
 20
-2796.676623636172
 30
0.0
  0
ENDSEC
  0
SECTION
  2
OBJECTS
  0
DICTIONARY
  5
C
330
0
100
AcDbDictionary
281
     1
  3
ACAD_GROUP
350
D
  3
ACAD_IMAGE_VARS
350
2F1759
  3
ACAD_LAYOUT
350
353
  3
ACAD_MLINESTYLE
350
E
  3
ACAD_PLOTSETTINGS
350
354
  3
ACAD_PLOTSTYLENAME
350
351
  3
ACAD_SCALELIST
350
CD53
  3
AcadDim
350
5182D
  3
AcDbVariableDictionary
350
E0D
  3
APPDATA
350
2F1758
  3
DWGPROPS
350
353522
  0
DICTIONARY
  5
559E
330
2
100
AcDbDictionary
280
     1
281
     1
  3
ACAD_LAYERFILTERS
360
29A509
  3
ACAD_LAYERSTATES
360
559F
  3
ACLYDICTIONARY
360
29A508
  0
DICTIONARY
  5
CD7F
330
F
100
AcDbDictionary
280
     1
281
     1
  3
ADSK_XREC_LAYER_RECONCILED
360
CD80
  0
DICTIONARY
  5
CD85
330
34
100
AcDbDictionary
280
     1
281
     1
  3
ADSK_XREC_LAYER_RECONCILED
360
CD86
  0
DICTIONARY
  5
CD8D
330
2F4
100
AcDbDictionary
280
     1
281
     1
  3
ADSK_XREC_LAYER_RECONCILED
360
CD8E
  0
DICTIONARY
  5
D25F
330
18
100
AcDbDictionary
280
     1
281
     1
  3
ACAD_SORTENTS
360
D260
  0
DICTIONARY
  5
D
102
{ACAD_REACTORS
330
C
102
}
330
C
100
AcDbDictionary
281
     1
  0
RASTERVARIABLES
  5
2F1759
102
{ACAD_REACTORS
330
C
102
}
330
C
100
AcDbRasterVariables
 90
        0
 70
     1
 71
     1
 72
     0
  0
DICTIONARY
  5
353
102
{ACAD_REACTORS
330
C
102
}
330
C
100
AcDbDictionary
281
     1
  3
Model
350
355
  3
ﾚｲｱｳﾄ1
350
356
  0
DICTIONARY
  5
E
102
{ACAD_REACTORS
330
C
102
}
330
C
100
AcDbDictionary
281
     1
  3
STANDARD
350
1B
  0
DICTIONARY
  5
354
102
{ACAD_REACTORS
330
C
102
}
330
C
100
AcDbDictionary
281
     1
  0
ACDBDICTIONARYWDFLT
  5
351
102
{ACAD_REACTORS
330
C
102
}
330
C
100
AcDbDictionary
281
     1
  3
Normal
350
352
100
AcDbDictionaryWithDefault
340
352
  0
DICTIONARY
  5
CD53
102
{ACAD_REACTORS
330
C
102
}
330
C
100
AcDbDictionary
281
     1
  3
A0
350
CD54
  3
A1
350
35DF8
  3
A2
350
35DF9
  3
A3
350
35DFA
  3
A4
350
35DFB
  3
A5
350
35DFC
  3
A6
350
35DFD
  3
A7
350
35DFE
  3
A8
350
35DFF
  3
A9
350
35E00
  3
B0
350
35E01
  3
B1
350
35E02
  3
B2
350
35E03
  3
B3
350
35E04
  3
B4
350
35E05
  3
B5
350
35E06
  3
B6
350
35E07
  3
B7
350
35E08
  3
B8
350
35E09
  3
B9
350
35E0A
  3
C0
350
35E0B
  3
C1
350
35E0C
  3
C2
350
35E0D
  3
C3
350
35E0E
  3
C4
350
35E0F
  3
C5
350
35E10
  3
C6
350
35E11
  3
C7
350
35E12
  3
C8
350
35E13
  3
C9
350
35E14
  3
D0
350
35E15
  3
D1
350
35E16
  3
D2
350
35E17
  0
XRECORD
  5
5182D
102
{ACAD_REACTORS
330
C
102
}
330
C
100
AcDbXrecord
280
     1
 90
   990106
  3
OPEN30
 60
     0
 61
     0
 62
     4
 63
     4
 64
     1
 65
     0
 66
     0
 67
     3
 68
     1
 69
     0
 70
     0
 71
     0
 72
     0
 40
0.0
170
     0
340
0
  0
DICTIONARY
  5
E0D
102
{ACAD_REACTORS
330
C
102
}
330
C
100
AcDbDictionary
281
     1
  3
DIMASSOC
350
E0E
  3
INDEXCTL
350
D04A
  3
PROJECTNAME
350
E0F
  3
SORTENTS
350
D049
  0
DICTIONARY
  5
2F1758
102
{ACAD_REACTORS
330
C
102
}
330
C
100
AcDbDictionary
281
     1
  0
XRECORD
  5
353522
102
{ACAD_REACTORS
330
C
102
}
330
C
100
AcDbXrecord
280
     1
  1
DWGPROPS COOKIE
  2

  3

  4

  6

  7

  8
SPAX
  9

300
=
301
=
302
=
303
=
304
=
305
=
306
=
307
=
308
=
309
=
 40
0.0
 41
2448636.244629629
 42
2456821.281290521
  1

 90
        0
  0
DICTIONARY
  5
29A509
102
{ACAD_REACTORS
330
559E
102
}
330
559E
100
AcDbDictionary
281
     1
  0
DICTIONARY
  5
559F
102
{ACAD_REACTORS
330
559E
102
}
330
559E
100
AcDbDictionary
281
     1
  0
DICTIONARY
  5
29A508
102
{ACAD_REACTORS
330
559E
102
}
330
559E
100
AcDbDictionary
281
     1
1001
ACAD
1000
<All
  0
XRECORD
  5
CD80
102
{ACAD_REACTORS
330
CD7F
102
}
330
CD7F
100
AcDbXrecord
280
     1
290
     1
  0
XRECORD
  5
CD86
102
{ACAD_REACTORS
330
CD85
102
}
330
CD85
100
AcDbXrecord
280
     1
290
     1
  0
XRECORD
  5
CD8E
102
{ACAD_REACTORS
330
CD8D
102
}
330
CD8D
100
AcDbXrecord
280
     1
290
     1
  0
SORTENTSTABLE
  5
D260
102
{ACAD_REACTORS
330
D25F
102
}
330
D25F
100
AcDbSortentsTable
330
18
331
0
  5
33DB90
331
8182F
  5
2FEC53
331
3073B9
  5
307455
331
33E298
  5
33E2B9
331
33E299
  5
33E2BA
331
33E29A
  5
33E2BB
331
33E29B
  5
33E2BC
331
33E29C
  5
33E2BD
331
33E29D
  5
33E2BE
331
33E29E
  5
33E2BF
331
33E29F
  5
33E2C0
331
33E2A0
  5
33E2C1
331
33E2A1
  5
33E2C2
331
33E2A2
  5
33E2C3
331
33E2A3
  5
33E2C4
331
33E2A4
  5
33E2C5
331
33E2A5
  5
33E2C6
331
33E2A6
  5
33E2C7
331
33E2A7
  5
33E2C8
331
33E2A8
  5
33E2C9
331
33E2A9
  5
33E2CA
331
33E2AA
  5
33E2CB
331
33E2AB
  5
33E2CC
331
33E2AC
  5
33E2CD
331
33E2AD
  5
33E2CE
331
33E2B6
  5
33E2D7
331
33E2B7
  5
33E2D8
331
33E2B8
  5
33E2D9
331
33E2B9
  5
33E2DA
331
33E2BA
  5
33E2DB
331
33E2BB
  5
33E2DC
331
33E2BC
  5
33E2DD
331
33E2BD
  5
33E2DE
331
33E2BE
  5
33E2DF
331
33E2BF
  5
33E2E0
331
33E2C8
  5
33E2E9
331
33E2C9
  5
33E2EA
331
33E2CC
  5
33E2ED
331
33E2CD
  5
33E2EE
331
33E2CE
  5
33E2EF
331
33E2D2
  5
33E2F3
331
33E2D3
  5
33E2F4
331
33E2D4
  5
33E2F5
331
33E2D5
  5
33E2F6
331
33E2D6
  5
33E2F7
331
33E2E7
  5
33E308
331
33E2E8
  5
33E309
331
33E2E9
  5
33E30A
331
33E2EA
  5
33E30B
331
33E2F6
  5
33E317
331
33E2F7
  5
33E318
331
33E2F8
  5
33E319
  0
LAYOUT
  5
355
102
{ACAD_REACTORS
330
353
102
}
330
353
100
AcDbPlotSettings
  1

  2
JUST PDF 2
  4
A4
  6

 40
3.174999952316284
 41
3.174999952316284
 42
3.175003051757812
 43
3.17498779296875
 44
209.8886566162109
 45
297.0530090332031
 46
14.27171755861552
 47
9.855173074625782
 48
16041.32255760119
 49
-4023.368582023899
140
16566.3082130859
141
-3210.3905566079
142
1.0
143
3.0
 70
  3748
 72
     1
 73
     0
 74
     4
  7
spax form.ctb
 75
    16
147
1.0
148
-16041.32255760119
149
4023.368582023899
100
AcDbLayout
  1
Model
 70
     1
 71
     0
 10
0.0
 20
0.0
 11
12.0
 21
9.0
 12
0.0
 22
0.0
 32
0.0
 14
16047.94201271437
 24
-2839.233250851463
 34
0.0
 15
16561.57896088473
 25
-2424.009206494978
 35
0.0
146
0.0
 13
0.0
 23
0.0
 33
0.0
 16
1.0
 26
0.0
 36
0.0
 17
0.0
 27
1.0
 37
0.0
 76
     0
330
18
331
3523F0
1001
ACAD_PSEXT
1000
JUST PDF 2
1000
JUST PDF 2
1000
JUST PDF 2 Port:
1000

1070
     0
  0
LAYOUT
  5
356
102
{ACAD_REACTORS
330
353
102
}
330
353
100
AcDbPlotSettings
  1

  2
Canon LASER SHOT LBP-750
  4

  6

 40
0.0
 41
0.0
 42
0.0
 43
0.0
 44
0.0
 45
0.0
 46
0.0
 47
0.0
 48
0.0
 49
0.0
140
0.0
141
0.0
142
1.0
143
1.0
 70
   688
 72
     0
 73
     0
 74
     5
  7
spax form.ctb
 75
    16
147
1.0
148
0.0
149
0.0
100
AcDbLayout
  1
ﾚｲｱｳﾄ1
 70
     0
 71
     1
 10
0.0
 20
0.0
 11
12.0
 21
9.0
 12
0.0
 22
0.0
 32
0.0
 14
1.000000000000000E+20
 24
1.000000000000000E+20
 34
1.000000000000000E+20
 15
-1.000000000000000E+20
 25
-1.000000000000000E+20
 35
-1.000000000000000E+20
146
0.0
 13
0.0
 23
0.0
 33
0.0
 16
1.0
 26
0.0
 36
0.0
 17
0.0
 27
1.0
 37
0.0
 76
     0
330
15
  0
MLINESTYLE
  5
1B
102
{ACAD_REACTORS
330
E
102
}
330
E
100
AcDbMlineStyle
  2
STANDARD
 70
     0
  3

 62
     0
 51
90.0
 52
90.0
 71
     2
 49
0.5
 62
   256
  6
BYLAYER
 49
-0.5
 62
   256
  6
BYLAYER
  0
ACDBPLACEHOLDER
  5
352
102
{ACAD_REACTORS
330
351
102
}
330
351
  0
SCALE
  5
CD54
102
{ACAD_REACTORS
330
CD53
102
}
330
CD53
100
AcDbScale
 70
     0
300
1:1
140
1.0
141
1.0
290
     1
1001
ACAD
1000
AcRTDxfName
1000
SCALE
1000
AcRTDxfName
1000
SCALE
  0
SCALE
  5
35DF8
102
{ACAD_REACTORS
330
CD53
102
}
330
CD53
100
AcDbScale
 70
     0
300
1:2
140
1.0
141
2.0
290
     0
1001
ACAD
1000
AcRTDxfName
1000
SCALE
1000
AcRTDxfName
1000
SCALE
  0
SCALE
  5
35DF9
102
{ACAD_REACTORS
330
CD53
102
}
330
CD53
100
AcDbScale
 70
     0
300
1:4
140
1.0
141
4.0
290
     0
1001
ACAD
1000
AcRTDxfName
1000
SCALE
1000
AcRTDxfName
1000
SCALE
  0
SCALE
  5
35DFA
102
{ACAD_REACTORS
330
CD53
102
}
330
CD53
100
AcDbScale
 70
     0
300
1:5
140
1.0
141
5.0
290
     0
1001
ACAD
1000
AcRTDxfName
1000
SCALE
1000
AcRTDxfName
1000
SCALE
  0
SCALE
  5
35DFB
102
{ACAD_REACTORS
330
CD53
102
}
330
CD53
100
AcDbScale
 70
     0
300
1:8
140
1.0
141
8.0
290
     0
1001
ACAD
1000
AcRTDxfName
1000
SCALE
1000
AcRTDxfName
1000
SCALE
  0
SCALE
  5
35DFC
102
{ACAD_REACTORS
330
CD53
102
}
330
CD53
100
AcDbScale
 70
     0
300
1:10
140
1.0
141
10.0
290
     0
1001
ACAD
1000
AcRTDxfName
1000
SCALE
1000
AcRTDxfName
1000
SCALE
  0
SCALE
  5
35DFD
102
{ACAD_REACTORS
330
CD53
102
}
330
CD53
100
AcDbScale
 70
     0
300
1:16
140
1.0
141
16.0
290
     0
1001
ACAD
1000
AcRTDxfName
1000
SCALE
1000
AcRTDxfName
1000
SCALE
  0
SCALE
  5
35DFE
102
{ACAD_REACTORS
330
CD53
102
}
330
CD53
100
AcDbScale
 70
     0
300
1:20
140
1.0
141
20.0
290
     0
1001
ACAD
1000
AcRTDxfName
1000
SCALE
1000
AcRTDxfName
1000
SCALE
  0
SCALE
  5
35DFF
102
{ACAD_REACTORS
330
CD53
102
}
330
CD53
100
AcDbScale
 70
     0
300
1:30
140
1.0
141
30.0
290
     0
1001
ACAD
1000
AcRTDxfName
1000
SCALE
1000
AcRTDxfName
1000
SCALE
  0
SCALE
  5
35E00
102
{ACAD_REACTORS
330
CD53
102
}
330
CD53
100
AcDbScale
 70
     0
300
1:40
140
1.0
141
40.0
290
     0
1001
ACAD
1000
AcRTDxfName
1000
SCALE
1000
AcRTDxfName
1000
SCALE
  0
SCALE
  5
35E01
102
{ACAD_REACTORS
330
CD53
102
}
330
CD53
100
AcDbScale
 70
     0
300
1:50
140
1.0
141
50.0
290
     0
1001
ACAD
1000
AcRTDxfName
1000
SCALE
1000
AcRTDxfName
1000
SCALE
  0
SCALE
  5
35E02
102
{ACAD_REACTORS
330
CD53
102
}
330
CD53
100
AcDbScale
 70
     0
300
1:100
140
1.0
141
100.0
290
     0
1001
ACAD
1000
AcRTDxfName
1000
SCALE
1000
AcRTDxfName
1000
SCALE
  0
SCALE
  5
35E03
102
{ACAD_REACTORS
330
CD53
102
}
330
CD53
100
AcDbScale
 70
     0
300
2:1
140
2.0
141
1.0
290
     0
1001
ACAD
1000
AcRTDxfName
1000
SCALE
1000
AcRTDxfName
1000
SCALE
  0
SCALE
  5
35E04
102
{ACAD_REACTORS
330
CD53
102
}
330
CD53
100
AcDbScale
 70
     0
300
4:1
140
4.0
141
1.0
290
     0
1001
ACAD
1000
AcRTDxfName
1000
SCALE
1000
AcRTDxfName
1000
SCALE
  0
SCALE
  5
35E05
102
{ACAD_REACTORS
330
CD53
102
}
330
CD53
100
AcDbScale
 70
     0
300
8:1
140
8.0
141
1.0
290
     0
1001
ACAD
1000
AcRTDxfName
1000
SCALE
1000
AcRTDxfName
1000
SCALE
  0
SCALE
  5
35E06
102
{ACAD_REACTORS
330
CD53
102
}
330
CD53
100
AcDbScale
 70
     0
300
10:1
140
10.0
141
1.0
290
     0
1001
ACAD
1000
AcRTDxfName
1000
SCALE
1000
AcRTDxfName
1000
SCALE
  0
SCALE
  5
35E07
102
{ACAD_REACTORS
330
CD53
102
}
330
CD53
100
AcDbScale
 70
     0
300
100:1
140
100.0
141
1.0
290
     0
1001
ACAD
1000
AcRTDxfName
1000
SCALE
1000
AcRTDxfName
1000
SCALE
  0
SCALE
  5
35E08
102
{ACAD_REACTORS
330
CD53
102
}
330
CD53
100
AcDbScale
 70
     0
300
1/128" = 1'-0"
140
0.0078125
141
12.0
290
     0
1001
ACAD
1000
AcRTDxfName
1000
SCALE
1000
AcRTDxfName
1000
SCALE
  0
SCALE
  5
35E09
102
{ACAD_REACTORS
330
CD53
102
}
330
CD53
100
AcDbScale
 70
     0
300
1/64" = 1'-0"
140
0.015625
141
12.0
290
     0
1001
ACAD
1000
AcRTDxfName
1000
SCALE
1000
AcRTDxfName
1000
SCALE
  0
SCALE
  5
35E0A
102
{ACAD_REACTORS
330
CD53
102
}
330
CD53
100
AcDbScale
 70
     0
300
1/32" = 1'-0"
140
0.03125
141
12.0
290
     0
1001
ACAD
1000
AcRTDxfName
1000
SCALE
1000
AcRTDxfName
1000
SCALE
  0
SCALE
  5
35E0B
102
{ACAD_REACTORS
330
CD53
102
}
330
CD53
100
AcDbScale
 70
     0
300
1/16" = 1'-0"
140
0.0625
141
12.0
290
     0
1001
ACAD
1000
AcRTDxfName
1000
SCALE
1000
AcRTDxfName
1000
SCALE
  0
SCALE
  5
35E0C
102
{ACAD_REACTORS
330
CD53
102
}
330
CD53
100
AcDbScale
 70
     0
300
3/32" = 1'-0"
140
0.09375
141
12.0
290
     0
1001
ACAD
1000
AcRTDxfName
1000
SCALE
1000
AcRTDxfName
1000
SCALE
  0
SCALE
  5
35E0D
102
{ACAD_REACTORS
330
CD53
102
}
330
CD53
100
AcDbScale
 70
     0
300
1/8" = 1'-0"
140
0.125
141
12.0
290
     0
1001
ACAD
1000
AcRTDxfName
1000
SCALE
1000
AcRTDxfName
1000
SCALE
  0
SCALE
  5
35E0E
102
{ACAD_REACTORS
330
CD53
102
}
330
CD53
100
AcDbScale
 70
     0
300
3/16" = 1'-0"
140
0.1875
141
12.0
290
     0
1001
ACAD
1000
AcRTDxfName
1000
SCALE
1000
AcRTDxfName
1000
SCALE
  0
SCALE
  5
35E0F
102
{ACAD_REACTORS
330
CD53
102
}
330
CD53
100
AcDbScale
 70
     0
300
1/4" = 1'-0"
140
0.25
141
12.0
290
     0
1001
ACAD
1000
AcRTDxfName
1000
SCALE
1000
AcRTDxfName
1000
SCALE
  0
SCALE
  5
35E10
102
{ACAD_REACTORS
330
CD53
102
}
330
CD53
100
AcDbScale
 70
     0
300
3/8" = 1'-0"
140
0.375
141
12.0
290
     0
1001
ACAD
1000
AcRTDxfName
1000
SCALE
1000
AcRTDxfName
1000
SCALE
  0
SCALE
  5
35E11
102
{ACAD_REACTORS
330
CD53
102
}
330
CD53
100
AcDbScale
 70
     0
300
1/2" = 1'-0"
140
0.5
141
12.0
290
     0
1001
ACAD
1000
AcRTDxfName
1000
SCALE
1000
AcRTDxfName
1000
SCALE
  0
SCALE
  5
35E12
102
{ACAD_REACTORS
330
CD53
102
}
330
CD53
100
AcDbScale
 70
     0
300
3/4" = 1'-0"
140
0.75
141
12.0
290
     0
1001
ACAD
1000
AcRTDxfName
1000
SCALE
1000
AcRTDxfName
1000
SCALE
  0
SCALE
  5
35E13
102
{ACAD_REACTORS
330
CD53
102
}
330
CD53
100
AcDbScale
 70
     0
300
1" = 1'-0"
140
1.0
141
12.0
290
     0
1001
ACAD
1000
AcRTDxfName
1000
SCALE
1000
AcRTDxfName
1000
SCALE
  0
SCALE
  5
35E14
102
{ACAD_REACTORS
330
CD53
102
}
330
CD53
100
AcDbScale
 70
     0
300
1-1/2" = 1'-0"
140
1.5
141
12.0
290
     0
1001
ACAD
1000
AcRTDxfName
1000
SCALE
1000
AcRTDxfName
1000
SCALE
  0
SCALE
  5
35E15
102
{ACAD_REACTORS
330
CD53
102
}
330
CD53
100
AcDbScale
 70
     0
300
3" = 1'-0"
140
3.0
141
12.0
290
     0
1001
ACAD
1000
AcRTDxfName
1000
SCALE
1000
AcRTDxfName
1000
SCALE
  0
SCALE
  5
35E16
102
{ACAD_REACTORS
330
CD53
102
}
330
CD53
100
AcDbScale
 70
     0
300
6" = 1'-0"
140
6.0
141
12.0
290
     0
1001
ACAD
1000
AcRTDxfName
1000
SCALE
1000
AcRTDxfName
1000
SCALE
  0
SCALE
  5
35E17
102
{ACAD_REACTORS
330
CD53
102
}
330
CD53
100
AcDbScale
 70
     0
300
1'-0" = 1'-0"
140
12.0
141
12.0
290
     0
1001
ACAD
1000
AcRTDxfName
1000
SCALE
1000
AcRTDxfName
1000
SCALE
  0
DICTIONARYVAR
  5
E0E
102
{ACAD_REACTORS
330
E0D
102
}
330
E0D
100
DictionaryVariables
280
     0
  1
1
  0
DICTIONARYVAR
  5
D04A
102
{ACAD_REACTORS
330
E0D
102
}
330
E0D
100
DictionaryVariables
280
     0
  1
0
  0
DICTIONARYVAR
  5
E0F
102
{ACAD_REACTORS
330
E0D
102
}
330
E0D
100
DictionaryVariables
280
     0
  1

  0
DICTIONARYVAR
  5
D049
102
{ACAD_REACTORS
330
E0D
102
}
330
E0D
100
DictionaryVariables
280
     0
  1
127
  0
ENDSEC
  0
EOF
