  0
SECTION
  2
HEADER
  9
$ACADVER
  1
AC1015
  9
$ACADMAINTVER
 70
     6
  9
$DWGCODEPAGE
  3
ANSI_932
  9
$INSBASE
 10
0.0
 20
0.0
 30
0.0
  9
$EXTMIN
 10
19203.03997303539
 20
-17586.75881476525
 30
-0.000000000000013
  9
$EXTMAX
 10
19277.78997303539
 20
-17461.88044426862
 30
0.0000000000000288
  9
$LIMMIN
 10
0.0
 20
0.0
  9
$LIMMAX
 10
420.0
 20
297.0
  9
$ORTHOMODE
 70
     1
  9
$REGENMODE
 70
     1
  9
$FILLMODE
 70
     1
  9
$QTEXTMODE
 70
     0
  9
$MIRRTEXT
 70
     1
  9
$LTSCALE
 40
5.0
  9
$ATTMODE
 70
     0
  9
$TEXTSIZE
 40
3.5
  9
$TRACEWID
 40
1.0
  9
$TEXTSTYLE
  7
STANDARD
  9
$CLAYER
  8
0
  9
$CELTYPE
  6
BYLAYER
  9
$CECOLOR
 62
   256
  9
$CELTSCALE
 40
1.0
  9
$DISPSILH
 70
     0
  9
$DIMSCALE
 40
1.0
  9
$DIMASZ
 40
2.5
  9
$DIMEXO
 40
1.5
  9
$DIMDLI
 40
7.0
  9
$DIMRND
 40
0.0
  9
$DIMDLE
 40
0.0
  9
$DIMEXE
 40
1.0
  9
$DIMTP
 40
0.0
  9
$DIMTM
 40
0.0
  9
$DIMTXT
 40
3.0
  9
$DIMCEN
 40
0.0
  9
$DIMTSZ
 40
0.0
  9
$DIMTOL
 70
     0
  9
$DIMLIM
 70
     0
  9
$DIMTIH
 70
     0
  9
$DIMTOH
 70
     0
  9
$DIMSE1
 70
     0
  9
$DIMSE2
 70
     0
  9
$DIMTAD
 70
     3
  9
$DIMZIN
 70
     9
  9
$DIMBLK
  1
OPEN30
  9
$DIMASO
 70
     1
  9
$DIMSHO
 70
     0
  9
$DIMPOST
  1

  9
$DIMAPOST
  1

  9
$DIMALT
 70
     0
  9
$DIMALTD
 70
     0
  9
$DIMALTF
 40
25.4
  9
$DIMLFAC
 40
1.0
  9
$DIMTOFL
 70
     1
  9
$DIMTVP
 40
0.0
  9
$DIMTIX
 70
     0
  9
$DIMSOXD
 70
     0
  9
$DIMSAH
 70
     0
  9
$DIMBLK1
  1

  9
$DIMBLK2
  1

  9
$DIMSTYLE
  2
STANDARD
  9
$DIMCLRD
 70
     8
  9
$DIMCLRE
 70
     8
  9
$DIMCLRT
 70
   256
  9
$DIMTFAC
 40
0.6
  9
$DIMGAP
 40
1.0
  9
$DIMJUST
 70
     0
  9
$DIMSD1
 70
     0
  9
$DIMSD2
 70
     0
  9
$DIMTOLJ
 70
     1
  9
$DIMTZIN
 70
     9
  9
$DIMALTZ
 70
     9
  9
$DIMALTTZ
 70
     9
  9
$DIMUPT
 70
     0
  9
$DIMDEC
 70
     3
  9
$DIMTDEC
 70
     3
  9
$DIMALTU
 70
     2
  9
$DIMALTTD
 70
     0
  9
$DIMTXSTY
  7
STANDARD
  9
$DIMAUNIT
 70
     0
  9
$DIMADEC
 70
     3
  9
$DIMALTRND
 40
0.0
  9
$DIMAZIN
 70
     2
  9
$DIMDSEP
 70
    46
  9
$DIMATFIT
 70
     0
  9
$DIMFRAC
 70
     0
  9
$DIMLDRBLK
  1
OPEN30
  9
$DIMLUNIT
 70
     2
  9
$DIMLWD
 70
    -2
  9
$DIMLWE
 70
    -2
  9
$DIMTMOVE
 70
     0
  9
$LUNITS
 70
     2
  9
$LUPREC
 70
     2
  9
$SKETCHINC
 40
0.1
  9
$FILLETRAD
 40
1.0
  9
$AUNITS
 70
     0
  9
$AUPREC
 70
     1
  9
$MENU
  1
FM
  9
$ELEVATION
 40
0.0
  9
$PELEVATION
 40
0.0
  9
$THICKNESS
 40
0.0
  9
$LIMCHECK
 70
     0
  9
$CHAMFERA
 40
0.0
  9
$CHAMFERB
 40
0.0
  9
$CHAMFERC
 40
0.0
  9
$CHAMFERD
 40
0.0
  9
$SKPOLY
 70
     0
  9
$TDCREATE
 40
2448636.619629629
  9
$TDUCREATE
 40
2448636.244629629
  9
$TDUPDATE
 40
2456825.76742265
  9
$TDUUPDATE
 40
2456825.39242265
  9
$TDINDWG
 40
107.7575624306
  9
$TDUSRTIMER
 40
2456825.392144259
  9
$USRTIMER
 70
     1
  9
$ANGBASE
 50
0.0
  9
$ANGDIR
 70
     0
  9
$PDMODE
 70
     3
  9
$PDSIZE
 40
0.0
  9
$PLINEWID
 40
0.0
  9
$SPLFRAME
 70
     0
  9
$SPLINETYPE
 70
     6
  9
$SPLINESEGS
 70
     8
  9
$HANDSEED
  5
3A9C43
  9
$SURFTAB1
 70
     6
  9
$SURFTAB2
 70
     6
  9
$SURFTYPE
 70
     6
  9
$SURFU
 70
     6
  9
$SURFV
 70
     6
  9
$UCSBASE
  2

  9
$UCSNAME
  2

  9
$UCSORG
 10
0.0
 20
0.0
 30
0.0
  9
$UCSXDIR
 10
1.0
 20
0.0
 30
0.0
  9
$UCSYDIR
 10
0.0
 20
1.0
 30
0.0
  9
$UCSORTHOREF
  2

  9
$UCSORTHOVIEW
 70
     0
  9
$UCSORGTOP
 10
0.0
 20
0.0
 30
0.0
  9
$UCSORGBOTTOM
 10
0.0
 20
0.0
 30
0.0
  9
$UCSORGLEFT
 10
0.0
 20
0.0
 30
0.0
  9
$UCSORGRIGHT
 10
0.0
 20
0.0
 30
0.0
  9
$UCSORGFRONT
 10
0.0
 20
0.0
 30
0.0
  9
$UCSORGBACK
 10
0.0
 20
0.0
 30
0.0
  9
$PUCSBASE
  2

  9
$PUCSNAME
  2

  9
$PUCSORG
 10
0.0
 20
0.0
 30
0.0
  9
$PUCSXDIR
 10
1.0
 20
0.0
 30
0.0
  9
$PUCSYDIR
 10
0.0
 20
1.0
 30
0.0
  9
$PUCSORTHOREF
  2

  9
$PUCSORTHOVIEW
 70
     0
  9
$PUCSORGTOP
 10
0.0
 20
0.0
 30
0.0
  9
$PUCSORGBOTTOM
 10
0.0
 20
0.0
 30
0.0
  9
$PUCSORGLEFT
 10
0.0
 20
0.0
 30
0.0
  9
$PUCSORGRIGHT
 10
0.0
 20
0.0
 30
0.0
  9
$PUCSORGFRONT
 10
0.0
 20
0.0
 30
0.0
  9
$PUCSORGBACK
 10
0.0
 20
0.0
 30
0.0
  9
$USERI1
 70
     0
  9
$USERI2
 70
     0
  9
$USERI3
 70
     0
  9
$USERI4
 70
     0
  9
$USERI5
 70
     0
  9
$USERR1
 40
0.0
  9
$USERR2
 40
0.0
  9
$USERR3
 40
0.0
  9
$USERR4
 40
0.0
  9
$USERR5
 40
0.0
  9
$WORLDVIEW
 70
     0
  9
$SHADEDGE
 70
     3
  9
$SHADEDIF
 70
    70
  9
$TILEMODE
 70
     1
  9
$MAXACTVP
 70
    16
  9
$PINSBASE
 10
0.0
 20
0.0
 30
0.0
  9
$PLIMCHECK
 70
     0
  9
$PEXTMIN
 10
1.000000000000000E+20
 20
1.000000000000000E+20
 30
1.000000000000000E+20
  9
$PEXTMAX
 10
-1.000000000000000E+20
 20
-1.000000000000000E+20
 30
-1.000000000000000E+20
  9
$PLIMMIN
 10
0.0
 20
0.0
  9
$PLIMMAX
 10
0.0
 20
0.0
  9
$UNITMODE
 70
     0
  9
$VISRETAIN
 70
     0
  9
$PLINEGEN
 70
     0
  9
$PSLTSCALE
 70
     0
  9
$TREEDEPTH
 70
  3020
  9
$CMLSTYLE
  2
STANDARD
  9
$CMLJUST
 70
     0
  9
$CMLSCALE
 40
1.0
  9
$PROXYGRAPHICS
 70
     1
  9
$MEASUREMENT
 70
     0
  9
$CELWEIGHT
370
    -1
  9
$ENDCAPS
280
     0
  9
$JOINSTYLE
280
     0
  9
$LWDISPLAY
290
     1
  9
$INSUNITS
 70
     0
  9
$HYPERLINKBASE
  1

  9
$STYLESHEET
  1
spax form.ctb
  9
$XEDIT
290
     1
  9
$CEPSNTYPE
380
     0
  9
$PSTYLEMODE
290
     1
  9
$FINGERPRINTGUID
  2
{E5B35D22-A717-11D3-9160-00E0294F7E09}
  9
$VERSIONGUID
  2
{65D26172-C23C-452E-8BEF-5BE8E08BCDF4}
  9
$EXTNAMES
290
     1
  9
$PSVPSCALE
 40
0.0
  9
$OLESTARTUP
290
     0
  0
ENDSEC
  0
SECTION
  2
CLASSES
  0
CLASS
  1
LWPOLYLINE
  2
AcDbPolyline
  3
ObjectDBX Classes
 90
        0
280
     0
281
     1
  0
CLASS
  1
ACDBDICTIONARYWDFLT
  2
AcDbDictionaryWithDefault
  3
ObjectDBX Classes
 90
        0
280
     0
281
     0
  0
CLASS
  1
ACDBPLACEHOLDER
  2
AcDbPlaceHolder
  3
ObjectDBX Classes
 90
        0
280
     0
281
     0
  0
CLASS
  1
LAYOUT
  2
AcDbLayout
  3
ObjectDBX Classes
 90
        0
280
     0
281
     0
  0
CLASS
  1
DICTIONARYVAR
  2
AcDbDictionaryVar
  3
ObjectDBX Classes
 90
        0
280
     0
281
     0
  0
CLASS
  1
MATERIAL
  2
AcDbMaterial
  3
ObjectDBX Classes
 90
     1153
280
     0
281
     0
  0
CLASS
  1
SORTENTSTABLE
  2
AcDbSortentsTable
  3
ObjectDBX Classes
 90
        0
280
     0
281
     0
  0
CLASS
  1
VISUALSTYLE
  2
AcDbVisualStyle
  3
ObjectDBX Classes
 90
     4095
280
     0
281
     0
  0
CLASS
  1
TABLESTYLE
  2
AcDbTableStyle
  3
ObjectDBX Classes
 90
     4095
280
     0
281
     0
  0
CLASS
  1
SCALE
  2
AcDbScale
  3
ObjectDBX Classes
 90
     1153
280
     0
281
     0
  0
CLASS
  1
MLEADERSTYLE
  2
AcDbMLeaderStyle
  3
ACDB_MLEADERSTYLE_CLASS
 90
     4095
280
     0
281
     0
  0
CLASS
  1
CELLSTYLEMAP
  2
AcDbCellStyleMap
  3
ObjectDBX Classes
 90
     1152
280
     0
281
     0
  0
CLASS
  1
MULTILEADER
  2
AcDbMLeader
  3
ACDB_MLEADER_CLASS
 90
     1025
280
     0
281
     1
  0
CLASS
  1
DIMASSOC
  2
AcDbDimAssoc
  3
"AcDbDimAssoc|Product Desc:     AcDim ARX App For Dimension|Company:          Autodesk, Inc.|WEB Address:      www.autodesk.com"
 90
        0
280
     0
281
     0
  0
CLASS
  1
LARGE_RADIAL_DIMENSION
  2
AcDbRadialDimensionLarge
  3
ObjectDBX Classes
 90
     1025
280
     0
281
     1
  0
CLASS
  1
RASTERVARIABLES
  2
AcDbRasterVariables
  3
ISM
 90
        0
280
     0
281
     0
  0
CLASS
  1
AEC_VARS_DWG_SETUP
  2
AecDbVarsDwgSetup
  3
AecBase60
 90
      129
280
     0
281
     0
  0
CLASS
  1
AEC_DISP_REP_2D_SECTION
  2
AecDbDispRep2dSection
  3
AecBase60
 90
      129
280
     0
281
     0
  0
CLASS
  1
AEC_DISP_PROPS_2D_SECTION
  2
AecDbDispProps2dSection
  3
AecBase60
 90
      129
280
     0
281
     0
  0
CLASS
  1
AEC_DISP_REP_CLIP_VOLUME_MODEL
  2
AecDbDispRepClipVolModel
  3
AecBase60
 90
      129
280
     0
281
     0
  0
CLASS
  1
AEC_DISP_PROPS_CLIP_VOLUME
  2
AecDbDispPropsClipVol
  3
AecBase60
 90
      129
280
     0
281
     0
  0
CLASS
  1
AEC_DISP_REP_CLIP_VOLUME_PLAN
  2
AecDbDispRepClipVolPlan
  3
AecBase60
 90
      129
280
     0
281
     0
  0
CLASS
  1
AEC_DISP_REP_CLIP_VOLUME_RESULT
  2
AecDbDispRepClipVolResult
  3
AecBase60
 90
      129
280
     0
281
     0
  0
CLASS
  1
AEC_DISP_REP_CLIP_VOLUME_RESULT_SUBDIV
  2
AecDbDispRepClipVolResSubDiv
  3
AecBase60
 90
      129
280
     0
281
     0
  0
CLASS
  1
AEC_DISP_PROPS_CLIP_VOLUME_RESULT
  2
AecDbDispPropsClipVolResSubDiv
  3
AecBase60
 90
      129
280
     0
281
     0
  0
CLASS
  1
AEC_DISP_REP_DISPLAYTHEME
  2
AecDbDispRepDisplayTheme
  3
AecBase60
 90
      129
280
     0
281
     0
  0
CLASS
  1
AEC_DISP_PROPS_DISPLAYTHEME
  2
AecDbDispPropsDisplayTheme
  3
AecBase60
 90
      129
280
     0
281
     0
  0
CLASS
  1
AEC_DISP_REP_ENT_REF
  2
AecDbDispRepEntRef
  3
AecBase60
 90
      129
280
     0
281
     0
  0
CLASS
  1
AEC_DISP_PROPS_ENT_REF
  2
AecDbDispPropsEntRef
  3
AecBase60
 90
      129
280
     0
281
     0
  0
CLASS
  1
AEC_DISP_REP_LAYOUT_CURVE
  2
AecDbDispRepLayoutCurve
  3
AecBase60
 90
      129
280
     0
281
     0
  0
CLASS
  1
AEC_DISP_PROPS_LAYOUT_CURVE
  2
AecDbDispPropsLayoutCurve
  3
AecBase60
 90
      129
280
     0
281
     0
  0
CLASS
  1
AEC_DISP_REP_LAYOUT_GRID2D
  2
AecDbDispRepLayoutGrid2d
  3
AecBase60
 90
      129
280
     0
281
     0
  0
CLASS
  1
AEC_DISP_PROPS_LAYOUT_GRID2D
  2
AecDbDispPropsLayoutGrid2d
  3
AecBase60
 90
      129
280
     0
281
     0
  0
CLASS
  1
AEC_DISP_REP_LAYOUT_GRID3D
  2
AecDbDispRepLayoutGrid3d
  3
AecBase60
 90
      129
280
     0
281
     0
  0
CLASS
  1
AEC_DISP_PROPS_LAYOUT_GRID3D
  2
AecDbDispPropsLayoutGrid3d
  3
AecBase60
 90
      129
280
     0
281
     0
  0
CLASS
  1
AEC_DISP_REP_MASKBLOCK_REF
  2
AecDbDispRepMaskBlockRef
  3
AecBase60
 90
      129
280
     0
281
     0
  0
CLASS
  1
AEC_DISP_PROPS_MASKBLOCK
  2
AecDbDispPropsMaskBlock
  3
AecBase60
 90
      129
280
     0
281
     0
  0
CLASS
  1
AEC_DISP_REP_MASKBLOCK_REF_RCP
  2
AecDbDispRepMaskBlockRefRcp
  3
AecArchBase60
 90
      129
280
     0
281
     0
  0
CLASS
  1
AEC_DISP_REP_MASS_ELEM_MODEL
  2
AecDbDispRepMassElemModel
  3
AecBase60
 90
      129
280
     0
281
     0
  0
CLASS
  1
AEC_DISP_PROPS_MASS_ELEM_MODEL
  2
AecDbDispPropsMassElem
  3
AecBase60
 90
      129
280
     0
281
     0
  0
CLASS
  1
AEC_DISP_REP_MASS_ELEM_SCHEM
  2
AecDbDispRepMassElemSchem
  3
AecBase60
 90
      129
280
     0
281
     0
  0
CLASS
  1
AEC_DISPREPAECDBDISPREPMASSELEMPLAN50
  2
AecDbDispRepMassElemPlan50
  3
AecArchDACHBase60
 90
      129
280
     0
281
     0
  0
CLASS
  1
AEC_DISPROPSMASSELEMPLANCOMMON
  2
AecDbDispPropsMassElemPlanCommon
  3
AecArchDACHBase60
 90
      129
280
     0
281
     0
  0
CLASS
  1
AEC_DISPREPAECDBDISPREPMASSELEMPLAN100
  2
AecDbDispRepMassElemPlan100
  3
AecArchDACHBase60
 90
      129
280
     0
281
     0
  0
CLASS
  1
AEC_DISP_REP_MASS_ELEM_RCP
  2
AecDbDispRepMassElemRcp
  3
AecArchBase60
 90
      129
280
     0
281
     0
  0
CLASS
  1
AEC_DISP_REP_MASS_GROUP_MODEL
  2
AecDbDispRepMassGroupModel
  3
AecBase60
 90
      129
280
     0
281
     0
  0
CLASS
  1
AEC_DISP_PROPS_MASS_GROUP
  2
AecDbDispPropsMassGroup
  3
AecBase60
 90
      129
280
     0
281
     0
  0
CLASS
  1
AEC_DISP_REP_MASS_GROUP_PLAN
  2
AecDbDispRepMassGroupPlan
  3
AecBase60
 90
      129
280
     0
281
     0
  0
CLASS
  1
AEC_DISPREPAECDBDISPREPMASSGROUPPLAN50
  2
AecDbDispRepMassGroupPlan50
  3
AecArchDACHBase60
 90
      129
280
     0
281
     0
  0
CLASS
  1
AEC_DISPROPSMASSGROUPPLANCOMMON
  2
AecDbDispPropsMassGroupPlanCommon
  3
AecArchDACHBase60
 90
      129
280
     0
281
     0
  0
CLASS
  1
AEC_DISPREPAECDBDISPREPMASSGROUPPLAN100
  2
AecDbDispRepMassGroupPlan100
  3
AecArchDACHBase60
 90
      129
280
     0
281
     0
  0
CLASS
  1
AEC_DISP_REP_MASS_GROUP_RCP
  2
AecDbDispRepMassGroupRcp
  3
AecArchBase60
 90
      129
280
     0
281
     0
  0
CLASS
  1
AEC_DISP_REP_MVBLOCK_REF
  2
AecDbDispRepMvBlockRef
  3
AecBase60
 90
      129
280
     0
281
     0
  0
CLASS
  1
AEC_DISP_REP_MVBLOCK_REF_MODEL
  2
AecDbDispRepMvBlockRefModel
  3
AecBase60
 90
      129
280
     0
281
     0
  0
CLASS
  1
AEC_AECDBDISPREPMVBLOCKREFPLAN100
  2
AecDbDispRepMvBlockRefPlan100
  3
AecBase60
 90
      129
280
     0
281
     0
  0
CLASS
  1
AEC_AECDBDISPREPMVBLOCKREFPLAN50
  2
AecDbDispRepMvBlockRefPlan50
  3
AecBase60
 90
      129
280
     0
281
     0
  0
CLASS
  1
AEC_DISP_REP_POLYGON_MODEL
  2
AecDbDispRepPolygonModel
  3
AecBase60
 90
      129
280
     0
281
     0
  0
CLASS
  1
AEC_DISP_PROPS_POLYGON_MODEL
  2
AecDbDispPropsPolygonModel
  3
AecBase60
 90
      129
280
     0
281
     0
  0
CLASS
  1
AEC_DISP_REP_POLYGON_TRUECOLOUR
  2
AecDbDispRepPolygonTrueColour
  3
AecBase60
 90
      129
280
     0
281
     0
  0
CLASS
  1
AEC_DISP_PROPS_POLYGON_TRUECOLOUR
  2
AecDbDispPropsPolygonTrueColour
  3
AecBase60
 90
      129
280
     0
281
     0
  0
CLASS
  1
AEC_DISP_REP_SLICE
  2
AecDbDispRepSlice
  3
AecBase60
 90
      129
280
     0
281
     0
  0
CLASS
  1
AEC_DISP_PROPS_SLICE
  2
AecDbDispPropsSlice
  3
AecBase60
 90
      129
280
     0
281
     0
  0
CLASS
  1
AEC_DISP_REP_ANCHOR
  2
AecDbDispRepAnchor
  3
AecBase60
 90
      129
280
     0
281
     0
  0
CLASS
  1
AEC_DISP_REP_ANCHOR_ENT_TO_NODE
  2
AecDbDispRepAnchorEntToNode
  3
AecBase60
 90
      129
280
     0
281
     0
  0
CLASS
  1
AEC_DISP_PROPS_ENT
  2
AecDbDispPropsEnt
  3
AecBase60
 90
      129
280
     0
281
     0
  0
CLASS
  1
AEC_DISP_REP_MATERIAL
  2
AecDbDispRepMaterial
  3
AecBase60
 90
      129
280
     0
281
     0
  0
CLASS
  1
AEC_DISP_PROPS_MATERIAL
  2
AecDbDispPropsMaterial
  3
AecBase60
 90
      129
280
     0
281
     0
  0
CLASS
  1
AEC_DISP_REP_EDITINPLACEPROFILE
  2
AecDbDispRepEditInPlaceProfile
  3
AecBase60
 90
      129
280
     0
281
     0
  0
CLASS
  1
AEC_DISP_PROPS_EDITINPLACEPROFILE_MODEL
  2
AecDbDispPropsEditInPlaceProfile
  3
AecBase60
 90
      129
280
     0
281
     0
  0
CLASS
  1
SUN
  2
AcDbSun
  3
SCENEOE
 90
     1153
280
     0
281
     0
  0
ENDSEC
  0
SECTION
  2
TABLES
  0
TABLE
  2
VPORT
  5
8
330
0
100
AcDbSymbolTable
 70
     2
  0
VPORT
  5
3A8C60
330
8
100
AcDbSymbolTableRecord
100
AcDbViewportTableRecord
  2
*Active
 70
     0
 10
0.0
 20
0.0
 11
1.0
 21
1.0
 12
19240.41497303539
 22
-17524.31962951693
 13
0.0
 23
0.0
 14
1.0
 24
1.0
 15
20.0
 25
20.0
 16
0.0
 26
0.0
 36
1.0
 17
0.0
 27
0.0
 37
0.0
 40
127.3759379065625
 41
2.027568922305764
 42
50.0
 43
0.0
 44
0.0
 50
0.0
 51
0.0
 71
    16
 72
   100
 73
     1
 74
     0
 75
     0
 76
     0
 77
     0
 78
     0
281
     0
 65
     1
110
0.0
120
0.0
130
0.0
111
1.0
121
0.0
131
0.0
112
0.0
122
1.0
132
0.0
 79
     0
146
0.0
  0
ENDTAB
  0
TABLE
  2
LTYPE
  5
5
330
0
100
AcDbSymbolTable
 70
     4
  0
LTYPE
  5
12
330
5
100
AcDbSymbolTableRecord
100
AcDbLinetypeTableRecord
  2
BYBLOCK
 70
     0
  3

 72
    65
 73
     0
 40
0.0
  0
LTYPE
  5
13
330
5
100
AcDbSymbolTableRecord
100
AcDbLinetypeTableRecord
  2
BYLAYER
 70
     0
  3

 72
    65
 73
     0
 40
0.0
  0
LTYPE
  5
14
330
5
100
AcDbSymbolTableRecord
100
AcDbLinetypeTableRecord
  2
CONTINUOUS
 70
     0
  3
Solid line
 72
    65
 73
     0
 40
0.0
  0
LTYPE
  5
25
330
5
100
AcDbSymbolTableRecord
100
AcDbLinetypeTableRecord
  2
CENTER
 70
     0
  3
____ _ ____ _ ____ _ ____ _ ____ _ ____ _ ____
 72
    65
 73
     4
 40
2.0
 49
1.25
 74
     0
 49
-0.25
 74
     0
 49
0.25
 74
     0
 49
-0.25
 74
     0
  0
LTYPE
  5
26
330
5
100
AcDbSymbolTableRecord
100
AcDbLinetypeTableRecord
  2
PHANTOM
 70
     0
  3
_____ _ _ _____ _ _ _____ _ _ _____ _ _ ____
 72
    65
 73
     6
 40
2.5
 49
1.25
 74
     0
 49
-0.25
 74
     0
 49
0.25
 74
     0
 49
-0.25
 74
     0
 49
0.25
 74
     0
 49
-0.25
 74
     0
  0
LTYPE
  5
27
330
5
100
AcDbSymbolTableRecord
100
AcDbLinetypeTableRecord
  2
HIDDEN
 70
     0
  3
_ _ _ _ _ _ _ _ _ _ _ _ _ _ _ _ _ _ _ _ _ _ _
 72
    65
 73
     2
 40
0.375
 49
0.25
 74
     0
 49
-0.125
 74
     0
  0
ENDTAB
  0
TABLE
  2
LAYER
  5
2
102
{ACAD_XDICTIONARY
360
559E
102
}
330
0
100
AcDbSymbolTable
 70
    21
  0
LAYER
  5
F
102
{ACAD_XDICTIONARY
360
CD7F
102
}
330
2
100
AcDbSymbolTableRecord
100
AcDbLayerTableRecord
  2
0
 70
     0
 62
     7
  6
CONTINUOUS
370
    -3
390
352
  0
LAYER
  5
34
102
{ACAD_XDICTIONARY
360
CD85
102
}
330
2
100
AcDbSymbolTableRecord
100
AcDbLayerTableRecord
  2
寸法線
 70
     0
 62
     7
  6
CONTINUOUS
370
    -3
390
352
  0
LAYER
  5
36
330
2
100
AcDbSymbolTableRecord
100
AcDbLayerTableRecord
  2
DEFPOINTS
 70
     0
 62
     7
  6
CONTINUOUS
290
     0
370
    -3
390
352
  0
LAYER
  5
2F4
102
{ACAD_XDICTIONARY
360
CD8D
102
}
330
2
100
AcDbSymbolTableRecord
100
AcDbLayerTableRecord
  2
文字
 70
     0
 62
     7
  6
CONTINUOUS
370
    -3
390
352
  0
LAYER
  5
306B15
330
2
100
AcDbSymbolTableRecord
100
AcDbLayerTableRecord
  2
C-SUNPO
 70
     0
 62
     7
  6
CONTINUOUS
370
    -3
390
352
  0
LAYER
  5
31D3CB
330
2
100
AcDbSymbolTableRecord
100
AcDbLayerTableRecord
  2
姿図
 70
     0
 62
     8
  6
CONTINUOUS
370
    -3
390
352
  0
ENDTAB
  0
TABLE
  2
STYLE
  5
3
330
0
100
AcDbSymbolTable
 70
     1
  0
STYLE
  5
10
330
3
100
AcDbSymbolTableRecord
100
AcDbTextStyleTableRecord
  2
STANDARD
 70
     0
 40
0.0
 41
1.0
 50
0.0
 71
     0
 42
3.5
  3
MONOTXT
  4
BIGFONT
  0
ENDTAB
  0
TABLE
  2
VIEW
  5
6
330
0
100
AcDbSymbolTable
 70
     0
  0
ENDTAB
  0
TABLE
  2
UCS
  5
7
330
0
100
AcDbSymbolTable
 70
     0
  0
ENDTAB
  0
TABLE
  2
APPID
  5
9
330
0
100
AcDbSymbolTable
 70
    23
  0
APPID
  5
11
330
9
100
AcDbSymbolTableRecord
100
AcDbRegAppTableRecord
  2
ACAD
 70
     0
  0
APPID
  5
C058
330
9
100
AcDbSymbolTableRecord
100
AcDbRegAppTableRecord
  2
AcAecLayerStandard
 70
     0
  0
APPID
  5
CD77
330
9
100
AcDbSymbolTableRecord
100
AcDbRegAppTableRecord
  2
ACAD_MLEADERVER
 70
     0
  0
APPID
  5
D036
330
9
100
AcDbSymbolTableRecord
100
AcDbRegAppTableRecord
  2
ACAD_PSEXT
 70
     0
  0
APPID
  5
D28E
330
9
100
AcDbSymbolTableRecord
100
AcDbRegAppTableRecord
  2
ACAD_DSTYLE_DIMJAG
 70
     0
  0
APPID
  5
D28F
330
9
100
AcDbSymbolTableRecord
100
AcDbRegAppTableRecord
  2
ACAD_DSTYLE_DIMTALN
 70
     0
  0
APPID
  5
10E35
330
9
100
AcDbSymbolTableRecord
100
AcDbRegAppTableRecord
  2
ACAD_EXEMPT_FROM_CAD_STANDARDS
 70
     0
  0
APPID
  5
36B90
330
9
100
AcDbSymbolTableRecord
100
AcDbRegAppTableRecord
  2
ACAD_DSTYLE_DIMRADIAL_EXTENSION
 70
     0
  0
APPID
  5
4CBB9
330
9
100
AcDbSymbolTableRecord
100
AcDbRegAppTableRecord
  2
WACOM_STRING
 70
     0
  0
APPID
  5
4CBBA
330
9
100
AcDbSymbolTableRecord
100
AcDbRegAppTableRecord
  2
WACOM_DRSYM_ARROW
 70
     0
  0
APPID
  5
83B4C
330
9
100
AcDbSymbolTableRecord
100
AcDbRegAppTableRecord
  2
ACAD_DSTYLE_DIMRADIAL_EXTE
 70
     0
  0
APPID
  5
83B4D
330
9
100
AcDbSymbolTableRecord
100
AcDbRegAppTableRecord
  2
ACAD_DSTYLE_DIMBREAK
 70
     0
  0
APPID
  5
83B4E
330
9
100
AcDbSymbolTableRecord
100
AcDbRegAppTableRecord
  2
ACAD_DSTYLE_DIMARC_LENGTH_
 70
     0
  0
APPID
  5
8B472
330
9
100
AcDbSymbolTableRecord
100
AcDbRegAppTableRecord
  2
LAYER_SCALE
 70
     0
  0
APPID
  5
8B473
330
9
100
AcDbSymbolTableRecord
100
AcDbRegAppTableRecord
  2
KCAD_DIM_EXT
 70
     0
  0
APPID
  5
16ECBA
330
9
100
AcDbSymbolTableRecord
100
AcDbRegAppTableRecord
  2
GENIUS_GENDTOL_13
 70
     0
  0
APPID
  5
23CCFB
330
9
100
AcDbSymbolTableRecord
100
AcDbRegAppTableRecord
  2
AcadAnnotative
 70
     0
  0
APPID
  5
31A28D
330
9
100
AcDbSymbolTableRecord
100
AcDbRegAppTableRecord
  2
ACAD_DSTYLE_DIMFLIPARROW_WHICH_SYMBOL
 70
     0
  0
APPID
  5
3A8C61
330
9
100
AcDbSymbolTableRecord
100
AcDbRegAppTableRecord
  2
AECBASE
 70
     0
  0
APPID
  5
3A8C62
330
9
100
AcDbSymbolTableRecord
100
AcDbRegAppTableRecord
  2
AEC_2DSECTION_XDATA
 70
     0
  0
APPID
  5
3A8C63
330
9
100
AcDbSymbolTableRecord
100
AcDbRegAppTableRecord
  2
AEC_MASSGROUP_XDADA
 70
     0
  0
APPID
  5
3A9BBD
330
9
100
AcDbSymbolTableRecord
100
AcDbRegAppTableRecord
  2
ACAD_SPLINE_DATA
 70
     0
  0
APPID
  5
3A9BBE
330
9
100
AcDbSymbolTableRecord
100
AcDbRegAppTableRecord
  2
ACAD_SPLINE_DATA2
 70
     0
  0
ENDTAB
  0
TABLE
  2
DIMSTYLE
  5
A
330
0
100
AcDbSymbolTable
 70
     3
100
AcDbDimStyleTable
  0
DIMSTYLE
105
1CC
330
A
100
AcDbSymbolTableRecord
100
AcDbDimStyleTableRecord
  2
STANDARD
 70
     0
 41
2.5
 42
1.5
 43
7.0
 44
1.0
 45
0.0
 73
     0
 74
     0
 77
     3
 78
     8
 79
     2
140
3.0
141
0.0
146
0.6
147
1.0
171
     0
172
     1
176
     8
177
     8
271
     3
178
   256
179
     3
271
     3
272
     3
274
     0
289
     0
340
10
341
265D
342
265D
1001
ACAD_DSTYLE_DIMJAG
1070
   388
1040
1.5
1001
ACAD_DSTYLE_DIMTALN
1070
   392
1070
     0
  0
ENDTAB
  0
TABLE
  2
BLOCK_RECORD
  5
1
330
0
100
AcDbSymbolTable
 70
    32
  0
BLOCK_RECORD
  5
18
102
{ACAD_XDICTIONARY
360
D25F
102
}
330
1
100
AcDbSymbolTableRecord
100
AcDbBlockTableRecord
  2
*MODEL_SPACE
340
355
  0
BLOCK_RECORD
  5
15
330
1
100
AcDbSymbolTableRecord
100
AcDbBlockTableRecord
  2
*PAPER_SPACE
340
356
  0
BLOCK_RECORD
  5
416
330
1
100
AcDbSymbolTableRecord
100
AcDbBlockTableRecord
  2
SUN
340
0
  0
BLOCK_RECORD
  5
265D
330
1
100
AcDbSymbolTableRecord
100
AcDbBlockTableRecord
  2
_OPEN30
340
0
102
{BLKREFS
331
3A499C
331
3A499D
331
3A49A5
331
3A49A6
331
3A49AE
331
3A49AF
331
3A49B7
331
3A49B8
331
3A49C0
331
3A49C1
331
3A49C9
331
3A49CA
331
3A674F
331
3A6750
331
3A6759
331
3A675A
331
3A6763
331
3A6764
331
3A676D
331
3A676E
331
3A6777
331
3A6778
331
3A6781
331
3A6782
331
3A87F4
331
3A87F5
331
3A87FD
331
3A87FE
331
3A8806
331
3A8807
331
3A880F
331
3A8810
331
3A8818
331
3A8819
331
3A8821
331
3A8822
331
3A9B6B
331
3A9B6C
331
3A9B77
331
3A9B78
331
3A9B83
331
3A9B84
331
3A9B8F
331
3A9B90
331
3A9B9B
331
3A9B9C
331
3A9BA7
331
3A9BA8
102
}
  0
BLOCK_RECORD
  5
352B8A
330
1
100
AcDbSymbolTableRecord
100
AcDbBlockTableRecord
  2
_OPEN
340
0
102
{BLKREFS
331
0
331
0
331
0
331
0
331
0
331
0
331
0
331
0
102
}
  0
BLOCK_RECORD
  5
35A9FD
330
1
100
AcDbSymbolTableRecord
100
AcDbBlockTableRecord
  2
_None
340
0
102
{BLKREFS
331
3A678C
331
3A678D
331
3A9BB4
331
3A9BB5
102
}
  0
ENDTAB
  0
ENDSEC
  0
SECTION
  2
BLOCKS
  0
BLOCK
  5
39
330
18
100
AcDbEntity
  8
0
100
AcDbBlockBegin
  2
*MODEL_SPACE
 70
     0
 10
0.0
 20
0.0
 30
0.0
  3
*MODEL_SPACE
  1
*MODEL_SPACE
  0
ENDBLK
  5
3A
330
18
100
AcDbEntity
  8
0
100
AcDbBlockEnd
  0
BLOCK
  5
37
330
15
100
AcDbEntity
 67
     1
  8
0
100
AcDbBlockBegin
  2
*PAPER_SPACE
 70
     0
 10
0.0
 20
0.0
 30
0.0
  3
*PAPER_SPACE
  1
*PAPER_SPACE
  0
ENDBLK
  5
38
330
15
100
AcDbEntity
 67
     1
  8
0
100
AcDbBlockEnd
  0
BLOCK
  5
41A
330
416
100
AcDbEntity
  8
0
100
AcDbBlockBegin
  2
SUN
 70
     0
 10
0.0
 20
0.0
 30
0.0
  3
SUN
  1
SUN
  0
LINE
  5
417
330
416
100
AcDbEntity
  8
0
100
AcDbLine
 10
-0.0000000000000568
 20
0.0
 30
0.0
 11
-1.500000000000057
 21
0.0
 31
0.0
  0
LINE
  5
418
330
416
100
AcDbEntity
  8
0
100
AcDbLine
 10
-0.0000000000000568
 20
0.0000000000000284
 30
0.0
 11
-1.500000000000057
 21
0.401923788646684
 31
0.0
  0
LINE
  5
419
330
416
100
AcDbEntity
  8
0
100
AcDbLine
 10
-0.0000000000000568
 20
0.0000000000000284
 30
0.0
 11
-1.500000000000057
 21
-0.4019237886466556
 31
0.0
  0
ENDBLK
  5
41B
330
416
100
AcDbEntity
  8
0
100
AcDbBlockEnd
  0
BLOCK
  5
265E
330
265D
100
AcDbEntity
  8
0
100
AcDbBlockBegin
  2
_OPEN30
 70
     0
 10
0.0
 20
0.0
 30
0.0
  3
_OPEN30
  1
_OPEN30
  0
LINE
  5
265F
330
265D
100
AcDbEntity
  8
0
  6
ByBlock
 62
     0
100
AcDbLine
 10
-1.0
 20
0.26794919
 30
0.0
 11
0.0
 21
0.0
 31
0.0
  0
LINE
  5
2660
330
265D
100
AcDbEntity
  8
0
  6
ByBlock
 62
     0
100
AcDbLine
 10
0.0
 20
0.0
 30
0.0
 11
-1.0
 21
-0.26794919
 31
0.0
  0
LINE
  5
2661
330
265D
100
AcDbEntity
  8
0
  6
ByBlock
 62
     0
100
AcDbLine
 10
0.0
 20
0.0
 30
0.0
 11
-1.0
 21
0.0
 31
0.0
  0
ENDBLK
  5
2662
330
265D
100
AcDbEntity
  8
0
100
AcDbBlockEnd
  0
BLOCK
  5
352B8B
330
352B8A
100
AcDbEntity
  8
0
100
AcDbBlockBegin
  2
_OPEN
 70
     0
 10
0.0
 20
0.0
 30
0.0
  3
_OPEN
  1
_OPEN
  0
LINE
  5
352B8C
330
352B8A
100
AcDbEntity
  8
0
  6
ByBlock
 62
     0
100
AcDbLine
 10
-1.0
 20
0.1666666666666667
 30
0.0
 11
0.0
 21
0.0
 31
0.0
  0
LINE
  5
352B8D
330
352B8A
100
AcDbEntity
  8
0
  6
ByBlock
 62
     0
100
AcDbLine
 10
0.0
 20
0.0
 30
0.0
 11
-1.0
 21
-0.1666666666666667
 31
0.0
  0
LINE
  5
352B8E
330
352B8A
100
AcDbEntity
  8
0
  6
ByBlock
 62
     0
100
AcDbLine
 10
0.0
 20
0.0
 30
0.0
 11
-1.0
 21
0.0
 31
0.0
  0
ENDBLK
  5
352B8F
330
352B8A
100
AcDbEntity
  8
0
100
AcDbBlockEnd
  0
BLOCK
  5
35A9FE
330
35A9FD
100
AcDbEntity
  8
0
 48
3.0
100
AcDbBlockBegin
  2
_None
 70
     0
 10
0.0
 20
0.0
 30
0.0
  3
_None
  1
_None
  0
ENDBLK
  5
35A9FF
330
35A9FD
100
AcDbEntity
  8
0
 48
3.0
100
AcDbBlockEnd
  0
ENDSEC
  0
SECTION
  2
ENTITIES
  0
MTEXT
  5
8182F
330
18
100
AcDbEntity
  8
0
100
AcDbMText
 10
5598.734167156057
 20
-2635.335630549191
 30
0.0
 40
3.0
 41
0.0
 71
     7
 72
     1
  1
\A1;
 73
     1
 44
1.0
  0
MTEXT
  5
3073B9
330
18
100
AcDbEntity
  8
C-SUNPO
 62
     7
100
AcDbMText
 10
8897.245354628265
 20
-2466.345110988794
 30
0.0
 40
2.0
 41
0.0
 71
     5
 72
     1
  1
\A1;\P\P 
 11
0.999998667560571
 21
0.001632445123950444
 31
0.0
 73
     1
 44
1.0
  0
TEXT
  5
3A8CCF
330
18
100
AcDbEntity
  8
文字
100
AcDbText
 10
19203.03997303539
 20
-17586.75881476525
 30
0.0
 40
9.75
  1
SX-910DF
100
AcDbText
  0
SPLINE
  5
3A958C
330
18
100
AcDbEntity
  8
姿図
100
AcDbSpline
210
0.0
220
0.0
230
1.0
 70
     8
 71
     3
 72
    26
 73
    22
 74
     0
 42
0.000000001
 43
0.0000000001
 40
0.0
 40
0.0
 40
0.0
 40
0.0
 40
0.1264422350829495
 40
0.1264422350829495
 40
0.1588844121662647
 40
0.1588844121662647
 40
0.1751106177118944
 40
0.1751106177118944
 40
0.1858741810274541
 40
0.1858741810274541
 40
0.1957084812443391
 40
0.1957084812443391
 40
0.2081347559133095
 40
0.2081347559133095
 40
0.2307818527987925
 40
0.2307818527987925
 40
0.2883799021281352
 40
0.2883799021281352
 40
0.5072725936264543
 40
0.5072725936264543
 40
1.002470307424774
 40
1.002470307424774
 40
1.002470307424774
 40
1.002470307424774
 10
19268.76861330327
 20
-17474.93414856166
 30
0.0000000000000089
 10
19268.77197469559
 20
-17474.93445360237
 30
-0.0000000000000011
 10
19268.77598055187
 20
-17474.93406578235
 30
0.0000000000000089
 10
19268.77920781747
 20
-17474.93014695814
 30
0.0000000000000188
 10
19268.7799153064
 20
-17474.92899290229
 30
0.0000000000000089
 10
19268.78068087409
 20
-17474.92647415382
 30
0.0000000000000089
 10
19268.78090919516
 20
-17474.92543058694
 30
0.0000000000000089
 10
19268.78112955734
 20
-17474.92328202231
 30
0.0000000000000089
 10
19268.7811738496
 20
-17474.92233048069
 30
0.0000000000000188
 10
19268.78114748668
 20
-17474.92030597359
 30
0.0000000000000288
 10
19268.78108726739
 20
-17474.91931514898
 30
0.0000000000000089
 10
19268.78086156092
 20
-17474.91704156968
 30
0.0000000000000288
 10
19268.78067737912
 20
-17474.91580007711
 30
0.0000000000000188
 10
19268.78008840256
 20
-17474.91251421063
 30
0.0000000000000188
 10
19268.77959623554
 20
-17474.91048091155
 30
0.0000000000000188
 10
19268.77789940817
 20
-17474.90424665432
 30
0.0000000000000188
 10
19268.77630002991
 20
-17474.89982415736
 30
0.0000000000000288
 10
19268.76898500174
 20
-17474.88154321225
 30
0.0000000000000188
 10
19268.76042411899
 20
-17474.86637256025
 30
-0.0000000000000011
 10
19268.73940276037
 20
-17474.83171718358
 30
0.0000000000000089
 10
19268.71916354743
 20
-17474.80344257426
 30
-0.0000000000000011
 10
19268.69230808673
 20
-17474.77143289504
 30
0.0000000000000188
  0
SPLINE
  5
3A958D
330
18
100
AcDbEntity
  8
姿図
100
AcDbSpline
210
0.0
220
0.0
230
1.0
 70
     8
 71
     3
 72
    16
 73
    12
 74
     0
 42
0.000000001
 43
0.0000000001
 40
15.85860550385592
 40
15.85860550385592
 40
15.85860550385592
 40
15.85860550385592
 40
16.11243786898941
 40
16.11243786898941
 40
16.67677331177295
 40
16.67677331177295
 40
17.2411087545565
 40
17.2411087545565
 40
17.80544419734004
 40
17.80544419734004
 40
18.35651257010812
 40
18.35651257010812
 40
18.35651257010812
 40
18.35651257010812
 10
19265.52445567984
 20
-17469.95157889792
 30
0.0000000000000188
 10
19265.53721288027
 20
-17469.93775953292
 30
0.0000000000000188
 10
19265.54938938537
 20
-17469.92297534148
 30
0.0000000000000188
 10
19265.58655427163
 20
-17469.87266606948
 30
-0.0000000000000011
 10
19265.6107177837
 20
-17469.83155144978
 30
0.0000000000000089
 10
19265.65364002162
 20
-17469.7380119278
 30
0.0000000000000089
 10
19265.67240379269
 20
-17469.68559022463
 30
0.0000000000000188
 10
19265.70308112869
 20
-17469.57262733287
 30
0.0000000000000188
 10
19265.71502167858
 20
-17469.51199369716
 30
-0.0000000000000011
 10
19265.73140629162
 20
-17469.38829147556
 30
-0.0000000000000011
 10
19265.73601990254
 20
-17469.32531235375
 30
0.0000000000000188
 10
19265.73742162035
 20
-17469.26295522433
 30
0.0000000000000089
  0
SPLINE
  5
3A958E
330
18
100
AcDbEntity
  8
姿図
100
AcDbSpline
210
0.0
220
0.0
230
1.0
 70
     8
 71
     3
 72
    30
 73
    26
 74
     0
 42
0.000000001
 43
0.0000000001
 40
5.468358937646049
 40
5.468358937646049
 40
5.468358937646049
 40
5.468358937646049
 40
5.554474529312383
 40
5.554474529312383
 40
5.597484804418004
 40
5.597484804418004
 40
5.640495079523625
 40
5.640495079523625
 40
5.653252350784877
 40
5.653252350784877
 40
5.659630986415502
 40
5.659630986415502
 40
5.666009622046128
 40
5.666009622046128
 40
5.672394292855955
 40
5.672394292855955
 40
5.678778963665781
 40
5.678778963665781
 40
5.691548305285435
 40
5.691548305285435
 40
5.734612320533793
 40
5.734612320533793
 40
5.77767633578215
 40
5.77767633578215
 40
5.877831414689104
 40
5.877831414689104
 40
5.877831414689104
 40
5.877831414689104
 10
19268.66763361028
 20
-17473.50859326258
 30
0.0000000000000188
 10
19268.67012967644
 20
-17473.50909124045
 30
0.0000000000000089
 10
19268.67256940134
 20
-17473.50932310943
 30
-0.0000000000000011
 10
19268.67610034647
 20
-17473.50876488344
 30
0.0000000000000188
 10
19268.67737517885
 20
-17473.50840688782
 30
0.0000000000000089
 10
19268.67980360882
 20
-17473.50690373865
 30
0.0000000000000089
 10
19268.68096899134
 20
-17473.5058608366
 30
0.0000000000000288
 10
19268.68211835908
 20
-17473.50302723387
 30
0.0000000000000188
 10
19268.68238131338
 20
-17473.50219158707
 30
-0.0000000000000011
 10
19268.68265585571
 20
-17473.50060964128
 30
0.0000000000000188
 10
19268.68272853151
 20
-17473.5000298127
 30
0.0000000000000188
 10
19268.68281754957
 20
-17473.49876798378
 30
-0.0000000000000011
 10
19268.68283423967
 20
-17473.49808675845
 30
0.0000000000000188
 10
19268.68280401692
 20
-17473.49664973609
 30
0.0000000000000089
 10
19268.6827572661
 20
-17473.49590403315
 30
0.0000000000000188
 10
19268.68261011187
 20
-17473.49440300594
 30
-0.0000000000000011
 10
19268.68250938585
 20
-17473.49364777276
 30
-0.0000000000000011
 10
19268.68215510552
 20
-17473.49142983525
 30
0.0000000000000089
 10
19268.68184515416
 20
-17473.49001481315
 30
0.0000000000000388
 10
19268.68052517599
 20
-17473.48468276755
 30
-0.0000000000000011
 10
19268.67926458769
 20
-17473.48118485982
 30
0.0000000000000288
 10
19268.67666638545
 20
-17473.4746039696
 30
0.0000000000000288
 10
19268.67532082969
 20
-17473.47160278625
 30
-0.0000000000000011
 10
19268.67121293472
 20
-17473.46290636734
 30
0.0000000000000188
 10
19268.66825606387
 20
-17473.4574443819
 30
0.0000000000000188
 10
19268.66523737349
 20
-17473.45218603261
 30
0.0000000000000288
  0
SPLINE
  5
3A958F
330
18
100
AcDbEntity
  8
姿図
100
AcDbSpline
210
0.0
220
0.0
230
1.0
 70
    12
 71
     2
 72
     6
 73
     3
 74
     0
 42
0.000000001
 43
0.0000000001
 40
22.18928893771569
 40
22.18928893771569
 40
22.18928893771569
 40
29.25375354177516
 40
29.25375354177516
 40
29.25375354177516
 10
19267.68425948085
 20
-17474.55678054022
 30
0.0000000000000288
 41
0.9999999984713707
 10
19267.71155704818
 20
-17473.36223890158
 30
0.0000000000000188
 41
0.9999999989658331
 10
19267.73889092245
 20
-17472.16612911698
 30
0.0000000000000089
 41
0.9999999999300861
  0
SPLINE
  5
3A9590
330
18
100
AcDbEntity
  8
姿図
100
AcDbSpline
210
0.0
220
0.0
230
1.0
 70
     8
 71
     3
 72
    26
 73
    22
 74
     0
 42
0.000000001
 43
0.0000000001
 40
5.508613077618151
 40
5.508613077618151
 40
5.508613077618151
 40
5.508613077618151
 40
6.179005067686559
 40
6.179005067686559
 40
6.340002190112532
 40
6.340002190112532
 40
6.392156946112854
 40
6.392156946112854
 40
6.417035445654846
 40
6.417035445654846
 40
6.433276212519534
 40
6.433276212519534
 40
6.447901642471058
 40
6.447901642471058
 40
6.46599523881348
 40
6.46599523881348
 40
6.498353151737191
 40
6.498353151737191
 40
6.578911697646714
 40
6.578911697646714
 40
6.714781857145347
 40
6.714781857145347
 40
6.714781857145347
 40
6.714781857145347
 10
19267.31083509774
 20
-17473.78252428038
 30
0.0000000000000188
 10
19267.24830246063
 20
-17473.75555072051
 30
0.0000000000000089
 10
19267.20466077788
 20
-17473.74386048882
 30
0.0000000000000188
 10
19267.17435255381
 20
-17473.74415549641
 30
0.0000000000000089
 10
19267.16752273836
 20
-17473.74492058117
 30
-0.0000000000000011
 10
19267.16126775669
 20
-17473.74880560831
 30
-0.0000000000000011
 10
19267.15975662405
 20
-17473.75010793255
 30
0.0000000000000188
 10
19267.15815236321
 20
-17473.75279571866
 30
0.0000000000000188
 10
19267.15767704286
 20
-17473.75387232521
 30
0.0000000000000188
 10
19267.15718996643
 20
-17473.75606240128
 30
0.0000000000000388
 10
19267.15707679722
 20
-17473.75702264548
 30
0.0000000000000188
 10
19267.15706962276
 20
-17473.75905000024
 30
0.0000000000000188
 10
19267.15715515977
 20
-17473.76003337012
 30
0.0000000000000089
 10
19267.15751576941
 20
-17473.76226491169
 30
0.0000000000000089
 10
19267.15782255934
 20
-17473.76346820181
 30
0.0000000000000089
 10
19267.15881403384
 20
-17473.76661696977
 30
0.0000000000000089
 10
19267.15965092124
 20
-17473.76854094307
 30
0.0000000000000188
 10
19267.16252399721
 20
-17473.77436034528
 30
0.0000000000000188
 10
19267.16522802036
 20
-17473.77842163548
 30
-0.0000000000000011
 10
19267.17219488034
 20
-17473.78783041912
 30
0.0000000000000288
 10
19267.17727687651
 20
-17473.7935195527
 30
0.0000000000000188
 10
19267.18178307786
 20
-17473.79823776761
 30
0.0000000000000288
  0
SPLINE
  5
3A9591
330
18
100
AcDbEntity
  8
姿図
100
AcDbSpline
210
0.0
220
0.0
230
1.0
 70
     8
 71
     3
 72
    10
 73
     6
 74
     0
 42
0.000000001
 43
0.0000000001
 40
0.505347474080478
 40
0.505347474080478
 40
0.505347474080478
 40
0.505347474080478
 40
0.5908081871204214
 40
0.5908081871204214
 40
0.6018930666040991
 40
0.6018930666040991
 40
0.6018930666040991
 40
0.6018930666040991
 10
19267.52084293
 20
-17474.37213751097
 30
0.0000000000000089
 10
19267.51880738403
 20
-17474.36297029645
 30
-0.0000000000000011
 10
19267.51549800618
 20
-17474.35286680545
 30
-0.0000000000000011
 10
19267.51001279106
 20
-17474.34231767308
 30
0.0000000000000188
 10
19267.50935795712
 20
-17474.34111881933
 30
0.0000000000000188
 10
19267.50867853202
 20
-17474.33993572215
 30
0.0000000000000089
  0
SPLINE
  5
3A9592
330
18
100
AcDbEntity
  8
姿図
100
AcDbSpline
210
0.0
220
0.0
230
1.0
 70
     8
 71
     3
 72
    26
 73
    22
 74
     0
 42
0.000000001
 43
0.0000000001
 40
0.0
 40
0.0
 40
0.0
 40
0.0
 40
0.128245973690629
 40
0.128245973690629
 40
0.1709107023387558
 40
0.1709107023387558
 40
0.1890943956851749
 40
0.1890943956851749
 40
0.2007783270636655
 40
0.2007783270636655
 40
0.2111470640880597
 40
0.2111470640880597
 40
0.2237033505467542
 40
0.2237033505467542
 40
0.2457537947997618
 40
0.2457537947997618
 40
0.2995509632558
 40
0.2995509632558
 40
0.4920237835540287
 40
0.4920237835540287
 40
0.793426644719398
 40
0.793426644719398
 40
0.793426644719398
 40
0.793426644719398
 10
19268.71982043239
 20
-17474.22258566899
 30
0.0000000000000188
 10
19268.72333656823
 20
-17474.22309478766
 30
0.0000000000000188
 10
19268.72742616455
 20
-17474.22299773197
 30
0.0000000000000188
 10
19268.73115764579
 20
-17474.21966983236
 30
0.0000000000000188
 10
19268.73208865865
 20
-17474.2184487358
 30
0.0000000000000188
 10
19268.73300275915
 20
-17474.21580151099
 30
0.0000000000000089
 10
19268.7332539739
 20
-17474.21480555332
 30
-0.0000000000000011
 10
19268.73350496844
 20
-17474.21275550809
 30
0.0000000000000188
 10
19268.73356188481
 20
-17474.21185538985
 30
0.0000000000000188
 10
19268.73355855956
 20
-17474.20994610935
 30
0.0000000000000188
 10
19268.733510891
 20
-17474.2090194044
 30
0.0000000000000288
 10
19268.73331669647
 20
-17474.20692290894
 30
0.0000000000000288
 10
19268.73315627946
 20
-17474.20579565448
 30
-0.0000000000000011
 10
19268.73264419234
 20
-17474.20285922263
 30
0.0000000000000288
 10
19268.73221938095
 20
-17474.20106428216
 30
-0.0000000000000011
 10
19268.73077732429
 20
-17474.19567233832
 30
0.0000000000000089
 10
19268.72943956523
 20
-17474.19189789654
 30
0.0000000000000089
 10
19268.72351668817
 20
-17474.17683745531
 30
0.0000000000000188
 10
19268.71678915622
 20
-17474.16455103213
 30
0.0000000000000288
 10
19268.70300883491
 20
-17474.14122854786
 30
0.0000000000000089
 10
19268.69218971624
 20
-17474.12505563307
 30
0.0000000000000188
 10
19268.67867452332
 20
-17474.10702169212
 30
0.0000000000000188
  0
SPLINE
  5
3A9593
330
18
100
AcDbEntity
  8
姿図
100
AcDbSpline
210
0.0
220
0.0
230
1.0
 70
     8
 71
     3
 72
    30
 73
    26
 74
     0
 42
0.000000001
 43
0.0000000001
 40
16.78601875418834
 40
16.78601875418834
 40
16.78601875418834
 40
16.78601875418834
 40
16.8861738330952
 40
16.8861738330952
 40
16.92923784834355
 40
16.92923784834355
 40
16.97230186359191
 40
16.97230186359191
 40
16.98507120521156
 40
16.98507120521156
 40
16.99145587602139
 40
16.99145587602139
 40
16.99784054683122
 40
16.99784054683122
 40
17.00421918246185
 40
17.00421918246185
 40
17.01059781809247
 40
17.01059781809247
 40
17.02335508935372
 40
17.02335508935372
 40
17.06636536445934
 40
17.06636536445934
 40
17.10937563956496
 40
17.10937563956496
 40
17.1954912312313
 40
17.1954912312313
 40
17.1954912312313
 40
17.1954912312313
 10
19267.2837643846
 20
-17472.46327741804
 30
0.0000000000000188
 10
19267.27880228726
 20
-17472.46282282918
 30
-0.0000000000000011
 10
19267.27393471353
 20
-17472.46268379259
 30
0.0000000000000089
 10
19267.26720402905
 20
-17472.4636215621
 30
0.0000000000000388
 10
19267.2650035426
 20
-17472.46408435945
 30
0.0000000000000188
 10
19267.26078971641
 20
-17472.46578895194
 30
0.0000000000000188
 10
19267.25875765205
 20
-17472.46692985913
 30
0.0000000000000188
 10
19267.25672173055
 20
-17472.46985962967
 30
-0.0000000000000011
 10
19267.25625266877
 20
-17472.47071700584
 30
0.0000000000000188
 10
19267.25575053838
 20
-17472.47232189341
 30
-0.0000000000000011
 10
19267.25561483911
 20
-17472.47290788476
 30
0.0000000000000089
 10
19267.25543922482
 20
-17472.47417786253
 30
0.0000000000000388
 10
19267.25539873219
 20
-17472.47486111343
 30
0.0000000000000188
 10
19267.25542693894
 20
-17472.47629669268
 30
0.0000000000000089
 10
19267.25549535102
 20
-17472.47703883723
 30
0.0000000000000089
 10
19267.25572514469
 20
-17472.47852888318
 30
0.0000000000000089
 10
19267.25588709937
 20
-17472.47927666879
 30
-0.0000000000000011
 10
19267.25646413411
 20
-17472.48146820443
 30
-0.000000000000011
 10
19267.2569779726
 20
-17472.48285990776
 30
-0.0000000000000011
 10
19267.25917616722
 20
-17472.48808981738
 30
-0.0000000000000011
 10
19267.26129787695
 20
-17472.49148573964
 30
-0.0000000000000011
 10
19267.26567080926
 20
-17472.49785755132
 30
0.0000000000000188
 10
19267.26793709468
 20
-17472.50075040786
 30
0.0000000000000089
 10
19267.27417720171
 20
-17472.50830310839
 30
0.0000000000000089
 10
19267.27843734572
 20
-17472.51286724928
 30
0.0000000000000089
 10
19267.28276277085
 20
-17472.517252343
 30
0.0000000000000089
  0
SPLINE
  5
3A9594
330
18
100
AcDbEntity
  8
姿図
100
AcDbSpline
210
0.0
220
0.0
230
1.0
 70
     8
 71
     3
 72
    12
 73
     8
 74
     0
 42
0.000000001
 43
0.0000000001
 40
2.214246753416005
 40
2.214246753416005
 40
2.214246753416005
 40
2.214246753416005
 40
2.273337669201671
 40
2.273337669201671
 40
2.651501823638109
 40
2.651501823638109
 40
2.971189770913845
 40
2.971189770913845
 40
2.971189770913845
 40
2.971189770913845
 10
19267.73889092245
 20
-17472.16612911698
 30
0.0000000000000089
 10
19267.73709840627
 20
-17472.17190235512
 30
0.0000000000000089
 10
19267.73536012313
 20
-17472.1777441989
 30
-0.000000000000011
 10
19267.72293145747
 20
-17472.22127802387
 30
-0.0000000000000011
 10
19267.71324212639
 20
-17472.26593401818
 30
0.0000000000000188
 10
19267.70065985207
 20
-17472.35099085517
 30
0.0000000000000188
 10
19267.69691896842
 20
-17472.39100257747
 30
0.0000000000000089
 10
19267.69536518601
 20
-17472.4281312344
 30
0.0000000000000288
  0
SPLINE
  5
3A9595
330
18
100
AcDbEntity
  8
姿図
100
AcDbSpline
210
0.0
220
0.0
230
1.0
 70
     8
 71
     3
 72
    12
 73
     8
 74
     0
 42
0.000000001
 43
0.0000000001
 40
2.214246753415932
 40
2.214246753415932
 40
2.214246753415932
 40
2.214246753415932
 40
2.27333766920167
 40
2.27333766920167
 40
2.65150182363811
 40
2.65150182363811
 40
2.971189770913846
 40
2.971189770913846
 40
2.971189770913846
 40
2.971189770913846
 10
19243.05978612103
 20
-17464.88994807201
 30
0.0000000000000188
 10
19243.06497837794
 20
-17464.89419724807
 30
-0.0000000000000011
 10
19243.06999251049
 20
-17464.89857056876
 30
0.0000000000000089
 10
19243.10569690774
 20
-17464.9316701687
 30
0.0000000000000089
 10
19243.13264338482
 20
-17464.96858999609
 30
0.0000000000000089
 10
19243.16582028019
 20
-17465.04441451703
 30
0.0000000000000089
 10
19243.17470843313
 20
-17465.08211878164
 30
0.0000000000000089
 10
19243.17709930412
 20
-17465.11887218203
 30
0.0000000000000089
  0
SPLINE
  5
3A9596
330
18
100
AcDbEntity
  8
姿図
100
AcDbSpline
210
0.0
220
0.0
230
1.0
 70
     8
 71
     3
 72
    14
 73
    10
 74
     0
 42
0.000000001
 43
0.0000000001
 40
0.0518711334186413
 40
0.0518711334186413
 40
0.0518711334186413
 40
0.0518711334186413
 40
0.3761852694724612
 40
0.3761852694724612
 40
0.7523705389449225
 40
0.7523705389449225
 40
1.132719326167469
 40
1.132719326167469
 40
1.510190416961686
 40
1.510190416961686
 40
1.510190416961686
 40
1.510190416961686
 10
19243.03608435447
 20
-17465.01792855184
 30
0.0000000000000188
 10
19243.03424142945
 20
-17464.9811066849
 30
0.0000000000000188
 10
19243.02573707404
 20
-17464.94322649921
 30
-0.0000000000000011
 10
19242.99317887275
 20
-17464.86800418571
 30
0.0000000000000188
 10
19242.96673029485
 20
-17464.83173078296
 30
0.0000000000000089
 10
19242.9054696257
 20
-17464.77524776815
 30
0.0000000000000188
 10
19242.86645899427
 20
-17464.75141292131
 30
0.0000000000000089
 10
19242.78140059426
 20
-17464.7218985137
 30
0.0000000000000288
 10
19242.73541078592
 20
-17464.71607536248
 30
0.0000000000000288
 10
19242.69226796329
 20
-17464.71845883527
 30
0.0000000000000188
  0
SPLINE
  5
3A9597
330
18
100
AcDbEntity
  8
姿図
100
AcDbSpline
210
0.0
220
0.0
230
1.0
 70
     8
 71
     3
 72
    14
 73
    10
 74
     0
 42
0.000000001
 43
0.0000000001
 40
0.0516007629148517
 40
0.0516007629148517
 40
0.0516007629148517
 40
0.0516007629148517
 40
0.3775999287975693
 40
0.3775999287975693
 40
0.7551998575951386
 40
0.7551998575951386
 40
1.136339040160537
 40
1.136339040160537
 40
1.513620557812546
 40
1.513620557812546
 40
1.513620557812546
 40
1.513620557812546
 10
19236.42484573559
 20
-17471.06814091879
 30
0.0000000000000089
 10
19236.42267098845
 20
-17471.10553009686
 30
0.0000000000000188
 10
19236.4144889034
 20
-17471.14519013752
 30
0.0000000000000188
 10
19236.3842000366
 20
-17471.2266897886
 30
0.0000000000000188
 10
19236.35998328194
 20
-17471.2678926601
 30
0.0000000000000288
 10
19236.30442134807
 20
-17471.33563570875
 30
0.0000000000000188
 10
19236.26930815613
 20
-17471.36657265138
 30
0.0000000000000188
 10
19236.19335296614
 20
-17471.4116488418
 30
0.0000000000000089
 10
19236.1525779033
 20
-17471.4259713532
 30
0.0000000000000089
 10
19236.11450136425
 20
-17471.43173390566
 30
0.0000000000000089
  0
SPLINE
  5
3A9598
330
18
100
AcDbEntity
  8
姿図
100
AcDbSpline
210
0.0
220
0.0
230
1.0
 70
     8
 71
     3
 72
    14
 73
    10
 74
     0
 42
0.000000001
 43
0.0000000001
 40
1.526591127950939
 40
1.526591127950939
 40
1.526591127950939
 40
1.526591127950939
 40
1.903872645602957
 40
1.903872645602957
 40
2.285011828168357
 40
2.285011828168357
 40
2.662611756965921
 40
2.662611756965921
 40
2.988610922850349
 40
2.988610922850349
 40
2.988610922850349
 40
2.988610922850349
 10
19243.65474127264
 20
-17470.72612530964
 30
0.0000000000000089
 10
19243.61123022997
 20
-17470.72799764674
 30
0.0000000000000188
 10
19243.56487559099
 20
-17470.72182865132
 30
0.0000000000000089
 10
19243.47901830528
 20
-17470.69189472097
 30
0.0000000000000089
 10
19243.43959170445
 20
-17470.66793314242
 30
0.0000000000000089
 10
19243.37759216651
 20
-17470.61119138632
 30
0.0000000000000089
 10
19243.35080955615
 20
-17470.57476098768
 30
0.0000000000000089
 10
19243.31781454141
 20
-17470.49918338303
 30
0.0000000000000089
 10
19243.30919435629
 20
-17470.46109568309
 30
0.0000000000000089
 10
19243.30733276049
 20
-17470.42408422221
 30
0.0000000000000089
  0
SPLINE
  5
3A9599
330
18
100
AcDbEntity
  8
姿図
100
AcDbSpline
210
0.0
220
0.0
230
1.0
 70
     8
 71
     3
 72
    16
 73
    12
 74
     0
 42
0.000000001
 43
0.0000000001
 40
7.430778314876192
 40
7.430778314876192
 40
7.430778314876192
 40
7.430778314876192
 40
7.48439642458809
 40
7.48439642458809
 40
8.051682043090178
 40
8.051682043090178
 40
8.618967661592267
 40
8.618967661592267
 40
9.186253280094355
 40
9.186253280094355
 40
9.198233509684796
 40
9.198233509684796
 40
9.198233509684796
 40
9.198233509684796
 10
19225.47078986351
 20
-17473.56404518587
 30
0.0000000000000089
 10
19225.47145525151
 20
-17473.55988459937
 30
0.0000000000000089
 10
19225.47211616913
 20
-17473.55567183883
 30
-0.0000000000000011
 10
19225.47971166101
 20
-17473.50627004883
 30
0.0000000000000089
 10
19225.48608764818
 20
-17473.45516899734
 30
0.0000000000000188
 10
19225.49703313434
 20
-17473.34418519034
 30
0.0000000000000089
 10
19225.50160956429
 20
-17473.28420943697
 30
0.0000000000000188
 10
19225.50860735989
 20
-17473.15973997588
 30
-0.0000000000000011
 10
19225.51102728734
 20
-17473.09524375068
 30
0.0000000000000089
 10
19225.51242663211
 20
-17473.02987620206
 30
0.0000000000000188
 10
19225.51245515452
 20
-17473.02852259669
 30
0.0000000000000089
 10
19225.51248325609
 20
-17473.02716732224
 30
0.0000000000000089
  0
SPLINE
  5
3A959A
330
18
100
AcDbEntity
  8
姿図
100
AcDbSpline
210
0.0
220
0.0
230
1.0
 70
     8
 71
     1
 72
     9
 73
     7
 74
     0
 42
0.000000001
 43
0.0000000001
 40
8.843010394358767
 40
8.843010394358767
 40
8.844295783825991
 40
8.845581173293212
 40
8.846866562760436
 40
8.848151952227658
 40
8.84943734169488
 40
8.850046236987634
 40
8.850046236987634
 10
19228.08669884991
 20
-17471.79567074388
 30
0.0000000000000188
 10
19228.00903239138
 20
-17472.14472096602
 30
0.0000000000000188
 10
19227.93286531965
 20
-17472.49487329185
 30
0.0000000000000089
 10
19227.85821252397
 20
-17472.84610814781
 30
0.0000000000000188
 10
19227.78508867318
 20
-17473.19840562981
 30
0.0000000000000089
 10
19227.71350820848
 20
-17473.55174550696
 30
0.0000000000000188
 10
19227.68033803062
 20
-17473.71960839056
 30
0.0000000000000089
  0
SPLINE
  5
3A959B
330
18
100
AcDbEntity
  8
姿図
100
AcDbSpline
210
7.530161457840557E-10
220
1.567459209671822E-11
230
-1.0
 70
    12
 71
     2
 72
     6
 73
     3
 74
     0
 42
0.000000001
 43
0.0000000001
 40
3.438957747159619
 40
3.438957747159619
 40
3.438957747159619
 40
27.9798144579688
 40
27.9798144579688
 40
27.9798144579688
 10
19266.36940754218
 20
-17477.50748176553
 30
0.0000000000000089
 41
1.000002949620377
 10
19266.28281429703
 20
-17473.34622379834
 30
0.0000000000000288
 41
1.000012270378906
 10
19266.19692294861
 20
-17469.21995551995
 30
0.0000000000000288
 41
1.000004411873195
  0
ELLIPSE
  5
3A959C
330
18
100
AcDbEntity
  8
姿図
100
AcDbEllipse
 10
19267.05860876545
 20
-17462.72944379213
 30
0.0000000000000014
 11
0.06309259537054744
 21
-0.6273025252676169
 31
1.049939124189298E-16
210
-1.666545791913228E-17
220
1.656974764790396E-16
230
1.0
 40
0.3266547503873759
 41
1.290961286430822
 42
2.861757613225796
  0
LINE
  5
3A959D
330
18
100
AcDbEntity
  8
姿図
100
AcDbLine
 10
19268.80618639861
 20
-17463.39790748768
 30
0.0000000000000014
 11
19267.96340358693
 21
-17463.47677431469
 31
0.0000000000000014
  0
ELLIPSE
  5
3A959E
330
18
100
AcDbEntity
  8
姿図
100
AcDbEllipse
 10
19267.34424189204
 20
-17465.71809382436
 30
0.0000000000000014
 11
0.04077444956302772
 21
0.0569605723704284
 31
3.888579933804730E-18
210
-3.231153159914877E-17
220
-4.513815278383455E-17
230
1.0
 40
0.908374465235719
 41
0.6674062465666986
 42
2.67181090378285
  0
ELLIPSE
  5
3A959F
330
18
100
AcDbEntity
  8
姿図
100
AcDbEllipse
 10
19267.34424189204
 20
-17465.04145864343
 30
0.0000000000000014
 11
0.04077444956303928
 21
0.05696057237044466
 31
3.888579933805833E-18
210
-3.231153159914874E-17
220
-4.513815278383450E-17
230
1.0
 40
0.9083744652357183
 41
0.66740624656714
 42
2.671810903783259
  0
LINE
  5
3A95A0
330
18
100
AcDbEntity
  8
姿図
100
AcDbLine
 10
19267.50283716085
 20
-17464.86286172329
 30
0.0000000000000014
 11
19267.28446169606
 21
-17464.3988463244
 31
0.0000000000000014
  0
LINE
  5
3A95A1
330
18
100
AcDbEntity
  8
姿図
100
AcDbLine
 10
19267.50283716085
 20
-17464.18622654238
 30
0.0000000000000014
 11
19267.28446169606
 21
-17463.72221114348
 31
0.0000000000000014
  0
LINE
  5
3A95A2
330
18
100
AcDbEntity
  8
姿図
100
AcDbLine
 10
19267.50283716085
 20
-17463.50959136145
 30
0.0000000000000014
 11
19267.27390686303
 21
-17463.02314851148
 31
0.0000000000000014
  0
ELLIPSE
  5
3A95A3
330
18
100
AcDbEntity
  8
姿図
100
AcDbEllipse
 10
19267.34424189204
 20
-17464.36482346251
 30
0.0000000000000014
 11
0.04077444956303928
 21
0.05696057237044466
 31
3.888579933805833E-18
210
-3.231153159914874E-17
220
-4.513815278383450E-17
230
1.0
 40
0.9083744652357183
 41
0.6674062465669841
 42
2.671810903783383
  0
ELLIPSE
  5
3A95A4
330
18
100
AcDbEntity
  8
姿図
100
AcDbEllipse
 10
19267.34424189204
 20
-17463.68818828159
 30
0.0000000000000014
 11
0.04077444956303928
 21
0.05696057237044466
 31
3.888579933805833E-18
210
-3.231153159914874E-17
220
-4.513815278383450E-17
230
1.0
 40
0.9083744652357183
 41
0.6674062465673603
 42
2.671810903782924
  0
LINE
  5
3A95A5
330
18
100
AcDbEntity
  8
姿図
100
AcDbLine
 10
19267.50283716085
 20
-17465.53949690422
 30
0.0000000000000014
 11
19267.28446169606
 21
-17465.07548150533
 31
0.0000000000000014
  0
LINE
  5
3A95A6
330
18
100
AcDbEntity
  8
姿図
100
AcDbLine
 10
19267.27390686303
 20
-17463.02314851148
 30
0.0000000000000014
 11
19267.27297526375
 21
-17462.88289512889
 31
0.0000000000000014
  0
LINE
  5
3A95A7
330
18
100
AcDbEntity
  8
姿図
100
AcDbLine
 10
19267.34424189204
 20
-17465.65043030626
 30
0.0000000000000014
 11
19267.44305696487
 21
-17465.6411832842
 31
0.0000000000000014
  0
ELLIPSE
  5
3A95A8
330
18
100
AcDbEntity
  8
姿図
100
AcDbEllipse
 10
19267.44305696487
 20
-17465.5735197661
 30
0.0000000000000014
 11
0.04077444956302177
 21
0.05696057237043142
 31
-7.777159867609348E-18
210
6.462306319828893E-17
220
9.027630556767526E-17
230
1.0
 40
0.9083744652357181
 41
3.80899890015702
 42
5.813403557372653
  0
LINE
  5
3A95A9
330
18
100
AcDbEntity
  8
姿図
100
AcDbLine
 10
19267.34424189204
 20
-17464.29715994442
 30
0.0000000000000014
 11
19267.44305696487
 21
-17464.28791292235
 31
0.0000000000000014
  0
LINE
  5
3A95AA
330
18
100
AcDbEntity
  8
姿図
100
AcDbLine
 10
19267.34424189204
 20
-17464.97379512534
 30
0.0000000000000014
 11
19267.44305696487
 21
-17464.96454810327
 31
0.0000000000000014
  0
LINE
  5
3A95AB
330
18
100
AcDbEntity
  8
姿図
100
AcDbLine
 10
19267.34424189204
 20
-17463.6205247635
 30
0.0000000000000014
 11
19267.44305696487
 21
-17463.61127774143
 31
0.0000000000000014
  0
ELLIPSE
  5
3A95AC
330
18
100
AcDbEntity
  8
姿図
100
AcDbEllipse
 10
19267.44305696487
 20
-17464.22024940426
 30
0.0000000000000014
 11
0.04077444956302177
 21
0.05696057237043142
 31
-7.777159867609348E-18
210
6.462306319828893E-17
220
9.027630556767526E-17
230
1.0
 40
0.9083744652357181
 41
3.808998900156833
 42
5.813403557372844
  0
ELLIPSE
  5
3A95AD
330
18
100
AcDbEntity
  8
姿図
100
AcDbEllipse
 10
19267.44305696487
 20
-17464.89688458519
 30
0.0000000000000014
 11
0.04077444956302177
 21
0.05696057237043142
 31
-7.777159867609348E-18
210
6.462306319828893E-17
220
9.027630556767526E-17
230
1.0
 40
0.9083744652357181
 41
3.808998900156709
 42
5.813403557372572
  0
ELLIPSE
  5
3A95AE
330
18
100
AcDbEntity
  8
姿図
100
AcDbEllipse
 10
19268.01825652565
 20
-17464.10484952327
 30
0.0000000000000014
 11
0.05437706711424071
 21
-0.6281180723226359
 31
0.0
210
0.0
220
0.0
230
1.0
 40
0.3301839125655894
 41
3.14388787013195
 42
4.437113948144849
  0
ELLIPSE
  5
3A95AF
330
18
100
AcDbEntity
  8
姿図
100
AcDbEllipse
 10
19267.44305696487
 20
-17463.54361422334
 30
0.0000000000000014
 11
0.04077444956302177
 21
0.05696057237043142
 31
-7.777159867609348E-18
210
6.462306319828893E-17
220
9.027630556767526E-17
230
1.0
 40
0.9083744652357181
 41
3.80899890015702
 42
5.813403557372702
  0
LINE
  5
3A95B0
330
18
100
AcDbEntity
  8
姿図
100
AcDbLine
 10
19268.66593468508
 20
-17464.71111975815
 30
0.0000000000000014
 11
19268.88431014988
 21
-17465.17513515705
 31
0.0000000000000014
  0
LINE
  5
3A95B1
330
18
100
AcDbEntity
  8
姿図
100
AcDbLine
 10
19269.62268364401
 20
-17465.02705458051
 30
0.0000000000000014
 11
19269.39375334619
 21
-17464.54061173054
 31
0.0000000000000014
  0
LINE
  5
3A95B2
330
18
100
AcDbEntity
  8
姿図
100
AcDbLine
 10
19269.46408837519
 20
-17465.13798798256
 30
0.0000000000000014
 11
19269.56290344803
 21
-17465.1287409605
 31
0.0000000000000014
  0
ELLIPSE
  5
3A95B3
330
18
100
AcDbEntity
  8
姿図
100
AcDbEllipse
 10
19269.46408837519
 20
-17465.20565150065
 30
0.0000000000000014
 11
0.04077444956303928
 21
0.05696057237044466
 31
3.888579933805833E-18
210
-3.231153159914874E-17
220
-4.513815278383450E-17
230
1.0
 40
0.9083744652357183
 41
0.66740624656764
 42
2.671810903783141
  0
LINE
  5
3A95B4
330
18
100
AcDbEntity
  8
姿図
100
AcDbLine
 10
19268.82452995389
 20
-17465.27682153703
 30
0.0000000000000014
 11
19268.72571488106
 21
-17465.28606855909
 31
0.0000000000000014
  0
ELLIPSE
  5
3A95B5
330
18
100
AcDbEntity
  8
姿図
100
AcDbEllipse
 10
19268.72571488105
 20
-17465.35373207718
 30
0.0000000000000014
 11
0.04077444956303432
 21
0.05696057237044818
 31
3.888579933805835E-18
210
-3.231153159914478E-17
220
-4.513815278383739E-17
230
1.0
 40
0.9083744652357181
 41
0.6674062465667575
 42
2.671810903783107
  0
ELLIPSE
  5
3A95B6
330
18
100
AcDbEntity
  8
姿図
100
AcDbEllipse
 10
19268.82452995389
 20
-17465.20915801894
 30
0.0000000000000014
 11
0.0407744495630275
 21
0.05696057237042731
 31
3.888579933804645E-18
210
-3.231153159914882E-17
220
-4.513815278383401E-17
230
1.0
 40
0.9083744652357181
 41
3.808998900156757
 42
5.813403557372718
  0
ELLIPSE
  5
3A95B7
330
18
100
AcDbEntity
  8
姿図
100
AcDbEllipse
 10
19269.56290344803
 20
-17465.06107744241
 30
0.0000000000000014
 11
0.04077444956302177
 21
0.05696057237043142
 31
-7.777159867609348E-18
210
6.462306319828893E-17
220
9.027630556767526E-17
230
1.0
 40
0.9083744652357181
 41
3.808998900156673
 42
5.813403557372901
  0
LINE
  5
3A95B8
330
18
100
AcDbEntity
  8
姿図
100
AcDbLine
 10
19269.39375334619
 20
-17464.54061173054
 30
0.0000000000000014
 11
19269.3928217469
 21
-17464.40035834795
 31
0.0000000000000014
  0
LINE
  5
3A95B9
330
18
100
AcDbEntity
  8
姿図
100
AcDbLine
 10
19268.65537985205
 20
-17464.01205712615
 30
0.0000000000000014
 11
19268.88431014988
 21
-17464.49849997612
 31
0.0000000000000014
  0
LINE
  5
3A95BA
330
18
100
AcDbEntity
  8
姿図
100
AcDbLine
 10
19268.82452995389
 20
-17464.60018635611
 30
0.0000000000000014
 11
19268.72571488106
 21
-17464.60943337817
 31
0.0000000000000014
  0
LINE
  5
3A95BB
330
18
100
AcDbEntity
  8
姿図
100
AcDbLine
 10
19268.65444825277
 20
-17463.87180374356
 30
0.0000000000000014
 11
19268.65537985205
 21
-17464.01205712615
 31
0.0000000000000014
  0
LINE
  5
3A95BC
330
18
100
AcDbEntity
  8
姿図
100
AcDbLine
 10
19269.17441281381
 20
-17463.63831363562
 30
0.0000000000000014
 11
19268.86477231626
 21
-17463.41666170476
 31
0.0000000000000014
  0
LINE
  5
3A95BD
330
18
100
AcDbEntity
  8
姿図
100
AcDbLine
 10
19269.39375334619
 20
-17464.54061173054
 30
0.0000000000000014
 11
19268.65537985205
 21
-17464.01205712615
 31
0.0000000000000014
  0
ELLIPSE
  5
3A95BE
330
18
100
AcDbEntity
  8
姿図
100
AcDbEllipse
 10
19269.17845524861
 20
-17464.24690701119
 30
0.0000000000000014
 11
0.06309259537054744
 21
-0.6273025252676169
 31
1.049939124189298E-16
210
-1.666545791913228E-17
220
1.656974764790396E-16
230
1.0
 40
0.3266547503873759
 41
1.29096128643083
 42
2.861757613225647
  0
ELLIPSE
  5
3A95BF
330
18
100
AcDbEntity
  8
姿図
100
AcDbEllipse
 10
19268.72571488105
 20
-17464.67709689627
 30
0.0000000000000014
 11
0.04077444956303432
 21
0.05696057237044818
 31
3.888579933805835E-18
210
-3.231153159914478E-17
220
-4.513815278383739E-17
230
1.0
 40
0.9083744652357181
 41
0.6674062465679877
 42
2.671810903783201
  0
ELLIPSE
  5
3A95C0
330
18
100
AcDbEntity
  8
姿図
100
AcDbEllipse
 10
19268.82452995389
 20
-17464.53252283801
 30
0.0000000000000014
 11
0.0407744495630275
 21
0.05696057237042731
 31
3.888579933804645E-18
210
-3.231153159914882E-17
220
-4.513815278383401E-17
230
1.0
 40
0.9083744652357181
 41
3.808998900156948
 42
5.813403557372959
  0
ELLIPSE
  5
3A95C1
330
18
100
AcDbEntity
  8
姿図
100
AcDbEllipse
 10
19268.86881475107
 20
-17464.02525508031
 30
0.0000000000000014
 11
0.06309259537054744
 21
-0.6273025252676169
 31
1.049939124189298E-16
210
-1.666545791913228E-17
220
1.656974764790396E-16
230
1.0
 40
0.3266547503873759
 41
2.861757613225715
 42
4.432553940020625
  0
LINE
  5
3A95C2
330
18
100
AcDbEntity
  8
姿図
100
AcDbLine
 10
19269.62268364401
 20
-17465.70368976144
 30
0.0000000000000014
 11
19269.40430817921
 21
-17465.23967436254
 31
0.0000000000000014
  0
LINE
  5
3A95C3
330
18
100
AcDbEntity
  8
姿図
100
AcDbLine
 10
19267.05456633065
 20
-17462.12085041657
 30
0.0000000000000014
 11
19266.74492583311
 21
-17461.89919848569
 31
0.0000000000000014
  0
ELLIPSE
  5
3A95C4
330
18
100
AcDbEntity
  8
姿図
100
AcDbEllipse
 10
19265.89841004249
 20
-17462.58738630421
 30
0.0000000000000014
 11
0.05437706711424071
 21
-0.6281180723226359
 31
0.0
210
0.0
220
0.0
230
1.0
 40
0.3301839125655894
 41
3.143887870131958
 42
4.437113948144826
  0
ELLIPSE
  5
3A95C5
330
18
100
AcDbEntity
  8
姿図
100
AcDbEllipse
 10
19266.6058683979
 20
-17465.18953921996
 30
0.0000000000000014
 11
0.04077444956302233
 21
0.05696057237043226
 31
-3.888579933804726E-18
210
3.231153159914451E-17
220
4.513815278383753E-17
230
1.0
 40
0.9083744652357192
 41
0.6674062465669471
 42
2.671810903782859
  0
LINE
  5
3A95C6
330
18
100
AcDbEntity
  8
姿図
100
AcDbLine
 10
19266.70468347074
 20
-17465.11262867981
 30
0.0000000000000014
 11
19266.6058683979
 21
-17465.12187570188
 31
0.0000000000000014
  0
LINE
  5
3A95C7
330
18
100
AcDbEntity
  8
姿図
100
AcDbLine
 10
19266.70468347074
 20
-17463.08272313705
 30
0.0000000000000014
 11
19266.6058683979
 21
-17463.09197015911
 31
0.0000000000000014
  0
LINE
  5
3A95C8
330
18
100
AcDbEntity
  8
姿図
100
AcDbLine
 10
19266.53460176962
 20
-17462.3543405245
 30
0.0000000000000014
 11
19266.53553336891
 21
-17462.49459390709
 31
0.0000000000000014
  0
LINE
  5
3A95C9
330
18
100
AcDbEntity
  8
姿図
100
AcDbLine
 10
19266.70468347074
 20
-17464.43599349888
 30
0.0000000000000014
 11
19266.6058683979
 21
-17464.44524052095
 31
0.0000000000000014
  0
LINE
  5
3A95CA
330
18
100
AcDbEntity
  8
姿図
100
AcDbLine
 10
19266.70468347074
 20
-17463.75935831797
 30
0.0000000000000014
 11
19266.6058683979
 21
-17463.76860534003
 31
0.0000000000000014
  0
ELLIPSE
  5
3A95CB
330
18
100
AcDbEntity
  8
姿図
100
AcDbEllipse
 10
19266.6058683979
 20
-17464.51290403904
 30
0.0000000000000014
 11
0.04077444956303396
 21
0.05696057237044842
 31
3.888579933805834E-18
210
-3.231153159914448E-17
220
-4.513815278383759E-17
230
1.0
 40
0.9083744652357192
 41
0.6674062465670006
 42
2.67181090378307
  0
ELLIPSE
  5
3A95CC
330
18
100
AcDbEntity
  8
姿図
100
AcDbEllipse
 10
19266.6058683979
 20
-17463.83626885812
 30
0.0000000000000014
 11
0.04077444956303396
 21
0.05696057237044842
 31
3.888579933805834E-18
210
-3.231153159914448E-17
220
-4.513815278383759E-17
230
1.0
 40
0.9083744652357192
 41
0.6674062465671249
 42
2.671810903782978
  0
ELLIPSE
  5
3A95CD
330
18
100
AcDbEntity
  8
姿図
100
AcDbEllipse
 10
19266.6058683979
 20
-17463.15963367721
 30
0.0000000000000014
 11
0.04077444956303396
 21
0.05696057237044842
 31
3.888579933805834E-18
210
-3.231153159914448E-17
220
-4.513815278383759E-17
230
1.0
 40
0.9083744652357192
 41
0.6674062465673204
 42
2.671810903783249
  0
LINE
  5
3A95CE
330
18
100
AcDbEntity
  8
姿図
100
AcDbLine
 10
19266.68633991545
 20
-17461.88044426862
 30
0.0000000000000014
 11
19265.84355710377
 21
-17461.95931109563
 31
0.0000000000000014
  0
ELLIPSE
  5
3A95CF
330
18
100
AcDbEntity
  8
姿図
100
AcDbEllipse
 10
19266.74896826792
 20
-17462.50779186126
 30
0.0000000000000014
 11
0.06309259537054744
 21
-0.6273025252676169
 31
1.049939124189298E-16
210
-1.666545791913228E-17
220
1.656974764790396E-16
230
1.0
 40
0.3266547503873759
 41
2.861757613225734
 42
4.432553940020584
  0
LINE
  5
3A95D0
330
18
100
AcDbEntity
  8
姿図
100
AcDbLine
 10
19266.54608820192
 20
-17464.54692690093
 30
0.0000000000000014
 11
19266.76446366672
 21
-17465.01094229983
 31
0.0000000000000014
  0
ELLIPSE
  5
3A95D1
330
18
100
AcDbEntity
  8
姿図
100
AcDbEllipse
 10
19266.70468347074
 20
-17465.04496516172
 30
0.0000000000000014
 11
0.04077444956302709
 21
0.05696057237042759
 31
3.888579933804671E-18
210
-3.231153159914870E-17
220
-4.513815278383457E-17
230
1.0
 40
0.9083744652357192
 41
3.808998900156817
 42
5.813403557372729
  0
LINE
  5
3A95D2
330
18
100
AcDbEntity
  8
姿図
100
AcDbLine
 10
19267.27390686303
 20
-17463.02314851148
 30
0.0000000000000014
 11
19266.53553336891
 21
-17462.49459390709
 31
0.0000000000000014
  0
LINE
  5
3A95D3
330
18
100
AcDbEntity
  8
姿図
100
AcDbLine
 10
19266.53553336891
 20
-17462.49459390709
 30
0.0000000000000014
 11
19266.76446366672
 21
-17462.98103675706
 31
0.0000000000000014
  0
LINE
  5
3A95D4
330
18
100
AcDbEntity
  8
姿図
100
AcDbLine
 10
19266.54608820192
 20
-17463.87029172001
 30
0.0000000000000014
 11
19266.76446366672
 21
-17464.3343071189
 31
0.0000000000000014
  0
LINE
  5
3A95D5
330
18
100
AcDbEntity
  8
姿図
100
AcDbLine
 10
19266.54608820192
 20
-17463.19365653909
 30
0.0000000000000014
 11
19266.76446366672
 21
-17463.65767193798
 31
0.0000000000000014
  0
ELLIPSE
  5
3A95D6
330
18
100
AcDbEntity
  8
姿図
100
AcDbEllipse
 10
19266.70468347074
 20
-17464.3683299808
 30
0.0000000000000014
 11
0.04077444956302709
 21
0.05696057237042759
 31
3.888579933804671E-18
210
-3.231153159914870E-17
220
-4.513815278383457E-17
230
1.0
 40
0.9083744652357192
 41
3.808998900156848
 42
5.813403557372545
  0
ELLIPSE
  5
3A95D7
330
18
100
AcDbEntity
  8
姿図
100
AcDbEllipse
 10
19266.70468347074
 20
-17463.69169479987
 30
0.0000000000000014
 11
0.04077444956302709
 21
0.05696057237042759
 31
3.888579933804671E-18
210
-3.231153159914870E-17
220
-4.513815278383457E-17
230
1.0
 40
0.9083744652357192
 41
3.808998900156624
 42
5.813403557372816
  0
ELLIPSE
  5
3A95D8
330
18
100
AcDbEntity
  8
姿図
100
AcDbEllipse
 10
19266.70468347074
 20
-17463.01505961895
 30
0.0000000000000014
 11
0.04077444956302709
 21
0.05696057237042759
 31
3.888579933804671E-18
210
-3.231153159914870E-17
220
-4.513815278383457E-17
230
1.0
 40
0.9083744652357192
 41
3.808998900157184
 42
5.813403557372866
  0
LINE
  5
3A95D9
330
18
100
AcDbEntity
  8
姿図
100
AcDbLine
 10
19266.54608820192
 20
-17465.22356208185
 30
0.0000000000000014
 11
19266.76446366672
 21
-17465.68757748074
 31
0.0000000000000014
  0
LINE
  5
3A95DA
330
18
100
AcDbEntity
  8
姿図
100
AcDbLine
 10
19267.34424189204
 20
-17466.32706548718
 30
0.0000000000000014
 11
19267.44305696487
 21
-17466.31781846512
 31
0.0000000000000014
  0
LINE
  5
3A95DB
330
18
100
AcDbEntity
  8
姿図
100
AcDbLine
 10
19269.62268364401
 20
-17466.38032494235
 30
0.0000000000000014
 11
19269.40430817921
 21
-17465.91630954346
 31
0.0000000000000014
  0
LINE
  5
3A95DC
330
18
100
AcDbEntity
  8
姿図
100
AcDbLine
 10
19268.66593468508
 20
-17466.06439011999
 30
0.0000000000000014
 11
19268.88431014988
 21
-17466.52840551889
 31
0.0000000000000014
  0
LINE
  5
3A95DD
330
18
100
AcDbEntity
  8
姿図
100
AcDbLine
 10
19266.54608820192
 20
-17465.90019726278
 30
0.0000000000000014
 11
19266.76446366672
 21
-17466.36421266167
 31
0.0000000000000014
  0
LINE
  5
3A95DE
330
18
100
AcDbEntity
  8
姿図
100
AcDbLine
 10
19267.50283716085
 20
-17473.65911907528
 30
0.0000000000000014
 11
19267.29943419127
 21
-17473.22691800288
 31
0.0000000000000014
  0
LINE
  5
3A95DF
330
18
100
AcDbEntity
  8
姿図
100
AcDbLine
 10
19269.62268364401
 20
-17473.82331193249
 30
0.0000000000000014
 11
19269.40430817921
 21
-17473.3592965336
 31
0.0000000000000014
  0
LINE
  5
3A95E0
330
18
100
AcDbEntity
  8
姿図
100
AcDbLine
 10
19268.66638973156
 20
-17473.50834401626
 30
0.0000000000000014
 11
19268.88431014988
 21
-17473.97139250902
 31
0.0000000000000014
  0
ELLIPSE
  5
3A95E1
330
18
100
AcDbEntity
  8
姿図
100
AcDbEllipse
 10
19249.26205739682
 20
-17213.85410553805
 30
0.0000000000000014
 11
-4.797140927162225
 21
-486.1469938952276
 31
-2.698789312221136E-14
210
-5.477393773410833E-19
220
-5.550844883974054E-17
230
1.0
 40
0.0509529088182855
 41
1.005428428192962
 42
1.010474847289326
  0
LINE
  5
3A95E2
330
18
100
AcDbEntity
  8
姿図
100
AcDbLine
 10
19268.8308604196
 20
-17475.37755919815
 30
0.0000000000000014
 11
19267.56847992962
 21
-17474.47390132612
 31
0.0000000000000014
  0
ELLIPSE
  5
3A95E3
330
18
100
AcDbEntity
  8
姿図
100
AcDbEllipse
 10
19248.18468146085
 20
-17432.31428718194
 30
0.0000000000000014
 11
-20.82283882651531
 21
42.58118269877863
 31
-1.315610693758508E-15
210
-1.219306866792505E-17
220
2.493393378939952E-17
230
1.0
 40
0.0898112888334005
 41
2.866072935780159
 42
2.880426324101852
  0
ELLIPSE
  5
3A95E4
330
18
100
AcDbEntity
  8
姿図
100
AcDbEllipse
 10
19266.70468347074
 20
-17473.8412225137
 30
0.0000000000000014
 11
0.04077444956302709
 21
0.05696057237042759
 31
3.888579933804671E-18
210
-3.231153159914870E-17
220
-4.513815278383457E-17
230
1.0
 40
0.9083744652357192
 41
5.379795226951904
 42
5.813403557372927
  0
ELLIPSE
  5
3A95E5
330
18
100
AcDbEntity
  8
姿図
100
AcDbEllipse
 10
19267.44305696487
 20
-17473.69314193716
 30
0.0000000000000014
 11
0.04077444956301913
 21
0.05696057237042773
 31
0.0
210
0.0
220
0.0
230
1.0
 40
0.9083744652357186
 41
3.808998900156733
 42
5.813403557372704
  0
LINE
  5
3A95E6
330
18
100
AcDbEntity
  8
姿図
100
AcDbLine
 10
19267.34424189204
 20
-17473.77005247732
 30
0.0000000000000014
 11
19267.44305696487
 21
-17473.76080545525
 31
0.0000000000000014
  0
LINE
  5
3A95E7
330
18
100
AcDbEntity
  8
姿図
100
AcDbLine
 10
19267.31395154718
 20
-17473.93440041328
 30
0.0000000000000014
 11
19267.31083509742
 21
-17473.78252428041
 31
0.0000000000000014
  0
LINE
  5
3A95E8
330
18
100
AcDbEntity
  8
姿図
100
AcDbLine
 10
19267.46990099575
 20
-17474.26576980165
 30
0.0000000000000014
 11
19267.31395155
 21
-17473.93440041295
 31
0.0000000000000014
  0
ELLIPSE
  5
3A95E9
330
18
100
AcDbEntity
  8
姿図
100
AcDbEllipse
 10
19267.56847992962
 20
-17474.30474253089
 30
0.0000000000000014
 11
-0.01631684599602441
 21
0.1743642779465949
 31
-9.721449834512365E-18
210
-5.172084878144090E-18
220
5.526967929193044E-17
230
1.0
 40
0.3284334526200731
 41
1.936727186806237
 42
2.86402240480802
  0
ELLIPSE
  5
3A95EA
330
18
100
AcDbEntity
  8
姿図
100
AcDbEllipse
 10
19267.34424189204
 20
-17473.83771599541
 30
0.0000000000000014
 11
0.04077444956302772
 21
0.0569605723704284
 31
3.888579933804730E-18
210
-3.231153159914877E-17
220
-4.513815278383455E-17
230
1.0
 40
0.908374465235719
 41
0.6674062465667715
 42
1.199235524511626
  0
ELLIPSE
  5
3A95EB
330
18
100
AcDbEntity
  8
姿図
100
AcDbEllipse
 10
19267.52944724527
 20
-17474.30839517297
 30
0.0000000000000014
 11
0.09217619101472235
 21
-0.1667469793939119
 31
1.057644122911552E-17
210
-2.685589719099226E-17
220
4.858239081278762E-17
230
1.0
 40
0.176238237557692
 41
4.358020013766092
 42
4.80466361244018
  0
LINE
  5
3A95EC
330
18
100
AcDbEntity
  8
姿図
100
AcDbLine
 10
19269.62268364401
 20
-17474.49994711341
 30
0.0000000000000014
 11
19269.40430817921
 21
-17474.03593171452
 31
0.0000000000000014
  0
LINE
  5
3A95ED
330
18
100
AcDbEntity
  8
姿図
100
AcDbLine
 10
19269.62268364401
 20
-17475.85321747525
 30
0.0000000000000014
 11
19269.40430817921
 21
-17475.38920207636
 31
0.0000000000000014
  0
LINE
  5
3A95EE
330
18
100
AcDbEntity
  8
姿図
100
AcDbLine
 10
19269.62268364401
 20
-17475.17658229434
 30
0.0000000000000014
 11
19269.40430817921
 21
-17474.71256689544
 31
0.0000000000000014
  0
ELLIPSE
  5
3A95EF
330
18
100
AcDbEntity
  8
姿図
100
AcDbEllipse
 10
19269.46408837519
 20
-17474.67854403356
 30
0.0000000000000014
 11
0.04077444956302772
 21
0.0569605723704284
 31
3.888579933804730E-18
210
-3.231153159914877E-17
220
-4.513815278383455E-17
230
1.0
 40
0.908374465235719
 41
0.6674062465671117
 42
2.671810903782999
  0
ELLIPSE
  5
3A95F0
330
18
100
AcDbEntity
  8
姿図
100
AcDbEllipse
 10
19269.46408837519
 20
-17475.35517921448
 30
0.0000000000000014
 11
0.04077444956302772
 21
0.0569605723704284
 31
3.888579933804730E-18
210
-3.231153159914877E-17
220
-4.513815278383455E-17
230
1.0
 40
0.908374465235719
 41
0.6674062465671138
 42
2.671810903782835
  0
ELLIPSE
  5
3A95F1
330
18
100
AcDbEntity
  8
姿図
100
AcDbEllipse
 10
19269.46408837519
 20
-17474.00190885263
 30
0.0000000000000014
 11
0.04077444956302772
 21
0.0569605723704284
 31
3.888579933804730E-18
210
-3.231153159914877E-17
220
-4.513815278383455E-17
230
1.0
 40
0.908374465235719
 41
0.6674062465672714
 42
2.671810903782924
  0
LINE
  5
3A95F2
330
18
100
AcDbEntity
  8
姿図
100
AcDbLine
 10
19268.68090718029
 20
-17474.21582661756
 30
0.0000000000000014
 11
19268.88431014988
 21
-17474.64802768994
 31
0.0000000000000014
  0
LINE
  5
3A95F3
330
18
100
AcDbEntity
  8
姿図
100
AcDbLine
 10
19268.69230808644
 20
-17474.77143289508
 30
0.0000000000000014
 11
19268.6954245362
 21
-17474.92330902794
 31
0.0000000000000014
  0
LINE
  5
3A95F4
330
18
100
AcDbEntity
  8
姿図
100
AcDbLine
 10
19268.82452995389
 20
-17474.74971406993
 30
0.0000000000000014
 11
19268.72571488106
 21
-17474.75896109199
 31
0.0000000000000014
  0
LINE
  5
3A95F5
330
18
100
AcDbEntity
  8
姿図
100
AcDbLine
 10
19268.67867452277
 20
-17474.10702169218
 30
0.0000000000000014
 11
19268.68090717803
 21
-17474.21582661781
 31
0.0000000000000014
  0
LINE
  5
3A95F6
330
18
100
AcDbEntity
  8
姿図
100
AcDbLine
 10
19268.82452995389
 20
-17474.073078889
 30
0.0000000000000014
 11
19268.72571488106
 21
-17474.08232591107
 31
0.0000000000000014
  0
LINE
  5
3A95F7
330
18
100
AcDbEntity
  8
姿図
100
AcDbLine
 10
19268.69542453902
 20
-17474.92330902762
 30
0.0000000000000014
 11
19268.85137398477
 21
-17475.25467841632
 31
0.0000000000000014
  0
ELLIPSE
  5
3A95F8
330
18
100
AcDbEntity
  8
姿図
100
AcDbEllipse
 10
19268.72571488105
 20
-17474.82662461009
 30
0.0000000000000014
 11
0.0407744495630228
 21
0.05696057237043198
 31
3.888579933804733E-18
210
-3.231153159914463E-17
220
-4.513815278383753E-17
230
1.0
 40
0.908374465235718
 41
0.6674062465669202
 42
1.199235524648299
  0
ELLIPSE
  5
3A95F9
330
18
100
AcDbEntity
  8
姿図
100
AcDbEllipse
 10
19268.82452995389
 20
-17474.68205055183
 30
0.0000000000000014
 11
0.04077444956302492
 21
0.05696057237042366
 31
7.777159867608844E-18
210
-6.462306319829826E-17
220
-9.027630556766847E-17
230
1.0
 40
0.9083744652357175
 41
3.808998900156816
 42
5.813403557372785
  0
ELLIPSE
  5
3A95FA
330
18
100
AcDbEntity
  8
姿図
100
AcDbEllipse
 10
19268.83086041959
 20
-17475.20840040292
 30
0.0000000000000014
 11
-0.01631684599602441
 21
0.1743642779465949
 31
-9.721449834512365E-18
210
-5.172084878144090E-18
220
5.526967929193044E-17
230
1.0
 40
0.3284334526200731
 41
2.864022404808038
 42
3.791317622809779
  0
ELLIPSE
  5
3A95FB
330
18
100
AcDbEntity
  8
姿図
100
AcDbEllipse
 10
19268.79182773524
 20
-17475.212053045
 30
0.0000000000000014
 11
0.09217619101472235
 21
-0.1667469793939119
 31
1.057644122911552E-17
210
-2.685589719099226E-17
220
4.858239081278762E-17
230
1.0
 40
0.176238237557692
 41
0.7697837615025532
 42
1.216427360176595
  0
ELLIPSE
  5
3A95FC
330
18
100
AcDbEntity
  8
姿図
100
AcDbEllipse
 10
19248.18468146085
 20
-17432.31428718194
 30
0.0000000000000014
 11
-20.82283882651531
 21
42.58118269877863
 31
-1.315610693758508E-15
210
-1.219306866792505E-17
220
2.493393378939952E-17
230
1.0
 40
0.0898112888334005
 41
3.072805797846053
 42
3.087159186167753
  0
ELLIPSE
  5
3A95FD
330
18
100
AcDbEntity
  8
姿図
100
AcDbEllipse
 10
19268.72571488105
 20
-17474.14998942916
 30
0.0000000000000014
 11
0.0407744495630228
 21
0.05696057237043198
 31
3.888579933804733E-18
210
-3.231153159914463E-17
220
-4.513815278383753E-17
230
1.0
 40
0.908374465235718
 41
0.6674062465669227
 42
1.462696070731774
  0
ELLIPSE
  5
3A95FE
330
18
100
AcDbEntity
  8
姿図
100
AcDbEllipse
 10
19268.82452995389
 20
-17474.00541537091
 30
0.0000000000000014
 11
0.04077444956302492
 21
0.05696057237042366
 31
7.777159867608844E-18
210
-6.462306319829826E-17
220
-9.027630556766847E-17
230
1.0
 40
0.9083744652357175
 41
3.808998900157097
 42
5.813403557372832
  0
ELLIPSE
  5
3A95FF
330
18
100
AcDbEntity
  8
姿図
100
AcDbEllipse
 10
19248.1840558717
 20
-17431.63632271708
 30
0.0000000000000014
 11
-20.80837884282621
 21
42.55161308954256
 31
2.629394191011153E-15
210
2.438613733585007E-17
220
-4.986786757879895E-17
230
1.0
 40
0.0898112888334005
 41
3.072872848347417
 42
3.080408125087992
  0
LINE
  5
3A9600
330
18
100
AcDbEntity
  8
姿図
100
AcDbLine
 10
19269.46408837519
 20
-17474.61088051546
 30
0.0000000000000014
 11
19269.56290344803
 21
-17474.60163349339
 31
0.0000000000000014
  0
LINE
  5
3A9601
330
18
100
AcDbEntity
  8
姿図
100
AcDbLine
 10
19269.46408837519
 20
-17473.93424533454
 30
0.0000000000000014
 11
19269.56290344803
 21
-17473.92499831247
 31
0.0000000000000014
  0
LINE
  5
3A9602
330
18
100
AcDbEntity
  8
姿図
100
AcDbLine
 10
19269.46408837519
 20
-17475.28751569637
 30
0.0000000000000014
 11
19269.56290344803
 21
-17475.27826867431
 31
0.0000000000000014
  0
ELLIPSE
  5
3A9603
330
18
100
AcDbEntity
  8
姿図
100
AcDbEllipse
 10
19269.56290344803
 20
-17474.53396997531
 30
0.0000000000000014
 11
0.04077444956301913
 21
0.05696057237042773
 31
0.0
210
0.0
220
0.0
230
1.0
 40
0.9083744652357186
 41
3.808998900156633
 42
5.813403557372653
  0
ELLIPSE
  5
3A9604
330
18
100
AcDbEntity
  8
姿図
100
AcDbEllipse
 10
19269.56290344803
 20
-17475.21060515623
 30
0.0000000000000014
 11
0.04077444956301913
 21
0.05696057237042773
 31
0.0
210
0.0
220
0.0
230
1.0
 40
0.9083744652357186
 41
3.808998900156507
 42
5.813403557372811
  0
ELLIPSE
  5
3A9605
330
18
100
AcDbEntity
  8
姿図
100
AcDbEllipse
 10
19269.56290344803
 20
-17475.88724033715
 30
0.0000000000000014
 11
0.04077444956302177
 21
0.05696057237043142
 31
-7.777159867609348E-18
210
6.462306319828893E-17
220
9.027630556767526E-17
230
1.0
 40
0.9083744652357181
 41
5.379795226951762
 42
5.813403557372785
  0
ELLIPSE
  5
3A9606
330
18
100
AcDbEntity
  8
姿図
100
AcDbEllipse
 10
19269.56290344803
 20
-17473.85733479439
 30
0.0000000000000014
 11
0.04077444956301913
 21
0.05696057237042773
 31
0.0
210
0.0
220
0.0
230
1.0
 40
0.9083744652357186
 41
3.808998900156414
 42
5.813403557372719
  0
LINE
  5
3A9607
330
18
100
AcDbEntity
  8
姿図
100
AcDbLine
 10
19267.50283716085
 20
-17468.92267280882
 30
0.0000000000000014
 11
19267.28446169606
 21
-17468.45865740993
 31
0.0000000000000014
  0
LINE
  5
3A9608
330
18
100
AcDbEntity
  8
姿図
100
AcDbLine
 10
19267.50283716085
 20
-17466.89276726606
 30
0.0000000000000014
 11
19267.28446169606
 21
-17466.42875186717
 31
0.0000000000000014
  0
LINE
  5
3A9609
330
18
100
AcDbEntity
  8
姿図
100
AcDbLine
 10
19267.50283716085
 20
-17467.56940244698
 30
0.0000000000000014
 11
19267.28446169606
 21
-17467.10538704809
 31
0.0000000000000014
  0
LINE
  5
3A960A
330
18
100
AcDbEntity
  8
姿図
100
AcDbLine
 10
19267.50283716085
 20
-17468.2460376279
 30
0.0000000000000014
 11
19267.28446169606
 21
-17467.78202222901
 31
0.0000000000000014
  0
LINE
  5
3A960B
330
18
100
AcDbEntity
  8
姿図
100
AcDbLine
 10
19267.50283716085
 20
-17472.98248389435
 30
0.0000000000000014
 11
19267.28491674253
 21
-17472.51943540159
 31
0.0000000000000014
  0
LINE
  5
3A960C
330
18
100
AcDbEntity
  8
姿図
100
AcDbLine
 10
19267.50283716085
 20
-17470.95257835159
 30
0.0000000000000014
 11
19267.28446169606
 21
-17470.48856295269
 31
0.0000000000000014
  0
LINE
  5
3A960D
330
18
100
AcDbEntity
  8
姿図
100
AcDbLine
 10
19267.50283716085
 20
-17471.62921353251
 30
0.0000000000000014
 11
19267.28446169606
 21
-17471.16519813362
 31
0.0000000000000014
  0
LINE
  5
3A960E
330
18
100
AcDbEntity
  8
姿図
100
AcDbLine
 10
19267.50283716085
 20
-17472.30584871343
 30
0.0000000000000014
 11
19267.28446169606
 21
-17471.84183331454
 31
0.0000000000000014
  0
LINE
  5
3A960F
330
18
100
AcDbEntity
  8
姿図
100
AcDbLine
 10
19267.50283716085
 20
-17470.27594317067
 30
0.0000000000000014
 11
19267.28446169606
 21
-17469.81192777177
 31
0.0000000000000014
  0
LINE
  5
3A9610
330
18
100
AcDbEntity
  8
姿図
100
AcDbLine
 10
19267.50283716085
 20
-17469.59930798975
 30
0.0000000000000014
 11
19267.28446169606
 21
-17469.13529259085
 31
0.0000000000000014
  0
ELLIPSE
  5
3A9611
330
18
100
AcDbEntity
  8
姿図
100
AcDbEllipse
 10
19267.34424189204
 20
-17472.48444563357
 30
0.0000000000000014
 11
0.04077444956302772
 21
0.0569605723704284
 31
3.888579933804730E-18
210
-3.231153159914877E-17
220
-4.513815278383455E-17
230
1.0
 40
0.908374465235719
 41
0.6674062465669873
 42
1.830516517602442
  0
ELLIPSE
  5
3A9612
330
18
100
AcDbEntity
  8
姿図
100
AcDbEllipse
 10
19267.34424189204
 20
-17473.16108081449
 30
0.0000000000000014
 11
0.04077444956302772
 21
0.0569605723704284
 31
3.888579933804730E-18
210
-3.231153159914877E-17
220
-4.513815278383455E-17
230
1.0
 40
0.908374465235719
 41
0.6674062465667715
 42
1.46269607064669
  0
ELLIPSE
  5
3A9613
330
18
100
AcDbEntity
  8
姿図
100
AcDbEllipse
 10
19267.34424189204
 20
-17468.42463454805
 30
0.0000000000000014
 11
0.04077444956302772
 21
0.0569605723704284
 31
3.888579933804730E-18
210
-3.231153159914877E-17
220
-4.513815278383455E-17
230
1.0
 40
0.908374465235719
 41
0.6674062465669873
 42
2.671810903782851
  0
ELLIPSE
  5
3A9614
330
18
100
AcDbEntity
  8
姿図
100
AcDbEllipse
 10
19267.34424189204
 20
-17470.45454009081
 30
0.0000000000000014
 11
0.04077444956302772
 21
0.0569605723704284
 31
3.888579933804730E-18
210
-3.231153159914877E-17
220
-4.513815278383455E-17
230
1.0
 40
0.908374465235719
 41
0.6674062465668904
 42
2.671810903783141
  0
ELLIPSE
  5
3A9615
330
18
100
AcDbEntity
  8
姿図
100
AcDbEllipse
 10
19267.34424189204
 20
-17471.13117527173
 30
0.0000000000000014
 11
0.04077444956302772
 21
0.0569605723704284
 31
3.888579933804730E-18
210
-3.231153159914877E-17
220
-4.513815278383455E-17
230
1.0
 40
0.908374465235719
 41
0.6674062465668275
 42
2.671810903782999
  0
ELLIPSE
  5
3A9616
330
18
100
AcDbEntity
  8
姿図
100
AcDbEllipse
 10
19267.34424189204
 20
-17471.80781045265
 30
0.0000000000000014
 11
0.04077444956302772
 21
0.0569605723704284
 31
3.888579933804730E-18
210
-3.231153159914877E-17
220
-4.513815278383455E-17
230
1.0
 40
0.908374465235719
 41
0.6674062465667715
 42
2.671810903782776
  0
ELLIPSE
  5
3A9617
330
18
100
AcDbEntity
  8
姿図
100
AcDbEllipse
 10
19267.34424189204
 20
-17469.10126972897
 30
0.0000000000000014
 11
0.04077444956302772
 21
0.0569605723704284
 31
3.888579933804730E-18
210
-3.231153159914877E-17
220
-4.513815278383455E-17
230
1.0
 40
0.908374465235719
 41
0.6674062465671117
 42
2.671810903783074
  0
ELLIPSE
  5
3A9618
330
18
100
AcDbEntity
  8
姿図
100
AcDbEllipse
 10
19267.34424189204
 20
-17469.77790490989
 30
0.0000000000000014
 11
0.04077444956302772
 21
0.0569605723704284
 31
3.888579933804730E-18
210
-3.231153159914877E-17
220
-4.513815278383455E-17
230
1.0
 40
0.908374465235719
 41
0.6674062465663877
 42
2.671810903782819
  0
ELLIPSE
  5
3A9619
330
18
100
AcDbEntity
  8
姿図
100
AcDbEllipse
 10
19267.34424189204
 20
-17466.39472900528
 30
0.0000000000000014
 11
0.04077444956302772
 21
0.0569605723704284
 31
3.888579933804730E-18
210
-3.231153159914877E-17
220
-4.513815278383455E-17
230
1.0
 40
0.908374465235719
 41
0.6674062465670556
 42
2.671810903782919
  0
ELLIPSE
  5
3A961A
330
18
100
AcDbEntity
  8
姿図
100
AcDbEllipse
 10
19267.34424189204
 20
-17467.0713641862
 30
0.0000000000000014
 11
0.04077444956302772
 21
0.0569605723704284
 31
3.888579933804730E-18
210
-3.231153159914877E-17
220
-4.513815278383455E-17
230
1.0
 40
0.908374465235719
 41
0.6674062465668229
 42
2.671810903782974
  0
ELLIPSE
  5
3A961B
330
18
100
AcDbEntity
  8
姿図
100
AcDbEllipse
 10
19267.34424189204
 20
-17467.74799936713
 30
0.0000000000000014
 11
0.04077444956302772
 21
0.0569605723704284
 31
3.888579933804730E-18
210
-3.231153159914877E-17
220
-4.513815278383455E-17
230
1.0
 40
0.908374465235719
 41
0.6674062465671117
 42
2.671810903783024
  0
LINE
  5
3A961C
330
18
100
AcDbEntity
  8
姿図
100
AcDbLine
 10
19267.28491674083
 20
-17472.51943540178
 30
0.0000000000000014
 11
19267.28376438359
 21
-17472.4632774181
 31
0.0000000000000014
  0
LINE
  5
3A961D
330
18
100
AcDbEntity
  8
姿図
100
AcDbLine
 10
19267.29943418901
 20
-17473.22691800315
 30
0.0000000000000014
 11
19267.29720153375
 21
-17473.11811307751
 31
0.0000000000000014
  0
ELLIPSE
  5
3A961E
330
18
100
AcDbEntity
  8
姿図
100
AcDbEllipse
 10
19248.18343028256
 20
-17430.95835825223
 30
0.0000000000000014
 11
-20.79391885913712
 21
42.52204348030641
 31
-2.627566994505298E-15
210
-2.438613733585013E-17
220
4.986786757879906E-17
230
1.0
 40
0.0898112888334006
 41
2.880054474313594
 42
2.880292129410969
  0
ELLIPSE
  5
3A961F
330
18
100
AcDbEntity
  8
姿図
100
AcDbEllipse
 10
19248.1840558717
 20
-17431.63632271708
 30
0.0000000000000014
 11
-20.80837884282621
 21
42.55161308954256
 31
2.629394191011153E-15
210
2.438613733585007E-17
220
-4.986786757879895E-17
230
1.0
 40
0.0898112888334005
 41
2.872823996859904
 42
2.880359273600474
  0
LINE
  5
3A9620
330
18
100
AcDbEntity
  8
姿図
100
AcDbLine
 10
19267.34424189204
 20
-17468.35697102995
 30
0.0000000000000014
 11
19267.44305696487
 21
-17468.34772400789
 31
0.0000000000000014
  0
LINE
  5
3A9621
330
18
100
AcDbEntity
  8
姿図
100
AcDbLine
 10
19267.34424189204
 20
-17469.03360621087
 30
0.0000000000000014
 11
19267.44305696487
 21
-17469.02435918881
 31
0.0000000000000014
  0
LINE
  5
3A9622
330
18
100
AcDbEntity
  8
姿図
100
AcDbLine
 10
19267.34424189204
 20
-17467.00370066811
 30
0.0000000000000014
 11
19267.44305696487
 21
-17466.99445364604
 31
0.0000000000000014
  0
LINE
  5
3A9623
330
18
100
AcDbEntity
  8
姿図
100
AcDbLine
 10
19267.34424189204
 20
-17467.68033584903
 30
0.0000000000000014
 11
19267.44305696487
 21
-17467.67108882696
 31
0.0000000000000014
  0
LINE
  5
3A9624
330
18
100
AcDbEntity
  8
姿図
100
AcDbLine
 10
19267.34424189204
 20
-17472.41678211548
 30
0.0000000000000014
 11
19267.44305696487
 21
-17472.40753509341
 31
0.0000000000000014
  0
LINE
  5
3A9625
330
18
100
AcDbEntity
  8
姿図
100
AcDbLine
 10
19267.34424189204
 20
-17473.0934172964
 30
0.0000000000000014
 11
19267.44305696487
 21
-17473.08417027433
 31
0.0000000000000014
  0
LINE
  5
3A9626
330
18
100
AcDbEntity
  8
姿図
100
AcDbLine
 10
19267.34424189204
 20
-17470.38687657272
 30
0.0000000000000014
 11
19267.44305696487
 21
-17470.37762955065
 31
0.0000000000000014
  0
LINE
  5
3A9627
330
18
100
AcDbEntity
  8
姿図
100
AcDbLine
 10
19267.34424189204
 20
-17471.06351175364
 30
0.0000000000000014
 11
19267.44305696487
 21
-17471.05426473157
 31
0.0000000000000014
  0
LINE
  5
3A9628
330
18
100
AcDbEntity
  8
姿図
100
AcDbLine
 10
19267.34424189204
 20
-17471.74014693455
 30
0.0000000000000014
 11
19267.44305696487
 21
-17471.73089991249
 31
0.0000000000000014
  0
LINE
  5
3A9629
330
18
100
AcDbEntity
  8
姿図
100
AcDbLine
 10
19267.41261533504
 20
-17471.05711343081
 30
0.0000000000000014
 11
19267.42281555084
 21
-17471.43336176405
 31
0.0000000000000014
  0
LINE
  5
3A962A
330
18
100
AcDbEntity
  8
姿図
100
AcDbLine
 10
19267.34424189204
 20
-17469.71024139179
 30
0.0000000000000014
 11
19267.44305696487
 21
-17469.70099436973
 31
0.0000000000000014
  0
ELLIPSE
  5
3A962B
330
18
100
AcDbEntity
  8
姿図
100
AcDbEllipse
 10
19267.44305696487
 20
-17472.33987157532
 30
0.0000000000000014
 11
0.04077444956301913
 21
0.05696057237042773
 31
0.0
210
0.0
220
0.0
230
1.0
 40
0.9083744652357186
 41
3.808998900156664
 42
5.813403557372635
  0
ELLIPSE
  5
3A962C
330
18
100
AcDbEntity
  8
姿図
100
AcDbEllipse
 10
19267.44305696487
 20
-17473.01650675624
 30
0.0000000000000014
 11
0.04077444956301913
 21
0.05696057237042773
 31
0.0
210
0.0
220
0.0
230
1.0
 40
0.9083744652357186
 41
3.808998900156701
 42
5.813403557372721
  0
ELLIPSE
  5
3A962D
330
18
100
AcDbEntity
  8
姿図
100
AcDbEllipse
 10
19267.44305696487
 20
-17468.2800604898
 30
0.0000000000000014
 11
0.04077444956302054
 21
0.05696057237042965
 31
0.0
210
0.0
220
0.0
230
1.0
 40
0.9083744652357184
 41
3.808998900156944
 42
5.813403557372685
  0
ELLIPSE
  5
3A962E
330
18
100
AcDbEntity
  8
姿図
100
AcDbEllipse
 10
19267.44305696487
 20
-17470.30996603256
 30
0.0000000000000014
 11
0.04077444956302054
 21
0.05696057237042965
 31
0.0
210
0.0
220
0.0
230
1.0
 40
0.9083744652357184
 41
3.808998900156665
 42
5.813403557372685
  0
ELLIPSE
  5
3A962F
330
18
100
AcDbEntity
  8
姿図
100
AcDbEllipse
 10
19247.28381309099
 20
-17470.89479524811
 30
0.0000000000000014
 11
-20.12390636427689
 21
-3.814900630616825E-13
 31
-1.117101209551046E-15
210
-5.551115123125783E-17
220
-1.052328121613186E-30
230
1.0
 40
0.258819045102515
 41
3.173482583937681
 42
3.237425862011138
  0
ELLIPSE
  5
3A9630
330
18
100
AcDbEntity
  8
姿図
100
AcDbEllipse
 10
19247.28381309099
 20
-17471.46993515189
 30
0.0000000000000014
 11
-20.13949821201701
 21
-3.834625887223409E-13
 31
-1.117966730968923E-15
210
-5.551115123125783E-17
220
-1.056950353479716E-30
230
1.0
 40
0.258819045102515
 41
3.048817195001321
 42
3.090682397459626
  0
ELLIPSE
  5
3A9631
330
18
100
AcDbEntity
  8
姿図
100
AcDbEllipse
 10
19247.28381309099
 20
-17471.46993515189
 30
0.0000000000000014
 11
-20.13949821201701
 21
-3.834625887223409E-13
 31
-1.117966730968923E-15
210
-5.551115123125783E-17
220
-1.056950353479716E-30
230
1.0
 40
0.258819045102515
 41
3.143468445217585
 42
3.219953961483735
  0
ELLIPSE
  5
3A9632
330
18
100
AcDbEntity
  8
姿図
100
AcDbEllipse
 10
19267.77408491301
 20
-17472.35859159597
 30
0.0000000000000014
 11
-0.02392420980733846
 21
-0.3495180895951371
 31
1.944755070642358E-17
210
3.790819955422905E-18
220
5.538156367497357E-17
230
1.0
 40
0.163803715364946
 41
3.940366134145706
 42
4.140498290499586
  0
ELLIPSE
  5
3A9633
330
18
100
AcDbEntity
  8
姿図
100
AcDbEllipse
 10
19267.44305696487
 20
-17470.98660121348
 30
0.0000000000000014
 11
0.04077444956302054
 21
0.05696057237042965
 31
0.0
210
0.0
220
0.0
230
1.0
 40
0.9083744652357184
 41
3.808998900156953
 42
5.813403557372611
  0
ELLIPSE
  5
3A9634
330
18
100
AcDbEntity
  8
姿図
100
AcDbEllipse
 10
19267.44305696487
 20
-17471.6632363944
 30
0.0000000000000014
 11
0.04077444956302054
 21
0.05696057237042965
 31
0.0
210
0.0
220
0.0
230
1.0
 40
0.9083744652357184
 41
3.808998900157146
 42
5.813403557372803
  0
ELLIPSE
  5
3A9635
330
18
100
AcDbEntity
  8
姿図
100
AcDbEllipse
 10
19267.44305696487
 20
-17468.95669567072
 30
0.0000000000000014
 11
0.04077444956302054
 21
0.05696057237042965
 31
0.0
210
0.0
220
0.0
230
1.0
 40
0.9083744652357184
 41
3.808998900156944
 42
5.813403557372685
  0
ELLIPSE
  5
3A9636
330
18
100
AcDbEntity
  8
姿図
100
AcDbEllipse
 10
19267.44305696487
 20
-17469.63333085163
 30
0.0000000000000014
 11
0.04077444956302054
 21
0.05696057237042965
 31
0.0
210
0.0
220
0.0
230
1.0
 40
0.9083744652357184
 41
3.808998900157137
 42
5.813403557372877
  0
ELLIPSE
  5
3A9637
330
18
100
AcDbEntity
  8
姿図
100
AcDbEllipse
 10
19267.44305696487
 20
-17466.92679012795
 30
0.0000000000000014
 11
0.04077444956302054
 21
0.05696057237042965
 31
0.0
210
0.0
220
0.0
230
1.0
 40
0.9083744652357184
 41
3.808998900156944
 42
5.813403557372635
  0
ELLIPSE
  5
3A9638
330
18
100
AcDbEntity
  8
姿図
100
AcDbEllipse
 10
19267.44305696487
 20
-17467.60342530887
 30
0.0000000000000014
 11
0.04077444956302054
 21
0.05696057237042965
 31
0.0
210
0.0
220
0.0
230
1.0
 40
0.9083744652357184
 41
3.808998900157069
 42
5.813403557372808
  0
LINE
  5
3A9639
330
18
100
AcDbEntity
  8
姿図
100
AcDbLine
 10
19269.62268364401
 20
-17468.41023048512
 30
0.0000000000000014
 11
19269.40430817921
 21
-17467.94621508623
 31
0.0000000000000014
  0
LINE
  5
3A963A
330
18
100
AcDbEntity
  8
姿図
100
AcDbLine
 10
19269.62268364401
 20
-17469.08686566604
 30
0.0000000000000014
 11
19269.40430817921
 21
-17468.62285026715
 31
0.0000000000000014
  0
LINE
  5
3A963B
330
18
100
AcDbEntity
  8
姿図
100
AcDbLine
 10
19269.62268364401
 20
-17467.05696012327
 30
0.0000000000000014
 11
19269.40430817921
 21
-17466.59294472439
 31
0.0000000000000014
  0
LINE
  5
3A963C
330
18
100
AcDbEntity
  8
姿図
100
AcDbLine
 10
19269.62268364401
 20
-17467.73359530419
 30
0.0000000000000014
 11
19269.40430817921
 21
-17467.26957990531
 31
0.0000000000000014
  0
LINE
  5
3A963D
330
18
100
AcDbEntity
  8
姿図
100
AcDbLine
 10
19269.62268364401
 20
-17472.47004157065
 30
0.0000000000000014
 11
19269.40430817921
 21
-17472.00602617176
 31
0.0000000000000014
  0
LINE
  5
3A963E
330
18
100
AcDbEntity
  8
姿図
100
AcDbLine
 10
19269.62268364401
 20
-17473.14667675157
 30
0.0000000000000014
 11
19269.40430817921
 21
-17472.68266135268
 31
0.0000000000000014
  0
LINE
  5
3A963F
330
18
100
AcDbEntity
  8
姿図
100
AcDbLine
 10
19269.62268364401
 20
-17470.44013602788
 30
0.0000000000000014
 11
19269.40430817921
 21
-17469.97612062899
 31
0.0000000000000014
  0
LINE
  5
3A9640
330
18
100
AcDbEntity
  8
姿図
100
AcDbLine
 10
19269.62268364401
 20
-17471.1167712088
 30
0.0000000000000014
 11
19269.40430817921
 21
-17470.65275580991
 31
0.0000000000000014
  0
LINE
  5
3A9641
330
18
100
AcDbEntity
  8
姿図
100
AcDbLine
 10
19269.62268364401
 20
-17471.79340638973
 30
0.0000000000000014
 11
19269.40430817921
 21
-17471.32939099084
 31
0.0000000000000014
  0
LINE
  5
3A9642
330
18
100
AcDbEntity
  8
姿図
100
AcDbLine
 10
19269.62268364401
 20
-17469.76350084696
 30
0.0000000000000014
 11
19269.40430817921
 21
-17469.29948544807
 31
0.0000000000000014
  0
ELLIPSE
  5
3A9643
330
18
100
AcDbEntity
  8
姿図
100
AcDbEllipse
 10
19269.46408837519
 20
-17472.64863849079
 30
0.0000000000000014
 11
0.04077444956302772
 21
0.0569605723704284
 31
3.888579933804730E-18
210
-3.231153159914877E-17
220
-4.513815278383455E-17
230
1.0
 40
0.908374465235719
 41
0.6674062465674321
 42
2.671810903783085
  0
ELLIPSE
  5
3A9644
330
18
100
AcDbEntity
  8
姿図
100
AcDbEllipse
 10
19269.46408837519
 20
-17473.32527367171
 30
0.0000000000000014
 11
0.04077444956302772
 21
0.0569605723704284
 31
3.888579933804730E-18
210
-3.231153159914877E-17
220
-4.513815278383455E-17
230
1.0
 40
0.908374465235719
 41
0.6674062465669873
 42
2.671810903782875
  0
ELLIPSE
  5
3A9645
330
18
100
AcDbEntity
  8
姿図
100
AcDbEllipse
 10
19269.46408837519
 20
-17470.61873294803
 30
0.0000000000000014
 11
0.04077444956302772
 21
0.0569605723704284
 31
3.888579933804730E-18
210
-3.231153159914877E-17
220
-4.513815278383455E-17
230
1.0
 40
0.908374465235719
 41
0.6674062465671117
 42
2.671810903782999
  0
ELLIPSE
  5
3A9646
330
18
100
AcDbEntity
  8
姿図
100
AcDbEllipse
 10
19269.46408837519
 20
-17471.29536812895
 30
0.0000000000000014
 11
0.04077444956302772
 21
0.0569605723704284
 31
3.888579933804730E-18
210
-3.231153159914877E-17
220
-4.513815278383455E-17
230
1.0
 40
0.908374465235719
 41
0.6674062465669561
 42
2.671810903782844
  0
ELLIPSE
  5
3A9647
330
18
100
AcDbEntity
  8
姿図
100
AcDbEllipse
 10
19269.46408837519
 20
-17471.97200330987
 30
0.0000000000000014
 11
0.04077444956302772
 21
0.0569605723704284
 31
3.888579933804730E-18
210
-3.231153159914877E-17
220
-4.513815278383455E-17
230
1.0
 40
0.908374465235719
 41
0.6674062465670799
 42
2.671810903782968
  0
ELLIPSE
  5
3A9648
330
18
100
AcDbEntity
  8
姿図
100
AcDbEllipse
 10
19269.46408837519
 20
-17468.58882740526
 30
0.0000000000000014
 11
0.04077444956302772
 21
0.0569605723704284
 31
3.888579933804730E-18
210
-3.231153159914877E-17
220
-4.513815278383455E-17
230
1.0
 40
0.908374465235719
 41
0.6674062465670799
 42
2.671810903783017
  0
ELLIPSE
  5
3A9649
330
18
100
AcDbEntity
  8
姿図
100
AcDbEllipse
 10
19269.46408837519
 20
-17469.26546258618
 30
0.0000000000000014
 11
0.04077444956302772
 21
0.0569605723704284
 31
3.888579933804730E-18
210
-3.231153159914877E-17
220
-4.513815278383455E-17
230
1.0
 40
0.908374465235719
 41
0.667406246567148
 42
2.671810903783085
  0
ELLIPSE
  5
3A964A
330
18
100
AcDbEntity
  8
姿図
100
AcDbEllipse
 10
19269.46408837519
 20
-17469.9420977671
 30
0.0000000000000014
 11
0.04077444956302772
 21
0.0569605723704284
 31
3.888579933804730E-18
210
-3.231153159914877E-17
220
-4.513815278383455E-17
230
1.0
 40
0.908374465235719
 41
0.6674062465669873
 42
2.671810903782924
  0
ELLIPSE
  5
3A964B
330
18
100
AcDbEntity
  8
姿図
100
AcDbEllipse
 10
19269.46408837519
 20
-17466.55892186249
 30
0.0000000000000014
 11
0.04077444956303928
 21
0.05696057237044466
 31
3.888579933805833E-18
210
-3.231153159914874E-17
220
-4.513815278383450E-17
230
1.0
 40
0.9083744652357183
 41
0.6674062465670405
 42
2.671810903783109
  0
ELLIPSE
  5
3A964C
330
18
100
AcDbEntity
  8
姿図
100
AcDbEllipse
 10
19269.46408837519
 20
-17467.23555704341
 30
0.0000000000000014
 11
0.04077444956302772
 21
0.0569605723704284
 31
3.888579933804730E-18
210
-3.231153159914877E-17
220
-4.513815278383455E-17
230
1.0
 40
0.908374465235719
 41
0.667406246567148
 42
2.671810903783036
  0
ELLIPSE
  5
3A964D
330
18
100
AcDbEntity
  8
姿図
100
AcDbEllipse
 10
19269.46408837519
 20
-17467.91219222434
 30
0.0000000000000014
 11
0.04077444956302772
 21
0.0569605723704284
 31
3.888579933804730E-18
210
-3.231153159914877E-17
220
-4.513815278383455E-17
230
1.0
 40
0.908374465235719
 41
0.6674062465670241
 42
2.671810903782961
  0
LINE
  5
3A964E
330
18
100
AcDbEntity
  8
姿図
100
AcDbLine
 10
19268.66593468508
 20
-17468.09429566276
 30
0.0000000000000014
 11
19268.88431014988
 21
-17468.55831106165
 31
0.0000000000000014
  0
LINE
  5
3A964F
330
18
100
AcDbEntity
  8
姿図
100
AcDbLine
 10
19268.82452995389
 20
-17468.65999744163
 30
0.0000000000000014
 11
19268.72571488106
 21
-17468.6692444637
 31
0.0000000000000014
  0
LINE
  5
3A9650
330
18
100
AcDbEntity
  8
姿図
100
AcDbLine
 10
19268.82452995389
 20
-17467.98336226071
 30
0.0000000000000014
 11
19268.72571488106
 21
-17467.99260928278
 31
0.0000000000000014
  0
LINE
  5
3A9651
330
18
100
AcDbEntity
  8
姿図
100
AcDbLine
 10
19268.66593468508
 20
-17467.41766048183
 30
0.0000000000000014
 11
19268.88431014988
 21
-17467.88167588073
 31
0.0000000000000014
  0
LINE
  5
3A9652
330
18
100
AcDbEntity
  8
姿図
100
AcDbLine
 10
19268.82452995389
 20
-17467.30672707979
 30
0.0000000000000014
 11
19268.72571488106
 21
-17467.31597410186
 31
0.0000000000000014
  0
LINE
  5
3A9653
330
18
100
AcDbEntity
  8
姿図
100
AcDbLine
 10
19268.66593468508
 20
-17466.74102530091
 30
0.0000000000000014
 11
19268.88431014988
 21
-17467.20504069981
 31
0.0000000000000014
  0
LINE
  5
3A9654
330
18
100
AcDbEntity
  8
姿図
100
AcDbLine
 10
19268.82452995389
 20
-17466.63009189887
 30
0.0000000000000014
 11
19268.72571488106
 21
-17466.63933892093
 31
0.0000000000000014
  0
LINE
  5
3A9655
330
18
100
AcDbEntity
  8
姿図
100
AcDbLine
 10
19268.66593468508
 20
-17472.15410674829
 30
0.0000000000000014
 11
19268.88431014988
 21
-17472.61812214718
 31
0.0000000000000014
  0
LINE
  5
3A9656
330
18
100
AcDbEntity
  8
姿図
100
AcDbLine
 10
19268.66523737261
 20
-17473.45218603277
 30
0.0000000000000014
 11
19268.66638972986
 21
-17473.50834401645
 31
0.0000000000000014
  0
LINE
  5
3A9657
330
18
100
AcDbEntity
  8
姿図
100
AcDbLine
 10
19268.82452995389
 20
-17473.39644370808
 30
0.0000000000000014
 11
19268.72571488106
 21
-17473.40569073015
 31
0.0000000000000014
  0
LINE
  5
3A9658
330
18
100
AcDbEntity
  8
姿図
100
AcDbLine
 10
19268.66593468508
 20
-17472.83074192921
 30
0.0000000000000014
 11
19268.88431014988
 21
-17473.2947573281
 31
0.0000000000000014
  0
LINE
  5
3A9659
330
18
100
AcDbEntity
  8
姿図
100
AcDbLine
 10
19268.82452995389
 20
-17472.71980852716
 30
0.0000000000000014
 11
19268.72571488106
 21
-17472.72905554923
 31
0.0000000000000014
  0
LINE
  5
3A965A
330
18
100
AcDbEntity
  8
姿図
100
AcDbLine
 10
19268.66593468508
 20
-17470.12420120552
 30
0.0000000000000014
 11
19268.88431014988
 21
-17470.58821660441
 31
0.0000000000000014
  0
LINE
  5
3A965B
330
18
100
AcDbEntity
  8
姿図
100
AcDbLine
 10
19268.82452995389
 20
-17472.04317334624
 30
0.0000000000000014
 11
19268.72571488106
 21
-17472.05242036831
 31
0.0000000000000014
  0
LINE
  5
3A965C
330
18
100
AcDbEntity
  8
姿図
100
AcDbLine
 10
19268.66593468508
 20
-17471.47747156736
 30
0.0000000000000014
 11
19268.88431014988
 21
-17471.94148696625
 31
0.0000000000000014
  0
LINE
  5
3A965D
330
18
100
AcDbEntity
  8
姿図
100
AcDbLine
 10
19268.82452995389
 20
-17471.36653816532
 30
0.0000000000000014
 11
19268.72571488106
 21
-17471.37578518738
 31
0.0000000000000014
  0
LINE
  5
3A965E
330
18
100
AcDbEntity
  8
姿図
100
AcDbLine
 10
19268.66593468508
 20
-17470.80083638644
 30
0.0000000000000014
 11
19268.88431014988
 21
-17471.26485178533
 31
0.0000000000000014
  0
LINE
  5
3A965F
330
18
100
AcDbEntity
  8
姿図
100
AcDbLine
 10
19268.82452995389
 20
-17470.6899029844
 30
0.0000000000000014
 11
19268.72571488106
 21
-17470.69915000646
 31
0.0000000000000014
  0
LINE
  5
3A9660
330
18
100
AcDbEntity
  8
姿図
100
AcDbLine
 10
19268.82452995389
 20
-17470.01326780348
 30
0.0000000000000014
 11
19268.72571488106
 21
-17470.02251482554
 31
0.0000000000000014
  0
LINE
  5
3A9661
330
18
100
AcDbEntity
  8
姿図
100
AcDbLine
 10
19268.66593468508
 20
-17469.4475660246
 30
0.0000000000000014
 11
19268.88431014988
 21
-17469.91158142349
 31
0.0000000000000014
  0
LINE
  5
3A9662
330
18
100
AcDbEntity
  8
姿図
100
AcDbLine
 10
19268.82452995389
 20
-17469.33663262255
 30
0.0000000000000014
 11
19268.72571488106
 21
-17469.34587964462
 31
0.0000000000000014
  0
LINE
  5
3A9663
330
18
100
AcDbEntity
  8
姿図
100
AcDbLine
 10
19268.66593468508
 20
-17468.77093084368
 30
0.0000000000000014
 11
19268.88431014988
 21
-17469.23494624257
 31
0.0000000000000014
  0
ELLIPSE
  5
3A9664
330
18
100
AcDbEntity
  8
姿図
100
AcDbEllipse
 10
19268.72571488105
 20
-17473.47335424824
 30
0.0000000000000014
 11
0.0407744495630228
 21
0.05696057237043198
 31
3.888579933804733E-18
210
-3.231153159914463E-17
220
-4.513815278383753E-17
230
1.0
 40
0.908374465235718
 41
0.6674062465666386
 42
1.830516517601721
  0
ELLIPSE
  5
3A9665
330
18
100
AcDbEntity
  8
姿図
100
AcDbEllipse
 10
19268.82452995389
 20
-17473.32878018999
 30
0.0000000000000014
 11
0.04077444956302492
 21
0.05696057237042366
 31
7.777159867608844E-18
210
-6.462306319829826E-17
220
-9.027630556766847E-17
230
1.0
 40
0.9083744652357175
 41
3.808998900156779
 42
5.813403557372749
  0
ELLIPSE
  5
3A9666
330
18
100
AcDbEntity
  8
姿図
100
AcDbEllipse
 10
19268.72571488105
 20
-17472.79671906732
 30
0.0000000000000014
 11
0.0407744495630228
 21
0.05696057237043198
 31
3.888579933804733E-18
210
-3.231153159914463E-17
220
-4.513815278383753E-17
230
1.0
 40
0.908374465235718
 41
0.6674062465669787
 42
2.671810903782915
  0
ELLIPSE
  5
3A9667
330
18
100
AcDbEntity
  8
姿図
100
AcDbEllipse
 10
19268.82452995389
 20
-17472.65214500907
 30
0.0000000000000014
 11
0.04077444956302618
 21
0.05696057237042552
 31
-3.888579933804548E-18
210
3.231153159914902E-17
220
4.513815278383435E-17
230
1.0
 40
0.9083744652357175
 41
3.80899890015719
 42
5.813403557373379
  0
ELLIPSE
  5
3A9668
330
18
100
AcDbEntity
  8
姿図
100
AcDbEllipse
 10
19248.18343028256
 20
-17430.95835825223
 30
0.0000000000000014
 11
-20.79391885913712
 21
42.52204348030641
 31
-2.627566994505298E-15
210
-2.438613733585013E-17
220
4.986786757879906E-17
230
1.0
 40
0.0898112888334006
 41
3.072939992536941
 42
3.073177647634316
  0
ELLIPSE
  5
3A9669
330
18
100
AcDbEntity
  8
姿図
100
AcDbEllipse
 10
19268.72571488105
 20
-17472.1200838864
 30
0.0000000000000014
 11
0.0407744495630228
 21
0.05696057237043198
 31
3.888579933804733E-18
210
-3.231153159914463E-17
220
-4.513815278383753E-17
230
1.0
 40
0.908374465235718
 41
0.6674062465666698
 42
2.671810903782841
  0
ELLIPSE
  5
3A966A
330
18
100
AcDbEntity
  8
姿図
100
AcDbEllipse
 10
19268.82452995389
 20
-17471.97550982815
 30
0.0000000000000014
 11
0.04077444956302618
 21
0.05696057237042552
 31
-3.888579933804548E-18
210
3.231153159914902E-17
220
4.513815278383435E-17
230
1.0
 40
0.9083744652357175
 41
3.808998900156782
 42
5.813403557372797
  0
ELLIPSE
  5
3A966B
330
18
100
AcDbEntity
  8
姿図
100
AcDbEllipse
 10
19268.72571488105
 20
-17471.44344870548
 30
0.0000000000000014
 11
0.0407744495630228
 21
0.05696057237043198
 31
3.888579933804733E-18
210
-3.231153159914463E-17
220
-4.513815278383753E-17
230
1.0
 40
0.908374465235718
 41
0.6674062465669538
 42
2.671810903782891
  0
ELLIPSE
  5
3A966C
330
18
100
AcDbEntity
  8
姿図
100
AcDbEllipse
 10
19268.82452995389
 20
-17471.29887464723
 30
0.0000000000000014
 11
0.04077444956302618
 21
0.05696057237042552
 31
-3.888579933804548E-18
210
3.231153159914902E-17
220
4.513815278383435E-17
230
1.0
 40
0.9083744652357175
 41
3.808998900157067
 42
5.813403557373014
  0
ELLIPSE
  5
3A966D
330
18
100
AcDbEntity
  8
姿図
100
AcDbEllipse
 10
19268.72571488105
 20
-17470.76681352455
 30
0.0000000000000014
 11
0.0407744495630228
 21
0.05696057237043198
 31
3.888579933804733E-18
210
-3.231153159914463E-17
220
-4.513815278383753E-17
230
1.0
 40
0.908374465235718
 41
0.6674062465669787
 42
2.671810903782915
  0
ELLIPSE
  5
3A966E
330
18
100
AcDbEntity
  8
姿図
100
AcDbEllipse
 10
19268.82452995389
 20
-17470.6222394663
 30
0.0000000000000014
 11
0.04077444956302618
 21
0.05696057237042552
 31
-3.888579933804548E-18
210
3.231153159914902E-17
220
4.513815278383435E-17
230
1.0
 40
0.9083744652357175
 41
3.808998900156782
 42
5.813403557372797
  0
ELLIPSE
  5
3A966F
330
18
100
AcDbEntity
  8
姿図
100
AcDbEllipse
 10
19268.72571488105
 20
-17470.09017834363
 30
0.0000000000000014
 11
0.0407744495630228
 21
0.05696057237043198
 31
3.888579933804733E-18
210
-3.231153159914463E-17
220
-4.513815278383753E-17
230
1.0
 40
0.908374465235718
 41
0.6674062465668864
 42
2.671810903783139
  0
ELLIPSE
  5
3A9670
330
18
100
AcDbEntity
  8
姿図
100
AcDbEllipse
 10
19268.82452995389
 20
-17469.94560428538
 30
0.0000000000000014
 11
0.04077444956302618
 21
0.05696057237042552
 31
-3.888579933804548E-18
210
3.231153159914902E-17
220
4.513815278383435E-17
230
1.0
 40
0.9083744652357175
 41
3.808998900157258
 42
5.81340355737299
  0
ELLIPSE
  5
3A9671
330
18
100
AcDbEntity
  8
姿図
100
AcDbEllipse
 10
19268.72571488105
 20
-17469.41354316271
 30
0.0000000000000014
 11
0.0407744495630228
 21
0.05696057237043198
 31
3.888579933804733E-18
210
-3.231153159914463E-17
220
-4.513815278383753E-17
230
1.0
 40
0.908374465235718
 41
0.6674062465670783
 42
2.671810903783331
  0
ELLIPSE
  5
3A9672
330
18
100
AcDbEntity
  8
姿図
100
AcDbEllipse
 10
19268.82452995389
 20
-17469.26896910446
 30
0.0000000000000014
 11
0.04077444956302618
 21
0.05696057237042552
 31
-3.888579933804548E-18
210
3.231153159914902E-17
220
4.513815278383435E-17
230
1.0
 40
0.9083744652357175
 41
3.808998900157067
 42
5.813403557372797
  0
ELLIPSE
  5
3A9673
330
18
100
AcDbEntity
  8
姿図
100
AcDbEllipse
 10
19268.72571488105
 20
-17468.73690798179
 30
0.0000000000000014
 11
0.0407744495630228
 21
0.05696057237043198
 31
3.888579933804733E-18
210
-3.231153159914463E-17
220
-4.513815278383753E-17
230
1.0
 40
0.908374465235718
 41
0.6674062465670099
 42
2.671810903783262
  0
ELLIPSE
  5
3A9674
330
18
100
AcDbEntity
  8
姿図
100
AcDbEllipse
 10
19268.82452995389
 20
-17468.59233392354
 30
0.0000000000000014
 11
0.04077444956302618
 21
0.05696057237042552
 31
-3.888579933804548E-18
210
3.231153159914902E-17
220
4.513815278383435E-17
230
1.0
 40
0.9083744652357175
 41
3.808998900156622
 42
5.81340355737292
  0
ELLIPSE
  5
3A9675
330
18
100
AcDbEntity
  8
姿図
100
AcDbEllipse
 10
19268.72571488105
 20
-17468.06027280087
 30
0.0000000000000014
 11
0.0407744495630228
 21
0.05696057237043198
 31
3.888579933804733E-18
210
-3.231153159914463E-17
220
-4.513815278383753E-17
230
1.0
 40
0.908374465235718
 41
0.6674062465666947
 42
2.671810903783231
  0
ELLIPSE
  5
3A9676
330
18
100
AcDbEntity
  8
姿図
100
AcDbEllipse
 10
19268.82452995389
 20
-17467.91569874261
 30
0.0000000000000014
 11
0.04077444956302618
 21
0.05696057237042552
 31
-3.888579933804548E-18
210
3.231153159914902E-17
220
4.513815278383435E-17
230
1.0
 40
0.9083744652357175
 41
3.808998900156782
 42
5.813403557372797
  0
ELLIPSE
  5
3A9677
330
18
100
AcDbEntity
  8
姿図
100
AcDbEllipse
 10
19268.72571488105
 20
-17467.38363761995
 30
0.0000000000000014
 11
0.0407744495630228
 21
0.05696057237043198
 31
3.888579933804733E-18
210
-3.231153159914463E-17
220
-4.513815278383753E-17
230
1.0
 40
0.908374465235718
 41
0.6674062465668553
 42
2.671810903783083
  0
ELLIPSE
  5
3A9678
330
18
100
AcDbEntity
  8
姿図
100
AcDbEllipse
 10
19268.82452995389
 20
-17467.23906356169
 30
0.0000000000000014
 11
0.04077444956302618
 21
0.05696057237042552
 31
-3.888579933804548E-18
210
3.231153159914902E-17
220
4.513815278383435E-17
230
1.0
 40
0.9083744652357175
 41
3.808998900156777
 42
5.813403557372797
  0
ELLIPSE
  5
3A9679
330
18
100
AcDbEntity
  8
姿図
100
AcDbEllipse
 10
19268.72571488105
 20
-17466.70700243902
 30
0.0000000000000014
 11
0.0407744495630228
 21
0.05696057237043198
 31
3.888579933804733E-18
210
-3.231153159914463E-17
220
-4.513815278383753E-17
230
1.0
 40
0.908374465235718
 41
0.6674062465666901
 42
2.671810903782891
  0
ELLIPSE
  5
3A967A
330
18
100
AcDbEntity
  8
姿図
100
AcDbEllipse
 10
19268.82452995389
 20
-17466.56242838077
 30
0.0000000000000014
 11
0.0407744495630275
 21
0.05696057237042731
 31
3.888579933804645E-18
210
-3.231153159914882E-17
220
-4.513815278383401E-17
230
1.0
 40
0.9083744652357181
 41
3.808998900156912
 42
5.813403557372872
  0
LINE
  5
3A967B
330
18
100
AcDbEntity
  8
姿図
100
AcDbLine
 10
19269.46408837519
 20
-17468.52116388717
 30
0.0000000000000014
 11
19269.56290344803
 21
-17468.5119168651
 31
0.0000000000000014
  0
LINE
  5
3A967C
330
18
100
AcDbEntity
  8
姿図
100
AcDbLine
 10
19269.46408837519
 20
-17466.49125834441
 30
0.0000000000000014
 11
19269.56290344803
 21
-17466.48201132234
 31
0.0000000000000014
  0
LINE
  5
3A967D
330
18
100
AcDbEntity
  8
姿図
100
AcDbLine
 10
19269.46408837519
 20
-17467.16789352533
 30
0.0000000000000014
 11
19269.56290344803
 21
-17467.15864650326
 31
0.0000000000000014
  0
LINE
  5
3A967E
330
18
100
AcDbEntity
  8
姿図
100
AcDbLine
 10
19269.46408837519
 20
-17467.84452870625
 30
0.0000000000000014
 11
19269.56290344803
 21
-17467.83528168418
 31
0.0000000000000014
  0
LINE
  5
3A967F
330
18
100
AcDbEntity
  8
姿図
100
AcDbLine
 10
19269.46408837519
 20
-17472.5809749727
 30
0.0000000000000014
 11
19269.56290344803
 21
-17472.57172795063
 31
0.0000000000000014
  0
LINE
  5
3A9680
330
18
100
AcDbEntity
  8
姿図
100
AcDbLine
 10
19269.46408837519
 20
-17473.25761015362
 30
0.0000000000000014
 11
19269.56290344803
 21
-17473.24836313156
 31
0.0000000000000014
  0
LINE
  5
3A9681
330
18
100
AcDbEntity
  8
姿図
100
AcDbLine
 10
19269.46408837519
 20
-17470.55106942993
 30
0.0000000000000014
 11
19269.56290344803
 21
-17470.54182240787
 31
0.0000000000000014
  0
LINE
  5
3A9682
330
18
100
AcDbEntity
  8
姿図
100
AcDbLine
 10
19269.46408837519
 20
-17471.22770461085
 30
0.0000000000000014
 11
19269.56290344803
 21
-17471.21845758879
 31
0.0000000000000014
  0
LINE
  5
3A9683
330
18
100
AcDbEntity
  8
姿図
100
AcDbLine
 10
19269.46408837519
 20
-17471.90433979177
 30
0.0000000000000014
 11
19269.56290344803
 21
-17471.89509276971
 31
0.0000000000000014
  0
LINE
  5
3A9684
330
18
100
AcDbEntity
  8
姿図
100
AcDbLine
 10
19269.46408837519
 20
-17469.19779906809
 30
0.0000000000000014
 11
19269.56290344803
 21
-17469.18855204602
 31
0.0000000000000014
  0
LINE
  5
3A9685
330
18
100
AcDbEntity
  8
姿図
100
AcDbLine
 10
19269.46408837519
 20
-17469.87443424901
 30
0.0000000000000014
 11
19269.56290344803
 21
-17469.86518722695
 31
0.0000000000000014
  0
ELLIPSE
  5
3A9686
330
18
100
AcDbEntity
  8
姿図
100
AcDbEllipse
 10
19269.56290344803
 20
-17472.50406443254
 30
0.0000000000000014
 11
0.04077444956302054
 21
0.05696057237042965
 31
0.0
210
0.0
220
0.0
230
1.0
 40
0.9083744652357184
 41
3.808998900157078
 42
5.8134035573731
  0
ELLIPSE
  5
3A9687
330
18
100
AcDbEntity
  8
姿図
100
AcDbEllipse
 10
19269.56290344803
 20
-17473.18069961346
 30
0.0000000000000014
 11
0.04077444956302054
 21
0.05696057237042965
 31
0.0
210
0.0
220
0.0
230
1.0
 40
0.9083744652357184
 41
3.808998900156706
 42
5.813403557372963
  0
ELLIPSE
  5
3A9688
330
18
100
AcDbEntity
  8
姿図
100
AcDbEllipse
 10
19269.56290344803
 20
-17470.47415888977
 30
0.0000000000000014
 11
0.04077444956302054
 21
0.05696057237042965
 31
0.0
210
0.0
220
0.0
230
1.0
 40
0.9083744652357184
 41
3.808998900156737
 42
5.813403557372994
  0
ELLIPSE
  5
3A9689
330
18
100
AcDbEntity
  8
姿図
100
AcDbEllipse
 10
19269.56290344803
 20
-17471.15079407069
 30
0.0000000000000014
 11
0.04077444956302054
 21
0.05696057237042965
 31
0.0
210
0.0
220
0.0
230
1.0
 40
0.9083744652357184
 41
3.808998900157022
 42
5.813403557372752
  0
ELLIPSE
  5
3A968A
330
18
100
AcDbEntity
  8
姿図
100
AcDbEllipse
 10
19269.56290344803
 20
-17471.82742925162
 30
0.0000000000000014
 11
0.04077444956302054
 21
0.05696057237042965
 31
0.0
210
0.0
220
0.0
230
1.0
 40
0.9083744652357184
 41
3.808998900156638
 42
5.813403557372579
  0
ELLIPSE
  5
3A968B
330
18
100
AcDbEntity
  8
姿図
100
AcDbEllipse
 10
19269.56290344803
 20
-17468.44425334701
 30
0.0000000000000014
 11
0.04077444956302054
 21
0.05696057237042965
 31
0.0
210
0.0
220
0.0
230
1.0
 40
0.9083744652357184
 41
3.808998900156422
 42
5.813403557372648
  0
ELLIPSE
  5
3A968C
330
18
100
AcDbEntity
  8
姿図
100
AcDbEllipse
 10
19269.56290344803
 20
-17469.12088852793
 30
0.0000000000000014
 11
0.04077444956302054
 21
0.05696057237042965
 31
0.0
210
0.0
220
0.0
230
1.0
 40
0.9083744652357184
 41
3.808998900156578
 42
5.813403557372803
  0
ELLIPSE
  5
3A968D
330
18
100
AcDbEntity
  8
姿図
100
AcDbEllipse
 10
19269.56290344803
 20
-17469.79752370885
 30
0.0000000000000014
 11
0.04077444956302054
 21
0.05696057237042965
 31
0.0
210
0.0
220
0.0
230
1.0
 40
0.9083744652357184
 41
3.808998900157022
 42
5.813403557373044
  0
ELLIPSE
  5
3A968E
330
18
100
AcDbEntity
  8
姿図
100
AcDbEllipse
 10
19269.56290344803
 20
-17466.41434780425
 30
0.0000000000000014
 11
0.04077444956302177
 21
0.05696057237043142
 31
-7.777159867609348E-18
210
6.462306319828893E-17
220
9.027630556767526E-17
230
1.0
 40
0.9083744652357181
 41
3.808998900156864
 42
5.813403557372728
  0
ELLIPSE
  5
3A968F
330
18
100
AcDbEntity
  8
姿図
100
AcDbEllipse
 10
19269.56290344803
 20
-17467.09098298517
 30
0.0000000000000014
 11
0.04077444956302177
 21
0.05696057237043142
 31
-7.777159867609348E-18
210
6.462306319828893E-17
220
9.027630556767526E-17
230
1.0
 40
0.9083744652357181
 41
3.808998900156512
 42
5.813403557373049
  0
ELLIPSE
  5
3A9690
330
18
100
AcDbEntity
  8
姿図
100
AcDbEllipse
 10
19269.56290344803
 20
-17467.76761816609
 30
0.0000000000000014
 11
0.04077444956302054
 21
0.05696057237042965
 31
0.0
210
0.0
220
0.0
230
1.0
 40
0.9083744652357184
 41
3.808998900156478
 42
5.813403557372704
  0
LINE
  5
3A9691
330
18
100
AcDbEntity
  8
姿図
100
AcDbLine
 10
19265.23253884259
 20
-17469.84317791727
 30
0.0000000000000014
 11
19264.71900100151
 21
-17469.89123430798
 31
0.0000000000000014
  0
ELLIPSE
  5
3A9692
330
18
100
AcDbEntity
  8
姿図
100
AcDbEllipse
 10
19246.98805624944
 20
-17463.61850309778
 30
0.0000000000000014
 11
12.11309932373158
 21
34.24547220764034
 31
0.0
210
0.0
220
0.0
230
1.0
 40
0.5306663220532382
 41
4.635006625735985
 42
4.718323401449883
  0
ELLIPSE
  5
3A9693
330
18
100
AcDbEntity
  8
姿図
100
AcDbEllipse
 10
19247.60384879805
 20
-17460.73556094733
 30
0.0000000000000014
 11
12.0971905597633
 21
34.2056226089775
 31
4.028085341671579E-15
210
-3.701743464227722E-17
220
-1.046692943349817E-16
230
1.0
 40
0.5306015190202692
 41
4.552834753258026
 42
4.631677754451532
  0
LINE
  5
3A9694
330
18
100
AcDbEntity
  8
姿図
100
AcDbLine
 10
19266.70468347074
 20
-17468.49580458442
 30
0.0000000000000014
 11
19266.6058683979
 21
-17468.50505160648
 31
0.0000000000000014
  0
LINE
  5
3A9695
330
18
100
AcDbEntity
  8
姿図
100
AcDbLine
 10
19266.70468347074
 20
-17467.81916940349
 30
0.0000000000000014
 11
19266.6058683979
 21
-17467.82841642556
 31
0.0000000000000014
  0
LINE
  5
3A9696
330
18
100
AcDbEntity
  8
姿図
100
AcDbLine
 10
19266.70468347074
 20
-17467.14253422257
 30
0.0000000000000014
 11
19266.6058683979
 21
-17467.15178124464
 31
0.0000000000000014
  0
LINE
  5
3A9697
330
18
100
AcDbEntity
  8
姿図
100
AcDbLine
 10
19266.70468347074
 20
-17466.46589904165
 30
0.0000000000000014
 11
19266.6058683979
 21
-17466.47514606372
 31
0.0000000000000014
  0
LINE
  5
3A9698
330
18
100
AcDbEntity
  8
姿図
100
AcDbLine
 10
19266.70468347074
 20
-17473.23225085087
 30
0.0000000000000014
 11
19266.6058683979
 21
-17473.24149787292
 31
0.0000000000000014
  0
LINE
  5
3A9699
330
18
100
AcDbEntity
  8
姿図
100
AcDbLine
 10
19266.70468347074
 20
-17472.55561566994
 30
0.0000000000000014
 11
19266.6058683979
 21
-17472.56486269201
 31
0.0000000000000014
  0
LINE
  5
3A969A
330
18
100
AcDbEntity
  8
姿図
100
AcDbLine
 10
19266.70468347074
 20
-17471.87898048902
 30
0.0000000000000014
 11
19266.6058683979
 21
-17471.88822751109
 31
0.0000000000000014
  0
LINE
  5
3A969B
330
18
100
AcDbEntity
  8
姿図
100
AcDbLine
 10
19266.70468347074
 20
-17471.2023453081
 30
0.0000000000000014
 11
19266.6058683979
 21
-17471.21159233016
 31
0.0000000000000014
  0
LINE
  5
3A969C
330
18
100
AcDbEntity
  8
姿図
100
AcDbLine
 10
19266.70468347074
 20
-17470.52571012717
 30
0.0000000000000014
 11
19266.6058683979
 21
-17470.53495714924
 31
0.0000000000000014
  0
LINE
  5
3A969D
330
18
100
AcDbEntity
  8
姿図
100
AcDbLine
 10
19266.70468347074
 20
-17469.84907494626
 30
0.0000000000000014
 11
19266.6058683979
 21
-17469.85832196832
 31
0.0000000000000014
  0
LINE
  5
3A969E
330
18
100
AcDbEntity
  8
姿図
100
AcDbLine
 10
19266.70468347074
 20
-17469.17243976534
 30
0.0000000000000014
 11
19266.6058683979
 21
-17469.1816867874
 31
0.0000000000000014
  0
ELLIPSE
  5
3A969F
330
18
100
AcDbEntity
  8
姿図
100
AcDbEllipse
 10
19266.6058683979
 20
-17473.30916139103
 30
0.0000000000000014
 11
0.04077444956302233
 21
0.05696057237043226
 31
-3.888579933804726E-18
210
3.231153159914451E-17
220
4.513815278383753E-17
230
1.0
 40
0.9083744652357192
 41
0.6674062465669471
 42
2.671810903782884
  0
ELLIPSE
  5
3A96A0
330
18
100
AcDbEntity
  8
姿図
100
AcDbEllipse
 10
19266.6058683979
 20
-17472.63252621011
 30
0.0000000000000014
 11
0.04077444956302233
 21
0.05696057237043226
 31
-3.888579933804726E-18
210
3.231153159914451E-17
220
4.513815278383753E-17
230
1.0
 40
0.9083744652357192
 41
0.6674062465665955
 42
2.671810903782768
  0
ELLIPSE
  5
3A96A1
330
18
100
AcDbEntity
  8
姿図
100
AcDbEllipse
 10
19266.6058683979
 20
-17471.95589102918
 30
0.0000000000000014
 11
0.04077444956302233
 21
0.05696057237043226
 31
-3.888579933804726E-18
210
3.231153159914451E-17
220
4.513815278383753E-17
230
1.0
 40
0.9083744652357192
 41
0.6674062465671594
 42
2.671810903782743
  0
ELLIPSE
  5
3A96A2
330
18
100
AcDbEntity
  8
姿図
100
AcDbEllipse
 10
19266.6058683979
 20
-17471.27925584826
 30
0.0000000000000014
 11
0.04077444956302233
 21
0.05696057237043226
 31
-3.888579933804726E-18
210
3.231153159914451E-17
220
4.513815278383753E-17
230
1.0
 40
0.9083744652357192
 41
0.6674062465669471
 42
2.67181090378281
  0
ELLIPSE
  5
3A96A3
330
18
100
AcDbEntity
  8
姿図
100
AcDbEllipse
 10
19266.6058683979
 20
-17470.60262066734
 30
0.0000000000000014
 11
0.04077444956302233
 21
0.05696057237043226
 31
-3.888579933804726E-18
210
3.231153159914451E-17
220
4.513815278383753E-17
230
1.0
 40
0.9083744652357192
 41
0.6674062465673514
 42
2.671810903782983
  0
ELLIPSE
  5
3A96A4
330
18
100
AcDbEntity
  8
姿図
100
AcDbEllipse
 10
19266.6058683979
 20
-17469.92598548641
 30
0.0000000000000014
 11
0.04077444956302233
 21
0.05696057237043226
 31
-3.888579933804726E-18
210
3.231153159914451E-17
220
4.513815278383753E-17
230
1.0
 40
0.9083744652357192
 41
0.6674062465669721
 42
2.671810903782982
  0
ELLIPSE
  5
3A96A5
330
18
100
AcDbEntity
  8
姿図
100
AcDbEllipse
 10
19266.6058683979
 20
-17469.24935030549
 30
0.0000000000000014
 11
0.04077444956302233
 21
0.05696057237043226
 31
-3.888579933804726E-18
210
3.231153159914451E-17
220
4.513815278383753E-17
230
1.0
 40
0.9083744652357192
 41
0.667406246567283
 42
2.671810903782915
  0
ELLIPSE
  5
3A96A6
330
18
100
AcDbEntity
  8
姿図
100
AcDbEllipse
 10
19266.6058683979
 20
-17468.57271512457
 30
0.0000000000000014
 11
0.04077444956302233
 21
0.05696057237043226
 31
-3.888579933804726E-18
210
3.231153159914451E-17
220
4.513815278383753E-17
230
1.0
 40
0.9083744652357192
 41
0.6674062465668796
 42
2.671810903782743
  0
ELLIPSE
  5
3A96A7
330
18
100
AcDbEntity
  8
姿図
100
AcDbEllipse
 10
19266.6058683979
 20
-17467.89607994365
 30
0.0000000000000014
 11
0.04077444956302233
 21
0.05696057237043226
 31
-3.888579933804726E-18
210
3.231153159914451E-17
220
4.513815278383753E-17
230
1.0
 40
0.9083744652357192
 41
0.6674062465670032
 42
2.671810903782915
  0
ELLIPSE
  5
3A96A8
330
18
100
AcDbEntity
  8
姿図
100
AcDbEllipse
 10
19266.6058683979
 20
-17467.21944476273
 30
0.0000000000000014
 11
0.04077444956302233
 21
0.05696057237043226
 31
-3.888579933804726E-18
210
3.231153159914451E-17
220
4.513815278383753E-17
230
1.0
 40
0.9083744652357192
 41
0.6674062465670032
 42
2.671810903782866
  0
ELLIPSE
  5
3A96A9
330
18
100
AcDbEntity
  8
姿図
100
AcDbEllipse
 10
19266.6058683979
 20
-17466.54280958181
 30
0.0000000000000014
 11
0.04077444956302233
 21
0.05696057237043226
 31
-3.888579933804726E-18
210
3.231153159914451E-17
220
4.513815278383753E-17
230
1.0
 40
0.9083744652357192
 41
0.6674062465668796
 42
2.671810903783108
  0
ELLIPSE
  5
3A96AA
330
18
100
AcDbEntity
  8
姿図
100
AcDbEllipse
 10
19247.28381309099
 20
-17473.1615231042
 30
0.0000000000000014
 11
-22.05759265623591
 21
-6.330367010184398E-13
 31
1.224442361737794E-15
210
5.551115123125783E-17
220
1.593129249997122E-30
230
1.0
 40
0.2588190451025202
 41
3.729026483883834
 42
3.761863642495804
  0
LINE
  5
3A96AB
330
18
100
AcDbEntity
  8
姿図
100
AcDbLine
 10
19266.54608820192
 20
-17473.34318425291
 30
0.0000000000000014
 11
19266.76446366672
 21
-17473.8071996518
 31
0.0000000000000014
  0
LINE
  5
3A96AC
330
18
100
AcDbEntity
  8
姿図
100
AcDbLine
 10
19266.54608820192
 20
-17467.93010280554
 30
0.0000000000000014
 11
19266.76446366672
 21
-17468.39411820443
 31
0.0000000000000014
  0
LINE
  5
3A96AD
330
18
100
AcDbEntity
  8
姿図
100
AcDbLine
 10
19266.54608820192
 20
-17468.60673798646
 30
0.0000000000000014
 11
19266.76446366672
 21
-17469.07075338535
 31
0.0000000000000014
  0
LINE
  5
3A96AE
330
18
100
AcDbEntity
  8
姿図
100
AcDbLine
 10
19266.54608820192
 20
-17467.25346762462
 30
0.0000000000000014
 11
19266.76446366672
 21
-17467.71748302351
 31
0.0000000000000014
  0
LINE
  5
3A96AF
330
18
100
AcDbEntity
  8
姿図
100
AcDbLine
 10
19266.54608820192
 20
-17466.5768324437
 30
0.0000000000000014
 11
19266.76446366672
 21
-17467.04084784259
 31
0.0000000000000014
  0
LINE
  5
3A96B0
330
18
100
AcDbEntity
  8
姿図
100
AcDbLine
 10
19266.54608820192
 20
-17471.98991389107
 30
0.0000000000000014
 11
19266.76446366672
 21
-17472.45392928996
 31
0.0000000000000014
  0
LINE
  5
3A96B1
330
18
100
AcDbEntity
  8
姿図
100
AcDbLine
 10
19266.54608820192
 20
-17472.66654907199
 30
0.0000000000000014
 11
19266.76446366672
 21
-17473.13056447089
 31
0.0000000000000014
  0
LINE
  5
3A96B2
330
18
100
AcDbEntity
  8
姿図
100
AcDbLine
 10
19266.54608820192
 20
-17469.96000834831
 30
0.0000000000000014
 11
19266.76446366672
 21
-17470.4240237472
 31
0.0000000000000014
  0
LINE
  5
3A96B3
330
18
100
AcDbEntity
  8
姿図
100
AcDbLine
 10
19266.54608820192
 20
-17471.31327871015
 30
0.0000000000000014
 11
19266.76446366672
 21
-17471.77729410904
 31
0.0000000000000014
  0
LINE
  5
3A96B4
330
18
100
AcDbEntity
  8
姿図
100
AcDbLine
 10
19266.54608820192
 20
-17470.63664352923
 30
0.0000000000000014
 11
19266.76446366672
 21
-17471.10065892812
 31
0.0000000000000014
  0
LINE
  5
3A96B5
330
18
100
AcDbEntity
  8
姿図
100
AcDbLine
 10
19266.54608820192
 20
-17469.28337316738
 30
0.0000000000000014
 11
19266.76446366672
 21
-17469.74738856627
 31
0.0000000000000014
  0
ELLIPSE
  5
3A96B6
330
18
100
AcDbEntity
  8
姿図
100
AcDbEllipse
 10
19266.70468347074
 20
-17473.16458733278
 30
0.0000000000000014
 11
0.04077444956302451
 21
0.05696057237042387
 31
3.888579933804393E-18
210
-3.231153159914851E-17
220
-4.513815278383422E-17
230
1.0
 40
0.9083744652357186
 41
3.808998900156581
 42
5.813403557372885
  0
ELLIPSE
  5
3A96B7
330
18
100
AcDbEntity
  8
姿図
100
AcDbEllipse
 10
19266.70468347074
 20
-17472.48795215186
 30
0.0000000000000014
 11
0.04077444956302451
 21
0.05696057237042387
 31
3.888579933804393E-18
210
-3.231153159914851E-17
220
-4.513815278383422E-17
230
1.0
 40
0.9083744652357186
 41
3.808998900156897
 42
5.813403557372916
  0
ELLIPSE
  5
3A96B8
330
18
100
AcDbEntity
  8
姿図
100
AcDbEllipse
 10
19266.70468347074
 20
-17471.81131697093
 30
0.0000000000000014
 11
0.04077444956302451
 21
0.05696057237042387
 31
3.888579933804393E-18
210
-3.231153159914851E-17
220
-4.513815278383422E-17
230
1.0
 40
0.9083744652357186
 41
3.808998900156773
 42
5.813403557372792
  0
ELLIPSE
  5
3A96B9
330
18
100
AcDbEntity
  8
姿図
100
AcDbEllipse
 10
19266.70468347074
 20
-17471.13468179001
 30
0.0000000000000014
 11
0.04077444956302585
 21
0.05696057237042578
 31
3.888579933804547E-18
210
-3.231153159914856E-17
220
-4.513815278383462E-17
230
1.0
 40
0.9083744652357183
 41
3.808998900156934
 42
5.813403557373269
  0
ELLIPSE
  5
3A96BA
330
18
100
AcDbEntity
  8
姿図
100
AcDbEllipse
 10
19266.70468347074
 20
-17470.45804660909
 30
0.0000000000000014
 11
0.04077444956302585
 21
0.05696057237042578
 31
3.888579933804547E-18
210
-3.231153159914856E-17
220
-4.513815278383462E-17
230
1.0
 40
0.9083744652357183
 41
3.808998900156452
 42
5.81340355737276
  0
ELLIPSE
  5
3A96BB
330
18
100
AcDbEntity
  8
姿図
100
AcDbEllipse
 10
19266.70468347074
 20
-17469.78141142816
 30
0.0000000000000014
 11
0.04077444956302585
 21
0.05696057237042578
 31
3.888579933804547E-18
210
-3.231153159914856E-17
220
-4.513815278383462E-17
230
1.0
 40
0.9083744652357183
 41
3.808998900156965
 42
5.813403557372935
  0
ELLIPSE
  5
3A96BC
330
18
100
AcDbEntity
  8
姿図
100
AcDbEllipse
 10
19266.70468347074
 20
-17469.10477624724
 30
0.0000000000000014
 11
0.04077444956302585
 21
0.05696057237042578
 31
3.888579933804547E-18
210
-3.231153159914856E-17
220
-4.513815278383462E-17
230
1.0
 40
0.9083744652357183
 41
3.808998900157052
 42
5.813403557372792
  0
ELLIPSE
  5
3A96BD
330
18
100
AcDbEntity
  8
姿図
100
AcDbEllipse
 10
19266.70468347074
 20
-17468.42814106632
 30
0.0000000000000014
 11
0.04077444956302585
 21
0.05696057237042578
 31
3.888579933804547E-18
210
-3.231153159914856E-17
220
-4.513815278383462E-17
230
1.0
 40
0.9083744652357183
 41
3.808998900156897
 42
5.813403557372867
  0
ELLIPSE
  5
3A96BE
330
18
100
AcDbEntity
  8
姿図
100
AcDbEllipse
 10
19266.70468347074
 20
-17467.7515058854
 30
0.0000000000000014
 11
0.04077444956302585
 21
0.05696057237042578
 31
3.888579933804547E-18
210
-3.231153159914856E-17
220
-4.513815278383462E-17
230
1.0
 40
0.9083744652357183
 41
3.808998900157176
 42
5.813403557372916
  0
ELLIPSE
  5
3A96BF
330
18
100
AcDbEntity
  8
姿図
100
AcDbEllipse
 10
19266.70468347074
 20
-17467.07487070448
 30
0.0000000000000014
 11
0.04077444956302585
 21
0.05696057237042578
 31
3.888579933804547E-18
210
-3.231153159914856E-17
220
-4.513815278383462E-17
230
1.0
 40
0.9083744652357183
 41
3.808998900156742
 42
5.813403557372712
  0
ELLIPSE
  5
3A96C0
330
18
100
AcDbEntity
  8
姿図
100
AcDbEllipse
 10
19266.70468347074
 20
-17466.39823552356
 30
0.0000000000000014
 11
0.04077444956302585
 21
0.05696057237042578
 31
3.888579933804547E-18
210
-3.231153159914856E-17
220
-4.513815278383462E-17
230
1.0
 40
0.9083744652357183
 41
3.808998900156483
 42
5.813403557372792
  0
ELLIPSE
  5
3A96C1
330
18
100
AcDbEntity
  8
姿図
100
AcDbEllipse
 10
19267.44305696487
 20
-17466.25015494703
 30
0.0000000000000014
 11
0.04077444956302054
 21
0.05696057237042965
 31
0.0
210
0.0
220
0.0
230
1.0
 40
0.9083744652357184
 41
3.808998900156913
 42
5.813403557372654
  0
ELLIPSE
  5
3A96C2
330
18
100
AcDbEntity
  8
姿図
100
AcDbEllipse
 10
19269.46408837519
 20
-17465.88228668157
 30
0.0000000000000014
 11
0.04077444956303928
 21
0.05696057237044466
 31
3.888579933805833E-18
210
-3.231153159914874E-17
220
-4.513815278383450E-17
230
1.0
 40
0.9083744652357183
 41
0.6674062465672639
 42
2.671810903783432
  0
LINE
  5
3A96C3
330
18
100
AcDbEntity
  8
姿図
100
AcDbLine
 10
19268.82452995389
 20
-17465.95345671794
 30
0.0000000000000014
 11
19268.72571488106
 21
-17465.96270374001
 31
0.0000000000000014
  0
ELLIPSE
  5
3A96C4
330
18
100
AcDbEntity
  8
姿図
100
AcDbEllipse
 10
19268.72571488105
 20
-17466.0303672581
 30
0.0000000000000014
 11
0.04077444956303432
 21
0.05696057237044818
 31
3.888579933805835E-18
210
-3.231153159914478E-17
220
-4.513815278383739E-17
230
1.0
 40
0.9083744652357181
 41
0.6674062465670622
 42
2.671810903783181
  0
ELLIPSE
  5
3A96C5
330
18
100
AcDbEntity
  8
姿図
100
AcDbEllipse
 10
19268.82452995389
 20
-17465.88579319986
 30
0.0000000000000014
 11
0.0407744495630275
 21
0.05696057237042731
 31
3.888579933804645E-18
210
-3.231153159914882E-17
220
-4.513815278383401E-17
230
1.0
 40
0.9083744652357181
 41
3.80899890015716
 42
5.813403557372792
  0
LINE
  5
3A96C6
330
18
100
AcDbEntity
  8
姿図
100
AcDbLine
 10
19269.46408837519
 20
-17465.81462316348
 30
0.0000000000000014
 11
19269.56290344803
 21
-17465.80537614142
 31
0.0000000000000014
  0
LINE
  5
3A96C7
330
18
100
AcDbEntity
  8
姿図
100
AcDbLine
 10
19266.70468347074
 20
-17465.78926386073
 30
0.0000000000000014
 11
19266.6058683979
 21
-17465.7985108828
 31
0.0000000000000014
  0
ELLIPSE
  5
3A96C8
330
18
100
AcDbEntity
  8
姿図
100
AcDbEllipse
 10
19266.6058683979
 20
-17465.86617440088
 30
0.0000000000000014
 11
0.04077444956302233
 21
0.05696057237043226
 31
-3.888579933804726E-18
210
3.231153159914451E-17
220
4.513815278383753E-17
230
1.0
 40
0.9083744652357192
 41
0.6674062465669471
 42
2.671810903782859
  0
ELLIPSE
  5
3A96C9
330
18
100
AcDbEntity
  8
姿図
100
AcDbEllipse
 10
19261.16734959271
 20
-17473.80323530952
 30
0.0000000000000014
 11
-0.1336773392768379
 21
0.4352628646698797
 31
2.527576956973219E-17
210
1.629723296148898E-17
220
-5.306494237082085E-17
230
1.0
 40
0.738618946039477
 41
4.318335530375434
 42
5.623669093019634
  0
ELLIPSE
  5
3A96CA
330
18
100
AcDbEntity
  8
姿図
100
AcDbEllipse
 10
19261.16734959271
 20
-17473.80323530952
 30
0.0000000000000014
 11
-0.1336773392768379
 21
0.4352628646698797
 31
2.527576956973219E-17
210
1.629723296148898E-17
220
-5.306494237082085E-17
230
1.0
 40
0.738618946039477
 41
3.822881783457571
 42
4.318335530375473
  0
LINE
  5
3A96CB
330
18
100
AcDbEntity
  8
姿図
100
AcDbLine
 10
19267.7333009038
 20
-17474.59188617457
 30
0.0000000000000014
 11
19267.80389002735
 21
-17463.95139818651
 31
0.0000000000000014
  0
LINE
  5
3A96CC
330
18
100
AcDbEntity
  8
姿図
100
AcDbLine
 10
19265.63532395662
 20
-17469.7778451958
 30
0.0000000000000014
 11
19265.68404354419
 21
-17462.43393496745
 31
0.0000000000000014
  0
LINE
  5
3A96CD
330
18
100
AcDbEntity
  8
姿図
100
AcDbLine
 10
19267.50283716085
 20
-17466.21613208514
 30
0.0000000000000014
 11
19267.28446169606
 21
-17465.75211668625
 31
0.0000000000000014
  0
ELLIPSE
  5
3A96CE
330
18
100
AcDbEntity
  8
姿図
100
AcDbEllipse
 10
19269.56290344803
 20
-17465.73771262332
 30
0.0000000000000014
 11
0.04077444956302177
 21
0.05696057237043142
 31
-7.777159867609348E-18
210
6.462306319828893E-17
220
9.027630556767526E-17
230
1.0
 40
0.9083744652357181
 41
3.808998900156461
 42
5.813403557372752
  0
LINE
  5
3A96CF
330
18
100
AcDbEntity
  8
姿図
100
AcDbLine
 10
19268.66593468508
 20
-17465.38775493907
 30
0.0000000000000014
 11
19268.88431014988
 21
-17465.85177033797
 31
0.0000000000000014
  0
ELLIPSE
  5
3A96D0
330
18
100
AcDbEntity
  8
姿図
100
AcDbEllipse
 10
19266.70468347074
 20
-17465.72160034263
 30
0.0000000000000014
 11
0.04077444956302585
 21
0.05696057237042578
 31
3.888579933804547E-18
210
-3.231153159914856E-17
220
-4.513815278383462E-17
230
1.0
 40
0.9083744652357183
 41
3.808998900156551
 42
5.81340355737281
  0
LINE
  5
3A96D1
330
18
100
AcDbEntity
  8
姿図
100
AcDbLine
 10
19237.94247035339
 20
-17465.13194754688
 30
0.0000000000000014
 11
19238.1280516804
 21
-17465.26479341101
 31
0.0000000000000014
  0
ELLIPSE
  5
3A96D2
330
18
100
AcDbEntity
  8
姿図
100
AcDbEllipse
 10
19247.28381309099
 20
-17470.28582358528
 30
0.0000000000000014
 11
-21.99523039592227
 21
-4.212382935016680E-14
 31
2.441961121748800E-15
210
1.110223024625157E-16
220
2.126226658603508E-31
230
1.0
 40
0.2588190451025204
 41
5.151017883384803
 42
5.195965363531555
  0
LINE
  5
3A96D3
330
18
100
AcDbEntity
  8
姿図
100
AcDbLine
 10
19243.04401095394
 20
-17464.8778248202
 30
0.0000000000000014
 11
19242.90610840411
 21
-17464.77910915901
 31
0.0000000000000014
  0
ELLIPSE
  5
3A96D4
330
18
100
AcDbEntity
  8
姿図
100
AcDbEllipse
 10
19247.28381309099
 20
-17470.28582358528
 30
0.0000000000000014
 11
-21.99523039592227
 21
-4.212382935016680E-14
 31
2.441961121748800E-15
210
1.110223024625157E-16
220
2.126226658603508E-31
230
1.0
 40
0.2588190451025204
 41
4.922687502237706
 42
4.96763498238446
  0
ELLIPSE
  5
3A96D5
330
18
100
AcDbEntity
  8
姿図
100
AcDbEllipse
 10
19242.84226139816
 20
-17465.16414718221
 30
0.0000000000000014
 11
-0.1907994478464239
 21
-0.2937917253303977
 31
-5.833855071956941E-17
210
-9.070358557838993E-17
220
-1.396647799640267E-16
230
1.0
 40
0.9139391364489758
 41
3.038071040901397
 42
3.100190541308247
  0
LINE
  5
3A96D6
330
18
100
AcDbEntity
  8
姿図
100
AcDbLine
 10
19226.17710080635
 20
-17465.67126096423
 30
0.0000000000000014
 11
19225.33431799466
 21
-17465.75012779125
 31
0.0000000000000014
  0
ELLIPSE
  5
3A96D7
330
18
100
AcDbEntity
  8
姿図
100
AcDbEllipse
 10
19247.28381309099
 20
-17472.65404671851
 30
0.0000000000000014
 11
-22.04658755147467
 21
-6.321089468706394E-13
 31
1.223831455703077E-15
210
5.551115123125783E-17
220
1.591588506041613E-30
230
1.0
 40
0.2588190451025204
 41
4.96784917457373
 42
5.150803691193217
  0
ELLIPSE
  5
3A96D8
330
18
100
AcDbEntity
  8
姿図
100
AcDbEllipse
 10
19239.97183070929
 20
-17472.83294521403
 30
0.0000000000000014
 11
0.2480392822003031
 21
0.3819292429295491
 31
5.056007729029348E-17
210
-6.046905705224811E-17
220
-9.310985330935856E-17
230
1.0
 40
0.9139391364489745
 41
0.6260041342852541
 42
2.752838026093648
  0
ELLIPSE
  5
3A96D9
330
18
100
AcDbEntity
  8
姿図
100
AcDbEllipse
 10
19247.28381309099
 20
-17471.46993515189
 30
0.0000000000000014
 11
-20.13949821201701
 21
-3.834625887223409E-13
 31
-1.117966730968923E-15
210
-5.551115123125783E-17
220
-1.056950353479716E-30
230
1.0
 40
0.258819045102515
 41
4.992404269734823
 42
5.183640316118966
  0
ELLIPSE
  5
3A96DA
330
18
100
AcDbEntity
  8
姿図
100
AcDbEllipse
 10
19239.97183070929
 20
-17472.83294521403
 30
0.0000000000000014
 11
0.2480392822003031
 21
0.3819292429295491
 31
5.056007729029348E-17
210
-6.046905705224811E-17
220
-9.310985330935856E-17
230
1.0
 40
0.9139391364489745
 41
0.2886548266583326
 42
0.6260041342852678
  0
ELLIPSE
  5
3A96DB
330
18
100
AcDbEntity
  8
姿図
100
AcDbEllipse
 10
19247.28381309099
 20
-17470.89479524811
 30
0.0000000000000014
 11
-20.12390636427689
 21
-3.814900630616825E-13
 31
-1.117101209551046E-15
210
-5.551115123125783E-17
220
-1.052328121613186E-30
230
1.0
 40
0.258819045102515
 41
4.992407196796089
 42
5.184287718027582
  0
LINE
  5
3A96DC
330
18
100
AcDbEntity
  8
姿図
100
AcDbLine
 10
19226.02536266051
 20
-17466.14515722011
 30
0.0000000000000014
 11
19226.08242663848
 21
-17474.73620709779
 31
0.0000000000000014
  0
ELLIPSE
  5
3A96DD
330
18
100
AcDbEntity
  8
姿図
100
AcDbEllipse
 10
19226.54936965634
 20
-17466.52026048774
 30
0.0000000000000014
 11
0.0630925953705448
 21
-0.6273025252676169
 31
0.0
210
0.0
220
0.0
230
1.0
 40
0.3266547503873701
 41
1.290961286430747
 42
2.861757613225721
  0
LINE
  5
3A96DE
330
18
100
AcDbEntity
  8
姿図
100
AcDbLine
 10
19225.17387283579
 20
-17466.36517940205
 30
0.0000000000000014
 11
19225.17480443509
 21
-17466.22475166307
 31
0.0000000000000014
  0
LINE
  5
3A96DF
330
18
100
AcDbEntity
  8
姿図
100
AcDbLine
 10
19227.06478902113
 20
-17473.82501308462
 30
0.0000000000000014
 11
19227.28316448593
 21
-17473.32012694235
 31
0.0000000000000014
  0
LINE
  5
3A96E0
330
18
100
AcDbEntity
  8
姿図
100
AcDbLine
 10
19227.22338428995
 20
-17473.90626409292
 30
0.0000000000000014
 11
19227.12456921711
 21
-17473.91551111498
 31
0.0000000000000014
  0
LINE
  5
3A96E1
330
18
100
AcDbEntity
  8
姿図
100
AcDbLine
 10
19227.08379476755
 20
-17473.90480816926
 30
0.0000000000000014
 11
19227.18728473759
 21
-17473.97889005411
 31
0.0000000000000014
  0
LINE
  5
3A96E2
330
18
100
AcDbEntity
  8
姿図
100
AcDbLine
 10
19227.06478902113
 20
-17468.41193163725
 30
0.0000000000000014
 11
19227.29371931895
 21
-17467.88264262111
 31
0.0000000000000014
  0
LINE
  5
3A96E3
330
18
100
AcDbEntity
  8
姿図
100
AcDbLine
 10
19227.22338428995
 20
-17468.49318264554
 30
0.0000000000000014
 11
19227.12456921711
 21
-17468.50242966761
 31
0.0000000000000014
  0
LINE
  5
3A96E4
330
18
100
AcDbEntity
  8
姿図
100
AcDbLine
 10
19227.06478902113
 20
-17469.08856681817
 30
0.0000000000000014
 11
19227.28316448593
 21
-17468.58368067591
 31
0.0000000000000014
  0
LINE
  5
3A96E5
330
18
100
AcDbEntity
  8
姿図
100
AcDbLine
 10
19227.08379476755
 20
-17468.49172672189
 30
0.0000000000000014
 11
19227.26639938465
 21
-17468.62244174879
 31
0.0000000000000014
  0
LINE
  5
3A96E6
330
18
100
AcDbEntity
  8
姿図
100
AcDbLine
 10
19227.06478902113
 20
-17472.47174272278
 30
0.0000000000000014
 11
19227.25843085915
 21
-17472.02404095982
 31
0.0000000000000014
  0
LINE
  5
3A96E7
330
18
100
AcDbEntity
  8
姿図
100
AcDbLine
 10
19227.22338428995
 20
-17472.55299373107
 30
0.0000000000000014
 11
19227.12456921711
 21
-17472.56224075314
 31
0.0000000000000014
  0
LINE
  5
3A96E8
330
18
100
AcDbEntity
  8
姿図
100
AcDbLine
 10
19227.06478902113
 20
-17473.1483779037
 30
0.0000000000000014
 11
19227.28316448593
 21
-17472.64349176143
 31
0.0000000000000014
  0
LINE
  5
3A96E9
330
18
100
AcDbEntity
  8
姿図
100
AcDbLine
 10
19227.22338428995
 20
-17473.22962891199
 30
0.0000000000000014
 11
19227.12456921711
 21
-17473.23887593406
 31
0.0000000000000014
  0
LINE
  5
3A96EA
330
18
100
AcDbEntity
  8
姿図
100
AcDbLine
 10
19227.08379476755
 20
-17472.55153780742
 30
0.0000000000000014
 11
19227.26639938465
 21
-17472.68225283432
 31
0.0000000000000014
  0
LINE
  5
3A96EB
330
18
100
AcDbEntity
  8
姿図
100
AcDbLine
 10
19227.08379476755
 20
-17473.22817298834
 30
0.0000000000000014
 11
19227.26639938465
 21
-17473.35888801524
 31
0.0000000000000014
  0
LINE
  5
3A96EC
330
18
100
AcDbEntity
  8
姿図
100
AcDbLine
 10
19227.06478902113
 20
-17470.44183718001
 30
0.0000000000000014
 11
19227.28316448593
 21
-17469.93695103775
 31
0.0000000000000014
  0
LINE
  5
3A96ED
330
18
100
AcDbEntity
  8
姿図
100
AcDbLine
 10
19227.2108964183
 20
-17470.52425679165
 30
0.0000000000000014
 11
19227.12456921711
 21
-17470.53233521037
 31
0.0000000000000014
  0
LINE
  5
3A96EE
330
18
100
AcDbEntity
  8
姿図
100
AcDbLine
 10
19227.06478902113
 20
-17471.11847236094
 30
0.0000000000000014
 11
19227.15926935048
 21
-17470.90003294492
 31
0.0000000000000014
  0
LINE
  5
3A96EF
330
18
100
AcDbEntity
  8
姿図
100
AcDbLine
 10
19227.20611648465
 20
-17471.87797445522
 30
0.0000000000000014
 11
19227.12456921711
 21
-17471.88560557221
 31
0.0000000000000014
  0
LINE
  5
3A96F0
330
18
100
AcDbEntity
  8
姿図
100
AcDbLine
 10
19227.16040209508
 20
-17470.85825017511
 30
0.0000000000000014
 11
19227.14481063115
 21
-17471.43336176405
 31
0.0000000000000014
  0
LINE
  5
3A96F1
330
18
100
AcDbEntity
  8
姿図
100
AcDbLine
 10
19227.08379476755
 20
-17470.52163226465
 30
0.0000000000000014
 11
19227.1923160412
 21
-17470.59931573964
 31
0.0000000000000014
  0
LINE
  5
3A96F2
330
18
100
AcDbEntity
  8
姿図
100
AcDbLine
 10
19227.08379476755
 20
-17471.8749026265
 30
0.0000000000000014
 11
19227.24489232009
 21
-17471.99022211429
 31
0.0000000000000014
  0
LINE
  5
3A96F3
330
18
100
AcDbEntity
  8
姿図
100
AcDbLine
 10
19227.06478902113
 20
-17469.76520199909
 30
0.0000000000000014
 11
19227.28316448593
 21
-17469.26031585683
 31
0.0000000000000014
  0
LINE
  5
3A96F4
330
18
100
AcDbEntity
  8
姿図
100
AcDbLine
 10
19227.22338428995
 20
-17469.84645300739
 30
0.0000000000000014
 11
19227.12456921711
 21
-17469.85570002946
 31
0.0000000000000014
  0
LINE
  5
3A96F5
330
18
100
AcDbEntity
  8
姿図
100
AcDbLine
 10
19227.08379476755
 20
-17469.84499708373
 30
0.0000000000000014
 11
19227.26639938465
 21
-17469.97571211063
 31
0.0000000000000014
  0
LINE
  5
3A96F6
330
18
100
AcDbEntity
  8
姿図
100
AcDbLine
 10
19227.22338428995
 20
-17469.16981782646
 30
0.0000000000000014
 11
19227.12456921711
 21
-17469.17906484853
 31
0.0000000000000014
  0
LINE
  5
3A96F7
330
18
100
AcDbEntity
  8
姿図
100
AcDbLine
 10
19227.08379476755
 20
-17469.16836190281
 30
0.0000000000000014
 11
19227.26639938465
 21
-17469.29907692971
 31
0.0000000000000014
  0
LINE
  5
3A96F8
330
18
100
AcDbEntity
  8
姿図
100
AcDbLine
 10
19226.81373404269
 20
-17474.20095344512
 30
0.0000000000000014
 11
19226.76373615464
 21
-17466.6737118245
 31
0.0000000000000014
  0
ELLIPSE
  5
3A96F9
330
18
100
AcDbEntity
  8
姿図
100
AcDbEllipse
 10
19247.60384879805
 20
-17460.73556094733
 30
0.0000000000000014
 11
12.0971905597633
 21
34.2056226089775
 31
4.028085341671579E-15
210
-3.701743464227722E-17
220
-1.046692943349817E-16
230
1.0
 40
0.5306015190202692
 41
2.132850903174913
 42
2.178852095897546
  0
LINE
  5
3A96FA
330
18
100
AcDbEntity
  8
姿図
100
AcDbLine
 10
19225.79948021265
 20
-17473.53328665052
 30
0.0000000000000014
 11
19225.28594237157
 21
-17473.58134304123
 31
0.0000000000000014
  0
LINE
  5
3A96FB
330
18
100
AcDbEntity
  8
姿図
100
AcDbLine
 10
19224.94494253798
 20
-17473.6608202274
 30
0.0000000000000014
 11
19225.16331800278
 21
-17473.15593408514
 31
0.0000000000000014
  0
ELLIPSE
  5
3A96FC
330
18
100
AcDbEntity
  8
姿図
100
AcDbEllipse
 10
19247.28381309099
 20
-17473.1615231042
 30
0.0000000000000014
 11
-21.53229570541463
 21
-4.362781209896944E-14
 31
-1.195282523259435E-15
210
-5.551115123125783E-17
220
-1.124743087522147E-31
230
1.0
 40
0.2588190451025201
 41
0.0667579305343701
 42
0.1004537543484347
  0
LINE
  5
3A96FD
330
18
100
AcDbEntity
  8
姿図
100
AcDbLine
 10
19224.9639482844
 20
-17474.41725049296
 30
0.0000000000000014
 11
19225.1465529015
 21
-17474.54796551987
 31
0.0000000000000014
  0
LINE
  5
3A96FE
330
18
100
AcDbEntity
  8
姿図
100
AcDbLine
 10
19224.94494253798
 20
-17475.01409058924
 30
0.0000000000000014
 11
19225.16331800278
 21
-17474.50920444698
 31
0.0000000000000014
  0
LINE
  5
3A96FF
330
18
100
AcDbEntity
  8
姿図
100
AcDbLine
 10
19225.1035378068
 20
-17475.09534159754
 30
0.0000000000000014
 11
19225.00472273396
 21
-17475.1045886196
 31
0.0000000000000014
  0
LINE
  5
3A9700
330
18
100
AcDbEntity
  8
姿図
100
AcDbLine
 10
19225.1035378068
 20
-17473.74207123569
 30
0.0000000000000014
 11
19225.00472273396
 21
-17473.75131825776
 31
0.0000000000000014
  0
LINE
  5
3A9701
330
18
100
AcDbEntity
  8
姿図
100
AcDbLine
 10
19224.94494253798
 20
-17474.33745540832
 30
0.0000000000000014
 11
19225.16331800278
 21
-17473.83256926606
 31
0.0000000000000014
  0
LINE
  5
3A9702
330
18
100
AcDbEntity
  8
姿図
100
AcDbLine
 10
19225.1035378068
 20
-17474.41870641662
 30
0.0000000000000014
 11
19225.00472273396
 21
-17474.42795343869
 31
0.0000000000000014
  0
LINE
  5
3A9703
330
18
100
AcDbEntity
  8
姿図
100
AcDbLine
 10
19224.9639482844
 20
-17473.74061531204
 30
0.0000000000000014
 11
19225.1465529015
 21
-17473.87133033895
 31
0.0000000000000014
  0
LINE
  5
3A9704
330
18
100
AcDbEntity
  8
姿図
100
AcDbLine
 10
19224.94494253798
 20
-17475.69072577016
 30
0.0000000000000014
 11
19225.16331800278
 21
-17475.1858396279
 31
0.0000000000000014
  0
LINE
  5
3A9705
330
18
100
AcDbEntity
  8
姿図
100
AcDbLine
 10
19225.1035378068
 20
-17475.77197677846
 30
0.0000000000000014
 11
19225.00472273396
 21
-17475.78122380052
 31
0.0000000000000014
  0
LINE
  5
3A9706
330
18
100
AcDbEntity
  8
姿図
100
AcDbLine
 10
19224.9639482844
 20
-17475.7705208548
 30
0.0000000000000014
 11
19225.1465529015
 21
-17475.90123588172
 31
0.0000000000000014
  0
LINE
  5
3A9707
330
18
100
AcDbEntity
  8
姿図
100
AcDbLine
 10
19224.9639482844
 20
-17475.09388567388
 30
0.0000000000000014
 11
19225.1465529015
 21
-17475.22460070079
 31
0.0000000000000014
  0
LINE
  5
3A9708
330
18
100
AcDbEntity
  8
姿図
100
AcDbLine
 10
19225.1035378068
 20
-17476.44861195938
 30
0.0000000000000014
 11
19225.00472273396
 21
-17476.45785898145
 31
0.0000000000000014
  0
LINE
  5
3A9709
330
18
100
AcDbEntity
  8
姿図
100
AcDbLine
 10
19224.94494253798
 20
-17476.36736095108
 30
0.0000000000000014
 11
19225.16331800278
 21
-17475.86247480883
 31
0.0000000000000014
  0
ELLIPSE
  5
3A970A
330
18
100
AcDbEntity
  8
姿図
100
AcDbEllipse
 10
19225.00472273395
 20
-17473.68365473967
 30
0.0000000000000014
 11
0.04077444956302648
 21
0.05696057237042533
 31
0.0
210
0.0
220
0.0
230
1.0
 40
0.9083744652357201
 41
1.804594242940603
 42
3.808998900156939
  0
ELLIPSE
  5
3A970B
330
18
100
AcDbEntity
  8
姿図
100
AcDbEllipse
 10
19225.00472273395
 20
-17474.36028992059
 30
0.0000000000000014
 11
0.04077444956302648
 21
0.05696057237042533
 31
0.0
210
0.0
220
0.0
230
1.0
 40
0.9083744652357201
 41
1.804594242940676
 42
3.80899890015725
  0
ELLIPSE
  5
3A970C
330
18
100
AcDbEntity
  8
姿図
100
AcDbEllipse
 10
19225.00472273395
 20
-17475.03692510152
 30
0.0000000000000014
 11
0.04077444956302648
 21
0.05696057237042533
 31
0.0
210
0.0
220
0.0
230
1.0
 40
0.9083744652357201
 41
1.804594242940915
 42
3.808998900157249
  0
ELLIPSE
  5
3A970D
330
18
100
AcDbEntity
  8
姿図
100
AcDbEllipse
 10
19225.00472273395
 20
-17475.71356028244
 30
0.0000000000000014
 11
0.04077444956302517
 21
0.05696057237042348
 31
0.0
210
0.0
220
0.0
230
1.0
 40
0.9083744652357209
 41
1.804594242940485
 42
3.808998900156777
  0
ELLIPSE
  5
3A970E
330
18
100
AcDbEntity
  8
姿図
100
AcDbEllipse
 10
19225.00472273395
 20
-17476.39019546336
 30
0.0000000000000014
 11
0.04077444956302517
 21
0.05696057237042348
 31
0.0
210
0.0
220
0.0
230
1.0
 40
0.9083744652357209
 41
1.804594242940884
 42
3.808998900157218
  0
ELLIPSE
  5
3A970F
330
18
100
AcDbEntity
  8
姿図
100
AcDbEllipse
 10
19227.12456921711
 20
-17473.84784759689
 30
0.0000000000000014
 11
0.04077444956302618
 21
0.05696057237042552
 31
-3.888579933804548E-18
210
3.231153159914902E-17
220
4.513815278383435E-17
230
1.0
 40
0.9083744652357175
 41
1.804594242940764
 42
3.808998900157057
  0
ELLIPSE
  5
3A9710
330
18
100
AcDbEntity
  8
姿図
100
AcDbEllipse
 10
19225.1035378068
 20
-17474.48636993471
 30
0.0000000000000014
 11
0.04077444956302303
 21
0.05696057237043183
 31
3.888579933804730E-18
210
-3.231153159914517E-17
220
-4.513815278383706E-17
230
1.0
 40
0.9083744652357212
 41
4.946186896530127
 42
6.950591553746752
  0
ELLIPSE
  5
3A9711
330
18
100
AcDbEntity
  8
姿図
100
AcDbEllipse
 10
19225.1035378068
 20
-17475.16300511563
 30
0.0000000000000014
 11
0.04077444956302303
 21
0.05696057237043183
 31
3.888579933804730E-18
210
-3.231153159914517E-17
220
-4.513815278383706E-17
230
1.0
 40
0.9083744652357212
 41
4.946186896530643
 42
6.950591553746944
  0
ELLIPSE
  5
3A9712
330
18
100
AcDbEntity
  8
姿図
100
AcDbEllipse
 10
19225.1035378068
 20
-17475.83964029656
 30
0.0000000000000014
 11
0.04077444956302303
 21
0.05696057237043183
 31
3.888579933804730E-18
210
-3.231153159914517E-17
220
-4.513815278383706E-17
230
1.0
 40
0.9083744652357212
 41
4.946186896530488
 42
6.950591553746789
  0
ELLIPSE
  5
3A9713
330
18
100
AcDbEntity
  8
姿図
100
AcDbEllipse
 10
19225.1035378068
 20
-17473.80973475379
 30
0.0000000000000014
 11
0.04077444956302303
 21
0.05696057237043183
 31
3.888579933804730E-18
210
-3.231153159914517E-17
220
-4.513815278383706E-17
230
1.0
 40
0.9083744652357212
 41
4.946186896530451
 42
6.950591553746752
  0
ELLIPSE
  5
3A9714
330
18
100
AcDbEntity
  8
姿図
100
AcDbEllipse
 10
19225.1035378068
 20
-17476.51627547748
 30
0.0000000000000014
 11
0.04077444956302303
 21
0.05696057237043183
 31
3.888579933804730E-18
210
-3.231153159914517E-17
220
-4.513815278383706E-17
230
1.0
 40
0.9083744652357212
 41
6.074134062573671
 42
6.95059155374682
  0
ELLIPSE
  5
3A9715
330
18
100
AcDbEntity
  8
姿図
100
AcDbEllipse
 10
19246.98805624944
 20
-17463.61850309778
 30
0.0000000000000014
 11
12.11309932373158
 21
34.24547220764034
 31
0.0
210
0.0
220
0.0
230
1.0
 40
0.5306663220532382
 41
2.04631906000344
 42
2.129635835717337
  0
LINE
  5
3A9716
330
18
100
AcDbEntity
  8
姿図
100
AcDbLine
 10
19224.9639482844
 20
-17468.32753386467
 30
0.0000000000000014
 11
19225.1465529015
 21
-17468.45824889157
 31
0.0000000000000014
  0
LINE
  5
3A9717
330
18
100
AcDbEntity
  8
姿図
100
AcDbLine
 10
19224.94494253798
 20
-17468.92437396095
 30
0.0000000000000014
 11
19225.16331800278
 21
-17468.41948781869
 31
0.0000000000000014
  0
LINE
  5
3A9718
330
18
100
AcDbEntity
  8
姿図
100
AcDbLine
 10
19225.1035378068
 20
-17469.00562496925
 30
0.0000000000000014
 11
19225.00472273396
 21
-17469.01487199131
 31
0.0000000000000014
  0
LINE
  5
3A9719
330
18
100
AcDbEntity
  8
姿図
100
AcDbLine
 10
19224.9639482844
 20
-17469.00416904559
 30
0.0000000000000014
 11
19225.1465529015
 21
-17469.1348840725
 31
0.0000000000000014
  0
LINE
  5
3A971A
330
18
100
AcDbEntity
  8
姿図
100
AcDbLine
 10
19224.94494253798
 20
-17466.89446841819
 30
0.0000000000000014
 11
19225.17387283579
 21
-17466.36517940205
 31
0.0000000000000014
  0
LINE
  5
3A971B
330
18
100
AcDbEntity
  8
姿図
100
AcDbLine
 10
19225.1035378068
 20
-17466.97571942648
 30
0.0000000000000014
 11
19225.00472273396
 21
-17466.98496644855
 31
0.0000000000000014
  0
LINE
  5
3A971C
330
18
100
AcDbEntity
  8
姿図
100
AcDbLine
 10
19224.94494253798
 20
-17467.57110359911
 30
0.0000000000000014
 11
19225.16331800278
 21
-17467.06621745685
 31
0.0000000000000014
  0
LINE
  5
3A971D
330
18
100
AcDbEntity
  8
姿図
100
AcDbLine
 10
19225.1035378068
 20
-17467.65235460741
 30
0.0000000000000014
 11
19225.00472273396
 21
-17467.66160162947
 31
0.0000000000000014
  0
LINE
  5
3A971E
330
18
100
AcDbEntity
  8
姿図
100
AcDbLine
 10
19224.94494253798
 20
-17468.24773878003
 30
0.0000000000000014
 11
19225.16331800278
 21
-17467.74285263777
 31
0.0000000000000014
  0
LINE
  5
3A971F
330
18
100
AcDbEntity
  8
姿図
100
AcDbLine
 10
19225.1035378068
 20
-17468.32898978833
 30
0.0000000000000014
 11
19225.00472273396
 21
-17468.3382368104
 31
0.0000000000000014
  0
LINE
  5
3A9720
330
18
100
AcDbEntity
  8
姿図
100
AcDbLine
 10
19224.9639482844
 20
-17466.97426350283
 30
0.0000000000000014
 11
19225.1465529015
 21
-17467.10497852973
 31
0.0000000000000014
  0
LINE
  5
3A9721
330
18
100
AcDbEntity
  8
姿図
100
AcDbLine
 10
19224.9639482844
 20
-17467.65089868375
 30
0.0000000000000014
 11
19225.1465529015
 21
-17467.78161371065
 31
0.0000000000000014
  0
LINE
  5
3A9722
330
18
100
AcDbEntity
  8
姿図
100
AcDbLine
 10
19224.9639482844
 20
-17472.3873449502
 30
0.0000000000000014
 11
19225.1465529015
 21
-17472.51805997711
 31
0.0000000000000014
  0
LINE
  5
3A9723
330
18
100
AcDbEntity
  8
姿図
100
AcDbLine
 10
19224.94494253798
 20
-17472.98418504648
 30
0.0000000000000014
 11
19225.16331800278
 21
-17472.47929890422
 31
0.0000000000000014
  0
LINE
  5
3A9724
330
18
100
AcDbEntity
  8
姿図
100
AcDbLine
 10
19225.1035378068
 20
-17473.06543605477
 30
0.0000000000000014
 11
19225.00472273396
 21
-17473.07468307684
 31
0.0000000000000014
  0
LINE
  5
3A9725
330
18
100
AcDbEntity
  8
姿図
100
AcDbLine
 10
19224.9639482844
 20
-17473.06398013112
 30
0.0000000000000014
 11
19225.1465529015
 21
-17473.19469515803
 31
0.0000000000000014
  0
LINE
  5
3A9726
330
18
100
AcDbEntity
  8
姿図
100
AcDbLine
 10
19224.9639482844
 20
-17470.35743940743
 30
0.0000000000000014
 11
19225.1465529015
 21
-17470.48815443434
 31
0.0000000000000014
  0
LINE
  5
3A9727
330
18
100
AcDbEntity
  8
姿図
100
AcDbLine
 10
19224.94494253798
 20
-17470.95427950372
 30
0.0000000000000014
 11
19225.16331800278
 21
-17470.44939336145
 31
0.0000000000000014
  0
LINE
  5
3A9728
330
18
100
AcDbEntity
  8
姿図
100
AcDbLine
 10
19225.1035378068
 20
-17471.03553051201
 30
0.0000000000000014
 11
19225.00472273396
 21
-17471.04477753408
 31
0.0000000000000014
  0
LINE
  5
3A9729
330
18
100
AcDbEntity
  8
姿図
100
AcDbLine
 10
19224.94494253798
 20
-17471.63091468464
 30
0.0000000000000014
 11
19225.16331800278
 21
-17471.12602854237
 31
0.0000000000000014
  0
LINE
  5
3A972A
330
18
100
AcDbEntity
  8
姿図
100
AcDbLine
 10
19225.1035378068
 20
-17471.71216569293
 30
0.0000000000000014
 11
19225.00472273396
 21
-17471.721412715
 31
0.0000000000000014
  0
LINE
  5
3A972B
330
18
100
AcDbEntity
  8
姿図
100
AcDbLine
 10
19224.94494253798
 20
-17472.30754986556
 30
0.0000000000000014
 11
19225.16331800278
 21
-17471.80266372329
 31
0.0000000000000014
  0
LINE
  5
3A972C
330
18
100
AcDbEntity
  8
姿図
100
AcDbLine
 10
19225.1035378068
 20
-17472.38880087385
 30
0.0000000000000014
 11
19225.00472273396
 21
-17472.39804789592
 31
0.0000000000000014
  0
LINE
  5
3A972D
330
18
100
AcDbEntity
  8
姿図
100
AcDbLine
 10
19224.9639482844
 20
-17471.03407458835
 30
0.0000000000000014
 11
19225.1465529015
 21
-17471.16478961526
 31
0.0000000000000014
  0
LINE
  5
3A972E
330
18
100
AcDbEntity
  8
姿図
100
AcDbLine
 10
19224.9639482844
 20
-17471.71070976928
 30
0.0000000000000014
 11
19225.1465529015
 21
-17471.84142479618
 31
0.0000000000000014
  0
LINE
  5
3A972F
330
18
100
AcDbEntity
  8
姿図
100
AcDbLine
 10
19225.1035378068
 20
-17469.68226015017
 30
0.0000000000000014
 11
19225.00472273396
 21
-17469.69150717223
 31
0.0000000000000014
  0
LINE
  5
3A9730
330
18
100
AcDbEntity
  8
姿図
100
AcDbLine
 10
19224.94494253798
 20
-17470.2776443228
 30
0.0000000000000014
 11
19225.16331800278
 21
-17469.77275818053
 31
0.0000000000000014
  0
LINE
  5
3A9731
330
18
100
AcDbEntity
  8
姿図
100
AcDbLine
 10
19225.1035378068
 20
-17470.35889533109
 30
0.0000000000000014
 11
19225.00472273396
 21
-17470.36814235316
 31
0.0000000000000014
  0
LINE
  5
3A9732
330
18
100
AcDbEntity
  8
姿図
100
AcDbLine
 10
19224.9639482844
 20
-17469.68080422651
 30
0.0000000000000014
 11
19225.1465529015
 21
-17469.81151925342
 31
0.0000000000000014
  0
LINE
  5
3A9733
330
18
100
AcDbEntity
  8
姿図
100
AcDbLine
 10
19224.94494253798
 20
-17469.60100914188
 30
0.0000000000000014
 11
19225.16331800278
 21
-17469.09612299961
 31
0.0000000000000014
  0
ELLIPSE
  5
3A9734
330
18
100
AcDbEntity
  8
姿図
100
AcDbEllipse
 10
19225.00472273395
 20
-17472.33038437783
 30
0.0000000000000014
 11
0.04077444956302648
 21
0.05696057237042533
 31
0.0
210
0.0
220
0.0
230
1.0
 40
0.9083744652357201
 41
1.804594242940693
 42
3.808998900156747
  0
ELLIPSE
  5
3A9735
330
18
100
AcDbEntity
  8
姿図
100
AcDbEllipse
 10
19225.00472273395
 20
-17473.00701955875
 30
0.0000000000000014
 11
0.04077444956302648
 21
0.05696057237042533
 31
0.0
210
0.0
220
0.0
230
1.0
 40
0.9083744652357201
 41
1.804594242940521
 42
3.808998900156814
  0
ELLIPSE
  5
3A9736
330
18
100
AcDbEntity
  8
姿図
100
AcDbEllipse
 10
19225.00472273395
 20
-17468.2705732923
 30
0.0000000000000014
 11
0.04077444956302778
 21
0.05696057237042713
 31
3.888579933804672E-18
210
-3.231153159914925E-17
220
-4.513815278383415E-17
230
1.0
 40
0.9083744652357209
 41
1.804594242940522
 42
3.808998900156824
  0
ELLIPSE
  5
3A9737
330
18
100
AcDbEntity
  8
姿図
100
AcDbEllipse
 10
19225.00472273395
 20
-17470.30047883507
 30
0.0000000000000014
 11
0.04077444956302648
 21
0.05696057237042533
 31
0.0
210
0.0
220
0.0
230
1.0
 40
0.9083744652357201
 41
1.804594242940334
 42
3.80899890015687
  0
ELLIPSE
  5
3A9738
330
18
100
AcDbEntity
  8
姿図
100
AcDbEllipse
 10
19225.00472273395
 20
-17470.97711401599
 30
0.0000000000000014
 11
0.04077444956302648
 21
0.05696057237042533
 31
0.0
210
0.0
220
0.0
230
1.0
 40
0.9083744652357201
 41
1.804594242940608
 42
3.808998900156902
  0
ELLIPSE
  5
3A9739
330
18
100
AcDbEntity
  8
姿図
100
AcDbEllipse
 10
19225.00472273395
 20
-17471.65374919691
 30
0.0000000000000014
 11
0.04077444956302648
 21
0.05696057237042533
 31
0.0
210
0.0
220
0.0
230
1.0
 40
0.9083744652357201
 41
1.804594242940608
 42
3.808998900156902
  0
ELLIPSE
  5
3A973A
330
18
100
AcDbEntity
  8
姿図
100
AcDbEllipse
 10
19225.00472273395
 20
-17468.94720847322
 30
0.0000000000000014
 11
0.04077444956302778
 21
0.05696057237042713
 31
3.888579933804672E-18
210
-3.231153159914925E-17
220
-4.513815278383415E-17
230
1.0
 40
0.9083744652357209
 41
1.804594242940522
 42
3.808998900156824
  0
ELLIPSE
  5
3A973B
330
18
100
AcDbEntity
  8
姿図
100
AcDbEllipse
 10
19225.00472273395
 20
-17469.62384365415
 30
0.0000000000000014
 11
0.04077444956302648
 21
0.05696057237042533
 31
0.0
210
0.0
220
0.0
230
1.0
 40
0.9083744652357201
 41
1.804594242940453
 42
3.808998900157027
  0
ELLIPSE
  5
3A973C
330
18
100
AcDbEntity
  8
姿図
100
AcDbEllipse
 10
19225.00472273395
 20
-17466.91730293045
 30
0.0000000000000014
 11
0.04077444956302778
 21
0.05696057237042713
 31
3.888579933804672E-18
210
-3.231153159914925E-17
220
-4.513815278383415E-17
230
1.0
 40
0.9083744652357209
 41
1.804594242940792
 42
3.808998900157135
  0
ELLIPSE
  5
3A973D
330
18
100
AcDbEntity
  8
姿図
100
AcDbEllipse
 10
19225.00472273395
 20
-17467.59393811138
 30
0.0000000000000014
 11
0.04077444956302778
 21
0.05696057237042713
 31
3.888579933804672E-18
210
-3.231153159914925E-17
220
-4.513815278383415E-17
230
1.0
 40
0.9083744652357209
 41
1.804594242940609
 42
3.808998900156911
  0
LINE
  5
3A973E
330
18
100
AcDbEntity
  8
姿図
100
AcDbLine
 10
19227.15096090956
 20
-17471.20650068141
 30
0.0000000000000014
 11
19227.12456921711
 21
-17471.20897039129
 31
0.0000000000000014
  0
LINE
  5
3A973F
330
18
100
AcDbEntity
  8
姿図
100
AcDbLine
 10
19227.06478902113
 20
-17471.79510754186
 30
0.0000000000000014
 11
19227.15033106827
 21
-17471.59733351893
 31
0.0000000000000014
  0
LINE
  5
3A9740
330
18
100
AcDbEntity
  8
姿図
100
AcDbLine
 10
19227.08379476755
 20
-17471.19826744557
 30
0.0000000000000014
 11
19227.14990121658
 21
-17471.24558884632
 31
0.0000000000000014
  0
ELLIPSE
  5
3A9741
330
18
100
AcDbEntity
  8
姿図
100
AcDbEllipse
 10
19227.12456921711
 20
-17472.49457723504
 30
0.0000000000000014
 11
0.04077444956302618
 21
0.05696057237042552
 31
-3.888579933804548E-18
210
3.231153159914902E-17
220
4.513815278383435E-17
230
1.0
 40
0.9083744652357175
 41
1.804594242940832
 42
3.808998900156845
  0
ELLIPSE
  5
3A9742
330
18
100
AcDbEntity
  8
姿図
100
AcDbEllipse
 10
19227.12456921711
 20
-17473.17121241597
 30
0.0000000000000014
 11
0.04077444956302618
 21
0.05696057237042552
 31
-3.888579933804548E-18
210
3.231153159914902E-17
220
4.513815278383435E-17
230
1.0
 40
0.9083744652357175
 41
1.804594242940847
 42
3.8089989001569
  0
ELLIPSE
  5
3A9743
330
18
100
AcDbEntity
  8
姿図
100
AcDbEllipse
 10
19227.12456921711
 20
-17470.46467169228
 30
0.0000000000000014
 11
0.0407744495630275
 21
0.05696057237042731
 31
3.888579933804645E-18
210
-3.231153159914882E-17
220
-4.513815278383401E-17
230
1.0
 40
0.9083744652357181
 41
1.804594242940848
 42
3.808998900156912
  0
ELLIPSE
  5
3A9744
330
18
100
AcDbEntity
  8
姿図
100
AcDbEllipse
 10
19227.12456921711
 20
-17471.1413068732
 30
0.0000000000000014
 11
0.04077444956302618
 21
0.05696057237042552
 31
-3.888579933804548E-18
210
3.231153159914902E-17
220
4.513815278383435E-17
230
1.0
 40
0.9083744652357175
 41
1.804594242940723
 42
3.808998900156777
  0
ELLIPSE
  5
3A9745
330
18
100
AcDbEntity
  8
姿図
100
AcDbEllipse
 10
19227.12456921711
 20
-17471.81794205412
 30
0.0000000000000014
 11
0.04077444956302618
 21
0.05696057237042552
 31
-3.888579933804548E-18
210
3.231153159914902E-17
220
4.513815278383435E-17
230
1.0
 40
0.9083744652357175
 41
1.804594242940692
 42
3.808998900156467
  0
ELLIPSE
  5
3A9746
330
18
100
AcDbEntity
  8
姿図
100
AcDbEllipse
 10
19227.12456921711
 20
-17468.43476614952
 30
0.0000000000000014
 11
0.0407744495630275
 21
0.05696057237042731
 31
3.888579933804645E-18
210
-3.231153159914882E-17
220
-4.513815278383401E-17
230
1.0
 40
0.9083744652357181
 41
1.804594242940803
 42
3.808998900156824
  0
ELLIPSE
  5
3A9747
330
18
100
AcDbEntity
  8
姿図
100
AcDbEllipse
 10
19227.12456921711
 20
-17469.11140133044
 30
0.0000000000000014
 11
0.0407744495630275
 21
0.05696057237042731
 31
3.888579933804645E-18
210
-3.231153159914882E-17
220
-4.513815278383401E-17
230
1.0
 40
0.9083744652357181
 41
1.804594242940766
 42
3.808998900156787
  0
ELLIPSE
  5
3A9748
330
18
100
AcDbEntity
  8
姿図
100
AcDbEllipse
 10
19227.12456921711
 20
-17469.78803651136
 30
0.0000000000000014
 11
0.0407744495630275
 21
0.05696057237042731
 31
3.888579933804645E-18
210
-3.231153159914882E-17
220
-4.513815278383401E-17
230
1.0
 40
0.9083744652357181
 41
1.804594242940876
 42
3.808998900156855
  0
ELLIPSE
  5
3A9749
330
18
100
AcDbEntity
  8
姿図
100
AcDbEllipse
 10
19225.1035378068
 20
-17472.45646439195
 30
0.0000000000000014
 11
0.04077444956302303
 21
0.05696057237043183
 31
3.888579933804730E-18
210
-3.231153159914517E-17
220
-4.513815278383706E-17
230
1.0
 40
0.9083744652357212
 41
4.946186896530419
 42
6.950591553746441
  0
ELLIPSE
  5
3A974A
330
18
100
AcDbEntity
  8
姿図
100
AcDbEllipse
 10
19225.1035378068
 20
-17473.13309957287
 30
0.0000000000000014
 11
0.04077444956302303
 21
0.05696057237043183
 31
3.888579933804730E-18
210
-3.231153159914517E-17
220
-4.513815278383706E-17
230
1.0
 40
0.9083744652357212
 41
4.946186896530518
 42
6.95059155374682
  0
ELLIPSE
  5
3A974B
330
18
100
AcDbEntity
  8
姿図
100
AcDbEllipse
 10
19225.1035378068
 20
-17468.39665330642
 30
0.0000000000000014
 11
0.04077444956303463
 21
0.05696057237044796
 31
3.888579933805807E-18
210
-3.231153159914484E-17
220
-4.513815278383687E-17
230
1.0
 40
0.9083744652357204
 41
4.946186896530406
 42
6.950591553746625
  0
ELLIPSE
  5
3A974C
330
18
100
AcDbEntity
  8
姿図
100
AcDbEllipse
 10
19225.1035378068
 20
-17470.42655884918
 30
0.0000000000000014
 11
0.04077444956302303
 21
0.05696057237043183
 31
3.888579933804730E-18
210
-3.231153159914517E-17
220
-4.513815278383706E-17
230
1.0
 40
0.9083744652357212
 41
4.946186896530169
 42
6.950591553746752
  0
ELLIPSE
  5
3A974D
330
18
100
AcDbEntity
  8
姿図
100
AcDbEllipse
 10
19225.1035378068
 20
-17471.10319403011
 30
0.0000000000000014
 11
0.04077444956302303
 21
0.05696057237043183
 31
3.888579933804730E-18
210
-3.231153159914517E-17
220
-4.513815278383706E-17
230
1.0
 40
0.9083744652357212
 41
4.946186896530518
 42
6.95059155374654
  0
ELLIPSE
  5
3A974E
330
18
100
AcDbEntity
  8
姿図
100
AcDbEllipse
 10
19225.1035378068
 20
-17471.77982921103
 30
0.0000000000000014
 11
0.04077444956302303
 21
0.05696057237043183
 31
3.888579933804730E-18
210
-3.231153159914517E-17
220
-4.513815278383706E-17
230
1.0
 40
0.9083744652357212
 41
4.946186896530611
 42
6.950591553746913
  0
ELLIPSE
  5
3A974F
330
18
100
AcDbEntity
  8
姿図
100
AcDbEllipse
 10
19225.1035378068
 20
-17469.07328848734
 30
0.0000000000000014
 11
0.04077444956302303
 21
0.05696057237043183
 31
3.888579933804730E-18
210
-3.231153159914517E-17
220
-4.513815278383706E-17
230
1.0
 40
0.9083744652357212
 41
4.946186896530611
 42
6.950591553747201
  0
ELLIPSE
  5
3A9750
330
18
100
AcDbEntity
  8
姿図
100
AcDbEllipse
 10
19225.1035378068
 20
-17469.74992366826
 30
0.0000000000000014
 11
0.04077444956302303
 21
0.05696057237043183
 31
3.888579933804730E-18
210
-3.231153159914517E-17
220
-4.513815278383706E-17
230
1.0
 40
0.9083744652357212
 41
4.946186896530643
 42
6.950591553746944
  0
ELLIPSE
  5
3A9751
330
18
100
AcDbEntity
  8
姿図
100
AcDbEllipse
 10
19225.1035378068
 20
-17467.04338294458
 30
0.0000000000000014
 11
0.04077444956303463
 21
0.05696057237044796
 31
3.888579933805807E-18
210
-3.231153159914484E-17
220
-4.513815278383687E-17
230
1.0
 40
0.9083744652357204
 41
4.946186896530376
 42
6.950591553746025
  0
ELLIPSE
  5
3A9752
330
18
100
AcDbEntity
  8
姿図
100
AcDbEllipse
 10
19225.1035378068
 20
-17467.7200181255
 30
0.0000000000000014
 11
0.04077444956303463
 21
0.05696057237044796
 31
3.888579933805807E-18
210
-3.231153159914484E-17
220
-4.513815278383687E-17
230
1.0
 40
0.9083744652357204
 41
4.946186896530474
 42
6.950591553746981
  0
ELLIPSE
  5
3A9753
330
18
100
AcDbEntity
  8
姿図
100
AcDbEllipse
 10
19227.22338428995
 20
-17473.97392761101
 30
0.0000000000000014
 11
0.0407744495630228
 21
0.05696057237043198
 31
3.888579933804733E-18
210
-3.231153159914463E-17
220
-4.513815278383753E-17
230
1.0
 40
0.908374465235718
 41
6.006282980254767
 42
6.950591553746565
  0
ELLIPSE
  5
3A9754
330
18
100
AcDbEntity
  8
姿図
100
AcDbEllipse
 10
19227.50901741654
 20
-17467.89566621889
 30
0.0000000000000014
 11
0.05437706711423806
 21
-0.6281180723226355
 31
-1.399918910453696E-16
210
1.915108353182202E-17
220
-2.212171841785135E-16
230
1.0
 40
0.3301839125655837
 41
3.143887870131871
 42
4.437113948144754
  0
LINE
  5
3A9755
330
18
100
AcDbEntity
  8
姿図
100
AcDbLine
 10
19227.29371931895
 20
-17467.88264262111
 30
0.0000000000000014
 11
19227.29465091824
 21
-17467.74221488213
 31
0.0000000000000014
  0
ELLIPSE
  5
3A9756
330
18
100
AcDbEntity
  8
姿図
100
AcDbEllipse
 10
19227.22338428995
 20
-17472.62065724916
 30
0.0000000000000014
 11
0.0407744495630228
 21
0.05696057237043198
 31
3.888579933804733E-18
210
-3.231153159914463E-17
220
-4.513815278383753E-17
230
1.0
 40
0.908374465235718
 41
4.946186896530421
 42
6.950591553746442
  0
ELLIPSE
  5
3A9757
330
18
100
AcDbEntity
  8
姿図
100
AcDbEllipse
 10
19227.22338428995
 20
-17473.29729243008
 30
0.0000000000000014
 11
0.0407744495630228
 21
0.05696057237043198
 31
3.888579933804733E-18
210
-3.231153159914463E-17
220
-4.513815278383753E-17
230
1.0
 40
0.908374465235718
 41
4.946186896530445
 42
6.950591553746509
  0
ELLIPSE
  5
3A9758
330
18
100
AcDbEntity
  8
姿図
100
AcDbEllipse
 10
19227.22338428995
 20
-17468.56084616364
 30
0.0000000000000014
 11
0.04077444956303432
 21
0.05696057237044818
 31
3.888579933805835E-18
210
-3.231153159914478E-17
220
-4.513815278383739E-17
230
1.0
 40
0.9083744652357181
 41
4.946186896530444
 42
6.950591553746381
  0
ELLIPSE
  5
3A9759
330
18
100
AcDbEntity
  8
姿図
100
AcDbEllipse
 10
19227.22338428995
 20
-17469.23748134456
 30
0.0000000000000014
 11
0.04077444956303432
 21
0.05696057237044818
 31
3.888579933805835E-18
210
-3.231153159914478E-17
220
-4.513815278383739E-17
230
1.0
 40
0.9083744652357181
 41
4.946186896530483
 42
6.950591553746505
  0
ELLIPSE
  5
3A975A
330
18
100
AcDbEntity
  8
姿図
100
AcDbEllipse
 10
19227.22338428995
 20
-17469.91411652548
 30
0.0000000000000014
 11
0.04077444956303432
 21
0.05696057237044818
 31
3.888579933805835E-18
210
-3.231153159914478E-17
220
-4.513815278383739E-17
230
1.0
 40
0.9083744652357181
 41
4.946186896530291
 42
6.950591553746593
  0
LINE
  5
3A975B
330
18
100
AcDbEntity
  8
姿図
100
AcDbLine
 10
19228.88625484201
 20
-17468.5934785727
 30
0.0000000000000014
 11
19228.8835826378
 21
-17468.19117504356
 31
0.0000000000000014
  0
LINE
  5
3A975C
330
18
100
AcDbEntity
  8
姿図
100
AcDbLine
 10
19228.2969472895
 20
-17467.1887241833
 30
0.0000000000000014
 11
19227.45416447782
 21
-17467.26759101031
 31
0.0000000000000014
  0
LINE
  5
3A975D
330
18
100
AcDbEntity
  8
姿図
100
AcDbLine
 10
19228.35553320716
 20
-17467.20747840037
 30
0.0000000000000014
 11
19228.6651737047
 21
-17467.42913033124
 31
0.0000000000000014
  0
LINE
  5
3A975E
330
18
100
AcDbEntity
  8
姿図
100
AcDbLine
 10
19228.14520914366
 20
-17467.66262043917
 30
0.0000000000000014
 11
19228.15575920892
 21
-17469.25094533509
 31
0.0000000000000014
  0
LINE
  5
3A975F
330
18
100
AcDbEntity
  8
姿図
100
AcDbLine
 10
19228.52378630515
 20
-17468.90006503414
 30
0.0000000000000014
 11
19227.86279655797
 21
-17469.53025852749
 31
0.0000000000000014
  0
ELLIPSE
  5
3A9760
330
18
100
AcDbEntity
  8
姿図
100
AcDbEllipse
 10
19228.35957564196
 20
-17467.81607177593
 30
0.0000000000000014
 11
0.0630925953705448
 21
-0.6273025252676169
 31
0.0
210
0.0
220
0.0
230
1.0
 40
0.3266547503873701
 41
2.861757613225559
 42
4.432553940020501
  0
ELLIPSE
  5
3A9761
330
18
100
AcDbEntity
  8
姿図
100
AcDbEllipse
 10
19228.6692161395
 20
-17468.03772370681
 30
0.0000000000000014
 11
0.0630925953705448
 21
-0.6273025252676169
 31
0.0
210
0.0
220
0.0
230
1.0
 40
0.3266547503873701
 41
1.290961286430781
 42
2.861757613225615
  0
ELLIPSE
  5
3A9762
330
18
100
AcDbEntity
  8
姿図
100
AcDbEllipse
 10
19247.28381309099
 20
-17470.21816006719
 30
0.0000000000000014
 11
-19.43899392638164
 21
-3.695852190835743E-13
 31
-2.158161863261747E-15
210
-1.110223024625157E-16
220
-2.110819219048410E-30
230
1.0
 40
0.2588190451025151
 41
5.28687662288746
 42
6.018106658722737
  0
ELLIPSE
  5
3A9763
330
18
100
AcDbEntity
  8
姿図
100
AcDbEllipse
 10
19247.28381309099
 20
-17476.37554021358
 30
0.0000000000000014
 11
-22.12729165305705
 21
-8.241969717382603E-13
 31
0.0
210
0.0
220
0.0
230
1.0
 40
0.2588190451024983
 41
5.241510706344444
 42
6.274432771330732
  0
ELLIPSE
  5
3A9764
330
18
100
AcDbEntity
  8
姿図
100
AcDbEllipse
 10
19247.28381309099
 20
-17471.46993515189
 30
0.0000000000000014
 11
-20.13949821201701
 21
-3.834625887223409E-13
 31
-1.117966730968923E-15
210
-5.551115123125783E-17
220
-1.056950353479716E-30
230
1.0
 40
0.258819045102515
 41
5.268090580583092
 42
6.550261017675986
  0
ELLIPSE
  5
3A9765
330
18
100
AcDbEntity
  8
姿図
100
AcDbEllipse
 10
19247.28381309099
 20
-17470.89479524811
 30
0.0000000000000014
 11
-20.12390636427689
 21
-3.814900630616825E-13
 31
-1.117101209551046E-15
210
-5.551115123125783E-17
220
-1.052328121613186E-30
230
1.0
 40
0.258819045102515
 41
5.266606351960423
 42
6.276168753067862
  0
ELLIPSE
  5
3A9766
330
18
100
AcDbEntity
  8
姿図
100
AcDbEllipse
 10
19238.71079451405
 20
-17571.73564002908
 30
0.0000000000000014
 11
-22.6450971561371
 21
-422.5351665769942
 31
2.348907431735062E-14
210
2.970768119157230E-18
220
5.543160152658212E-17
230
1.0
 40
0.0186593157869327
 41
4.459498662982783
 42
4.472829220484885
  0
LINE
  5
3A9767
330
18
100
AcDbEntity
  8
姿図
100
AcDbLine
 10
19237.92493443628
 20
-17467.48761783279
 30
0.0000000000000014
 11
19237.94247035338
 21
-17465.13194754688
 31
0.0000000000000014
  0
LINE
  5
3A9768
330
18
100
AcDbEntity
  8
姿図
100
AcDbLine
 10
19241.73038147876
 20
-17464.77747836771
 30
0.0000000000000014
 11
19241.71284556166
 21
-17467.13314865363
 31
0.0000000000000014
  0
ELLIPSE
  5
3A9769
330
18
100
AcDbEntity
  8
姿図
100
AcDbEllipse
 10
19236.69808002072
 20
-17217.71273718963
 30
0.0000000000000014
 11
-26.03051405134906
 21
476.7384280245423
 31
0.0
210
0.0
220
0.0
230
1.0
 40
0.0171889472793754
 41
2.115486356435118
 42
2.128957736158343
  0
ELLIPSE
  5
3A976A
330
18
100
AcDbEntity
  8
姿図
100
AcDbEllipse
 10
19255.85683166794
 20
-17570.13112991395
 30
0.0000000000000014
 11
-22.84156025172853
 21
418.2800728533459
 31
-2.325380320982035E-14
210
-3.026859354980769E-18
220
5.542856694399325E-17
230
1.0
 40
0.0174416807856973
 41
1.315822296819269
 42
1.32915285432137
  0
LINE
  5
3A976B
330
18
100
AcDbEntity
  8
姿図
100
AcDbLine
 10
19238.1280516804
 20
-17465.26479341101
 30
0.0000000000000014
 11
19238.14549778976
 21
-17467.46123607113
 31
0.0000000000000014
  0
ELLIPSE
  5
3A976C
330
18
100
AcDbEntity
  8
姿図
100
AcDbEllipse
 10
19225.38917093338
 20
-17466.37820299983
 30
0.0000000000000014
 11
0.05437706711423806
 21
-0.6281180723226355
 31
-1.399918910453696E-16
210
1.915108353182202E-17
220
-2.212171841785135E-16
230
1.0
 40
0.3301839125655837
 41
3.143887870131944
 42
4.437113948144803
  0
ELLIPSE
  5
3A976D
330
18
100
AcDbEntity
  8
姿図
100
AcDbEllipse
 10
19226.23972915881
 20
-17466.29860855687
 30
0.0000000000000014
 11
0.0630925953705448
 21
-0.6273025252676169
 31
0.0
210
0.0
220
0.0
230
1.0
 40
0.3266547503873701
 41
2.861757613225725
 42
4.43255394002059
  0
LINE
  5
3A976E
330
18
100
AcDbEntity
  8
姿図
100
AcDbLine
 10
19226.23568672401
 20
-17465.69001518131
 30
0.0000000000000014
 11
19226.54532722155
 21
-17465.91166711218
 31
0.0000000000000014
  0
ELLIPSE
  5
3A976F
330
18
100
AcDbEntity
  8
姿図
100
AcDbEllipse
 10
19247.28381309099
 20
-17470.21816006719
 30
0.0000000000000014
 11
-19.43899392638164
 21
-3.695852190835743E-13
 31
-2.158161863261747E-15
210
-1.110223024625157E-16
220
-2.110819219048410E-30
230
1.0
 40
0.2588190451025151
 41
5.002357841538155
 42
5.202574393620892
  0
ELLIPSE
  5
3A9770
330
18
100
AcDbEntity
  8
姿図
100
AcDbEllipse
 10
19247.28381309099
 20
-17470.89479524811
 30
0.0000000000000014
 11
-20.12390636427689
 21
-3.814900630616825E-13
 31
-1.117101209551046E-15
210
-5.551115123125783E-17
220
-1.052328121613186E-30
230
1.0
 40
0.258819045102515
 41
3.563618606471713
 42
4.915675910959883
  0
ELLIPSE
  5
3A9771
330
18
100
AcDbEntity
  8
姿図
100
AcDbEllipse
 10
19247.28381309099
 20
-17471.46993515189
 30
0.0000000000000014
 11
-20.13949821201701
 21
-3.834625887223409E-13
 31
-1.117966730968923E-15
210
-5.551115123125783E-17
220
-1.056950353479716E-30
230
1.0
 40
0.258819045102515
 41
3.565790486621951
 42
4.913638423115042
  0
ELLIPSE
  5
3A9772
330
18
100
AcDbEntity
  8
姿図
100
AcDbEllipse
 10
19247.28381309099
 20
-17470.21816006719
 30
0.0000000000000014
 11
-19.43899392638164
 21
-3.695852190835743E-13
 31
-2.158161863261747E-15
210
-1.110223024625157E-16
220
-2.110819219048410E-30
230
1.0
 40
0.2588190451025151
 41
3.476409367365063
 42
4.924634818196502
  0
ELLIPSE
  5
3A9773
330
18
100
AcDbEntity
  8
姿図
100
AcDbEllipse
 10
19247.28381309099
 20
-17476.37554021358
 30
0.0000000000000014
 11
-22.12729165305705
 21
-3.795482328869187E-13
 31
-2.456622866581997E-15
210
-1.110223024625157E-16
220
-1.904359529010099E-30
230
1.0
 40
0.2588190451025165
 41
3.844220094436217
 42
4.877142159422503
  0
LINE
  5
3A9774
330
18
100
AcDbEntity
  8
姿図
100
AcDbLine
 10
19272.47042161248
 20
-17481.78862166094
 30
0.0000000000000014
 11
19272.47042161248
 21
-17482.19225067836
 31
0.0000000000000014
  0
ELLIPSE
  5
3A9775
330
18
100
AcDbEntity
  8
姿図
100
AcDbEllipse
 10
19247.28381309099
 20
-17477.93649188296
 30
0.0000000000000014
 11
16.64734076836731
 21
0.0
 31
0.0
210
0.0
220
0.0
230
1.0
 40
0.2673555525296201
 41
5.294295046974248
 42
5.96194421627353
  0
LINE
  5
3A9776
330
18
100
AcDbEntity
  8
姿図
100
AcDbLine
 10
19224.94494253798
 20
-17477.72063131293
 30
0.0000000000000014
 11
19225.13661300982
 21
-17477.27748736722
 31
0.0000000000000014
  0
LINE
  5
3A9777
330
18
100
AcDbEntity
  8
姿図
100
AcDbLine
 10
19225.1035378068
 20
-17477.1252471403
 30
0.0000000000000014
 11
19225.00472273396
 21
-17477.13449416237
 31
0.0000000000000014
  0
LINE
  5
3A9778
330
18
100
AcDbEntity
  8
姿図
100
AcDbLine
 10
19224.94494253798
 20
-17477.04399613201
 30
0.0000000000000014
 11
19225.15206127287
 21
-17476.56513565586
 31
0.0000000000000014
  0
LINE
  5
3A9779
330
18
100
AcDbEntity
  8
姿図
100
AcDbLine
 10
19224.9639482844
 20
-17477.12379121665
 30
0.0000000000000014
 11
19225.13725571305
 21
-17477.24785097789
 31
0.0000000000000014
  0
LINE
  5
3A977A
330
18
100
AcDbEntity
  8
姿図
100
AcDbLine
 10
19224.93884601874
 20
-17478.81543325408
 30
0.0000000000000014
 11
19224.93884601874
 21
-17477.74963050658
 31
0.0000000000000014
  0
ELLIPSE
  5
3A977B
330
18
100
AcDbEntity
  8
姿図
100
AcDbEllipse
 10
19225.00472273395
 20
-17477.7434658252
 30
0.0000000000000014
 11
0.04077444956302778
 21
0.05696057237042713
 31
3.888579933804672E-18
210
-3.231153159914925E-17
220
-4.513815278383415E-17
230
1.0
 40
0.9083744652357209
 41
1.804594242940401
 42
2.238202573361832
  0
ELLIPSE
  5
3A977C
330
18
100
AcDbEntity
  8
姿図
100
AcDbEllipse
 10
19225.00472273395
 20
-17477.06683064428
 30
0.0000000000000014
 11
0.04077444956302517
 21
0.05696057237042348
 31
0.0
210
0.0
220
0.0
230
1.0
 40
0.9083744652357209
 41
1.804594242940566
 42
3.808998900156902
  0
ELLIPSE
  5
3A977D
330
18
100
AcDbEntity
  8
姿図
100
AcDbEllipse
 10
19225.1035378068
 20
-17477.1929106584
 30
0.0000000000000014
 11
0.04077444956302303
 21
0.05696057237043183
 31
3.888579933804730E-18
210
-3.231153159914517E-17
220
-4.513815278383706E-17
230
1.0
 40
0.9083744652357212
 41
0.0854693314817033
 42
0.6674062465672337
  0
LINE
  5
3A977E
330
18
100
AcDbEntity
  8
姿図
100
AcDbLine
 10
19222.09720456949
 20
-17481.78862166094
 30
0.0000000000000014
 11
19222.09720456949
 21
-17482.19225067836
 31
0.0000000000000014
  0
ELLIPSE
  5
3A977F
330
18
100
AcDbEntity
  8
姿図
100
AcDbEllipse
 10
19247.28381309099
 20
-17477.93649188296
 30
0.0000000000000014
 11
16.64734076836731
 21
0.0
 31
0.0
210
0.0
220
0.0
230
1.0
 40
0.2673555525296201
 41
3.462833744495849
 42
4.125008924128273
  0
ELLIPSE
  5
3A9780
330
18
100
AcDbEntity
  8
姿図
100
AcDbEllipse
 10
19247.28381309099
 20
-17482.45295825084
 30
0.0000000000000014
 11
20.80917596045914
 21
0.0
 31
0.0
210
0.0
220
0.0
230
1.0
 40
0.26735555252962
 41
5.180243681212037
 42
5.322468918601666
  0
ELLIPSE
  5
3A9781
330
18
100
AcDbEntity
  8
姿図
100
AcDbEllipse
 10
19247.28381309099
 20
-17482.43762655991
 30
0.0000000000000014
 11
19.58542994057645
 21
0.0
 31
0.0
210
0.0
220
0.0
230
1.0
 40
0.26735555252962
 41
5.209599264642355
 42
5.36730999924912
  0
ELLIPSE
  5
3A9782
330
18
100
AcDbEntity
  8
姿図
100
AcDbEllipse
 10
19247.28381309099
 20
-17482.45295825084
 30
0.0000000000000014
 11
-20.80917596045083
 21
9.669722907402855E-13
 31
0.0
210
0.0
220
0.0
230
1.0
 40
0.2673555525297561
 41
1.089652412152444
 42
2.038651027622367
  0
ELLIPSE
  5
3A9783
330
18
100
AcDbEntity
  8
姿図
100
AcDbEllipse
 10
19247.28381309099
 20
-17482.19225067836
 30
0.0000000000000014
 11
-25.18660852146923
 21
3.203175647387420E-13
 31
0.0
210
0.0
220
0.0
230
1.0
 40
0.267355552529936
 41
1.170295413114174
 42
1.957465960389582
  0
ELLIPSE
  5
3A9784
330
18
100
AcDbEntity
  8
姿図
100
AcDbEllipse
 10
19247.28381309099
 20
-17482.43762655991
 30
0.0000000000000014
 11
19.58542994056877
 21
5.969901724187227E-13
 31
0.0
210
0.0
220
0.0
230
1.0
 40
0.2673555525297447
 41
4.202483262015896
 42
5.20959926464257
  0
ELLIPSE
  5
3A9785
330
18
100
AcDbEntity
  8
姿図
100
AcDbEllipse
 10
19247.28381309099
 20
-17482.19225067836
 30
0.0000000000000014
 11
25.18660852149495
 21
0.0
 31
0.0
210
0.0
220
0.0
230
1.0
 40
0.2673555525296203
 41
5.099058613978904
 42
5.204636642587372
  0
ELLIPSE
  5
3A9786
330
18
100
AcDbEntity
  8
姿図
100
AcDbEllipse
 10
19247.28381309099
 20
-17481.78862166094
 30
0.0000000000000014
 11
25.18660852149495
 21
0.0
 31
0.0
210
0.0
220
0.0
230
1.0
 40
0.2673555525296203
 41
6.253210353381123
 42
9.42477796076938
  0
LINE
  5
3A9787
330
18
100
AcDbEntity
  8
姿図
100
AcDbLine
 10
19224.9639482844
 20
-17476.44715603573
 30
0.0000000000000014
 11
19225.1465529015
 21
-17476.57787106264
 31
0.0000000000000014
  0
LINE
  5
3A9788
330
18
100
AcDbEntity
  8
姿図
100
AcDbLine
 10
19225.15949954907
 20
-17476.22214118676
 30
0.0000000000000014
 11
19225.10514937957
 21
-17478.7283411483
 31
0.0000000000000014
  0
LINE
  5
3A9789
330
18
100
AcDbEntity
  8
姿図
100
AcDbLine
 10
19266.77056018596
 20
-17473.83505783231
 30
0.0000000000000014
 11
19266.77056018596
 21
-17477.63551162032
 31
0.0000000000000014
  0
LINE
  5
3A978A
330
18
100
AcDbEntity
  8
姿図
100
AcDbLine
 10
19269.62878016325
 20
-17478.81543325408
 30
0.0000000000000014
 11
19269.62878016325
 21
-17475.88107565577
 31
0.0000000000000014
  0
SPLINE
  5
3A978B
330
18
100
AcDbEntity
  8
姿図
100
AcDbSpline
210
0.0
220
0.0
230
1.0
 70
     8
 71
     3
 72
    26
 73
    22
 74
     0
 42
0.000000001
 43
0.0000000001
 40
5.061336783911485
 40
5.061336783911485
 40
5.061336783911485
 40
5.061336783911485
 40
5.424423750909746
 40
5.424423750909746
 40
5.597379662847512
 40
5.597379662847512
 40
5.659540508070473
 40
5.659540508070473
 40
5.681680215509581
 40
5.681680215509581
 40
5.695637545270647
 40
5.695637545270647
 40
5.707793438358563
 40
5.707793438358563
 40
5.722098011649362
 40
5.722098011649362
 40
5.746604578651288
 40
5.746604578651288
 40
5.804790417739905
 40
5.804790417739905
 40
5.95015367802265
 40
5.95015367802265
 40
5.95015367802265
 40
5.95015367802265
 10
19267.29720153432
 20
-17473.11811307745
 30
0.0000000000000188
 10
19267.27035675399
 20
-17473.10886215026
 30
-0.0000000000000011
 10
19267.24942133089
 20
-17473.10391229974
 30
0.0000000000000089
 10
19267.22703064969
 20
-17473.10206868694
 30
0.0000000000000388
 10
19267.21846165569
 20
-17473.10209651585
 30
-0.0000000000000011
 10
19267.21020898856
 20
-17473.10559889302
 30
0.0000000000000089
 10
19267.20793365588
 20
-17473.10702722004
 30
-0.0000000000000011
 10
19267.20588431274
 20
-17473.11014290496
 30
0.0000000000000089
 10
19267.20537658773
 20
-17473.11117308028
 30
0.0000000000000188
 10
19267.20484255714
 20
-17473.11326947782
 30
0.0000000000000089
 10
19267.20470769415
 20
-17473.11418098298
 30
0.0000000000000288
 10
19267.20465614884
 20
-17473.11609950888
 30
0.0000000000000089
 10
19267.20471508297
 20
-17473.11702174474
 30
0.0000000000000089
 10
19267.20500578186
 20
-17473.11908074527
 30
0.0000000000000089
 10
19267.20525845902
 20
-17473.12017117619
 30
0.0000000000000188
 10
19267.20607554632
 20
-17473.12297351955
 30
0.0000000000000089
 10
19267.20675995992
 20
-17473.12466266185
 30
-0.0000000000000011
 10
19267.20907029982
 20
-17473.12965586002
 30
0.0000000000000089
 10
19267.21120623137
 20
-17473.13309088093
 30
0.0000000000000089
 10
19267.21849360793
 20
-17473.14359042363
 30
0.0000000000000188
 10
19267.22516826975
 20
-17473.15095372506
 30
-0.0000000000000011
 10
19267.23057594875
 20
-17473.15653029844
 30
-0.0000000000000011
  0
SPLINE
  5
3A978C
330
18
100
AcDbEntity
  8
姿図
100
AcDbSpline
210
0.0
220
0.0
230
1.0
 70
     8
 71
     3
 72
    10
 73
     6
 74
     0
 42
0.000000001
 43
0.0000000001
 40
1.049331515521564
 40
1.049331515521564
 40
1.049331515521564
 40
1.049331515521564
 40
1.060416395005242
 40
1.060416395005242
 40
1.145877108045186
 40
1.145877108045186
 40
1.145877108045186
 40
1.145877108045186
 10
19268.8784687787
 20
-17475.32048140491
 30
0.0000000000000188
 10
19268.87877832819
 20
-17475.32139973167
 30
0.0000000000000188
 10
19268.87905026992
 20
-17475.32232449724
 30
0.0000000000000188
 10
19268.8810909457
 20
-17475.33040790306
 30
-0.000000000000011
 10
19268.8805329652
 20
-17475.33774299829
 30
0.0000000000000089
 10
19268.87849741922
 20
-17475.34399597711
 30
-0.0000000000000011
  0
SPLINE
  5
3A978D
330
18
100
AcDbEntity
  8
姿図
100
AcDbSpline
210
0.0
220
0.0
230
1.0
 70
    11
 71
     3
 72
    38
 73
    34
 74
     0
 42
0.000000001
 43
0.0000000001
 40
0.0
 40
0.0
 40
0.0
 40
0.0
 40
0.4899871145494815
 40
0.4899871145494815
 40
0.979974229098963
 40
0.979974229098963
 40
1.469880324151053
 40
1.469880324151053
 40
1.959786419203144
 40
1.959786419203144
 40
2.449692514255234
 40
2.449692514255234
 40
2.939598609307323
 40
2.939598609307323
 40
3.429585723856796
 40
3.429585723856796
 40
3.919572838406268
 40
3.919572838406268
 40
4.409171093943909
 40
4.409171093943909
 40
4.898769349481551
 40
4.898769349481551
 40
5.388322667025809
 40
5.388322667025809
 40
5.877875984570069
 40
5.877875984570069
 40
6.367429302114321
 40
6.367429302114321
 40
6.856982619658574
 40
6.856982619658574
 40
7.346580875196199
 40
7.346580875196199
 40
7.836179130733825
 40
7.836179130733825
 40
7.836179130733825
 40
7.836179130733825
 10
19261.91180735553
 20
-17473.75728388918
 30
-0.0000000000000011
 10
19261.91259804922
 20
-17473.81229590527
 30
0.0000000000000089
 10
19261.90485546931
 20
-17473.86901766422
 30
0.0000000000000089
 10
19261.87142408582
 20
-17473.96903296284
 30
-0.0000000000000011
 10
19261.84572727786
 20
-17474.01232946739
 30
0.0000000000000089
 10
19261.78575032079
 20
-17474.07640757568
 30
0.0000000000000089
 10
19261.74747238692
 20
-17474.10146339236
 30
0.0000000000000089
 10
19261.66286644174
 20
-17474.12729287145
 30
0.0000000000000089
 10
19261.61653001266
 20
-17474.12806866078
 30
0.0000000000000188
 10
19261.52905599988
 20
-17474.10898923349
 30
-0.0000000000000011
 10
19261.48209628248
 20
-17474.08786411998
 30
0.0000000000000188
 10
19261.39509814832
 20
-17474.02460515242
 30
0.0000000000000089
 10
19261.35506762027
 20
-17473.98246905602
 30
-0.0000000000000011
 10
19261.2913929374
 20
-17473.89142062367
 30
0.0000000000000188
 10
19261.26350715897
 20
-17473.83643693307
 30
0.0000000000000288
 10
19261.22590918396
 20
-17473.72092903913
 30
-0.0000000000000011
 10
19261.21620528743
 20
-17473.66040193539
 30
0.0000000000000188
 10
19261.21469977848
 20
-17473.55043797471
 30
0.0000000000000089
 10
19261.22278439126
 20
-17473.49366868445
 30
-0.0000000000000011
 10
19261.25738882382
 20
-17473.39339351499
 30
0.0000000000000089
 10
19261.28390062616
 20
-17473.34989038888
 30
0.0000000000000188
 10
19261.34539108792
 20
-17473.28541578587
 30
0.0000000000000188
 10
19261.38446635523
 20
-17473.26014475005
 30
0.0000000000000089
 10
19261.47017234801
 20
-17473.23400843372
 30
0.0000000000000188
 10
19261.51679491608
 20
-17473.23314564775
 30
0.0000000000000188
 10
19261.60420593952
 20
-17473.2522113361
 30
0.0000000000000288
 10
19261.65082241735
 20
-17473.27341099172
 30
0.0000000000000188
 10
19261.73664566406
 20
-17473.33696047282
 30
0.0000000000000188
 10
19261.77586057049
 20
-17473.37930779941
 30
0.0000000000000089
 10
19261.8380190618
 20
-17473.47075214044
 30
0.0000000000000089
 10
19261.86510655732
 20
-17473.52594609763
 30
0.0000000000000188
 10
19261.90160153767
 20
-17473.64172914235
 30
0.0000000000000288
 10
19261.91101728934
 20
-17473.7023155312
 30
0.0000000000000089
 10
19261.91180735553
 20
-17473.75728388918
 30
-0.0000000000000011
  0
SPLINE
  5
3A978E
330
18
100
AcDbEntity
  8
姿図
100
AcDbSpline
210
0.0
220
0.0
230
1.0
 70
     8
 71
     3
 72
    24
 73
    20
 74
     0
 42
0.000000001
 43
0.0000000001
 40
9.158211213992672
 40
9.158211213992672
 40
9.158211213992672
 40
9.158211213992672
 40
9.170191443583112
 40
9.170191443583112
 40
9.737477062085201
 40
9.737477062085201
 40
10.30476268058729
 40
10.30476268058729
 40
10.87204829908938
 40
10.87204829908938
 40
11.43933391759147
 40
11.43933391759147
 40
12.01567227050256
 40
12.01567227050256
 40
12.59201062341365
 40
12.59201062341365
 40
13.16834897632474
 40
13.16834897632474
 40
13.72927459805347
 40
13.72927459805347
 40
13.72927459805347
 40
13.72927459805347
 10
19266.19692294861
 20
-17469.21995551994
 30
0.0000000000000288
 10
19266.19695105018
 20
-17469.22130553496
 30
0.0000000000000188
 10
19266.19697766886
 20
-17469.22265398027
 30
0.0000000000000188
 10
19266.19819330287
 20
-17469.28777682162
 30
0.0000000000000388
 10
19266.1961011038
 20
-17469.3522423783
 30
0.0000000000000188
 10
19266.18453722719
 20
-17469.47713912899
 30
0.0000000000000188
 10
19266.17506794314
 20
-17469.53757275107
 30
-0.0000000000000011
 10
19266.14906650835
 20
-17469.64996547965
 30
0.0000000000000089
 10
19266.13251045398
 20
-17469.70201917231
 30
0.0000000000000089
 10
19266.09358936237
 20
-17469.79463397408
 30
0.0000000000000388
 10
19266.07121896864
 20
-17469.8351916744
 30
-0.0000000000000011
 10
19266.02264319982
 20
-17469.90385262261
 30
-0.0000000000000011
 10
19265.99472009809
 20
-17469.9341040189
 30
0.0000000000000188
 10
19265.93325283273
 20
-17469.98222818813
 30
0.0000000000000188
 10
19265.89970805335
 20
-17470.00010773249
 30
0.0000000000000188
 10
19265.82903555982
 20
-17470.02196272568
 30
0.0000000000000089
 10
19265.79185106866
 20
-17470.02595682964
 30
0.0000000000000089
 10
19265.71739884278
 20
-17470.02060728978
 30
-0.0000000000000011
 10
19265.68015930026
 20
-17470.0116182889
 30
0.0000000000000188
 10
19265.64379572436
 20
-17469.99748349762
 30
0.0000000000000089
  0
SPLINE
  5
3A978F
330
18
100
AcDbEntity
  8
姿図
100
AcDbSpline
210
0.0
220
0.0
230
1.0
 70
     8
 71
     3
 72
    10
 73
     6
 74
     0
 42
0.000000001
 43
0.0000000001
 40
0.0588189760599532
 40
0.0588189760599532
 40
0.0588189760599532
 40
0.0588189760599532
 40
0.3767108973350863
 40
0.3767108973350863
 40
0.456659258613309
 40
0.456659258613309
 40
0.456659258613309
 40
0.456659258613309
 10
19243.53362227885
 20
-17470.58607049042
 30
0.0000000000000188
 10
19243.53601238043
 20
-17470.6226319353
 30
-0.0000000000000011
 10
19243.5448629504
 20
-17470.66015910336
 30
0.0000000000000089
 10
19243.56380209247
 20
-17470.70349233439
 30
0.0000000000000288
 10
19243.56801186038
 20
-17470.71201628862
 30
-0.000000000000011
 10
19243.57254081363
 20
-17470.72033764634
 30
-0.0000000000000011
  0
SPLINE
  5
3A9790
330
18
100
AcDbEntity
  8
姿図
100
AcDbSpline
210
0.0
220
0.0
230
1.0
 70
    11
 71
     3
 72
    38
 73
    34
 74
     0
 42
0.000000001
 43
0.0000000001
 40
0.0
 40
0.0
 40
0.0
 40
0.0
 40
0.4899871145494814
 40
0.4899871145494814
 40
0.9799742290989628
 40
0.9799742290989628
 40
1.469880324151052
 40
1.469880324151052
 40
1.959786419203141
 40
1.959786419203141
 40
2.44969251425523
 40
2.44969251425523
 40
2.939598609307319
 40
2.939598609307319
 40
3.429585723856792
 40
3.429585723856792
 40
3.919572838406264
 40
3.919572838406264
 40
4.409171093943907
 40
4.409171093943907
 40
4.898769349481549
 40
4.898769349481549
 40
5.388322667025805
 40
5.388322667025805
 40
5.877875984570061
 40
5.877875984570061
 40
6.367429302114317
 40
6.367429302114317
 40
6.856982619658573
 40
6.856982619658573
 40
7.346580875196197
 40
7.346580875196197
 40
7.836179130733821
 40
7.836179130733821
 40
7.836179130733821
 40
7.836179130733821
 10
19240.17742349467
 20
-17472.6333361797
 30
0.0000000000000288
 10
19240.17703936973
 20
-17472.68828744253
 30
0.0000000000000089
 10
19240.16579385114
 20
-17472.74784657871
 30
0.0000000000000089
 10
19240.12101766628
 20
-17472.85954837525
 30
0.0000000000000089
 10
19240.08749148325
 20
-17472.91169452665
 30
0.0000000000000089
 10
19240.01048080948
 20
-17472.99624259324
 30
0.0000000000000089
 10
19239.96186546058
 20
-17473.03428280759
 30
0.0000000000000089
 10
19239.85571257993
 20
-17473.08861723407
 30
0.0000000000000188
 10
19239.79817902482
 20
-17473.10491423675
 30
0.0000000000000089
 10
19239.69060101046
 20
-17473.11498128669
 30
0.0000000000000188
 10
19239.63339632657
 20
-17473.10942138106
 30
0.0000000000000089
 10
19239.52850565813
 20
-17473.07483621246
 30
0.0000000000000089
 10
19239.48081504626
 20
-17473.04580821981
 30
0.0000000000000288
 10
19239.40575543684
 20
-17472.97549074805
 30
0.0000000000000089
 10
19239.37338424
 20
-17472.9295112118
 30
0.0000000000000288
 10
19239.33080651133
 20
-17472.82598391276
 30
0.0000000000000288
 10
19239.32059585988
 20
-17472.7684326249
 30
0.0000000000000188
 10
19239.32145635064
 20
-17472.65856504879
 30
0.0000000000000188
 10
19239.33256875256
 20
-17472.59892716312
 30
-0.000000000000011
 10
19239.37678755014
 20
-17472.48687349785
 30
-0.0000000000000011
 10
19239.40989839527
 20
-17472.43446100453
 30
0.0000000000000089
 10
19239.48610812391
 20
-17472.34940996598
 30
0.0000000000000188
 10
19239.53428669814
 20
-17472.31110065447
 30
0.0000000000000188
 10
19239.63979338649
 20
-17472.25639157149
 30
0.0000000000000188
 10
19239.69712578731
 20
-17472.23999487297
 30
0.0000000000000089
 10
19239.8046263356
 20
-17472.22993507224
 30
0.0000000000000089
 10
19239.86196194988
 20
-17472.23560124519
 30
-0.0000000000000011
 10
19239.96740677046
 20
-17472.27056968332
 30
0.0000000000000188
 10
19240.01551166565
 20
-17472.29986887786
 30
-0.0000000000000011
 10
19240.09136891583
 20
-17472.37068963078
 30
-0.0000000000000011
 10
19240.1241760028
 20
-17472.41693358571
 30
0.0000000000000188
 10
19240.16739727364
 20
-17472.52080469118
 30
0.0000000000000288
 10
19240.17780731477
 20
-17472.57842852677
 30
0.0000000000000089
 10
19240.17742349467
 20
-17472.6333361797
 30
0.0000000000000288
  0
SPLINE
  5
3A9791
330
18
100
AcDbEntity
  8
姿図
100
AcDbSpline
210
0.0
220
0.0
230
1.0
 70
     8
 71
     3
 72
    14
 73
    10
 74
     0
 42
0.000000001
 43
0.0000000001
 40
1.516995086374685
 40
1.516995086374685
 40
1.516995086374685
 40
1.516995086374685
 40
1.894466177168912
 40
1.894466177168912
 40
2.274814964391462
 40
2.274814964391462
 40
2.651000233863917
 40
2.651000233863917
 40
2.975314369919599
 40
2.975314369919599
 40
2.975314369919599
 40
2.975314369919599
 10
19237.05716482689
 20
-17465.24578651461
 30
0.0000000000000089
 10
19237.01810839082
 20
-17465.25109517154
 30
0.0000000000000089
 10
19236.97645146024
 20
-17465.26512022258
 30
0.0000000000000089
 10
19236.89931155463
 20
-17465.30981299589
 30
0.0000000000000288
 10
19236.86387540149
 20
-17465.34061450317
 30
0.0000000000000089
 10
19236.80803180477
 20
-17465.40805602562
 30
0.0000000000000288
 10
19236.78379875552
 20
-17465.44907216762
 30
-0.0000000000000011
 10
19236.75355269558
 20
-17465.53017164513
 30
0.0000000000000089
 10
19236.74540181577
 20
-17465.56961041215
 30
0.0000000000000188
 10
19236.74322833456
 20
-17465.60680813063
 30
-0.0000000000000011
  0
SPLINE
  5
3A9792
330
18
100
AcDbEntity
  8
姿図
100
AcDbSpline
210
6.199844422663838E-9
220
1.399433323534765E-10
230
1.0
 70
    12
 71
     2
 72
     6
 73
     3
 74
     0
 42
0.000000001
 43
0.0000000001
 40
18.67224162152367
 40
18.67224162152367
 40
18.67224162152367
 40
24.03177626439027
 40
24.03177626439027
 40
24.03177626439027
 10
19226.01292393339
 20
-17474.79767117256
 30
-0.000000000000011
 41
1.000007196260523
 10
19225.99247455093
 20
-17473.89185395243
 30
0.0000000000000089
 41
1.000006449331705
 10
19225.97198458432
 20
-17472.98416761784
 30
0.0000000000000188
 41
1.000004680735829
  0
SPLINE
  5
3A9793
330
18
100
AcDbEntity
  8
姿図
100
AcDbSpline
210
0.0
220
0.0
230
1.0
 70
     8
 71
     3
 72
    24
 73
    20
 74
     0
 42
0.000000001
 43
0.0000000001
 40
0.0132670700154636
 40
0.0132670700154636
 40
0.0132670700154636
 40
0.0132670700154636
 40
0.5643354427835523
 40
0.5643354427835523
 40
1.128670885567105
 40
1.128670885567105
 40
1.693006328350657
 40
1.693006328350657
 40
2.257341771134209
 40
2.257341771134209
 40
2.838611106649443
 40
2.838611106649443
 40
3.419880442164678
 40
3.419880442164678
 40
4.001149777679912
 40
4.001149777679912
 40
4.582419113195146
 40
4.582419113195146
 40
4.599511058232551
 40
4.599511058232551
 40
4.599511058232551
 40
4.599511058232551
 10
19225.97198458434
 20
-17472.98416761785
 30
0.0000000000000188
 10
19225.97338630217
 20
-17473.04626240439
 30
0.0000000000000089
 10
19225.97390886875
 20
-17473.10876088751
 30
-0.0000000000000011
 10
19225.97293565482
 20
-17473.23102092479
 30
0.0000000000000288
 10
19225.97139160917
 20
-17473.29068166536
 30
0.0000000000000288
 10
19225.96635321635
 20
-17473.40124528881
 30
0.0000000000000089
 10
19225.96285705308
 20
-17473.45223826352
 30
-0.0000000000000011
 10
19225.954402068
 20
-17473.54255237223
 30
0.0000000000000089
 10
19225.94944604117
 20
-17473.58186957345
 30
0.0000000000000188
 10
19225.93866654089
 20
-17473.64845201434
 30
-0.0000000000000011
 10
19225.93243956865
 20
-17473.67766802378
 30
0.0000000000000089
 10
19225.91899870168
 20
-17473.72327452191
 30
-0.0000000000000011
 10
19225.91178869336
 20
-17473.73967140066
 30
0.0000000000000288
 10
19225.8970460815
 20
-17473.75815059513
 30
-0.0000000000000011
 10
19225.88950449454
 20
-17473.76024817445
 30
0.0000000000000089
 10
19225.8747233356
 20
-17473.7507047271
 30
0.0000000000000188
 10
19225.86748438958
 20
-17473.73905897301
 30
0.0000000000000388
 10
19225.86046779409
 20
-17473.72143174603
 30
0.0000000000000188
 10
19225.86026731523
 20
-17473.72092254035
 30
0.0000000000000288
 10
19225.86006679138
 20
-17473.72040762973
 30
0.0000000000000089
  0
SPLINE
  5
3A9794
330
18
100
AcDbEntity
  8
姿図
100
AcDbSpline
210
0.0
220
0.0
230
1.0
 70
    11
 71
     3
 72
    38
 73
    34
 74
     0
 42
0.000000001
 43
0.0000000001
 40
0.0
 40
0.0
 40
0.0
 40
0.0
 40
0.4899871145494816
 40
0.4899871145494816
 40
0.9799742290989633
 40
0.9799742290989633
 40
1.469880324151052
 40
1.469880324151052
 40
1.959786419203141
 40
1.959786419203141
 40
2.44969251425523
 40
2.44969251425523
 40
2.939598609307319
 40
2.939598609307319
 40
3.429585723856792
 40
3.429585723856792
 40
3.919572838406264
 40
3.919572838406264
 40
4.409171093943907
 40
4.409171093943907
 40
4.898769349481552
 40
4.898769349481552
 40
5.388322667025808
 40
5.388322667025808
 40
5.877875984570063
 40
5.877875984570063
 40
6.367429302114317
 40
6.367429302114317
 40
6.856982619658572
 40
6.856982619658572
 40
7.346580875196196
 40
7.346580875196196
 40
7.83617913073382
 40
7.83617913073382
 40
7.83617913073382
 40
7.83617913073382
 10
19225.54942923014
 20
-17476.94299119303
 30
0.0000000000000188
 10
19225.54825441151
 20
-17476.99817540763
 30
0.0000000000000089
 10
19225.54475147282
 20
-17477.05993839465
 30
0.0000000000000089
 10
19225.53340667145
 20
-17477.18002630781
 30
0.0000000000000188
 10
19225.52557729639
 20
-17477.23835218906
 30
0.0000000000000188
 10
19225.50854357968
 20
-17477.33695323794
 30
0.0000000000000089
 10
19225.49820616466
 20
-17477.38380271932
 30
-0.0000000000000011
 10
19225.47665922919
 20
-17477.45721923295
 30
0.0000000000000089
 10
19225.46546210317
 20
-17477.48378660945
 30
-0.000000000000011
 10
19225.44535810158
 20
-17477.51293308668
 30
0.0000000000000089
 10
19225.43511313508
 20
-17477.51745213141
 30
0.0000000000000188
 10
19225.4172206008
 20
-17477.50121436414
 30
0.0000000000000089
 10
19225.40956051699
 20
-17477.48045738416
 30
0.0000000000000089
 10
19225.39817559044
 20
-17477.42305725418
 30
-0.0000000000000011
 10
19225.39369017203
 20
-17477.38258517413
 30
0.0000000000000188
 10
19225.38871041837
 20
-17477.28616435379
 30
0.0000000000000288
 10
19225.38820366345
 20
-17477.23021455988
 30
0.0000000000000188
 10
19225.39056966316
 20
-17477.11986485174
 30
0.0000000000000288
 10
19225.39359745229
 20
-17477.05811400798
 30
0.0000000000000188
 10
19225.40321181732
 20
-17476.93801609386
 30
0.0000000000000188
 10
19225.4098108601
 20
-17476.87966978193
 30
0.0000000000000089
 10
19225.42453012698
 20
-17476.78103129222
 30
0.0000000000000188
 10
19225.4336334339
 20
-17476.73416239243
 30
0.0000000000000188
 10
19225.45343412947
 20
-17476.66072872163
 30
-0.0000000000000011
 10
19225.46414396222
 20
-17476.6341645235
 30
0.0000000000000188
 10
19225.48423348706
 20
-17476.60503903442
 30
-0.0000000000000011
 10
19225.49495262352
 20
-17476.60053583733
 30
0.0000000000000188
 10
19225.51457419739
 20
-17476.61681569851
 30
0.0000000000000089
 10
19225.52346418615
 20
-17476.63759819055
 30
-0.0000000000000011
 10
19225.53716294502
 20
-17476.69503665663
 30
0.0000000000000188
 10
19225.54288253647
 20
-17476.73552359907
 30
-0.0000000000000011
 10
19225.54960882696
 20
-17476.83193107814
 30
0.0000000000000089
 10
19225.55060311642
 20
-17476.88785077323
 30
0.0000000000000288
 10
19225.54942923014
 20
-17476.94299119303
 30
0.0000000000000188
  0
SPLINE
  5
3A9795
330
18
100
AcDbEntity
  8
姿図
 62
     8
100
AcDbSpline
210
0.0
220
0.0
230
1.0
 70
     8
 71
     3
 72
    11
 73
     7
 74
     0
 42
0.000000001
 43
0.0000000001
 40
0.0
 40
0.0
 40
0.0
 40
0.0
 40
1.0
 40
1.0
 40
1.0
 40
2.0
 40
2.0
 40
2.0
 40
2.0
 10
19241.88112196038
 20
-17478.85294989832
 30
0.0000000000000014
 10
19241.88112196038
 20
-17478.65742268605
 30
0.0000000000000014
 10
19244.23714990294
 20
-17478.49893716487
 30
0.0000000000000014
 10
19247.14351154175
 20
-17478.49893716487
 30
0.0000000000000014
 10
19250.04987318056
 20
-17478.49893716487
 30
0.0000000000000014
 10
19252.40590112311
 20
-17478.65742268605
 30
0.0000000000000014
 10
19252.40590112311
 20
-17478.85294989832
 30
0.0000000000000014
  0
POLYLINE
  5
3A9796
330
18
100
AcDbEntity
  8
姿図
 62
     8
100
AcDb2dPolyline
 66
     1
 10
0.0
 20
0.0
 30
0.0000000000000014
  0
VERTEX
  5
3A9797
330
3A9796
100
AcDbEntity
  8
姿図
 62
     8
100
AcDbVertex
100
AcDb2dVertex
 10
19241.88112196038
 20
-17478.85294989832
 30
0.0000000000000014
  0
VERTEX
  5
3A9798
330
3A9796
100
AcDbEntity
  8
姿図
 62
     8
100
AcDbVertex
100
AcDb2dVertex
 10
19241.88112196038
 20
-17480.81951091738
 30
0.0000000000000014
  0
SEQEND
  5
3A9799
330
3A9796
100
AcDbEntity
  8
姿図
 62
     8
  0
POLYLINE
  5
3A979A
330
18
100
AcDbEntity
  8
姿図
 62
     8
100
AcDb2dPolyline
 66
     1
 10
0.0
 20
0.0
 30
0.0000000000000014
  0
VERTEX
  5
3A979B
330
3A979A
100
AcDbEntity
  8
姿図
 62
     8
100
AcDbVertex
100
AcDb2dVertex
 10
19252.40590112311
 20
-17478.85294989832
 30
0.0000000000000014
  0
VERTEX
  5
3A979C
330
3A979A
100
AcDbEntity
  8
姿図
 62
     8
100
AcDbVertex
100
AcDb2dVertex
 10
19252.40590112311
 20
-17480.81951091738
 30
0.0000000000000014
  0
SEQEND
  5
3A979D
330
3A979A
100
AcDbEntity
  8
姿図
 62
     8
  0
POLYLINE
  5
3A979E
330
18
100
AcDbEntity
  8
姿図
 62
     8
100
AcDb2dPolyline
 66
     1
 10
0.0
 20
0.0
 30
0.0000000000000014
  0
VERTEX
  5
3A979F
330
3A979E
100
AcDbEntity
  8
姿図
 62
     8
100
AcDbVertex
100
AcDb2dVertex
 10
19241.88112196038
 20
-17480.81951091738
 30
0.0000000000000014
  0
VERTEX
  5
3A97A0
330
3A979E
100
AcDbEntity
  8
姿図
 62
     8
100
AcDbVertex
100
AcDb2dVertex
 10
19252.40590112311
 20
-17480.81951091738
 30
0.0000000000000014
  0
SEQEND
  5
3A97A1
330
3A979E
100
AcDbEntity
  8
姿図
 62
     8
  0
SPLINE
  5
3A97A2
330
18
100
AcDbEntity
  8
姿図
 62
     8
100
AcDbSpline
210
0.0
220
0.0
230
1.0
 70
     8
 71
     3
 72
    32
 73
    28
 74
     0
 42
0.000000001
 43
0.0000000001
 40
0.0
 40
0.0
 40
0.0
 40
0.0
 40
1.0
 40
1.0
 40
1.0
 40
2.0
 40
2.0
 40
2.0
 40
3.0
 40
3.0
 40
3.0
 40
4.0
 40
4.0
 40
4.0
 40
5.0
 40
5.0
 40
5.0
 40
6.0
 40
6.0
 40
6.0
 40
7.0
 40
7.0
 40
7.0
 40
8.0
 40
8.0
 40
8.0
 40
9.0
 40
9.0
 40
9.0
 40
9.0
 10
19240.3236070444
 20
-17480.81951091738
 30
0.0000000000000014
 10
19240.3236070444
 20
-17480.81951091738
 30
0.0000000000000014
 10
19238.35713421984
 20
-17480.81951091738
 30
0.0000000000000014
 10
19238.35713421984
 20
-17480.81951091738
 30
0.0000000000000014
 10
19238.35713421984
 20
-17480.81951091738
 30
0.0000000000000014
 10
19238.05815485602
 20
-17481.18128476706
 30
0.0000000000000014
 10
19238.05815485602
 20
-17481.18128476706
 30
0.0000000000000014
 10
19238.05815485602
 20
-17481.18128476706
 30
0.0000000000000014
 10
19238.05815485602
 20
-17482.7544983045
 30
0.0000000000000014
 10
19238.05815485602
 20
-17482.7544983045
 30
0.0000000000000014
 10
19238.05815485602
 20
-17482.7544983045
 30
0.0000000000000014
 10
19238.35713421984
 20
-17482.61294612783
 30
0.0000000000000014
 10
19238.35713421984
 20
-17482.61294612783
 30
0.0000000000000014
 10
19238.35713421984
 20
-17482.61294612783
 30
0.0000000000000014
 10
19238.35713421984
 20
-17482.61294612783
 30
0.0000000000000014
 10
19238.35713421984
 20
-17482.61294612783
 30
0.0000000000000014
 10
19238.35713421984
 20
-17482.61294612783
 30
0.0000000000000014
 10
19253.86904792131
 20
-17482.61294612783
 30
0.0000000000000014
 10
19253.86904792131
 20
-17482.61294612783
 30
0.0000000000000014
 10
19253.86904792131
 20
-17482.61294612783
 30
0.0000000000000014
 10
19255.69670259877
 20
-17482.74894205084
 30
0.0000000000000014
 10
19255.69670259877
 20
-17482.74894205084
 30
0.0000000000000014
 10
19255.69670259877
 20
-17482.74894205084
 30
0.0000000000000014
 10
19258.63604898155
 20
-17482.7544983045
 30
0.0000000000000014
 10
19258.63604898155
 20
-17482.7544983045
 30
0.0000000000000014
 10
19258.63604898155
 20
-17482.7544983045
 30
0.0000000000000014
 10
19259.97325403003
 20
-17482.81746917936
 30
0.0000000000000014
 10
19260.00465127296
 20
-17484.45365359167
 30
0.0000000000000014
  0
POLYLINE
  5
3A97A3
330
18
100
AcDbEntity
  8
姿図
 62
     8
100
AcDb2dPolyline
 66
     1
 10
0.0
 20
0.0
 30
0.0000000000000014
  0
VERTEX
  5
3A97A4
330
3A97A3
100
AcDbEntity
  8
姿図
 62
     8
100
AcDbVertex
100
AcDb2dVertex
 10
19256.43347947352
 20
-17482.7544983045
 30
0.0000000000000014
  0
VERTEX
  5
3A97A5
330
3A97A3
100
AcDbEntity
  8
姿図
 62
     8
100
AcDbVertex
100
AcDb2dVertex
 10
19256.43347947352
 20
-17481.18128476706
 30
0.0000000000000014
  0
VERTEX
  5
3A97A6
330
3A97A3
100
AcDbEntity
  8
姿図
 62
     8
100
AcDbVertex
100
AcDb2dVertex
 10
19253.68022349124
 20
-17480.81951091738
 30
0.0000000000000014
  0
VERTEX
  5
3A97A7
330
3A97A3
100
AcDbEntity
  8
姿図
 62
     8
100
AcDbVertex
100
AcDb2dVertex
 10
19240.3236070444
 20
-17480.81951091738
 30
0.0000000000000014
  0
SEQEND
  5
3A97A8
330
3A97A3
100
AcDbEntity
  8
姿図
 62
     8
  0
POLYLINE
  5
3A97A9
330
18
100
AcDbEntity
  8
姿図
 62
     8
100
AcDb2dPolyline
 66
     1
 10
0.0
 20
0.0
 30
0.0000000000000014
  0
VERTEX
  5
3A97AA
330
3A97A9
100
AcDbEntity
  8
姿図
 62
     8
100
AcDbVertex
100
AcDb2dVertex
 10
19253.68022349124
 20
-17480.81951091738
 30
0.0000000000000014
  0
VERTEX
  5
3A97AB
330
3A97A9
100
AcDbEntity
  8
姿図
 62
     8
100
AcDbVertex
100
AcDb2dVertex
 10
19253.68022349124
 20
-17482.61294612783
 30
0.0000000000000014
  0
SEQEND
  5
3A97AC
330
3A97A9
100
AcDbEntity
  8
姿図
 62
     8
  0
SPLINE
  5
3A97AD
330
18
100
AcDbEntity
  8
姿図
 62
     8
100
AcDbSpline
210
0.0
220
0.0
230
1.0
 70
     8
 71
     3
 72
    23
 73
    19
 74
     0
 42
0.000000001
 43
0.0000000001
 40
0.0
 40
0.0
 40
0.0
 40
0.0
 40
1.0
 40
1.0
 40
1.0
 40
2.0
 40
2.0
 40
2.0
 40
3.0
 40
3.0
 40
3.0
 40
4.0
 40
4.0
 40
4.0
 40
5.0
 40
5.0
 40
5.0
 40
6.0
 40
6.0
 40
6.0
 40
6.0
 10
19258.63604898155
 20
-17483.41525151801
 30
0.0000000000000014
 10
19258.63604898155
 20
-17483.41525151801
 30
0.0000000000000014
 10
19255.69670259877
 20
-17483.41525151801
 30
0.0000000000000014
 10
19255.69670259877
 20
-17483.41525151801
 30
0.0000000000000014
 10
19255.69670259877
 20
-17483.41525151801
 30
0.0000000000000014
 10
19253.68022349124
 20
-17483.24221390391
 30
0.0000000000000014
 10
19253.68022349124
 20
-17483.24221390391
 30
0.0000000000000014
 10
19253.68022349124
 20
-17483.24221390391
 30
0.0000000000000014
 10
19238.35713421984
 20
-17483.24221390391
 30
0.0000000000000014
 10
19238.35713421984
 20
-17483.24221390391
 30
0.0000000000000014
 10
19238.35713421984
 20
-17483.24221390391
 30
0.0000000000000014
 10
19238.05815485602
 20
-17483.41525151801
 30
0.0000000000000014
 10
19238.05815485602
 20
-17483.41525151801
 30
0.0000000000000014
 10
19238.05815485602
 20
-17483.41525151801
 30
0.0000000000000014
 10
19233.9048111449
 20
-17483.41525151801
 30
0.0000000000000014
 10
19233.9048111449
 20
-17483.41525151801
 30
0.0000000000000014
 10
19233.9048111449
 20
-17483.41525151801
 30
0.0000000000000014
 10
19233.02392445289
 20
-17483.52549464627
 30
0.0000000000000014
 10
19233.02392445289
 20
-17484.45365359167
 30
0.0000000000000014
  0
POLYLINE
  5
3A97AE
330
18
100
AcDbEntity
  8
姿図
 62
     8
100
AcDb2dPolyline
 66
     1
 10
0.0
 20
0.0
 30
0.0000000000000014
  0
VERTEX
  5
3A97AF
330
3A97AE
100
AcDbEntity
  8
姿図
 62
     8
100
AcDbVertex
100
AcDb2dVertex
 10
19238.35713421984
 20
-17483.24221390391
 30
0.0000000000000014
  0
VERTEX
  5
3A97B0
330
3A97AE
100
AcDbEntity
  8
姿図
 62
     8
100
AcDbVertex
100
AcDb2dVertex
 10
19238.35713421984
 20
-17482.61294612783
 30
0.0000000000000014
  0
VERTEX
  5
3A97B1
330
3A97AE
100
AcDbEntity
  8
姿図
 62
     8
100
AcDbVertex
100
AcDb2dVertex
 10
19238.35713421984
 20
-17480.81951091738
 30
0.0000000000000014
  0
SEQEND
  5
3A97B2
330
3A97AE
100
AcDbEntity
  8
姿図
 62
     8
  0
SPLINE
  5
3A97B3
330
18
100
AcDbEntity
  8
姿図
 62
     8
100
AcDbSpline
210
0.0
220
0.0
230
1.0
 70
     8
 71
     3
 72
    14
 73
    10
 74
     0
 42
0.000000001
 43
0.0000000001
 40
0.0
 40
0.0
 40
0.0
 40
0.0
 40
1.0
 40
1.0
 40
1.0
 40
2.0
 40
2.0
 40
2.0
 40
3.0
 40
3.0
 40
3.0
 40
3.0
 10
19238.05815485602
 20
-17483.41525151801
 30
0.0000000000000014
 10
19238.05815485602
 20
-17483.41525151801
 30
0.0000000000000014
 10
19238.05815485602
 20
-17482.7544983045
 30
0.0000000000000014
 10
19238.05815485602
 20
-17482.7544983045
 30
0.0000000000000014
 10
19238.05815485602
 20
-17482.7544983045
 30
0.0000000000000014
 10
19233.9048111449
 20
-17482.7544983045
 30
0.0000000000000014
 10
19233.9048111449
 20
-17482.7544983045
 30
0.0000000000000014
 10
19233.9048111449
 20
-17482.7544983045
 30
0.0000000000000014
 10
19232.50472341606
 20
-17482.86474143276
 30
0.0000000000000014
 10
19232.50472341606
 20
-17484.45365359167
 30
0.0000000000000014
  0
POLYLINE
  5
3A97B4
330
18
100
AcDbEntity
  8
姿図
 62
     8
100
AcDb2dPolyline
 66
     1
 10
0.0
 20
0.0
 30
0.0000000000000014
  0
VERTEX
  5
3A97B5
330
3A97B4
100
AcDbEntity
  8
姿図
 62
     8
100
AcDbVertex
100
AcDb2dVertex
 10
19253.86904792131
 20
-17483.24221390391
 30
0.0000000000000014
  0
VERTEX
  5
3A97B6
330
3A97B4
100
AcDbEntity
  8
姿図
 62
     8
100
AcDbVertex
100
AcDb2dVertex
 10
19253.86904792131
 20
-17482.61294612783
 30
0.0000000000000014
  0
SEQEND
  5
3A97B7
330
3A97B4
100
AcDbEntity
  8
姿図
 62
     8
  0
POLYLINE
  5
3A97B8
330
18
100
AcDbEntity
  8
姿図
 62
     8
100
AcDb2dPolyline
 66
     1
 10
0.0
 20
0.0
 30
0.0000000000000014
  0
VERTEX
  5
3A97B9
330
3A97B8
100
AcDbEntity
  8
姿図
 62
     8
100
AcDbVertex
100
AcDb2dVertex
 10
19255.69670259877
 20
-17483.41525151801
 30
0.0000000000000014
  0
VERTEX
  5
3A97BA
330
3A97B8
100
AcDbEntity
  8
姿図
 62
     8
100
AcDbVertex
100
AcDb2dVertex
 10
19255.69670259877
 20
-17482.74894205084
 30
0.0000000000000014
  0
SEQEND
  5
3A97BB
330
3A97B8
100
AcDbEntity
  8
姿図
 62
     8
  0
SPLINE
  5
3A97BC
330
18
100
AcDbEntity
  8
姿図
 62
     8
100
AcDbSpline
210
0.0
220
0.0
230
1.0
 70
     8
 71
     3
 72
    17
 73
    13
 74
     0
 42
0.000000001
 43
0.0000000001
 40
0.0
 40
0.0
 40
0.0
 40
0.0
 40
1.0
 40
1.0
 40
1.0
 40
2.0
 40
2.0
 40
2.0
 40
3.0
 40
3.0
 40
3.0
 40
4.0
 40
4.0
 40
4.0
 40
4.0
 10
19239.76260181334
 20
-17483.96897376782
 30
0.0000000000000014
 10
19239.76260181334
 20
-17483.96897376782
 30
0.0000000000000014
 10
19239.04928467628
 20
-17483.96897376782
 30
0.0000000000000014
 10
19239.04928467628
 20
-17483.96897376782
 30
0.0000000000000014
 10
19239.04928467628
 20
-17483.96897376782
 30
0.0000000000000014
 10
19238.45150233763
 20
-17483.8903042715
 30
0.0000000000000014
 10
19238.45150233763
 20
-17483.8903042715
 30
0.0000000000000014
 10
19238.45150233763
 20
-17483.8903042715
 30
0.0000000000000014
 10
19236.64228031122
 20
-17483.8903042715
 30
0.0000000000000014
 10
19236.64228031122
 20
-17483.8903042715
 30
0.0000000000000014
 10
19236.64228031122
 20
-17483.8903042715
 30
0.0000000000000014
 10
19236.26471964557
 20
-17484.20498225679
 30
0.0000000000000014
 10
19236.26471964557
 20
-17484.77136735251
 30
0.0000000000000014
  0
POLYLINE
  5
3A97BD
330
18
100
AcDbEntity
  8
姿図
 62
     8
100
AcDb2dPolyline
 66
     1
 10
0.0
 20
0.0
 30
0.0000000000000014
  0
VERTEX
  5
3A97BE
330
3A97BD
100
AcDbEntity
  8
姿図
 62
     8
100
AcDbVertex
100
AcDb2dVertex
 10
19252.78892984792
 20
-17483.96897376782
 30
0.0000000000000014
  0
VERTEX
  5
3A97BF
330
3A97BD
100
AcDbEntity
  8
姿図
 62
     8
100
AcDbVertex
100
AcDb2dVertex
 10
19241.74009895072
 20
-17483.96897376782
 30
0.0000000000000014
  0
SEQEND
  5
3A97C0
330
3A97BD
100
AcDbEntity
  8
姿図
 62
     8
  0
POLYLINE
  5
3A97C1
330
18
100
AcDbEntity
  8
姿図
 62
     8
100
AcDb2dPolyline
 66
     1
 10
0.0
 20
0.0
 30
0.0000000000000014
  0
VERTEX
  5
3A97C2
330
3A97C1
100
AcDbEntity
  8
姿図
 62
     8
100
AcDbVertex
100
AcDb2dVertex
 10
19255.81982212441
 20
-17483.8903042715
 30
0.0000000000000014
  0
VERTEX
  5
3A97C3
330
3A97C1
100
AcDbEntity
  8
姿図
 62
     8
100
AcDbVertex
100
AcDb2dVertex
 10
19254.73167835128
 20
-17483.9411924995
 30
0.0000000000000014
  0
SEQEND
  5
3A97C4
330
3A97C1
100
AcDbEntity
  8
姿図
 62
     8
  0
POLYLINE
  5
3A97C5
330
18
100
AcDbEntity
  8
姿図
 62
     8
100
AcDb2dPolyline
 66
     1
 10
0.0
 20
0.0
 30
0.0000000000000014
  0
VERTEX
  5
3A97C6
330
3A97C5
100
AcDbEntity
  8
姿図
 62
     8
100
AcDbVertex
100
AcDb2dVertex
 10
19255.81982212441
 20
-17483.57259051066
 30
0.0000000000000014
  0
VERTEX
  5
3A97C7
330
3A97C5
100
AcDbEntity
  8
姿図
 62
     8
100
AcDbVertex
100
AcDb2dVertex
 10
19255.81982212441
 20
-17483.57259051066
 30
0.0000000000000014
  0
SEQEND
  5
3A97C8
330
3A97C5
100
AcDbEntity
  8
姿図
 62
     8
  0
POLYLINE
  5
3A97C9
330
18
100
AcDbEntity
  8
姿図
 62
     8
100
AcDb2dPolyline
 66
     1
 10
0.0
 20
0.0
 30
0.0000000000000014
  0
VERTEX
  5
3A97CA
330
3A97C9
100
AcDbEntity
  8
姿図
 62
     8
100
AcDbVertex
100
AcDb2dVertex
 10
19238.45150233763
 20
-17483.57259051066
 30
0.0000000000000014
  0
VERTEX
  5
3A97CB
330
3A97C9
100
AcDbEntity
  8
姿図
 62
     8
100
AcDbVertex
100
AcDb2dVertex
 10
19238.45150233763
 20
-17483.57259051066
 30
0.0000000000000014
  0
SEQEND
  5
3A97CC
330
3A97C9
100
AcDbEntity
  8
姿図
 62
     8
  0
SPLINE
  5
3A97CD
330
18
100
AcDbEntity
  8
姿図
 62
     8
100
AcDbSpline
210
0.0
220
0.0
230
1.0
 70
     8
 71
     3
 72
    17
 73
    13
 74
     0
 42
0.000000001
 43
0.0000000001
 40
0.0
 40
0.0
 40
0.0
 40
0.0
 40
1.0
 40
1.0
 40
1.0
 40
2.0
 40
2.0
 40
2.0
 40
3.0
 40
3.0
 40
3.0
 40
4.0
 40
4.0
 40
4.0
 40
4.0
 10
19258.63604898155
 20
-17483.41525151801
 30
0.0000000000000014
 10
19258.63604898155
 20
-17483.41525151801
 30
0.0000000000000014
 10
19259.26514036862
 20
-17483.52549464627
 30
0.0000000000000014
 10
19259.24944174716
 20
-17484.45365359167
 30
0.0000000000000014
 10
19259.24944174716
 20
-17484.45365359167
 30
0.0000000000000014
 10
19258.65174760301
 20
-17519.72528101802
 30
0.0000000000000014
 10
19258.65174760301
 20
-17519.72528101802
 30
0.0000000000000014
 10
19258.65174760301
 20
-17519.72528101802
 30
0.0000000000000014
 10
19258.46283497844
 20
-17521.86487965119
 30
0.0000000000000014
 10
19259.12358819195
 20
-17522.14798400454
 30
0.0000000000000014
 10
19259.12358819195
 20
-17522.14798400454
 30
0.0000000000000014
 10
19260.23386878522
 20
-17522.14798400454
 30
0.0000000000000014
 10
19260.23386878522
 20
-17522.14798400454
 30
0.0000000000000014
  0
POLYLINE
  5
3A97CE
330
18
100
AcDbEntity
  8
姿図
 62
     8
100
AcDb2dPolyline
 66
     1
 10
0.0
 20
0.0
 30
0.0000000000000014
  0
VERTEX
  5
3A97CF
330
3A97CE
100
AcDbEntity
  8
姿図
 62
     8
100
AcDbVertex
100
AcDb2dVertex
 10
19259.29997719715
 20
-17519.85122276773
 30
0.0000000000000014
  0
VERTEX
  5
3A97D0
330
3A97CE
100
AcDbEntity
  8
姿図
 62
     8
100
AcDbVertex
100
AcDb2dVertex
 10
19260.00465127296
 20
-17484.45365359167
 30
0.0000000000000014
  0
SEQEND
  5
3A97D1
330
3A97CE
100
AcDbEntity
  8
姿図
 62
     8
  0
SPLINE
  5
3A97D2
330
18
100
AcDbEntity
  8
姿図
 62
     8
100
AcDbSpline
210
0.0
220
0.0
230
1.0
 70
     8
 71
     3
 72
    14
 73
    10
 74
     0
 42
0.000000001
 43
0.0000000001
 40
0.0
 40
0.0
 40
0.0
 40
0.0
 40
1.0
 40
1.0
 40
1.0
 40
2.0
 40
2.0
 40
2.0
 40
3.0
 40
3.0
 40
3.0
 40
3.0
 10
19258.57298991219
 20
-17482.74894205084
 30
0.0000000000000014
 10
19258.57298991219
 20
-17482.74894205084
 30
0.0000000000000014
 10
19261.5777766159
 20
-17483.08205268718
 30
0.0000000000000014
 10
19261.5777766159
 20
-17483.08205268718
 30
0.0000000000000014
 10
19261.5777766159
 20
-17483.08205268718
 30
0.0000000000000014
 10
19262.58460505763
 20
-17483.41525151801
 30
0.0000000000000014
 10
19262.61617868956
 20
-17484.45365359167
 30
0.0000000000000014
 10
19262.61617868956
 20
-17484.45365359167
 30
0.0000000000000014
 10
19261.09993880079
 20
-17519.19840705946
 30
0.0000000000000014
 10
19261.09993880079
 20
-17519.19840705946
 30
0.0000000000000014
  0
POLYLINE
  5
3A97D3
330
18
100
AcDbEntity
  8
姿図
 62
     8
100
AcDb2dPolyline
 66
     1
 10
0.0
 20
0.0
 30
0.0000000000000014
  0
VERTEX
  5
3A97D4
330
3A97D3
100
AcDbEntity
  8
姿図
 62
     8
100
AcDbVertex
100
AcDb2dVertex
 10
19255.81982212441
 20
-17483.8903042715
 30
0.0000000000000014
  0
VERTEX
  5
3A97D5
330
3A97D3
100
AcDbEntity
  8
姿図
 62
     8
100
AcDbVertex
100
AcDb2dVertex
 10
19258.93291167732
 20
-17483.8903042715
 30
0.0000000000000014
  0
SEQEND
  5
3A97D6
330
3A97D3
100
AcDbEntity
  8
姿図
 62
     8
  0
SPLINE
  5
3A97D7
330
18
100
AcDbEntity
  8
姿図
 62
     8
100
AcDbSpline
210
0.0
220
0.0
230
1.0
 70
     8
 71
     3
 72
    11
 73
     7
 74
     0
 42
0.000000001
 43
0.0000000001
 40
0.0
 40
0.0
 40
0.0
 40
0.0
 40
1.0
 40
1.0
 40
1.0
 40
2.0
 40
2.0
 40
2.0
 40
2.0
 10
19240.3236952389
 20
-17480.54416768025
 30
0.0000000000000014
 10
19240.3236952389
 20
-17480.4442433088
 30
0.0000000000000014
 10
19240.52089814673
 20
-17480.36328075541
 30
0.0000000000000014
 10
19240.76413858491
 20
-17480.36328075541
 30
0.0000000000000014
 10
19241.00746721759
 20
-17480.36328075541
 30
0.0000000000000014
 10
19241.20467012541
 20
-17480.4442433088
 30
0.0000000000000014
 10
19241.20467012541
 20
-17480.54416768025
 30
0.0000000000000014
  0
POLYLINE
  5
3A97D8
330
18
100
AcDbEntity
  8
姿図
 62
     8
100
AcDb2dPolyline
 66
     1
 10
0.0
 20
0.0
 30
0.0000000000000014
  0
VERTEX
  5
3A97D9
330
3A97D8
100
AcDbEntity
  8
姿図
 62
     8
100
AcDbVertex
100
AcDb2dVertex
 10
19240.3236952389
 20
-17480.54416768025
 30
0.0000000000000014
  0
VERTEX
  5
3A97DA
330
3A97D8
100
AcDbEntity
  8
姿図
 62
     8
100
AcDbVertex
100
AcDb2dVertex
 10
19240.3236952389
 20
-17480.81942272288
 30
0.0000000000000014
  0
SEQEND
  5
3A97DB
330
3A97D8
100
AcDbEntity
  8
姿図
 62
     8
  0
POLYLINE
  5
3A97DC
330
18
100
AcDbEntity
  8
姿図
 62
     8
100
AcDb2dPolyline
 66
     1
 10
0.0
 20
0.0
 30
0.0000000000000014
  0
VERTEX
  5
3A97DD
330
3A97DC
100
AcDbEntity
  8
姿図
 62
     8
100
AcDbVertex
100
AcDb2dVertex
 10
19241.20467012541
 20
-17480.54416768025
 30
0.0000000000000014
  0
VERTEX
  5
3A97DE
330
3A97DC
100
AcDbEntity
  8
姿図
 62
     8
100
AcDbVertex
100
AcDb2dVertex
 10
19241.20467012541
 20
-17480.81942272288
 30
0.0000000000000014
  0
SEQEND
  5
3A97DF
330
3A97DC
100
AcDbEntity
  8
姿図
 62
     8
  0
SPLINE
  5
3A97E0
330
18
100
AcDbEntity
  8
姿図
 62
     8
100
AcDbSpline
210
0.0
220
0.0
230
1.0
 70
    11
 71
     3
 72
    17
 73
    13
 74
     0
 42
0.000000001
 43
0.0000000001
 40
0.0
 40
0.0
 40
0.0
 40
0.0
 40
1.0
 40
1.0
 40
1.0
 40
2.0
 40
2.0
 40
2.0
 40
3.0
 40
3.0
 40
3.0
 40
4.0
 40
4.0
 40
4.0
 40
4.0
 10
19241.66874959811
 20
-17484.0956721056
 30
0.0000000000000014
 10
19241.66874959811
 20
-17484.19347980899
 30
0.0000000000000014
 10
19241.26376044216
 20
-17484.27267847233
 30
0.0000000000000014
 10
19240.76422677941
 20
-17484.27267847233
 30
0.0000000000000014
 10
19240.26451672766
 20
-17484.27267847233
 30
0.0000000000000014
 10
19239.8596157662
 20
-17484.19347980899
 30
0.0000000000000014
 10
19239.8596157662
 20
-17484.0956721056
 30
0.0000000000000014
 10
19239.8596157662
 20
-17483.99795259672
 30
0.0000000000000014
 10
19240.26451672766
 20
-17483.91866573888
 30
0.0000000000000014
 10
19240.76422677941
 20
-17483.91866573888
 30
0.0000000000000014
 10
19241.26376044216
 20
-17483.91866573888
 30
0.0000000000000014
 10
19241.66874959811
 20
-17483.99795259672
 30
0.0000000000000014
 10
19241.66874959811
 20
-17484.0956721056
 30
0.0000000000000014
  0
SPLINE
  5
3A97E1
330
18
100
AcDbEntity
  8
姿図
 62
     8
100
AcDbSpline
210
0.0
220
0.0
230
1.0
 70
     8
 71
     3
 72
    11
 73
     7
 74
     0
 42
0.000000001
 43
0.0000000001
 40
0.0
 40
0.0
 40
0.0
 40
0.0
 40
1.0
 40
1.0
 40
1.0
 40
2.0
 40
2.0
 40
2.0
 40
2.0
 10
19239.82292685312
 20
-17483.56059605831
 30
0.0000000000000014
 10
19239.82292685312
 20
-17483.4588196023
 30
0.0000000000000014
 10
19240.24432018656
 20
-17483.37644593687
 30
0.0000000000000014
 10
19240.76422677941
 20
-17483.37644593687
 30
0.0000000000000014
 10
19241.28404517776
 20
-17483.37644593687
 30
0.0000000000000014
 10
19241.70535031669
 20
-17483.4588196023
 30
0.0000000000000014
 10
19241.70535031669
 20
-17483.56059605831
 30
0.0000000000000014
  0
SPLINE
  5
3A97E2
330
18
100
AcDbEntity
  8
姿図
 62
     8
100
AcDbSpline
210
0.0
220
0.0
230
1.0
 70
     8
 71
     3
 72
     8
 73
     4
 74
     0
 42
0.000000001
 43
0.0000000001
 40
0.0
 40
0.0
 40
0.0
 40
0.0
 40
1.0
 40
1.0
 40
1.0
 40
1.0
 10
19239.8596157662
 20
-17484.0956721056
 30
0.0000000000000014
 10
19239.8596157662
 20
-17484.0956721056
 30
0.0000000000000014
 10
19239.60535101519
 20
-17483.80022052188
 30
0.0000000000000014
 10
19239.82292685312
 20
-17483.56059605831
 30
0.0000000000000014
  0
SPLINE
  5
3A97E3
330
18
100
AcDbEntity
  8
姿図
 62
     8
100
AcDbSpline
210
0.0
220
0.0
230
1.0
 70
     8
 71
     3
 72
     8
 73
     4
 74
     0
 42
0.000000001
 43
0.0000000001
 40
0.0
 40
0.0
 40
0.0
 40
0.0
 40
1.0
 40
1.0
 40
1.0
 40
1.0
 10
19241.64299680335
 20
-17484.0956721056
 30
0.0000000000000014
 10
19241.64299680335
 20
-17484.0956721056
 30
0.0000000000000014
 10
19241.89726155436
 20
-17483.80022052188
 30
0.0000000000000014
 10
19241.67968571644
 20
-17483.56059605831
 30
0.0000000000000014
  0
SPLINE
  5
3A97E4
330
18
100
AcDbEntity
  8
姿図
 62
     8
100
AcDbSpline
210
0.0
220
0.0
230
1.0
 70
     8
 71
     3
 72
    11
 73
     7
 74
     0
 42
0.000000001
 43
0.0000000001
 40
0.0
 40
0.0
 40
0.0
 40
0.0
 40
1.0
 40
1.0
 40
1.0
 40
2.0
 40
2.0
 40
2.0
 40
2.0
 10
19253.34984688448
 20
-17480.54416768025
 30
0.0000000000000014
 10
19253.34984688448
 20
-17480.4442433088
 30
0.0000000000000014
 10
19253.54713798681
 20
-17480.36328075541
 30
0.0000000000000014
 10
19253.79037842499
 20
-17480.36328075541
 30
0.0000000000000014
 10
19254.03370705768
 20
-17480.36328075541
 30
0.0000000000000014
 10
19254.23090996549
 20
-17480.4442433088
 30
0.0000000000000014
 10
19254.23090996549
 20
-17480.54416768025
 30
0.0000000000000014
  0
POLYLINE
  5
3A97E5
330
18
100
AcDbEntity
  8
姿図
 62
     8
100
AcDb2dPolyline
 66
     1
 10
0.0
 20
0.0
 30
0.0000000000000014
  0
VERTEX
  5
3A97E6
330
3A97E5
100
AcDbEntity
  8
姿図
 62
     8
100
AcDbVertex
100
AcDb2dVertex
 10
19253.34984688448
 20
-17480.54416768025
 30
0.0000000000000014
  0
VERTEX
  5
3A97E7
330
3A97E5
100
AcDbEntity
  8
姿図
 62
     8
100
AcDbVertex
100
AcDb2dVertex
 10
19253.34984688448
 20
-17480.81942272288
 30
0.0000000000000014
  0
SEQEND
  5
3A97E8
330
3A97E5
100
AcDbEntity
  8
姿図
 62
     8
  0
POLYLINE
  5
3A97E9
330
18
100
AcDbEntity
  8
姿図
 62
     8
100
AcDb2dPolyline
 66
     1
 10
0.0
 20
0.0
 30
0.0000000000000014
  0
VERTEX
  5
3A97EA
330
3A97E9
100
AcDbEntity
  8
姿図
 62
     8
100
AcDbVertex
100
AcDb2dVertex
 10
19254.23090996549
 20
-17480.54416768025
 30
0.0000000000000014
  0
VERTEX
  5
3A97EB
330
3A97E9
100
AcDbEntity
  8
姿図
 62
     8
100
AcDbVertex
100
AcDb2dVertex
 10
19254.23090996549
 20
-17480.89183040951
 30
0.0000000000000014
  0
SEQEND
  5
3A97EC
330
3A97E9
100
AcDbEntity
  8
姿図
 62
     8
  0
SPLINE
  5
3A97ED
330
18
100
AcDbEntity
  8
姿図
 62
     8
100
AcDbSpline
210
0.0
220
0.0
230
1.0
 70
    11
 71
     3
 72
    17
 73
    13
 74
     0
 42
0.000000001
 43
0.0000000001
 40
0.0
 40
0.0
 40
0.0
 40
0.0
 40
1.0
 40
1.0
 40
1.0
 40
2.0
 40
2.0
 40
2.0
 40
3.0
 40
3.0
 40
3.0
 40
4.0
 40
4.0
 40
4.0
 40
4.0
 10
19254.69498943819
 20
-17484.0956721056
 30
0.0000000000000014
 10
19254.69498943819
 20
-17484.19347980899
 30
0.0000000000000014
 10
19254.29000028224
 20
-17484.27267847233
 30
0.0000000000000014
 10
19253.79055481399
 20
-17484.27267847233
 30
0.0000000000000014
 10
19253.29084476224
 20
-17484.27267847233
 30
0.0000000000000014
 10
19252.88585560628
 20
-17484.19347980899
 30
0.0000000000000014
 10
19252.88585560628
 20
-17484.0956721056
 30
0.0000000000000014
 10
19252.88585560628
 20
-17483.99795259672
 30
0.0000000000000014
 10
19253.29084476224
 20
-17483.91866573888
 30
0.0000000000000014
 10
19253.79055481399
 20
-17483.91866573888
 30
0.0000000000000014
 10
19254.29000028224
 20
-17483.91866573888
 30
0.0000000000000014
 10
19254.69498943819
 20
-17483.99795259672
 30
0.0000000000000014
 10
19254.69498943819
 20
-17484.0956721056
 30
0.0000000000000014
  0
SPLINE
  5
3A97EE
330
18
100
AcDbEntity
  8
姿図
 62
     8
100
AcDbSpline
210
0.0
220
0.0
230
1.0
 70
     8
 71
     3
 72
    11
 73
     7
 74
     0
 42
0.000000001
 43
0.0000000001
 40
0.0
 40
0.0
 40
0.0
 40
0.0
 40
1.0
 40
1.0
 40
1.0
 40
2.0
 40
2.0
 40
2.0
 40
2.0
 10
19252.8491666932
 20
-17483.56059605831
 30
0.0000000000000014
 10
19252.8491666932
 20
-17483.4588196023
 30
0.0000000000000014
 10
19253.27056002664
 20
-17483.37644593687
 30
0.0000000000000014
 10
19253.79055481399
 20
-17483.37644593687
 30
0.0000000000000014
 10
19254.31037321234
 20
-17483.37644593687
 30
0.0000000000000014
 10
19254.73167835128
 20
-17483.4588196023
 30
0.0000000000000014
 10
19254.73167835128
 20
-17483.56059605831
 30
0.0000000000000014
  0
SPLINE
  5
3A97EF
330
18
100
AcDbEntity
  8
姿図
 62
     8
100
AcDbSpline
210
0.0
220
0.0
230
1.0
 70
     8
 71
     3
 72
     8
 73
     4
 74
     0
 42
0.000000001
 43
0.0000000001
 40
0.0
 40
0.0
 40
0.0
 40
0.0
 40
1.0
 40
1.0
 40
1.0
 40
1.0
 10
19252.88585560628
 20
-17484.0956721056
 30
0.0000000000000014
 10
19252.88585560628
 20
-17484.0956721056
 30
0.0000000000000014
 10
19252.63159085528
 20
-17483.80022052188
 30
0.0000000000000014
 10
19252.8491666932
 20
-17483.56059605831
 30
0.0000000000000014
  0
SPLINE
  5
3A97F0
330
18
100
AcDbEntity
  8
姿図
 62
     8
100
AcDbSpline
210
0.0
220
0.0
230
1.0
 70
     8
 71
     3
 72
     8
 73
     4
 74
     0
 42
0.000000001
 43
0.0000000001
 40
0.0
 40
0.0
 40
0.0
 40
0.0
 40
1.0
 40
1.0
 40
1.0
 40
1.0
 10
19254.66923664344
 20
-17484.0956721056
 30
0.0000000000000014
 10
19254.66923664344
 20
-17484.0956721056
 30
0.0000000000000014
 10
19254.92350139445
 20
-17483.80022052188
 30
0.0000000000000014
 10
19254.70592555652
 20
-17483.56059605831
 30
0.0000000000000014
  0
POLYLINE
  5
3A97F1
330
18
100
AcDbEntity
  8
姿図
 62
     8
100
AcDb2dPolyline
 66
     1
 10
0.0
 20
0.0
 30
0.0000000000000014
  0
VERTEX
  5
3A97F2
330
3A97F1
100
AcDbEntity
  8
姿図
 62
     8
100
AcDbVertex
100
AcDb2dVertex
 10
19236.26471964557
 20
-17484.45365359167
 30
0.0000000000000014
  0
VERTEX
  5
3A97F3
330
3A97F1
100
AcDbEntity
  8
姿図
 62
     8
100
AcDbVertex
100
AcDb2dVertex
 10
19235.65610283877
 20
-17509.64113453938
 30
0.0000000000000014
  0
SEQEND
  5
3A97F4
330
3A97F1
100
AcDbEntity
  8
姿図
 62
     8
  0
POLYLINE
  5
3A97F5
330
18
100
AcDbEntity
  8
姿図
 62
     8
100
AcDb2dPolyline
 66
     1
 10
0.0
 20
0.0
 30
0.0000000000000014
  0
VERTEX
  5
3A97F6
330
3A97F5
100
AcDbEntity
  8
姿図
 62
     8
100
AcDbVertex
100
AcDb2dVertex
 10
19233.02392445289
 20
-17484.45365359167
 30
0.0000000000000014
  0
VERTEX
  5
3A97F7
330
3A97F5
100
AcDbEntity
  8
姿図
 62
     8
100
AcDbVertex
100
AcDb2dVertex
 10
19233.32281562221
 20
-17511.85180499257
 30
0.0000000000000014
  0
SEQEND
  5
3A97F8
330
3A97F5
100
AcDbEntity
  8
姿図
 62
     8
  0
POLYLINE
  5
3A97F9
330
18
100
AcDbEntity
  8
姿図
 62
     8
100
AcDb2dPolyline
 66
     1
 10
0.0
 20
0.0
 30
0.0000000000000014
  0
VERTEX
  5
3A97FA
330
3A97F9
100
AcDbEntity
  8
姿図
 62
     8
100
AcDbVertex
100
AcDb2dVertex
 10
19232.50472341606
 20
-17484.45365359167
 30
0.0000000000000014
  0
VERTEX
  5
3A97FB
330
3A97F9
100
AcDbEntity
  8
姿図
 62
     8
100
AcDbVertex
100
AcDb2dVertex
 10
19232.81835080985
 20
-17512.3712395724
 30
0.0000000000000014
  0
SEQEND
  5
3A97FC
330
3A97F9
100
AcDbEntity
  8
姿図
 62
     8
  0
SPLINE
  5
3A97FD
330
18
100
AcDbEntity
  8
姿図
100
AcDbSpline
210
0.0
220
0.0
230
1.0
 70
     8
 71
     3
 72
     8
 73
     4
 74
     0
 42
0.000000001
 43
0.0000000001
 40
0.0
 40
0.0
 40
0.0
 40
0.0
 40
1.0
 40
1.0
 40
1.0
 40
1.0
 10
19261.0156248563
 20
-17521.2658625895
 30
0.0000000000000014
 10
19260.84876085738
 20
-17521.79714627319
 30
0.0000000000000014
 10
19260.56107038988
 20
-17522.14798400454
 30
0.0000000000000014
 10
19260.23386878522
 20
-17522.14798400454
 30
0.0000000000000014
  0
SPLINE
  5
3A97FE
330
18
100
AcDbEntity
  8
姿図
100
AcDbSpline
210
0.0
220
0.0
230
1.0
 70
     8
 71
     3
 72
    14
 73
    10
 74
     0
 42
0.000000001
 43
0.0000000001
 40
0.0
 40
0.0
 40
0.0
 40
0.0
 40
1.0
 40
1.0
 40
1.0
 40
2.0
 40
2.0
 40
2.0
 40
3.0
 40
3.0
 40
3.0
 40
3.0
 10
19260.23386878522
 20
-17522.14798400454
 30
0.0000000000000014
 10
19259.718107334
 20
-17522.14798400454
 30
0.0000000000000014
 10
19259.29997719715
 20
-17521.27468203976
 30
0.0000000000000014
 10
19259.29997719715
 20
-17520.19729799595
 30
0.0000000000000014
 10
19259.29997719715
 20
-17519.11991395214
 30
0.0000000000000014
 10
19259.718107334
 20
-17518.24643559836
 30
0.0000000000000014
 10
19260.23386878522
 20
-17518.24643559836
 30
0.0000000000000014
 10
19260.55639608125
 20
-17518.24643559836
 30
0.0000000000000014
 10
19260.84064696314
 20
-17518.58757193443
 30
0.0000000000000014
 10
19261.0085692961
 20
-17519.10650838775
 30
0.0000000000000014
  0
SPLINE
  5
3A97FF
330
18
100
AcDbEntity
  8
姿図
100
AcDbSpline
210
0.0
220
0.0
230
1.0
 70
     8
 71
     3
 72
    14
 73
    10
 74
     0
 42
0.000000001
 43
0.0000000001
 40
0.0
 40
0.0
 40
0.0
 40
0.0
 40
1.0
 40
1.0
 40
1.0
 40
2.0
 40
2.0
 40
2.0
 40
3.0
 40
3.0
 40
3.0
 40
3.0
 10
19260.35072650118
 20
-17521.33959319368
 30
0.0000000000000014
 10
19260.04866032976
 20
-17521.33959319368
 30
0.0000000000000014
 10
19259.80374419602
 20
-17520.82806507857
 30
0.0000000000000014
 10
19259.80374419602
 20
-17520.19729799595
 30
0.0000000000000014
 10
19259.80374419602
 20
-17519.56635452433
 30
0.0000000000000014
 10
19260.04866032976
 20
-17519.05482640922
 30
0.0000000000000014
 10
19260.35072650118
 20
-17519.05482640922
 30
0.0000000000000014
 10
19260.35072650118
 20
-17519.05482640922
 30
0.0000000000000014
 10
19260.53223078753
 20
-17518.98056663803
 30
0.0000000000000014
 10
19260.89770880632
 20
-17519.09327921236
 30
0.0000000000000014
  0
SPLINE
  5
3A9800
330
18
100
AcDbEntity
  8
姿図
100
AcDbSpline
210
0.0
220
0.0
230
1.0
 70
    11
 71
     3
 72
    17
 73
    13
 74
     0
 42
0.000000001
 43
0.0000000001
 40
0.0
 40
0.0
 40
0.0
 40
0.0
 40
1.0
 40
1.0
 40
1.0
 40
2.0
 40
2.0
 40
2.0
 40
3.0
 40
3.0
 40
3.0
 40
4.0
 40
4.0
 40
4.0
 40
4.0
 10
19260.89770880632
 20
-17521.30096400154
 30
0.0000000000000014
 10
19260.63418363254
 20
-17521.30096400154
 30
0.0000000000000014
 10
19260.42048835273
 20
-17520.80672200895
 30
0.0000000000000014
 10
19260.42048835273
 20
-17520.19712160695
 30
0.0000000000000014
 10
19260.42048835273
 20
-17519.58752120495
 30
0.0000000000000014
 10
19260.63418363254
 20
-17519.09327921236
 30
0.0000000000000014
 10
19260.89770880632
 20
-17519.09327921236
 30
0.0000000000000014
 10
19261.1611457856
 20
-17519.09327921236
 30
0.0000000000000014
 10
19261.37484106541
 20
-17519.58752120495
 30
0.0000000000000014
 10
19261.37484106541
 20
-17520.19712160695
 30
0.0000000000000014
 10
19261.37484106541
 20
-17520.80672200895
 30
0.0000000000000014
 10
19261.1611457856
 20
-17521.30096400154
 30
0.0000000000000014
 10
19260.89770880632
 20
-17521.30096400154
 30
0.0000000000000014
  0
SPLINE
  5
3A9801
330
18
100
AcDbEntity
  8
姿図
100
AcDbSpline
210
0.0
220
0.0
230
1.0
 70
     8
 71
     3
 72
     8
 73
     4
 74
     0
 42
0.000000001
 43
0.0000000001
 40
0.0
 40
0.0
 40
0.0
 40
0.0
 40
1.0
 40
1.0
 40
1.0
 40
1.0
 10
19260.35072650118
 20
-17521.33959319368
 30
0.0000000000000014
 10
19260.35072650118
 20
-17521.33959319368
 30
0.0000000000000014
 10
19260.53223078753
 20
-17521.41367657586
 30
0.0000000000000014
 10
19260.89770880632
 20
-17521.30096400154
 30
0.0000000000000014
  0
SPLINE
  5
3A9802
330
18
100
AcDbEntity
  8
姿図
100
AcDbSpline
210
0.0
220
0.0
230
1.0
 70
     8
 71
     3
 72
    11
 73
     7
 74
     0
 42
0.000000001
 43
0.0000000001
 40
0.0
 40
0.0
 40
0.0
 40
0.0
 40
1.0
 40
1.0
 40
1.0
 40
2.0
 40
2.0
 40
2.0
 40
2.0
 10
19230.77073130037
 20
-17515.85177846366
 30
0.0000000000000014
 10
19230.98910088881
 20
-17514.91365353946
 30
0.0000000000000014
 10
19231.39673587985
 20
-17514.06098908829
 30
0.0000000000000014
 10
19232.00598350384
 20
-17513.33223791327
 30
0.0000000000000014
 10
19233.13584327669
 20
-17511.98074535537
 30
0.0000000000000014
 10
19234.80818743506
 20
-17511.2364719479
 30
0.0000000000000014
 10
19236.68946437011
 20
-17511.02559889217
 30
0.0000000000000014
  0
SPLINE
  5
3A9803
330
18
100
AcDbEntity
  8
姿図
100
AcDbSpline
210
0.0
220
0.0
230
1.0
 70
     8
 71
     3
 72
    11
 73
     7
 74
     0
 42
0.000000001
 43
0.0000000001
 40
0.0
 40
0.0
 40
0.0
 40
0.0
 40
1.0
 40
1.0
 40
1.0
 40
2.0
 40
2.0
 40
2.0
 40
2.0
 10
19255.44067395771
 20
-17526.53883551118
 30
0.0000000000000014
 10
19255.65507479354
 20
-17528.55672573075
 30
0.0000000000000014
 10
19255.22583214937
 20
-17530.3906422179
 30
0.0000000000000014
 10
19254.06722096866
 20
-17531.77670702082
 30
0.0000000000000014
 10
19253.47005599153
 20
-17532.49090610291
 30
0.0000000000000014
 10
19252.72137285893
 20
-17533.03559535099
 30
0.0000000000000014
 10
19251.85900701247
 20
-17533.41589004621
 30
0.0000000000000014
  0
SPLINE
  5
3A9804
330
18
100
AcDbEntity
  8
姿図
100
AcDbSpline
210
0.0
220
0.0
230
1.0
 70
     8
 71
     3
 72
    11
 73
     7
 74
     0
 42
0.000000001
 43
0.0000000001
 40
0.0
 40
0.0
 40
0.0
 40
0.0
 40
1.0
 40
1.0
 40
1.0
 40
2.0
 40
2.0
 40
2.0
 40
2.0
 10
19240.57055165169
 20
-17511.37079217536
 30
0.0000000000000014
 10
19243.24981244629
 20
-17512.01646412893
 30
0.0000000000000014
 10
19246.14435602175
 20
-17513.40041226379
 30
0.0000000000000014
 10
19248.81982445274
 20
-17515.63720123882
 30
0.0000000000000014
 10
19251.34774348087
 20
-17517.75078249372
 30
0.0000000000000014
 10
19253.23122527848
 20
-17520.23134107396
 30
0.0000000000000014
 10
19254.34168226077
 20
-17522.68350102436
 30
0.0000000000000014
  0
SPLINE
  5
3A9805
330
18
100
AcDbEntity
  8
姿図
100
AcDbSpline
210
0.0
220
0.0
230
1.0
 70
     8
 71
     3
 72
     8
 73
     4
 74
     0
 42
0.000000001
 43
0.0000000001
 40
0.0
 40
0.0
 40
0.0
 40
0.0
 40
1.0
 40
1.0
 40
1.0
 40
1.0
 10
19262.31023196003
 20
-17516.2562384526
 30
0.0000000000000014
 10
19262.3837861752
 20
-17517.78976446388
 30
0.0000000000000014
 10
19262.07854500168
 20
-17519.23421402752
 30
0.0000000000000014
 10
19261.36064175049
 20
-17520.46258705978
 30
0.0000000000000014
  0
SPLINE
  5
3A9806
330
18
100
AcDbEntity
  8
姿図
100
AcDbSpline
210
0.0
220
0.0
230
1.0
 70
     8
 71
     3
 72
    11
 73
     7
 74
     0
 42
0.000000001
 43
0.0000000001
 40
0.0
 40
0.0
 40
0.0
 40
0.0
 40
1.0
 40
1.0
 40
1.0
 40
2.0
 40
2.0
 40
2.0
 40
2.0
 10
19249.64788263769
 20
-17502.69492256522
 30
0.0000000000000014
 10
19252.0259592059
 20
-17503.1888117798
 30
0.0000000000000014
 10
19254.50934001022
 20
-17504.37855561993
 30
0.0000000000000014
 10
19256.72919564075
 20
-17506.23425614922
 30
0.0000000000000014
 10
19257.51139268434
 20
-17506.88830658052
 30
0.0000000000000014
 10
19258.21809523371
 20
-17507.58918829272
 30
0.0000000000000014
 10
19258.84489356372
 20
-17508.32129085883
 30
0.0000000000000014
  0
SPLINE
  5
3A9807
330
18
100
AcDbEntity
  8
姿図
100
AcDbSpline
210
0.0
220
0.0
230
1.0
 70
     8
 71
     3
 72
     8
 73
     4
 74
     0
 42
0.000000001
 43
0.0000000001
 40
0.0
 40
0.0
 40
0.0
 40
0.0
 40
1.0
 40
1.0
 40
1.0
 40
1.0
 10
19241.88024001536
 20
-17504.2184825977
 30
0.0000000000000014
 10
19242.91908306153
 20
-17503.32189728423
 30
0.0000000000000014
 10
19244.22444989457
 20
-17502.76724205735
 30
0.0000000000000014
 10
19245.67886543701
 20
-17502.5450801053
 30
0.0000000000000014
  0
SPLINE
  5
3A9808
330
18
100
AcDbEntity
  8
姿図
100
AcDbSpline
210
0.0
220
0.0
230
1.0
 70
     8
 71
     3
 72
     8
 73
     4
 74
     0
 42
0.000000001
 43
0.0000000001
 40
0.0
 40
0.0
 40
0.0
 40
0.0
 40
1.0
 40
1.0
 40
1.0
 40
1.0
 10
19241.88112196038
 20
-17504.21892357021
 30
0.0000000000000014
 10
19241.88112196038
 20
-17504.21892357021
 30
0.0000000000000014
 10
19233.33225243399
 20
-17511.37581926201
 30
0.0000000000000014
 10
19232.00598350384
 20
-17513.33223791327
 30
0.0000000000000014
  0
SPLINE
  5
3A9809
330
18
100
AcDbEntity
  8
姿図
100
AcDbSpline
210
0.0
220
0.0
230
1.0
 70
     8
 71
     3
 72
     8
 73
     4
 74
     0
 42
0.000000001
 43
0.0000000001
 40
0.0
 40
0.0
 40
0.0
 40
0.0
 40
1.0
 40
1.0
 40
1.0
 40
1.0
 10
19260.42551543938
 20
-17522.10653258832
 30
0.0000000000000014
 10
19259.21592783617
 20
-17524.15476171679
 30
0.0000000000000014
 10
19255.96798888878
 20
-17529.55544027824
 30
0.0000000000000014
 10
19254.06722096866
 20
-17531.77670702082
 30
0.0000000000000014
  0
SPLINE
  5
3A980A
330
18
100
AcDbEntity
  8
姿図
100
AcDbSpline
210
0.0
220
0.0
230
1.0
 70
     8
 71
     3
 72
    11
 73
     7
 74
     0
 42
0.000000001
 43
0.0000000001
 40
0.0
 40
0.0
 40
0.0
 40
0.0
 40
1.0
 40
1.0
 40
1.0
 40
2.0
 40
2.0
 40
2.0
 40
2.0
 10
19231.45035813743
 20
-17515.79321731393
 30
0.0000000000000014
 10
19231.67349022902
 20
-17515.1486918889
 30
0.0000000000000014
 10
19232.00175016771
 20
-17514.55620122041
 30
0.0000000000000014
 10
19232.44051781817
 20
-17514.03144392991
 30
0.0000000000000014
 10
19233.40580664916
 20
-17512.87671330732
 30
0.0000000000000014
 10
19234.788872839
 20
-17512.19003091005
 30
0.0000000000000014
 10
19236.41235724293
 20
-17511.94696686087
 30
0.0000000000000014
  0
SPLINE
  5
3A980B
330
18
100
AcDbEntity
  8
姿図
100
AcDbSpline
210
0.0
220
0.0
230
1.0
 70
     8
 71
     3
 72
    11
 73
     7
 74
     0
 42
0.000000001
 43
0.0000000001
 40
0.0
 40
0.0
 40
0.0
 40
0.0
 40
1.0
 40
1.0
 40
1.0
 40
2.0
 40
2.0
 40
2.0
 40
2.0
 10
19254.68264220783
 20
-17527.20593872887
 30
0.0000000000000014
 10
19254.73432418636
 20
-17528.85341203751
 30
0.0000000000000014
 10
19254.30393501365
 20
-17530.34248801948
 30
0.0000000000000014
 10
19253.33538298605
 20
-17531.50083461668
 30
0.0000000000000014
 10
19252.90181881126
 20
-17532.01941829198
 30
0.0000000000000014
 10
19252.38402888647
 20
-17532.44363384951
 30
0.0000000000000014
 10
19251.79797641667
 20
-17532.77559795731
 30
0.0000000000000014
  0
SPLINE
  5
3A980C
330
18
100
AcDbEntity
  8
姿図
100
AcDbSpline
210
0.0
220
0.0
230
1.0
 70
     8
 71
     3
 72
     8
 73
     4
 74
     0
 42
0.000000001
 43
0.0000000001
 40
0.0
 40
0.0
 40
0.0
 40
0.0
 40
1.0
 40
1.0
 40
1.0
 40
1.0
 10
19252.94873828664
 20
-17522.18820069773
 30
0.0000000000000014
 10
19253.0386966793
 20
-17522.3531244176
 30
0.0000000000000014
 10
19253.12459812483
 20
-17522.51840091548
 30
0.0000000000000014
 10
19253.20644262325
 20
-17522.68332463535
 30
0.0000000000000014
  0
SPLINE
  5
3A980D
330
18
100
AcDbEntity
  8
姿図
100
AcDbSpline
210
0.0
220
0.0
230
1.0
 70
     8
 71
     3
 72
    17
 73
    13
 74
     0
 42
0.000000001
 43
0.0000000001
 40
0.0
 40
0.0
 40
0.0
 40
0.0
 40
1.0
 40
1.0
 40
1.0
 40
2.0
 40
2.0
 40
2.0
 40
3.0
 40
3.0
 40
3.0
 40
4.0
 40
4.0
 40
4.0
 40
4.0
 10
19240.327814178
 20
-17512.37445458834
 30
0.0000000000000014
 10
19240.71951216659
 20
-17512.459200532
 30
0.0000000000000014
 10
19241.19726178719
 20
-17512.5878763113
 30
0.0000000000000014
 10
19241.67889196591
 20
-17512.74283405237
 30
0.0000000000000014
 10
19241.67889196591
 20
-17512.74283405237
 30
0.0000000000000014
 10
19241.82661775778
 20
-17512.52419988042
 30
0.0000000000000014
 10
19241.82661775778
 20
-17512.52419988042
 30
0.0000000000000014
 10
19244.01172475429
 20
-17513.22693367716
 30
0.0000000000000014
 10
19246.27752972068
 20
-17514.46888866283
 30
0.0000000000000014
 10
19248.36544637532
 20
-17516.21443425836
 30
0.0000000000000014
 10
19250.40291577448
 20
-17517.91764649265
 30
0.0000000000000014
 10
19251.99817793758
 20
-17519.87291861538
 30
0.0000000000000014
 10
19253.07662031542
 20
-17521.84900464072
 30
0.0000000000000014
  0
SPLINE
  5
3A980E
330
18
100
AcDbEntity
  8
姿図
100
AcDbSpline
210
0.0
220
0.0
230
1.0
 70
     8
 71
     3
 72
     8
 73
     4
 74
     0
 42
0.000000001
 43
0.0000000001
 40
0.0
 40
0.0
 40
0.0
 40
0.0
 40
1.0
 40
1.0
 40
1.0
 40
1.0
 10
19240.57055165169
 20
-17511.37079217536
 30
0.0000000000000014
 10
19240.57055165169
 20
-17511.37079217536
 30
0.0000000000000014
 10
19249.50465476546
 20
-17502.66449546182
 30
0.0000000000000014
 10
19249.64788263769
 20
-17502.69518714873
 30
0.0000000000000014
  0
SPLINE
  5
3A980F
330
18
100
AcDbEntity
  8
姿図
100
AcDbSpline
210
0.0
220
0.0
230
1.0
 70
     8
 71
     3
 72
    14
 73
    10
 74
     0
 42
0.000000001
 43
0.0000000001
 40
0.0
 40
0.0
 40
0.0
 40
0.0
 40
1.0
 40
1.0
 40
1.0
 40
2.0
 40
2.0
 40
2.0
 40
3.0
 40
3.0
 40
3.0
 40
3.0
 10
19240.57055165169
 20
-17511.37079217536
 30
0.0000000000000014
 10
19240.57055165169
 20
-17511.37079217536
 30
0.0000000000000014
 10
19240.75240871606
 20
-17512.22036981894
 30
0.0000000000000014
 10
19240.75240871606
 20
-17512.22036981894
 30
0.0000000000000014
 10
19240.38966472685
 20
-17512.12556072865
 30
0.0000000000000014
 10
19237.02380972948
 20
-17514.56396233664
 30
0.0000000000000014
 10
19235.37801211639
 20
-17515.7752256354
 30
0.0000000000000014
 10
19235.37801211639
 20
-17515.7752256354
 30
0.0000000000000014
 10
19235.0836188667
 20
-17516.10110432252
 30
0.0000000000000014
 10
19235.37801211639
 20
-17516.17201270261
 30
0.0000000000000014
  0
POLYLINE
  5
3A9810
330
18
100
AcDbEntity
  8
姿図
100
AcDb2dPolyline
 66
     1
 10
0.0
 20
0.0
 30
0.0000000000000014
  0
VERTEX
  5
3A9811
330
3A9810
100
AcDbEntity
  8
姿図
100
AcDbVertex
100
AcDb2dVertex
 10
19236.68946437011
 20
-17511.02559889217
 30
0.0000000000000014
  0
VERTEX
  5
3A9812
330
3A9810
100
AcDbEntity
  8
姿図
100
AcDbVertex
100
AcDb2dVertex
 10
19236.81011444967
 20
-17511.60186177218
 30
0.0000000000000014
  0
SEQEND
  5
3A9813
330
3A9810
100
AcDbEntity
  8
姿図
  0
POLYLINE
  5
3A9814
330
18
100
AcDbEntity
  8
姿図
100
AcDb2dPolyline
 66
     1
 10
0.0
 20
0.0
 30
0.0000000000000014
  0
VERTEX
  5
3A9815
330
3A9814
100
AcDbEntity
  8
姿図
100
AcDbVertex
100
AcDb2dVertex
 10
19246.11842683798
 20
-17502.91708451728
 30
0.0000000000000014
  0
VERTEX
  5
3A9816
330
3A9814
100
AcDbEntity
  8
姿図
100
AcDbVertex
100
AcDb2dVertex
 10
19245.67886543701
 20
-17502.54552107781
 30
0.0000000000000014
  0
VERTEX
  5
3A9817
330
3A9814
100
AcDbEntity
  8
姿図
100
AcDbVertex
100
AcDb2dVertex
 10
19236.68946437011
 20
-17511.02559889217
 30
0.0000000000000014
  0
SEQEND
  5
3A9818
330
3A9814
100
AcDbEntity
  8
姿図
  0
SPLINE
  5
3A9819
330
18
100
AcDbEntity
  8
姿図
100
AcDbSpline
210
0.0
220
0.0
230
1.0
 70
     8
 71
     3
 72
    17
 73
    13
 74
     0
 42
0.000000001
 43
0.0000000001
 40
0.0
 40
0.0
 40
0.0
 40
0.0
 40
1.0
 40
1.0
 40
1.0
 40
2.0
 40
2.0
 40
2.0
 40
3.0
 40
3.0
 40
3.0
 40
4.0
 40
4.0
 40
4.0
 40
4.0
 10
19231.99010849337
 20
-17515.78281036262
 30
0.0000000000000014
 10
19232.30205244907
 20
-17515.68791307782
 30
0.0000000000000014
 10
19232.66400268776
 20
-17515.50499767942
 30
0.0000000000000014
 10
19233.02392445289
 20
-17515.16289120382
 30
0.0000000000000014
 10
19233.02392445289
 20
-17515.16289120382
 30
0.0000000000000014
 10
19245.68830224879
 20
-17503.23343819812
 30
0.0000000000000014
 10
19246.66364525308
 20
-17502.43324947599
 30
0.0000000000000014
 10
19246.66364525308
 20
-17502.43324947599
 30
0.0000000000000014
 10
19247.0097204813
 20
-17502.1524381797
 30
0.0000000000000014
 10
19247.5447083341
 20
-17502.1524381797
 30
0.0000000000000014
 10
19248.07960799239
 20
-17502.1524381797
 30
0.0000000000000014
 10
19249.07744059484
 20
-17502.54613843933
 30
0.0000000000000014
 10
19249.34934424637
 20
-17502.93922133743
 30
0.0000000000000014
  0
POLYLINE
  5
3A981A
330
18
100
AcDbEntity
  8
姿図
100
AcDb2dPolyline
 66
     1
 10
0.0
 20
0.0
 30
0.0000000000000014
  0
VERTEX
  5
3A981B
330
3A981A
100
AcDbEntity
  8
姿図
100
AcDbVertex
100
AcDb2dVertex
 10
19254.34106489925
 20
-17522.68332463535
 30
0.0000000000000014
  0
VERTEX
  5
3A981C
330
3A981A
100
AcDbEntity
  8
姿図
100
AcDbVertex
100
AcDb2dVertex
 10
19258.6918761017
 20
-17516.2562384526
 30
0.0000000000000014
  0
SEQEND
  5
3A981D
330
3A981A
100
AcDbEntity
  8
姿図
  0
POLYLINE
  5
3A981E
330
18
100
AcDbEntity
  8
姿図
100
AcDb2dPolyline
 66
     1
 10
0.0
 20
0.0
 30
0.0000000000000014
  0
VERTEX
  5
3A981F
330
3A981E
100
AcDbEntity
  8
姿図
100
AcDbVertex
100
AcDb2dVertex
 10
19253.20635442875
 20
-17522.68332463535
 30
0.0000000000000014
  0
VERTEX
  5
3A9820
330
3A981E
100
AcDbEntity
  8
姿図
100
AcDbVertex
100
AcDb2dVertex
 10
19254.34106489925
 20
-17522.68332463535
 30
0.0000000000000014
  0
SEQEND
  5
3A9821
330
3A981E
100
AcDbEntity
  8
姿図
  0
POLYLINE
  5
3A9822
330
18
100
AcDbEntity
  8
姿図
100
AcDb2dPolyline
 66
     1
 10
0.0
 20
0.0
 30
0.0000000000000014
  0
VERTEX
  5
3A9823
330
3A9822
100
AcDbEntity
  8
姿図
100
AcDbVertex
100
AcDb2dVertex
 10
19255.44049756871
 20
-17526.53883551118
 30
0.0000000000000014
  0
VERTEX
  5
3A9824
330
3A9822
100
AcDbEntity
  8
姿図
100
AcDbVertex
100
AcDb2dVertex
 10
19258.60897326925
 20
-17522.14798400454
 30
0.0000000000000014
  0
SEQEND
  5
3A9825
330
3A9822
100
AcDbEntity
  8
姿図
  0
SPLINE
  5
3A9826
330
18
100
AcDbEntity
  8
姿図
100
AcDbSpline
210
0.0
220
0.0
230
1.0
 70
     8
 71
     3
 72
    14
 73
    10
 74
     0
 42
0.000000001
 43
0.0000000001
 40
0.0
 40
0.0
 40
0.0
 40
0.0
 40
1.0
 40
1.0
 40
1.0
 40
2.0
 40
2.0
 40
2.0
 40
3.0
 40
3.0
 40
3.0
 40
3.0
 10
19259.12358819195
 20
-17522.14798400454
 30
0.0000000000000014
 10
19259.12358819195
 20
-17522.14798400454
 30
0.0000000000000014
 10
19258.06948749682
 20
-17522.14798400454
 30
0.0000000000000014
 10
19258.06948749682
 20
-17522.14798400454
 30
0.0000000000000014
 10
19258.06948749682
 20
-17522.14798400454
 30
0.0000000000000014
 10
19257.85711513455
 20
-17522.08430757367
 30
0.0000000000000014
 10
19257.33800229222
 20
-17522.81632194528
 30
0.0000000000000014
 10
19256.91158187214
 20
-17523.41745567502
 30
0.0000000000000014
 10
19252.93515633324
 20
-17529.27163036886
 30
0.0000000000000014
 10
19251.52792484969
 20
-17531.34437756905
 30
0.0000000000000014
  0
POLYLINE
  5
3A9827
330
18
100
AcDbEntity
  8
姿図
100
AcDb2dPolyline
 66
     1
 10
0.0
 20
0.0
 30
0.0000000000000014
  0
VERTEX
  5
3A9828
330
3A9827
100
AcDbEntity
  8
姿図
100
AcDbVertex
100
AcDb2dVertex
 10
19254.68669915495
 20
-17527.20593872887
 30
0.0000000000000014
  0
VERTEX
  5
3A9829
330
3A9827
100
AcDbEntity
  8
姿図
100
AcDbVertex
100
AcDb2dVertex
 10
19254.4613622008
 20
-17527.0272566666
 30
0.0000000000000014
  0
SEQEND
  5
3A982A
330
3A9827
100
AcDbEntity
  8
姿図
  0
POLYLINE
  5
3A982B
330
18
100
AcDbEntity
  8
姿図
100
AcDb2dPolyline
 66
     1
 10
0.0
 20
0.0
 30
0.0000000000000014
  0
VERTEX
  5
3A982C
330
3A982B
100
AcDbEntity
  8
姿図
100
AcDbVertex
100
AcDb2dVertex
 10
19253.07635573191
 20
-17521.84900464072
 30
0.0000000000000014
  0
VERTEX
  5
3A982D
330
3A982B
100
AcDbEntity
  8
姿図
100
AcDbVertex
100
AcDb2dVertex
 10
19252.94873828664
 20
-17522.25028962757
 30
0.0000000000000014
  0
SEQEND
  5
3A982E
330
3A982B
100
AcDbEntity
  8
姿図
  0
POLYLINE
  5
3A982F
330
18
100
AcDbEntity
  8
姿図
100
AcDb2dPolyline
 66
     1
 10
0.0
 20
0.0
 30
0.0000000000000014
  0
VERTEX
  5
3A9830
330
3A982F
100
AcDbEntity
  8
姿図
100
AcDbVertex
100
AcDb2dVertex
 10
19255.49376704828
 20
-17526.46492851799
 30
0.0000000000000014
  0
VERTEX
  5
3A9831
330
3A982F
100
AcDbEntity
  8
姿図
100
AcDbVertex
100
AcDb2dVertex
 10
19255.00172991825
 20
-17526.23315336515
 30
0.0000000000000014
  0
SEQEND
  5
3A9832
330
3A982F
100
AcDbEntity
  8
姿図
  0
SPLINE
  5
3A9833
330
18
100
AcDbEntity
  8
姿図
100
AcDbSpline
210
0.0
220
0.0
230
1.0
 70
     8
 71
     3
 72
    14
 73
    10
 74
     0
 42
0.000000001
 43
0.0000000001
 40
0.0
 40
0.0
 40
0.0
 40
0.0
 40
1.0
 40
1.0
 40
1.0
 40
2.0
 40
2.0
 40
2.0
 40
3.0
 40
3.0
 40
3.0
 40
3.0
 10
19250.54546547302
 20
-17528.56528734501
 30
0.0000000000000014
 10
19250.87202233383
 20
-17528.97582600713
 30
0.0000000000000014
 10
19251.03729883171
 20
-17528.4567131648
 30
0.0000000000000014
 10
19251.03729883171
 20
-17528.4567131648
 30
0.0000000000000014
 10
19251.03729883171
 20
-17528.4567131648
 30
0.0000000000000014
 10
19253.34984688448
 20
-17523.4065195567
 30
0.0000000000000014
 10
19253.34984688448
 20
-17523.4065195567
 30
0.0000000000000014
 10
19253.56230744125
 20
-17522.91104284107
 30
0.0000000000000014
 10
19253.34984688448
 20
-17522.68350102436
 30
0.0000000000000014
 10
19253.34984688448
 20
-17522.68350102436
 30
0.0000000000000014
  0
SPLINE
  5
3A9834
330
18
100
AcDbEntity
  8
姿図
100
AcDbSpline
210
0.0
220
0.0
230
1.0
 70
     8
 71
     3
 72
     8
 73
     4
 74
     0
 42
0.000000001
 43
0.0000000001
 40
0.0
 40
0.0
 40
0.0
 40
0.0
 40
1.0
 40
1.0
 40
1.0
 40
1.0
 10
19250.59650270769
 20
-17528.63010355692
 30
0.0000000000000014
 10
19250.56351796372
 20
-17528.59306186583
 30
0.0000000000000014
 10
19250.53159155378
 20
-17528.54861183651
 30
0.0000000000000014
 10
19250.5016936174
 20
-17528.49534235694
 30
0.0000000000000014
  0
SPLINE
  5
3A9835
330
18
100
AcDbEntity
  8
姿図
100
AcDbSpline
210
0.0
220
0.0
230
1.0
 70
     8
 71
     3
 72
    11
 73
     7
 74
     0
 42
0.000000001
 43
0.0000000001
 40
0.0
 40
0.0
 40
0.0
 40
0.0
 40
1.0
 40
1.0
 40
1.0
 40
2.0
 40
2.0
 40
2.0
 40
2.0
 10
19254.57398658062
 20
-17522.33901329718
 30
0.0000000000000014
 10
19254.57398658062
 20
-17522.33901329718
 30
0.0000000000000014
 10
19251.22603506728
 20
-17528.72676473177
 30
0.0000000000000014
 10
19251.22603506728
 20
-17528.72676473177
 30
0.0000000000000014
 10
19251.22603506728
 20
-17528.72676473177
 30
0.0000000000000014
 10
19250.8709639998
 20
-17528.93719681499
 30
0.0000000000000014
 10
19250.59650270769
 20
-17528.63010355692
 30
0.0000000000000014
  0
SPLINE
  5
3A9836
330
18
100
AcDbEntity
  8
姿図
100
AcDbSpline
210
0.0
220
0.0
230
1.0
 70
     8
 71
     3
 72
     8
 73
     4
 74
     0
 42
0.000000001
 43
0.0000000001
 40
0.0039469307402094
 40
0.0039469307402094
 40
0.0039469307402094
 40
0.0039469307402094
 40
1.0
 40
1.0
 40
1.0
 40
1.0
 10
19262.43744038853
 20
-17511.47759571801
 30
0.0000000000000014
 10
19263.15692283881
 20
-17513.52489830319
 30
0.0000000000000014
 10
19263.15823628203
 20
-17515.48807679141
 30
0.0000000000000014
 10
19262.3160527972
 20
-17516.98243198704
 30
0.0000000000000014
  0
SPLINE
  5
3A9837
330
18
100
AcDbEntity
  8
姿図
100
AcDbSpline
210
0.0
220
0.0
230
1.0
 70
     8
 71
     3
 72
     8
 73
     4
 74
     0
 42
0.000000001
 43
0.0000000001
 40
0.0
 40
0.0
 40
0.0
 40
0.0
 40
1.0
 40
1.0
 40
1.0
 40
1.0
 10
19261.52388977481
 20
-17509.48775135027
 30
0.0000000000000014
 10
19261.72770727033
 20
-17509.84732033738
 30
0.0000000000000014
 10
19261.91097544674
 20
-17510.20812404753
 30
0.0000000000000014
 10
19262.07290055352
 20
-17510.56813400716
 30
0.0000000000000014
  0
SPLINE
  5
3A9838
330
18
100
AcDbEntity
  8
姿図
100
AcDbSpline
210
0.0
220
0.0
230
1.0
 70
     8
 71
     3
 72
    11
 73
     7
 74
     0
 42
0.000000001
 43
0.0000000001
 40
0.0
 40
0.0
 40
0.0
 40
0.0
 40
1.0
 40
1.0
 40
1.0
 40
2.0
 40
2.0
 40
2.0
 40
2.0
 10
19255.88949578146
 20
-17503.66832529046
 30
0.0000000000000014
 10
19256.51682327848
 20
-17504.06837555427
 30
0.0000000000000014
 10
19257.13533132524
 20
-17504.52019599111
 30
0.0000000000000014
 10
19257.73602408248
 20
-17505.02228729443
 30
0.0000000000000014
 10
19258.1397785154
 20
-17505.3598076559
 30
0.0000000000000014
 10
19258.5224544622
 20
-17505.70932246972
 30
0.0000000000000014
 10
19258.88343456135
 20
-17506.06818590081
 30
0.0000000000000014
  0
SPLINE
  5
3A9839
330
18
100
AcDbEntity
  8
姿図
100
AcDbSpline
210
0.0
220
0.0
230
1.0
 70
     8
 71
     3
 72
     8
 73
     4
 74
     0
 42
0.000000001
 43
0.0000000001
 40
0.0220224807344469
 40
0.0220224807344469
 40
0.0220224807344469
 40
0.0220224807344469
 40
1.0
 40
1.0
 40
1.0
 40
1.0
 10
19251.37274833197
 20
-17501.70323755007
 30
0.0000000000000014
 10
19252.57298089382
 20
-17501.98817609399
 30
0.0000000000000014
 10
19253.82107369041
 20
-17502.47898778546
 30
0.0000000000000014
 10
19255.05103064521
 20
-17503.16676315415
 30
0.0000000000000014
  0
SPLINE
  5
3A983A
330
18
100
AcDbEntity
  8
姿図
100
AcDbSpline
210
0.0
220
0.0
230
1.0
 70
     8
 71
     3
 72
     8
 73
     4
 74
     0
 42
0.000000001
 43
0.0000000001
 40
0.0
 40
0.0
 40
0.0
 40
0.0
 40
0.9930441751332382
 40
0.9930441751332382
 40
0.9930441751332382
 40
0.9930441751332382
 10
19245.07473309417
 20
-17502.70039062438
 30
0.0000000000000014
 10
19246.35297833049
 20
-17501.59284082935
 30
0.0000000000000014
 10
19248.2322859443
 20
-17501.21220166245
 30
0.0000000000000014
 10
19250.3292733648
 20
-17501.50561659444
 30
0.0000000000000014
  0
POLYLINE
  5
3A983B
330
18
100
AcDbEntity
  8
姿図
100
AcDb2dPolyline
 66
     1
 10
0.0
 20
0.0
 30
0.0000000000000014
  0
VERTEX
  5
3A983C
330
3A983B
100
AcDbEntity
  8
姿図
100
AcDbVertex
100
AcDb2dVertex
 10
19261.14139021702
 20
-17518.24643559836
 30
0.0000000000000014
  0
VERTEX
  5
3A983D
330
3A983B
100
AcDbEntity
  8
姿図
100
AcDbVertex
100
AcDb2dVertex
 10
19262.30996737652
 20
-17516.2562384526
 30
0.0000000000000014
  0
VERTEX
  5
3A983E
330
3A983B
100
AcDbEntity
  8
姿図
100
AcDbVertex
100
AcDb2dVertex
 10
19262.30996737652
 20
-17516.2562384526
 30
0.0000000000000014
  0
VERTEX
  5
3A983F
330
3A983B
100
AcDbEntity
  8
姿図
100
AcDbVertex
100
AcDb2dVertex
 10
19261.60926205333
 20
-17515.97313409924
 30
0.0000000000000014
  0
SEQEND
  5
3A9840
330
3A983B
100
AcDbEntity
  8
姿図
  0
SPLINE
  5
3A9841
330
18
100
AcDbEntity
  8
姿図
100
AcDbSpline
210
0.0
220
0.0
230
1.0
 70
     8
 71
     3
 72
    11
 73
     7
 74
     0
 42
0.000000001
 43
0.0000000001
 40
0.0
 40
0.0
 40
0.0
 40
0.0
 40
1.0
 40
1.0
 40
1.0
 40
2.0
 40
2.0
 40
2.0
 40
2.0
 10
19261.21141665208
 20
-17516.64164842898
 30
0.0000000000000014
 10
19261.21141665208
 20
-17516.64164842898
 30
0.0000000000000014
 10
19262.48247582361
 20
-17514.55717135994
 30
0.0000000000000014
 10
19262.48247582361
 20
-17514.55717135994
 30
0.0000000000000014
 10
19262.48247582361
 20
-17514.55717135994
 30
0.0000000000000014
 10
19262.8140871534
 20
-17513.52388456743
 30
0.0000000000000014
 10
19261.37484106541
 20
-17512.63638328773
 30
0.0000000000000014
  0
SPLINE
  5
3A9842
330
18
100
AcDbEntity
  8
姿図
100
AcDbSpline
210
0.0
220
0.0
230
1.0
 70
     8
 71
     3
 72
    29
 73
    25
 74
     0
 42
0.000000001
 43
0.0000000001
 40
0.0
 40
0.0
 40
0.0
 40
0.0
 40
1.0
 40
1.0
 40
1.0
 40
2.0
 40
2.0
 40
2.0
 40
3.0
 40
3.0
 40
3.0
 40
4.0
 40
4.0
 40
4.0
 40
5.0
 40
5.0
 40
5.0
 40
6.0
 40
6.0
 40
6.0
 40
7.0
 40
7.0
 40
7.0
 40
7.921323331948138
 40
7.921323331948138
 40
7.921323331948138
 40
7.921323331948138
 10
19252.14308150536
 20
-17501.91263732712
 30
0.0000000000000014
 10
19252.14308150536
 20
-17501.91263732712
 30
0.0000000000000014
 10
19252.12270857525
 20
-17501.4103696348
 30
0.0000000000000014
 10
19252.12270857525
 20
-17501.4103696348
 30
0.0000000000000014
 10
19252.12270857525
 20
-17501.4103696348
 30
0.0000000000000014
 10
19251.06869607464
 20
-17501.82197337845
 30
0.0000000000000014
 10
19251.06869607464
 20
-17501.82197337845
 30
0.0000000000000014
 10
19250.56537004828
 20
-17502.08937911034
 30
0.0000000000000014
 10
19250.3292733648
 20
-17501.68033300727
 30
0.0000000000000014
 10
19250.3292733648
 20
-17501.68033300727
 30
0.0000000000000014
 10
19250.3292733648
 20
-17501.68033300727
 30
0.0000000000000014
 10
19250.3292733648
 20
-17500.75217406186
 30
0.0000000000000014
 10
19250.3292733648
 20
-17500.75217406186
 30
0.0000000000000014
 10
19250.3292733648
 20
-17500.75217406186
 30
0.0000000000000014
 10
19251.41477130285
 20
-17499.43066763485
 30
0.0000000000000014
 10
19251.41477130285
 20
-17499.43066763485
 30
0.0000000000000014
 10
19251.41477130285
 20
-17499.43066763485
 30
0.0000000000000014
 10
19257.24636820402
 20
-17493.67183119832
 30
0.0000000000000014
 10
19257.24636820402
 20
-17493.67183119832
 30
0.0000000000000014
 10
19257.24636820402
 20
-17493.67183119832
 30
0.0000000000000014
 10
19257.50874684927
 20
-17493.35680043502
 30
0.0000000000000014
 10
19257.86505263979
 20
-17493.86012646139
 30
0.0000000000000014
 10
19257.86505263979
 20
-17493.86012646139
 30
0.0000000000000014
 10
19257.86505263979
 20
-17498.77561324491
 30
0.0000000000000014
 10
19257.86505263979
 20
-17499.54908148887
 30
0.0000000000000014
  0
POLYLINE
  5
3A9843
330
18
100
AcDbEntity
  8
姿図
100
AcDb2dPolyline
 66
     1
 10
0.0
 20
0.0
 30
0.0000000000000014
  0
VERTEX
  5
3A9844
330
3A9843
100
AcDbEntity
  8
姿図
100
AcDbVertex
100
AcDb2dVertex
 10
19251.56117417718
 20
-17501.62970936277
 30
0.0000000000000014
  0
VERTEX
  5
3A9845
330
3A9843
100
AcDbEntity
  8
姿図
100
AcDbVertex
100
AcDb2dVertex
 10
19251.56117417718
 20
-17501.74965388631
 30
0.0000000000000014
  0
SEQEND
  5
3A9846
330
3A9843
100
AcDbEntity
  8
姿図
  0
SPLINE
  5
3A9847
330
18
100
AcDbEntity
  8
姿図
100
AcDbSpline
210
0.0
220
0.0
230
1.0
 70
     8
 71
     3
 72
    11
 73
     7
 74
     0
 42
0.000000001
 43
0.0000000001
 40
0.0
 40
0.0
 40
0.0
 40
0.0
 40
1.0
 40
1.0
 40
1.0
 40
2.0
 40
2.0
 40
2.0
 40
2.0
 10
19250.93834459978
 20
-17501.87877063812
 30
0.0000000000000014
 10
19250.93834459978
 20
-17501.87877063812
 30
0.0000000000000014
 10
19250.93834459978
 20
-17500.81514493672
 30
0.0000000000000014
 10
19250.93834459978
 20
-17500.81514493672
 30
0.0000000000000014
 10
19250.93834459978
 20
-17500.81514493672
 30
0.0000000000000014
 10
19250.45503872552
 20
-17500.53195238886
 30
0.0000000000000014
 10
19250.3292733648
 20
-17500.75217406186
 30
0.0000000000000014
  0
POLYLINE
  5
3A9848
330
18
100
AcDbEntity
  8
姿図
100
AcDb2dPolyline
 66
     1
 10
0.0
 20
0.0
 30
0.0000000000000014
  0
VERTEX
  5
3A9849
330
3A9848
100
AcDbEntity
  8
姿図
100
AcDbVertex
100
AcDb2dVertex
 10
19250.93834459978
 20
-17500.81514493672
 30
0.0000000000000014
  0
VERTEX
  5
3A984A
330
3A9848
100
AcDbEntity
  8
姿図
100
AcDbVertex
100
AcDb2dVertex
 10
19257.86505263979
 20
-17493.86012646139
 30
0.0000000000000014
  0
SEQEND
  5
3A984B
330
3A9848
100
AcDbEntity
  8
姿図
  0
SPLINE
  5
3A984C
330
18
100
AcDbEntity
  8
姿図
100
AcDbSpline
210
0.0
220
0.0
230
1.0
 70
     8
 71
     3
 72
    29
 73
    25
 74
     0
 42
0.000000001
 43
0.0000000001
 40
0.0
 40
0.0
 40
0.0
 40
0.0
 40
1.0
 40
1.0
 40
1.0
 40
2.0
 40
2.0
 40
2.0
 40
3.0
 40
3.0
 40
3.0
 40
4.0
 40
4.0
 40
4.0
 40
5.0
 40
5.0
 40
5.0
 40
6.0
 40
6.0
 40
6.0
 40
7.0
 40
7.0
 40
7.0
 40
8.0
 40
8.0
 40
8.0
 40
8.0
 10
19254.40165452253
 20
-17496.41009411517
 30
0.0000000000000014
 10
19254.40165452253
 20
-17496.41009411517
 30
0.0000000000000014
 10
19253.0828821251
 20
-17493.53345402374
 30
0.0000000000000014
 10
19253.0828821251
 20
-17493.53345402374
 30
0.0000000000000014
 10
19253.0828821251
 20
-17493.53345402374
 30
0.0000000000000014
 10
19252.94282925497
 20
-17493.39904560177
 30
0.0000000000000014
 10
19252.64287975161
 20
-17493.61459296614
 30
0.0000000000000014
 10
19252.64287975161
 20
-17493.61459296614
 30
0.0000000000000014
 10
19246.41193814265
 20
-17499.7610442416
 30
0.0000000000000014
 10
19246.41193814265
 20
-17499.7610442416
 30
0.0000000000000014
 10
19246.41193814265
 20
-17499.7610442416
 30
0.0000000000000014
 10
19245.78275856108
 20
-17500.81514493672
 30
0.0000000000000014
 10
19245.78275856108
 20
-17500.81514493672
 30
0.0000000000000014
 10
19245.78275856108
 20
-17500.81514493672
 30
0.0000000000000014
 10
19246.16684561991
 20
-17501.55174542247
 30
0.0000000000000014
 10
19246.16684561991
 20
-17501.55174542247
 30
0.0000000000000014
 10
19246.16684561991
 20
-17501.55174542247
 30
0.0000000000000014
 10
19246.22320190708
 20
-17501.68968162454
 30
0.0000000000000014
 10
19246.58515214576
 20
-17501.55447945205
 30
0.0000000000000014
 10
19246.82318910829
 20
-17501.46557939343
 30
0.0000000000000014
 10
19248.2054615476
 20
-17500.9737186524
 30
0.0000000000000014
 10
19248.2054615476
 20
-17500.9737186524
 30
0.0000000000000014
 10
19248.2054615476
 20
-17500.9737186524
 30
0.0000000000000014
 10
19248.43434145859
 20
-17501.42994103172
 30
0.0000000000000014
 10
19248.43434145859
 20
-17501.42994103172
 30
0.0000000000000014
  0
POLYLINE
  5
3A984D
330
18
100
AcDbEntity
  8
姿図
100
AcDb2dPolyline
 66
     1
 10
0.0
 20
0.0
 30
0.0000000000000014
  0
VERTEX
  5
3A984E
330
3A984D
100
AcDbEntity
  8
姿図
100
AcDbVertex
100
AcDb2dVertex
 10
19247.98453431858
 20
-17501.0515062037
 30
0.0000000000000014
  0
VERTEX
  5
3A984F
330
3A984D
100
AcDbEntity
  8
姿図
100
AcDbVertex
100
AcDb2dVertex
 10
19248.19506885524
 20
-17501.45064770245
 30
0.0000000000000014
  0
SEQEND
  5
3A9850
330
3A984D
100
AcDbEntity
  8
姿図
  0
SPLINE
  5
3A9851
330
18
100
AcDbEntity
  8
姿図
100
AcDbSpline
210
0.0
220
0.0
230
1.0
 70
     8
 71
     3
 72
    14
 73
    10
 74
     0
 42
0.000000001
 43
0.0000000001
 40
0.0
 40
0.0
 40
0.0
 40
0.0
 40
1.0
 40
1.0
 40
1.0
 40
2.0
 40
2.0
 40
2.0
 40
3.0
 40
3.0
 40
3.0
 40
3.0
 10
19246.28361514136
 20
-17501.62970936277
 30
0.0000000000000014
 10
19246.28361514136
 20
-17501.62970936277
 30
0.0000000000000014
 10
19246.4812590217
 20
-17501.62970936277
 30
0.0000000000000014
 10
19246.44351177459
 20
-17501.4103696348
 30
0.0000000000000014
 10
19246.44351177459
 20
-17501.4103696348
 30
0.0000000000000014
 10
19246.11842683798
 20
-17500.75217406186
 30
0.0000000000000014
 10
19246.11842683798
 20
-17500.75217406186
 30
0.0000000000000014
 10
19246.11842683798
 20
-17500.75217406186
 30
0.0000000000000014
 10
19245.78275856108
 20
-17500.66830108989
 30
0.0000000000000014
 10
19245.78275856108
 20
-17500.81514493672
 30
0.0000000000000014
  0
POLYLINE
  5
3A9852
330
18
100
AcDbEntity
  8
姿図
100
AcDb2dPolyline
 66
     1
 10
0.0
 20
0.0
 30
0.0000000000000014
  0
VERTEX
  5
3A9853
330
3A9852
100
AcDbEntity
  8
姿図
100
AcDbVertex
100
AcDb2dVertex
 10
19246.11842683798
 20
-17500.75217406186
 30
0.0000000000000014
  0
VERTEX
  5
3A9854
330
3A9852
100
AcDbEntity
  8
姿図
100
AcDbVertex
100
AcDb2dVertex
 10
19246.74593072401
 20
-17499.79746857118
 30
0.0000000000000014
  0
VERTEX
  5
3A9855
330
3A9852
100
AcDbEntity
  8
姿図
100
AcDbVertex
100
AcDb2dVertex
 10
19253.10166755416
 20
-17493.57446446745
 30
0.0000000000000014
  0
SEQEND
  5
3A9856
330
3A9852
100
AcDbEntity
  8
姿図
  0
SPLINE
  5
3A9857
330
18
100
AcDbEntity
  8
姿図
100
AcDbSpline
210
0.0
220
0.0
230
1.0
 70
     8
 71
     3
 72
    32
 73
    28
 74
     0
 42
0.000000001
 43
0.0000000001
 40
0.0
 40
0.0
 40
0.0
 40
0.0
 40
1.0
 40
1.0
 40
1.0
 40
2.0
 40
2.0
 40
2.0
 40
3.0
 40
3.0
 40
3.0
 40
4.0
 40
4.0
 40
4.0
 40
5.0
 40
5.0
 40
5.0
 40
6.0
 40
6.0
 40
6.0
 40
7.0
 40
7.0
 40
7.0
 40
8.0
 40
8.0
 40
8.0
 40
9.0
 40
9.0
 40
9.0
 40
9.0
 10
19250.28464694649
 20
-17495.94081116681
 30
0.0000000000000014
 10
19250.28464694649
 20
-17495.94081116681
 30
0.0000000000000014
 10
19249.4281019372
 20
-17495.05595572219
 30
0.0000000000000014
 10
19249.4281019372
 20
-17495.05595572219
 30
0.0000000000000014
 10
19249.4281019372
 20
-17495.05595572219
 30
0.0000000000000014
 10
19249.36962898197
 20
-17494.89976325808
 30
0.0000000000000014
 10
19248.39419778317
 20
-17495.84370901945
 30
0.0000000000000014
 10
19248.39419778317
 20
-17495.84370901945
 30
0.0000000000000014
 10
19243.17114294997
 20
-17500.72827335166
 30
0.0000000000000014
 10
19243.17114294997
 20
-17500.72827335166
 30
0.0000000000000014
 10
19243.17114294997
 20
-17500.72827335166
 30
0.0000000000000014
 10
19242.18001312971
 20
-17502.1524381797
 30
0.0000000000000014
 10
19242.18001312971
 20
-17502.1524381797
 30
0.0000000000000014
 10
19242.18001312971
 20
-17502.1524381797
 30
0.0000000000000014
 10
19242.054247769
 20
-17502.23093128702
 30
0.0000000000000014
 10
19242.33735212235
 20
-17502.54552107781
 30
0.0000000000000014
 10
19242.33735212235
 20
-17502.54552107781
 30
0.0000000000000014
 10
19242.82506772175
 20
-17503.00183943428
 30
0.0000000000000014
 10
19242.82506772175
 20
-17503.00183943428
 30
0.0000000000000014
 10
19242.82506772175
 20
-17503.00183943428
 30
0.0000000000000014
 10
19242.88795040211
 20
-17503.06472211464
 30
0.0000000000000014
 10
19243.07677483219
 20
-17503.00183943428
 30
0.0000000000000014
 10
19243.07677483219
 20
-17503.00183943428
 30
0.0000000000000014
 10
19244.99615179235
 20
-17502.05533603234
 30
0.0000000000000014
 10
19244.99615179235
 20
-17502.05533603234
 30
0.0000000000000014
 10
19244.99615179235
 20
-17502.05533603234
 30
0.0000000000000014
 10
19245.36145342214
 20
-17502.47187866813
 30
0.0000000000000014
 10
19245.36145342214
 20
-17502.47187866813
 30
0.0000000000000014
  0
POLYLINE
  5
3A9858
330
18
100
AcDbEntity
  8
姿図
100
AcDb2dPolyline
 66
     1
 10
0.0
 20
0.0
 30
0.0000000000000014
  0
VERTEX
  5
3A9859
330
3A9858
100
AcDbEntity
  8
姿図
100
AcDbVertex
100
AcDb2dVertex
 10
19244.79921346804
 20
-17502.1524381797
 30
0.0000000000000014
  0
VERTEX
  5
3A985A
330
3A9858
100
AcDbEntity
  8
姿図
100
AcDbVertex
100
AcDb2dVertex
 10
19245.18488802792
 20
-17502.54552107781
 30
0.0000000000000014
  0
SEQEND
  5
3A985B
330
3A9858
100
AcDbEntity
  8
姿図
  0
SPLINE
  5
3A985C
330
18
100
AcDbEntity
  8
姿図
100
AcDbSpline
210
0.0
220
0.0
230
1.0
 70
     8
 71
     3
 72
    14
 73
    10
 74
     0
 42
0.000000001
 43
0.0000000001
 40
0.0
 40
0.0
 40
0.0
 40
0.0
 40
1.0
 40
1.0
 40
1.0
 40
2.0
 40
2.0
 40
2.0
 40
3.0
 40
3.0
 40
3.0
 40
3.0
 10
19242.18001312971
 20
-17502.1524381797
 30
0.0000000000000014
 10
19242.18001312971
 20
-17502.1524381797
 30
0.0000000000000014
 10
19242.36874936528
 20
-17501.9794005656
 30
0.0000000000000014
 10
19242.4946029205
 20
-17502.1524381797
 30
0.0000000000000014
 10
19242.4946029205
 20
-17502.1524381797
 30
0.0000000000000014
 10
19243.06107621072
 20
-17502.78170595578
 30
0.0000000000000014
 10
19243.06107621072
 20
-17502.78170595578
 30
0.0000000000000014
 10
19243.06107621072
 20
-17502.78170595578
 30
0.0000000000000014
 10
19243.13974570705
 20
-17502.8601990631
 30
0.0000000000000014
 10
19243.07677483219
 20
-17503.00183943428
 30
0.0000000000000014
  0
POLYLINE
  5
3A985D
330
18
100
AcDbEntity
  8
姿図
100
AcDb2dPolyline
 66
     1
 10
0.0
 20
0.0
 30
0.0000000000000014
  0
VERTEX
  5
3A985E
330
3A985D
100
AcDbEntity
  8
姿図
100
AcDbVertex
100
AcDb2dVertex
 10
19242.40023480271
 20
-17502.07553257343
 30
0.0000000000000014
  0
VERTEX
  5
3A985F
330
3A985D
100
AcDbEntity
  8
姿図
100
AcDbVertex
100
AcDb2dVertex
 10
19243.36781669078
 20
-17500.72827335166
 30
0.0000000000000014
  0
VERTEX
  5
3A9860
330
3A985D
100
AcDbEntity
  8
姿図
100
AcDbVertex
100
AcDb2dVertex
 10
19249.4281019372
 20
-17495.05595572219
 30
0.0000000000000014
  0
SEQEND
  5
3A9861
330
3A985D
100
AcDbEntity
  8
姿図
  0
SPLINE
  5
3A9862
330
18
100
AcDbEntity
  8
姿図
100
AcDbSpline
210
0.0
220
0.0
230
1.0
 70
     8
 71
     3
 72
    26
 73
    22
 74
     0
 42
0.000000001
 43
0.0000000001
 40
0.0
 40
0.0
 40
0.0
 40
0.0
 40
1.0
 40
1.0
 40
1.0
 40
2.0
 40
2.0
 40
2.0
 40
3.0
 40
3.0
 40
3.0
 40
4.0
 40
4.0
 40
4.0
 40
5.0
 40
5.0
 40
5.0
 40
6.0
 40
6.0
 40
6.0
 40
7.0
 40
7.0
 40
7.0
 40
7.0
 10
19255.5079663632
 20
-17502.49154604222
 30
0.0000000000000014
 10
19255.5079663632
 20
-17502.49154604222
 30
0.0000000000000014
 10
19255.08763136379
 20
-17503.00183943428
 30
0.0000000000000014
 10
19255.08763136379
 20
-17503.00183943428
 30
0.0000000000000014
 10
19255.08763136379
 20
-17503.00183943428
 30
0.0000000000000014
 10
19254.95454585936
 20
-17503.60755927816
 30
0.0000000000000014
 10
19254.95454585936
 20
-17503.60755927816
 30
0.0000000000000014
 10
19254.95454585936
 20
-17503.60755927816
 30
0.0000000000000014
 10
19255.00172991825
 20
-17503.76719132788
 30
0.0000000000000014
 10
19255.21410228052
 20
-17503.87619973309
 30
0.0000000000000014
 10
19255.21410228052
 20
-17503.87619973309
 30
0.0000000000000014
 10
19255.4029267106
 20
-17503.97956369015
 30
0.0000000000000014
 10
19255.59166294617
 20
-17503.87619973309
 30
0.0000000000000014
 10
19255.59166294617
 20
-17503.87619973309
 30
0.0000000000000014
 10
19256.29968841307
 20
-17503.381693157
 30
0.0000000000000014
 10
19256.29968841307
 20
-17503.381693157
 30
0.0000000000000014
 10
19256.29968841307
 20
-17503.381693157
 30
0.0000000000000014
 10
19256.27587589737
 20
-17503.92214906895
 30
0.0000000000000014
 10
19256.27587589737
 20
-17503.92214906895
 30
0.0000000000000014
 10
19256.27587589737
 20
-17503.92214906895
 30
0.0000000000000014
 10
19258.97224642548
 20
-17500.81514493672
 30
0.0000000000000014
 10
19258.97224642548
 20
-17500.81514493672
 30
0.0000000000000014
  0
POLYLINE
  5
3A9863
330
18
100
AcDbEntity
  8
姿図
100
AcDb2dPolyline
 66
     1
 10
0.0
 20
0.0
 30
0.0000000000000014
  0
VERTEX
  5
3A9864
330
3A9863
100
AcDbEntity
  8
姿図
100
AcDbVertex
100
AcDb2dVertex
 10
19256.31970856517
 20
-17501.50614886462
 30
0.0000000000000014
  0
VERTEX
  5
3A9865
330
3A9863
100
AcDbEntity
  8
姿図
100
AcDbVertex
100
AcDb2dVertex
 10
19255.5079663632
 20
-17502.49154604222
 30
0.0000000000000014
  0
SEQEND
  5
3A9866
330
3A9863
100
AcDbEntity
  8
姿図
  0
POLYLINE
  5
3A9867
330
18
100
AcDbEntity
  8
姿図
100
AcDb2dPolyline
 66
     1
 10
0.0
 20
0.0
 30
0.0000000000000014
  0
VERTEX
  5
3A9868
330
3A9867
100
AcDbEntity
  8
姿図
100
AcDbVertex
100
AcDb2dVertex
 10
19259.01237492416
 20
-17498.43953781459
 30
0.0000000000000014
  0
VERTEX
  5
3A9869
330
3A9867
100
AcDbEntity
  8
姿図
100
AcDbVertex
100
AcDb2dVertex
 10
19256.96044162658
 20
-17500.72827335166
 30
0.0000000000000014
  0
VERTEX
  5
3A986A
330
3A9867
100
AcDbEntity
  8
姿図
100
AcDbVertex
100
AcDb2dVertex
 10
19256.31970856517
 20
-17501.50614886462
 30
0.0000000000000014
  0
SEQEND
  5
3A986B
330
3A9867
100
AcDbEntity
  8
姿図
  0
SPLINE
  5
3A986C
330
18
100
AcDbEntity
  8
姿図
100
AcDbSpline
210
0.0
220
0.0
230
1.0
 70
     8
 71
     3
 72
    11
 73
     7
 74
     0
 42
0.000000001
 43
0.0000000001
 40
0.0
 40
0.0
 40
0.0
 40
0.0
 40
1.0
 40
1.0
 40
1.0
 40
2.0
 40
2.0
 40
2.0
 40
2.0
 10
19255.08763136379
 20
-17503.00183943428
 30
0.0000000000000014
 10
19255.57455321266
 20
-17502.75013232385
 30
0.0000000000000014
 10
19255.75693944405
 20
-17503.25354654471
 30
0.0000000000000014
 10
19255.75693944405
 20
-17503.25354654471
 30
0.0000000000000014
 10
19255.75693944405
 20
-17503.25354654471
 30
0.0000000000000014
 10
19255.59166294617
 20
-17503.87619973309
 30
0.0000000000000014
 10
19255.59166294617
 20
-17503.87619973309
 30
0.0000000000000014
  0
POLYLINE
  5
3A986D
330
18
100
AcDbEntity
  8
姿図
100
AcDb2dPolyline
 66
     1
 10
0.0
 20
0.0
 30
0.0000000000000014
  0
VERTEX
  5
3A986E
330
3A986D
100
AcDbEntity
  8
姿図
100
AcDbVertex
100
AcDb2dVertex
 10
19255.75693944405
 20
-17503.25354654471
 30
0.0000000000000014
  0
VERTEX
  5
3A986F
330
3A986D
100
AcDbEntity
  8
姿図
100
AcDbVertex
100
AcDb2dVertex
 10
19259.01237492416
 20
-17499.52503575263
 30
0.0000000000000014
  0
SEQEND
  5
3A9870
330
3A986D
100
AcDbEntity
  8
姿図
  0
SPLINE
  5
3A9871
330
18
100
AcDbEntity
  8
姿図
100
AcDbSpline
210
0.0
220
0.0
230
1.0
 70
     8
 71
     3
 72
     8
 73
     4
 74
     0
 42
0.000000001
 43
0.0000000001
 40
0.0
 40
0.0
 40
0.0
 40
0.0
 40
1.0
 40
1.0
 40
1.0
 40
1.0
 10
19261.835216369
 20
-17502.34893553151
 30
0.0000000000000014
 10
19261.835216369
 20
-17502.34893553151
 30
0.0000000000000014
 10
19261.93963866008
 20
-17502.50627452415
 30
0.0000000000000014
 10
19262.15209921686
 20
-17502.34893553151
 30
0.0000000000000014
  0
SPLINE
  5
3A9872
330
18
100
AcDbEntity
  8
姿図
100
AcDbSpline
210
0.0
220
0.0
230
1.0
 70
     8
 71
     3
 72
    17
 73
    13
 74
     0
 42
0.000000001
 43
0.0000000001
 40
0.0
 40
0.0
 40
0.0
 40
0.0
 40
1.0
 40
1.0
 40
1.0
 40
2.0
 40
2.0
 40
2.0
 40
3.0
 40
3.0
 40
3.0
 40
4.0
 40
4.0
 40
4.0
 40
4.0
 10
19261.77295105016
 20
-17503.7747760551
 30
0.0000000000000014
 10
19261.77295105016
 20
-17503.7747760551
 30
0.0000000000000014
 10
19265.76260576445
 20
-17498.84073460693
 30
0.0000000000000014
 10
19265.76260576445
 20
-17498.84073460693
 30
0.0000000000000014
 10
19265.76260576445
 20
-17498.84073460693
 30
0.0000000000000014
 10
19266.00831564871
 20
-17498.7382525949
 30
0.0000000000000014
 10
19266.17482686962
 20
-17498.92293188336
 30
0.0000000000000014
 10
19266.34116170153
 20
-17499.10769936631
 30
0.0000000000000014
 10
19266.29353667013
 20
-17499.18292927703
 30
0.0000000000000014
 10
19266.25825886909
 20
-17499.25374946262
 30
0.0000000000000014
 10
19266.25825886909
 20
-17499.25374946262
 30
0.0000000000000014
 10
19261.70927461928
 20
-17505.23510062922
 30
0.0000000000000014
 10
19261.70927461928
 20
-17505.23510062922
 30
0.0000000000000014
  0
POLYLINE
  5
3A9873
330
18
100
AcDbEntity
  8
姿図
100
AcDb2dPolyline
 66
     1
 10
0.0
 20
0.0
 30
0.0000000000000014
  0
VERTEX
  5
3A9874
330
3A9873
100
AcDbEntity
  8
姿図
100
AcDbVertex
100
AcDb2dVertex
 10
19265.76260576445
 20
-17498.84073460693
 30
0.0000000000000014
  0
VERTEX
  5
3A9875
330
3A9873
100
AcDbEntity
  8
姿図
100
AcDbVertex
100
AcDb2dVertex
 10
19261.86211569229
 20
-17501.73175040228
 30
0.0000000000000014
  0
SEQEND
  5
3A9876
330
3A9873
100
AcDbEntity
  8
姿図
  0
SPLINE
  5
3A9877
330
18
100
AcDbEntity
  8
姿図
100
AcDbSpline
210
0.0
220
0.0
230
1.0
 70
     8
 71
     3
 72
    14
 73
    10
 74
     0
 42
0.000000001
 43
0.0000000001
 40
0.0
 40
0.0
 40
0.0
 40
0.0
 40
1.0
 40
1.0
 40
1.0
 40
2.0
 40
2.0
 40
2.0
 40
3.0
 40
3.0
 40
3.0
 40
3.0
 10
19262.61617868956
 20
-17504.04253456501
 30
0.0000000000000014
 10
19262.61617868956
 20
-17504.04253456501
 30
0.0000000000000014
 10
19263.10786304158
 20
-17504.64596135182
 30
0.0000000000000014
 10
19263.10786304158
 20
-17504.64596135182
 30
0.0000000000000014
 10
19263.10786304158
 20
-17504.64596135182
 30
0.0000000000000014
 10
19263.33196527269
 20
-17504.85824551959
 30
0.0000000000000014
 10
19263.75670999723
 20
-17504.74024127511
 30
0.0000000000000014
 10
19263.75670999723
 20
-17504.74024127511
 30
0.0000000000000014
 10
19261.61605303003
 20
-17507.37020134275
 30
0.0000000000000014
 10
19261.61605303003
 20
-17507.37020134275
 30
0.0000000000000014
  0
SPLINE
  5
3A9878
330
18
100
AcDbEntity
  8
姿図
100
AcDbSpline
210
0.0
220
0.0
230
1.0
 70
     8
 71
     3
 72
    38
 73
    34
 74
     0
 42
0.000000001
 43
0.0000000001
 40
0.0
 40
0.0
 40
0.0
 40
0.0
 40
1.0
 40
1.0
 40
1.0
 40
2.0
 40
2.0
 40
2.0
 40
3.0
 40
3.0
 40
3.0
 40
4.0
 40
4.0
 40
4.0
 40
5.0
 40
5.0
 40
5.0
 40
6.0
 40
6.0
 40
6.0
 40
7.0
 40
7.0
 40
7.0
 40
8.0
 40
8.0
 40
8.0
 40
9.0
 40
9.0
 40
9.0
 40
10.0
 40
10.0
 40
10.0
 40
11.0
 40
11.0
 40
11.0
 40
11.0
 10
19263.17850683816
 20
-17511.30067754579
 30
0.0000000000000014
 10
19263.17850683816
 20
-17511.30067754579
 30
0.0000000000000014
 10
19263.37835558106
 20
-17510.86561406445
 30
0.0000000000000014
 10
19262.90431012956
 20
-17510.80114388304
 30
0.0000000000000014
 10
19262.86647468795
 20
-17510.79611679639
 30
0.0000000000000014
 10
19262.8243177157
 20
-17510.79320637781
 30
0.0000000000000014
 10
19262.77748643482
 20
-17510.79320637781
 30
0.0000000000000014
 10
19262.77748643482
 20
-17510.79320637781
 30
0.0000000000000014
 10
19262.38801951132
 20
-17510.79320637781
 30
0.0000000000000014
 10
19262.38801951132
 20
-17510.79320637781
 30
0.0000000000000014
 10
19262.17555895455
 20
-17510.79320637781
 30
0.0000000000000014
 10
19261.99864078233
 20
-17510.8640265634
 30
0.0000000000000014
 10
19261.99864078233
 20
-17511.15903717461
 30
0.0000000000000014
 10
19261.99864078233
 20
-17511.45395959132
 30
0.0000000000000014
 10
19262.32901738908
 20
-17511.47759571801
 30
0.0000000000000014
 10
19262.32901738908
 20
-17511.47759571801
 30
0.0000000000000014
 10
19262.32901738908
 20
-17511.47759571801
 30
0.0000000000000014
 10
19262.77748643482
 20
-17511.47759571801
 30
0.0000000000000014
 10
19262.77748643482
 20
-17511.47759571801
 30
0.0000000000000014
 10
19263.00158866593
 20
-17511.47759571801
 30
0.0000000000000014
 10
19263.17850683816
 20
-17511.30067754579
 30
0.0000000000000014
 10
19263.17850683816
 20
-17511.30067754579
 30
0.0000000000000014
 10
19263.17850683816
 20
-17511.30067754579
 30
0.0000000000000014
 10
19268.87745920742
 20
-17503.60755927816
 30
0.0000000000000014
 10
19268.87745920742
 20
-17503.60755927816
 30
0.0000000000000014
 10
19269.0190995786
 20
-17503.43064110594
 30
0.0000000000000014
 10
19269.0090454053
 20
-17503.20433401226
 30
0.0000000000000014
 10
19268.94219397233
 20
-17503.05590266438
 30
0.0000000000000014
 10
19268.87516615034
 20
-17502.90729492749
 30
0.0000000000000014
 10
19268.66526323415
 20
-17502.94680606466
 30
0.0000000000000014
 10
19268.66526323415
 20
-17502.94680606466
 30
0.0000000000000014
 10
19268.66526323415
 20
-17502.94680606466
 30
0.0000000000000014
 10
19262.84954134345
 20
-17503.73561769594
 30
0.0000000000000014
 10
19262.84954134345
 20
-17503.73561769594
 30
0.0000000000000014
  0
SPLINE
  5
3A9879
330
18
100
AcDbEntity
  8
姿図
100
AcDbSpline
210
0.0
220
0.0
230
1.0
 70
     8
 71
     3
 72
    14
 73
    10
 74
     0
 42
0.000000001
 43
0.0000000001
 40
0.0
 40
0.0
 40
0.0
 40
0.0
 40
1.0
 40
1.0
 40
1.0
 40
2.0
 40
2.0
 40
2.0
 40
3.0
 40
3.0
 40
3.0
 40
3.0
 10
19268.78520775769
 20
-17502.94689425916
 30
0.0000000000000014
 10
19268.78520775769
 20
-17502.94689425916
 30
0.0000000000000014
 10
19268.94219397233
 20
-17503.05590266438
 30
0.0000000000000014
 10
19268.94219397233
 20
-17503.05590266438
 30
0.0000000000000014
 10
19268.94219397233
 20
-17503.05590266438
 30
0.0000000000000014
 10
19268.78326747863
 20
-17502.81698375682
 30
0.0000000000000014
 10
19268.29943243735
 20
-17503.47773697033
 30
0.0000000000000014
 10
19268.29943243735
 20
-17503.47773697033
 30
0.0000000000000014
 10
19262.90431012956
 20
-17510.80114388304
 30
0.0000000000000014
 10
19262.90431012956
 20
-17510.80114388304
 30
0.0000000000000014
  0
POLYLINE
  5
3A987A
330
18
100
AcDbEntity
  8
姿図
100
AcDb2dPolyline
 66
     1
 10
0.0
 20
0.0
 30
0.0000000000000014
  0
VERTEX
  5
3A987B
330
3A987A
100
AcDbEntity
  8
姿図
100
AcDbVertex
100
AcDb2dVertex
 10
19261.99864078233
 20
-17511.15903717461
 30
0.0000000000000014
  0
VERTEX
  5
3A987C
330
3A987A
100
AcDbEntity
  8
姿図
100
AcDbVertex
100
AcDb2dVertex
 10
19262.17555895455
 20
-17509.74316262981
 30
0.0000000000000014
  0
VERTEX
  5
3A987D
330
3A987A
100
AcDbEntity
  8
姿図
100
AcDbVertex
100
AcDb2dVertex
 10
19261.66500097898
 20
-17509.74316262981
 30
0.0000000000000014
  0
SEQEND
  5
3A987E
330
3A987A
100
AcDbEntity
  8
姿図
  0
POLYLINE
  5
3A987F
330
18
100
AcDbEntity
  8
姿図
100
AcDb2dPolyline
 66
     1
 10
0.0
 20
0.0
 30
0.0000000000000014
  0
VERTEX
  5
3A9880
330
3A987F
100
AcDbEntity
  8
姿図
100
AcDbVertex
100
AcDb2dVertex
 10
19261.95260325197
 20
-17510.30893036401
 30
0.0000000000000014
  0
VERTEX
  5
3A9881
330
3A987F
100
AcDbEntity
  8
姿図
100
AcDbVertex
100
AcDb2dVertex
 10
19262.10500335247
 20
-17510.30893036401
 30
0.0000000000000014
  0
SEQEND
  5
3A9882
330
3A987F
100
AcDbEntity
  8
姿図
  0
SPLINE
  5
3A9883
330
18
100
AcDbEntity
  8
姿図
100
AcDbSpline
210
0.0
220
0.0
230
1.0
 70
     8
 71
     3
 72
    32
 73
    28
 74
     0
 42
0.000000001
 43
0.0000000001
 40
0.0
 40
0.0
 40
0.0
 40
0.0
 40
1.0
 40
1.0
 40
1.0
 40
2.0
 40
2.0
 40
2.0
 40
3.0
 40
3.0
 40
3.0
 40
4.0
 40
4.0
 40
4.0
 40
5.0
 40
5.0
 40
5.0
 40
6.0
 40
6.0
 40
6.0
 40
7.0
 40
7.0
 40
7.0
 40
8.0
 40
8.0
 40
8.0
 40
9.0
 40
9.0
 40
9.0
 40
9.0
 10
19266.68459109467
 20
-17506.56780775806
 30
0.0000000000000014
 10
19266.68459109467
 20
-17506.56780775806
 30
0.0000000000000014
 10
19269.76257923554
 20
-17507.28888601135
 30
0.0000000000000014
 10
19269.76257923554
 20
-17507.28888601135
 30
0.0000000000000014
 10
19269.76257923554
 20
-17507.28888601135
 30
0.0000000000000014
 10
19270.03386552555
 20
-17507.44234444588
 30
0.0000000000000014
 10
19269.76257923554
 20
-17507.87890723377
 30
0.0000000000000014
 10
19269.76257923554
 20
-17507.87890723377
 30
0.0000000000000014
 10
19265.66823764667
 20
-17514.21506488433
 30
0.0000000000000014
 10
19265.66823764667
 20
-17514.21506488433
 30
0.0000000000000014
 10
19265.66823764667
 20
-17514.21506488433
 30
0.0000000000000014
 10
19264.24054503852
 20
-17515.74894367362
 30
0.0000000000000014
 10
19264.24054503852
 20
-17515.74894367362
 30
0.0000000000000014
 10
19264.24054503852
 20
-17515.74894367362
 30
0.0000000000000014
 10
19264.14608872623
 20
-17515.80794579586
 30
0.0000000000000014
 10
19263.89835036841
 20
-17515.74894367362
 30
0.0000000000000014
 10
19263.89835036841
 20
-17515.74894367362
 30
0.0000000000000014
 10
19263.42642158498
 20
-17515.60730330244
 30
0.0000000000000014
 10
19263.42642158498
 20
-17515.60730330244
 30
0.0000000000000014
 10
19263.42642158498
 20
-17515.60730330244
 30
0.0000000000000014
 10
19263.22577909156
 20
-17515.5718491124
 30
0.0000000000000014
 10
19263.21396102821
 20
-17515.38311287682
 30
0.0000000000000014
 10
19263.21396102821
 20
-17515.38311287682
 30
0.0000000000000014
 10
19263.27296315045
 20
-17514.30934480762
 30
0.0000000000000014
 10
19263.27296315045
 20
-17514.30934480762
 30
0.0000000000000014
 10
19263.27296315045
 20
-17514.30934480762
 30
0.0000000000000014
 10
19262.9632240573
 20
-17514.30934480762
 30
0.0000000000000014
 10
19262.9632240573
 20
-17514.30934480762
 30
0.0000000000000014
  0
POLYLINE
  5
3A9884
330
18
100
AcDbEntity
  8
姿図
100
AcDb2dPolyline
 66
     1
 10
0.0
 20
0.0
 30
0.0000000000000014
  0
VERTEX
  5
3A9885
330
3A9884
100
AcDbEntity
  8
姿図
100
AcDbVertex
100
AcDb2dVertex
 10
19262.94320390522
 20
-17513.80205002864
 30
0.0000000000000014
  0
VERTEX
  5
3A9886
330
3A9884
100
AcDbEntity
  8
姿図
100
AcDbVertex
100
AcDb2dVertex
 10
19263.32014720934
 20
-17513.80205002864
 30
0.0000000000000014
  0
VERTEX
  5
3A9887
330
3A9884
100
AcDbEntity
  8
姿図
100
AcDbVertex
100
AcDb2dVertex
 10
19263.27296315045
 20
-17514.30934480762
 30
0.0000000000000014
  0
SEQEND
  5
3A9888
330
3A9884
100
AcDbEntity
  8
姿図
  0
SPLINE
  5
3A9889
330
18
100
AcDbEntity
  8
姿図
100
AcDbSpline
210
0.0
220
0.0
230
1.0
 70
     8
 71
     3
 72
    14
 73
    10
 74
     0
 42
0.000000001
 43
0.0000000001
 40
0.0
 40
0.0
 40
0.0
 40
0.0
 40
1.0
 40
1.0
 40
1.0
 40
2.0
 40
2.0
 40
2.0
 40
3.0
 40
3.0
 40
3.0
 40
3.0
 10
19263.21396102821
 20
-17515.38311287682
 30
0.0000000000000014
 10
19263.21396102821
 20
-17515.38311287682
 30
0.0000000000000014
 10
19263.2611450871
 20
-17515.1825585779
 30
0.0000000000000014
 10
19263.43815145383
 20
-17515.22974263679
 30
0.0000000000000014
 10
19263.43815145383
 20
-17515.22974263679
 30
0.0000000000000014
 10
19264.16972485293
 20
-17515.44220319356
 30
0.0000000000000014
 10
19264.16972485293
 20
-17515.44220319356
 30
0.0000000000000014
 10
19264.16972485293
 20
-17515.44220319356
 30
0.0000000000000014
 10
19264.3349131563
 20
-17515.5718491124
 30
0.0000000000000014
 10
19264.24054503852
 20
-17515.74894367362
 30
0.0000000000000014
  0
POLYLINE
  5
3A988A
330
18
100
AcDbEntity
  8
姿図
100
AcDb2dPolyline
 66
     1
 10
0.0
 20
0.0
 30
0.0000000000000014
  0
VERTEX
  5
3A988B
330
3A988A
100
AcDbEntity
  8
姿図
100
AcDbVertex
100
AcDb2dVertex
 10
19269.84001400883
 20
-17507.37020134275
 30
0.0000000000000014
  0
VERTEX
  5
3A988C
330
3A988A
100
AcDbEntity
  8
姿図
100
AcDbVertex
100
AcDb2dVertex
 10
19265.3614089721
 20
-17514.05569741813
 30
0.0000000000000014
  0
VERTEX
  5
3A988D
330
3A988A
100
AcDbEntity
  8
姿図
100
AcDbVertex
100
AcDb2dVertex
 10
19264.16972485293
 20
-17515.44220319356
 30
0.0000000000000014
  0
SEQEND
  5
3A988E
330
3A988A
100
AcDbEntity
  8
姿図
  0
SPLINE
  5
3A988F
330
18
100
AcDbEntity
  8
姿図
100
AcDbSpline
210
0.0
220
0.0
230
1.0
 70
     8
 71
     3
 72
     8
 73
     4
 74
     0
 42
0.000000001
 43
0.0000000001
 40
1.0
 40
1.0
 40
1.0
 40
1.0
 40
2.0
 40
2.0
 40
2.0
 40
2.0
 10
19263.32014720934
 20
-17519.67112959342
 30
0.0000000000000014
 10
19263.32014720934
 20
-17519.67112959342
 30
0.0000000000000014
 10
19263.49715357607
 20
-17519.56000452014
 30
0.0000000000000014
 10
19263.32014720934
 20
-17519.38308634791
 30
0.0000000000000014
  0
SPLINE
  5
3A9890
330
18
100
AcDbEntity
  8
姿図
100
AcDbSpline
210
0.0
220
0.0
230
1.0
 70
     8
 71
     3
 72
     8
 73
     4
 74
     0
 42
0.000000001
 43
0.0000000001
 40
2.0
 40
2.0
 40
2.0
 40
2.0
 40
3.0
 40
3.0
 40
3.0
 40
3.0
 10
19263.32014720934
 20
-17519.38308634791
 30
0.0000000000000014
 10
19263.14314084262
 20
-17519.20599178669
 30
0.0000000000000014
 10
19262.70666624923
 20
-17518.92288743333
 30
0.0000000000000014
 10
19262.70666624923
 20
-17518.92288743333
 30
0.0000000000000014
  0
SPLINE
  5
3A9891
330
18
100
AcDbEntity
  8
姿図
100
AcDbSpline
210
0.0
220
0.0
230
1.0
 70
     8
 71
     3
 72
     8
 73
     4
 74
     0
 42
0.000000001
 43
0.0000000001
 40
3.0
 40
3.0
 40
3.0
 40
3.0
 40
4.0
 40
4.0
 40
4.0
 40
4.0
 10
19262.70666624923
 20
-17518.92288743333
 30
0.0000000000000014
 10
19262.56502587805
 20
-17518.82851931554
 30
0.0000000000000014
 10
19262.51546056759
 20
-17518.94652356003
 30
0.0000000000000014
 10
19262.51546056759
 20
-17518.94652356003
 30
0.0000000000000014
  0
SPLINE
  5
3A9892
330
18
100
AcDbEntity
  8
姿図
100
AcDbSpline
210
0.0
220
0.0
230
1.0
 70
     8
 71
     3
 72
     8
 73
     4
 74
     0
 42
0.000000001
 43
0.0000000001
 40
4.0
 40
4.0
 40
4.0
 40
4.0
 40
5.0
 40
5.0
 40
5.0
 40
5.0
 10
19262.51546056759
 20
-17518.94652356003
 30
0.0000000000000014
 10
19262.34789101264
 20
-17519.1116236689
 30
0.0000000000000014
 10
19262.51546056759
 20
-17519.19840705946
 30
0.0000000000000014
 10
19262.51546056759
 20
-17519.19840705946
 30
0.0000000000000014
  0
SPLINE
  5
3A9893
330
18
100
AcDbEntity
  8
姿図
100
AcDbSpline
210
0.0
220
0.0
230
1.0
 70
    24
 71
     3
 72
     8
 73
     4
 74
     0
 42
0.000000001
 43
0.0000000001
 40
5.0
 40
5.0
 40
5.0
 40
5.0
 40
6.0
 40
6.0
 40
6.0
 40
6.0
 10
19262.51546056759
 20
-17519.19840705946
 30
0.0000000000000014
 10
19262.51546056759
 20
-17519.19840705946
 30
0.0000000000000014
 10
19263.01340672929
 20
-17519.57182258349
 30
0.0000000000000014
 10
19263.01340672929
 20
-17519.57182258349
 30
0.0000000000000014
  0
SPLINE
  5
3A9894
330
18
100
AcDbEntity
  8
姿図
100
AcDbSpline
210
0.0
220
0.0
230
1.0
 70
     8
 71
     3
 72
     8
 73
     4
 74
     0
 42
0.000000001
 43
0.0000000001
 40
6.0
 40
6.0
 40
6.0
 40
6.0
 40
7.0
 40
7.0
 40
7.0
 40
7.0
 10
19263.01340672929
 20
-17519.57182258349
 30
0.0000000000000014
 10
19263.308329146
 20
-17519.80783107246
 30
0.0000000000000014
 10
19263.48533551272
 20
-17519.57182258349
 30
0.0000000000000014
 10
19263.48533551272
 20
-17519.57182258349
 30
0.0000000000000014
  0
SPLINE
  5
3A9895
330
18
100
AcDbEntity
  8
姿図
100
AcDbSpline
210
0.0
220
0.0
230
1.0
 70
    24
 71
     3
 72
     8
 73
     4
 74
     0
 42
0.000000001
 43
0.0000000001
 40
7.0
 40
7.0
 40
7.0
 40
7.0
 40
8.0
 40
8.0
 40
8.0
 40
8.0
 10
19263.48533551272
 20
-17519.57182258349
 30
0.0000000000000014
 10
19263.48533551272
 20
-17519.57182258349
 30
0.0000000000000014
 10
19264.64174183086
 20
-17518.35950095069
 30
0.0000000000000014
 10
19264.64174183086
 20
-17518.35950095069
 30
0.0000000000000014
  0
SPLINE
  5
3A9896
330
18
100
AcDbEntity
  8
姿図
100
AcDbSpline
210
0.0
220
0.0
230
1.0
 70
    24
 71
     3
 72
     8
 73
     4
 74
     0
 42
0.000000001
 43
0.0000000001
 40
8.0
 40
8.0
 40
8.0
 40
8.0
 40
9.0
 40
9.0
 40
9.0
 40
9.0
 10
19264.64174183086
 20
-17518.35950095069
 30
0.0000000000000014
 10
19264.64174183086
 20
-17518.35950095069
 30
0.0000000000000014
 10
19268.98928983671
 20
-17511.47759571801
 30
0.0000000000000014
 10
19268.98928983671
 20
-17511.47759571801
 30
0.0000000000000014
  0
SPLINE
  5
3A9897
330
18
100
AcDbEntity
  8
姿図
100
AcDbSpline
210
0.0
220
0.0
230
1.0
 70
     8
 71
     3
 72
     8
 73
     4
 74
     0
 42
0.000000001
 43
0.0000000001
 40
9.0
 40
9.0
 40
9.0
 40
9.0
 40
10.0
 40
10.0
 40
10.0
 40
10.0
 10
19268.98928983671
 20
-17511.47759571801
 30
0.0000000000000014
 10
19269.14839271941
 20
-17511.2298573602
 30
0.0000000000000014
 10
19268.94219397233
 20
-17511.08821698902
 30
0.0000000000000014
 10
19268.94219397233
 20
-17511.08821698902
 30
0.0000000000000014
  0
SPLINE
  5
3A9898
330
18
100
AcDbEntity
  8
姿図
100
AcDbSpline
210
0.0
220
0.0
230
1.0
 70
    24
 71
     3
 72
     8
 73
     4
 74
     0
 42
0.000000001
 43
0.0000000001
 40
10.0
 40
10.0
 40
10.0
 40
10.0
 40
11.0
 40
11.0
 40
11.0
 40
11.0
 10
19268.94219397233
 20
-17511.08821698902
 30
0.0000000000000014
 10
19268.94219397233
 20
-17511.08821698902
 30
0.0000000000000014
 10
19268.07153784262
 20
-17510.49590270953
 30
0.0000000000000014
 10
19268.07153784262
 20
-17510.49590270953
 30
0.0000000000000014
  0
POLYLINE
  5
3A9899
330
18
100
AcDbEntity
  8
姿図
100
AcDb2dPolyline
 66
     1
 10
0.0
 20
0.0
 30
0.0000000000000014
  0
VERTEX
  5
3A989A
330
3A9899
100
AcDbEntity
  8
姿図
100
AcDbVertex
100
AcDb2dVertex
 10
19262.61617868956
 20
-17518.88672768726
 30
0.0000000000000014
  0
VERTEX
  5
3A989B
330
3A9899
100
AcDbEntity
  8
姿図
100
AcDbVertex
100
AcDb2dVertex
 10
19262.83640036256
 20
-17517.22373214616
 30
0.0000000000000014
  0
VERTEX
  5
3A989C
330
3A9899
100
AcDbEntity
  8
姿図
100
AcDbVertex
100
AcDb2dVertex
 10
19262.3160527972
 20
-17516.98243198704
 30
0.0000000000000014
  0
SEQEND
  5
3A989D
330
3A9899
100
AcDbEntity
  8
姿図
  0
POLYLINE
  5
3A989E
330
18
100
AcDbEntity
  8
姿図
100
AcDb2dPolyline
 66
     1
 10
0.0
 20
0.0
 30
0.0000000000000014
  0
VERTEX
  5
3A989F
330
3A989E
100
AcDbEntity
  8
姿図
100
AcDbVertex
100
AcDb2dVertex
 10
19262.66142246939
 20
-17517.51530317177
 30
0.0000000000000014
  0
VERTEX
  5
3A98A0
330
3A989E
100
AcDbEntity
  8
姿図
100
AcDbVertex
100
AcDb2dVertex
 10
19262.3160527972
 20
-17517.33397527442
 30
0.0000000000000014
  0
SEQEND
  5
3A98A1
330
3A989E
100
AcDbEntity
  8
姿図
  0
POLYLINE
  5
3A98A2
330
18
100
AcDbEntity
  8
姿図
100
AcDb2dPolyline
 66
     1
 10
0.0
 20
0.0
 30
0.0000000000000014
  0
VERTEX
  5
3A98A3
330
3A98A2
100
AcDbEntity
  8
姿図
100
AcDbVertex
100
AcDb2dVertex
 10
19262.44093621288
 20
-17519.09327921236
 30
0.0000000000000014
  0
VERTEX
  5
3A98A4
330
3A98A2
100
AcDbEntity
  8
姿図
100
AcDbVertex
100
AcDb2dVertex
 10
19262.66142246939
 20
-17517.51530317177
 30
0.0000000000000014
  0
VERTEX
  5
3A98A5
330
3A98A2
100
AcDbEntity
  8
姿図
100
AcDbVertex
100
AcDb2dVertex
 10
19262.83640036256
 20
-17517.22373214616
 30
0.0000000000000014
  0
SEQEND
  5
3A98A6
330
3A98A2
100
AcDbEntity
  8
姿図
  0
SPLINE
  5
3A98A7
330
18
100
AcDbEntity
  8
姿図
100
AcDbSpline
210
0.0
220
0.0
230
1.0
 70
     8
 71
     3
 72
    14
 73
    10
 74
     0
 42
0.000000001
 43
0.0000000001
 40
0.0
 40
0.0
 40
0.0
 40
0.0
 40
1.0
 40
1.0
 40
1.0
 40
2.0
 40
2.0
 40
2.0
 40
3.0
 40
3.0
 40
3.0
 40
3.0
 10
19260.48839811974
 20
-17522.03721170927
 30
0.0000000000000014
 10
19260.48839811974
 20
-17522.03721170927
 30
0.0000000000000014
 10
19260.82080320005
 20
-17522.34077718724
 30
0.0000000000000014
 10
19261.0085692961
 20
-17522.14798400454
 30
0.0000000000000014
 10
19261.0085692961
 20
-17522.14798400454
 30
0.0000000000000014
 10
19262.01045884568
 20
-17521.08206524608
 30
0.0000000000000014
 10
19262.01045884568
 20
-17521.08206524608
 30
0.0000000000000014
 10
19262.01045884568
 20
-17521.08206524608
 30
0.0000000000000014
 10
19263.06685259787
 20
-17519.61027538662
 30
0.0000000000000014
 10
19263.06685259787
 20
-17519.61027538662
 30
0.0000000000000014
  0
SPLINE
  5
3A98A8
330
18
100
AcDbEntity
  8
姿図
100
AcDbSpline
210
0.0
220
0.0
230
1.0
 70
     8
 71
     3
 72
     8
 73
     4
 74
     0
 42
0.000000001
 43
0.0000000001
 40
0.0
 40
0.0
 40
0.0
 40
0.0
 40
1.0
 40
1.0
 40
1.0
 40
1.0
 10
19260.89770880632
 20
-17522.21483543752
 30
0.0000000000000014
 10
19260.89770880632
 20
-17522.21483543752
 30
0.0000000000000014
 10
19261.21141665208
 20
-17522.10653258832
 30
0.0000000000000014
 10
19260.75192329352
 20
-17521.81990045486
 30
0.0000000000000014
  0
POLYLINE
  5
3A98A9
330
18
100
AcDbEntity
  8
姿図
100
AcDb2dPolyline
 66
     1
 10
0.0
 20
0.0
 30
0.0000000000000014
  0
VERTEX
  5
3A98AA
330
3A98A9
100
AcDbEntity
  8
姿図
100
AcDbVertex
100
AcDb2dVertex
 10
19257.86505263979
 20
-17499.71932824187
 30
0.0000000000000014
  0
VERTEX
  5
3A98AB
330
3A98A9
100
AcDbEntity
  8
姿図
100
AcDbVertex
100
AcDb2dVertex
 10
19257.86505263979
 20
-17499.71932824187
 30
0.0000000000000014
  0
SEQEND
  5
3A98AC
330
3A98A9
100
AcDbEntity
  8
姿図
  0
SPLINE
  5
3A98AD
330
18
100
AcDbEntity
  8
姿図
100
AcDbSpline
210
0.0
220
0.0
230
1.0
 70
     8
 71
     3
 72
    14
 73
    10
 74
     0
 42
0.000000001
 43
0.0000000001
 40
0.0478849985969701
 40
0.0478849985969701
 40
0.0478849985969701
 40
0.0478849985969701
 40
1.0
 40
1.0
 40
1.0
 40
2.0
 40
2.0
 40
2.0
 40
3.0
 40
3.0
 40
3.0
 40
3.0
 10
19257.97144367206
 20
-17499.60059716829
 30
0.0000000000000014
 10
19257.4346506891
 20
-17499.33190905403
 30
0.0000000000000014
 10
19256.68024456921
 20
-17499.09663536571
 30
0.0000000000000014
 10
19256.1277973275
 20
-17498.96958677523
 30
0.0000000000000014
 10
19256.1277973275
 20
-17498.96958677523
 30
0.0000000000000014
 10
19255.75693944405
 20
-17498.95865065691
 30
0.0000000000000014
 10
19255.75693944405
 20
-17498.43953781459
 30
0.0000000000000014
 10
19255.75693944405
 20
-17498.43953781459
 30
0.0000000000000014
 10
19252.48924492807
 20
-17502.0237624004
 30
0.0000000000000014
 10
19252.48924492807
 20
-17502.0237624004
 30
0.0000000000000014
  0
SPLINE
  5
3A98AE
330
18
100
AcDbEntity
  8
姿図
100
AcDbSpline
210
0.0
220
0.0
230
1.0
 70
     8
 71
     3
 72
    14
 73
    10
 74
     0
 42
0.000000001
 43
0.0000000001
 40
0.0
 40
0.0
 40
0.0
 40
0.0
 40
1.0
 40
1.0
 40
1.0
 40
2.0
 40
2.0
 40
2.0
 40
3.0
 40
3.0
 40
3.0
 40
3.0
 10
19256.31962037066
 20
-17501.50473775258
 30
0.0000000000000014
 10
19256.28901687826
 20
-17501.24862091702
 30
0.0000000000000014
 10
19256.15998832095
 20
-17500.99153394193
 30
0.0000000000000014
 10
19255.93994303695
 20
-17500.7938900616
 30
0.0000000000000014
 10
19255.49985246896
 20
-17500.39877868993
 30
0.0000000000000014
 10
19254.86185343712
 20
-17500.39181132422
 30
0.0000000000000014
 10
19254.51498445838
 20
-17500.77819144013
 30
0.0000000000000014
 10
19254.51498445838
 20
-17500.77819144013
 30
0.0000000000000014
 10
19253.10166755416
 20
-17502.24548337995
 30
0.0000000000000014
 10
19253.10166755416
 20
-17502.24548337995
 30
0.0000000000000014
  0
SPLINE
  5
3A98AF
330
18
100
AcDbEntity
  8
姿図
100
AcDbSpline
210
0.0
220
0.0
230
1.0
 70
     8
 71
     3
 72
    14
 73
    10
 74
     0
 42
0.000000001
 43
0.0000000001
 40
0.0
 40
0.0
 40
0.0
 40
0.0
 40
1.0
 40
1.0
 40
1.0
 40
2.0
 40
2.0
 40
2.0
 40
3.0
 40
3.0
 40
3.0
 40
3.0
 10
19255.91657149376
 20
-17501.92983525513
 30
0.0000000000000014
 10
19255.86497770974
 20
-17501.83176296824
 30
0.0000000000000014
 10
19255.79433391315
 20
-17501.73951151851
 30
0.0000000000000014
 10
19255.70516927102
 20
-17501.65934271564
 30
0.0000000000000014
 10
19255.34824611898
 20
-17501.33893208768
 30
0.0000000000000014
 10
19254.83080897221
 20
-17501.33328763952
 30
0.0000000000000014
 10
19254.5494685089
 20
-17501.64664270727
 30
0.0000000000000014
 10
19254.5494685089
 20
-17501.64664270727
 30
0.0000000000000014
 10
19253.81833608231
 20
-17502.54552107781
 30
0.0000000000000014
 10
19253.81833608231
 20
-17502.54552107781
 30
0.0000000000000014
  0
SPLINE
  5
3A98B0
330
18
100
AcDbEntity
  8
姿図
100
AcDbSpline
210
0.0
220
0.0
230
1.0
 70
     8
 71
     3
 72
    11
 73
     7
 74
     0
 42
0.000000001
 43
0.0000000001
 40
0.0
 40
0.0
 40
0.0
 40
0.0
 40
1.0
 40
1.0
 40
1.0
 40
2.0
 40
2.0
 40
2.0
 40
2.0
 10
19250.5016936174
 20
-17528.49534235694
 30
0.0000000000000014
 10
19250.5016936174
 20
-17528.49534235694
 30
0.0000000000000014
 10
19252.48457061944
 20
-17524.09884640214
 30
0.0000000000000014
 10
19252.48457061944
 20
-17524.09884640214
 30
0.0000000000000014
 10
19252.48457061944
 20
-17524.09884640214
 30
0.0000000000000014
 10
19252.57117762099
 20
-17523.721373931
 30
0.0000000000000014
 10
19253.01241471752
 20
-17524.09884640214
 30
0.0000000000000014
  0
SPLINE
  5
3A98B1
330
18
100
AcDbEntity
  8
姿図
100
AcDbSpline
210
0.0
220
0.0
230
1.0
 70
     8
 71
     3
 72
     8
 73
     4
 74
     0
 42
0.000000001
 43
0.0000000001
 40
0.0
 40
0.0
 40
0.0
 40
0.0
 40
1.0
 40
1.0
 40
1.0
 40
1.0
 10
19249.51814852436
 20
-17526.67148004309
 30
0.0000000000000014
 10
19250.00903912585
 20
-17525.77454195161
 30
0.0000000000000014
 10
19250.92326333984
 20
-17523.63741276452
 30
0.0000000000000014
 10
19251.49202968713
 20
-17519.44164749764
 30
0.0000000000000014
  0
SPLINE
  5
3A98B2
330
18
100
AcDbEntity
  8
姿図
100
AcDbSpline
210
0.0
220
0.0
230
1.0
 70
     8
 71
     3
 72
     8
 73
     4
 74
     0
 42
0.000000001
 43
0.0000000001
 40
0.0
 40
0.0
 40
0.0
 40
0.0
 40
1.0
 40
1.0
 40
1.0
 40
1.0
 10
19236.58363096698
 20
-17516.49762680623
 30
0.0000000000000014
 10
19237.33892868728
 20
-17515.88864376575
 30
0.0000000000000014
 10
19239.44430785344
 20
-17514.35211914138
 30
0.0000000000000014
 10
19242.99757616884
 20
-17512.94982654998
 30
0.0000000000000014
  0
SPLINE
  5
3A98B3
330
18
100
AcDbEntity
  8
姿図
100
AcDbSpline
210
0.0
220
0.0
230
1.0
 70
     8
 71
     3
 72
     8
 73
     4
 74
     0
 42
0.000000001
 43
0.0000000001
 40
0.0
 40
0.0
 40
0.0
 40
0.0
 40
1.0
 40
1.0
 40
1.0
 40
1.0
 10
19251.5281894332
 20
-17531.34455395806
 30
0.0000000000000014
 10
19252.24362323832
 20
-17534.22445724608
 30
0.0000000000000014
 10
19251.9990598826
 20
-17536.77080892526
 30
0.0000000000000014
 10
19250.40318035799
 20
-17538.67969073962
 30
0.0000000000000014
  0
SPLINE
  5
3A98B4
330
18
100
AcDbEntity
  8
姿図
100
AcDbSpline
210
0.0
220
0.0
230
1.0
 70
     8
 71
     3
 72
    11
 73
     7
 74
     0
 42
0.000000001
 43
0.0000000001
 40
0.0
 40
0.0
 40
0.0
 40
0.0
 40
1.0
 40
1.0
 40
1.0
 40
2.0
 40
2.0
 40
2.0
 40
2.0
 10
19233.67356515907
 20
-17515.87074028172
 30
0.0000000000000014
 10
19237.11667854072
 20
-17516.27969819029
 30
0.0000000000000014
 10
19241.00517416052
 20
-17517.99367015389
 30
0.0000000000000014
 10
19244.47421672594
 20
-17520.89385817752
 30
0.0000000000000014
 10
19247.25507758754
 20
-17523.21884165516
 30
0.0000000000000014
 10
19249.3333810414
 20
-17525.94405178562
 30
0.0000000000000014
 10
19250.57004435691
 20
-17528.64209800927
 30
0.0000000000000014
  0
SPLINE
  5
3A98B5
330
18
100
AcDbEntity
  8
姿図
100
AcDbSpline
210
0.0
220
0.0
230
1.0
 70
     8
 71
     3
 72
     8
 73
     4
 74
     0
 42
0.000000001
 43
0.0000000001
 40
0.0
 40
0.0
 40
0.0
 40
0.0
 40
1.0
 40
1.0
 40
1.0
 40
1.0
 10
19230.77126046738
 20
-17515.85186665816
 30
0.0000000000000014
 10
19231.16681281156
 20
-17515.80485898827
 30
0.0000000000000014
 10
19231.57356585757
 20
-17515.77945897152
 30
0.0000000000000014
 10
19231.98993210436
 20
-17515.77557841341
 30
0.0000000000000014
  0
SPLINE
  5
3A98B6
330
18
100
AcDbEntity
  8
姿図
100
AcDbSpline
210
0.0
220
0.0
230
1.0
 70
     8
 71
     3
 72
     8
 73
     4
 74
     0
 42
0.000000001
 43
0.0000000001
 40
0.0
 40
0.0
 40
0.0
 40
0.0
 40
1.0
 40
1.0
 40
1.0
 40
1.0
 10
19225.81155441895
 20
-17518.15841748476
 30
0.0000000000000014
 10
19227.09284415278
 20
-17516.84625967502
 30
0.0000000000000014
 10
19228.73696607032
 20
-17516.09387237331
 30
0.0000000000000014
 10
19230.77126046738
 20
-17515.85186665816
 30
0.0000000000000014
  0
SPLINE
  5
3A98B7
330
18
100
AcDbEntity
  8
姿図
100
AcDbSpline
210
0.0
220
0.0
230
1.0
 70
     8
 71
     3
 72
    11
 73
     7
 74
     0
 42
0.000000001
 43
0.0000000001
 40
0.0
 40
0.0
 40
0.0
 40
0.0
 40
1.0
 40
1.0
 40
1.0
 40
2.0
 40
2.0
 40
2.0
 40
2.0
 10
19240.61241045705
 20
-17511.56634303473
 30
0.0000000000000014
 10
19240.61241045705
 20
-17511.56634303473
 30
0.0000000000000014
 10
19235.24721966903
 20
-17515.44608375168
 30
0.0000000000000014
 10
19235.24721966903
 20
-17515.44608375168
 30
0.0000000000000014
 10
19235.24721966903
 20
-17515.44608375168
 30
0.0000000000000014
 10
19234.18156549407
 20
-17515.92251045475
 30
0.0000000000000014
 10
19233.67365335357
 20
-17515.87118125423
 30
0.0000000000000014
  0
SPLINE
  5
3A98B8
330
18
100
AcDbEntity
  8
姿図
100
AcDbSpline
210
0.0
220
0.0
230
1.0
 70
     8
 71
     3
 72
     8
 73
     4
 74
     0
 42
0.000000001
 43
0.0000000001
 40
0.0
 40
0.0
 40
0.0
 40
0.0
 40
1.0
 40
1.0
 40
1.0
 40
1.0
 10
19251.22603506728
 20
-17528.72676473177
 30
0.0000000000000014
 10
19251.22603506728
 20
-17528.72676473177
 30
0.0000000000000014
 10
19251.08695233667
 20
-17529.3473012521
 30
0.0000000000000014
 10
19251.26193022984
 20
-17530.31602966869
 30
0.0000000000000014
  0
SPLINE
  5
3A98B9
330
18
100
AcDbEntity
  8
姿図
100
AcDbSpline
210
0.0
220
0.0
230
1.0
 70
     8
 71
     3
 72
    17
 73
    13
 74
     0
 42
0.000000001
 43
0.0000000001
 40
0.044386709586008
 40
0.044386709586008
 40
0.044386709586008
 40
0.044386709586008
 40
1.0
 40
1.0
 40
1.0
 40
2.0
 40
2.0
 40
2.0
 40
3.0
 40
3.0
 40
3.0
 40
3.958697295048005
 40
3.958697295048005
 40
3.958697295048005
 40
3.958697295048005
 10
19218.79728965825
 20
-17527.98340353808
 30
0.0000000000000014
 10
19218.79249679237
 20
-17526.47837730372
 30
0.0000000000000014
 10
19219.19987970468
 20
-17525.14893313078
 30
0.0000000000000014
 10
19220.06577076882
 20
-17524.11313391156
 30
0.0000000000000014
 10
19223.28213608428
 20
-17520.26573692997
 30
0.0000000000000014
 10
19231.60769713008
 20
-17521.92837969306
 30
0.0000000000000014
 10
19238.66193442084
 20
-17527.82576969317
 30
0.0000000000000014
 10
19245.7159071281
 20
-17533.72333608229
 30
0.0000000000000014
 10
19248.82696820745
 20
-17541.6225649025
 30
0.0000000000000014
 10
19245.61051469749
 20
-17545.46996188409
 30
0.0000000000000014
 10
19244.78224496019
 20
-17546.46057113708
 30
0.0000000000000014
 10
19243.61514604576
 20
-17547.08592577951
 30
0.0000000000000014
 10
19242.21832508346
 20
-17547.36778506793
 30
0.0000000000000014
  0
SPLINE
  5
3A98BA
330
18
100
AcDbEntity
  8
姿図
100
AcDbSpline
210
0.0
220
0.0
230
1.0
 70
     8
 71
     3
 72
    11
 73
     7
 74
     0
 42
0.000000001
 43
0.0000000001
 40
0.0
 40
0.0
 40
0.0
 40
0.0
 40
1.0
 40
1.0
 40
1.0
 40
2.0
 40
2.0
 40
2.0
 40
2.0
 10
19220.46070575148
 20
-17525.81034891967
 30
0.0000000000000014
 10
19223.26687843533
 20
-17522.4919425647
 30
0.0000000000000014
 10
19230.78078547366
 20
-17524.2329020461
 30
0.0000000000000014
 10
19237.24385501348
 20
-17529.69849176146
 30
0.0000000000000014
 10
19243.70665996978
 20
-17535.16408147683
 30
0.0000000000000014
 10
19246.67114178581
 20
-17542.28472922805
 30
0.0000000000000014
 10
19243.86452812944
 20
-17545.60313558302
 30
0.0000000000000014
  0
POLYLINE
  5
3A98BB
330
18
100
AcDbEntity
  8
姿図
100
AcDb2dPolyline
 66
     1
 10
0.0
 20
0.0
 30
0.0000000000000014
  0
VERTEX
  5
3A98BC
330
3A98BB
100
AcDbEntity
  8
姿図
100
AcDbVertex
100
AcDb2dVertex
 10
19222.04547276876
 20
-17521.70683510252
 30
0.0000000000000014
  0
VERTEX
  5
3A98BD
330
3A98BB
100
AcDbEntity
  8
姿図
100
AcDbVertex
100
AcDb2dVertex
 10
19225.81155441895
 20
-17518.15841748476
 30
0.0000000000000014
  0
SEQEND
  5
3A98BE
330
3A98BB
100
AcDbEntity
  8
姿図
  0
SPLINE
  5
3A98BF
330
18
100
AcDbEntity
  8
姿図
100
AcDbSpline
210
0.0
220
0.0
230
1.0
 70
     8
 71
     3
 72
    17
 73
    13
 74
     0
 42
0.000000001
 43
0.0000000001
 40
0.0
 40
0.0
 40
0.0
 40
0.0
 40
1.0
 40
1.0
 40
1.0
 40
2.0
 40
2.0
 40
2.0
 40
3.0
 40
3.0
 40
3.0
 40
4.0
 40
4.0
 40
4.0
 40
4.0
 10
19245.61051469749
 20
-17545.46996188409
 30
0.0000000000000014
 10
19245.61051469749
 20
-17545.46996188409
 30
0.0000000000000014
 10
19247.35103320638
 20
-17543.27991599543
 30
0.0000000000000014
 10
19247.35103320638
 20
-17543.27991599543
 30
0.0000000000000014
 10
19250.68778401789
 20
-17539.28911475261
 30
0.0000000000000014
 10
19247.67964592308
 20
-17531.2782316921
 30
0.0000000000000014
 10
19240.63316974854
 20
-17525.38666252916
 30
0.0000000000000014
 10
19233.58616440698
 20
-17519.49526975523
 30
0.0000000000000014
 10
19225.16896927298
 20
-17517.95415901673
 30
0.0000000000000014
 10
19221.83265943398
 20
-17521.94513664856
 30
0.0000000000000014
 10
19221.83265943398
 20
-17521.94513664856
 30
0.0000000000000014
 10
19220.36430916013
 20
-17523.78681425193
 30
0.0000000000000014
 10
19220.36430916013
 20
-17523.78681425193
 30
0.0000000000000014
  0
SPLINE
  5
3A98C0
330
18
100
AcDbEntity
  8
姿図
100
AcDbSpline
210
0.0
220
0.0
230
1.0
 70
     8
 71
     3
 72
    14
 73
    10
 74
     0
 42
0.000000001
 43
0.0000000001
 40
0.0
 40
0.0
 40
0.0
 40
0.0
 40
1.0
 40
1.0
 40
1.0
 40
2.0
 40
2.0
 40
2.0
 40
3.0
 40
3.0
 40
3.0
 40
3.0
 10
19247.92650233586
 20
-17542.44347933274
 30
0.0000000000000014
 10
19247.92650233586
 20
-17542.44347933274
 30
0.0000000000000014
 10
19250.2985816779
 20
-17538.87142558828
 30
0.0000000000000014
 10
19250.2985816779
 20
-17538.87142558828
 30
0.0000000000000014
 10
19253.19832872901
 20
-17534.47087268636
 30
0.0000000000000014
 10
19250.47788110169
 20
-17526.75261898549
 30
0.0000000000000014
 10
19243.95572124514
 20
-17521.29937650049
 30
0.0000000000000014
 10
19238.30765710388
 20
-17516.57744283108
 30
0.0000000000000014
 10
19231.44365535523
 20
-17514.99161747976
 30
0.0000000000000014
 10
19227.25697412213
 20
-17517.00509797421
 30
0.0000000000000014
  0
SPLINE
  5
3A98C1
330
18
100
AcDbEntity
  8
姿図
100
AcDbSpline
210
0.0
220
0.0
230
1.0
 70
     8
 71
     3
 72
    14
 73
    10
 74
     0
 42
0.000000001
 43
0.0000000001
 40
0.0
 40
0.0
 40
0.0
 40
0.0
 40
1.0
 40
1.0
 40
1.0
 40
2.0
 40
2.0
 40
2.0
 40
3.0
 40
3.0
 40
3.0
 40
3.0
 10
19258.68067539987
 20
-17517.99949099106
 30
0.0000000000000014
 10
19258.68067539987
 20
-17517.99949099106
 30
0.0000000000000014
 10
19258.52536488078
 20
-17517.97479653034
 30
0.0000000000000014
 10
19258.52536488078
 20
-17517.97479653034
 30
0.0000000000000014
 10
19257.94098810653
 20
-17517.97479653034
 30
0.0000000000000014
 10
19257.46711904404
 20
-17518.96433884955
 30
0.0000000000000014
 10
19257.46711904404
 20
-17520.18512715459
 30
0.0000000000000014
 10
19257.46711904404
 20
-17521.05119717016
 30
0.0000000000000014
 10
19257.70568517358
 20
-17521.8010268313
 30
0.0000000000000014
 10
19258.05281873583
 20
-17522.163506237
 30
0.0000000000000014
  0
SPLINE
  5
3A98C2
330
18
100
AcDbEntity
  8
姿図
100
AcDbSpline
210
0.0
220
0.0
230
1.0
 70
     8
 71
     3
 72
     8
 73
     4
 74
     0
 42
0.000000001
 43
0.0000000001
 40
0.0
 40
0.0
 40
0.0
 40
0.0
 40
0.0001341872790085
 40
0.0001341872790085
 40
0.0001341872790085
 40
0.0001341872790085
 10
19240.4013945957
 20
-17546.79870026032
 30
0.0000000000000014
 10
19240.40137607458
 20
-17546.79879363516
 30
0.0000000000000014
 10
19240.40135755092
 20
-17546.7988870087
 30
0.0000000000000014
 10
19240.40133902471
 20
-17546.79898038094
 30
0.0000000000000014
  0
ARC
  5
3A98C3
330
18
100
AcDbEntity
  8
姿図
100
AcDbCircle
 10
19241.36466571967
 20
-17533.42690987406
 30
0.0000000000000014
 40
10.37465278630733
100
AcDbArc
 50
17.44882884848328
 51
27.46470538246481
  0
SPLINE
  5
3A98C4
330
18
100
AcDbEntity
  8
姿図
100
AcDbSpline
210
0.0
220
0.0
230
1.0
 70
     8
 71
     3
 72
    17
 73
    13
 74
     0
 42
0.000000001
 43
0.0000000001
 40
0.0
 40
0.0
 40
0.0
 40
0.0
 40
1.0
 40
1.0
 40
1.0
 40
2.0
 40
2.0
 40
2.0
 40
3.0
 40
3.0
 40
3.0
 40
4.0
 40
4.0
 40
4.0
 40
4.0
 10
19240.32442223646
 20
-17505.53876209276
 30
0.0000000000000014
 10
19240.32442223646
 20
-17505.53876209276
 30
0.0000000000000014
 10
19240.06404650374
 20
-17505.21221669799
 30
0.0000000000000014
 10
19240.06404650374
 20
-17505.21221669799
 30
0.0000000000000014
 10
19240.06404650374
 20
-17505.21221669799
 30
0.0000000000000014
 10
19240.01334711589
 20
-17505.13386309858
 30
0.0000000000000014
 10
19240.06459958796
 20
-17505.06362140123
 30
0.0000000000000014
 10
19240.0953879435
 20
-17505.02140263826
 30
0.0000000000000014
 10
19240.16286421969
 20
-17504.98213365786
 30
0.0000000000000014
 10
19240.300029109
 20
-17504.96443496246
 30
0.0000000000000014
 10
19240.300029109
 20
-17504.96443496246
 30
0.0000000000000014
 10
19240.61505666895
 20
-17505.2906624781
 30
0.0000000000000014
 10
19240.61505666895
 20
-17505.2906624781
 30
0.0000000000000014
  0
POLYLINE
  5
3A98C5
330
18
100
AcDbEntity
  8
姿図
100
AcDb2dPolyline
 66
     1
 10
0.0
 20
0.0
 30
0.0000000000000014
  0
VERTEX
  5
3A98C6
330
3A98C5
100
AcDbEntity
  8
姿図
100
AcDbVertex
100
AcDb2dVertex
 10
19240.09981261735
 20
-17505.02960672102
 30
0.0000000000000014
  0
VERTEX
  5
3A98C7
330
3A98C5
100
AcDbEntity
  8
姿図
100
AcDbVertex
100
AcDb2dVertex
 10
19241.30295518137
 20
-17503.48954367957
 30
0.0000000000000014
  0
VERTEX
  5
3A98C8
330
3A98C5
100
AcDbEntity
  8
姿図
100
AcDbVertex
100
AcDb2dVertex
 10
19242.31756310035
 20
-17502.52315605881
 30
0.0000000000000014
  0
SEQEND
  5
3A98C9
330
3A98C5
100
AcDbEntity
  8
姿図
  0
POLYLINE
  5
3A98CA
330
18
100
AcDbEntity
  8
姿図
100
AcDb2dPolyline
 66
     1
 10
0.0
 20
0.0
 30
0.0000000000000014
  0
VERTEX
  5
3A98CB
330
3A98CA
100
AcDbEntity
  8
姿図
100
AcDbVertex
100
AcDb2dVertex
 10
19240.300029109
 20
-17504.96443496246
 30
0.0000000000000014
  0
VERTEX
  5
3A98CC
330
3A98CA
100
AcDbEntity
  8
姿図
100
AcDbVertex
100
AcDb2dVertex
 10
19241.47994213531
 20
-17503.47774454931
 30
0.0000000000000014
  0
VERTEX
  5
3A98CD
330
3A98CA
100
AcDbEntity
  8
姿図
100
AcDbVertex
100
AcDb2dVertex
 10
19242.40027429584
 20
-17502.60433236771
 30
0.0000000000000014
  0
SEQEND
  5
3A98CE
330
3A98CA
100
AcDbEntity
  8
姿図
  0
ELLIPSE
  5
3A98CF
330
18
100
AcDbEntity
  8
姿図
100
AcDbEllipse
 10
19247.28381309099
 20
-17482.19225067836
 30
0.0000000000000014
 11
25.18660852149495
 21
0.0
 31
0.0
210
0.0
220
0.0
230
1.0
 40
0.2673555525296203
 41
10.53872102571436
 42
10.59507337388397
  0
ELLIPSE
  5
3A98D0
330
18
100
AcDbEntity
  8
姿図
100
AcDbEllipse
 10
19247.28381309099
 20
-17482.45295825084
 30
0.0000000000000014
 11
20.80917596045914
 21
0.0
 31
0.0
210
0.0
220
0.0
230
1.0
 40
0.26735555252962
 41
10.43381641944167
 42
10.51443037292207
  0
ELLIPSE
  5
3A98D1
330
18
100
AcDbEntity
  8
姿図
100
AcDbEllipse
 10
19247.28381309099
 20
-17482.43762655991
 30
0.0000000000000014
 11
19.58542994057645
 21
0.0
 31
0.0
210
0.0
220
0.0
230
1.0
 40
0.26735555252962
 41
10.3945860001764
 42
10.48566856919573
  0
ELLIPSE
  5
3A98D2
330
18
100
AcDbEntity
  8
姿図
100
AcDbEllipse
 10
19247.28381309099
 20
-17482.19225067836
 30
0.0000000000000014
 11
25.18660852149495
 21
0.0
 31
0.0
210
0.0
220
0.0
230
1.0
 40
0.2673555525296203
 41
5.360102617759432
 42
10.37025380618192
  0
ELLIPSE
  5
3A98D3
330
18
100
AcDbEntity
  8
姿図
100
AcDbEllipse
 10
19247.28381309099
 20
-17482.45295825084
 30
0.0000000000000014
 11
20.80917596045914
 21
0.0
 31
0.0
210
0.0
220
0.0
230
1.0
 40
0.26735555252962
 41
5.535210901125867
 42
10.207236421254
  0
ELLIPSE
  5
3A98D4
330
18
100
AcDbEntity
  8
姿図
100
AcDbEllipse
 10
19247.28381309099
 20
-17482.43762655991
 30
0.0000000000000014
 11
19.58542994057645
 21
0.0
 31
0.0
210
0.0
220
0.0
230
1.0
 40
0.26735555252962
 41
5.60711382873112
 42
10.141780490638
  0
SPLINE
  5
3A9927
330
18
100
AcDbEntity
  8
姿図
100
AcDbSpline
210
0.0
220
0.0
230
1.0
 70
    11
 71
     3
 72
    17
 73
    13
 74
     0
 42
0.000000001
 43
0.0000000001
 40
0.0
 40
0.0
 40
0.0
 40
0.0
 40
1.0
 40
1.0
 40
1.0
 40
2.0
 40
2.0
 40
2.0
 40
3.0
 40
3.0
 40
3.0
 40
4.0
 40
4.0
 40
4.0
 40
4.0
 10
19236.18847229789
 20
-17553.82413238453
 30
0.0000000000000014
 10
19233.53020179491
 20
-17557.08609425783
 30
0.0000000000000014
 10
19226.24912824345
 20
-17555.55221546854
 30
0.0000000000000014
 10
19219.92496504524
 20
-17550.39848151439
 30
0.0000000000000014
 10
19213.60115462504
 20
-17545.24439478222
 30
0.0000000000000014
 10
19210.6294408598
 20
-17538.42237361681
 30
0.0000000000000014
 10
19213.28771136278
 20
-17535.16058813251
 30
0.0000000000000014
 10
19215.94607006026
 20
-17531.89880264821
 30
0.0000000000000014
 10
19223.22732000073
 20
-17533.43250504849
 30
0.0000000000000014
 10
19229.55148319895
 20
-17538.58623900265
 30
0.0000000000000014
 10
19235.87529361915
 20
-17543.74014934581
 30
0.0000000000000014
 10
19238.84718377339
 20
-17550.56217051122
 30
0.0000000000000014
 10
19236.18847229789
 20
-17553.82413238453
 30
0.0000000000000014
  0
SPLINE
  5
3A9928
330
18
100
AcDbEntity
  8
姿図
100
AcDbSpline
210
0.0
220
0.0
230
1.0
 70
    11
 71
     3
 72
    17
 73
    13
 74
     0
 42
0.000000001
 43
0.0000000001
 40
0.0
 40
0.0
 40
0.0
 40
0.0
 40
1.0
 40
1.0
 40
1.0
 40
2.0
 40
2.0
 40
2.0
 40
3.0
 40
3.0
 40
3.0
 40
4.0
 40
4.0
 40
4.0
 40
4.0
 10
19235.94002838406
 20
-17553.76786429187
 30
0.0000000000000014
 10
19233.40346629467
 20
-17556.88060106676
 30
0.0000000000000014
 10
19226.30010466596
 20
-17555.29027779581
 30
0.0000000000000014
 10
19220.07366097663
 20
-17550.21609528301
 30
0.0000000000000014
 10
19213.84748187081
 20
-17545.14173638119
 30
0.0000000000000014
 10
19210.856365315
 20
-17538.50510006025
 30
0.0000000000000014
 10
19213.39292740439
 20
-17535.39253967436
 30
0.0000000000000014
 10
19215.92957768828
 20
-17532.28015567747
 30
0.0000000000000014
 10
19223.033115706
 20
-17533.87012617041
 30
0.0000000000000014
 10
19229.25955939533
 20
-17538.94448507222
 30
0.0000000000000014
 10
19235.48573850115
 20
-17544.01884397404
 30
0.0000000000000014
 10
19238.47694325146
 20
-17550.65530390597
 30
0.0000000000000014
 10
19235.94002838406
 20
-17553.76786429187
 30
0.0000000000000014
  0
POLYLINE
  5
3A9929
330
18
100
AcDbEntity
  8
姿図
100
AcDb2dPolyline
 66
     1
 10
0.0
 20
0.0
 30
0.0000000000000014
  0
VERTEX
  5
3A992A
330
3A9929
100
AcDbEntity
  8
姿図
100
AcDbVertex
100
AcDb2dVertex
 10
19220.49607174702
 20
-17525.76854472544
 30
0.0000000000000014
  0
VERTEX
  5
3A992B
330
3A9929
100
AcDbEntity
  8
姿図
100
AcDbVertex
100
AcDb2dVertex
 10
19213.34638302527
 20
-17535.09025301146
 30
0.0000000000000014
  0
SEQEND
  5
3A992C
330
3A9929
100
AcDbEntity
  8
姿図
  0
POLYLINE
  5
3A992D
330
18
100
AcDbEntity
  8
姿図
100
AcDb2dPolyline
 66
     1
 10
0.0
 20
0.0
 30
0.0000000000000014
  0
VERTEX
  5
3A992E
330
3A992D
100
AcDbEntity
  8
姿図
100
AcDbVertex
100
AcDb2dVertex
 10
19243.86452812944
 20
-17545.60313558302
 30
0.0000000000000014
  0
VERTEX
  5
3A992F
330
3A992D
100
AcDbEntity
  8
姿図
100
AcDbVertex
100
AcDb2dVertex
 10
19236.13067003985
 20
-17553.89345476784
 30
0.0000000000000014
  0
SEQEND
  5
3A9930
330
3A992D
100
AcDbEntity
  8
姿図
  0
SPLINE
  5
3A9931
330
18
100
AcDbEntity
  8
姿図
100
AcDbSpline
210
0.0
220
0.0
230
1.0
 70
     8
 71
     3
 72
    11
 73
     7
 74
     0
 42
0.000000001
 43
0.0000000001
 40
0.0514768077159905
 40
0.0514768077159905
 40
0.0514768077159905
 40
0.0514768077159905
 40
1.0
 40
1.0
 40
1.0
 40
1.99935959912693
 40
1.99935959912693
 40
1.99935959912693
 40
1.99935959912693
 10
19236.30803708672
 20
-17552.37277991823
 30
0.0000000000000014
 10
19233.36699366604
 20
-17554.71119798397
 30
0.0000000000000014
 10
19226.93042436407
 20
-17553.14401635156
 30
0.0000000000000014
 10
19221.30423887146
 20
-17548.55874419007
 30
0.0000000000000014
 10
19215.52881865358
 20
-17543.8518212222
 30
0.0000000000000014
 10
19212.6955874224
 20
-17537.66636086756
 30
0.0000000000000014
 10
19214.68581914494
 20
-17534.37140449234
 30
0.0000000000000014
  0
SPLINE
  5
3A9932
330
18
100
AcDbEntity
  8
姿図
100
AcDbSpline
210
0.0
220
0.0
230
1.0
 70
     8
 71
     3
 72
    11
 73
     7
 74
     0
 42
0.000000001
 43
0.0000000001
 40
0.0757593931857056
 40
0.0757593931857056
 40
0.0757593931857056
 40
0.0757593931857056
 40
1.0
 40
1.0
 40
1.0
 40
1.955653258244389
 40
1.955653258244389
 40
1.955653258244389
 40
1.955653258244389
 10
19236.50629611618
 20
-17552.00365347878
 30
0.0000000000000014
 10
19233.46890238014
 20
-17554.08792322456
 30
0.0000000000000014
 10
19227.21732696058
 20
-17552.48557572478
 30
0.0000000000000014
 10
19221.73517414025
 20
-17548.01768842438
 30
0.0000000000000014
 10
19216.21233816232
 20
-17543.51661966547
 30
0.0000000000000014
 10
19213.37996923966
 20
-17537.66351126971
 30
0.0000000000000014
 10
19214.8831499966
 20
-17534.27887750701
 30
0.0000000000000014
  0
SPLINE
  5
3A9933
330
18
100
AcDbEntity
  8
姿図
100
AcDbSpline
210
0.0
220
0.0
230
1.0
 70
     8
 71
     3
 72
    11
 73
     7
 74
     0
 42
0.000000001
 43
0.0000000001
 40
0.1032501974754412
 40
0.1032501974754412
 40
0.1032501974754412
 40
0.1032501974754412
 40
1.0
 40
1.0
 40
1.0
 40
1.916038734962438
 40
1.916038734962438
 40
1.916038734962438
 40
1.916038734962438
 10
19236.65777067484
 20
-17551.63881932617
 30
0.0000000000000014
 10
19233.52862205924
 20
-17553.4490111519
 30
0.0000000000000014
 10
19227.48519993893
 20
-17551.81162619263
 30
0.0000000000000014
 10
19222.16610940904
 20
-17547.4766326587
 30
0.0000000000000014
 10
19216.87221056133
 20
-17543.16214589656
 30
0.0000000000000014
 10
19214.05034699871
 20
-17537.60538795233
 30
0.0000000000000014
 10
19215.14938463648
 20
-17534.17118246636
 30
0.0000000000000014
  0
SPLINE
  5
3A9934
330
18
100
AcDbEntity
  8
姿図
100
AcDbSpline
210
0.0
220
0.0
230
1.0
 70
     8
 71
     3
 72
    11
 73
     7
 74
     0
 42
0.000000001
 43
0.0000000001
 40
0.1323499937987221
 40
0.1323499937987221
 40
0.1323499937987221
 40
0.1323499937987221
 40
1.0
 40
1.0
 40
1.0
 40
1.878224141983641
 40
1.878224141983641
 40
1.878224141983641
 40
1.878224141983641
 10
19236.77499850398
 20
-17551.26312184852
 30
0.0000000000000014
 10
19233.56809839437
 20
-17552.79884749342
 30
0.0000000000000014
 10
19227.7435291468
 20
-17551.12989860461
 30
0.0000000000000014
 10
19222.59704467783
 20
-17546.93557689301
 30
0.0000000000000014
 10
19217.52168094502
 20
-17542.79919456532
 30
0.0000000000000014
 10
19214.71847104756
 20
-17537.52098742309
 30
0.0000000000000014
 10
19215.4641559564
 20
-17534.06603881619
 30
0.0000000000000014
  0
SPLINE
  5
3A9935
330
18
100
AcDbEntity
  8
姿図
100
AcDbSpline
210
0.0
220
0.0
230
1.0
 70
     8
 71
     3
 72
    11
 73
     7
 74
     0
 42
0.000000001
 43
0.0000000001
 40
0.1641920493002541
 40
0.1641920493002541
 40
0.1641920493002541
 40
0.1641920493002541
 40
1.0
 40
1.0
 40
1.0
 40
1.841127923927267
 40
1.841127923927267
 40
1.841127923927267
 40
1.841127923927267
 10
19236.84244805834
 20
-17550.87823087392
 30
0.0000000000000014
 10
19233.57243294044
 20
-17552.13189232126
 30
0.0000000000000014
 10
19227.98559258602
 20
-17550.43491461466
 30
0.0000000000000014
 10
19223.02797994662
 20
-17546.39452112732
 30
0.0000000000000014
 10
19218.16699975299
 20
-17542.43285973186
 30
0.0000000000000014
 10
19215.39027570539
 20
-17537.42379769372
 30
0.0000000000000014
 10
19215.81949776684
 20
-17533.97233031631
 30
0.0000000000000014
  0
SPLINE
  5
3A9936
330
18
100
AcDbEntity
  8
姿図
100
AcDbSpline
210
0.0
220
0.0
230
1.0
 70
     8
 71
     3
 72
    11
 73
     7
 74
     0
 42
0.000000001
 43
0.0000000001
 40
0.2012469607704792
 40
0.2012469607704792
 40
0.2012469607704792
 40
0.2012469607704792
 40
1.0
 40
1.0
 40
1.0
 40
1.804139848512499
 40
1.804139848512499
 40
1.804139848512499
 40
1.804139848512499
 10
19236.82505779375
 20
-17550.48656974479
 30
0.0000000000000014
 10
19233.50922831387
 20
-17551.43576207469
 30
0.0000000000000014
 10
19228.19673585916
 20
-17549.71473106866
 30
0.0000000000000014
 10
19223.45891521541
 20
-17545.85346536164
 30
0.0000000000000014
 10
19218.81169359152
 20
-17542.06601555313
 30
0.0000000000000014
 10
19216.06945080907
 20
-17537.32125727436
 30
0.0000000000000014
 10
19216.21231178951
 20
-17533.89541738067
 30
0.0000000000000014
  0
SPLINE
  5
3A9937
330
18
100
AcDbEntity
  8
姿図
100
AcDbSpline
210
0.0
220
0.0
230
1.0
 70
     8
 71
     3
 72
    11
 73
     7
 74
     0
 42
0.000000001
 43
0.0000000001
 40
0.2383717968276542
 40
0.2383717968276542
 40
0.2383717968276542
 40
0.2383717968276542
 40
1.0
 40
1.0
 40
1.0
 40
1.766855141465714
 40
1.766855141465714
 40
1.766855141465714
 40
1.766855141465714
 10
19236.78096711013
 20
-17550.06061322359
 30
0.0000000000000014
 10
19233.44757175054
 20
-17550.73010101796
 30
0.0000000000000014
 10
19228.40746437314
 20
-17548.99420949902
 30
0.0000000000000014
 10
19223.8898504842
 20
-17545.31240959595
 30
0.0000000000000014
 10
19219.4581017002
 20
-17541.70056849136
 30
0.0000000000000014
 10
19216.75877478059
 20
-17537.21813392464
 30
0.0000000000000014
 10
19216.64188490578
 20
-17533.83916791459
 30
0.0000000000000014
  0
SPLINE
  5
3A9938
330
18
100
AcDbEntity
  8
姿図
100
AcDbSpline
210
0.0
220
0.0
230
1.0
 70
     8
 71
     3
 72
    11
 73
     7
 74
     0
 42
0.000000001
 43
0.0000000001
 40
0.2759365766446367
 40
0.2759365766446367
 40
0.2759365766446367
 40
0.2759365766446367
 40
1.0
 40
1.0
 40
1.0
 40
1.728960078216898
 40
1.728960078216898
 40
1.728960078216898
 40
1.728960078216898
 10
19236.70648851442
 20
-17549.60111918944
 30
0.0000000000000014
 10
19233.38260496075
 20
-17550.01307742178
 30
0.0000000000000014
 10
19228.61558335134
 20
-17548.27156118973
 30
0.0000000000000014
 10
19224.32078575299
 20
-17544.77135383026
 30
0.0000000000000014
 10
19220.10803713133
 20
-17541.3379961702
 30
0.0000000000000014
 10
19217.460721486
 20
-17537.11796192599
 30
0.0000000000000014
 10
19217.10896498625
 20
-17533.80688474376
 30
0.0000000000000014
  0
SPLINE
  5
3A9939
330
18
100
AcDbEntity
  8
姿図
100
AcDbSpline
210
0.0
220
0.0
230
1.0
 70
     8
 71
     3
 72
    11
 73
     7
 74
     0
 42
0.000000001
 43
0.0000000001
 40
0.3142573428806394
 40
0.3142573428806394
 40
0.3142573428806394
 40
0.3142573428806394
 40
1.0
 40
1.0
 40
1.0
 40
1.690173445998052
 40
1.690173445998052
 40
1.690173445998052
 40
1.690173445998052
 10
19236.59783536391
 20
-17549.10743438903
 30
0.0000000000000014
 10
19233.31027752227
 20
-17549.28275744309
 30
0.0000000000000014
 10
19228.81921818002
 20
-17547.54525835359
 30
0.0000000000000014
 10
19224.75172102177
 20
-17544.23029806458
 30
0.0000000000000014
 10
19220.76312504757
 20
-17540.9796230847
 30
0.0000000000000014
 10
19218.17780631193
 20
-17537.02375959701
 30
0.0000000000000014
 10
19217.61543616712
 20
-17533.80182270063
 30
0.0000000000000014
  0
SPLINE
  5
3A993A
330
18
100
AcDbEntity
  8
姿図
100
AcDbSpline
210
0.0
220
0.0
230
1.0
 70
     8
 71
     3
 72
    11
 73
     7
 74
     0
 42
0.000000001
 43
0.0000000001
 40
0.3536413394393382
 40
0.3536413394393382
 40
0.3536413394393382
 40
0.3536413394393382
 40
1.0
 40
1.0
 40
1.0
 40
1.650209421469303
 40
1.650209421469303
 40
1.650209421469303
 40
1.650209421469303
 10
19236.45073042894
 20
-17548.57772157689
 30
0.0000000000000014
 10
19233.22674331573
 20
-17548.53692016723
 30
0.0000000000000014
 10
19229.01654643542
 20
-17546.81381573759
 30
0.0000000000000014
 10
19225.18265629056
 20
-17543.68924229889
 30
0.0000000000000014
 10
19221.42501725664
 20
-17540.62679544541
 30
0.0000000000000014
 10
19218.91284889366
 20
-17536.93846257324
 30
0.0000000000000014
 10
19218.16429040736
 20
-17533.82756210541
 30
0.0000000000000014
  0
SPLINE
  5
3A993B
330
18
100
AcDbEntity
  8
姿図
100
AcDbSpline
210
0.0
220
0.0
230
1.0
 70
     8
 71
     3
 72
    11
 73
     7
 74
     0
 42
0.000000001
 43
0.0000000001
 40
0.3944223840632796
 40
0.3944223840632796
 40
0.3944223840632796
 40
0.3944223840632796
 40
1.0
 40
1.0
 40
1.0
 40
1.60874644322287
 40
1.60874644322287
 40
1.60874644322287
 40
1.60874644322287
 10
19236.25999211151
 20
-17548.00892273406
 30
0.0000000000000014
 10
19233.12790428128
 20
-17547.77285198829
 30
0.0000000000000014
 10
19229.2055880705
 20
-17546.07561962768
 30
0.0000000000000014
 10
19225.61359155935
 20
-17543.1481865332
 30
0.0000000000000014
 10
19222.09557210087
 20
-17540.28102778702
 30
0.0000000000000014
 10
19219.669243975
 20
-17536.86526170889
 30
0.0000000000000014
 10
19218.75980985962
 20
-17533.88837237671
 30
0.0000000000000014
  0
SPLINE
  5
3A993C
330
18
100
AcDbEntity
  8
姿図
100
AcDbSpline
210
0.0
220
0.0
230
1.0
 70
     8
 71
     3
 72
    11
 73
     7
 74
     0
 42
0.000000001
 43
0.0000000001
 40
0.4369980186941804
 40
0.4369980186941804
 40
0.4369980186941804
 40
0.4369980186941804
 40
1.0
 40
1.0
 40
1.0
 40
1.565392169551839
 40
1.565392169551839
 40
1.565392169551839
 40
1.565392169551839
 10
19236.0189866384
 20
-17547.39648861676
 30
0.0000000000000014
 10
19233.00894892654
 20
-17546.98706480527
 30
0.0000000000000014
 10
19229.38398505679
 20
-17545.32874825957
 30
0.0000000000000014
 10
19226.04452682814
 20
-17542.60713076751
 30
0.0000000000000014
 10
19222.77705697054
 20
-17539.94416801512
 30
0.0000000000000014
 10
19220.45131746411
 20
-17536.80795777973
 30
0.0000000000000014
 10
19219.40798000198
 20
-17533.98967069659
 30
0.0000000000000014
  0
SPLINE
  5
3A993D
330
18
100
AcDbEntity
  8
姿図
100
AcDbSpline
210
0.0
220
0.0
230
1.0
 70
     8
 71
     3
 72
    11
 73
     7
 74
     0
 42
0.000000001
 43
0.0000000001
 40
0.481879997568997
 40
0.481879997568997
 40
0.481879997568997
 40
0.481879997568997
 40
1.0
 40
1.0
 40
1.0
 40
1.519633642026464
 40
1.519633642026464
 40
1.519633642026464
 40
1.519633642026464
 10
19235.71878231605
 20
-17546.73379964267
 30
0.0000000000000014
 10
19232.86374132199
 20
-17546.174852814
 30
0.0000000000000014
 10
19229.54870191312
 20
-17544.57072775337
 30
0.0000000000000014
 10
19226.47546209693
 20
-17542.06607500183
 30
0.0000000000000014
 10
19223.47243631455
 20
-17539.61863213274
 30
0.0000000000000014
 10
19221.26487632665
 20
-17536.77144406634
 30
0.0000000000000014
 10
19220.11725337947
 20
-17534.13871470665
 30
0.0000000000000014
  0
SPLINE
  5
3A993E
330
18
100
AcDbEntity
  8
姿図
100
AcDbSpline
210
0.0
220
0.0
230
1.0
 70
     8
 71
     3
 72
    11
 73
     7
 74
     0
 42
0.000000001
 43
0.0000000001
 40
0.5297770028492169
 40
0.5297770028492169
 40
0.5297770028492169
 40
0.5297770028492169
 40
1.0
 40
1.0
 40
1.0
 40
1.470753821489875
 40
1.470753821489875
 40
1.470753821489875
 40
1.470753821489875
 10
19235.34668585895
 20
-17546.01104871581
 30
0.0000000000000014
 10
19232.6838329977
 20
-17545.32951828323
 30
0.0000000000000014
 10
19229.6955350762
 20
-17543.79813225654
 30
0.0000000000000014
 10
19226.90639736572
 20
-17541.52501923614
 30
0.0000000000000014
 10
19224.18585398909
 20
-17539.30779735073
 30
0.0000000000000014
 10
19222.11816254984
 20
-17536.76249796866
 30
0.0000000000000014
 10
19220.89996140796
 20
-17534.34579095515
 30
0.0000000000000014
  0
SPLINE
  5
3A993F
330
18
100
AcDbEntity
  8
姿図
100
AcDbSpline
210
0.0
220
0.0
230
1.0
 70
     8
 71
     3
 72
    11
 73
     7
 74
     0
 42
0.000000001
 43
0.0000000001
 40
0.0386121084381379
 40
0.0386121084381379
 40
0.0386121084381379
 40
0.0386121084381379
 40
1.0
 40
1.0
 40
1.0
 40
1.99935959912693
 40
1.99935959912693
 40
1.99935959912693
 40
1.99935959912693
 10
19236.10768193196
 20
-17552.76893137093
 30
0.0000000000000014
 10
19233.11080420829
 20
-17555.29420953718
 30
0.0000000000000014
 10
19226.57579633271
 20
-17553.74726157971
 30
0.0000000000000014
 10
19220.87330360267
 20
-17549.09979995576
 30
0.0000000000000014
 10
19215.09788338479
 20
-17544.39287698789
 30
0.0000000000000014
 10
19212.26465215362
 20
-17538.20741663324
 30
0.0000000000000014
 10
19214.25488387615
 20
-17534.91246025803
 30
0.0000000000000014
  0
SPLINE
  5
3A9940
330
18
100
AcDbEntity
  8
姿図
100
AcDbSpline
210
0.0
220
0.0
230
1.0
 70
     8
 71
     3
 72
    11
 73
     7
 74
     0
 42
0.000000001
 43
0.0000000001
 40
0.0386121084381379
 40
0.0386121084381379
 40
0.0386121084381379
 40
0.0386121084381379
 40
1.0
 40
1.0
 40
1.0
 40
1.99935959912693
 40
1.99935959912693
 40
1.99935959912693
 40
1.99935959912693
 10
19235.62290184067
 20
-17553.40607463735
 30
0.0000000000000014
 10
19232.73887700346
 20
-17555.88375302722
 30
0.0000000000000014
 10
19226.20386912788
 20
-17554.33680506975
 30
0.0000000000000014
 10
19220.50137639785
 20
-17549.6893434458
 30
0.0000000000000014
 10
19214.72595617997
 20
-17544.98242047793
 30
0.0000000000000014
 10
19211.89272494879
 20
-17538.79696012328
 30
0.0000000000000014
 10
19213.88295667133
 20
-17535.50200374807
 30
0.0000000000000014
  0
SPLINE
  5
3A9941
330
18
100
AcDbEntity
  8
姿図
100
AcDbSpline
210
0.0
220
0.0
230
1.0
 70
     8
 71
     3
 72
    11
 73
     7
 74
     0
 42
0.000000001
 43
0.0000000001
 40
0.5818723173054643
 40
0.5818723173054643
 40
0.5818723173054643
 40
0.5818723173054643
 40
1.0
 40
1.0
 40
1.0
 40
1.417796651066386
 40
1.417796651066386
 40
1.417796651066386
 40
1.417796651066386
 10
19234.88467692888
 20
-17545.21505283766
 30
0.0000000000000014
 10
19232.45844123374
 20
-17544.44276222309
 30
0.0000000000000014
 10
19229.82083260001
 20
-17543.00796538961
 30
0.0000000000000014
 10
19227.34069935544
 20
-17540.98668721844
 30
0.0000000000000014
 10
19224.92620188362
 20
-17539.01889038683
 30
0.0000000000000014
 10
19223.02593380572
 20
-17536.79267800553
 30
0.0000000000000014
 10
19221.77735676908
 20
-17534.62728886382
 30
0.0000000000000014
  0
SPLINE
  5
3A9942
330
18
100
AcDbEntity
  8
姿図
100
AcDbSpline
210
0.0
220
0.0
230
1.0
 70
     8
 71
     3
 72
    11
 73
     7
 74
     0
 42
0.000000001
 43
0.0000000001
 40
0.6396781780111179
 40
0.6396781780111179
 40
0.6396781780111179
 40
0.6396781780111179
 40
1.0
 40
1.0
 40
1.0
 40
1.358708750309475
 40
1.358708750309475
 40
1.358708750309475
 40
1.358708750309475
 10
19234.29819080891
 20
-17544.31590485276
 30
0.0000000000000014
 10
19232.16309119863
 20
-17543.49377779156
 30
0.0000000000000014
 10
19229.90889117634
 20
-17542.18746932555
 30
0.0000000000000014
 10
19227.77163462423
 20
-17540.44563145276
 30
0.0000000000000014
 10
19225.69861329069
 20
-17538.75613504217
 30
0.0000000000000014
 10
19224.00465455154
 20
-17536.87614841486
 30
0.0000000000000014
 10
19222.77675707283
 20
-17535.00771591811
 30
0.0000000000000014
  0
SPLINE
  5
3A9943
330
18
100
AcDbEntity
  8
姿図
100
AcDbSpline
210
0.0
220
0.0
230
1.0
 70
     8
 71
     3
 72
    11
 73
     7
 74
     0
 42
0.000000001
 43
0.0000000001
 40
0.7067134213786423
 40
0.7067134213786423
 40
0.7067134213786423
 40
0.7067134213786423
 40
1.0
 40
1.0
 40
1.0
 40
1.290157983230625
 40
1.290157983230625
 40
1.290157983230625
 40
1.290157983230625
 10
19233.52662009675
 20
-17543.26603487216
 30
0.0000000000000014
 10
19231.7593192002
 20
-17542.45158923323
 30
0.0000000000000014
 10
19229.94220547308
 20
-17541.32235734516
 30
0.0000000000000014
 10
19228.20256989302
 20
-17539.90457568707
 30
0.0000000000000014
 10
19226.52571174887
 20
-17538.53794922271
 30
0.0000000000000014
 10
19225.09687893507
 20
-17537.0466826603
 30
0.0000000000000014
 10
19223.96211727601
 20
-17535.53771210534
 30
0.0000000000000014
  0
SPLINE
  5
3A9944
330
18
100
AcDbEntity
  8
姿図
100
AcDbSpline
210
0.0
220
0.0
230
1.0
 70
     8
 71
     3
 72
    11
 73
     7
 74
     0
 42
0.000000001
 43
0.0000000001
 40
0.7916731903329797
 40
0.7916731903329797
 40
0.7916731903329797
 40
0.7916731903329797
 40
1.0
 40
1.0
 40
1.0
 40
1.203459633550784
 40
1.203459633550784
 40
1.203459633550784
 40
1.203459633550784
 10
19232.41561172608
 20
-17541.94130416987
 30
0.0000000000000014
 10
19231.14735344458
 20
-17541.23480767687
 30
0.0000000000000014
 10
19229.87256678593
 20
-17540.37331985752
 30
0.0000000000000014
 10
19228.63687188273
 20
-17539.36624366937
 30
0.0000000000000014
 10
19227.46105400681
 20
-17538.40796116223
 30
0.0000000000000014
 10
19226.40718660826
 20
-17537.38839491669
 30
0.0000000000000014
 10
19225.49114496932
 20
-17536.34441344099
 30
0.0000000000000014
  0
SPLINE
  5
3A9945
330
18
100
AcDbEntity
  8
姿図
100
AcDbSpline
210
0.0
220
0.0
230
1.0
 70
     8
 71
     3
 72
    11
 73
     7
 74
     0
 42
0.000000001
 43
0.0000000001
 40
0.9558280587290073
 40
0.9558280587290073
 40
0.9558280587290073
 40
0.9558280587290073
 40
1.0
 40
1.0
 40
1.0
 40
1.035516544624892
 40
1.035516544624892
 40
1.035516544624892
 40
1.035516544624892
 10
19229.85866511714
 20
-17539.44605938785
 30
0.0000000000000014
 10
19229.59357823971
 20
-17539.24570727838
 30
0.0000000000000014
 10
19229.32981396082
 20
-17539.0387202393
 30
0.0000000000000014
 10
19229.06780715152
 20
-17538.82518790369
 30
0.0000000000000014
 10
19228.86255273652
 20
-17538.6579071373
 30
0.0000000000000014
 10
19228.66101443016
 20
-17538.48875891591
 30
0.0000000000000014
 10
19228.4632766784
 20
-17538.31793935545
 30
0.0000000000000014
  0
ENDSEC
  0
SECTION
  2
OBJECTS
  0
DICTIONARY
  5
C
330
0
100
AcDbDictionary
281
     1
  3
ACAD_GROUP
350
D
  3
ACAD_IMAGE_VARS
350
2F1759
  3
ACAD_LAYOUT
350
353
  3
ACAD_MLINESTYLE
350
E
  3
ACAD_PLOTSETTINGS
350
354
  3
ACAD_PLOTSTYLENAME
350
351
  3
ACAD_SCALELIST
350
CD53
  3
AcadDim
350
5182D
  3
AcDbVariableDictionary
350
E0D
  3
AEC_DISP_REPS
350
3A8C66
  3
AEC_DISPLAY_PROPS_DEFAULTS
350
3A8C68
  3
AEC_VARS
350
3A8C64
  3
APPDATA
350
2F1758
  3
DWGPROPS
350
3A9C42
  0
DICTIONARY
  5
559E
330
2
100
AcDbDictionary
280
     1
281
     1
  3
ACAD_LAYERFILTERS
360
29A509
  3
ACAD_LAYERSTATES
360
559F
  3
ACLYDICTIONARY
360
29A508
  0
DICTIONARY
  5
CD7F
330
F
100
AcDbDictionary
280
     1
281
     1
  3
ADSK_XREC_LAYER_RECONCILED
360
CD80
  0
DICTIONARY
  5
CD85
330
34
100
AcDbDictionary
280
     1
281
     1
  3
ADSK_XREC_LAYER_RECONCILED
360
CD86
  0
DICTIONARY
  5
CD8D
330
2F4
100
AcDbDictionary
280
     1
281
     1
  3
ADSK_XREC_LAYER_RECONCILED
360
CD8E
  0
DICTIONARY
  5
D25F
330
18
100
AcDbDictionary
280
     1
281
     1
  3
ACAD_SORTENTS
360
D260
  0
DICTIONARY
  5
D
102
{ACAD_REACTORS
330
C
102
}
330
C
100
AcDbDictionary
281
     1
  0
RASTERVARIABLES
  5
2F1759
102
{ACAD_REACTORS
330
C
102
}
330
C
100
AcDbRasterVariables
 90
        0
 70
     1
 71
     1
 72
     0
  0
DICTIONARY
  5
353
102
{ACAD_REACTORS
330
C
102
}
330
C
100
AcDbDictionary
281
     1
  3
Model
350
355
  3
ﾚｲｱｳﾄ1
350
356
  0
DICTIONARY
  5
E
102
{ACAD_REACTORS
330
C
102
}
330
C
100
AcDbDictionary
281
     1
  3
STANDARD
350
1B
  0
DICTIONARY
  5
354
102
{ACAD_REACTORS
330
C
102
}
330
C
100
AcDbDictionary
281
     1
  0
ACDBDICTIONARYWDFLT
  5
351
102
{ACAD_REACTORS
330
C
102
}
330
C
100
AcDbDictionary
281
     1
  3
Normal
350
352
100
AcDbDictionaryWithDefault
340
352
  0
DICTIONARY
  5
CD53
102
{ACAD_REACTORS
330
C
102
}
330
C
100
AcDbDictionary
281
     1
  3
A0
350
CD54
  3
A1
350
35DF8
  3
A2
350
35DF9
  3
A3
350
35DFA
  3
A4
350
35DFB
  3
A5
350
35DFC
  3
A6
350
35DFD
  3
A7
350
35DFE
  3
A8
350
35DFF
  3
A9
350
35E00
  3
B0
350
35E01
  3
B1
350
35E02
  3
B2
350
35E03
  3
B3
350
35E04
  3
B4
350
35E05
  3
B5
350
35E06
  3
B6
350
35E07
  3
B7
350
35E08
  3
B8
350
35E09
  3
B9
350
35E0A
  3
C0
350
35E0B
  3
C1
350
35E0C
  3
C2
350
35E0D
  3
C3
350
35E0E
  3
C4
350
35E0F
  3
C5
350
35E10
  3
C6
350
35E11
  3
C7
350
35E12
  3
C8
350
35E13
  3
C9
350
35E14
  3
D0
350
35E15
  3
D1
350
35E16
  3
D2
350
35E17
  0
XRECORD
  5
5182D
102
{ACAD_REACTORS
330
C
102
}
330
C
100
AcDbXrecord
280
     1
 90
   990106
  3
OPEN30
 60
     0
 61
     0
 62
     4
 63
     4
 64
     1
 65
     0
 66
     0
 67
     3
 68
     1
 69
     0
 70
     0
 71
     0
 72
     0
 40
0.0
170
     0
340
0
  0
DICTIONARY
  5
E0D
102
{ACAD_REACTORS
330
C
102
}
330
C
100
AcDbDictionary
281
     1
  3
DIMASSOC
350
E0E
  3
INDEXCTL
350
D04A
  3
PROJECTNAME
350
E0F
  3
SORTENTS
350
D049
  0
DICTIONARY
  5
3A8C66
102
{ACAD_REACTORS
330
C
102
}
330
C
100
AcDbDictionary
281
     1
  3
AecDbDispRep2dSection
350
3A8C67
  3
AecDbDispRepAnchor
350
3A8C9D
  3
AecDbDispRepAnchorEntToNode
350
3A8C9E
  3
AecDbDispRepClipVolModel
350
3A8C6A
  3
AecDbDispRepClipVolPlan
350
3A8C6C
  3
AecDbDispRepClipVolResSubDiv
350
3A8C6F
  3
AecDbDispRepClipVolResult
350
3A8C6E
  3
AecDbDispRepDisplayTheme
350
3A8C71
  3
AecDbDispRepEditInPlaceProfile
350
3A8CA2
  3
AecDbDispRepEntRef
350
3A8C73
  3
AecDbDispRepLayoutCurve
350
3A8C75
  3
AecDbDispRepLayoutGrid2d
350
3A8C77
  3
AecDbDispRepLayoutGrid3d
350
3A8C79
  3
AecDbDispRepMaskBlockRef
350
3A8C7B
  3
AecDbDispRepMaskBlockRefRcp
350
3A8C7D
  3
AecDbDispRepMassElemModel
350
3A8C7F
  3
AecDbDispRepMassElemPlan100
350
3A8C85
  3
AecDbDispRepMassElemPlan50
350
3A8C83
  3
AecDbDispRepMassElemRcp
350
3A8C87
  3
AecDbDispRepMassElemSchem
350
3A8C81
  3
AecDbDispRepMassGroupModel
350
3A8C89
  3
AecDbDispRepMassGroupPlan
350
3A8C8B
  3
AecDbDispRepMassGroupPlan100
350
3A8C8F
  3
AecDbDispRepMassGroupPlan50
350
3A8C8D
  3
AecDbDispRepMassGroupRcp
350
3A8C91
  3
AecDbDispRepMaterial
350
3A8CA0
  3
AecDbDispRepMvBlockRef
350
3A8C93
  3
AecDbDispRepMvBlockRefModel
350
3A8C94
  3
AecDbDispRepMvBlockRefPlan100
350
3A8C95
  3
AecDbDispRepMvBlockRefPlan50
350
3A8C96
  3
AecDbDispRepPolygonModel
350
3A8C97
  3
AecDbDispRepPolygonTrueColour
350
3A8C99
  3
AecDbDispRepSlice
350
3A8C9B
  0
DICTIONARY
  5
3A8C68
102
{ACAD_REACTORS
330
C
102
}
330
C
100
AcDbDictionary
281
     1
  3
*A1
350
3A8C69
  3
*A10
350
3A8C7C
  3
*A11
350
3A8C7E
  3
*A12
350
3A8C80
  3
*A13
350
3A8C82
  3
*A14
350
3A8C84
  3
*A15
350
3A8C86
  3
*A16
350
3A8C88
  3
*A17
350
3A8C8A
  3
*A18
350
3A8C8C
  3
*A19
350
3A8C8E
  3
*A2
350
3A8C6B
  3
*A20
350
3A8C90
  3
*A21
350
3A8C92
  3
*A22
350
3A8C98
  3
*A23
350
3A8C9A
  3
*A24
350
3A8C9C
  3
*A25
350
3A8C9F
  3
*A26
350
3A8CA1
  3
*A27
350
3A8CA3
  3
*A3
350
3A8C6D
  3
*A4
350
3A8C70
  3
*A5
350
3A8C72
  3
*A6
350
3A8C74
  3
*A7
350
3A8C76
  3
*A8
350
3A8C78
  3
*A9
350
3A8C7A
  0
DICTIONARY
  5
3A8C64
102
{ACAD_REACTORS
330
C
102
}
330
C
100
AcDbDictionary
281
     1
  3
AEC_VARS_DWG_SETUP
350
3A8C65
  0
DICTIONARY
  5
2F1758
102
{ACAD_REACTORS
330
C
102
}
330
C
100
AcDbDictionary
281
     1
  0
XRECORD
  5
3A9C42
102
{ACAD_REACTORS
330
C
102
}
330
C
100
AcDbXrecord
280
     1
  1
DWGPROPS COOKIE
  2

  3

  4

  6

  7

  8
SPAX
  9

300
=
301
=
302
=
303
=
304
=
305
=
306
=
307
=
308
=
309
=
 40
0.0
 41
2448636.244629629
 42
2456825.39242265
  1

 90
        0
  0
DICTIONARY
  5
29A509
102
{ACAD_REACTORS
330
559E
102
}
330
559E
100
AcDbDictionary
281
     1
  0
DICTIONARY
  5
559F
102
{ACAD_REACTORS
330
559E
102
}
330
559E
100
AcDbDictionary
281
     1
  0
DICTIONARY
  5
29A508
102
{ACAD_REACTORS
330
559E
102
}
330
559E
100
AcDbDictionary
281
     1
1001
ACAD
1000
<All
  0
XRECORD
  5
CD80
102
{ACAD_REACTORS
330
CD7F
102
}
330
CD7F
100
AcDbXrecord
280
     1
290
     1
  0
XRECORD
  5
CD86
102
{ACAD_REACTORS
330
CD85
102
}
330
CD85
100
AcDbXrecord
280
     1
290
     1
  0
XRECORD
  5
CD8E
102
{ACAD_REACTORS
330
CD8D
102
}
330
CD8D
100
AcDbXrecord
280
     1
290
     1
  0
SORTENTSTABLE
  5
D260
102
{ACAD_REACTORS
330
D25F
102
}
330
D25F
100
AcDbSortentsTable
330
18
331
8182F
  5
307455
331
3073B9
  5
33CEEB
  0
LAYOUT
  5
355
102
{ACAD_REACTORS
330
353
102
}
330
353
100
AcDbPlotSettings
  1

  2
ApeosPort-IV C3370
  4
A4
  6

 40
4.900083065032959
 41
4.900054931640625
 42
4.90008544921875
 43
4.90008544921875
 44
210.0156707763672
 45
297.0106506347656
 46
-4.892248868942261
 47
-4.894744873046875
 48
19575.83938702182
 49
-3951.642105398166
140
19872.83938702182
141
-3741.642105398166
142
1.0
143
1.0
 70
  3748
 72
     1
 73
     1
 74
     4
  7
spax form.ctb
 75
     0
147
0.5298262113580999
148
-19575.83938702182
149
3951.642105398166
100
AcDbLayout
  1
Model
 70
     1
 71
     0
 10
0.0
 20
0.0
 11
12.0
 21
9.0
 12
0.0
 22
0.0
 32
0.0
 14
19203.03997303539
 24
-17586.75881476525
 34
-0.000000000000013
 15
19277.78997303539
 25
-17461.88044426862
 35
0.0000000000000288
146
0.0
 13
0.0
 23
0.0
 33
0.0
 16
1.0
 26
0.0
 36
0.0
 17
0.0
 27
1.0
 37
0.0
 76
     0
330
18
331
3A8C60
1001
ACAD_PSEXT
1000
ApeosPort-IV C3370
1000
FX ApeosPort-IV C3370
1000
192.168.6.107
1000

1070
     0
  0
LAYOUT
  5
356
102
{ACAD_REACTORS
330
353
102
}
330
353
100
AcDbPlotSettings
  1

  2
Canon LASER SHOT LBP-750
  4

  6

 40
0.0
 41
0.0
 42
0.0
 43
0.0
 44
0.0
 45
0.0
 46
0.0
 47
0.0
 48
0.0
 49
0.0
140
0.0
141
0.0
142
1.0
143
1.0
 70
   688
 72
     0
 73
     0
 74
     5
  7
spax form.ctb
 75
    16
147
1.0
148
0.0
149
0.0
100
AcDbLayout
  1
ﾚｲｱｳﾄ1
 70
     0
 71
     1
 10
0.0
 20
0.0
 11
12.0
 21
9.0
 12
0.0
 22
0.0
 32
0.0
 14
1.000000000000000E+20
 24
1.000000000000000E+20
 34
1.000000000000000E+20
 15
-1.000000000000000E+20
 25
-1.000000000000000E+20
 35
-1.000000000000000E+20
146
0.0
 13
0.0
 23
0.0
 33
0.0
 16
1.0
 26
0.0
 36
0.0
 17
0.0
 27
1.0
 37
0.0
 76
     0
330
15
  0
MLINESTYLE
  5
1B
102
{ACAD_REACTORS
330
E
102
}
330
E
100
AcDbMlineStyle
  2
STANDARD
 70
     0
  3

 62
     0
 51
90.0
 52
90.0
 71
     2
 49
0.5
 62
   256
  6
BYLAYER
 49
-0.5
 62
   256
  6
BYLAYER
  0
ACDBPLACEHOLDER
  5
352
102
{ACAD_REACTORS
330
351
102
}
330
351
  0
SCALE
  5
CD54
102
{ACAD_REACTORS
330
CD53
102
}
330
CD53
100
AcDbScale
 70
     0
300
1:1
140
1.0
141
1.0
290
     1
1001
ACAD
1000
AcRTDxfName
1000
SCALE
1000
AcRTDxfName
1000
SCALE
  0
SCALE
  5
35DF8
102
{ACAD_REACTORS
330
CD53
102
}
330
CD53
100
AcDbScale
 70
     0
300
1:2
140
1.0
141
2.0
290
     0
1001
ACAD
1000
AcRTDxfName
1000
SCALE
1000
AcRTDxfName
1000
SCALE
  0
SCALE
  5
35DF9
102
{ACAD_REACTORS
330
CD53
102
}
330
CD53
100
AcDbScale
 70
     0
300
1:4
140
1.0
141
4.0
290
     0
1001
ACAD
1000
AcRTDxfName
1000
SCALE
1000
AcRTDxfName
1000
SCALE
  0
SCALE
  5
35DFA
102
{ACAD_REACTORS
330
CD53
102
}
330
CD53
100
AcDbScale
 70
     0
300
1:5
140
1.0
141
5.0
290
     0
1001
ACAD
1000
AcRTDxfName
1000
SCALE
1000
AcRTDxfName
1000
SCALE
  0
SCALE
  5
35DFB
102
{ACAD_REACTORS
330
CD53
102
}
330
CD53
100
AcDbScale
 70
     0
300
1:8
140
1.0
141
8.0
290
     0
1001
ACAD
1000
AcRTDxfName
1000
SCALE
1000
AcRTDxfName
1000
SCALE
  0
SCALE
  5
35DFC
102
{ACAD_REACTORS
330
CD53
102
}
330
CD53
100
AcDbScale
 70
     0
300
1:10
140
1.0
141
10.0
290
     0
1001
ACAD
1000
AcRTDxfName
1000
SCALE
1000
AcRTDxfName
1000
SCALE
  0
SCALE
  5
35DFD
102
{ACAD_REACTORS
330
CD53
102
}
330
CD53
100
AcDbScale
 70
     0
300
1:16
140
1.0
141
16.0
290
     0
1001
ACAD
1000
AcRTDxfName
1000
SCALE
1000
AcRTDxfName
1000
SCALE
  0
SCALE
  5
35DFE
102
{ACAD_REACTORS
330
CD53
102
}
330
CD53
100
AcDbScale
 70
     0
300
1:20
140
1.0
141
20.0
290
     0
1001
ACAD
1000
AcRTDxfName
1000
SCALE
1000
AcRTDxfName
1000
SCALE
  0
SCALE
  5
35DFF
102
{ACAD_REACTORS
330
CD53
102
}
330
CD53
100
AcDbScale
 70
     0
300
1:30
140
1.0
141
30.0
290
     0
1001
ACAD
1000
AcRTDxfName
1000
SCALE
1000
AcRTDxfName
1000
SCALE
  0
SCALE
  5
35E00
102
{ACAD_REACTORS
330
CD53
102
}
330
CD53
100
AcDbScale
 70
     0
300
1:40
140
1.0
141
40.0
290
     0
1001
ACAD
1000
AcRTDxfName
1000
SCALE
1000
AcRTDxfName
1000
SCALE
  0
SCALE
  5
35E01
102
{ACAD_REACTORS
330
CD53
102
}
330
CD53
100
AcDbScale
 70
     0
300
1:50
140
1.0
141
50.0
290
     0
1001
ACAD
1000
AcRTDxfName
1000
SCALE
1000
AcRTDxfName
1000
SCALE
  0
SCALE
  5
35E02
102
{ACAD_REACTORS
330
CD53
102
}
330
CD53
100
AcDbScale
 70
     0
300
1:100
140
1.0
141
100.0
290
     0
1001
ACAD
1000
AcRTDxfName
1000
SCALE
1000
AcRTDxfName
1000
SCALE
  0
SCALE
  5
35E03
102
{ACAD_REACTORS
330
CD53
102
}
330
CD53
100
AcDbScale
 70
     0
300
2:1
140
2.0
141
1.0
290
     0
1001
ACAD
1000
AcRTDxfName
1000
SCALE
1000
AcRTDxfName
1000
SCALE
  0
SCALE
  5
35E04
102
{ACAD_REACTORS
330
CD53
102
}
330
CD53
100
AcDbScale
 70
     0
300
4:1
140
4.0
141
1.0
290
     0
1001
ACAD
1000
AcRTDxfName
1000
SCALE
1000
AcRTDxfName
1000
SCALE
  0
SCALE
  5
35E05
102
{ACAD_REACTORS
330
CD53
102
}
330
CD53
100
AcDbScale
 70
     0
300
8:1
140
8.0
141
1.0
290
     0
1001
ACAD
1000
AcRTDxfName
1000
SCALE
1000
AcRTDxfName
1000
SCALE
  0
SCALE
  5
35E06
102
{ACAD_REACTORS
330
CD53
102
}
330
CD53
100
AcDbScale
 70
     0
300
10:1
140
10.0
141
1.0
290
     0
1001
ACAD
1000
AcRTDxfName
1000
SCALE
1000
AcRTDxfName
1000
SCALE
  0
SCALE
  5
35E07
102
{ACAD_REACTORS
330
CD53
102
}
330
CD53
100
AcDbScale
 70
     0
300
100:1
140
100.0
141
1.0
290
     0
1001
ACAD
1000
AcRTDxfName
1000
SCALE
1000
AcRTDxfName
1000
SCALE
  0
SCALE
  5
35E08
102
{ACAD_REACTORS
330
CD53
102
}
330
CD53
100
AcDbScale
 70
     0
300
1/128" = 1'-0"
140
0.0078125
141
12.0
290
     0
1001
ACAD
1000
AcRTDxfName
1000
SCALE
1000
AcRTDxfName
1000
SCALE
  0
SCALE
  5
35E09
102
{ACAD_REACTORS
330
CD53
102
}
330
CD53
100
AcDbScale
 70
     0
300
1/64" = 1'-0"
140
0.015625
141
12.0
290
     0
1001
ACAD
1000
AcRTDxfName
1000
SCALE
1000
AcRTDxfName
1000
SCALE
  0
SCALE
  5
35E0A
102
{ACAD_REACTORS
330
CD53
102
}
330
CD53
100
AcDbScale
 70
     0
300
1/32" = 1'-0"
140
0.03125
141
12.0
290
     0
1001
ACAD
1000
AcRTDxfName
1000
SCALE
1000
AcRTDxfName
1000
SCALE
  0
SCALE
  5
35E0B
102
{ACAD_REACTORS
330
CD53
102
}
330
CD53
100
AcDbScale
 70
     0
300
1/16" = 1'-0"
140
0.0625
141
12.0
290
     0
1001
ACAD
1000
AcRTDxfName
1000
SCALE
1000
AcRTDxfName
1000
SCALE
  0
SCALE
  5
35E0C
102
{ACAD_REACTORS
330
CD53
102
}
330
CD53
100
AcDbScale
 70
     0
300
3/32" = 1'-0"
140
0.09375
141
12.0
290
     0
1001
ACAD
1000
AcRTDxfName
1000
SCALE
1000
AcRTDxfName
1000
SCALE
  0
SCALE
  5
35E0D
102
{ACAD_REACTORS
330
CD53
102
}
330
CD53
100
AcDbScale
 70
     0
300
1/8" = 1'-0"
140
0.125
141
12.0
290
     0
1001
ACAD
1000
AcRTDxfName
1000
SCALE
1000
AcRTDxfName
1000
SCALE
  0
SCALE
  5
35E0E
102
{ACAD_REACTORS
330
CD53
102
}
330
CD53
100
AcDbScale
 70
     0
300
3/16" = 1'-0"
140
0.1875
141
12.0
290
     0
1001
ACAD
1000
AcRTDxfName
1000
SCALE
1000
AcRTDxfName
1000
SCALE
  0
SCALE
  5
35E0F
102
{ACAD_REACTORS
330
CD53
102
}
330
CD53
100
AcDbScale
 70
     0
300
1/4" = 1'-0"
140
0.25
141
12.0
290
     0
1001
ACAD
1000
AcRTDxfName
1000
SCALE
1000
AcRTDxfName
1000
SCALE
  0
SCALE
  5
35E10
102
{ACAD_REACTORS
330
CD53
102
}
330
CD53
100
AcDbScale
 70
     0
300
3/8" = 1'-0"
140
0.375
141
12.0
290
     0
1001
ACAD
1000
AcRTDxfName
1000
SCALE
1000
AcRTDxfName
1000
SCALE
  0
SCALE
  5
35E11
102
{ACAD_REACTORS
330
CD53
102
}
330
CD53
100
AcDbScale
 70
     0
300
1/2" = 1'-0"
140
0.5
141
12.0
290
     0
1001
ACAD
1000
AcRTDxfName
1000
SCALE
1000
AcRTDxfName
1000
SCALE
  0
SCALE
  5
35E12
102
{ACAD_REACTORS
330
CD53
102
}
330
CD53
100
AcDbScale
 70
     0
300
3/4" = 1'-0"
140
0.75
141
12.0
290
     0
1001
ACAD
1000
AcRTDxfName
1000
SCALE
1000
AcRTDxfName
1000
SCALE
  0
SCALE
  5
35E13
102
{ACAD_REACTORS
330
CD53
102
}
330
CD53
100
AcDbScale
 70
     0
300
1" = 1'-0"
140
1.0
141
12.0
290
     0
1001
ACAD
1000
AcRTDxfName
1000
SCALE
1000
AcRTDxfName
1000
SCALE
  0
SCALE
  5
35E14
102
{ACAD_REACTORS
330
CD53
102
}
330
CD53
100
AcDbScale
 70
     0
300
1-1/2" = 1'-0"
140
1.5
141
12.0
290
     0
1001
ACAD
1000
AcRTDxfName
1000
SCALE
1000
AcRTDxfName
1000
SCALE
  0
SCALE
  5
35E15
102
{ACAD_REACTORS
330
CD53
102
}
330
CD53
100
AcDbScale
 70
     0
300
3" = 1'-0"
140
3.0
141
12.0
290
     0
1001
ACAD
1000
AcRTDxfName
1000
SCALE
1000
AcRTDxfName
1000
SCALE
  0
SCALE
  5
35E16
102
{ACAD_REACTORS
330
CD53
102
}
330
CD53
100
AcDbScale
 70
     0
300
6" = 1'-0"
140
6.0
141
12.0
290
     0
1001
ACAD
1000
AcRTDxfName
1000
SCALE
1000
AcRTDxfName
1000
SCALE
  0
SCALE
  5
35E17
102
{ACAD_REACTORS
330
CD53
102
}
330
CD53
100
AcDbScale
 70
     0
300
1'-0" = 1'-0"
140
12.0
141
12.0
290
     0
1001
ACAD
1000
AcRTDxfName
1000
SCALE
1000
AcRTDxfName
1000
SCALE
  0
DICTIONARYVAR
  5
E0E
102
{ACAD_REACTORS
330
E0D
102
}
330
E0D
100
DictionaryVariables
280
     0
  1
1
  0
DICTIONARYVAR
  5
D04A
102
{ACAD_REACTORS
330
E0D
102
}
330
E0D
100
DictionaryVariables
280
     0
  1
0
  0
DICTIONARYVAR
  5
E0F
102
{ACAD_REACTORS
330
E0D
102
}
330
E0D
100
DictionaryVariables
280
     0
  1

  0
DICTIONARYVAR
  5
D049
102
{ACAD_REACTORS
330
E0D
102
}
330
E0D
100
DictionaryVariables
280
     0
  1
127
  0
ENDSEC
  0
EOF
