  0
SECTION
  2
HEADER
  9
$ACADVER
  1
AC1015
  9
$ACADMAINTVER
 70
     6
  9
$DWGCODEPAGE
  3
ANSI_932
  9
$INSBASE
 10
0.0
 20
0.0
 30
0.0
  9
$EXTMIN
 10
29605.26928886725
 20
-8092.282886704606
 30
0.0
  9
$EXTMAX
 10
29693.26928886725
 20
-8015.08972534137
 30
0.0
  9
$LIMMIN
 10
0.0
 20
0.0
  9
$LIMMAX
 10
420.0
 20
297.0
  9
$ORTHOMODE
 70
     1
  9
$REGENMODE
 70
     1
  9
$FILLMODE
 70
     1
  9
$QTEXTMODE
 70
     0
  9
$MIRRTEXT
 70
     1
  9
$LTSCALE
 40
5.0
  9
$ATTMODE
 70
     0
  9
$TEXTSIZE
 40
3.5
  9
$TRACEWID
 40
1.0
  9
$TEXTSTYLE
  7
STANDARD
  9
$CLAYER
  8
0
  9
$CELTYPE
  6
BYLAYER
  9
$CECOLOR
 62
   256
  9
$CELTSCALE
 40
1.0
  9
$DISPSILH
 70
     0
  9
$DIMSCALE
 40
1.0
  9
$DIMASZ
 40
2.5
  9
$DIMEXO
 40
1.5
  9
$DIMDLI
 40
0.38
  9
$DIMRND
 40
0.0
  9
$DIMDLE
 40
0.0
  9
$DIMEXE
 40
1.0
  9
$DIMTP
 40
0.0
  9
$DIMTM
 40
0.0
  9
$DIMTXT
 40
2.500000000000003
  9
$DIMCEN
 40
0.0
  9
$DIMTSZ
 40
0.0
  9
$DIMTOL
 70
     0
  9
$DIMLIM
 70
     0
  9
$DIMTIH
 70
     0
  9
$DIMTOH
 70
     0
  9
$DIMSE1
 70
     0
  9
$DIMSE2
 70
     0
  9
$DIMTAD
 70
     3
  9
$DIMZIN
 70
     8
  9
$DIMBLK
  1

  9
$DIMASO
 70
     1
  9
$DIMSHO
 70
     0
  9
$DIMPOST
  1

  9
$DIMAPOST
  1

  9
$DIMALT
 70
     0
  9
$DIMALTD
 70
     0
  9
$DIMALTF
 40
25.4
  9
$DIMLFAC
 40
1.0
  9
$DIMTOFL
 70
     1
  9
$DIMTVP
 40
0.0
  9
$DIMTIX
 70
     0
  9
$DIMSOXD
 70
     0
  9
$DIMSAH
 70
     1
  9
$DIMBLK1
  1
OPEN
  9
$DIMBLK2
  1
OPEN
  9
$DIMSTYLE
  2
STANDARD
  9
$DIMCLRD
 70
     8
  9
$DIMCLRE
 70
     8
  9
$DIMCLRT
 70
   256
  9
$DIMTFAC
 40
1.0
  9
$DIMGAP
 40
1.0
  9
$DIMJUST
 70
     0
  9
$DIMSD1
 70
     0
  9
$DIMSD2
 70
     0
  9
$DIMTOLJ
 70
     1
  9
$DIMTZIN
 70
     0
  9
$DIMALTZ
 70
     0
  9
$DIMALTTZ
 70
     0
  9
$DIMUPT
 70
     0
  9
$DIMDEC
 70
     2
  9
$DIMTDEC
 70
     2
  9
$DIMALTU
 70
     2
  9
$DIMALTTD
 70
     0
  9
$DIMTXSTY
  7
STANDARD
  9
$DIMAUNIT
 70
     0
  9
$DIMADEC
 70
     2
  9
$DIMALTRND
 40
0.0
  9
$DIMAZIN
 70
     2
  9
$DIMDSEP
 70
    46
  9
$DIMATFIT
 70
     0
  9
$DIMFRAC
 70
     0
  9
$DIMLDRBLK
  1
OPEN
  9
$DIMLUNIT
 70
     2
  9
$DIMLWD
 70
    -2
  9
$DIMLWE
 70
    -2
  9
$DIMTMOVE
 70
     0
  9
$LUNITS
 70
     2
  9
$LUPREC
 70
     2
  9
$SKETCHINC
 40
0.1
  9
$FILLETRAD
 40
0.3
  9
$AUNITS
 70
     0
  9
$AUPREC
 70
     1
  9
$MENU
  1
FM
  9
$ELEVATION
 40
0.0
  9
$PELEVATION
 40
0.0
  9
$THICKNESS
 40
0.0
  9
$LIMCHECK
 70
     0
  9
$CHAMFERA
 40
0.0
  9
$CHAMFERB
 40
0.0
  9
$CHAMFERC
 40
0.0
  9
$CHAMFERD
 40
0.0
  9
$SKPOLY
 70
     0
  9
$TDCREATE
 40
2448636.619629629
  9
$TDUCREATE
 40
2448636.244629629
  9
$TDUPDATE
 40
2456821.472984502
  9
$TDUUPDATE
 40
2456821.097984502
  9
$TDINDWG
 40
44.881075
  9
$TDUSRTIMER
 40
2456821.097358889
  9
$USRTIMER
 70
     1
  9
$ANGBASE
 50
0.0
  9
$ANGDIR
 70
     0
  9
$PDMODE
 70
     3
  9
$PDSIZE
 40
0.0
  9
$PLINEWID
 40
0.0
  9
$SPLFRAME
 70
     0
  9
$SPLINETYPE
 70
     6
  9
$SPLINESEGS
 70
    50
  9
$HANDSEED
  5
229F21
  9
$SURFTAB1
 70
     6
  9
$SURFTAB2
 70
     6
  9
$SURFTYPE
 70
     6
  9
$SURFU
 70
     6
  9
$SURFV
 70
     6
  9
$UCSBASE
  2

  9
$UCSNAME
  2

  9
$UCSORG
 10
0.0
 20
0.0
 30
0.0
  9
$UCSXDIR
 10
1.0
 20
0.0
 30
0.0
  9
$UCSYDIR
 10
0.0
 20
1.0
 30
0.0
  9
$UCSORTHOREF
  2

  9
$UCSORTHOVIEW
 70
     0
  9
$UCSORGTOP
 10
0.0
 20
0.0
 30
0.0
  9
$UCSORGBOTTOM
 10
0.0
 20
0.0
 30
0.0
  9
$UCSORGLEFT
 10
0.0
 20
0.0
 30
0.0
  9
$UCSORGRIGHT
 10
0.0
 20
0.0
 30
0.0
  9
$UCSORGFRONT
 10
0.0
 20
0.0
 30
0.0
  9
$UCSORGBACK
 10
0.0
 20
0.0
 30
0.0
  9
$PUCSBASE
  2

  9
$PUCSNAME
  2

  9
$PUCSORG
 10
0.0
 20
0.0
 30
0.0
  9
$PUCSXDIR
 10
1.0
 20
0.0
 30
0.0
  9
$PUCSYDIR
 10
0.0
 20
1.0
 30
0.0
  9
$PUCSORTHOREF
  2

  9
$PUCSORTHOVIEW
 70
     0
  9
$PUCSORGTOP
 10
0.0
 20
0.0
 30
0.0
  9
$PUCSORGBOTTOM
 10
0.0
 20
0.0
 30
0.0
  9
$PUCSORGLEFT
 10
0.0
 20
0.0
 30
0.0
  9
$PUCSORGRIGHT
 10
0.0
 20
0.0
 30
0.0
  9
$PUCSORGFRONT
 10
0.0
 20
0.0
 30
0.0
  9
$PUCSORGBACK
 10
0.0
 20
0.0
 30
0.0
  9
$USERI1
 70
     0
  9
$USERI2
 70
     0
  9
$USERI3
 70
     0
  9
$USERI4
 70
     0
  9
$USERI5
 70
     0
  9
$USERR1
 40
0.0
  9
$USERR2
 40
0.0
  9
$USERR3
 40
0.0
  9
$USERR4
 40
0.0
  9
$USERR5
 40
0.0
  9
$WORLDVIEW
 70
     0
  9
$SHADEDGE
 70
     3
  9
$SHADEDIF
 70
    70
  9
$TILEMODE
 70
     1
  9
$MAXACTVP
 70
    16
  9
$PINSBASE
 10
0.0
 20
0.0
 30
0.0
  9
$PLIMCHECK
 70
     0
  9
$PEXTMIN
 10
1.000000000000000E+20
 20
1.000000000000000E+20
 30
1.000000000000000E+20
  9
$PEXTMAX
 10
-1.000000000000000E+20
 20
-1.000000000000000E+20
 30
-1.000000000000000E+20
  9
$PLIMMIN
 10
0.0
 20
0.0
  9
$PLIMMAX
 10
0.0
 20
0.0
  9
$UNITMODE
 70
     0
  9
$VISRETAIN
 70
     0
  9
$PLINEGEN
 70
     0
  9
$PSLTSCALE
 70
     0
  9
$TREEDEPTH
 70
  3020
  9
$CMLSTYLE
  2
STANDARD
  9
$CMLJUST
 70
     0
  9
$CMLSCALE
 40
1.0
  9
$PROXYGRAPHICS
 70
     1
  9
$MEASUREMENT
 70
     0
  9
$CELWEIGHT
370
    -1
  9
$ENDCAPS
280
     0
  9
$JOINSTYLE
280
     0
  9
$LWDISPLAY
290
     0
  9
$INSUNITS
 70
     0
  9
$HYPERLINKBASE
  1

  9
$STYLESHEET
  1
spax form.ctb
  9
$XEDIT
290
     1
  9
$CEPSNTYPE
380
     0
  9
$PSTYLEMODE
290
     1
  9
$FINGERPRINTGUID
  2
{BBAEEBA6-8B94-11D3-9160-00E0294F7E09}
  9
$VERSIONGUID
  2
{5C8EE5BD-B2C6-41D1-9311-4A63BC48F27B}
  9
$EXTNAMES
290
     1
  9
$PSVPSCALE
 40
0.0
  9
$OLESTARTUP
290
     0
  0
ENDSEC
  0
SECTION
  2
CLASSES
  0
CLASS
  1
LWPOLYLINE
  2
AcDbPolyline
  3
ObjectDBX Classes
 90
        0
280
     0
281
     1
  0
CLASS
  1
ACDBDICTIONARYWDFLT
  2
AcDbDictionaryWithDefault
  3
ObjectDBX Classes
 90
        0
280
     0
281
     0
  0
CLASS
  1
ACDBPLACEHOLDER
  2
AcDbPlaceHolder
  3
ObjectDBX Classes
 90
        0
280
     0
281
     0
  0
CLASS
  1
LAYOUT
  2
AcDbLayout
  3
ObjectDBX Classes
 90
        0
280
     0
281
     0
  0
CLASS
  1
DICTIONARYVAR
  2
AcDbDictionaryVar
  3
ObjectDBX Classes
 90
        0
280
     0
281
     0
  0
CLASS
  1
MATERIAL
  2
AcDbMaterial
  3
ObjectDBX Classes
 90
     1153
280
     0
281
     0
  0
CLASS
  1
VISUALSTYLE
  2
AcDbVisualStyle
  3
ObjectDBX Classes
 90
     4095
280
     0
281
     0
  0
CLASS
  1
TABLESTYLE
  2
AcDbTableStyle
  3
ObjectDBX Classes
 90
     4095
280
     0
281
     0
  0
CLASS
  1
SCALE
  2
AcDbScale
  3
ObjectDBX Classes
 90
     1153
280
     0
281
     0
  0
CLASS
  1
MLEADERSTYLE
  2
AcDbMLeaderStyle
  3
ACDB_MLEADERSTYLE_CLASS
 90
     4095
280
     0
281
     0
  0
CLASS
  1
CELLSTYLEMAP
  2
AcDbCellStyleMap
  3
ObjectDBX Classes
 90
     1152
280
     0
281
     0
  0
CLASS
  1
SORTENTSTABLE
  2
AcDbSortentsTable
  3
ObjectDBX Classes
 90
        0
280
     0
281
     0
  0
CLASS
  1
LARGE_RADIAL_DIMENSION
  2
AcDbRadialDimensionLarge
  3
ObjectDBX Classes
 90
     1025
280
     0
281
     1
  0
CLASS
  1
EXACXREFPANELOBJECT
  2
ExAcXREFPanelObject
  3
EXAC_ESW
 90
     1025
280
     1
281
     0
  0
CLASS
  1
NPOCOLLECTION
  2
AcDbImpNonPersistentObjectsCollection
  3
ObjectDBX Classes
 90
     1153
280
     1
281
     0
  0
CLASS
  1
RASTERVARIABLES
  2
AcDbRasterVariables
  3
ISM
 90
        0
280
     0
281
     0
  0
CLASS
  1
SUN
  2
AcDbSun
  3
SCENEOE
 90
     1153
280
     0
281
     0
  0
ENDSEC
  0
SECTION
  2
TABLES
  0
TABLE
  2
VPORT
  5
8
330
0
100
AcDbSymbolTable
 70
     1
  0
VPORT
  5
186E
330
8
100
AcDbSymbolTableRecord
100
AcDbViewportTableRecord
  2
*Active
 70
     0
 10
0.0
 20
0.0
 11
1.0
 21
1.0
 12
29649.26928886725
 22
-8053.686306022988
 13
0.0
 23
0.0
 14
1.0
 24
1.0
 15
20.0
 25
20.0
 16
0.0
 26
0.0
 36
1.0
 17
0.0
 27
0.0
 37
0.0
 40
78.73702459050068
 41
1.731829573934837
 42
50.0
 43
0.0
 44
0.0
 50
0.0
 51
0.0
 71
    16
 72
  1000
 73
     1
 74
     0
 75
     0
 76
     0
 77
     0
 78
     0
281
     0
 65
     1
110
0.0
120
0.0
130
0.0
111
1.0
121
0.0
131
0.0
112
0.0
122
1.0
132
0.0
 79
     0
146
0.0
  0
ENDTAB
  0
TABLE
  2
LTYPE
  5
5
330
0
100
AcDbSymbolTable
 70
     5
  0
LTYPE
  5
12
330
5
100
AcDbSymbolTableRecord
100
AcDbLinetypeTableRecord
  2
BYBLOCK
 70
     0
  3

 72
    65
 73
     0
 40
0.0
  0
LTYPE
  5
13
330
5
100
AcDbSymbolTableRecord
100
AcDbLinetypeTableRecord
  2
BYLAYER
 70
     0
  3

 72
    65
 73
     0
 40
0.0
  0
LTYPE
  5
14
330
5
100
AcDbSymbolTableRecord
100
AcDbLinetypeTableRecord
  2
CONTINUOUS
 70
     0
  3
Solid line
 72
    65
 73
     0
 40
0.0
  0
LTYPE
  5
26
330
5
100
AcDbSymbolTableRecord
100
AcDbLinetypeTableRecord
  2
PHANTOM
 70
     0
  3
_____ _ _ _____ _ _ _____ _ _ _____ _ _ ____
 72
    65
 73
     6
 40
2.5
 49
1.25
 74
     0
 49
-0.25
 74
     0
 49
0.25
 74
     0
 49
-0.25
 74
     0
 49
0.25
 74
     0
 49
-0.25
 74
     0
  0
LTYPE
  5
514
330
5
100
AcDbSymbolTableRecord
100
AcDbLinetypeTableRecord
  2
CENTER
 70
     0
  3
Center ____ _ ____ _ ____ _ ____ _ ____ _ ____
 72
    65
 73
     4
 40
2.0
 49
1.25
 74
     0
 49
-0.25
 74
     0
 49
0.25
 74
     0
 49
-0.25
 74
     0
  0
ENDTAB
  0
TABLE
  2
LAYER
  5
2
102
{ACAD_XDICTIONARY
360
1843
102
}
330
0
100
AcDbSymbolTable
 70
    21
  0
LAYER
  5
F
102
{ACAD_XDICTIONARY
360
18CA
102
}
330
2
100
AcDbSymbolTableRecord
100
AcDbLayerTableRecord
  2
0
 70
     0
 62
     7
  6
CONTINUOUS
370
    -3
390
616
  0
LAYER
  5
34
102
{ACAD_XDICTIONARY
360
18D0
102
}
330
2
100
AcDbSymbolTableRecord
100
AcDbLayerTableRecord
  2
寸法線
 70
     0
 62
     7
  6
CONTINUOUS
370
    -3
390
616
  0
LAYER
  5
36
330
2
100
AcDbSymbolTableRecord
100
AcDbLayerTableRecord
  2
DEFPOINTS
 70
     0
 62
     7
  6
CONTINUOUS
290
     0
370
    -3
390
616
  0
LAYER
  5
2F4
102
{ACAD_XDICTIONARY
360
18D8
102
}
330
2
100
AcDbSymbolTableRecord
100
AcDbLayerTableRecord
  2
文字
 70
     0
 62
     7
  6
CONTINUOUS
370
    -3
390
616
  0
LAYER
  5
1BA0C4
102
{ACAD_XDICTIONARY
360
1BA0C5
102
}
330
2
100
AcDbSymbolTableRecord
100
AcDbLayerTableRecord
  2
姿図
 70
     0
 62
     8
  6
CONTINUOUS
370
    -3
390
616
  0
ENDTAB
  0
TABLE
  2
STYLE
  5
3
330
0
100
AcDbSymbolTable
 70
     3
  0
STYLE
  5
10
330
3
100
AcDbSymbolTableRecord
100
AcDbTextStyleTableRecord
  2
STANDARD
 70
     0
 40
0.0
 41
1.0
 50
0.0
 71
     0
 42
3.5
  3
MONOTXT
  4
BIGFONT
  0
ENDTAB
  0
TABLE
  2
VIEW
  5
6
330
0
100
AcDbSymbolTable
 70
     0
  0
ENDTAB
  0
TABLE
  2
UCS
  5
7
330
0
100
AcDbSymbolTable
 70
     0
  0
ENDTAB
  0
TABLE
  2
APPID
  5
9
330
0
100
AcDbSymbolTable
 70
    12
  0
APPID
  5
11
330
9
100
AcDbSymbolTableRecord
100
AcDbRegAppTableRecord
  2
ACAD
 70
     0
  0
APPID
  5
18C4
330
9
100
AcDbSymbolTableRecord
100
AcDbRegAppTableRecord
  2
ACAD_MLEADERVER
 70
     0
  0
APPID
  5
18C8
330
9
100
AcDbSymbolTableRecord
100
AcDbRegAppTableRecord
  2
ACAD_DSTYLE_DIMJAG
 70
     0
  0
APPID
  5
18C9
330
9
100
AcDbSymbolTableRecord
100
AcDbRegAppTableRecord
  2
ACAD_DSTYLE_DIMTALN
 70
     0
  0
APPID
  5
1903
330
9
100
AcDbSymbolTableRecord
100
AcDbRegAppTableRecord
  2
ACAD_EXEMPT_FROM_CAD_STANDARDS
 70
     0
  0
APPID
  5
19B4
330
9
100
AcDbSymbolTableRecord
100
AcDbRegAppTableRecord
  2
ACAD_PSEXT
 70
     0
  0
APPID
  5
19DA
330
9
100
AcDbSymbolTableRecord
100
AcDbRegAppTableRecord
  2
ACAD_DSTYLE_DIMBREAK
 70
     0
  0
APPID
  5
7890
330
9
100
AcDbSymbolTableRecord
100
AcDbRegAppTableRecord
  2
ACAD_DSTYLE_DIMRADIAL_EXTENSION
 70
     0
  0
APPID
  5
7891
330
9
100
AcDbSymbolTableRecord
100
AcDbRegAppTableRecord
  2
AcAecLayerStandard
 70
     0
  0
APPID
  5
8098B
330
9
100
AcDbSymbolTableRecord
100
AcDbRegAppTableRecord
  2
ASK_MEN_XD
 70
     0
  0
APPID
  5
229E9B
330
9
100
AcDbSymbolTableRecord
100
AcDbRegAppTableRecord
  2
ACAD_SPLINE_DATA
 70
     0
  0
APPID
  5
229E9C
330
9
100
AcDbSymbolTableRecord
100
AcDbRegAppTableRecord
  2
ACAD_SPLINE_DATA2
 70
     0
  0
ENDTAB
  0
TABLE
  2
DIMSTYLE
  5
A
330
0
100
AcDbSymbolTable
 70
     3
100
AcDbDimStyleTable
  0
DIMSTYLE
105
1CC
330
A
100
AcDbSymbolTableRecord
100
AcDbDimStyleTableRecord
  2
STANDARD
 70
     0
 41
2.5
 42
1.5
 44
1.0
 73
     0
 74
     0
 77
     3
 78
     8
 79
     2
140
2.500000000000003
141
0.0
147
1.0
171
     0
172
     1
173
     1
176
     8
177
     8
271
     2
178
   256
179
     2
271
     2
272
     2
274
     0
289
     0
340
10
341
608
343
608
344
608
1001
ACAD_DSTYLE_DIMJAG
1070
   388
1040
1.5
1001
ACAD_DSTYLE_DIMTALN
1070
   392
1070
     0
  0
ENDTAB
  0
TABLE
  2
BLOCK_RECORD
  5
1
330
0
100
AcDbSymbolTable
 70
    53
  0
BLOCK_RECORD
  5
18
102
{ACAD_XDICTIONARY
360
606CF
102
}
330
1
100
AcDbSymbolTableRecord
100
AcDbBlockTableRecord
  2
*MODEL_SPACE
340
619
  0
BLOCK_RECORD
  5
15
330
1
100
AcDbSymbolTableRecord
100
AcDbBlockTableRecord
  2
*PAPER_SPACE
340
61A
  0
BLOCK_RECORD
  5
608
330
1
100
AcDbSymbolTableRecord
100
AcDbBlockTableRecord
  2
_OPEN
340
0
102
{BLKREFS
331
0
331
0
331
0
331
0
331
0
331
0
102
}
  0
BLOCK_RECORD
  5
182E
330
1
100
AcDbSymbolTableRecord
100
AcDbBlockTableRecord
  2
SUN
340
0
  0
BLOCK_RECORD
  5
19D1
330
1
100
AcDbSymbolTableRecord
100
AcDbBlockTableRecord
  2
_OPEN30
340
0
102
{BLKREFS
331
224904
331
224905
331
22490F
331
224910
331
22491A
331
22491B
331
224923
331
224924
331
22492C
331
22492D
331
224935
331
224936
331
22493E
331
22493F
331
224949
331
22494A
331
224954
331
224955
331
22495D
331
22495E
331
224966
331
224967
331
22496F
331
224970
331
2253C2
331
2253C3
331
2253CD
331
2253CE
331
2253D6
331
2253D7
331
2253DF
331
2253E0
331
2253E8
331
2253E9
331
2253F1
331
2253F2
331
229191
331
229192
331
22919C
331
22919D
331
2291A7
331
2291A8
331
2291B0
331
2291B1
331
2291B9
331
2291BA
331
2291C2
331
2291C3
331
229E54
331
229E55
331
229E62
331
229E63
331
229E70
331
229E71
331
229E7C
331
229E7D
331
229E88
331
229E89
331
229E94
331
229E95
102
}
  0
ENDTAB
  0
ENDSEC
  0
SECTION
  2
BLOCKS
  0
BLOCK
  5
39
330
18
100
AcDbEntity
  8
0
100
AcDbBlockBegin
  2
*MODEL_SPACE
 70
     0
 10
0.0
 20
0.0
 30
0.0
  3
*MODEL_SPACE
  1
*MODEL_SPACE
  0
ENDBLK
  5
3A
330
18
100
AcDbEntity
  8
0
100
AcDbBlockEnd
  0
BLOCK
  5
37
330
15
100
AcDbEntity
 67
     1
  8
0
100
AcDbBlockBegin
  2
*PAPER_SPACE
 70
     0
 10
0.0
 20
0.0
 30
0.0
  3
*PAPER_SPACE
  1
*PAPER_SPACE
  0
ENDBLK
  5
38
330
15
100
AcDbEntity
 67
     1
  8
0
100
AcDbBlockEnd
  0
BLOCK
  5
609
330
608
100
AcDbEntity
  8
0
100
AcDbBlockBegin
  2
_OPEN
 70
     0
 10
0.0
 20
0.0
 30
0.0
  3
_OPEN
  1
_OPEN
  0
LINE
  5
60A
330
608
100
AcDbEntity
  8
0
  6
ByBlock
 62
     0
100
AcDbLine
 10
-1.0
 20
0.1666666666666667
 30
0.0
 11
0.0
 21
0.0
 31
0.0
  0
LINE
  5
60B
330
608
100
AcDbEntity
  8
0
  6
ByBlock
 62
     0
100
AcDbLine
 10
0.0
 20
0.0
 30
0.0
 11
-1.0
 21
-0.1666666666666667
 31
0.0
  0
LINE
  5
60C
330
608
100
AcDbEntity
  8
0
  6
ByBlock
 62
     0
100
AcDbLine
 10
0.0
 20
0.0
 30
0.0
 11
-1.0
 21
0.0
 31
0.0
  0
ENDBLK
  5
60D
330
608
100
AcDbEntity
  8
0
100
AcDbBlockEnd
  0
BLOCK
  5
182F
330
182E
100
AcDbEntity
  8
0
100
AcDbBlockBegin
  2
SUN
 70
     0
 10
0.0
 20
0.0
 30
0.0
  3
SUN
  1
SUN
  0
LINE
  5
1830
330
182E
100
AcDbEntity
  8
0
100
AcDbLine
 10
-0.0000000000000568
 20
0.0
 30
0.0
 11
-1.500000000000057
 21
0.0
 31
0.0
  0
LINE
  5
1831
330
182E
100
AcDbEntity
  8
0
100
AcDbLine
 10
-0.0000000000000568
 20
0.0000000000000284
 30
0.0
 11
-1.500000000000057
 21
0.401923788646684
 31
0.0
  0
LINE
  5
1832
330
182E
100
AcDbEntity
  8
0
100
AcDbLine
 10
-0.0000000000000568
 20
0.0000000000000284
 30
0.0
 11
-1.500000000000057
 21
-0.4019237886466556
 31
0.0
  0
ENDBLK
  5
1833
330
182E
100
AcDbEntity
  8
0
100
AcDbBlockEnd
  0
BLOCK
  5
19D2
330
19D1
100
AcDbEntity
  8
0
100
AcDbBlockBegin
  2
_OPEN30
 70
     0
 10
0.0
 20
0.0
 30
0.0
  3
_OPEN30
  1
_OPEN30
  0
LINE
  5
19D3
330
19D1
100
AcDbEntity
  8
0
  6
ByBlock
 62
     0
100
AcDbLine
 10
-1.0
 20
0.26794919
 30
0.0
 11
0.0
 21
0.0
 31
0.0
  0
LINE
  5
19D4
330
19D1
100
AcDbEntity
  8
0
  6
ByBlock
 62
     0
100
AcDbLine
 10
0.0
 20
0.0
 30
0.0
 11
-1.0
 21
-0.26794919
 31
0.0
  0
LINE
  5
19D5
330
19D1
100
AcDbEntity
  8
0
  6
ByBlock
 62
     0
100
AcDbLine
 10
0.0
 20
0.0
 30
0.0
 11
-1.0
 21
0.0
 31
0.0
  0
ENDBLK
  5
19D6
330
19D1
100
AcDbEntity
  8
0
100
AcDbBlockEnd
  0
ENDSEC
  0
SECTION
  2
ENTITIES
  0
MTEXT
  5
91D75
330
18
100
AcDbEntity
  8
寸法線
100
AcDbMText
 10
25204.21705941606
 20
110.9904659150561
 30
0.0
 40
2.500000000000003
 41
0.0
 71
     7
 72
     1
  1
\A1;
 73
     1
 44
1.0
  0
MTEXT
  5
E44AD
330
18
100
AcDbEntity
  8
寸法線
100
AcDbMText
 10
32347.17883008588
 20
-813.2759519908213
 30
0.0
 40
2.500000000000003
 41
0.0
 71
     9
 72
     1
  1
\A1;
 73
     1
 44
1.0
  0
MTEXT
  5
1B9EA6
330
18
100
AcDbEntity
  8
寸法線
100
AcDbMText
 10
27315.48179931251
 20
-3729.555017823724
 30
0.0
 40
2.500000000000003
 41
0.0
 71
     7
 72
     1
  1
\A1;
 73
     1
 44
1.0
  0
TEXT
  5
2294E1
330
18
100
AcDbEntity
  8
文字
100
AcDbText
 10
29605.26928886725
 20
-8092.282886704606
 30
0.0
 40
5.999999999999997
  1
SX-B0352D/W4/NC
100
AcDbText
  0
POLYLINE
  5
2295AB
102
{ACAD_REACTORS
330
229E46
102
}
330
18
100
AcDbEntity
  8
姿図
370
     0
100
AcDb2dPolyline
 66
     1
 10
0.0
 20
0.0
 30
0.0
  0
VERTEX
  5
2295AC
330
2295AB
100
AcDbEntity
  8
姿図
370
     0
100
AcDbVertex
100
AcDb2dVertex
 10
29629.51071816252
 20
-8044.814679081208
 30
0.0
  0
VERTEX
  5
2295AD
330
2295AB
100
AcDbEntity
  8
姿図
370
     0
100
AcDbVertex
100
AcDb2dVertex
 10
29629.51071816252
 20
-8055.819518229886
 30
0.0
  0
SEQEND
  5
2295AE
330
2295AB
100
AcDbEntity
  8
姿図
370
     0
  0
POLYLINE
  5
2295AF
102
{ACAD_REACTORS
330
229E46
102
}
330
18
100
AcDbEntity
  8
姿図
370
     0
100
AcDb2dPolyline
 66
     1
 10
0.0
 20
0.0
 30
0.0
  0
VERTEX
  5
2295B0
330
2295AF
100
AcDbEntity
  8
姿図
370
     0
100
AcDbVertex
100
AcDb2dVertex
 10
29630.81080708253
 20
-8044.353485784048
 30
0.0
  0
VERTEX
  5
2295B1
330
2295AF
100
AcDbEntity
  8
姿図
370
     0
100
AcDbVertex
100
AcDb2dVertex
 10
29630.81080708253
 20
-8055.391762651177
 30
0.0
  0
SEQEND
  5
2295B2
330
2295AF
100
AcDbEntity
  8
姿図
370
     0
  0
POLYLINE
  5
2295B3
102
{ACAD_REACTORS
330
229E46
102
}
330
18
100
AcDbEntity
  8
姿図
370
     0
100
AcDb2dPolyline
 66
     1
 10
0.0
 20
0.0
 30
0.0
  0
VERTEX
  5
2295B4
330
2295B3
100
AcDbEntity
  8
姿図
370
     0
100
AcDbVertex
100
AcDb2dVertex
 10
29632.76219287623
 20
-8043.814100918431
 30
0.0
  0
VERTEX
  5
2295B5
330
2295B3
100
AcDbEntity
  8
姿図
370
     0
100
AcDbVertex
100
AcDb2dVertex
 10
29632.76219287623
 20
-8054.892287380504
 30
0.0
  0
SEQEND
  5
2295B6
330
2295B3
100
AcDbEntity
  8
姿図
370
     0
  0
POLYLINE
  5
2295B7
102
{ACAD_REACTORS
330
229E46
102
}
330
18
100
AcDbEntity
  8
姿図
370
     0
100
AcDb2dPolyline
 66
     1
 10
0.0
 20
0.0
 30
0.0
  0
VERTEX
  5
2295B8
330
2295B7
100
AcDbEntity
  8
姿図
370
     0
100
AcDbVertex
100
AcDb2dVertex
 10
29633.88656815343
 20
-8043.567121610364
 30
0.0
  0
VERTEX
  5
2295B9
330
2295B7
100
AcDbEntity
  8
姿図
370
     0
100
AcDbVertex
100
AcDb2dVertex
 10
29633.88656815343
 20
-8054.665260982327
 30
0.0
  0
SEQEND
  5
2295BA
330
2295B7
100
AcDbEntity
  8
姿図
370
     0
  0
POLYLINE
  5
2295BB
102
{ACAD_REACTORS
330
229E46
102
}
330
18
100
AcDbEntity
  8
姿図
370
     0
100
AcDb2dPolyline
 66
     1
 10
0.0
 20
0.0
 30
0.0
  0
VERTEX
  5
2295BC
330
2295BB
100
AcDbEntity
  8
姿図
370
     0
100
AcDbVertex
100
AcDb2dVertex
 10
29636.03629453088
 20
-8043.195298015073
 30
0.0
  0
VERTEX
  5
2295BD
330
2295BB
100
AcDbEntity
  8
姿図
370
     0
100
AcDbVertex
100
AcDb2dVertex
 10
29636.03629453088
 20
-8054.318991380167
 30
0.0
  0
SEQEND
  5
2295BE
330
2295BB
100
AcDbEntity
  8
姿図
370
     0
  0
POLYLINE
  5
2295BF
102
{ACAD_REACTORS
330
229E46
102
}
330
18
100
AcDbEntity
  8
姿図
370
     0
100
AcDb2dPolyline
 66
     1
 10
0.0
 20
0.0
 30
0.0
  0
VERTEX
  5
2295C0
330
2295BF
100
AcDbEntity
  8
姿図
370
     0
100
AcDbVertex
100
AcDb2dVertex
 10
29637.09466760581
 20
-8043.055898367462
 30
0.0
  0
VERTEX
  5
2295C1
330
2295BF
100
AcDbEntity
  8
姿図
370
     0
100
AcDbVertex
100
AcDb2dVertex
 10
29637.09466760581
 20
-8054.189046138437
 30
0.0
  0
SEQEND
  5
2295C2
330
2295BF
100
AcDbEntity
  8
姿図
370
     0
  0
POLYLINE
  5
2295C3
102
{ACAD_REACTORS
330
229E46
102
}
330
18
100
AcDbEntity
  8
姿図
370
     0
100
AcDb2dPolyline
 66
     1
 10
0.0
 20
0.0
 30
0.0
  0
VERTEX
  5
2295C4
330
2295C3
100
AcDbEntity
  8
姿図
370
     0
100
AcDbVertex
100
AcDb2dVertex
 10
29639.24426874188
 20
-8042.848776524706
 30
0.0
  0
VERTEX
  5
2295C5
330
2295C3
100
AcDbEntity
  8
姿図
370
     0
100
AcDbVertex
100
AcDb2dVertex
 10
29639.24426874188
 20
-8053.996277065786
 30
0.0
  0
SEQEND
  5
2295C6
330
2295C3
100
AcDbEntity
  8
姿図
370
     0
  0
POLYLINE
  5
2295C7
102
{ACAD_REACTORS
330
229E46
102
}
330
18
100
AcDbEntity
  8
姿図
370
     0
100
AcDb2dPolyline
 66
     1
 10
0.0
 20
0.0
 30
0.0
  0
VERTEX
  5
2295C8
330
2295C7
100
AcDbEntity
  8
姿図
370
     0
100
AcDbVertex
100
AcDb2dVertex
 10
29640.40191647651
 20
-8042.775458327736
 30
0.0
  0
VERTEX
  5
2295C9
330
2295C7
100
AcDbEntity
  8
姿図
370
     0
100
AcDbVertex
100
AcDb2dVertex
 10
29640.40191647651
 20
-8053.928214295242
 30
0.0
  0
SEQEND
  5
2295CA
330
2295C7
100
AcDbEntity
  8
姿図
370
     0
  0
POLYLINE
  5
2295CB
102
{ACAD_REACTORS
330
229E46
102
}
330
18
100
AcDbEntity
  8
姿図
370
     0
100
AcDb2dPolyline
 66
     1
 10
0.0
 20
0.0
 30
0.0
  0
VERTEX
  5
2295CC
330
2295CB
100
AcDbEntity
  8
姿図
370
     0
100
AcDbVertex
100
AcDb2dVertex
 10
29642.58474832289
 20
-8042.709993069557
 30
0.0
  0
VERTEX
  5
2295CD
330
2295CB
100
AcDbEntity
  8
姿図
370
     0
100
AcDbVertex
100
AcDb2dVertex
 10
29642.58474832289
 20
-8053.872009876397
 30
0.0
  0
SEQEND
  5
2295CE
330
2295CB
100
AcDbEntity
  8
姿図
370
     0
  0
POLYLINE
  5
2295CF
102
{ACAD_REACTORS
330
229E46
102
}
330
18
100
AcDbEntity
  8
姿図
370
     0
100
AcDb2dPolyline
 66
     1
 10
0.0
 20
0.0
 30
0.0
  0
VERTEX
  5
2295D0
330
2295CF
100
AcDbEntity
  8
姿図
370
     0
100
AcDbVertex
100
AcDb2dVertex
 10
29627.40440879352
 20
-8045.84410274511
 30
0.0
  0
VERTEX
  5
2295D1
330
2295CF
100
AcDbEntity
  8
姿図
370
     0
100
AcDbVertex
100
AcDb2dVertex
 10
29627.40440879352
 20
-8056.870294223858
 30
0.0
  0
SEQEND
  5
2295D2
330
2295CF
100
AcDbEntity
  8
姿図
370
     0
  0
SPLINE
  5
2295D3
102
{ACAD_REACTORS
330
229E46
102
}
330
18
100
AcDbEntity
  8
姿図
370
     0
100
AcDbSpline
210
0.0
220
0.0
230
1.0
 70
     8
 71
     3
 72
     8
 73
     4
 74
     0
 42
0.000000001
 43
0.0000000001
 40
0.0793131742997577
 40
0.0793131742997577
 40
0.0793131742997577
 40
0.0793131742997577
 40
0.9305921271371336
 40
0.9305921271371336
 40
0.9305921271371336
 40
0.9305921271371336
 10
29640.40191647651
 20
-8042.775458327736
 30
0.0
 10
29641.10214949063
 20
-8042.739728512975
 30
0.0
 10
29641.81553363789
 20
-8042.718040950605
 30
0.0
 10
29642.58474832289
 20
-8042.709993069557
 30
0.0
  0
SPLINE
  5
2295D4
102
{ACAD_REACTORS
330
229E46
102
}
330
18
100
AcDbEntity
  8
姿図
370
     0
100
AcDbSpline
210
0.0
220
0.0
230
1.0
 70
     8
 71
     3
 72
     8
 73
     4
 74
     0
 42
0.000000001
 43
0.0000000001
 40
0.0590858744410444
 40
0.0590858744410444
 40
0.0590858744410444
 40
0.0590858744410444
 40
1.0
 40
1.0
 40
1.0
 40
1.0
 10
29637.09466760581
 20
-8043.055898367462
 30
0.0
 10
29637.79259204364
 20
-8042.971639099405
 30
0.0
 10
29638.50976098731
 20
-8042.902063686864
 30
0.0
 10
29639.24426874188
 20
-8042.848776524706
 30
0.0
  0
SPLINE
  5
2295D5
102
{ACAD_REACTORS
330
229E46
102
}
330
18
100
AcDbEntity
  8
姿図
370
     0
100
AcDbSpline
210
0.0
220
0.0
230
1.0
 70
     8
 71
     3
 72
     8
 73
     4
 74
     0
 42
0.000000001
 43
0.0000000001
 40
0.0701618649921582
 40
0.0701618649921582
 40
0.0701618649921582
 40
0.0701618649921582
 40
0.9484264303009856
 40
0.9484264303009856
 40
0.9484264303009856
 40
0.9484264303009856
 10
29633.88656815343
 20
-8043.567121610364
 30
0.0
 10
29634.57442245365
 20
-8043.427504209661
 30
0.0
 10
29635.29229886239
 20
-8043.303515875379
 30
0.0
 10
29636.03629453088
 20
-8043.195298015073
 30
0.0
  0
SPLINE
  5
2295D6
102
{ACAD_REACTORS
330
229E46
102
}
330
18
100
AcDbEntity
  8
姿図
370
     0
100
AcDbSpline
210
0.0
220
0.0
230
1.0
 70
     8
 71
     3
 72
     8
 73
     4
 74
     0
 42
0.000000001
 43
0.0000000001
 40
0.0613302416597337
 40
0.0613302416597337
 40
0.0613302416597337
 40
0.0613302416597337
 40
0.9379625081857872
 40
0.9379625081857872
 40
0.9379625081857872
 40
0.9379625081857872
 10
29630.81080708253
 20
-8044.353485784048
 30
0.0
 10
29631.42174531389
 20
-8044.159449001256
 30
0.0
 10
29632.07377282103
 20
-8043.979072814278
 30
0.0
 10
29632.76219287623
 20
-8043.814100918438
 30
0.0
  0
SPLINE
  5
2295D7
102
{ACAD_REACTORS
330
229E46
102
}
330
18
100
AcDbEntity
  8
姿図
370
     0
100
AcDbSpline
210
0.0
220
0.0
230
1.0
 70
     8
 71
     3
 72
     8
 73
     4
 74
     0
 42
0.000000001
 43
0.0000000001
 40
0.1273683454642412
 40
0.1273683454642412
 40
0.1273683454642412
 40
0.1273683454642412
 40
0.9525802158650641
 40
0.9525802158650641
 40
0.9525802158650641
 40
0.9525802158650641
 10
29627.40440879352
 20
-8045.84410274511
 30
0.0
 10
29627.99995513412
 20
-8045.475589227613
 30
0.0
 10
29628.70716465771
 20
-8045.130242791964
 30
0.0
 10
29629.51071816252
 20
-8044.814679081208
 30
0.0
  0
SPLINE
  5
2295D8
102
{ACAD_REACTORS
330
229E46
102
}
330
18
100
AcDbEntity
  8
姿図
370
     0
100
AcDbSpline
210
0.0
220
0.0
230
1.0
 70
     8
 71
     3
 72
     8
 73
     4
 74
     0
 42
0.000000001
 43
0.0000000001
 40
0.0935374024945616
 40
0.0935374024945616
 40
0.0935374024945616
 40
0.0935374024945616
 40
0.8378340737912904
 40
0.8378340737912904
 40
0.8378340737912904
 40
0.8378340737912904
 10
29642.58474832289
 20
-8053.86504372657
 30
0.0
 10
29642.76038740011
 20
-8053.863100092824
 30
0.0
 10
29642.93704355264
 20
-8053.862289837873
 30
0.0
 10
29643.11397660748
 20
-8053.862062135295
 30
0.0
  0
SPLINE
  5
2295D9
102
{ACAD_REACTORS
330
229E46
102
}
330
18
100
AcDbEntity
  8
姿図
370
     0
100
AcDbSpline
210
0.0
220
0.0
230
1.0
 70
     8
 71
     3
 72
     8
 73
     4
 74
     0
 42
0.000000001
 43
0.0000000001
 40
0.0864374610391737
 40
0.0864374610391737
 40
0.0864374610391737
 40
0.0864374610391737
 40
0.9399452594022523
 40
0.9399452594022523
 40
0.9399452594022523
 40
0.9399452594022523
 10
29639.24426874188
 20
-8053.996277065786
 30
0.0
 10
29639.62535608754
 20
-8053.969818417458
 30
0.0
 10
29640.01108292571
 20
-8053.947130827279
 30
0.0
 10
29640.40191647651
 20
-8053.928214295242
 30
0.0
  0
SPLINE
  5
2295DA
102
{ACAD_REACTORS
330
229E46
102
}
330
18
100
AcDbEntity
  8
姿図
370
     0
100
AcDbSpline
210
0.0
220
0.0
230
1.0
 70
     8
 71
     3
 72
     8
 73
     4
 74
     0
 42
0.000000001
 43
0.0000000001
 40
0.1303403369536436
 40
0.1303403369536436
 40
0.1303403369536436
 40
0.1303403369536436
 40
0.948885511071856
 40
0.948885511071856
 40
0.948885511071856
 40
0.948885511071856
 10
29636.03629453088
 20
-8054.318991380167
 30
0.0
 10
29636.38342899144
 20
-8054.272252975466
 30
0.0
 10
29636.73663213957
 20
-8054.228968422534
 30
0.0
 10
29637.09466760581
 20
-8054.189046138437
 30
0.0
  0
SPLINE
  5
2295DB
102
{ACAD_REACTORS
330
229E46
102
}
330
18
100
AcDbEntity
  8
姿図
370
     0
100
AcDbSpline
210
0.0
220
0.0
230
1.0
 70
     8
 71
     3
 72
     8
 73
     4
 74
     0
 42
0.000000001
 43
0.0000000001
 40
0.1255854746361369
 40
0.1255854746361369
 40
0.1255854746361369
 40
0.1255854746361369
 40
0.9522967665741322
 40
0.9522967665741322
 40
0.9522967665741322
 40
0.9522967665741322
 10
29632.76219287623
 20
-8054.892287380504
 30
0.0
 10
29633.12682867876
 20
-8054.812149273503
 30
0.0
 10
29633.50197425542
 20
-8054.735521554785
 30
0.0
 10
29633.88656815343
 20
-8054.663725143369
 30
0.0
  0
SPLINE
  5
2295DC
102
{ACAD_REACTORS
330
229E46
102
}
330
18
100
AcDbEntity
  8
姿図
370
     0
100
AcDbSpline
210
0.0
220
0.0
230
1.0
 70
     8
 71
     3
 72
     8
 73
     4
 74
     0
 42
0.000000001
 43
0.0000000001
 40
0.0716027249754091
 40
0.0716027249754091
 40
0.0716027249754091
 40
0.0716027249754091
 40
1.0
 40
1.0
 40
1.0
 40
1.0
 10
29629.51071816252
 20
-8055.819518229886
 30
0.0
 10
29629.94863313871
 20
-8055.658809366863
 30
0.0
 10
29630.4170249721
 20
-8055.505595571221
 30
0.0
 10
29630.81080708253
 20
-8055.391762651181
 30
0.0
  0
SPLINE
  5
2295DD
102
{ACAD_REACTORS
330
229E46
102
}
330
18
100
AcDbEntity
  8
姿図
370
     0
100
AcDbSpline
210
0.0
220
0.0
230
1.0
 70
     8
 71
     3
 72
    11
 73
     7
 74
     0
 42
0.000000001
 43
0.0000000001
 40
0.1437191788405928
 40
0.1437191788405928
 40
0.1437191788405928
 40
0.1437191788405928
 40
1.0
 40
1.0
 40
1.0
 40
1.968511190403449
 40
1.968511190403449
 40
1.968511190403449
 40
1.968511190403449
 10
29625.89150992532
 20
-8060.435691840021
 30
0.0
 10
29625.60454098594
 20
-8060.051729291155
 30
0.0
 10
29625.45302299981
 20
-8059.652309434614
 30
0.0
 10
29625.45302299981
 20
-8059.242359843282
 30
0.0
 10
29625.45302299981
 20
-8058.358665893318
 30
0.0
 10
29626.15683459424
 20
-8057.523842853601
 30
0.0
 10
29627.40440879352
 20
-8056.870294223858
 30
0.0
  0
SPLINE
  5
2295DE
102
{ACAD_REACTORS
330
229E46
102
}
330
18
100
AcDbEntity
  8
姿図
370
     0
100
AcDbSpline
210
0.0
220
0.0
230
1.0
 70
     8
 71
     3
 72
    11
 73
     7
 74
     0
 42
0.000000001
 43
0.0000000001
 40
0.8013261144550126
 40
0.8013261144550126
 40
0.8013261144550126
 40
0.8013261144550126
 40
1.0
 40
1.0
 40
1.0
 40
1.99748730823794
 40
1.99748730823794
 40
1.99748730823794
 40
1.99748730823794
 10
29625.33973227184
 20
-8061.889803579799
 30
0.0
 10
29625.33792068606
 20
-8061.840040841735
 30
0.0
 10
29625.33918744602
 20
-8061.790102889912
 30
0.0
 10
29625.34374382627
 20
-8061.740006747967
 30
0.0
 10
29625.3208098597
 20
-8058.850869118809
 30
0.0
 10
29633.27999396867
 20
-8056.506538543274
 30
0.0
 10
29643.11397660748
 20
-8056.49477562394
 30
0.0
  0
SPLINE
  5
2295DF
102
{ACAD_REACTORS
330
229E46
102
}
330
18
100
AcDbEntity
  8
姿図
370
     0
100
AcDbSpline
210
0.0
220
0.0
230
1.0
 70
     8
 71
     3
 72
    11
 73
     7
 74
     0
 42
0.000000001
 43
0.0000000001
 40
1.000338750999364
 40
1.000338750999364
 40
1.000338750999364
 40
1.000338750999364
 40
2.0
 40
2.0
 40
2.0
 40
2.999504982061918
 40
2.999504982061918
 40
2.999504982061918
 40
2.999504982061918
 10
29643.11397660748
 20
-8072.597424693902
 30
0.0
 10
29631.9859290754
 20
-8072.58977081903
 30
0.0
 10
29622.96785920629
 20
-8070.156212993346
 30
0.0
 10
29622.96998758836
 20
-8067.158616389619
 30
0.0
 10
29622.97103074981
 20
-8064.159986217381
 30
0.0
 10
29631.98836795912
 20
-8061.734226949366
 30
0.0
 10
29643.11397660748
 20
-8061.737995498761
 30
0.0
  0
SPLINE
  5
2295E0
102
{ACAD_REACTORS
330
229E46
102
}
330
18
100
AcDbEntity
  8
姿図
370
     0
100
AcDbSpline
210
0.0
220
0.0
230
1.0
 70
     8
 71
     3
 72
    11
 73
     7
 74
     0
 42
0.000000001
 43
0.0000000001
 40
1.0
 40
1.0
 40
1.0
 40
1.0
 40
2.0
 40
2.0
 40
2.0
 40
2.999843480940324
 40
2.999843480940324
 40
2.999843480940324
 40
2.999843480940324
 10
29643.11397660748
 20
-8071.283232191296
 30
0.0
 10
29634.57856847255
 20
-8071.277888559487
 30
0.0
 10
29627.65952546522
 20
-8069.506474615189
 30
0.0
 10
29627.66111185591
 20
-8067.321430171263
 30
0.0
 10
29627.66215537065
 20
-8065.136894690795
 30
0.0
 10
29634.5804517445
 20
-8063.370701388476
 30
0.0
 10
29643.11397660748
 20
-8063.375155859032
 30
0.0
  0
SPLINE
  5
2295E1
102
{ACAD_REACTORS
330
229E46
102
}
330
18
100
AcDbEntity
  8
姿図
370
     0
100
AcDbSpline
210
0.0
220
0.0
230
1.0
 70
     8
 71
     3
 72
    11
 73
     7
 74
     0
 42
0.000000001
 43
0.0000000001
 40
1.999915234916564
 40
1.999915234916564
 40
1.999915234916564
 40
1.999915234916564
 40
2.0
 40
2.0
 40
2.0
 40
2.960253422007328
 40
2.960253422007328
 40
2.960253422007328
 40
2.960253422007328
 10
29643.11397660748
 20
-8070.775588150538
 30
0.0
 10
29643.11325300231
 20
-8070.775587836264
 30
0.0
 10
29643.1125293855
 20
-8070.775587509264
 30
0.0
 10
29643.11180575706
 20
-8070.77558716955
 30
0.0
 10
29634.91565088726
 20
-8070.770455928823
 30
0.0
 10
29628.21011717039
 20
-8069.136854857397
 30
0.0
 10
29627.69138902429
 20
-8067.072283997777
 30
0.0
  0
SPLINE
  5
2295E2
102
{ACAD_REACTORS
330
229E46
102
}
330
18
100
AcDbEntity
  8
姿図
370
     0
100
AcDbSpline
210
0.0
220
0.0
230
1.0
 70
     8
 71
     3
 72
     8
 73
     4
 74
     0
 42
0.000000001
 43
0.0000000001
 40
1.001329078286997
 40
1.001329078286997
 40
1.001329078286997
 40
1.001329078286997
 40
1.980723198236951
 40
1.980723198236951
 40
1.980723198236951
 40
1.980723198236951
 10
29643.11397660748
 20
-8069.963327774634
 30
0.0
 10
29635.55817395878
 20
-8069.954630194623
 30
0.0
 10
29629.27485747837
 20
-8068.489499802303
 30
0.0
 10
29627.94965405699
 20
-8066.557359265405
 30
0.0
  0
SPLINE
  5
2295E3
102
{ACAD_REACTORS
330
229E46
102
}
330
18
100
AcDbEntity
  8
姿図
370
     0
100
AcDbSpline
210
0.0
220
0.0
230
1.0
 70
     8
 71
     3
 72
     8
 73
     4
 74
     0
 42
0.000000001
 43
0.0000000001
 40
0.0370900742675664
 40
0.0370900742675664
 40
0.0370900742675664
 40
0.0370900742675664
 40
0.9642082196495878
 40
0.9642082196495878
 40
0.9642082196495878
 40
0.9642082196495878
 10
29640.62093117088
 20
-8045.262543184903
 30
0.0
 10
29641.2148534951
 20
-8045.184022116997
 30
0.0
 10
29641.81936927871
 20
-8045.133705656315
 30
0.0
 10
29642.43108514577
 20
-8045.112492049417
 30
0.0
  0
SPLINE
  5
2295E4
102
{ACAD_REACTORS
330
229E46
102
}
330
18
100
AcDbEntity
  8
姿図
370
     0
100
AcDbSpline
210
0.0
220
0.0
230
1.0
 70
     8
 71
     3
 72
     8
 73
     4
 74
     0
 42
0.000000001
 43
0.0000000001
 40
0.0343408557697565
 40
0.0343408557697565
 40
0.0343408557697565
 40
0.0343408557697565
 40
0.9516949207902992
 40
0.9516949207902992
 40
0.9516949207902992
 40
0.9516949207902992
 10
29637.47756614151
 20
-8045.961052434684
 30
0.0
 10
29638.05310733908
 20
-8045.778760035902
 30
0.0
 10
29638.64263128653
 20
-8045.623127422032
 30
0.0
 10
29639.24426874188
 20
-8045.496829542759
 30
0.0
  0
SPLINE
  5
2295E5
102
{ACAD_REACTORS
330
229E46
102
}
330
18
100
AcDbEntity
  8
姿図
370
     0
100
AcDbSpline
210
0.0
220
0.0
230
1.0
 70
     8
 71
     3
 72
     8
 73
     4
 74
     0
 42
0.000000001
 43
0.0000000001
 40
0.0
 40
0.0
 40
0.0
 40
0.0
 40
0.9575110744418405
 40
0.9575110744418405
 40
0.9575110744418405
 40
0.9575110744418405
 10
29634.84266286472
 20
-8046.983101731023
 30
0.0
 10
29635.18099515571
 20
-8046.856752307611
 30
0.0
 10
29635.60188834081
 20
-8046.665214698491
 30
0.0
 10
29636.03629453088
 20
-8046.485273583939
 30
0.0
  0
SPLINE
  5
2295E6
102
{ACAD_REACTORS
330
229E46
102
}
330
18
100
AcDbEntity
  8
姿図
370
     0
100
AcDbSpline
210
0.0
220
0.0
230
1.0
 70
     8
 71
     3
 72
     8
 73
     4
 74
     0
 42
0.000000001
 43
0.0000000001
 40
0.2733831782530192
 40
0.2733831782530192
 40
0.2733831782530192
 40
0.2733831782530192
 40
0.826318060115595
 40
0.826318060115595
 40
0.826318060115595
 40
0.826318060115595
 10
29632.49022280173
 20
-8048.458865663759
 30
0.0
 10
29632.58014548615
 20
-8048.393977676895
 30
0.0
 10
29632.6708304075
 20
-8048.329256590614
 30
0.0
 10
29632.76219287623
 20
-8048.265844043342
 30
0.0
  0
SPLINE
  5
2295E7
102
{ACAD_REACTORS
330
229E46
102
}
330
18
100
AcDbEntity
  8
姿図
370
     0
100
AcDbSpline
210
0.0
220
0.0
230
1.0
 70
     8
 71
     3
 72
     8
 73
     4
 74
     0
 42
0.000000001
 43
0.0000000001
 40
0.0672863383150478
 40
0.0672863383150478
 40
0.0672863383150478
 40
0.0672863383150478
 40
0.9044404180318875
 40
0.9044404180318875
 40
0.9044404180318875
 40
0.9044404180318875
 10
29628.58818116748
 20
-8057.715017943303
 30
0.0
 10
29628.87452832362
 20
-8056.83466088255
 30
0.0
 10
29629.18262032399
 20
-8055.981855303353
 30
0.0
 10
29629.51071816254
 20
-8055.160128203936
 30
0.0
  0
POLYLINE
  5
2295E8
102
{ACAD_REACTORS
330
229E46
102
}
330
18
100
AcDbEntity
  8
姿図
370
     0
100
AcDb2dPolyline
 66
     1
 10
0.0
 20
0.0
 30
0.0
  0
VERTEX
  5
2295E9
330
2295E8
100
AcDbEntity
  8
姿図
370
     0
100
AcDbVertex
100
AcDb2dVertex
 10
29625.41368509343
 20
-8059.195614473376
 30
0.0
  0
VERTEX
  5
2295EA
330
2295E8
100
AcDbEntity
  8
姿図
370
     0
100
AcDbVertex
100
AcDb2dVertex
 10
29626.00404328287
 20
-8040.209261780457
 30
0.0
  0
SEQEND
  5
2295EB
330
2295E8
100
AcDbEntity
  8
姿図
370
     0
  0
POLYLINE
  5
2295EC
102
{ACAD_REACTORS
330
229E46
102
}
330
18
100
AcDbEntity
  8
姿図
370
     0
100
AcDb2dPolyline
 66
     1
 10
0.0
 20
0.0
 30
0.0
  0
VERTEX
  5
2295ED
330
2295EC
100
AcDbEntity
  8
姿図
370
     0
100
AcDbVertex
100
AcDb2dVertex
 10
29625.28762089652
 20
-8063.835712347607
 30
0.0
  0
VERTEX
  5
2295EE
330
2295EC
100
AcDbEntity
  8
姿図
370
     0
100
AcDbVertex
100
AcDb2dVertex
 10
29625.34665754327
 20
-8061.631204640331
 30
0.0
  0
SEQEND
  5
2295EF
330
2295EC
100
AcDbEntity
  8
姿図
370
     0
  0
SPLINE
  5
2295F0
102
{ACAD_REACTORS
330
229E46
102
}
330
18
100
AcDbEntity
  8
姿図
370
     0
100
AcDbSpline
210
0.0
220
0.0
230
1.0
 70
     8
 71
     3
 72
     8
 73
     4
 74
     0
 42
0.000000001
 43
0.0000000001
 40
0.0
 40
0.0
 40
0.0
 40
0.0
 40
0.9999406733723821
 40
0.9999406733723821
 40
0.9999406733723821
 40
0.9999406733723821
 10
29623.05832450168
 20
-8066.178560918359
 30
0.0
 10
29623.52281718643
 20
-8063.290165318167
 30
0.0
 10
29632.32493269182
 20
-8060.991837036114
 30
0.0
 10
29643.11397660748
 20
-8060.997574858056
 30
0.0
  0
POLYLINE
  5
2295F1
102
{ACAD_REACTORS
330
229E46
102
}
330
18
100
AcDbEntity
  8
姿図
370
     0
100
AcDb2dPolyline
 66
     1
 10
0.0
 20
0.0
 30
0.0
  0
VERTEX
  5
2295F2
330
2295F1
100
AcDbEntity
  8
姿図
370
     0
100
AcDbVertex
100
AcDb2dVertex
 10
29623.05832450168
 20
-8066.178560918359
 30
0.0
  0
VERTEX
  5
2295F3
330
2295F1
100
AcDbEntity
  8
姿図
370
     0
100
AcDbVertex
100
AcDb2dVertex
 10
29622.96998751573
 20
-8067.160630590601
 30
0.0
  0
SEQEND
  5
2295F4
330
2295F1
100
AcDbEntity
  8
姿図
370
     0
  0
SPLINE
  5
2295F5
102
{ACAD_REACTORS
330
229E46
102
}
330
18
100
AcDbEntity
  8
姿図
370
     0
100
AcDbSpline
210
0.0
220
0.0
230
1.0
 70
     8
 71
     3
 72
    14
 73
    10
 74
     0
 42
0.000000001
 43
0.0000000001
 40
0.0
 40
0.0
 40
0.0
 40
0.0
 40
1.0
 40
1.0
 40
1.0
 40
2.0
 40
2.0
 40
2.0
 40
3.0
 40
3.0
 40
3.0
 40
3.0
 10
29640.40191647651
 20
-8042.826806423827
 30
0.0
 10
29640.40191647651
 20
-8042.826806423827
 30
0.0
 10
29640.62196556447
 20
-8045.210650669856
 30
0.0
 10
29640.62196556447
 20
-8045.210650669856
 30
0.0
 10
29640.62196556447
 20
-8045.210650669856
 30
0.0
 10
29640.48971067723
 20
-8051.706670074762
 30
0.0
 10
29640.57754662507
 20
-8055.043088739601
 30
0.0
 10
29640.57754662507
 20
-8055.043088739601
 30
0.0
 10
29640.40191647651
 20
-8053.928214295242
 30
0.0
 10
29640.40191647651
 20
-8053.928214295242
 30
0.0
  0
SPLINE
  5
2295F6
102
{ACAD_REACTORS
330
229E46
102
}
330
18
100
AcDbEntity
  8
姿図
370
     0
100
AcDbSpline
210
0.0
220
0.0
230
1.0
 70
     8
 71
     3
 72
    11
 73
     7
 74
     0
 42
0.000000001
 43
0.0000000001
 40
0.7980309832626685
 40
0.7980309832626685
 40
0.7980309832626685
 40
0.7980309832626685
 40
1.0
 40
1.0
 40
1.0
 40
1.467451124910523
 40
1.467451124910523
 40
1.467451124910523
 40
1.467451124910523
 10
29627.72429552765
 20
-8059.114375546162
 30
0.0
 10
29627.72358748745
 20
-8059.098216823573
 30
0.0
 10
29627.72323157569
 20
-8059.08204172606
 30
0.0
 10
29627.72323157569
 20
-8059.065853005128
 30
0.0
 10
29627.72323157569
 20
-8058.588132173814
 30
0.0
 10
29628.03363223582
 20
-8058.129385491649
 30
0.0
 10
29628.5907374214
 20
-8057.707161401418
 30
0.0
  0
SPLINE
  5
2295F7
102
{ACAD_REACTORS
330
229E46
102
}
330
18
100
AcDbEntity
  8
姿図
370
     0
100
AcDbSpline
210
0.0
220
0.0
230
1.0
 70
     8
 71
     3
 72
     8
 73
     4
 74
     0
 42
0.000000001
 43
0.0000000001
 40
1.649775017417221
 40
1.649775017417221
 40
1.649775017417221
 40
1.649775017417221
 40
2.0
 40
2.0
 40
2.0
 40
2.0
 10
29629.35142862116
 20
-8057.230820370658
 30
0.0
 10
29629.90575118908
 20
-8056.937826339867
 30
0.0
 10
29630.5846117845
 20
-8056.669175796493
 30
0.0
 10
29631.36122206645
 20
-8056.432248994779
 30
0.0
  0
SPLINE
  5
2295F8
102
{ACAD_REACTORS
330
229E46
102
}
330
18
100
AcDbEntity
  8
姿図
370
     0
100
AcDbSpline
210
0.0
220
0.0
230
1.0
 70
     8
 71
     3
 72
     8
 73
     4
 74
     0
 42
0.000000001
 43
0.0000000001
 40
0.1695485279863797
 40
0.1695485279863797
 40
0.1695485279863797
 40
0.1695485279863797
 40
0.9872166627792156
 40
0.9872166627792156
 40
0.9872166627792156
 40
0.9872166627792156
 10
29642.46928572697
 20
-8054.991256353323
 30
0.0
 10
29642.68279945983
 20
-8054.988911636019
 30
0.0
 10
29642.89770402739
 20
-8054.987535798859
 30
0.0
 10
29643.11397660748
 20
-8054.987493997263
 30
0.0
  0
SPLINE
  5
2295F9
102
{ACAD_REACTORS
330
229E46
102
}
330
18
100
AcDbEntity
  8
姿図
370
     0
100
AcDbSpline
210
0.0
220
0.0
230
1.0
 70
     8
 71
     3
 72
     8
 73
     4
 74
     0
 42
0.000000001
 43
0.0000000001
 40
0.098058235786967
 40
0.098058235786967
 40
0.098058235786967
 40
0.098058235786967
 40
0.9261749614651885
 40
0.9261749614651885
 40
0.9261749614651885
 40
0.9261749614651885
 10
29639.23291244492
 20
-8055.119112755941
 30
0.0
 10
29639.67308791806
 20
-8055.088775513117
 30
0.0
 10
29640.12170337164
 20
-8055.063465785459
 30
0.0
 10
29640.57750226342
 20
-8055.043088739601
 30
0.0
  0
SPLINE
  5
2295FA
102
{ACAD_REACTORS
330
229E46
102
}
330
18
100
AcDbEntity
  8
姿図
370
     0
100
AcDbSpline
210
0.0
220
0.0
230
1.0
 70
     8
 71
     3
 72
     8
 73
     4
 74
     0
 42
0.000000001
 43
0.0000000001
 40
0.0
 40
0.0
 40
0.0
 40
0.0
 40
0.8496240644662686
 40
0.8496240644662686
 40
0.8496240644662686
 40
0.8496240644662686
 10
29636.01354234857
 20
-8055.403628343322
 30
0.0
 10
29636.4489642211
 20
-8055.342053533064
 30
0.0
 10
29636.89800739497
 20
-8055.2853004224
 30
0.0
 10
29637.35913563318
 20
-8055.234393169323
 30
0.0
  0
SPLINE
  5
2295FB
102
{ACAD_REACTORS
330
229E46
102
}
330
18
100
AcDbEntity
  8
姿図
370
     0
100
AcDbSpline
210
0.0
220
0.0
230
1.0
 70
     8
 71
     3
 72
     8
 73
     4
 74
     0
 42
0.000000001
 43
0.0000000001
 40
0.0
 40
0.0
 40
0.0
 40
0.0
 40
1.0
 40
1.0
 40
1.0
 40
1.0
 10
29632.68466846789
 20
-8056.037516666527
 30
0.0
 10
29633.11725216158
 20
-8055.937627391404
 30
0.0
 10
29633.6807965817
 20
-8055.83863337018
 30
0.0
 10
29634.1396050576
 20
-8055.75279658627
 30
0.0
  0
POLYLINE
  5
2295FC
102
{ACAD_REACTORS
330
229E46
102
}
330
18
100
AcDbEntity
  8
姿図
370
     0
100
AcDb2dPolyline
 66
     1
 10
0.0
 20
0.0
 30
0.0
  0
VERTEX
  5
2295FD
330
2295FC
100
AcDbEntity
  8
姿図
370
     0
100
AcDbVertex
100
AcDb2dVertex
 10
29642.58474832289
 20
-8053.872009876397
 30
0.0
  0
VERTEX
  5
2295FE
330
2295FC
100
AcDbEntity
  8
姿図
370
     0
100
AcDbVertex
100
AcDb2dVertex
 10
29642.46928572697
 20
-8054.991256353323
 30
0.0
  0
VERTEX
  5
2295FF
330
2295FC
100
AcDbEntity
  8
姿図
370
     0
100
AcDbVertex
100
AcDb2dVertex
 10
29642.42961601197
 20
-8045.144982444594
 30
0.0
  0
VERTEX
  5
229600
330
2295FC
100
AcDbEntity
  8
姿図
370
     0
100
AcDbVertex
100
AcDb2dVertex
 10
29642.58474832289
 20
-8042.709993069557
 30
0.0
  0
SEQEND
  5
229601
330
2295FC
100
AcDbEntity
  8
姿図
370
     0
  0
POLYLINE
  5
229602
102
{ACAD_REACTORS
330
229E46
102
}
330
18
100
AcDbEntity
  8
姿図
370
     0
100
AcDb2dPolyline
 66
     1
 10
0.0
 20
0.0
 30
0.0
  0
VERTEX
  5
229603
330
229602
100
AcDbEntity
  8
姿図
370
     0
100
AcDbVertex
100
AcDb2dVertex
 10
29639.24426874188
 20
-8053.996277065786
 30
0.0
  0
VERTEX
  5
229604
330
229602
100
AcDbEntity
  8
姿図
370
     0
100
AcDbVertex
100
AcDb2dVertex
 10
29639.23291244492
 20
-8055.119112755941
 30
0.0
  0
SEQEND
  5
229605
330
229602
100
AcDbEntity
  8
姿図
370
     0
  0
SPLINE
  5
229606
102
{ACAD_REACTORS
330
229E46
102
}
330
18
100
AcDbEntity
  8
姿図
370
     0
100
AcDbSpline
210
0.0
220
0.0
230
1.0
 70
     8
 71
     3
 72
    17
 73
    13
 74
     0
 42
0.000000001
 43
0.0000000001
 40
0.1413936366989181
 40
0.1413936366989181
 40
0.1413936366989181
 40
0.1413936366989181
 40
1.0
 40
1.0
 40
1.0
 40
2.0
 40
2.0
 40
2.0
 40
3.0
 40
3.0
 40
3.0
 40
4.0
 40
4.0
 40
4.0
 40
4.0
 10
29637.09466760581
 20
-8043.158982723931
 30
0.0
 10
29637.18214259466
 20
-8043.760872613331
 30
0.0
 10
29637.49147401468
 20
-8045.889291909452
 30
0.0
 10
29637.49147401468
 20
-8045.889291909452
 30
0.0
 10
29637.49147401468
 20
-8045.889291909452
 30
0.0
 10
29637.20412856363
 20
-8047.004775049338
 30
0.0
 10
29637.27038124862
 20
-8054.157059235646
 30
0.0
 10
29637.27038124862
 20
-8054.157059235646
 30
0.0
 10
29637.35913563318
 20
-8055.234393169323
 30
0.0
 10
29637.35913563318
 20
-8055.234393169323
 30
0.0
 10
29637.35913563318
 20
-8055.234393169323
 30
0.0
 10
29637.09466760581
 20
-8054.189046138437
 30
0.0
 10
29637.09466760581
 20
-8054.189046138437
 30
0.0
  0
POLYLINE
  5
229607
102
{ACAD_REACTORS
330
229E46
102
}
330
18
100
AcDbEntity
  8
姿図
370
     0
100
AcDb2dPolyline
 66
     1
 10
0.0
 20
0.0
 30
0.0
  0
VERTEX
  5
229608
330
229607
100
AcDbEntity
  8
姿図
370
     0
100
AcDbVertex
100
AcDb2dVertex
 10
29636.03629453088
 20
-8054.318991380167
 30
0.0
  0
VERTEX
  5
229609
330
229607
100
AcDbEntity
  8
姿図
370
     0
100
AcDbVertex
100
AcDb2dVertex
 10
29636.01354234857
 20
-8055.403628343322
 30
0.0
  0
SEQEND
  5
22960A
330
229607
100
AcDbEntity
  8
姿図
370
     0
  0
POLYLINE
  5
22960B
102
{ACAD_REACTORS
330
229E46
102
}
330
18
100
AcDbEntity
  8
姿図
370
     0
100
AcDb2dPolyline
 66
     1
 10
0.0
 20
0.0
 30
0.0
  0
VERTEX
  5
22960C
330
22960B
100
AcDbEntity
  8
姿図
370
     0
100
AcDbVertex
100
AcDb2dVertex
 10
29632.76219287623
 20
-8054.892287380504
 30
0.0
  0
VERTEX
  5
22960D
330
22960B
100
AcDbEntity
  8
姿図
370
     0
100
AcDbVertex
100
AcDb2dVertex
 10
29632.68466846789
 20
-8056.037516666527
 30
0.0
  0
SEQEND
  5
22960E
330
22960B
100
AcDbEntity
  8
姿図
370
     0
  0
SPLINE
  5
22960F
102
{ACAD_REACTORS
330
229E46
102
}
330
18
100
AcDbEntity
  8
姿図
370
     0
100
AcDbSpline
210
0.0
220
0.0
230
1.0
 70
     8
 71
     3
 72
    14
 73
    10
 74
     0
 42
0.000000001
 43
0.0000000001
 40
0.0
 40
0.0
 40
0.0
 40
0.0
 40
1.0
 40
1.0
 40
1.0
 40
2.0
 40
2.0
 40
2.0
 40
3.0
 40
3.0
 40
3.0
 40
3.0
 10
29633.88656815343
 20
-8043.567121610364
 30
0.0
 10
29633.88656815343
 20
-8043.567121610364
 30
0.0
 10
29634.86741682003
 20
-8046.982231602653
 30
0.0
 10
29634.86741682003
 20
-8046.982231602653
 30
0.0
 10
29634.86741682003
 20
-8046.982231602653
 30
0.0
 10
29634.07372050807
 20
-8048.295763096417
 30
0.0
 10
29634.13972271032
 20
-8055.753302249746
 30
0.0
 10
29634.13972271032
 20
-8055.753302249746
 30
0.0
 10
29633.88622568532
 20
-8054.663789077435
 30
0.0
 10
29633.88622568532
 20
-8054.663789077435
 30
0.0
  0
SPLINE
  5
229610
102
{ACAD_REACTORS
330
229E46
102
}
330
18
100
AcDbEntity
  8
姿図
370
     0
100
AcDbSpline
210
0.0
220
0.0
230
1.0
 70
     8
 71
     3
 72
    14
 73
    10
 74
     0
 42
0.000000001
 43
0.0000000001
 40
0.0
 40
0.0
 40
0.0
 40
0.0
 40
1.0
 40
1.0
 40
1.0
 40
2.0
 40
2.0
 40
2.0
 40
2.917211479992443
 40
2.917211479992443
 40
2.917211479992443
 40
2.917211479992443
 10
29630.81080708253
 20
-8044.38021688922
 30
0.0
 10
29630.81080708253
 20
-8044.38021688922
 30
0.0
 10
29632.49132632124
 20
-8048.457365347929
 30
0.0
 10
29632.49132632124
 20
-8048.457365347929
 30
0.0
 10
29632.49132632124
 20
-8048.457365347929
 30
0.0
 10
29631.29549118635
 20
-8050.044633594027
 30
0.0
 10
29631.36161862997
 20
-8056.432950282053
 30
0.0
 10
29631.36161862997
 20
-8056.432950282053
 30
0.0
 10
29630.8608298509
 20
-8055.547721401557
 30
0.0
 10
29630.81080708253
 20
-8055.391762651177
 30
0.0
  0
POLYLINE
  5
229611
102
{ACAD_REACTORS
330
229E46
102
}
330
18
100
AcDbEntity
  8
姿図
370
     0
100
AcDb2dPolyline
 66
     1
 10
0.0
 20
0.0
 30
0.0
  0
VERTEX
  5
229612
330
229611
100
AcDbEntity
  8
姿図
370
     0
100
AcDbVertex
100
AcDb2dVertex
 10
29629.50967448444
 20
-8055.79738721216
 30
0.0
  0
VERTEX
  5
229613
330
229611
100
AcDbEntity
  8
姿図
370
     0
100
AcDbVertex
100
AcDb2dVertex
 10
29629.35050425289
 20
-8057.239193544608
 30
0.0
  0
SEQEND
  5
229614
330
229611
100
AcDbEntity
  8
姿図
370
     0
  0
POLYLINE
  5
229615
102
{ACAD_REACTORS
330
229E46
102
}
330
18
100
AcDbEntity
  8
姿図
370
     0
100
AcDb2dPolyline
 66
     1
 10
0.0
 20
0.0
 30
0.0
  0
VERTEX
  5
229616
330
229615
100
AcDbEntity
  8
姿図
370
     0
100
AcDbVertex
100
AcDb2dVertex
 10
29627.40440879352
 20
-8045.84410274511
 30
0.0
  0
VERTEX
  5
229617
330
229615
100
AcDbEntity
  8
姿図
370
     0
100
AcDbVertex
100
AcDb2dVertex
 10
29628.36338196742
 20
-8045.779663963147
 30
0.0
  0
VERTEX
  5
229618
330
229615
100
AcDbEntity
  8
姿図
370
     0
100
AcDbVertex
100
AcDb2dVertex
 10
29628.36338196742
 20
-8056.585071938336
 30
0.0
  0
VERTEX
  5
229619
330
229615
100
AcDbEntity
  8
姿図
370
     0
100
AcDbVertex
100
AcDb2dVertex
 10
29628.59495326146
 20
-8057.667324367916
 30
0.0
  0
SEQEND
  5
22961A
330
229615
100
AcDbEntity
  8
姿図
370
     0
  0
POLYLINE
  5
22961B
102
{ACAD_REACTORS
330
229E46
102
}
330
18
100
AcDbEntity
  8
姿図
370
     0
100
AcDb2dPolyline
 66
     1
 10
0.0
 20
0.0
 30
0.0
  0
VERTEX
  5
22961C
330
22961B
100
AcDbEntity
  8
姿図
370
     0
100
AcDbVertex
100
AcDb2dVertex
 10
29628.36338196742
 20
-8045.779663963147
 30
0.0
  0
VERTEX
  5
22961D
330
22961B
100
AcDbEntity
  8
姿図
370
     0
100
AcDbVertex
100
AcDb2dVertex
 10
29629.47126713081
 20
-8048.760158098217
 30
0.0
  0
SEQEND
  5
22961E
330
22961B
100
AcDbEntity
  8
姿図
370
     0
  0
POLYLINE
  5
22961F
102
{ACAD_REACTORS
330
229E46
102
}
330
18
100
AcDbEntity
  8
姿図
370
     0
100
AcDb2dPolyline
 66
     1
 10
0.0
 20
0.0
 30
0.0
  0
VERTEX
  5
229620
330
22961F
100
AcDbEntity
  8
姿図
370
     0
100
AcDbVertex
100
AcDb2dVertex
 10
29627.37130332459
 20
-8056.880140607225
 30
0.0
  0
VERTEX
  5
229621
330
22961F
100
AcDbEntity
  8
姿図
370
     0
100
AcDbVertex
100
AcDb2dVertex
 10
29628.36338196742
 20
-8056.585071938336
 30
0.0
  0
SEQEND
  5
229622
330
22961F
100
AcDbEntity
  8
姿図
370
     0
  0
POLYLINE
  5
229623
102
{ACAD_REACTORS
330
229E46
102
}
330
18
100
AcDbEntity
  8
姿図
370
     0
100
AcDb2dPolyline
 66
     1
 10
0.0
 20
0.0
 30
0.0
  0
VERTEX
  5
229624
330
229623
100
AcDbEntity
  8
姿図
370
     0
100
AcDbVertex
100
AcDb2dVertex
 10
29624.09382015294
 20
-8064.677334357342
 30
0.0
  0
VERTEX
  5
229625
330
229623
100
AcDbEntity
  8
姿図
370
     0
100
AcDbVertex
100
AcDb2dVertex
 10
29623.61172437077
 20
-8042.122198473417
 30
0.0
  0
VERTEX
  5
229626
330
229623
100
AcDbEntity
  8
姿図
370
     0
100
AcDbVertex
100
AcDb2dVertex
 10
29623.85277226186
 20
-8039.941996695814
 30
0.0
  0
VERTEX
  5
229627
330
229623
100
AcDbEntity
  8
姿図
370
     0
100
AcDbVertex
100
AcDb2dVertex
 10
29624.09382015294
 20
-8041.438213602012
 30
0.0
  0
VERTEX
  5
229628
330
229623
100
AcDbEntity
  8
姿図
370
     0
100
AcDbVertex
100
AcDb2dVertex
 10
29625.45455406281
 20
-8057.881238420608
 30
0.0
  0
SEQEND
  5
229629
330
229623
100
AcDbEntity
  8
姿図
370
     0
  0
POLYLINE
  5
22962A
102
{ACAD_REACTORS
330
229E46
102
}
330
18
100
AcDbEntity
  8
姿図
370
     0
100
AcDb2dPolyline
 66
     1
 10
0.0
 20
0.0
 30
0.0
  0
VERTEX
  5
22962B
330
22962A
100
AcDbEntity
  8
姿図
370
     0
100
AcDbVertex
100
AcDb2dVertex
 10
29624.81809099853
 20
-8050.189078641333
 30
0.0
  0
VERTEX
  5
22962C
330
22962A
100
AcDbEntity
  8
姿図
370
     0
100
AcDbVertex
100
AcDb2dVertex
 10
29625.59525544958
 20
-8052.936957804273
 30
0.0
  0
SEQEND
  5
22962D
330
22962A
100
AcDbEntity
  8
姿図
370
     0
  0
POLYLINE
  5
22962E
102
{ACAD_REACTORS
330
229E46
102
}
330
18
100
AcDbEntity
  8
姿図
370
     0
100
AcDb2dPolyline
 66
     1
 10
0.0
 20
0.0
 30
0.0
  0
VERTEX
  5
22962F
330
22962E
100
AcDbEntity
  8
姿図
370
     0
100
AcDbVertex
100
AcDb2dVertex
 10
29624.81795304254
 20
-8050.188590872369
 30
0.0
  0
VERTEX
  5
229630
330
22962E
100
AcDbEntity
  8
姿図
370
     0
100
AcDbVertex
100
AcDb2dVertex
 10
29624.81809099853
 20
-8050.189078641333
 30
0.0
  0
SEQEND
  5
229631
330
22962E
100
AcDbEntity
  8
姿図
370
     0
  0
POLYLINE
  5
229632
102
{ACAD_REACTORS
330
229E46
102
}
330
18
100
AcDbEntity
  8
姿図
370
     0
100
AcDb2dPolyline
 66
     1
 10
0.0
 20
0.0
 30
0.0
  0
VERTEX
  5
229633
330
229632
100
AcDbEntity
  8
姿図
370
     0
100
AcDbVertex
100
AcDb2dVertex
 10
29623.71916098301
 20
-8047.148683826354
 30
0.0
  0
VERTEX
  5
229634
330
229632
100
AcDbEntity
  8
姿図
370
     0
100
AcDbVertex
100
AcDb2dVertex
 10
29620.57654150392
 20
-8035.981154859621
 30
0.0
  0
VERTEX
  5
229635
330
229632
100
AcDbEntity
  8
姿図
370
     0
100
AcDbVertex
100
AcDb2dVertex
 10
29621.30327542979
 20
-8037.761794918215
 30
0.0
  0
VERTEX
  5
229636
330
229632
100
AcDbEntity
  8
姿図
370
     0
100
AcDbVertex
100
AcDb2dVertex
 10
29623.69962159876
 20
-8046.234522194571
 30
0.0
  0
SEQEND
  5
229637
330
229632
100
AcDbEntity
  8
姿図
370
     0
  0
SPLINE
  5
229638
102
{ACAD_REACTORS
330
229E46
102
}
330
18
100
AcDbEntity
  8
姿図
370
     0
100
AcDbSpline
210
0.0
220
0.0
230
1.0
 70
     8
 71
     3
 72
    26
 73
    22
 74
     0
 42
0.000000001
 43
0.0000000001
 40
0.0
 40
0.0
 40
0.0
 40
0.0
 40
1.0
 40
1.0
 40
1.0
 40
2.0
 40
2.0
 40
2.0
 40
3.0
 40
3.0
 40
3.0
 40
4.0
 40
4.0
 40
4.0
 40
5.0
 40
5.0
 40
5.0
 40
6.0
 40
6.0
 40
6.0
 40
6.83135978130779
 40
6.83135978130779
 40
6.83135978130779
 40
6.83135978130779
 10
29661.90444038854
 20
-8064.520532161479
 30
0.0
 10
29661.90444038854
 20
-8064.520532161479
 30
0.0
 10
29661.70113189711
 20
-8060.981378019749
 30
0.0
 10
29661.70113189711
 20
-8060.981378019749
 30
0.0
 10
29661.70113189711
 20
-8060.981378019749
 30
0.0
 10
29661.71699580402
 20
-8060.493354146047
 30
0.0
 10
29661.35913946139
 20
-8059.067105418833
 30
0.0
 10
29661.35913946139
 20
-8059.067105418833
 30
0.0
 10
29661.63183167209
 20
-8057.260957867782
 30
0.0
 10
29661.63183167209
 20
-8057.260957867782
 30
0.0
 10
29661.63183167209
 20
-8057.260957867782
 30
0.0
 10
29661.35913946139
 20
-8051.868982890925
 30
0.0
 10
29661.35913946139
 20
-8051.868982890925
 30
0.0
 10
29661.35913946139
 20
-8051.868982890925
 30
0.0
 10
29665.65141171104
 20
-8035.981154859621
 30
0.0
 10
29665.65141171104
 20
-8035.981154859621
 30
0.0
 10
29665.65141171104
 20
-8035.981154859621
 30
0.0
 10
29665.12105625413
 20
-8037.588836585559
 30
0.0
 10
29665.12105625413
 20
-8037.588836585559
 30
0.0
 10
29665.12105625413
 20
-8037.588836585559
 30
0.0
 10
29661.74219652616
 20
-8048.654963537569
 30
0.0
 10
29660.60257323925
 20
-8052.387351676092
 30
0.0
  0
SPLINE
  5
229639
102
{ACAD_REACTORS
330
229E46
102
}
330
18
100
AcDbEntity
  8
姿図
370
     0
100
AcDbSpline
210
0.0
220
0.0
230
1.0
 70
     8
 71
     3
 72
     8
 73
     4
 74
     0
 42
0.000000001
 43
0.0000000001
 40
0.0059370180528823
 40
0.0059370180528823
 40
0.0059370180528823
 40
0.0059370180528823
 40
1.0
 40
1.0
 40
1.0
 40
1.0
 10
29643.11397660748
 20
-8034.923156923827
 30
0.0
 10
29633.64878099886
 20
-8034.951030113099
 30
0.0
 10
29626.00404328287
 20
-8037.307051827172
 30
0.0
 10
29626.00404328287
 20
-8040.209261780457
 30
0.0
  0
SPLINE
  5
22963A
102
{ACAD_REACTORS
330
229E46
102
}
330
18
100
AcDbEntity
  8
姿図
370
     0
100
AcDbSpline
210
0.0
220
0.0
230
1.0
 70
     8
 71
     3
 72
    11
 73
     7
 74
     0
 42
0.000000001
 43
0.0000000001
 40
0.0056257711531804
 40
0.0056257711531804
 40
0.0056257711531804
 40
0.0056257711531804
 40
1.0
 40
1.0
 40
1.0
 40
2.0
 40
2.0
 40
2.0
 40
2.0
 10
29643.11397660748
 20
-8025.407632341163
 30
0.0
 10
29634.27617025056
 20
-8025.444625249043
 30
0.0
 10
29627.13668449052
 20
-8028.743865749368
 30
0.0
 10
29627.13668449052
 20
-8032.808289979466
 30
0.0
 10
29627.13668449052
 20
-8032.808289979466
 30
0.0
 10
29626.88945802515
 20
-8038.534701162671
 30
0.0
 10
29626.88945802515
 20
-8038.534701162671
 30
0.0
  0
SPLINE
  5
22963B
102
{ACAD_REACTORS
330
229E46
102
}
330
18
100
AcDbEntity
  8
姿図
370
     0
100
AcDbSpline
210
0.0
220
0.0
230
1.0
 70
     8
 71
     3
 72
    17
 73
    13
 74
     0
 42
0.000000001
 43
0.0000000001
 40
0.0
 40
0.0
 40
0.0
 40
0.0
 40
1.0
 40
1.0
 40
1.0
 40
2.0
 40
2.0
 40
2.0
 40
3.0
 40
3.0
 40
3.0
 40
4.0
 40
4.0
 40
4.0
 40
4.0
 10
29636.03629453088
 20
-8026.190744698057
 30
0.0
 10
29636.03629453088
 20
-8026.190744698057
 30
0.0
 10
29635.79520489267
 20
-8025.749310614176
 30
0.0
 10
29635.79520489267
 20
-8025.749310614176
 30
0.0
 10
29635.79520489267
 20
-8025.749310614176
 30
0.0
 10
29635.76669160731
 20
-8025.435831463825
 30
0.0
 10
29636.19418215195
 20
-8025.307584300439
 30
0.0
 10
29636.62167269658
 20
-8025.17933713705
 30
0.0
 10
29636.82118219977
 20
-8025.407318178475
 30
0.0
 10
29636.82118219977
 20
-8025.407318178475
 30
0.0
 10
29636.82118219977
 20
-8025.407318178475
 30
0.0
 10
29637.4087312159
 20
-8025.910287522389
 30
0.0
 10
29637.4087312159
 20
-8025.910287522389
 30
0.0
  0
SPLINE
  5
22963C
102
{ACAD_REACTORS
330
229E46
102
}
330
18
100
AcDbEntity
  8
姿図
370
     0
100
AcDbSpline
210
0.0
220
0.0
230
1.0
 70
     8
 71
     3
 72
    17
 73
    13
 74
     0
 42
0.000000001
 43
0.0000000001
 40
0.0765831726165642
 40
0.0765831726165642
 40
0.0765831726165642
 40
0.0765831726165642
 40
1.0
 40
1.0
 40
1.0
 40
2.0
 40
2.0
 40
2.0
 40
3.0
 40
3.0
 40
3.0
 40
4.0
 40
4.0
 40
4.0
 40
4.0
 10
29635.7954474397
 20
-8025.749754716742
 30
0.0
 10
29635.80028369361
 20
-8024.464641552235
 30
0.0
 10
29635.8318588671
 20
-8016.074331249087
 30
0.0
 10
29635.8318588671
 20
-8016.074331249087
 30
0.0
 10
29635.8318588671
 20
-8016.074331249087
 30
0.0
 10
29636.05829526496
 20
-8015.624297257769
 30
0.0
 10
29636.48186157998
 20
-8015.908762157289
 30
0.0
 10
29636.48186157998
 20
-8015.908762157289
 30
0.0
 10
29640.56047205156
 20
-8021.168523994025
 30
0.0
 10
29640.56047205156
 20
-8021.168523994025
 30
0.0
 10
29640.56047205156
 20
-8021.168523994025
 30
0.0
 10
29640.59019600349
 20
-8022.008768348687
 30
0.0
 10
29640.59019600349
 20
-8022.008768348687
 30
0.0
  0
POLYLINE
  5
22963D
102
{ACAD_REACTORS
330
229E46
102
}
330
18
100
AcDbEntity
  8
姿図
370
     0
100
AcDb2dPolyline
 66
     1
 10
0.0
 20
0.0
 30
0.0
  0
VERTEX
  5
22963E
330
22963D
100
AcDbEntity
  8
姿図
370
     0
100
AcDbVertex
100
AcDb2dVertex
 10
29636.75223637355
 20
-8025.352077671518
 30
0.0
  0
VERTEX
  5
22963F
330
22963D
100
AcDbEntity
  8
姿図
370
     0
100
AcDbVertex
100
AcDb2dVertex
 10
29636.68575453114
 20
-8016.171727288211
 30
0.0
  0
SEQEND
  5
229640
330
22963D
100
AcDbEntity
  8
姿図
370
     0
  0
SPLINE
  5
229641
102
{ACAD_REACTORS
330
229E46
102
}
330
18
100
AcDbEntity
  8
姿図
370
     0
100
AcDbSpline
210
0.0
220
0.0
230
1.0
 70
     8
 71
     3
 72
    11
 73
     7
 74
     0
 42
0.000000001
 43
0.0000000001
 40
0.0
 40
0.0
 40
0.0
 40
0.0
 40
1.0
 40
1.0
 40
1.0
 40
2.0
 40
2.0
 40
2.0
 40
2.0
 10
29642.77720256221
 20
-8025.410657948354
 30
0.0
 10
29642.77720256221
 20
-8025.410657948354
 30
0.0
 10
29642.84879887902
 20
-8015.347054610616
 30
0.0
 10
29642.84879887902
 20
-8015.347054610616
 30
0.0
 10
29642.84879887902
 20
-8015.347054610616
 30
0.0
 10
29642.9455687113
 20
-8015.08972534137
 30
0.0
 10
29643.11397660748
 20
-8015.08972534137
 30
0.0
  0
SPLINE
  5
229642
102
{ACAD_REACTORS
330
229E46
102
}
330
18
100
AcDbEntity
  8
姿図
370
     0
100
AcDbSpline
210
0.0
220
0.0
230
1.0
 70
     8
 71
     3
 72
    14
 73
    10
 74
     0
 42
0.000000001
 43
0.0000000001
 40
0.0
 40
0.0
 40
0.0
 40
0.0
 40
1.0
 40
1.0
 40
1.0
 40
2.0
 40
2.0
 40
2.0
 40
3.0
 40
3.0
 40
3.0
 40
3.0
 10
29642.80400421551
 20
-8021.645401385753
 30
0.0
 10
29642.80400421551
 20
-8021.645401385753
 30
0.0
 10
29642.70631594652
 20
-8021.973158052342
 30
0.0
 10
29642.4213083344
 20
-8021.973158052342
 30
0.0
 10
29642.13630072227
 20
-8021.973158052342
 30
0.0
 10
29640.3265629186
 20
-8022.015948853927
 30
0.0
 10
29639.91334989021
 20
-8022.087169446617
 30
0.0
 10
29639.91334989021
 20
-8022.087169446617
 30
0.0
 10
29639.67109133254
 20
-8022.129918501078
 30
0.0
 10
29639.65685556343
 20
-8021.866285416187
 30
0.0
  0
POLYLINE
  5
229643
102
{ACAD_REACTORS
330
229E46
102
}
330
18
100
AcDbEntity
  8
姿図
370
     0
100
AcDb2dPolyline
 66
     1
 10
0.0
 20
0.0
 30
0.0
  0
VERTEX
  5
229644
330
229643
100
AcDbEntity
  8
姿図
370
     0
100
AcDbVertex
100
AcDb2dVertex
 10
29639.7708669577
 20
-8022.089716021152
 30
0.0
  0
VERTEX
  5
229645
330
229643
100
AcDbEntity
  8
姿図
370
     0
100
AcDbVertex
100
AcDb2dVertex
 10
29639.85999706638
 20
-8025.572553293287
 30
0.0
  0
SEQEND
  5
229646
330
229643
100
AcDbEntity
  8
姿図
370
     0
  0
SPLINE
  5
229647
102
{ACAD_REACTORS
330
229E46
102
}
330
18
100
AcDbEntity
  8
姿図
370
     0
100
AcDbSpline
210
0.0
220
0.0
230
1.0
 70
     8
 71
     3
 72
    17
 73
    13
 74
     0
 42
0.000000001
 43
0.0000000001
 40
0.0
 40
0.0
 40
0.0
 40
0.0
 40
1.0
 40
1.0
 40
1.0
 40
2.0
 40
2.0
 40
2.0
 40
3.0
 40
3.0
 40
3.0
 40
3.990417605945557
 40
3.990417605945557
 40
3.990417605945557
 40
3.990417605945557
 10
29635.79370199622
 20
-8020.432939677978
 30
0.0
 10
29635.79370199622
 20
-8020.432939677978
 30
0.0
 10
29631.20489992836
 20
-8017.823911447796
 30
0.0
 10
29631.20489992836
 20
-8017.823911447796
 30
0.0
 10
29631.20489992836
 20
-8017.823911447796
 30
0.0
 10
29630.45270025716
 20
-8017.476700621659
 30
0.0
 10
29630.3414024259
 20
-8018.021959801676
 30
0.0
 10
29630.3414024259
 20
-8018.021959801676
 30
0.0
 10
29630.25018496106
 20
-8027.434182771465
 30
0.0
 10
29630.25018496106
 20
-8027.434182771465
 30
0.0
 10
29630.25018496106
 20
-8027.434182771465
 30
0.0
 10
29630.17917613162
 20
-8027.709004140828
 30
0.0
 10
29630.74311928072
 20
-8028.143339136403
 30
0.0
  0
SPLINE
  5
229648
102
{ACAD_REACTORS
330
229E46
102
}
330
18
100
AcDbEntity
  8
姿図
370
     0
100
AcDbSpline
210
0.0
220
0.0
230
1.0
 70
     8
 71
     3
 72
    14
 73
    10
 74
     0
 42
0.000000001
 43
0.0000000001
 40
0.0
 40
0.0
 40
0.0
 40
0.0
 40
1.0
 40
1.0
 40
1.0
 40
2.0
 40
2.0
 40
2.0
 40
3.0
 40
3.0
 40
3.0
 40
3.0
 10
29630.24734615666
 20
-8027.550156280546
 30
0.0
 10
29630.24734615666
 20
-8027.550156280546
 30
0.0
 10
29630.23782781251
 20
-8027.174265180563
 30
0.0
 10
29630.53707119375
 20
-8027.074531302524
 30
0.0
 10
29630.83631457498
 20
-8026.974797424484
 30
0.0
 10
29630.93609020014
 20
-8027.003310709833
 30
0.0
 10
29631.33506745941
 20
-8027.174306927684
 30
0.0
 10
29631.33506745941
 20
-8027.174306927684
 30
0.0
 10
29631.91501849908
 20
-8027.550156280546
 30
0.0
 10
29631.91501849908
 20
-8027.550156280546
 30
0.0
  0
POLYLINE
  5
229649
102
{ACAD_REACTORS
330
229E46
102
}
330
18
100
AcDbEntity
  8
姿図
370
     0
100
AcDb2dPolyline
 66
     1
 10
0.0
 20
0.0
 30
0.0
  0
VERTEX
  5
22964A
330
229649
100
AcDbEntity
  8
姿図
370
     0
100
AcDbVertex
100
AcDb2dVertex
 10
29631.08237212089
 20
-8027.063050843562
 30
0.0
  0
VERTEX
  5
22964B
330
229649
100
AcDbEntity
  8
姿図
370
     0
100
AcDbVertex
100
AcDb2dVertex
 10
29631.11380770489
 20
-8017.787883680217
 30
0.0
  0
SEQEND
  5
22964C
330
229649
100
AcDbEntity
  8
姿図
370
     0
  0
SPLINE
  5
22964D
102
{ACAD_REACTORS
330
229E46
102
}
330
18
100
AcDbEntity
  8
姿図
370
     0
100
AcDbSpline
210
0.0
220
0.0
230
1.0
 70
     8
 71
     3
 72
    20
 73
    16
 74
     0
 42
0.000000001
 43
0.0000000001
 40
0.0
 40
0.0
 40
0.0
 40
0.0
 40
1.0
 40
1.0
 40
1.0
 40
2.0
 40
2.0
 40
2.0
 40
3.0
 40
3.0
 40
3.0
 40
4.0
 40
4.0
 40
4.0
 40
5.0
 40
5.0
 40
5.0
 40
5.0
 10
29627.98348314358
 20
-8030.435383479793
 30
0.0
 10
29627.98348314358
 20
-8030.435383479793
 30
0.0
 10
29627.10291106761
 20
-8030.209489794541
 30
0.0
 10
29627.10291106761
 20
-8030.209489794541
 30
0.0
 10
29627.10291106761
 20
-8030.209489794541
 30
0.0
 10
29626.8564777976
 20
-8030.113012192136
 30
0.0
 10
29626.89317351916
 20
-8029.910830873034
 30
0.0
 10
29626.89880938082
 20
-8029.879854507393
 30
0.0
 10
29626.91108303513
 20
-8029.846415061473
 30
0.0
 10
29626.93191484976
 20
-8029.810470788141
 30
0.0
 10
29627.08863355138
 20
-8029.539740692251
 30
0.0
 10
29627.41639021796
 20
-8029.59676726295
 30
0.0
 10
29627.80113170813
 20
-8029.69650114099
 30
0.0
 10
29628.1858731983
 20
-8029.796235019026
 30
0.0
 10
29628.45773046652
 20
-8029.870169174746
 30
0.0
 10
29628.45773046652
 20
-8029.870169174746
 30
0.0
  0
SPLINE
  5
22964E
102
{ACAD_REACTORS
330
229E46
102
}
330
18
100
AcDbEntity
  8
姿図
370
     0
100
AcDbSpline
210
0.0
220
0.0
230
1.0
 70
     8
 71
     3
 72
    14
 73
    10
 74
     0
 42
0.000000001
 43
0.0000000001
 40
0.0432604550404731
 40
0.0432604550404731
 40
0.0432604550404731
 40
0.0432604550404731
 40
1.0
 40
1.0
 40
1.0
 40
2.0
 40
2.0
 40
2.0
 40
3.0
 40
3.0
 40
3.0
 40
3.0
 10
29626.89069198219
 20
-8029.974236197757
 30
0.0
 10
29626.90861513853
 20
-8029.231303017894
 30
0.0
 10
29627.11576918165
 20
-8020.644555846995
 30
0.0
 10
29627.11576918165
 20
-8020.644555846995
 30
0.0
 10
29627.11576918165
 20
-8020.644555846995
 30
0.0
 10
29627.11844099756
 20
-8020.343475592321
 30
0.0
 10
29628.35649369203
 20
-8020.647227662897
 30
0.0
 10
29628.35649369203
 20
-8020.647227662897
 30
0.0
 10
29630.31021732465
 20
-8021.239160126986
 30
0.0
 10
29630.31021732465
 20
-8021.239160126986
 30
0.0
  0
POLYLINE
  5
22964F
102
{ACAD_REACTORS
330
229E46
102
}
330
18
100
AcDbEntity
  8
姿図
370
     0
100
AcDb2dPolyline
 66
     1
 10
0.0
 20
0.0
 30
0.0
  0
VERTEX
  5
229650
330
22964F
100
AcDbEntity
  8
姿図
370
     0
100
AcDbVertex
100
AcDb2dVertex
 10
29627.69592895691
 20
-8020.524031901454
 30
0.0
  0
VERTEX
  5
229651
330
22964F
100
AcDbEntity
  8
姿図
370
     0
100
AcDbVertex
100
AcDb2dVertex
 10
29627.54769186085
 20
-8029.638226441477
 30
0.0
  0
SEQEND
  5
229652
330
22964F
100
AcDbEntity
  8
姿図
370
     0
  0
SPLINE
  5
229653
102
{ACAD_REACTORS
330
229E46
102
}
330
18
100
AcDbEntity
  8
姿図
370
     0
100
AcDbSpline
210
0.0
220
0.0
230
1.0
 70
     8
 71
     3
 72
    20
 73
    16
 74
     0
 42
0.000000001
 43
0.0000000001
 40
0.0
 40
0.0
 40
0.0
 40
0.0
 40
1.0
 40
1.0
 40
1.0
 40
2.0
 40
2.0
 40
2.0
 40
3.0
 40
3.0
 40
3.0
 40
4.0
 40
4.0
 40
4.0
 40
5.0
 40
5.0
 40
5.0
 40
5.0
 10
29627.12883603131
 20
-8032.961710658323
 30
0.0
 10
29627.12883603131
 20
-8032.961710658323
 30
0.0
 10
29626.39041291086
 20
-8032.961710658323
 30
0.0
 10
29626.39041291086
 20
-8032.961710658323
 30
0.0
 10
29626.39041291086
 20
-8032.961710658323
 30
0.0
 10
29626.24788823125
 20
-8032.916957741932
 30
0.0
 10
29626.23365246211
 20
-8032.731684007844
 30
0.0
 10
29626.23173209445
 20
-8032.706886216487
 30
0.0
 10
29626.23440391035
 20
-8032.683883551437
 30
0.0
 10
29626.24070772599
 20
-8032.662634265578
 30
0.0
 10
29626.28166165416
 20
-8032.525077493648
 30
0.0
 10
29626.47503433019
 20
-8032.46091216483
 30
0.0
 10
29626.56140912872
 20
-8032.46091216483
 30
0.0
 10
29626.66114300675
 20
-8032.46091216483
 30
0.0
 10
29627.15413562477
 20
-8032.46091216483
 30
0.0
 10
29627.15413562477
 20
-8032.46091216483
 30
0.0
  0
SPLINE
  5
229654
102
{ACAD_REACTORS
330
229E46
102
}
330
18
100
AcDbEntity
  8
姿図
370
     0
100
AcDbSpline
210
0.0
220
0.0
230
1.0
 70
     8
 71
     3
 72
    11
 73
     7
 74
     0
 42
0.000000001
 43
0.0000000001
 40
0.0
 40
0.0
 40
0.0
 40
0.0
 40
1.0
 40
1.0
 40
1.0
 40
1.954558767960183
 40
1.954558767960183
 40
1.954558767960183
 40
1.954558767960183
 10
29626.23878735831
 20
-8032.669773023697
 30
0.0
 10
29626.23878735831
 20
-8032.669773023697
 30
0.0
 10
29626.54554522178
 20
-8023.770162983348
 30
0.0
 10
29626.54554522178
 20
-8023.770162983348
 30
0.0
 10
29626.54554522178
 20
-8023.770162983348
 30
0.0
 10
29626.52538442143
 20
-8023.549839671008
 30
0.0
 10
29627.04515530217
 20
-8023.571573445564
 30
0.0
  0
POLYLINE
  5
229655
102
{ACAD_REACTORS
330
229E46
102
}
330
18
100
AcDbEntity
  8
姿図
370
     0
100
AcDb2dPolyline
 66
     1
 10
0.0
 20
0.0
 30
0.0
  0
VERTEX
  5
229656
330
229655
100
AcDbEntity
  8
姿図
370
     0
100
AcDbVertex
100
AcDb2dVertex
 10
29656.71723505244
 20
-8044.814679081208
 30
0.0
  0
VERTEX
  5
229657
330
229655
100
AcDbEntity
  8
姿図
370
     0
100
AcDbVertex
100
AcDb2dVertex
 10
29656.71723505244
 20
-8055.819518229886
 30
0.0
  0
SEQEND
  5
229658
330
229655
100
AcDbEntity
  8
姿図
370
     0
  0
POLYLINE
  5
229659
102
{ACAD_REACTORS
330
229E46
102
}
330
18
100
AcDbEntity
  8
姿図
370
     0
100
AcDb2dPolyline
 66
     1
 10
0.0
 20
0.0
 30
0.0
  0
VERTEX
  5
22965A
330
229659
100
AcDbEntity
  8
姿図
370
     0
100
AcDbVertex
100
AcDb2dVertex
 10
29655.41714613245
 20
-8044.353485784048
 30
0.0
  0
VERTEX
  5
22965B
330
229659
100
AcDbEntity
  8
姿図
370
     0
100
AcDbVertex
100
AcDb2dVertex
 10
29655.41714613245
 20
-8055.391762651177
 30
0.0
  0
SEQEND
  5
22965C
330
229659
100
AcDbEntity
  8
姿図
370
     0
  0
POLYLINE
  5
22965D
102
{ACAD_REACTORS
330
229E46
102
}
330
18
100
AcDbEntity
  8
姿図
370
     0
100
AcDb2dPolyline
 66
     1
 10
0.0
 20
0.0
 30
0.0
  0
VERTEX
  5
22965E
330
22965D
100
AcDbEntity
  8
姿図
370
     0
100
AcDbVertex
100
AcDb2dVertex
 10
29653.46576033873
 20
-8043.814100918431
 30
0.0
  0
VERTEX
  5
22965F
330
22965D
100
AcDbEntity
  8
姿図
370
     0
100
AcDbVertex
100
AcDb2dVertex
 10
29653.46576033873
 20
-8054.892287380504
 30
0.0
  0
SEQEND
  5
229660
330
22965D
100
AcDbEntity
  8
姿図
370
     0
  0
POLYLINE
  5
229661
102
{ACAD_REACTORS
330
229E46
102
}
330
18
100
AcDbEntity
  8
姿図
370
     0
100
AcDb2dPolyline
 66
     1
 10
0.0
 20
0.0
 30
0.0
  0
VERTEX
  5
229662
330
229661
100
AcDbEntity
  8
姿図
370
     0
100
AcDbVertex
100
AcDb2dVertex
 10
29652.34138506154
 20
-8043.567121610364
 30
0.0
  0
VERTEX
  5
229663
330
229661
100
AcDbEntity
  8
姿図
370
     0
100
AcDbVertex
100
AcDb2dVertex
 10
29652.34138506154
 20
-8054.665260982327
 30
0.0
  0
SEQEND
  5
229664
330
229661
100
AcDbEntity
  8
姿図
370
     0
  0
POLYLINE
  5
229665
102
{ACAD_REACTORS
330
229E46
102
}
330
18
100
AcDbEntity
  8
姿図
370
     0
100
AcDb2dPolyline
 66
     1
 10
0.0
 20
0.0
 30
0.0
  0
VERTEX
  5
229666
330
229665
100
AcDbEntity
  8
姿図
370
     0
100
AcDbVertex
100
AcDb2dVertex
 10
29650.1916586841
 20
-8043.195298015073
 30
0.0
  0
VERTEX
  5
229667
330
229665
100
AcDbEntity
  8
姿図
370
     0
100
AcDbVertex
100
AcDb2dVertex
 10
29650.1916586841
 20
-8054.318991380167
 30
0.0
  0
SEQEND
  5
229668
330
229665
100
AcDbEntity
  8
姿図
370
     0
  0
POLYLINE
  5
229669
102
{ACAD_REACTORS
330
229E46
102
}
330
18
100
AcDbEntity
  8
姿図
370
     0
100
AcDb2dPolyline
 66
     1
 10
0.0
 20
0.0
 30
0.0
  0
VERTEX
  5
22966A
330
229669
100
AcDbEntity
  8
姿図
370
     0
100
AcDbVertex
100
AcDb2dVertex
 10
29649.13328560916
 20
-8043.055898367462
 30
0.0
  0
VERTEX
  5
22966B
330
229669
100
AcDbEntity
  8
姿図
370
     0
100
AcDbVertex
100
AcDb2dVertex
 10
29649.13328560916
 20
-8054.189046138437
 30
0.0
  0
SEQEND
  5
22966C
330
229669
100
AcDbEntity
  8
姿図
370
     0
  0
POLYLINE
  5
22966D
102
{ACAD_REACTORS
330
229E46
102
}
330
18
100
AcDbEntity
  8
姿図
370
     0
100
AcDb2dPolyline
 66
     1
 10
0.0
 20
0.0
 30
0.0
  0
VERTEX
  5
22966E
330
22966D
100
AcDbEntity
  8
姿図
370
     0
100
AcDbVertex
100
AcDb2dVertex
 10
29646.98368447308
 20
-8042.848776524706
 30
0.0
  0
VERTEX
  5
22966F
330
22966D
100
AcDbEntity
  8
姿図
370
     0
100
AcDbVertex
100
AcDb2dVertex
 10
29646.98368447308
 20
-8053.996277065786
 30
0.0
  0
SEQEND
  5
229670
330
22966D
100
AcDbEntity
  8
姿図
370
     0
  0
POLYLINE
  5
229671
102
{ACAD_REACTORS
330
229E46
102
}
330
18
100
AcDbEntity
  8
姿図
370
     0
100
AcDb2dPolyline
 66
     1
 10
0.0
 20
0.0
 30
0.0
  0
VERTEX
  5
229672
330
229671
100
AcDbEntity
  8
姿図
370
     0
100
AcDbVertex
100
AcDb2dVertex
 10
29645.82603673847
 20
-8042.775458327736
 30
0.0
  0
VERTEX
  5
229673
330
229671
100
AcDbEntity
  8
姿図
370
     0
100
AcDbVertex
100
AcDb2dVertex
 10
29645.82603673847
 20
-8053.928214295242
 30
0.0
  0
SEQEND
  5
229674
330
229671
100
AcDbEntity
  8
姿図
370
     0
  0
POLYLINE
  5
229675
102
{ACAD_REACTORS
330
229E46
102
}
330
18
100
AcDbEntity
  8
姿図
370
     0
100
AcDb2dPolyline
 66
     1
 10
0.0
 20
0.0
 30
0.0
  0
VERTEX
  5
229676
330
229675
100
AcDbEntity
  8
姿図
370
     0
100
AcDbVertex
100
AcDb2dVertex
 10
29643.64320489209
 20
-8042.709993069557
 30
0.0
  0
VERTEX
  5
229677
330
229675
100
AcDbEntity
  8
姿図
370
     0
100
AcDbVertex
100
AcDb2dVertex
 10
29643.64320489209
 20
-8053.872009876397
 30
0.0
  0
SEQEND
  5
229678
330
229675
100
AcDbEntity
  8
姿図
370
     0
  0
POLYLINE
  5
229679
102
{ACAD_REACTORS
330
229E46
102
}
330
18
100
AcDbEntity
  8
姿図
370
     0
100
AcDb2dPolyline
 66
     1
 10
0.0
 20
0.0
 30
0.0
  0
VERTEX
  5
22967A
330
229679
100
AcDbEntity
  8
姿図
370
     0
100
AcDbVertex
100
AcDb2dVertex
 10
29658.82354442146
 20
-8045.84410274511
 30
0.0
  0
VERTEX
  5
22967B
330
229679
100
AcDbEntity
  8
姿図
370
     0
100
AcDbVertex
100
AcDb2dVertex
 10
29658.82354442146
 20
-8056.870294223858
 30
0.0
  0
SEQEND
  5
22967C
330
229679
100
AcDbEntity
  8
姿図
370
     0
  0
SPLINE
  5
22967D
102
{ACAD_REACTORS
330
229E46
102
}
330
18
100
AcDbEntity
  8
姿図
370
     0
100
AcDbSpline
210
0.0
220
0.0
230
1.0
 70
     8
 71
     3
 72
     8
 73
     4
 74
     0
 42
0.000000001
 43
0.0000000001
 40
0.0793131742997577
 40
0.0793131742997577
 40
0.0793131742997577
 40
0.0793131742997577
 40
0.9305921271371336
 40
0.9305921271371336
 40
0.9305921271371336
 40
0.9305921271371336
 10
29645.82603673847
 20
-8042.775458327736
 30
0.0
 10
29645.12580372433
 20
-8042.739728512975
 30
0.0
 10
29644.41241957709
 20
-8042.718040950605
 30
0.0
 10
29643.64320489209
 20
-8042.709993069557
 30
0.0
  0
SPLINE
  5
22967E
102
{ACAD_REACTORS
330
229E46
102
}
330
18
100
AcDbEntity
  8
姿図
370
     0
100
AcDbSpline
210
0.0
220
0.0
230
1.0
 70
     8
 71
     3
 72
     8
 73
     4
 74
     0
 42
0.000000001
 43
0.0000000001
 40
0.0590858744410444
 40
0.0590858744410444
 40
0.0590858744410444
 40
0.0590858744410444
 40
1.0
 40
1.0
 40
1.0
 40
1.0
 10
29649.13328560916
 20
-8043.055898367462
 30
0.0
 10
29648.43536117133
 20
-8042.971639099405
 30
0.0
 10
29647.71819222765
 20
-8042.902063686864
 30
0.0
 10
29646.98368447308
 20
-8042.848776524706
 30
0.0
  0
SPLINE
  5
22967F
102
{ACAD_REACTORS
330
229E46
102
}
330
18
100
AcDbEntity
  8
姿図
370
     0
100
AcDbSpline
210
0.0
220
0.0
230
1.0
 70
     8
 71
     3
 72
     8
 73
     4
 74
     0
 42
0.000000001
 43
0.0000000001
 40
0.0701618649921582
 40
0.0701618649921582
 40
0.0701618649921582
 40
0.0701618649921582
 40
0.9484264303009856
 40
0.9484264303009856
 40
0.9484264303009856
 40
0.9484264303009856
 10
29652.34138506154
 20
-8043.567121610364
 30
0.0
 10
29651.65353076131
 20
-8043.427504209661
 30
0.0
 10
29650.93565435257
 20
-8043.303515875379
 30
0.0
 10
29650.1916586841
 20
-8043.195298015073
 30
0.0
  0
SPLINE
  5
229680
102
{ACAD_REACTORS
330
229E46
102
}
330
18
100
AcDbEntity
  8
姿図
370
     0
100
AcDbSpline
210
0.0
220
0.0
230
1.0
 70
     8
 71
     3
 72
     8
 73
     4
 74
     0
 42
0.000000001
 43
0.0000000001
 40
0.0613302416597337
 40
0.0613302416597337
 40
0.0613302416597337
 40
0.0613302416597337
 40
0.9379625081857872
 40
0.9379625081857872
 40
0.9379625081857872
 40
0.9379625081857872
 10
29655.41714613245
 20
-8044.353485784048
 30
0.0
 10
29654.80620790107
 20
-8044.159449001256
 30
0.0
 10
29654.15418039394
 20
-8043.979072814278
 30
0.0
 10
29653.46576033873
 20
-8043.814100918438
 30
0.0
  0
SPLINE
  5
229681
102
{ACAD_REACTORS
330
229E46
102
}
330
18
100
AcDbEntity
  8
姿図
370
     0
100
AcDbSpline
210
0.0
220
0.0
230
1.0
 70
     8
 71
     3
 72
     8
 73
     4
 74
     0
 42
0.000000001
 43
0.0000000001
 40
0.1273683454642412
 40
0.1273683454642412
 40
0.1273683454642412
 40
0.1273683454642412
 40
0.9525802158650641
 40
0.9525802158650641
 40
0.9525802158650641
 40
0.9525802158650641
 10
29658.82354442146
 20
-8045.84410274511
 30
0.0
 10
29658.22799808086
 20
-8045.475589227613
 30
0.0
 10
29657.52078855725
 20
-8045.130242791964
 30
0.0
 10
29656.71723505244
 20
-8044.814679081208
 30
0.0
  0
SPLINE
  5
229682
102
{ACAD_REACTORS
330
229E46
102
}
330
18
100
AcDbEntity
  8
姿図
370
     0
100
AcDbSpline
210
0.0
220
0.0
230
1.0
 70
     8
 71
     3
 72
     8
 73
     4
 74
     0
 42
0.000000001
 43
0.0000000001
 40
0.0935374024945616
 40
0.0935374024945616
 40
0.0935374024945616
 40
0.0935374024945616
 40
0.8378340737912904
 40
0.8378340737912904
 40
0.8378340737912904
 40
0.8378340737912904
 10
29643.64320489209
 20
-8053.86504372657
 30
0.0
 10
29643.46756581487
 20
-8053.863100092824
 30
0.0
 10
29643.29090966234
 20
-8053.862289837873
 30
0.0
 10
29643.11397660748
 20
-8053.862062135295
 30
0.0
  0
SPLINE
  5
229683
102
{ACAD_REACTORS
330
229E46
102
}
330
18
100
AcDbEntity
  8
姿図
370
     0
100
AcDbSpline
210
0.0
220
0.0
230
1.0
 70
     8
 71
     3
 72
     8
 73
     4
 74
     0
 42
0.000000001
 43
0.0000000001
 40
0.0864374610391737
 40
0.0864374610391737
 40
0.0864374610391737
 40
0.0864374610391737
 40
0.9399452594022523
 40
0.9399452594022523
 40
0.9399452594022523
 40
0.9399452594022523
 10
29646.98368447308
 20
-8053.996277065786
 30
0.0
 10
29646.60259712744
 20
-8053.969818417458
 30
0.0
 10
29646.21687028927
 20
-8053.947130827279
 30
0.0
 10
29645.82603673847
 20
-8053.928214295242
 30
0.0
  0
SPLINE
  5
229684
102
{ACAD_REACTORS
330
229E46
102
}
330
18
100
AcDbEntity
  8
姿図
370
     0
100
AcDbSpline
210
0.0
220
0.0
230
1.0
 70
     8
 71
     3
 72
     8
 73
     4
 74
     0
 42
0.000000001
 43
0.0000000001
 40
0.1303403369536436
 40
0.1303403369536436
 40
0.1303403369536436
 40
0.1303403369536436
 40
0.948885511071856
 40
0.948885511071856
 40
0.948885511071856
 40
0.948885511071856
 10
29650.1916586841
 20
-8054.318991380167
 30
0.0
 10
29649.84452422354
 20
-8054.272252975466
 30
0.0
 10
29649.49132107541
 20
-8054.228968422534
 30
0.0
 10
29649.13328560916
 20
-8054.189046138437
 30
0.0
  0
SPLINE
  5
229685
102
{ACAD_REACTORS
330
229E46
102
}
330
18
100
AcDbEntity
  8
姿図
370
     0
100
AcDbSpline
210
0.0
220
0.0
230
1.0
 70
     8
 71
     3
 72
     8
 73
     4
 74
     0
 42
0.000000001
 43
0.0000000001
 40
0.1255854746361369
 40
0.1255854746361369
 40
0.1255854746361369
 40
0.1255854746361369
 40
0.9522967665741322
 40
0.9522967665741322
 40
0.9522967665741322
 40
0.9522967665741322
 10
29653.46576033873
 20
-8054.892287380504
 30
0.0
 10
29653.10112453622
 20
-8054.812149273503
 30
0.0
 10
29652.72597895956
 20
-8054.735521554785
 30
0.0
 10
29652.34138506154
 20
-8054.663725143369
 30
0.0
  0
SPLINE
  5
229686
102
{ACAD_REACTORS
330
229E46
102
}
330
18
100
AcDbEntity
  8
姿図
370
     0
100
AcDbSpline
210
0.0
220
0.0
230
1.0
 70
     8
 71
     3
 72
     8
 73
     4
 74
     0
 42
0.000000001
 43
0.0000000001
 40
0.0716027249754091
 40
0.0716027249754091
 40
0.0716027249754091
 40
0.0716027249754091
 40
1.0
 40
1.0
 40
1.0
 40
1.0
 10
29656.71723505244
 20
-8055.819518229886
 30
0.0
 10
29656.27932007626
 20
-8055.658809366863
 30
0.0
 10
29655.81092824287
 20
-8055.505595571221
 30
0.0
 10
29655.41714613245
 20
-8055.391762651181
 30
0.0
  0
SPLINE
  5
229687
102
{ACAD_REACTORS
330
229E46
102
}
330
18
100
AcDbEntity
  8
姿図
370
     0
100
AcDbSpline
210
0.0
220
0.0
230
1.0
 70
     8
 71
     3
 72
    11
 73
     7
 74
     0
 42
0.000000001
 43
0.0000000001
 40
0.1437191788405928
 40
0.1437191788405928
 40
0.1437191788405928
 40
0.1437191788405928
 40
1.0
 40
1.0
 40
1.0
 40
1.968511190403449
 40
1.968511190403449
 40
1.968511190403449
 40
1.968511190403449
 10
29660.33644328964
 20
-8060.435691840021
 30
0.0
 10
29660.62341222904
 20
-8060.051729291155
 30
0.0
 10
29660.77493021515
 20
-8059.652309434614
 30
0.0
 10
29660.77493021515
 20
-8059.242359843282
 30
0.0
 10
29660.77493021515
 20
-8058.358665893318
 30
0.0
 10
29660.07111862072
 20
-8057.523842853601
 30
0.0
 10
29658.82354442146
 20
-8056.870294223858
 30
0.0
  0
SPLINE
  5
229688
102
{ACAD_REACTORS
330
229E46
102
}
330
18
100
AcDbEntity
  8
姿図
370
     0
100
AcDbSpline
210
0.0
220
0.0
230
1.0
 70
     8
 71
     3
 72
    11
 73
     7
 74
     0
 42
0.000000001
 43
0.0000000001
 40
0.8013261144550126
 40
0.8013261144550126
 40
0.8013261144550126
 40
0.8013261144550126
 40
1.0
 40
1.0
 40
1.0
 40
1.99748730823794
 40
1.99748730823794
 40
1.99748730823794
 40
1.99748730823794
 10
29660.88822094314
 20
-8061.889803579799
 30
0.0
 10
29660.8900325289
 20
-8061.840040841735
 30
0.0
 10
29660.88876576895
 20
-8061.790102889912
 30
0.0
 10
29660.88420938871
 20
-8061.740006747967
 30
0.0
 10
29660.90714335528
 20
-8058.850869118809
 30
0.0
 10
29652.94795924631
 20
-8056.506538543274
 30
0.0
 10
29643.11397660748
 20
-8056.49477562394
 30
0.0
  0
SPLINE
  5
229689
102
{ACAD_REACTORS
330
229E46
102
}
330
18
100
AcDbEntity
  8
姿図
370
     0
100
AcDbSpline
210
0.0
220
0.0
230
1.0
 70
     8
 71
     3
 72
    11
 73
     7
 74
     0
 42
0.000000001
 43
0.0000000001
 40
1.000338750999364
 40
1.000338750999364
 40
1.000338750999364
 40
1.000338750999364
 40
2.0
 40
2.0
 40
2.0
 40
2.999504982061918
 40
2.999504982061918
 40
2.999504982061918
 40
2.999504982061918
 10
29643.11397660748
 20
-8072.597424693902
 30
0.0
 10
29654.24202413958
 20
-8072.58977081903
 30
0.0
 10
29663.26009400867
 20
-8070.156212993346
 30
0.0
 10
29663.25796562662
 20
-8067.158616389619
 30
0.0
 10
29663.25692246517
 20
-8064.159986217381
 30
0.0
 10
29654.23958525586
 20
-8061.734226949366
 30
0.0
 10
29643.11397660748
 20
-8061.737995498761
 30
0.0
  0
SPLINE
  5
22968A
102
{ACAD_REACTORS
330
229E46
102
}
330
18
100
AcDbEntity
  8
姿図
370
     0
100
AcDbSpline
210
0.0
220
0.0
230
1.0
 70
     8
 71
     3
 72
    11
 73
     7
 74
     0
 42
0.000000001
 43
0.0000000001
 40
1.0
 40
1.0
 40
1.0
 40
1.0
 40
2.0
 40
2.0
 40
2.0
 40
2.999843480940324
 40
2.999843480940324
 40
2.999843480940324
 40
2.999843480940324
 10
29643.11397660748
 20
-8071.283232191296
 30
0.0
 10
29651.64938474243
 20
-8071.277888559487
 30
0.0
 10
29658.56842774975
 20
-8069.506474615189
 30
0.0
 10
29658.56684135906
 20
-8067.321430171263
 30
0.0
 10
29658.56579784432
 20
-8065.136894690795
 30
0.0
 10
29651.64750147047
 20
-8063.370701388476
 30
0.0
 10
29643.11397660748
 20
-8063.375155859032
 30
0.0
  0
SPLINE
  5
22968B
102
{ACAD_REACTORS
330
229E46
102
}
330
18
100
AcDbEntity
  8
姿図
370
     0
100
AcDbSpline
210
0.0
220
0.0
230
1.0
 70
     8
 71
     3
 72
    11
 73
     7
 74
     0
 42
0.000000001
 43
0.0000000001
 40
1.999915234916564
 40
1.999915234916564
 40
1.999915234916564
 40
1.999915234916564
 40
2.0
 40
2.0
 40
2.0
 40
2.960253422007328
 40
2.960253422007328
 40
2.960253422007328
 40
2.960253422007328
 10
29643.11397660748
 20
-8070.775588150538
 30
0.0
 10
29643.11470021267
 20
-8070.775587836264
 30
0.0
 10
29643.11542382947
 20
-8070.775587509264
 30
0.0
 10
29643.11614745792
 20
-8070.77558716955
 30
0.0
 10
29651.31230232772
 20
-8070.770455928823
 30
0.0
 10
29658.01783604458
 20
-8069.136854857397
 30
0.0
 10
29658.53656419069
 20
-8067.072283997777
 30
0.0
  0
SPLINE
  5
22968C
102
{ACAD_REACTORS
330
229E46
102
}
330
18
100
AcDbEntity
  8
姿図
370
     0
100
AcDbSpline
210
0.0
220
0.0
230
1.0
 70
     8
 71
     3
 72
     8
 73
     4
 74
     0
 42
0.000000001
 43
0.0000000001
 40
1.001329078286997
 40
1.001329078286997
 40
1.001329078286997
 40
1.001329078286997
 40
1.980723198236951
 40
1.980723198236951
 40
1.980723198236951
 40
1.980723198236951
 10
29643.11397660748
 20
-8069.963327774634
 30
0.0
 10
29650.66977925619
 20
-8069.954630194623
 30
0.0
 10
29656.95309573661
 20
-8068.489499802303
 30
0.0
 10
29658.27829915798
 20
-8066.557359265405
 30
0.0
  0
SPLINE
  5
22968D
102
{ACAD_REACTORS
330
229E46
102
}
330
18
100
AcDbEntity
  8
姿図
370
     0
100
AcDbSpline
210
0.0
220
0.0
230
1.0
 70
     8
 71
     3
 72
     8
 73
     4
 74
     0
 42
0.000000001
 43
0.0000000001
 40
0.0370900742675664
 40
0.0370900742675664
 40
0.0370900742675664
 40
0.0370900742675664
 40
0.9642082196495878
 40
0.9642082196495878
 40
0.9642082196495878
 40
0.9642082196495878
 10
29645.60702204408
 20
-8045.262543184903
 30
0.0
 10
29645.01309971986
 20
-8045.184022116997
 30
0.0
 10
29644.40858393626
 20
-8045.133705656315
 30
0.0
 10
29643.7968680692
 20
-8045.112492049417
 30
0.0
  0
SPLINE
  5
22968E
102
{ACAD_REACTORS
330
229E46
102
}
330
18
100
AcDbEntity
  8
姿図
370
     0
100
AcDbSpline
210
0.0
220
0.0
230
1.0
 70
     8
 71
     3
 72
     8
 73
     4
 74
     0
 42
0.000000001
 43
0.0000000001
 40
0.0343408557697565
 40
0.0343408557697565
 40
0.0343408557697565
 40
0.0343408557697565
 40
0.9516949207902992
 40
0.9516949207902992
 40
0.9516949207902992
 40
0.9516949207902992
 10
29648.75038707347
 20
-8045.961052434684
 30
0.0
 10
29648.17484587588
 20
-8045.778760035902
 30
0.0
 10
29647.58532192845
 20
-8045.623127422032
 30
0.0
 10
29646.98368447308
 20
-8045.496829542759
 30
0.0
  0
SPLINE
  5
22968F
102
{ACAD_REACTORS
330
229E46
102
}
330
18
100
AcDbEntity
  8
姿図
370
     0
100
AcDbSpline
210
0.0
220
0.0
230
1.0
 70
     8
 71
     3
 72
     8
 73
     4
 74
     0
 42
0.000000001
 43
0.0000000001
 40
0.0
 40
0.0
 40
0.0
 40
0.0
 40
0.9575110744418405
 40
0.9575110744418405
 40
0.9575110744418405
 40
0.9575110744418405
 10
29651.38529035026
 20
-8046.983101731023
 30
0.0
 10
29651.04695805927
 20
-8046.856752307611
 30
0.0
 10
29650.62606487416
 20
-8046.665214698491
 30
0.0
 10
29650.1916586841
 20
-8046.485273583939
 30
0.0
  0
SPLINE
  5
229690
102
{ACAD_REACTORS
330
229E46
102
}
330
18
100
AcDbEntity
  8
姿図
370
     0
100
AcDbSpline
210
0.0
220
0.0
230
1.0
 70
     8
 71
     3
 72
     8
 73
     4
 74
     0
 42
0.000000001
 43
0.0000000001
 40
0.2733831782530192
 40
0.2733831782530192
 40
0.2733831782530192
 40
0.2733831782530192
 40
0.826318060115595
 40
0.826318060115595
 40
0.826318060115595
 40
0.826318060115595
 10
29653.73773041324
 20
-8048.458865663759
 30
0.0
 10
29653.64780772882
 20
-8048.393977676895
 30
0.0
 10
29653.55712280747
 20
-8048.329256590614
 30
0.0
 10
29653.46576033873
 20
-8048.265844043342
 30
0.0
  0
SPLINE
  5
229691
102
{ACAD_REACTORS
330
229E46
102
}
330
18
100
AcDbEntity
  8
姿図
370
     0
100
AcDbSpline
210
0.0
220
0.0
230
1.0
 70
     8
 71
     3
 72
     8
 73
     4
 74
     0
 42
0.000000001
 43
0.0000000001
 40
0.0672863383150478
 40
0.0672863383150478
 40
0.0672863383150478
 40
0.0672863383150478
 40
0.9044404180318875
 40
0.9044404180318875
 40
0.9044404180318875
 40
0.9044404180318875
 10
29657.6397720475
 20
-8057.715017943303
 30
0.0
 10
29657.35342489135
 20
-8056.83466088255
 30
0.0
 10
29657.04533289097
 20
-8055.981855303353
 30
0.0
 10
29656.71723505244
 20
-8055.160128203936
 30
0.0
  0
POLYLINE
  5
229692
102
{ACAD_REACTORS
330
229E46
102
}
330
18
100
AcDbEntity
  8
姿図
370
     0
100
AcDb2dPolyline
 66
     1
 10
0.0
 20
0.0
 30
0.0
  0
VERTEX
  5
229693
330
229692
100
AcDbEntity
  8
姿図
370
     0
100
AcDbVertex
100
AcDb2dVertex
 10
29660.81426812154
 20
-8059.195614473376
 30
0.0
  0
VERTEX
  5
229694
330
229692
100
AcDbEntity
  8
姿図
370
     0
100
AcDbVertex
100
AcDb2dVertex
 10
29660.22390993211
 20
-8040.209261780457
 30
0.0
  0
SEQEND
  5
229695
330
229692
100
AcDbEntity
  8
姿図
370
     0
  0
POLYLINE
  5
229696
102
{ACAD_REACTORS
330
229E46
102
}
330
18
100
AcDbEntity
  8
姿図
370
     0
100
AcDb2dPolyline
 66
     1
 10
0.0
 20
0.0
 30
0.0
  0
VERTEX
  5
229697
330
229696
100
AcDbEntity
  8
姿図
370
     0
100
AcDbVertex
100
AcDb2dVertex
 10
29660.94033231846
 20
-8063.835712347607
 30
0.0
  0
VERTEX
  5
229698
330
229696
100
AcDbEntity
  8
姿図
370
     0
100
AcDbVertex
100
AcDb2dVertex
 10
29660.8812956717
 20
-8061.631204640331
 30
0.0
  0
SEQEND
  5
229699
330
229696
100
AcDbEntity
  8
姿図
370
     0
  0
SPLINE
  5
22969A
102
{ACAD_REACTORS
330
229E46
102
}
330
18
100
AcDbEntity
  8
姿図
370
     0
100
AcDbSpline
210
0.0
220
0.0
230
1.0
 70
     8
 71
     3
 72
     8
 73
     4
 74
     0
 42
0.000000001
 43
0.0000000001
 40
0.0
 40
0.0
 40
0.0
 40
0.0
 40
0.9999406733723821
 40
0.9999406733723821
 40
0.9999406733723821
 40
0.9999406733723821
 10
29663.1696287133
 20
-8066.178560918359
 30
0.0
 10
29662.70513602853
 20
-8063.290165318167
 30
0.0
 10
29653.90302052314
 20
-8060.991837036114
 30
0.0
 10
29643.11397660748
 20
-8060.997574858056
 30
0.0
  0
POLYLINE
  5
22969B
102
{ACAD_REACTORS
330
229E46
102
}
330
18
100
AcDbEntity
  8
姿図
370
     0
100
AcDb2dPolyline
 66
     1
 10
0.0
 20
0.0
 30
0.0
  0
VERTEX
  5
22969C
330
22969B
100
AcDbEntity
  8
姿図
370
     0
100
AcDbVertex
100
AcDb2dVertex
 10
29663.1696287133
 20
-8066.178560918359
 30
0.0
  0
VERTEX
  5
22969D
330
22969B
100
AcDbEntity
  8
姿図
370
     0
100
AcDbVertex
100
AcDb2dVertex
 10
29663.25796569925
 20
-8067.160630590601
 30
0.0
  0
SEQEND
  5
22969E
330
22969B
100
AcDbEntity
  8
姿図
370
     0
  0
SPLINE
  5
22969F
102
{ACAD_REACTORS
330
229E46
102
}
330
18
100
AcDbEntity
  8
姿図
370
     0
100
AcDbSpline
210
0.0
220
0.0
230
1.0
 70
     8
 71
     3
 72
    14
 73
    10
 74
     0
 42
0.000000001
 43
0.0000000001
 40
0.0
 40
0.0
 40
0.0
 40
0.0
 40
1.0
 40
1.0
 40
1.0
 40
2.0
 40
2.0
 40
2.0
 40
3.0
 40
3.0
 40
3.0
 40
3.0
 10
29645.82603673847
 20
-8042.826806423827
 30
0.0
 10
29645.82603673847
 20
-8042.826806423827
 30
0.0
 10
29645.60598765051
 20
-8045.210650669856
 30
0.0
 10
29645.60598765051
 20
-8045.210650669856
 30
0.0
 10
29645.60598765051
 20
-8045.210650669856
 30
0.0
 10
29645.73824253775
 20
-8051.706670074762
 30
0.0
 10
29645.65040658991
 20
-8055.043088739601
 30
0.0
 10
29645.65040658991
 20
-8055.043088739601
 30
0.0
 10
29645.82603673847
 20
-8053.928214295242
 30
0.0
 10
29645.82603673847
 20
-8053.928214295242
 30
0.0
  0
SPLINE
  5
2296A0
102
{ACAD_REACTORS
330
229E46
102
}
330
18
100
AcDbEntity
  8
姿図
370
     0
100
AcDbSpline
210
0.0
220
0.0
230
1.0
 70
     8
 71
     3
 72
    11
 73
     7
 74
     0
 42
0.000000001
 43
0.0000000001
 40
0.7980309832626685
 40
0.7980309832626685
 40
0.7980309832626685
 40
0.7980309832626685
 40
1.0
 40
1.0
 40
1.0
 40
1.467451124910523
 40
1.467451124910523
 40
1.467451124910523
 40
1.467451124910523
 10
29658.50365768731
 20
-8059.114375546162
 30
0.0
 10
29658.50436572753
 20
-8059.098216823573
 30
0.0
 10
29658.50472163929
 20
-8059.08204172606
 30
0.0
 10
29658.50472163929
 20
-8059.065853005128
 30
0.0
 10
29658.50472163929
 20
-8058.588132173814
 30
0.0
 10
29658.19432097914
 20
-8058.129385491649
 30
0.0
 10
29657.63721579357
 20
-8057.707161401418
 30
0.0
  0
SPLINE
  5
2296A1
102
{ACAD_REACTORS
330
229E46
102
}
330
18
100
AcDbEntity
  8
姿図
370
     0
100
AcDbSpline
210
0.0
220
0.0
230
1.0
 70
     8
 71
     3
 72
     8
 73
     4
 74
     0
 42
0.000000001
 43
0.0000000001
 40
1.649775017417221
 40
1.649775017417221
 40
1.649775017417221
 40
1.649775017417221
 40
2.0
 40
2.0
 40
2.0
 40
2.0
 10
29656.8765245938
 20
-8057.230820370658
 30
0.0
 10
29656.32220202589
 20
-8056.937826339867
 30
0.0
 10
29655.64334143047
 20
-8056.669175796493
 30
0.0
 10
29654.86673114851
 20
-8056.432248994779
 30
0.0
  0
SPLINE
  5
2296A2
102
{ACAD_REACTORS
330
229E46
102
}
330
18
100
AcDbEntity
  8
姿図
370
     0
100
AcDbSpline
210
0.0
220
0.0
230
1.0
 70
     8
 71
     3
 72
     8
 73
     4
 74
     0
 42
0.000000001
 43
0.0000000001
 40
0.1695485279863797
 40
0.1695485279863797
 40
0.1695485279863797
 40
0.1695485279863797
 40
0.9872166627792156
 40
0.9872166627792156
 40
0.9872166627792156
 40
0.9872166627792156
 10
29643.75866748799
 20
-8054.991256353323
 30
0.0
 10
29643.54515375515
 20
-8054.988911636019
 30
0.0
 10
29643.33024918757
 20
-8054.987535798859
 30
0.0
 10
29643.11397660748
 20
-8054.987493997263
 30
0.0
  0
SPLINE
  5
2296A3
102
{ACAD_REACTORS
330
229E46
102
}
330
18
100
AcDbEntity
  8
姿図
370
     0
100
AcDbSpline
210
0.0
220
0.0
230
1.0
 70
     8
 71
     3
 72
     8
 73
     4
 74
     0
 42
0.000000001
 43
0.0000000001
 40
0.098058235786967
 40
0.098058235786967
 40
0.098058235786967
 40
0.098058235786967
 40
0.9261749614651885
 40
0.9261749614651885
 40
0.9261749614651885
 40
0.9261749614651885
 10
29646.99504077006
 20
-8055.119112755941
 30
0.0
 10
29646.5548652969
 20
-8055.088775513117
 30
0.0
 10
29646.10624984333
 20
-8055.063465785459
 30
0.0
 10
29645.65045095154
 20
-8055.043088739601
 30
0.0
  0
SPLINE
  5
2296A4
102
{ACAD_REACTORS
330
229E46
102
}
330
18
100
AcDbEntity
  8
姿図
370
     0
100
AcDbSpline
210
0.0
220
0.0
230
1.0
 70
     8
 71
     3
 72
     8
 73
     4
 74
     0
 42
0.000000001
 43
0.0000000001
 40
0.0
 40
0.0
 40
0.0
 40
0.0
 40
0.8496240644662686
 40
0.8496240644662686
 40
0.8496240644662686
 40
0.8496240644662686
 10
29650.21441086641
 20
-8055.403628343322
 30
0.0
 10
29649.77898899388
 20
-8055.342053533064
 30
0.0
 10
29649.32994582001
 20
-8055.2853004224
 30
0.0
 10
29648.8688175818
 20
-8055.234393169323
 30
0.0
  0
SPLINE
  5
2296A5
102
{ACAD_REACTORS
330
229E46
102
}
330
18
100
AcDbEntity
  8
姿図
370
     0
100
AcDbSpline
210
0.0
220
0.0
230
1.0
 70
     8
 71
     3
 72
     8
 73
     4
 74
     0
 42
0.000000001
 43
0.0000000001
 40
0.0
 40
0.0
 40
0.0
 40
0.0
 40
1.0
 40
1.0
 40
1.0
 40
1.0
 10
29653.54328474707
 20
-8056.037516666527
 30
0.0
 10
29653.11070105338
 20
-8055.937627391404
 30
0.0
 10
29652.54715663327
 20
-8055.83863337018
 30
0.0
 10
29652.08834815737
 20
-8055.75279658627
 30
0.0
  0
POLYLINE
  5
2296A6
102
{ACAD_REACTORS
330
229E46
102
}
330
18
100
AcDbEntity
  8
姿図
370
     0
100
AcDb2dPolyline
 66
     1
 10
0.0
 20
0.0
 30
0.0
  0
VERTEX
  5
2296A7
330
2296A6
100
AcDbEntity
  8
姿図
370
     0
100
AcDbVertex
100
AcDb2dVertex
 10
29643.64320489209
 20
-8053.872009876397
 30
0.0
  0
VERTEX
  5
2296A8
330
2296A6
100
AcDbEntity
  8
姿図
370
     0
100
AcDbVertex
100
AcDb2dVertex
 10
29643.75866748799
 20
-8054.991256353323
 30
0.0
  0
VERTEX
  5
2296A9
330
2296A6
100
AcDbEntity
  8
姿図
370
     0
100
AcDbVertex
100
AcDb2dVertex
 10
29643.798337203
 20
-8045.144982444594
 30
0.0
  0
VERTEX
  5
2296AA
330
2296A6
100
AcDbEntity
  8
姿図
370
     0
100
AcDbVertex
100
AcDb2dVertex
 10
29643.64320489209
 20
-8042.709993069557
 30
0.0
  0
SEQEND
  5
2296AB
330
2296A6
100
AcDbEntity
  8
姿図
370
     0
  0
POLYLINE
  5
2296AC
102
{ACAD_REACTORS
330
229E46
102
}
330
18
100
AcDbEntity
  8
姿図
370
     0
100
AcDb2dPolyline
 66
     1
 10
0.0
 20
0.0
 30
0.0
  0
VERTEX
  5
2296AD
330
2296AC
100
AcDbEntity
  8
姿図
370
     0
100
AcDbVertex
100
AcDb2dVertex
 10
29646.98368447308
 20
-8053.996277065786
 30
0.0
  0
VERTEX
  5
2296AE
330
2296AC
100
AcDbEntity
  8
姿図
370
     0
100
AcDbVertex
100
AcDb2dVertex
 10
29646.99504077006
 20
-8055.119112755941
 30
0.0
  0
SEQEND
  5
2296AF
330
2296AC
100
AcDbEntity
  8
姿図
370
     0
  0
SPLINE
  5
2296B0
102
{ACAD_REACTORS
330
229E46
102
}
330
18
100
AcDbEntity
  8
姿図
370
     0
100
AcDbSpline
210
0.0
220
0.0
230
1.0
 70
     8
 71
     3
 72
    17
 73
    13
 74
     0
 42
0.000000001
 43
0.0000000001
 40
0.1413936366989181
 40
0.1413936366989181
 40
0.1413936366989181
 40
0.1413936366989181
 40
1.0
 40
1.0
 40
1.0
 40
2.0
 40
2.0
 40
2.0
 40
3.0
 40
3.0
 40
3.0
 40
4.0
 40
4.0
 40
4.0
 40
4.0
 10
29649.13328560916
 20
-8043.158982723931
 30
0.0
 10
29649.04581062032
 20
-8043.760872613331
 30
0.0
 10
29648.7364792003
 20
-8045.889291909452
 30
0.0
 10
29648.7364792003
 20
-8045.889291909452
 30
0.0
 10
29648.7364792003
 20
-8045.889291909452
 30
0.0
 10
29649.02382465134
 20
-8047.004775049338
 30
0.0
 10
29648.95757196634
 20
-8054.157059235646
 30
0.0
 10
29648.95757196634
 20
-8054.157059235646
 30
0.0
 10
29648.8688175818
 20
-8055.234393169323
 30
0.0
 10
29648.8688175818
 20
-8055.234393169323
 30
0.0
 10
29648.8688175818
 20
-8055.234393169323
 30
0.0
 10
29649.13328560916
 20
-8054.189046138437
 30
0.0
 10
29649.13328560916
 20
-8054.189046138437
 30
0.0
  0
POLYLINE
  5
2296B1
102
{ACAD_REACTORS
330
229E46
102
}
330
18
100
AcDbEntity
  8
姿図
370
     0
100
AcDb2dPolyline
 66
     1
 10
0.0
 20
0.0
 30
0.0
  0
VERTEX
  5
2296B2
330
2296B1
100
AcDbEntity
  8
姿図
370
     0
100
AcDbVertex
100
AcDb2dVertex
 10
29650.1916586841
 20
-8054.318991380167
 30
0.0
  0
VERTEX
  5
2296B3
330
2296B1
100
AcDbEntity
  8
姿図
370
     0
100
AcDbVertex
100
AcDb2dVertex
 10
29650.21441086641
 20
-8055.403628343322
 30
0.0
  0
SEQEND
  5
2296B4
330
2296B1
100
AcDbEntity
  8
姿図
370
     0
  0
POLYLINE
  5
2296B5
102
{ACAD_REACTORS
330
229E46
102
}
330
18
100
AcDbEntity
  8
姿図
370
     0
100
AcDb2dPolyline
 66
     1
 10
0.0
 20
0.0
 30
0.0
  0
VERTEX
  5
2296B6
330
2296B5
100
AcDbEntity
  8
姿図
370
     0
100
AcDbVertex
100
AcDb2dVertex
 10
29653.46576033873
 20
-8054.892287380504
 30
0.0
  0
VERTEX
  5
2296B7
330
2296B5
100
AcDbEntity
  8
姿図
370
     0
100
AcDbVertex
100
AcDb2dVertex
 10
29653.54328474707
 20
-8056.037516666527
 30
0.0
  0
SEQEND
  5
2296B8
330
2296B5
100
AcDbEntity
  8
姿図
370
     0
  0
SPLINE
  5
2296B9
102
{ACAD_REACTORS
330
229E46
102
}
330
18
100
AcDbEntity
  8
姿図
370
     0
100
AcDbSpline
210
0.0
220
0.0
230
1.0
 70
     8
 71
     3
 72
    14
 73
    10
 74
     0
 42
0.000000001
 43
0.0000000001
 40
0.0
 40
0.0
 40
0.0
 40
0.0
 40
1.0
 40
1.0
 40
1.0
 40
2.0
 40
2.0
 40
2.0
 40
3.0
 40
3.0
 40
3.0
 40
3.0
 10
29652.34138506154
 20
-8043.567121610364
 30
0.0
 10
29652.34138506154
 20
-8043.567121610364
 30
0.0
 10
29651.36053639495
 20
-8046.982231602653
 30
0.0
 10
29651.36053639495
 20
-8046.982231602653
 30
0.0
 10
29651.36053639495
 20
-8046.982231602653
 30
0.0
 10
29652.15423270691
 20
-8048.295763096417
 30
0.0
 10
29652.08823050466
 20
-8055.753302249746
 30
0.0
 10
29652.08823050466
 20
-8055.753302249746
 30
0.0
 10
29652.34172752966
 20
-8054.663789077435
 30
0.0
 10
29652.34172752966
 20
-8054.663789077435
 30
0.0
  0
SPLINE
  5
2296BA
102
{ACAD_REACTORS
330
229E46
102
}
330
18
100
AcDbEntity
  8
姿図
370
     0
100
AcDbSpline
210
0.0
220
0.0
230
1.0
 70
     8
 71
     3
 72
    14
 73
    10
 74
     0
 42
0.000000001
 43
0.0000000001
 40
0.0
 40
0.0
 40
0.0
 40
0.0
 40
1.0
 40
1.0
 40
1.0
 40
2.0
 40
2.0
 40
2.0
 40
2.917211479992443
 40
2.917211479992443
 40
2.917211479992443
 40
2.917211479992443
 10
29655.41714613245
 20
-8044.38021688922
 30
0.0
 10
29655.41714613245
 20
-8044.38021688922
 30
0.0
 10
29653.73662689374
 20
-8048.457365347929
 30
0.0
 10
29653.73662689374
 20
-8048.457365347929
 30
0.0
 10
29653.73662689374
 20
-8048.457365347929
 30
0.0
 10
29654.93246202862
 20
-8050.044633594027
 30
0.0
 10
29654.86633458501
 20
-8056.432950282053
 30
0.0
 10
29654.86633458501
 20
-8056.432950282053
 30
0.0
 10
29655.36712336407
 20
-8055.547721401557
 30
0.0
 10
29655.41714613245
 20
-8055.391762651177
 30
0.0
  0
POLYLINE
  5
2296BB
102
{ACAD_REACTORS
330
229E46
102
}
330
18
100
AcDbEntity
  8
姿図
370
     0
100
AcDb2dPolyline
 66
     1
 10
0.0
 20
0.0
 30
0.0
  0
VERTEX
  5
2296BC
330
2296BB
100
AcDbEntity
  8
姿図
370
     0
100
AcDbVertex
100
AcDb2dVertex
 10
29656.71827873052
 20
-8055.79738721216
 30
0.0
  0
VERTEX
  5
2296BD
330
2296BB
100
AcDbEntity
  8
姿図
370
     0
100
AcDbVertex
100
AcDb2dVertex
 10
29656.87744896207
 20
-8057.239193544608
 30
0.0
  0
SEQEND
  5
2296BE
330
2296BB
100
AcDbEntity
  8
姿図
370
     0
  0
POLYLINE
  5
2296BF
102
{ACAD_REACTORS
330
229E46
102
}
330
18
100
AcDbEntity
  8
姿図
370
     0
100
AcDb2dPolyline
 66
     1
 10
0.0
 20
0.0
 30
0.0
  0
VERTEX
  5
2296C0
330
2296BF
100
AcDbEntity
  8
姿図
370
     0
100
AcDbVertex
100
AcDb2dVertex
 10
29658.82354442146
 20
-8045.84410274511
 30
0.0
  0
VERTEX
  5
2296C1
330
2296BF
100
AcDbEntity
  8
姿図
370
     0
100
AcDbVertex
100
AcDb2dVertex
 10
29657.86457124756
 20
-8045.779663963147
 30
0.0
  0
VERTEX
  5
2296C2
330
2296BF
100
AcDbEntity
  8
姿図
370
     0
100
AcDbVertex
100
AcDb2dVertex
 10
29657.86457124756
 20
-8056.585071938336
 30
0.0
  0
VERTEX
  5
2296C3
330
2296BF
100
AcDbEntity
  8
姿図
370
     0
100
AcDbVertex
100
AcDb2dVertex
 10
29657.63299995351
 20
-8057.667324367916
 30
0.0
  0
SEQEND
  5
2296C4
330
2296BF
100
AcDbEntity
  8
姿図
370
     0
  0
POLYLINE
  5
2296C5
102
{ACAD_REACTORS
330
229E46
102
}
330
18
100
AcDbEntity
  8
姿図
370
     0
100
AcDb2dPolyline
 66
     1
 10
0.0
 20
0.0
 30
0.0
  0
VERTEX
  5
2296C6
330
2296C5
100
AcDbEntity
  8
姿図
370
     0
100
AcDbVertex
100
AcDb2dVertex
 10
29657.86457124756
 20
-8045.779663963147
 30
0.0
  0
VERTEX
  5
2296C7
330
2296C5
100
AcDbEntity
  8
姿図
370
     0
100
AcDbVertex
100
AcDb2dVertex
 10
29656.75668608415
 20
-8048.760158098217
 30
0.0
  0
SEQEND
  5
2296C8
330
2296C5
100
AcDbEntity
  8
姿図
370
     0
  0
POLYLINE
  5
2296C9
102
{ACAD_REACTORS
330
229E46
102
}
330
18
100
AcDbEntity
  8
姿図
370
     0
100
AcDb2dPolyline
 66
     1
 10
0.0
 20
0.0
 30
0.0
  0
VERTEX
  5
2296CA
330
2296C9
100
AcDbEntity
  8
姿図
370
     0
100
AcDbVertex
100
AcDb2dVertex
 10
29658.85664989039
 20
-8056.880140607225
 30
0.0
  0
VERTEX
  5
2296CB
330
2296C9
100
AcDbEntity
  8
姿図
370
     0
100
AcDbVertex
100
AcDb2dVertex
 10
29657.86457124756
 20
-8056.585071938336
 30
0.0
  0
SEQEND
  5
2296CC
330
2296C9
100
AcDbEntity
  8
姿図
370
     0
  0
SPLINE
  5
2296CD
102
{ACAD_REACTORS
330
229E46
102
}
330
18
100
AcDbEntity
  8
姿図
370
     0
100
AcDbSpline
210
0.0
220
0.0
230
1.0
 70
     8
 71
     3
 72
     8
 73
     4
 74
     0
 42
0.000000001
 43
0.0000000001
 40
0.0059370180528823
 40
0.0059370180528823
 40
0.0059370180528823
 40
0.0059370180528823
 40
1.0
 40
1.0
 40
1.0
 40
1.0
 10
29643.11397660748
 20
-8034.923156923827
 30
0.0
 10
29652.5791722161
 20
-8034.951030113099
 30
0.0
 10
29660.22390993211
 20
-8037.307051827172
 30
0.0
 10
29660.22390993211
 20
-8040.209261780457
 30
0.0
  0
SPLINE
  5
2296CE
102
{ACAD_REACTORS
330
229E46
102
}
330
18
100
AcDbEntity
  8
姿図
370
     0
100
AcDbSpline
210
0.0
220
0.0
230
1.0
 70
     8
 71
     3
 72
    11
 73
     7
 74
     0
 42
0.000000001
 43
0.0000000001
 40
0.0056257711531804
 40
0.0056257711531804
 40
0.0056257711531804
 40
0.0056257711531804
 40
1.0
 40
1.0
 40
1.0
 40
2.0
 40
2.0
 40
2.0
 40
2.0
 10
29643.11397660748
 20
-8025.407632341163
 30
0.0
 10
29651.95178296441
 20
-8025.444625249043
 30
0.0
 10
29659.09126872445
 20
-8028.743865749368
 30
0.0
 10
29659.09126872445
 20
-8032.808289979466
 30
0.0
 10
29659.09126872445
 20
-8032.808289979466
 30
0.0
 10
29659.33849518981
 20
-8038.534701162671
 30
0.0
 10
29659.33849518981
 20
-8038.534701162671
 30
0.0
  0
SPLINE
  5
2296CF
102
{ACAD_REACTORS
330
229E46
102
}
330
18
100
AcDbEntity
  8
姿図
370
     0
100
AcDbSpline
210
0.0
220
0.0
230
1.0
 70
     8
 71
     3
 72
    17
 73
    13
 74
     0
 42
0.000000001
 43
0.0000000001
 40
0.0
 40
0.0
 40
0.0
 40
0.0
 40
1.0
 40
1.0
 40
1.0
 40
2.0
 40
2.0
 40
2.0
 40
3.0
 40
3.0
 40
3.0
 40
4.0
 40
4.0
 40
4.0
 40
4.0
 10
29650.1916586841
 20
-8026.190744698057
 30
0.0
 10
29650.1916586841
 20
-8026.190744698057
 30
0.0
 10
29650.43274832231
 20
-8025.749310614176
 30
0.0
 10
29650.43274832231
 20
-8025.749310614176
 30
0.0
 10
29650.43274832231
 20
-8025.749310614176
 30
0.0
 10
29650.46126160765
 20
-8025.435831463825
 30
0.0
 10
29650.03377106303
 20
-8025.307584300439
 30
0.0
 10
29649.60628051839
 20
-8025.17933713705
 30
0.0
 10
29649.4067710152
 20
-8025.407318178475
 30
0.0
 10
29649.4067710152
 20
-8025.407318178475
 30
0.0
 10
29649.4067710152
 20
-8025.407318178475
 30
0.0
 10
29648.81922199908
 20
-8025.910287522389
 30
0.0
 10
29648.81922199908
 20
-8025.910287522389
 30
0.0
  0
SPLINE
  5
2296D0
102
{ACAD_REACTORS
330
229E46
102
}
330
18
100
AcDbEntity
  8
姿図
370
     0
100
AcDbSpline
210
0.0
220
0.0
230
1.0
 70
     8
 71
     3
 72
    17
 73
    13
 74
     0
 42
0.000000001
 43
0.0000000001
 40
0.0765831726165642
 40
0.0765831726165642
 40
0.0765831726165642
 40
0.0765831726165642
 40
1.0
 40
1.0
 40
1.0
 40
2.0
 40
2.0
 40
2.0
 40
3.0
 40
3.0
 40
3.0
 40
4.0
 40
4.0
 40
4.0
 40
4.0
 10
29650.43250577528
 20
-8025.749754716742
 30
0.0
 10
29650.42766952137
 20
-8024.464641552235
 30
0.0
 10
29650.39609434788
 20
-8016.074331249087
 30
0.0
 10
29650.39609434788
 20
-8016.074331249087
 30
0.0
 10
29650.39609434788
 20
-8016.074331249087
 30
0.0
 10
29650.16965795002
 20
-8015.624297257769
 30
0.0
 10
29649.746091635
 20
-8015.908762157289
 30
0.0
 10
29649.746091635
 20
-8015.908762157289
 30
0.0
 10
29645.66748116342
 20
-8021.168523994025
 30
0.0
 10
29645.66748116342
 20
-8021.168523994025
 30
0.0
 10
29645.66748116342
 20
-8021.168523994025
 30
0.0
 10
29645.63775721149
 20
-8022.008768348687
 30
0.0
 10
29645.63775721149
 20
-8022.008768348687
 30
0.0
  0
POLYLINE
  5
2296D1
102
{ACAD_REACTORS
330
229E46
102
}
330
18
100
AcDbEntity
  8
姿図
370
     0
100
AcDb2dPolyline
 66
     1
 10
0.0
 20
0.0
 30
0.0
  0
VERTEX
  5
2296D2
330
2296D1
100
AcDbEntity
  8
姿図
370
     0
100
AcDbVertex
100
AcDb2dVertex
 10
29649.47571684143
 20
-8025.352077671518
 30
0.0
  0
VERTEX
  5
2296D3
330
2296D1
100
AcDbEntity
  8
姿図
370
     0
100
AcDbVertex
100
AcDb2dVertex
 10
29649.54219868384
 20
-8016.171727288211
 30
0.0
  0
SEQEND
  5
2296D4
330
2296D1
100
AcDbEntity
  8
姿図
370
     0
  0
SPLINE
  5
2296D5
102
{ACAD_REACTORS
330
229E46
102
}
330
18
100
AcDbEntity
  8
姿図
370
     0
100
AcDbSpline
210
0.0
220
0.0
230
1.0
 70
     8
 71
     3
 72
    11
 73
     7
 74
     0
 42
0.000000001
 43
0.0000000001
 40
0.0
 40
0.0
 40
0.0
 40
0.0
 40
1.0
 40
1.0
 40
1.0
 40
2.0
 40
2.0
 40
2.0
 40
2.0
 10
29643.45075065276
 20
-8025.410657948354
 30
0.0
 10
29643.45075065276
 20
-8025.410657948354
 30
0.0
 10
29643.37915433594
 20
-8015.347054610616
 30
0.0
 10
29643.37915433594
 20
-8015.347054610616
 30
0.0
 10
29643.37915433594
 20
-8015.347054610616
 30
0.0
 10
29643.28238450368
 20
-8015.08972534137
 30
0.0
 10
29643.11397660748
 20
-8015.08972534137
 30
0.0
  0
SPLINE
  5
2296D6
102
{ACAD_REACTORS
330
229E46
102
}
330
18
100
AcDbEntity
  8
姿図
370
     0
100
AcDbSpline
210
0.0
220
0.0
230
1.0
 70
     8
 71
     3
 72
    14
 73
    10
 74
     0
 42
0.000000001
 43
0.0000000001
 40
0.0
 40
0.0
 40
0.0
 40
0.0
 40
1.0
 40
1.0
 40
1.0
 40
2.0
 40
2.0
 40
2.0
 40
3.0
 40
3.0
 40
3.0
 40
3.0
 10
29643.42394899947
 20
-8021.645401385753
 30
0.0
 10
29643.42394899947
 20
-8021.645401385753
 30
0.0
 10
29643.52163726846
 20
-8021.973158052342
 30
0.0
 10
29643.80664488058
 20
-8021.973158052342
 30
0.0
 10
29644.09165249271
 20
-8021.973158052342
 30
0.0
 10
29645.90139029638
 20
-8022.015948853927
 30
0.0
 10
29646.31460332476
 20
-8022.087169446617
 30
0.0
 10
29646.31460332476
 20
-8022.087169446617
 30
0.0
 10
29646.55686188244
 20
-8022.129918501078
 30
0.0
 10
29646.57109765154
 20
-8021.866285416187
 30
0.0
  0
POLYLINE
  5
2296D7
102
{ACAD_REACTORS
330
229E46
102
}
330
18
100
AcDbEntity
  8
姿図
370
     0
100
AcDb2dPolyline
 66
     1
 10
0.0
 20
0.0
 30
0.0
  0
VERTEX
  5
2296D8
330
2296D7
100
AcDbEntity
  8
姿図
370
     0
100
AcDbVertex
100
AcDb2dVertex
 10
29646.45708625728
 20
-8022.089716021152
 30
0.0
  0
VERTEX
  5
2296D9
330
2296D7
100
AcDbEntity
  8
姿図
370
     0
100
AcDbVertex
100
AcDb2dVertex
 10
29646.3679561486
 20
-8025.572553293287
 30
0.0
  0
SEQEND
  5
2296DA
330
2296D7
100
AcDbEntity
  8
姿図
370
     0
  0
SPLINE
  5
2296DB
102
{ACAD_REACTORS
330
229E46
102
}
330
18
100
AcDbEntity
  8
姿図
370
     0
100
AcDbSpline
210
0.0
220
0.0
230
1.0
 70
     8
 71
     3
 72
    17
 73
    13
 74
     0
 42
0.000000001
 43
0.0000000001
 40
0.0
 40
0.0
 40
0.0
 40
0.0
 40
1.0
 40
1.0
 40
1.0
 40
2.0
 40
2.0
 40
2.0
 40
3.0
 40
3.0
 40
3.0
 40
3.990417605945557
 40
3.990417605945557
 40
3.990417605945557
 40
3.990417605945557
 10
29650.43425121875
 20
-8020.432939677978
 30
0.0
 10
29650.43425121875
 20
-8020.432939677978
 30
0.0
 10
29655.02305328662
 20
-8017.823911447796
 30
0.0
 10
29655.02305328662
 20
-8017.823911447796
 30
0.0
 10
29655.02305328662
 20
-8017.823911447796
 30
0.0
 10
29655.77525295782
 20
-8017.476700621659
 30
0.0
 10
29655.88655078906
 20
-8018.021959801676
 30
0.0
 10
29655.88655078906
 20
-8018.021959801676
 30
0.0
 10
29655.97776825392
 20
-8027.434182771465
 30
0.0
 10
29655.97776825392
 20
-8027.434182771465
 30
0.0
 10
29655.97776825392
 20
-8027.434182771465
 30
0.0
 10
29656.04877708336
 20
-8027.709004140828
 30
0.0
 10
29655.48483393426
 20
-8028.143339136403
 30
0.0
  0
SPLINE
  5
2296DC
102
{ACAD_REACTORS
330
229E46
102
}
330
18
100
AcDbEntity
  8
姿図
370
     0
100
AcDbSpline
210
0.0
220
0.0
230
1.0
 70
     8
 71
     3
 72
    14
 73
    10
 74
     0
 42
0.000000001
 43
0.0000000001
 40
0.0
 40
0.0
 40
0.0
 40
0.0
 40
1.0
 40
1.0
 40
1.0
 40
2.0
 40
2.0
 40
2.0
 40
3.0
 40
3.0
 40
3.0
 40
3.0
 10
29655.9806070583
 20
-8027.550156280546
 30
0.0
 10
29655.9806070583
 20
-8027.550156280546
 30
0.0
 10
29655.99012540246
 20
-8027.174265180563
 30
0.0
 10
29655.69088202123
 20
-8027.074531302524
 30
0.0
 10
29655.39163864
 20
-8026.974797424484
 30
0.0
 10
29655.29186301482
 20
-8027.003310709833
 30
0.0
 10
29654.89288575555
 20
-8027.174306927684
 30
0.0
 10
29654.89288575555
 20
-8027.174306927684
 30
0.0
 10
29654.3129347159
 20
-8027.550156280546
 30
0.0
 10
29654.3129347159
 20
-8027.550156280546
 30
0.0
  0
POLYLINE
  5
2296DD
102
{ACAD_REACTORS
330
229E46
102
}
330
18
100
AcDbEntity
  8
姿図
370
     0
100
AcDb2dPolyline
 66
     1
 10
0.0
 20
0.0
 30
0.0
  0
VERTEX
  5
2296DE
330
2296DD
100
AcDbEntity
  8
姿図
370
     0
100
AcDbVertex
100
AcDb2dVertex
 10
29655.14558109409
 20
-8027.063050843562
 30
0.0
  0
VERTEX
  5
2296DF
330
2296DD
100
AcDbEntity
  8
姿図
370
     0
100
AcDbVertex
100
AcDb2dVertex
 10
29655.11414551009
 20
-8017.787883680217
 30
0.0
  0
SEQEND
  5
2296E0
330
2296DD
100
AcDbEntity
  8
姿図
370
     0
  0
SPLINE
  5
2296E1
102
{ACAD_REACTORS
330
229E46
102
}
330
18
100
AcDbEntity
  8
姿図
370
     0
100
AcDbSpline
210
0.0
220
0.0
230
1.0
 70
     8
 71
     3
 72
    20
 73
    16
 74
     0
 42
0.000000001
 43
0.0000000001
 40
0.0
 40
0.0
 40
0.0
 40
0.0
 40
1.0
 40
1.0
 40
1.0
 40
2.0
 40
2.0
 40
2.0
 40
3.0
 40
3.0
 40
3.0
 40
4.0
 40
4.0
 40
4.0
 40
5.0
 40
5.0
 40
5.0
 40
5.0
 10
29658.2444700714
 20
-8030.435383479793
 30
0.0
 10
29658.2444700714
 20
-8030.435383479793
 30
0.0
 10
29659.12504214736
 20
-8030.209489794541
 30
0.0
 10
29659.12504214736
 20
-8030.209489794541
 30
0.0
 10
29659.12504214736
 20
-8030.209489794541
 30
0.0
 10
29659.37147541737
 20
-8030.113012192136
 30
0.0
 10
29659.33477969582
 20
-8029.910830873034
 30
0.0
 10
29659.32914383414
 20
-8029.879854507393
 30
0.0
 10
29659.31687017983
 20
-8029.846415061473
 30
0.0
 10
29659.29603836521
 20
-8029.810470788141
 30
0.0
 10
29659.13931966359
 20
-8029.539740692251
 30
0.0
 10
29658.811562997
 20
-8029.59676726295
 30
0.0
 10
29658.42682150685
 20
-8029.69650114099
 30
0.0
 10
29658.04208001668
 20
-8029.796235019026
 30
0.0
 10
29657.77022274844
 20
-8029.870169174746
 30
0.0
 10
29657.77022274844
 20
-8029.870169174746
 30
0.0
  0
SPLINE
  5
2296E2
102
{ACAD_REACTORS
330
229E46
102
}
330
18
100
AcDbEntity
  8
姿図
370
     0
100
AcDbSpline
210
0.0
220
0.0
230
1.0
 70
     8
 71
     3
 72
    14
 73
    10
 74
     0
 42
0.000000001
 43
0.0000000001
 40
0.0432604550404731
 40
0.0432604550404731
 40
0.0432604550404731
 40
0.0432604550404731
 40
1.0
 40
1.0
 40
1.0
 40
2.0
 40
2.0
 40
2.0
 40
3.0
 40
3.0
 40
3.0
 40
3.0
 10
29659.33726123278
 20
-8029.974236197757
 30
0.0
 10
29659.31933807643
 20
-8029.231303017894
 30
0.0
 10
29659.11218403333
 20
-8020.644555846995
 30
0.0
 10
29659.11218403333
 20
-8020.644555846995
 30
0.0
 10
29659.11218403333
 20
-8020.644555846995
 30
0.0
 10
29659.10951221742
 20
-8020.343475592321
 30
0.0
 10
29657.87145952293
 20
-8020.647227662897
 30
0.0
 10
29657.87145952293
 20
-8020.647227662897
 30
0.0
 10
29655.91773589031
 20
-8021.239160126986
 30
0.0
 10
29655.91773589031
 20
-8021.239160126986
 30
0.0
  0
POLYLINE
  5
2296E3
102
{ACAD_REACTORS
330
229E46
102
}
330
18
100
AcDbEntity
  8
姿図
370
     0
100
AcDb2dPolyline
 66
     1
 10
0.0
 20
0.0
 30
0.0
  0
VERTEX
  5
2296E4
330
2296E3
100
AcDbEntity
  8
姿図
370
     0
100
AcDbVertex
100
AcDb2dVertex
 10
29658.53202425807
 20
-8020.524031901454
 30
0.0
  0
VERTEX
  5
2296E5
330
2296E3
100
AcDbEntity
  8
姿図
370
     0
100
AcDbVertex
100
AcDb2dVertex
 10
29658.68026135413
 20
-8029.638226441477
 30
0.0
  0
SEQEND
  5
2296E6
330
2296E3
100
AcDbEntity
  8
姿図
370
     0
  0
SPLINE
  5
2296E7
102
{ACAD_REACTORS
330
229E46
102
}
330
18
100
AcDbEntity
  8
姿図
370
     0
100
AcDbSpline
210
0.0
220
0.0
230
1.0
 70
     8
 71
     3
 72
    20
 73
    16
 74
     0
 42
0.000000001
 43
0.0000000001
 40
0.0
 40
0.0
 40
0.0
 40
0.0
 40
1.0
 40
1.0
 40
1.0
 40
2.0
 40
2.0
 40
2.0
 40
3.0
 40
3.0
 40
3.0
 40
4.0
 40
4.0
 40
4.0
 40
5.0
 40
5.0
 40
5.0
 40
5.0
 10
29659.09911718367
 20
-8032.961710658323
 30
0.0
 10
29659.09911718367
 20
-8032.961710658323
 30
0.0
 10
29659.83754030412
 20
-8032.961710658323
 30
0.0
 10
29659.83754030412
 20
-8032.961710658323
 30
0.0
 10
29659.83754030412
 20
-8032.961710658323
 30
0.0
 10
29659.98006498373
 20
-8032.916957741932
 30
0.0
 10
29659.99430075285
 20
-8032.731684007844
 30
0.0
 10
29659.99622112053
 20
-8032.706886216487
 30
0.0
 10
29659.99354930463
 20
-8032.683883551437
 30
0.0
 10
29659.98724548897
 20
-8032.662634265578
 30
0.0
 10
29659.94629156082
 20
-8032.525077493648
 30
0.0
 10
29659.75291888477
 20
-8032.46091216483
 30
0.0
 10
29659.66654408626
 20
-8032.46091216483
 30
0.0
 10
29659.56681020823
 20
-8032.46091216483
 30
0.0
 10
29659.0738175902
 20
-8032.46091216483
 30
0.0
 10
29659.0738175902
 20
-8032.46091216483
 30
0.0
  0
SPLINE
  5
2296E8
102
{ACAD_REACTORS
330
229E46
102
}
330
18
100
AcDbEntity
  8
姿図
370
     0
100
AcDbSpline
210
0.0
220
0.0
230
1.0
 70
     8
 71
     3
 72
    11
 73
     7
 74
     0
 42
0.000000001
 43
0.0000000001
 40
0.0
 40
0.0
 40
0.0
 40
0.0
 40
1.0
 40
1.0
 40
1.0
 40
1.954558767960183
 40
1.954558767960183
 40
1.954558767960183
 40
1.954558767960183
 10
29659.98916585665
 20
-8032.669773023697
 30
0.0
 10
29659.98916585665
 20
-8032.669773023697
 30
0.0
 10
29659.68240799319
 20
-8023.770162983348
 30
0.0
 10
29659.68240799319
 20
-8023.770162983348
 30
0.0
 10
29659.68240799319
 20
-8023.770162983348
 30
0.0
 10
29659.70256879353
 20
-8023.549839671008
 30
0.0
 10
29659.1827979128
 20
-8023.571573445564
 30
0.0
  0
SPLINE
  5
2296E9
102
{ACAD_REACTORS
330
229E46
102
}
330
18
100
AcDbEntity
  8
姿図
370
     0
100
AcDbSpline
210
0.0
220
0.0
230
1.0
 70
     8
 71
     3
 72
     8
 73
     4
 74
     0
 42
0.000000001
 43
0.0000000001
 40
0.0
 40
0.0
 40
0.0
 40
0.0
 40
0.990798626527957
 40
0.990798626527957
 40
0.990798626527957
 40
0.990798626527957
 10
29626.00073021322
 20
-8040.67446418022
 30
0.0
 10
29626.95406431082
 20
-8038.058003532531
 30
0.0
 10
29634.23269644981
 20
-8036.018256538022
 30
0.0
 10
29643.1139766075
 20
-8035.980941113607
 30
0.0
  0
SPLINE
  5
2296EA
102
{ACAD_REACTORS
330
229E46
102
}
330
18
100
AcDbEntity
  8
姿図
370
     0
100
AcDbSpline
210
0.0
220
0.0
230
1.0
 70
     8
 71
     3
 72
     8
 73
     4
 74
     0
 42
0.000000001
 43
0.0000000001
 40
0.0
 40
0.0
 40
0.0
 40
0.0
 40
0.990798626527957
 40
0.990798626527957
 40
0.990798626527957
 40
0.990798626527957
 10
29660.22722300176
 20
-8040.67446418022
 30
0.0
 10
29659.27388890415
 20
-8038.058003532531
 30
0.0
 10
29651.99525676517
 20
-8036.018256538022
 30
0.0
 10
29643.1139766075
 20
-8035.980941113607
 30
0.0
  0
ENDSEC
  0
SECTION
  2
OBJECTS
  0
DICTIONARY
  5
C
330
0
100
AcDbDictionary
281
     1
  3
ACAD_GROUP
350
D
  3
ACAD_IMAGE_VARS
350
22920C
  3
ACAD_LAYOUT
350
617
  3
ACAD_MLINESTYLE
350
E
  3
ACAD_PLOTSETTINGS
350
618
  3
ACAD_PLOTSTYLENAME
350
615
  3
ACAD_SCALELIST
350
18A0
  3
AcadDim
350
21BCA4
  3
AcDbVariableDictionary
350
6DE
  3
APPDATA
350
22920B
  3
DWGPROPS
350
229F20
  0
DICTIONARY
  5
1843
330
2
100
AcDbDictionary
280
     1
281
     1
  3
ACAD_LAYERFILTERS
360
21B111
  3
ACAD_LAYERSTATES
360
1844
  3
ACLYDICTIONARY
360
21B110
  0
DICTIONARY
  5
18CA
330
F
100
AcDbDictionary
280
     1
281
     1
  3
ADSK_XREC_LAYER_RECONCILED
360
18CB
  0
DICTIONARY
  5
18D0
330
34
100
AcDbDictionary
280
     1
281
     1
  3
ADSK_XREC_LAYER_RECONCILED
360
18D1
  0
DICTIONARY
  5
18D8
330
2F4
100
AcDbDictionary
280
     1
281
     1
  3
ADSK_XREC_LAYER_RECONCILED
360
18D9
  0
DICTIONARY
  5
1BA0C5
330
1BA0C4
100
AcDbDictionary
280
     1
281
     1
  3
ADSK_XREC_LAYER_RECONCILED
360
1BA0C6
  0
DICTIONARY
  5
606CF
330
18
100
AcDbDictionary
280
     1
281
     1
  3
ACAD_SORTENTS
360
606D0
  0
DICTIONARY
  5
D
102
{ACAD_REACTORS
330
C
102
}
330
C
100
AcDbDictionary
281
     1
  3
*A1385
350
229E46
  0
RASTERVARIABLES
  5
22920C
102
{ACAD_REACTORS
330
C
102
}
330
C
100
AcDbRasterVariables
 90
        0
 70
     1
 71
     1
 72
     0
  0
DICTIONARY
  5
617
102
{ACAD_REACTORS
330
C
102
}
330
C
100
AcDbDictionary
281
     1
  3
Model
350
619
  3
ﾚｲｱｳﾄ1
350
61A
  0
DICTIONARY
  5
E
102
{ACAD_REACTORS
330
C
102
}
330
C
100
AcDbDictionary
281
     1
  3
STANDARD
350
1B
  0
DICTIONARY
  5
618
102
{ACAD_REACTORS
330
C
102
}
330
C
100
AcDbDictionary
281
     1
  0
ACDBDICTIONARYWDFLT
  5
615
102
{ACAD_REACTORS
330
C
102
}
330
C
100
AcDbDictionary
281
     1
  3
Normal
350
616
100
AcDbDictionaryWithDefault
340
616
  0
DICTIONARY
  5
18A0
102
{ACAD_REACTORS
330
C
102
}
330
C
100
AcDbDictionary
281
     1
  3
A0
350
18A1
  3
A1
350
18A2
  3
A2
350
18A3
  3
A3
350
18A4
  3
A4
350
18A5
  3
A5
350
18A6
  3
A6
350
18A7
  3
A7
350
18A8
  3
A8
350
18A9
  3
A9
350
18AA
  3
B0
350
18AB
  3
B1
350
18AC
  3
B2
350
18AD
  3
B3
350
18AE
  3
B4
350
18AF
  3
B5
350
18B0
  3
B6
350
18B1
  3
B7
350
18B2
  3
B8
350
18B3
  3
B9
350
18B4
  3
C0
350
18B5
  3
C1
350
18B6
  3
C2
350
18B7
  3
C3
350
18B8
  3
C4
350
18B9
  3
C5
350
18BA
  3
C6
350
18BB
  3
C7
350
18BC
  3
C8
350
18BD
  3
C9
350
18BE
  3
D0
350
18BF
  3
D1
350
18C0
  3
D2
350
18C1
  0
XRECORD
  5
21BCA4
102
{ACAD_REACTORS
330
C
102
}
330
C
100
AcDbXrecord
280
     1
 90
   990106
  3

 60
     0
 61
     0
 62
     1
 63
     3
 64
     0
 65
     0
 66
     0
 67
     3
 68
     1
 69
     0
 70
     0
 71
     0
 72
     0
 40
0.0
170
     0
  0
DICTIONARY
  5
6DE
102
{ACAD_REACTORS
330
C
102
}
330
C
100
AcDbDictionary
281
     1
  3
DIMASSOC
350
6DF
  3
INDEXCTL
350
18FC
  3
PROJECTNAME
350
6E0
  3
SORTENTS
350
18FB
  0
DICTIONARY
  5
22920B
102
{ACAD_REACTORS
330
C
102
}
330
C
100
AcDbDictionary
281
     1
  0
XRECORD
  5
229F20
102
{ACAD_REACTORS
330
C
102
}
330
C
100
AcDbXrecord
280
     1
  1
DWGPROPS COOKIE
  2

  3

  4

  6

  7

  8
SPAX
  9

300
=
301
=
302
=
303
=
304
=
305
=
306
=
307
=
308
=
309
=
 40
0.0
 41
2448636.244629629
 42
2456821.097984502
  1

 90
        0
  0
DICTIONARY
  5
21B111
102
{ACAD_REACTORS
330
1843
102
}
330
1843
100
AcDbDictionary
281
     1
  0
DICTIONARY
  5
1844
102
{ACAD_REACTORS
330
1843
102
}
330
1843
100
AcDbDictionary
281
     1
  0
DICTIONARY
  5
21B110
102
{ACAD_REACTORS
330
1843
102
}
330
1843
100
AcDbDictionary
281
     1
1001
ACAD
1000
<All
  0
XRECORD
  5
18CB
102
{ACAD_REACTORS
330
18CA
102
}
330
18CA
100
AcDbXrecord
280
     1
290
     1
  0
XRECORD
  5
18D1
102
{ACAD_REACTORS
330
18D0
102
}
330
18D0
100
AcDbXrecord
280
     1
290
     1
  0
XRECORD
  5
18D9
102
{ACAD_REACTORS
330
18D8
102
}
330
18D8
100
AcDbXrecord
280
     1
290
     1
  0
XRECORD
  5
1BA0C6
102
{ACAD_REACTORS
330
1BA0C5
102
}
330
1BA0C5
100
AcDbXrecord
280
     1
290
     1
  0
SORTENTSTABLE
  5
606D0
102
{ACAD_REACTORS
330
606CF
102
}
330
606CF
100
AcDbSortentsTable
330
18
331
91D75
  5
91F59
331
E44AD
  5
E44DD
331
1B9EA6
  5
1B9EAB
331
0
  5
1C232C
331
0
  5
1C2330
331
0
  5
1C2331
331
0
  5
1C2332
331
0
  5
1C2333
331
0
  5
1C2334
331
0
  5
1C2335
331
0
  5
1C2336
331
0
  5
1C2337
331
0
  5
1C2338
331
0
  5
1C2339
331
0
  5
1C233A
331
0
  5
1C233B
331
0
  5
1C233C
331
0
  5
1C233D
331
0
  5
1C233E
331
0
  5
1C233F
331
0
  5
1C2340
331
0
  5
1C2341
331
0
  5
1C2342
331
0
  5
1C2343
331
0
  5
1C2344
331
0
  5
1C2345
331
0
  5
1C2346
331
0
  5
1C2347
331
0
  5
1C2348
331
0
  5
1C2349
331
0
  5
1C234A
331
0
  5
1C234B
331
0
  5
1C234C
331
0
  5
1C234D
331
0
  5
1C234E
331
0
  5
1C234F
331
0
  5
1C2350
331
0
  5
1C2351
331
0
  5
1C2352
331
0
  5
1C2353
331
0
  5
1C2354
331
0
  5
1C2355
331
0
  5
1C2356
331
0
  5
1C2357
331
0
  5
1C2358
331
0
  5
1C2359
331
0
  5
1C235A
331
0
  5
1C235B
331
0
  5
1C235C
331
0
  5
1C235D
331
0
  5
1C235E
331
0
  5
1C235F
331
0
  5
1C2360
331
0
  5
1C2361
331
0
  5
1C2362
331
0
  5
1C2363
331
0
  5
1C2364
331
0
  5
1C2365
331
0
  5
1C2366
331
0
  5
1C2367
331
0
  5
1C2368
331
0
  5
1C2369
331
0
  5
1C236A
331
0
  5
1C236B
331
0
  5
1C236C
331
0
  5
1C236D
331
0
  5
1C236E
331
0
  5
1C236F
331
0
  5
1C2370
331
0
  5
1C2371
331
0
  5
1C2372
331
0
  5
1C2373
331
0
  5
1C2374
331
0
  5
1C2375
331
0
  5
1C2376
331
0
  5
1C2377
331
0
  5
1C2378
331
0
  5
1C2379
331
0
  5
1C237A
331
0
  5
1C237B
331
0
  5
1C237C
331
0
  5
1C237D
331
0
  5
1C237E
331
0
  5
1C237F
331
0
  5
1C2380
331
0
  5
1C2381
331
0
  5
1C2382
331
0
  5
1C2383
331
0
  5
1C2384
331
0
  5
1C2385
331
0
  5
1C2386
331
0
  5
1C2387
331
0
  5
1C2388
331
0
  5
1C2389
331
0
  5
1C238A
331
0
  5
1C238B
331
0
  5
1C238C
331
0
  5
1C238D
331
0
  5
1C238E
331
0
  5
1C238F
331
0
  5
1C2390
331
0
  5
1C2391
331
0
  5
1C2392
331
0
  5
1C2393
331
0
  5
1C2394
331
0
  5
1C2395
331
0
  5
1C2396
331
0
  5
1C2397
331
0
  5
1C2398
331
0
  5
1C2399
331
0
  5
1C239A
331
0
  5
1C239B
331
0
  5
1C239C
331
0
  5
1C239D
331
0
  5
1C239E
331
0
  5
1C239F
331
0
  5
1C23A0
331
0
  5
1C23A1
331
0
  5
1C23A2
331
0
  5
1C23A3
331
0
  5
1C23A4
331
0
  5
1C23A5
331
0
  5
1C23A6
331
0
  5
1C23A7
331
0
  5
1C23A8
331
0
  5
1C23A9
331
0
  5
1C23AA
331
0
  5
1C23AB
331
0
  5
1C23AC
331
0
  5
1C23AD
331
0
  5
1C23AE
331
0
  5
1C23AF
331
0
  5
1C23B0
331
0
  5
1C23B1
331
0
  5
1C23B2
331
0
  5
1C23B3
331
0
  5
1C23B4
331
0
  5
1C23B5
331
0
  5
1C23B6
331
0
  5
1C23B7
331
0
  5
1C23B8
331
0
  5
1C23B9
331
0
  5
1C23BA
331
0
  5
1C23BB
331
0
  5
1C23BC
331
0
  5
1C23BD
331
0
  5
1C23BE
331
0
  5
1C23BF
331
0
  5
1C23C0
331
0
  5
1C23C1
331
0
  5
1C23C2
331
0
  5
1C23C3
331
0
  5
1C23C4
331
0
  5
1C23C7
331
0
  5
1C23C8
331
0
  5
1C23C9
331
0
  5
1C23CA
331
0
  5
1C23CB
331
0
  5
1C23CC
331
0
  5
1C23CD
331
0
  5
1C23CE
331
0
  5
1C23CF
331
0
  5
1C23D0
331
0
  5
1C23D1
331
0
  5
1C23D2
331
0
  5
1C23D3
331
0
  5
1C23D4
331
0
  5
1C23D5
331
0
  5
1C23D6
331
0
  5
1C23D7
331
0
  5
1C23D8
331
0
  5
1C23D9
331
0
  5
1C23DA
331
0
  5
1C23DB
331
0
  5
1C23DC
331
0
  5
1C23DD
331
0
  5
1C23DE
331
0
  5
1C23DF
331
0
  5
1C23E0
331
0
  5
1C23E1
331
0
  5
1C23E2
331
0
  5
1C23E3
331
0
  5
1C23E4
331
0
  5
1C23E5
331
0
  5
1C23E6
331
0
  5
1C23E7
331
0
  5
1C23E8
331
0
  5
1C23E9
331
0
  5
1C23EA
331
0
  5
1C23EB
331
0
  5
1C23EC
331
0
  5
1C23ED
331
0
  5
1C23EE
331
0
  5
1C23EF
331
0
  5
1C23F0
331
0
  5
1C23F1
331
0
  5
1C23F2
331
0
  5
1C23F3
331
0
  5
1C23F4
331
0
  5
1C23F5
331
0
  5
1C23F6
331
0
  5
1C23F7
331
0
  5
1C23F8
331
0
  5
1C23F9
331
0
  5
1C23FA
331
0
  5
1C23FB
331
0
  5
1C23FC
331
0
  5
1C23FD
331
0
  5
1C23FE
331
0
  5
1C23FF
331
0
  5
1C2400
331
0
  5
1C2401
331
0
  5
1C2402
331
0
  5
1C2403
331
0
  5
1C2404
331
0
  5
1C2405
331
0
  5
1C2406
331
0
  5
1C2407
331
0
  5
1C2408
331
0
  5
1C2409
331
0
  5
1C240A
331
0
  5
1C240B
331
0
  5
1C240C
331
0
  5
1C240D
331
0
  5
1C240E
331
0
  5
1C240F
331
0
  5
1C2410
331
0
  5
1C2411
331
0
  5
1C2412
331
0
  5
1C2413
331
0
  5
1C2414
331
0
  5
1C2415
331
0
  5
1C2416
331
0
  5
1C2417
331
0
  5
1C2418
331
0
  5
1C2419
331
0
  5
1C241A
331
0
  5
1C241B
331
0
  5
1C241C
331
0
  5
1C241D
331
0
  5
1C241E
331
0
  5
1C241F
331
0
  5
1C2420
331
0
  5
1C2421
331
0
  5
1C2422
331
0
  5
1C2423
331
0
  5
1C2424
331
0
  5
1C2425
331
0
  5
1C2426
331
0
  5
1C2427
331
0
  5
1C2428
331
0
  5
1C2429
331
0
  5
1C242A
331
0
  5
1C242B
331
0
  5
1C242C
331
0
  5
1C242D
331
0
  5
1C242E
331
0
  5
1C242F
331
0
  5
1C2430
331
0
  5
1C2431
331
0
  5
1C2432
331
0
  5
1C2433
331
0
  5
1C2434
331
0
  5
1C2435
331
0
  5
1C2436
331
0
  5
1C2437
331
0
  5
1C2438
331
0
  5
1C2439
331
0
  5
1C243A
331
0
  5
1C243B
331
0
  5
1C243C
331
0
  5
1C243D
331
0
  5
1C243E
331
0
  5
1C243F
331
0
  5
1C2440
331
0
  5
1C2441
331
0
  5
1C2442
331
0
  5
1C2443
331
0
  5
1C2444
331
0
  5
1C2445
331
0
  5
1C2446
331
0
  5
1C2447
331
0
  5
1C2448
331
0
  5
1C2449
331
0
  5
1C244A
331
0
  5
1C244B
331
0
  5
1C244C
331
0
  5
1C244D
331
0
  5
1C244E
331
0
  5
1C244F
331
0
  5
1C2450
331
0
  5
1C2451
331
0
  5
1C2452
331
0
  5
1C2453
331
0
  5
1C2454
331
0
  5
1C2455
331
0
  5
1C2456
331
0
  5
1C2457
331
0
  5
1C2458
331
0
  5
1C2459
331
0
  5
1C245A
331
0
  5
1C245B
331
0
  5
1C245C
331
0
  5
1C245D
331
0
  5
1C245E
331
0
  5
1C245F
331
0
  5
1C2460
331
0
  5
1C2461
331
0
  5
1C2462
331
0
  5
1C2463
331
0
  5
1C2464
331
0
  5
1C2465
331
0
  5
1C2466
331
0
  5
1C2467
331
0
  5
1C2468
331
0
  5
1C2469
331
0
  5
1C246A
331
0
  5
1C246B
331
0
  5
1C246C
331
0
  5
1C246D
331
0
  5
1C246E
331
0
  5
1C246F
331
0
  5
1C2470
331
0
  5
1C2471
331
0
  5
1C2472
331
0
  5
1C2473
331
0
  5
1C2474
331
0
  5
1C2475
331
0
  5
1C2476
331
0
  5
1C2477
331
0
  5
1C2478
331
0
  5
1C2479
331
0
  5
1C247A
331
0
  5
1C247B
331
0
  5
1C247C
331
0
  5
1C247D
331
0
  5
1C247E
331
0
  5
1C247F
331
0
  5
1C2480
331
0
  5
1C2481
331
0
  5
1C2482
331
0
  5
1C2483
331
0
  5
1C2484
331
0
  5
1C2485
331
0
  5
1C2486
331
0
  5
1C2487
331
0
  5
1C2488
331
0
  5
1C2489
331
0
  5
1C248A
331
0
  5
1C248B
331
0
  5
1C248C
331
0
  5
1C248D
331
0
  5
1C248E
331
0
  5
1C248F
331
0
  5
1C2490
331
0
  5
1C2491
331
0
  5
1C2492
331
0
  5
1C2493
331
0
  5
1C2494
331
0
  5
1C2495
331
0
  5
1C2496
331
0
  5
1C2497
331
0
  5
1C2498
331
0
  5
1C2499
331
0
  5
1C249A
331
0
  5
1C249B
331
0
  5
1C249C
331
0
  5
1C249D
331
0
  5
1C249E
331
0
  5
1C249F
331
0
  5
1C24A0
331
0
  5
1C24A1
331
0
  5
1C24A2
331
0
  5
1C24A3
331
0
  5
1C24A4
331
0
  5
1C24A5
331
0
  5
1C24A6
331
0
  5
1C24A7
331
0
  5
1C24A8
331
0
  5
1C24A9
331
0
  5
1C24AA
331
0
  5
1C24AB
331
0
  5
1C24AC
331
0
  5
1C24AD
331
0
  5
1C24AE
331
0
  5
1C24AF
331
0
  5
1C24B0
331
0
  5
1C24B1
331
0
  5
1C24B2
331
0
  5
1C24B3
331
0
  5
1C24B4
331
0
  5
1C24B5
331
0
  5
1C24B6
331
0
  5
1C24B7
331
0
  5
1C24B8
331
0
  5
1C24B9
331
0
  5
1C24BA
331
0
  5
1C24BB
331
0
  5
1C24BC
331
0
  5
1C24BD
331
0
  5
1C24BE
331
0
  5
1C24BF
331
0
  5
1C24C0
331
0
  5
1C24C1
331
0
  5
1C24C2
331
0
  5
1C24C3
331
0
  5
1C24C4
331
0
  5
1C24C5
331
0
  5
1C24C6
331
0
  5
1C24C7
331
0
  5
1C24C8
331
0
  5
1C24C9
331
0
  5
1C24CA
331
0
  5
1C24CB
331
0
  5
1C24CC
331
0
  5
1C24CD
331
0
  5
1C24CE
331
0
  5
1C24CF
331
0
  5
1C24D0
331
0
  5
1C24D1
331
0
  5
1C24D2
331
0
  5
1C24D3
331
0
  5
1C24D4
331
0
  5
1C24D5
331
0
  5
1C24D6
331
0
  5
1C24D7
331
0
  5
1C24D8
331
0
  5
1C24D9
331
0
  5
1C24DA
331
0
  5
1C24DB
331
0
  5
1C24DC
331
0
  5
1C24DD
331
0
  5
1C24DE
331
0
  5
1C24DF
331
0
  5
1C24E0
331
0
  5
1C24E1
331
0
  5
1C24E2
331
0
  5
1C24E3
331
0
  5
1C24E4
331
0
  5
1C24E5
331
0
  5
1C24E6
331
0
  5
1C24E7
331
0
  5
1C24E8
331
0
  5
1C24E9
331
0
  5
1C24EA
331
0
  5
1C24EB
331
0
  5
1C24EC
331
0
  5
1C24ED
331
0
  5
1C24EE
331
0
  5
1C24EF
331
0
  5
1C24F0
331
0
  5
1C24F1
331
0
  5
1C24F2
331
0
  5
1C24F3
331
0
  5
1C24F4
331
0
  5
1C24F5
331
0
  5
1C24F6
331
0
  5
1C24F7
331
0
  5
1C24F8
331
0
  5
1C24F9
331
0
  5
1C24FA
331
0
  5
1C24FB
331
0
  5
1C24FC
331
0
  5
1C24FD
331
0
  5
1C24FE
331
0
  5
1C24FF
331
0
  5
1C2500
331
0
  5
1C2501
331
0
  5
1C2502
331
0
  5
1C2503
331
0
  5
1C2504
331
0
  5
1C2505
331
0
  5
1C2506
331
0
  5
1C2507
331
0
  5
1C2508
331
0
  5
1C2509
331
0
  5
1C250A
331
0
  5
1C250B
331
0
  5
1C250C
331
0
  5
1C250D
331
0
  5
1C250E
331
0
  5
1C250F
331
0
  5
1C2510
331
0
  5
1C2511
331
0
  5
1C2512
331
0
  5
1C2513
331
0
  5
1C2514
331
0
  5
1C2515
331
0
  5
1C2516
331
0
  5
1C2517
331
0
  5
1C2518
331
0
  5
1C2519
331
0
  5
1C251A
331
0
  5
1C251B
331
0
  5
1C251C
331
0
  5
1C251D
331
0
  5
1C251E
331
0
  5
1C251F
331
0
  5
1C2520
331
0
  5
1C2521
331
0
  5
1C2522
331
0
  5
1C2523
331
0
  5
1C2524
331
0
  5
1C2525
331
0
  5
1C2526
331
0
  5
1C2527
331
0
  5
1C2528
331
0
  5
1C2529
331
0
  5
1C252A
331
0
  5
1C252B
331
0
  5
1C252C
331
0
  5
1C252E
331
0
  5
1C252F
331
0
  5
1C2533
331
0
  5
1C2536
331
0
  5
1C2537
331
0
  5
1C2538
331
0
  5
1C253A
331
0
  5
1C253D
331
0
  5
1C2544
331
0
  5
1C2546
331
0
  5
1C2547
331
0
  5
1C2548
331
0
  5
1C2549
331
0
  5
1C254A
331
0
  5
1C254B
331
0
  5
1C254C
331
0
  5
1C254D
331
0
  5
1C254E
331
0
  5
1C254F
331
0
  5
1C2550
331
0
  5
1C2551
331
0
  5
1C2552
331
0
  5
1C2553
331
0
  5
1C2554
331
0
  5
1C2555
331
0
  5
1C2556
331
0
  5
1C2557
331
0
  5
1C2558
331
0
  5
1C2559
331
0
  5
1C255A
331
0
  5
1C255B
331
0
  5
1C255C
331
0
  5
1C255D
331
0
  5
1C255E
331
0
  5
1C255F
331
0
  5
1C2560
331
0
  5
1C2561
331
0
  5
1C2562
331
0
  5
1C2563
331
0
  5
1C2564
331
0
  5
1C2565
331
0
  5
1C2566
331
0
  5
1C2567
331
0
  5
1C2568
331
0
  5
1C2569
331
0
  5
1C256A
331
0
  5
1C256B
331
0
  5
1C256C
331
0
  5
1C256D
331
0
  5
1C256E
331
0
  5
1C256F
331
0
  5
1C2570
331
0
  5
1C2571
331
0
  5
1C2572
331
0
  5
1C2573
331
0
  5
1C2574
331
0
  5
1C2575
331
0
  5
1C2576
331
0
  5
1C2577
331
0
  5
1C2578
331
0
  5
1C2579
331
0
  5
1C257A
331
0
  5
1C257B
331
0
  5
1C257C
331
0
  5
1C257D
331
0
  5
1C257E
331
0
  5
1C257F
331
0
  5
1C2580
331
0
  5
1C2581
331
0
  5
1C2582
331
0
  5
1C2583
331
0
  5
1C2584
331
0
  5
1C2585
331
0
  5
1C2586
331
0
  5
1C2587
331
0
  5
1C2588
331
0
  5
1C2589
331
0
  5
1C258A
331
0
  5
1C258B
331
0
  5
1C258C
331
0
  5
1C258D
331
0
  5
1C258E
331
0
  5
1C258F
331
0
  5
1C2590
331
0
  5
1C2591
331
0
  5
1C2592
331
0
  5
1C2593
331
0
  5
1C2594
331
0
  5
1C2595
331
0
  5
1C2596
331
0
  5
1C2597
331
0
  5
1C2598
331
0
  5
1C2599
331
0
  5
1C259A
331
0
  5
1C259B
331
0
  5
1C259C
331
0
  5
1C259D
331
0
  5
1C259E
331
0
  5
1C259F
331
0
  5
1C25A0
331
0
  5
1C25A1
331
0
  5
1C25A2
331
0
  5
1C25A3
331
0
  5
1C25A4
331
0
  5
1C25A5
331
0
  5
1C25A6
331
0
  5
1C25A7
331
0
  5
1C25A8
331
0
  5
1C25A9
331
0
  5
1C25AA
331
0
  5
1C25AB
331
0
  5
1C25AC
331
0
  5
1C25AD
331
0
  5
1C25AE
331
0
  5
1C25AF
331
0
  5
1C25B0
331
0
  5
1C25B1
331
0
  5
1C25B2
331
0
  5
1C25B3
331
0
  5
1C25B4
331
0
  5
1C25B5
331
0
  5
1C25B6
331
0
  5
1C25B7
331
0
  5
1C25B8
331
0
  5
1C25B9
331
0
  5
1C25BA
331
0
  5
1C25BB
331
0
  5
1C25BC
331
0
  5
1C25BD
331
0
  5
1C25BE
331
0
  5
1C25BF
331
0
  5
1C25C0
331
0
  5
1C25C1
331
0
  5
1C25C2
331
0
  5
1C25C3
331
0
  5
1C25C4
331
0
  5
1C25C5
331
0
  5
1C25C6
331
0
  5
1C25C7
331
0
  5
1C25C8
331
0
  5
1C25C9
331
0
  5
1C25CA
331
0
  5
1C25CB
331
0
  5
1C25CC
331
0
  5
1C25CD
331
0
  5
1C25CE
331
0
  5
1C25CF
331
0
  5
1C25D0
331
0
  5
1C25D1
331
0
  5
1C25D2
331
0
  5
1C25D3
331
0
  5
1C25D4
331
0
  5
1C25D5
331
0
  5
1C25D6
331
0
  5
1C25D7
331
0
  5
1C25D8
331
0
  5
1C25D9
331
0
  5
1C25DA
331
0
  5
1C25DB
331
0
  5
1C25DC
331
0
  5
1C25DD
331
0
  5
1C25DE
331
0
  5
1C25DF
331
0
  5
1C25E0
331
0
  5
1C25E1
331
0
  5
1C25E2
331
0
  5
1C25E3
331
0
  5
1C25E4
331
0
  5
1C25E5
331
0
  5
1C25E6
331
0
  5
1C25E7
331
0
  5
1C25E8
331
0
  5
1C25E9
331
0
  5
1C25EA
331
0
  5
1C25EB
331
0
  5
1C25EC
331
0
  5
1C25ED
331
0
  5
1C25EE
331
0
  5
1C25EF
331
0
  5
1C25F0
331
0
  5
1C25F1
331
0
  5
1C25F2
331
0
  5
1C25F3
331
0
  5
1C25F4
331
0
  5
1C25F5
331
0
  5
1C25F6
331
0
  5
1C25F7
331
0
  5
1C25F8
331
0
  5
1C25F9
331
0
  5
1C25FA
331
0
  5
1C25FB
331
0
  5
1C25FC
331
0
  5
1C25FD
331
0
  5
1C25FE
331
0
  5
1C25FF
331
0
  5
1C2600
331
0
  5
1C2601
331
0
  5
1C2602
331
0
  5
1C2603
331
0
  5
1C2604
331
0
  5
1C2605
331
0
  5
1C2606
331
0
  5
1C2607
331
0
  5
1C2608
331
0
  5
1C2609
331
0
  5
1C260A
331
0
  5
1C260B
331
0
  5
1C260C
331
0
  5
1C260D
331
0
  5
1C260E
331
0
  5
1C260F
331
0
  5
1C2610
331
0
  5
1C2611
331
0
  5
1C2612
331
0
  5
1C2613
331
0
  5
1C2614
331
0
  5
1C2615
331
0
  5
1C2616
331
0
  5
1C2617
331
0
  5
1C2618
331
0
  5
1C2619
331
0
  5
1C261A
331
0
  5
1C261B
331
0
  5
1C261C
331
0
  5
1C261D
331
0
  5
1C261E
331
0
  5
1C261F
331
0
  5
1C2620
331
0
  5
1C2621
331
0
  5
1C2622
331
0
  5
1C2623
331
0
  5
1C2624
331
0
  5
1C2625
331
0
  5
1C2626
331
0
  5
1C2628
331
0
  5
1C262C
331
0
  5
1C262D
331
0
  5
1C262E
331
0
  5
1C262F
331
0
  5
1C2630
331
0
  5
1C2631
331
0
  5
1C2632
331
0
  5
1C2633
331
0
  5
1C2634
331
0
  5
1C2635
331
0
  5
1C2636
331
0
  5
1C2637
331
0
  5
1C2638
331
0
  5
1C2639
331
0
  5
1C263A
331
0
  5
1C263B
331
0
  5
1C263C
331
0
  5
1C263D
331
0
  5
1C263E
331
0
  5
1C263F
331
0
  5
1C2640
331
0
  5
1C2642
331
0
  5
1C2643
331
0
  5
1C2645
331
0
  5
1C2647
331
0
  5
1C264E
331
0
  5
1C2650
331
0
  5
1C2651
331
0
  5
1C2652
331
0
  5
1C2654
331
0
  5
1C2655
331
0
  5
1C2657
331
0
  5
1C2659
331
0
  5
1C265B
331
0
  5
1C265C
331
0
  5
1C265D
331
0
  5
1C265E
331
0
  5
1C265F
331
0
  5
1C2660
331
0
  5
1C2661
331
0
  5
1C2662
331
0
  5
1C2663
331
0
  5
1C2664
331
0
  5
1C2665
331
0
  5
1C2666
331
0
  5
1C2667
331
0
  5
1C2668
331
0
  5
1C2669
331
0
  5
1C266A
331
0
  5
1C266B
331
0
  5
1C266C
331
0
  5
1C266D
331
0
  5
1C266E
331
0
  5
1C266F
331
0
  5
1C2670
331
0
  5
1C2671
331
0
  5
1C2672
331
0
  5
1C2673
331
0
  5
1C2674
331
0
  5
1C2675
331
0
  5
1C2676
331
0
  5
1C2677
331
0
  5
1C2678
331
0
  5
1C2679
331
0
  5
1C267A
331
0
  5
1C267B
331
0
  5
1C267C
331
0
  5
1C267D
331
0
  5
1C267E
331
0
  5
1C267F
331
0
  5
1C2680
331
0
  5
1C2681
331
0
  5
1C2682
331
0
  5
1C2683
331
0
  5
1C2684
331
0
  5
1C2685
331
0
  5
1C2686
331
0
  5
1C2687
331
0
  5
1C2688
331
0
  5
1C2689
331
0
  5
1C268A
331
0
  5
1C268B
331
0
  5
1C268C
331
0
  5
1C268D
331
0
  5
1C268E
331
0
  5
1C268F
331
0
  5
1C2690
331
0
  5
1C2691
331
0
  5
1C2692
331
0
  5
1C2693
331
0
  5
1C2694
331
0
  5
1C2695
331
0
  5
1C2696
331
0
  5
1C2697
331
0
  5
1C2698
331
0
  5
1C2699
331
0
  5
1C269A
331
0
  5
1C269B
331
0
  5
1C269C
331
0
  5
1C269D
331
0
  5
1C269E
331
0
  5
1C269F
331
0
  5
1C26A0
331
0
  5
1C26A1
331
0
  5
1C26A2
331
0
  5
1C26A3
331
0
  5
1C26A4
331
0
  5
1C26A5
331
0
  5
1C26A6
331
0
  5
1C26A7
331
0
  5
1C26A8
331
0
  5
1C26A9
331
0
  5
1C26AA
331
0
  5
1C26AB
331
0
  5
1C26AC
331
0
  5
1C26AD
331
0
  5
1C26AE
331
0
  5
1C26AF
331
0
  5
1C26B0
331
0
  5
1C26B1
331
0
  5
1C26B2
331
0
  5
1C26B3
331
0
  5
1C26B4
331
0
  5
1C26B5
331
0
  5
1C26B6
331
0
  5
1C26B7
331
0
  5
1C26B8
331
0
  5
1C26B9
331
0
  5
1C26BA
331
0
  5
1C26BB
331
0
  5
1C26BC
331
0
  5
1C26BD
331
0
  5
1C26BE
331
0
  5
1C26BF
331
0
  5
1C26C0
331
0
  5
1C26C1
331
0
  5
1C26C2
331
0
  5
1C26C3
331
0
  5
1C26C4
331
0
  5
1C26C5
331
0
  5
1C26C6
331
0
  5
1C26C7
331
0
  5
1C26C8
331
0
  5
1C26C9
331
0
  5
1C26CA
331
0
  5
1C26CB
331
0
  5
1C26CC
331
0
  5
1C26CD
331
0
  5
1C26CE
331
0
  5
1C26CF
331
0
  5
1C26D0
331
0
  5
1C26D1
331
0
  5
1C26D2
331
0
  5
1C26D3
331
0
  5
1C26D4
331
0
  5
1C26D5
331
0
  5
1C26D6
331
0
  5
1C26D7
331
0
  5
1C26D8
331
0
  5
1C26D9
331
0
  5
1C26DA
331
0
  5
1C26DB
331
0
  5
1C26DC
331
0
  5
1C26DD
331
0
  5
1C26DE
331
0
  5
1C26DF
331
0
  5
1C26E0
331
0
  5
1C26E1
331
0
  5
1C26E2
331
0
  5
1C26E3
331
0
  5
1C26E4
331
0
  5
1C26E5
331
0
  5
1C26E6
331
0
  5
1C26E7
331
0
  5
1C26E8
331
0
  5
1C26E9
331
0
  5
1C26EA
331
0
  5
1C26EB
331
0
  5
1C26EC
331
0
  5
1C26ED
331
0
  5
1C26EE
331
0
  5
1C26EF
331
0
  5
1C26F0
331
0
  5
1C26F1
331
0
  5
1C26F2
331
0
  5
1C26F3
331
0
  5
1C26F4
331
0
  5
1C26F5
331
0
  5
1C26F6
331
0
  5
1C26F7
331
0
  5
1C26F8
331
0
  5
1C26F9
331
0
  5
1C26FA
331
0
  5
1C26FB
331
0
  5
1C26FC
331
0
  5
1C26FD
331
0
  5
1C26FE
331
0
  5
1C26FF
331
0
  5
1C2700
331
0
  5
1C2701
331
0
  5
1C2702
331
0
  5
1C2703
331
0
  5
1C2704
331
0
  5
1C2705
331
0
  5
1C2706
331
0
  5
1C2707
331
0
  5
1C2708
331
0
  5
1C2709
331
0
  5
1C270A
331
0
  5
1C270B
331
0
  5
1C270C
331
0
  5
1C270D
331
0
  5
1C270E
331
0
  5
1C270F
331
0
  5
1C2710
331
0
  5
1C2711
331
0
  5
1C2712
331
0
  5
1C2713
331
0
  5
1C2714
331
0
  5
1C2715
331
0
  5
1C2716
331
0
  5
1C2717
331
0
  5
1C2718
331
0
  5
1C2719
331
0
  5
1C271A
331
0
  5
1C271B
331
0
  5
1C271C
331
0
  5
1C271D
331
0
  5
1C271E
331
0
  5
1C271F
331
0
  5
1C2720
331
0
  5
1C2721
331
0
  5
1C2722
331
0
  5
1C2723
331
0
  5
1C2724
331
0
  5
1C2725
331
0
  5
1C2726
331
0
  5
1C2727
331
0
  5
1C2728
331
0
  5
1C2729
331
0
  5
1C272A
331
0
  5
1C272B
331
0
  5
1C272C
331
0
  5
1C272D
331
0
  5
1C272E
331
0
  5
1C272F
331
0
  5
1C2730
331
0
  5
1C2731
331
0
  5
1C2732
331
0
  5
1C2733
331
0
  5
1C2734
331
0
  5
1C2735
331
0
  5
1C2736
331
0
  5
1C2737
331
0
  5
1C2738
331
0
  5
1C2739
331
0
  5
1C273A
331
0
  5
1C273B
331
0
  5
1C273C
331
0
  5
1C273D
331
0
  5
1C273E
331
0
  5
1C273F
331
0
  5
1C2740
331
0
  5
1C2741
331
0
  5
1C2742
331
0
  5
1C2743
331
0
  5
1C2744
331
0
  5
1C2745
331
0
  5
1C2746
331
0
  5
1C2747
331
0
  5
1C2748
331
0
  5
1C2749
331
0
  5
1C274A
331
0
  5
1C274B
331
0
  5
1C274C
331
0
  5
1C274D
331
0
  5
1C274E
331
0
  5
1C274F
331
0
  5
1C2750
331
0
  5
1C2751
331
0
  5
1C2752
331
0
  5
1C2753
331
0
  5
1C2754
331
0
  5
1C2755
331
0
  5
1C2756
331
0
  5
1C2757
331
0
  5
1C2758
331
0
  5
1C2759
331
0
  5
1C275A
331
0
  5
1C275B
331
0
  5
1C275C
331
0
  5
1C275D
331
0
  5
1C275E
331
0
  5
1C275F
331
0
  5
1C2760
331
0
  5
1C2761
331
0
  5
1C2762
331
0
  5
1C2763
331
0
  5
1C2764
331
0
  5
1C2771
331
0
  5
1C2772
331
0
  5
1C2773
331
0
  5
1C2775
331
0
  5
1C277C
331
0
  5
1C277D
331
0
  5
1C277E
331
0
  5
1C277F
331
0
  5
1C2780
331
0
  5
1C2781
331
0
  5
1C2783
331
0
  5
1C2784
331
0
  5
1C2785
331
0
  5
1C2786
331
0
  5
1C2787
331
0
  5
1C279A
331
0
  5
1C279D
331
0
  5
1C27A4
331
0
  5
1C27A5
331
0
  5
1C27A6
331
0
  5
1C2846
331
0
  5
1C2847
331
0
  5
1C29E3
331
0
  5
1C29E4
331
0
  5
1C29E5
331
0
  5
1C29E6
331
0
  5
1C29E7
331
0
  5
1C29E8
331
0
  5
1C2C49
331
0
  5
1C2C4A
331
0
  5
1C2C4B
331
0
  5
1C2C52
331
0
  5
1C2EA8
331
0
  5
1C2F07
331
0
  5
1C2F08
331
0
  5
1C2F09
331
0
  5
1C2F0A
331
0
  5
1C2F0B
331
0
  5
1C2545
331
0
  5
1C253C
331
0
  5
1C2534
331
0
  5
1C2532
331
0
  5
1C2F0C
331
0
  5
1C2F0F
331
0
  5
1C2F10
331
0
  5
1C2F11
331
0
  5
1C2F12
331
0
  5
1C2F13
331
0
  5
1C2F14
331
0
  5
1C2F15
331
0
  5
1C2F16
331
0
  5
1C2F25
331
0
  5
1C2F26
331
0
  5
1C2F27
331
0
  5
1C2F28
331
0
  5
1C2F29
331
0
  5
1C2F2A
331
0
  5
1C2F33
331
0
  5
1C2F3C
331
0
  5
1C2F3D
331
0
  5
1C2F3E
331
0
  5
1C2F3F
331
0
  5
1C2F40
331
0
  5
1C2F41
331
0
  5
1C2F42
331
0
  5
1C2F43
331
0
  5
1C2F44
331
0
  5
1C2F45
331
0
  5
1C2F49
331
0
  5
1C2F4A
331
0
  5
1C2F4B
331
0
  5
1C2F4D
331
0
  5
1C2F4E
331
0
  5
1C2F4F
331
0
  5
1C2F50
331
0
  5
1C2F51
331
0
  5
1C2F52
331
0
  5
1C2F53
331
0
  5
1C2F54
331
0
  5
1C2F55
331
0
  5
1C2F57
331
0
  5
1C2F58
331
0
  5
1C2F5A
331
0
  5
1C2F5C
331
0
  5
1C2F60
331
0
  5
1C2F63
331
0
  5
1C2F66
331
0
  5
1C2F68
331
0
  5
1C2F6B
331
0
  5
1C2F6C
331
0
  5
1C2F6F
331
0
  5
1C2F71
331
0
  5
1C2F73
331
0
  5
1C2F74
331
0
  5
1C2F76
331
0
  5
1C2F78
331
0
  5
1C2F7A
331
0
  5
1C2F7C
331
0
  5
1C2F7D
331
0
  5
1C2F7F
331
0
  5
1C2F81
331
0
  5
1C2F82
331
0
  5
1C2F85
331
0
  5
1C2F87
331
0
  5
1C2F88
331
0
  5
1C2F89
331
0
  5
1C2F8A
331
0
  5
1C2F8D
331
0
  5
1C2F8E
331
0
  5
1C2F91
331
0
  5
1C2F92
331
0
  5
1C2F97
331
0
  5
1C2F98
331
0
  5
1C2F99
331
0
  5
1C2F9D
331
0
  5
1C2F9E
331
0
  5
1C2F9F
331
0
  5
1C2FA0
331
0
  5
1C2FA1
331
0
  5
1C2FA5
331
0
  5
1C2FA6
331
0
  5
1C2FA9
331
0
  5
1C2FAA
331
0
  5
1C2FAE
331
0
  5
1C2FAF
331
0
  5
1C2FB0
331
0
  5
1C2FB3
331
0
  5
1C2FB4
331
0
  5
1C2FB8
331
0
  5
1C2FBA
331
0
  5
1C2FBE
331
0
  5
1C2FBF
331
0
  5
1C2FC0
331
0
  5
1C2FC3
331
0
  5
1C2FC7
331
0
  5
1C2FC8
331
0
  5
1C2FC9
331
0
  5
1C2FCA
331
0
  5
1C2FCD
331
0
  5
1C2FD0
331
0
  5
1C2FD2
331
0
  5
1C2FD3
331
0
  5
1C2FD5
331
0
  5
1C2FD7
331
0
  5
1C2FDA
331
0
  5
1C2FDC
331
0
  5
1C2FDD
331
0
  5
1C2FDE
331
0
  5
1C2FE0
331
0
  5
1C2FE1
331
0
  5
1C2FE3
331
0
  5
1C2FE4
331
0
  5
1C2FE6
331
0
  5
1C2FE7
331
0
  5
1C2FE8
331
0
  5
1C2FE9
331
0
  5
1C2FED
331
0
  5
1C2FEE
331
0
  5
1C2FEF
331
0
  5
1C2FF3
331
0
  5
1C2FF4
331
0
  5
1C2FF5
331
0
  5
1C2FF6
331
0
  5
1C2FF7
331
0
  5
1C2FF8
331
0
  5
1C2FF9
331
0
  5
1C2FFA
331
0
  5
1C2FFC
331
0
  5
1C2FFE
331
0
  5
1C3001
331
0
  5
1C3002
331
0
  5
1C3003
331
0
  5
1C3004
331
0
  5
1C3005
331
0
  5
1C3006
331
0
  5
1C3007
331
0
  5
1C300A
331
0
  5
1C3011
331
0
  5
1C3012
331
0
  5
1C3019
331
0
  5
1C3022
331
0
  5
1C3027
331
0
  5
1C3028
331
0
  5
1C3029
331
0
  5
1C302A
331
0
  5
1C3036
331
0
  5
1C3037
331
0
  5
1C3038
331
0
  5
1C3039
331
0
  5
1C303A
331
0
  5
1C303B
331
0
  5
1C303C
331
0
  5
1C303D
331
0
  5
1C303F
331
0
  5
1C3058
331
0
  5
1C3059
331
0
  5
1C3064
331
0
  5
1C3065
331
0
  5
1C3067
331
0
  5
1C306A
331
0
  5
1C306B
331
0
  5
1C306C
331
0
  5
1C306D
331
0
  5
1C3082
331
0
  5
1C3085
331
0
  5
1C3086
331
0
  5
1C3087
331
0
  5
1C308A
331
0
  5
1C308B
331
0
  5
1C308C
331
0
  5
1C308D
331
0
  5
1C308E
331
0
  5
1C309B
331
0
  5
1C309C
331
0
  5
1C309E
331
0
  5
1C30AA
331
0
  5
1C30AB
331
0
  5
1C30AC
331
0
  5
1C30B3
331
0
  5
1C30B4
331
0
  5
1C30B6
331
0
  5
1C30B7
331
0
  5
1C30B8
331
0
  5
1C30BC
331
0
  5
1C30BE
331
0
  5
1C30C1
331
0
  5
1C30C2
331
0
  5
1C30C3
331
0
  5
1C30C4
331
0
  5
1C30C5
331
0
  5
1C30C6
331
0
  5
1C30C9
331
0
  5
1C30CA
331
0
  5
1C30CB
331
0
  5
1C30CC
331
0
  5
1C30CE
331
0
  5
1C30E0
331
0
  5
1C30E1
331
0
  5
1C30E2
331
0
  5
1C30E3
331
0
  5
1C30E5
331
0
  5
1C30E6
331
0
  5
1C30E7
331
0
  5
1C30E8
331
0
  5
1C30E9
331
0
  5
1C30EA
331
0
  5
1C30EB
331
0
  5
1C30ED
331
0
  5
1C30EE
331
0
  5
1C30EF
331
0
  5
1C30F0
331
0
  5
1C30F1
331
0
  5
1C30F2
331
0
  5
1C30F3
331
0
  5
1C30F4
331
0
  5
1C30F5
331
0
  5
1C310C
331
0
  5
1C310D
331
0
  5
1C310E
331
0
  5
1C310F
331
0
  5
1C3110
331
0
  5
1C3111
331
0
  5
1C3112
331
0
  5
1C3113
331
0
  5
1C3114
331
0
  5
1C3115
331
0
  5
1C3116
331
0
  5
1C3117
331
0
  5
1C3118
331
0
  5
1C3119
331
0
  5
1C311A
331
0
  5
1C311B
331
0
  5
1C311C
331
0
  5
1C311D
331
0
  5
1C311E
331
0
  5
1C311F
331
0
  5
1C3120
331
0
  5
1C3121
331
0
  5
1C3122
331
0
  5
1C3123
331
0
  5
1C3124
331
0
  5
1C3125
331
0
  5
1C3126
331
0
  5
1C3127
331
0
  5
1C3162
331
0
  5
1C3163
331
0
  5
1C3164
331
0
  5
1C3165
331
0
  5
1C3166
331
0
  5
1C3167
331
0
  5
1C3169
331
0
  5
1C316B
331
0
  5
1C316C
331
0
  5
1C316D
331
0
  5
1C316E
331
0
  5
1C316F
331
0
  5
1C3170
331
0
  5
1C3171
331
0
  5
1C3172
331
0
  5
1C3173
331
0
  5
1C3174
331
0
  5
1C3176
331
0
  5
1C3177
331
0
  5
1C3178
331
0
  5
1C3179
331
0
  5
1C317A
331
0
  5
1C317B
331
0
  5
1C317C
331
0
  5
1C317D
331
0
  5
1C317E
331
0
  5
1C317F
331
0
  5
1C3180
331
0
  5
1C3181
331
0
  5
1C3182
331
0
  5
1C8157
331
0
  5
1C8158
331
0
  5
1C8159
331
0
  5
1C815A
331
0
  5
1C815B
331
0
  5
1C815C
331
0
  5
1C815D
331
0
  5
1C815E
331
0
  5
1C815F
331
0
  5
1C8160
331
0
  5
1C8161
331
0
  5
1C8162
331
0
  5
1C8163
331
0
  5
1C8164
331
0
  5
1C8165
331
0
  5
1C8166
331
0
  5
1C8167
331
0
  5
1C8168
331
0
  5
1C8169
331
0
  5
1C816A
331
0
  5
1C816B
331
0
  5
1C816C
331
0
  5
1C816D
331
0
  5
1C816E
331
0
  5
1C816F
331
0
  5
1C8170
331
0
  5
1C8171
331
0
  5
1C8172
331
0
  5
1C8173
331
0
  5
1C8174
331
0
  5
1C8175
331
0
  5
1C8176
331
0
  5
1C8177
331
0
  5
1C8178
331
0
  5
1C8179
331
0
  5
1C817A
331
0
  5
1C817B
331
0
  5
1C817C
331
0
  5
1C817D
331
0
  5
1C817E
331
0
  5
1C817F
331
0
  5
1C8180
331
0
  5
1C8181
331
0
  5
1C8182
331
0
  5
1C8183
331
0
  5
1C8184
331
0
  5
1C8185
331
0
  5
1C8186
331
0
  5
1C8187
331
0
  5
1C8188
331
0
  5
1C8189
331
0
  5
1C818A
331
0
  5
1C81C1
331
0
  5
1C81C7
331
0
  5
1C81C8
331
0
  5
1C81C9
331
0
  5
1C81D5
331
0
  5
1C81D6
331
0
  5
1C81D7
331
0
  5
1C81D8
331
0
  5
1C81DC
331
0
  5
1C81DE
331
0
  5
1C81DF
331
0
  5
1C81E2
331
0
  5
1C81E4
331
0
  5
1C81E6
331
0
  5
1C81E8
331
0
  5
1C81E9
331
0
  5
1C81EA
331
0
  5
1C81EC
331
0
  5
1C81EF
331
0
  5
1C81F1
331
0
  5
1C81F2
331
0
  5
1C81F4
331
0
  5
1C81F7
331
0
  5
1C81F9
331
0
  5
1C81FB
331
0
  5
1C81FF
331
0
  5
1C8200
331
0
  5
1C8201
331
0
  5
1C8204
331
0
  5
1C8205
331
0
  5
1C8209
331
0
  5
1C820A
331
0
  5
1C820B
331
0
  5
1C820C
331
0
  5
1C8211
331
0
  5
1C8212
331
0
  5
1C8213
331
0
  5
1C8215
331
0
  5
1C8216
331
0
  5
1C8217
331
0
  5
1C8218
331
0
  5
1C821C
331
0
  5
1C821D
331
0
  5
1C8220
331
0
  5
1C8221
331
0
  5
1C8226
331
0
  5
1C8227
331
0
  5
1C8228
331
0
  5
1C8229
331
0
  5
1C822A
331
0
  5
1C822F
331
0
  5
1C8230
331
0
  5
1C8232
331
0
  5
1C8234
331
0
  5
1C8239
331
0
  5
1C823A
331
0
  5
1C823B
331
0
  5
1C823E
331
0
  5
1C8240
331
0
  5
1C8242
331
0
  5
1C8244
331
0
  5
1C8245
331
0
  5
1C8248
331
0
  5
1C8249
331
0
  5
1C824B
331
0
  5
1C824D
331
0
  5
1C8323
331
0
  5
1C8324
331
0
  5
1C8325
331
0
  5
1C8326
331
0
  5
1C8327
331
0
  5
1C8328
331
0
  5
1C8329
331
0
  5
1C832A
331
0
  5
1C832B
331
0
  5
1C832C
331
0
  5
1C832D
331
0
  5
1C832E
331
0
  5
1C832F
331
0
  5
1C8330
331
0
  5
1C8331
331
0
  5
1C8332
331
0
  5
1C8333
331
0
  5
1C8334
331
0
  5
1C8335
331
0
  5
1C8336
331
0
  5
1C8337
331
0
  5
1C8338
331
0
  5
1C8339
331
0
  5
1C833A
331
0
  5
1C83E8
331
0
  5
1C83E9
331
0
  5
1C83EA
331
0
  5
1C83EB
331
0
  5
1C83EC
331
0
  5
1C83ED
331
0
  5
1C83EE
331
0
  5
1C83EF
331
0
  5
1C83F0
331
0
  5
1C83F1
331
0
  5
1C83F2
331
0
  5
1C83F3
331
0
  5
1C83F4
331
0
  5
1C83F5
331
0
  5
1C83F6
331
0
  5
1C83F7
331
0
  5
1C83F9
331
0
  5
1C83FC
331
0
  5
1C83FD
331
0
  5
1C83FE
331
0
  5
1C83FF
331
0
  5
1C8400
331
0
  5
1C8401
331
0
  5
1C8402
331
0
  5
1C8403
331
0
  5
1C8404
331
0
  5
1C8405
331
0
  5
1C8406
331
0
  5
1C8407
331
0
  5
1C8408
331
0
  5
1C8844
331
0
  5
1C8845
331
0
  5
1C8846
331
0
  5
1C2535
331
0
  5
1C30EC
331
0
  5
1C2F1F
331
0
  5
1C2F20
331
0
  5
1C3168
331
0
  5
1C2F56
331
0
  5
1C3175
331
0
  5
1C316A
331
0
  5
1C2F65
331
0
  5
1C2F5E
331
0
  5
1C8CC2
331
0
  5
1C8C8D
331
0
  5
1C3014
331
0
  5
1C3013
331
0
  5
1C8CC4
331
0
  5
1C8C9E
331
0
  5
1C8CC5
331
0
  5
1C8CCB
331
0
  5
1C8CCC
331
0
  5
1C8CCD
331
0
  5
1C8D20
331
0
  5
1C8D21
331
0
  5
1C8D22
331
0
  5
1C8D24
331
0
  5
1C8D25
331
0
  5
1C8DD4
331
0
  5
1C8DD5
331
0
  5
1C8E29
331
0
  5
1C30E4
331
0
  5
1C2F17
331
0
  5
1C2F0D
331
0
  5
1C3068
331
0
  5
1C8E2A
331
0
  5
1C3015
331
0
  5
1C8E2B
331
0
  5
1C8CC0
331
0
  5
1C8CC1
331
0
  5
1C30CD
331
0
  5
1CDE11
331
0
  5
1CDE12
331
0
  5
1CDE13
331
0
  5
1CDE14
331
0
  5
1CDE15
331
0
  5
1CDE16
331
0
  5
1CDE17
331
0
  5
1CDE18
331
0
  5
1CDE19
331
0
  5
1CDE1A
331
0
  5
1CDE1B
331
0
  5
1CDE1C
331
0
  5
1CDE1D
331
0
  5
1CDE1E
331
0
  5
1CDE1F
331
0
  5
1CDE20
331
0
  5
1CDE21
331
0
  5
1CDE22
331
0
  5
1CDE23
331
0
  5
1CDE24
331
0
  5
1CDE25
331
0
  5
1CDE26
331
0
  5
1CDE27
331
0
  5
1CDE28
331
0
  5
1CDE29
331
0
  5
1CDE2A
331
0
  5
1CDE2B
331
0
  5
1CDE2C
331
0
  5
1CDE2D
331
0
  5
1CDE2E
331
0
  5
1CDE2F
331
0
  5
1CDE30
331
0
  5
1CDE31
331
0
  5
1CDE32
331
0
  5
1CDE33
331
0
  5
1CDE34
331
0
  5
1CDE35
331
0
  5
1CDE36
331
0
  5
1CDE37
331
0
  5
1CDE38
331
0
  5
1CDE39
331
0
  5
1CDE3A
331
0
  5
1CDE3B
331
0
  5
1CDE3C
331
0
  5
1CDE3D
331
0
  5
1CDE3E
331
0
  5
1CDE3F
331
0
  5
1CDE40
331
0
  5
1CDE41
331
0
  5
1CDE42
331
0
  5
1CDE43
331
0
  5
1CDE44
331
0
  5
1CDE45
331
0
  5
1CDE46
331
0
  5
1CDE47
331
0
  5
1CDE48
331
0
  5
1CDE49
331
0
  5
1CDE4A
331
0
  5
1CDE4B
331
0
  5
1CDE4C
331
0
  5
1CDE4D
331
0
  5
1CDE4E
331
0
  5
1CDE4F
331
0
  5
1CDE50
331
0
  5
1CDE51
331
0
  5
1CDE52
331
0
  5
1CDE53
331
0
  5
1CDE54
331
0
  5
1CDE55
331
0
  5
1CDE56
331
0
  5
1CDE57
331
0
  5
1CDE58
331
0
  5
1CDE59
331
0
  5
1CDE5A
331
0
  5
1CDE5B
331
0
  5
1CDE5C
331
0
  5
1CDE5D
331
0
  5
1CDE5E
331
0
  5
1CDE5F
331
0
  5
1CDE60
331
0
  5
1CDE61
331
0
  5
1CDE62
331
0
  5
1CDE63
331
0
  5
1CDE64
331
0
  5
1CDE65
331
0
  5
1CDE66
331
0
  5
1CDE67
331
0
  5
1CDE68
331
0
  5
1CDE69
331
0
  5
1CDE6A
331
0
  5
1CDE6B
331
0
  5
1CDE6C
331
0
  5
1CDE6D
331
0
  5
1CDE6E
331
0
  5
1CDE6F
331
0
  5
1CDE70
331
0
  5
1CDE71
331
0
  5
1CDE72
331
0
  5
1CDE73
331
0
  5
1CDE74
331
0
  5
1CDE75
331
0
  5
1CDE76
331
0
  5
1CDE77
331
0
  5
1CDE78
331
0
  5
1CDE79
331
0
  5
1CDE7A
331
0
  5
1CDE7B
331
0
  5
1CDE7C
331
0
  5
1CDE7D
331
0
  5
1CDE7E
331
0
  5
1CDE7F
331
0
  5
1CDE80
331
0
  5
1CDE81
331
0
  5
1CDE82
331
0
  5
1CDE83
331
0
  5
1CDE84
331
0
  5
1CDE85
331
0
  5
1CDE86
331
0
  5
1CDE87
331
0
  5
1CDE88
331
0
  5
1CDE89
331
0
  5
1CDE8A
331
0
  5
1CDE8B
331
0
  5
1CDE8C
331
0
  5
1CDE8D
331
0
  5
1CDE8E
331
0
  5
1CDE8F
331
0
  5
1CDE90
331
0
  5
1CDE91
331
0
  5
1CDE92
331
0
  5
1CDE93
331
0
  5
1CDE94
331
0
  5
1CDE95
331
0
  5
1CDE96
331
0
  5
1CDE97
331
0
  5
1CDE98
331
0
  5
1CDE99
331
0
  5
1CDE9A
331
0
  5
1CDE9B
331
0
  5
1CDE9C
331
0
  5
1CDE9D
331
0
  5
1CDE9E
331
0
  5
1CDE9F
331
0
  5
1CDEA0
331
0
  5
1CDEA1
331
0
  5
1CDEA2
331
0
  5
1CDEA3
331
0
  5
1CDEA4
331
0
  5
1CDEA5
331
0
  5
1CDEA6
331
0
  5
1CDEA7
331
0
  5
1CDEA8
331
0
  5
1CDEA9
331
0
  5
1CDEAA
331
0
  5
1CDEAB
331
0
  5
1CDEAC
331
0
  5
1CDEAD
331
0
  5
1CDEAE
331
0
  5
1CDEAF
331
0
  5
1CDEB0
331
0
  5
1CDEB1
331
0
  5
1CDEB2
331
0
  5
1CDEB3
331
0
  5
1CDEB4
331
0
  5
1CDEB5
331
0
  5
1CDEB6
331
0
  5
1CDEB7
331
0
  5
1CDEB8
331
0
  5
1CDEB9
331
0
  5
1CDEBA
331
0
  5
1CDEBB
331
0
  5
1CDEBC
331
0
  5
1CDEBD
331
0
  5
1CDEBE
331
0
  5
1CDEBF
331
0
  5
1CDEC0
331
0
  5
1CDEC1
331
0
  5
1CDEC2
331
0
  5
1CDEC3
331
0
  5
1CDEC4
331
0
  5
1CDEC5
331
0
  5
1CDEC6
331
0
  5
1CDEC7
331
0
  5
1CDEC8
331
0
  5
1CDEC9
331
0
  5
1CDECA
331
0
  5
1CDECB
331
0
  5
1CDECC
331
0
  5
1CDECD
331
0
  5
1CDECE
331
0
  5
1CDECF
331
0
  5
1CDED0
331
0
  5
1CDED1
331
0
  5
1CDED2
331
0
  5
1CDED3
331
0
  5
1CDED4
331
0
  5
1CDED5
331
0
  5
1CDED6
331
0
  5
1CDED7
331
0
  5
1CDED8
331
0
  5
1CDED9
331
0
  5
1CDEDA
331
0
  5
1CDEDB
331
0
  5
1CDEDC
331
0
  5
1CDEDD
331
0
  5
1CDEDE
331
0
  5
1CDEDF
331
0
  5
1CDEE0
331
0
  5
1CDEE1
331
0
  5
1CDEE2
331
0
  5
1CDEE3
331
0
  5
1CDEE4
331
0
  5
1CDEE5
331
0
  5
1CDEE6
331
0
  5
1CDEE7
331
0
  5
1CDEE8
331
0
  5
1CDEE9
331
0
  5
1CDEEA
331
0
  5
1CDEEB
331
0
  5
1CDEEC
331
0
  5
1CDEED
331
0
  5
1CDEEE
331
0
  5
1CDEEF
331
0
  5
1CDEF0
331
0
  5
1CDEF1
331
0
  5
1CDEF2
331
0
  5
1CDEF3
331
0
  5
1CDEF4
331
0
  5
1CDEF5
331
0
  5
1CDEF6
331
0
  5
1CDEF7
331
0
  5
1CDEF8
331
0
  5
1CDEF9
331
0
  5
1CDEFA
331
0
  5
1CDEFB
331
0
  5
1CDEFC
331
0
  5
1CDEFD
331
0
  5
1CDEFE
331
0
  5
1CDEFF
331
0
  5
1CDF00
331
0
  5
1CDF01
331
0
  5
1CDF02
331
0
  5
1CDF03
331
0
  5
1CDF04
331
0
  5
1CDF06
331
0
  5
1CDF07
331
0
  5
1CDF08
331
0
  5
1CDF09
331
0
  5
1CDF0A
331
0
  5
1CDF0B
331
0
  5
1CDF0C
331
0
  5
1CDF0D
331
0
  5
1CDF0E
331
0
  5
1CDF0F
331
0
  5
1CDF10
331
0
  5
1CDF11
331
0
  5
1CDF12
331
0
  5
1CDF13
331
0
  5
1CDF14
331
0
  5
1CDF15
331
0
  5
1CDF16
331
0
  5
1CDF17
331
0
  5
1CDF18
331
0
  5
1CDF19
331
0
  5
1CDF1A
331
0
  5
1CDF1B
331
0
  5
1CDF1C
331
0
  5
1CDF1D
331
0
  5
1CDF1E
331
0
  5
1CDF1F
331
0
  5
1CDF20
331
0
  5
1CDF21
331
0
  5
1CDF22
331
0
  5
1CDF23
331
0
  5
1CDF24
331
0
  5
1CDF25
331
0
  5
1CDF26
331
0
  5
1CDF27
331
0
  5
1CDF28
331
0
  5
1CDF29
331
0
  5
1CDF2A
331
0
  5
1CDF2B
331
0
  5
1CDF2C
331
0
  5
1CDF2D
331
0
  5
1CDF2E
331
0
  5
1CDF2F
331
0
  5
1CDF30
331
0
  5
1CDF31
331
0
  5
1CDF32
331
0
  5
1CDF33
331
0
  5
1CDF34
331
0
  5
1CDF35
331
0
  5
1CDF36
331
0
  5
1CDF37
331
0
  5
1CDF38
331
0
  5
1CDF39
331
0
  5
1CDF3A
331
0
  5
1CDF3B
331
0
  5
1CDF3C
331
0
  5
1CDF3D
331
0
  5
1CDF3E
331
0
  5
1CDF3F
331
0
  5
1CDF40
331
0
  5
1CDF41
331
0
  5
1CDF42
331
0
  5
1CDF43
331
0
  5
1CDF44
331
0
  5
1CDF45
331
0
  5
1CDF46
331
0
  5
1CDF47
331
0
  5
1CDF48
331
0
  5
1CDF49
331
0
  5
1CDF4A
331
0
  5
1CDF4B
331
0
  5
1CDF4C
331
0
  5
1CDF4D
331
0
  5
1CDF4E
331
0
  5
1CDF4F
331
0
  5
1CDF50
331
0
  5
1CDF51
331
0
  5
1CDF52
331
0
  5
1CDF53
331
0
  5
1CDF54
331
0
  5
1CDF55
331
0
  5
1CDF56
331
0
  5
1CDF57
331
0
  5
1CDF58
331
0
  5
1CDF59
331
0
  5
1CDF5A
331
0
  5
1CDF5B
331
0
  5
1CDF5C
331
0
  5
1CDF5D
331
0
  5
1CDF5E
331
0
  5
1CDF5F
331
0
  5
1CDF60
331
0
  5
1CDF61
331
0
  5
1CDF62
331
0
  5
1CDF63
331
0
  5
1CDF64
331
0
  5
1CDF65
331
0
  5
1CDF66
331
0
  5
1CDF67
331
0
  5
1CDF68
331
0
  5
1CDF69
331
0
  5
1CDF6A
331
0
  5
1CDF6B
331
0
  5
1CDF6C
331
0
  5
1CDF6D
331
0
  5
1CDF6E
331
0
  5
1CDF6F
331
0
  5
1CDF70
331
0
  5
1CDF71
331
0
  5
1CDF72
331
0
  5
1CDF73
331
0
  5
1CDF74
331
0
  5
1CDF75
331
0
  5
1CDF76
331
0
  5
1CDF77
331
0
  5
1CDF78
331
0
  5
1CDF79
331
0
  5
1CDF7A
331
0
  5
1CDF7B
331
0
  5
1CDF7C
331
0
  5
1CDF7D
331
0
  5
1CDF7E
331
0
  5
1CDF7F
331
0
  5
1CDF80
331
0
  5
1CDF81
331
0
  5
1CDF82
331
0
  5
1CDF83
331
0
  5
1CDF84
331
0
  5
1CDF85
331
0
  5
1CDF86
331
0
  5
1CDF87
331
0
  5
1CDF88
331
0
  5
1CDF89
331
0
  5
1CDF8A
331
0
  5
1CDF8B
331
0
  5
1CDF8C
331
0
  5
1CDF8D
331
0
  5
1CDF8E
331
0
  5
1CDF8F
331
0
  5
1CDF90
331
0
  5
1CDF91
331
0
  5
1CDF92
331
0
  5
1CDF93
331
0
  5
1CDF94
331
0
  5
1CDF95
331
0
  5
1CDF96
331
0
  5
1CDF97
331
0
  5
1CDF98
331
0
  5
1CDF99
331
0
  5
1CDF9A
331
0
  5
1CDF9B
331
0
  5
1CDF9C
331
0
  5
1CDF9D
331
0
  5
1CDF9E
331
0
  5
1CDF9F
331
0
  5
1CDFA0
331
0
  5
1CDFA1
331
0
  5
1CDFA2
331
0
  5
1CDFA3
331
0
  5
1CDFA4
331
0
  5
1CDFA5
331
0
  5
1CDFA6
331
0
  5
1CDFA7
331
0
  5
1CDFA8
331
0
  5
1CDFA9
331
0
  5
1CDFAA
331
0
  5
1CDFAB
331
0
  5
1CDFAC
331
0
  5
1CDFAD
331
0
  5
1CDFAE
331
0
  5
1CDFAF
331
0
  5
1CDFB0
331
0
  5
1CDFB1
331
0
  5
1CDFB2
331
0
  5
1CDFB3
331
0
  5
1CDFB4
331
0
  5
1CDFB5
331
0
  5
1CDFB6
331
0
  5
1CDFB7
331
0
  5
1CDFB8
331
0
  5
1CDFB9
331
0
  5
1CDFBA
331
0
  5
1CDFBB
331
0
  5
1CDFBC
331
0
  5
1CDFBD
331
0
  5
1CDFBE
331
0
  5
1CDFBF
331
0
  5
1CDFC0
331
0
  5
1CDFC1
331
0
  5
1CDFC2
331
0
  5
1CDFC3
331
0
  5
1CDFC4
331
0
  5
1CDFC5
331
0
  5
1CDFC6
331
0
  5
1CDFC7
331
0
  5
1CDFC8
331
0
  5
1CDFC9
331
0
  5
1CDFCA
331
0
  5
1CDFCB
331
0
  5
1CDFCC
331
0
  5
1CDFCD
331
0
  5
1CDFCE
331
0
  5
1CDFCF
331
0
  5
1CDFD0
331
0
  5
1CDFD1
331
0
  5
1CDFD2
331
0
  5
1CDFD3
331
0
  5
1CDFD4
331
0
  5
1CDFD5
331
0
  5
1CDFD6
331
0
  5
1CDFD7
331
0
  5
1CDFD8
331
0
  5
1CDFD9
331
0
  5
1CDFDA
331
0
  5
1CDFDB
331
0
  5
1CDFDC
331
0
  5
1CDFDD
331
0
  5
1CDFDE
331
0
  5
1CDFDF
331
0
  5
1CDFE0
331
0
  5
1CDFE1
331
0
  5
1CDFE2
331
0
  5
1CDFE3
331
0
  5
1CDFE4
331
0
  5
1CDFE5
331
0
  5
1CDFE6
331
0
  5
1CDFE7
331
0
  5
1CDFE8
331
0
  5
1CDFE9
331
0
  5
1CDFEA
331
0
  5
1CDFEB
331
0
  5
1CDFEC
331
0
  5
1CDFED
331
0
  5
1CDFEE
331
0
  5
1CDFEF
331
0
  5
1CDFF0
331
0
  5
1CDFF1
331
0
  5
1CDFF2
331
0
  5
1CDFF3
331
0
  5
1CDFF4
331
0
  5
1CDFF5
331
0
  5
1CDFF6
331
0
  5
1CDFF7
331
0
  5
1CDFF8
331
0
  5
1CDFF9
331
0
  5
1CDFFA
331
0
  5
1CDFFB
331
0
  5
1CDFFC
331
0
  5
1CDFFD
331
0
  5
1CDFFE
331
0
  5
1CDFFF
331
0
  5
1CE000
331
0
  5
1CE001
331
0
  5
1CE002
331
0
  5
1CE003
331
0
  5
1CE004
331
0
  5
1CE005
331
0
  5
1CE006
331
0
  5
1CE007
331
0
  5
1CE008
331
0
  5
1CE009
331
0
  5
1CE00A
331
0
  5
1CE00B
331
0
  5
1CE00C
331
0
  5
1CE00D
331
0
  5
1CE00E
331
0
  5
1CE00F
331
0
  5
1CE010
331
0
  5
1CE011
331
0
  5
1CE012
331
0
  5
1CE013
331
0
  5
1CE014
331
0
  5
1CE015
331
0
  5
1CE016
331
0
  5
1CE017
331
0
  5
1CE018
331
0
  5
1CE019
331
0
  5
1CE01A
331
0
  5
1CE01B
331
0
  5
1CE01C
331
0
  5
1CE01D
331
0
  5
1CE01E
331
0
  5
1CE01F
331
0
  5
1CE020
331
0
  5
1CE021
331
0
  5
1CE022
331
0
  5
1CE023
331
0
  5
1CE024
331
0
  5
1CE025
331
0
  5
1CE026
331
0
  5
1CE027
331
0
  5
1CE028
331
0
  5
1CE029
331
0
  5
1CE02A
331
0
  5
1CE02B
331
0
  5
1CE02C
331
0
  5
1CE02D
331
0
  5
1CE02E
331
0
  5
1CE02F
331
0
  5
1CE030
331
0
  5
1CE031
331
0
  5
1CE032
331
0
  5
1CE033
331
0
  5
1CE034
331
0
  5
1CE035
331
0
  5
1CE036
331
0
  5
1CE037
331
0
  5
1CE038
331
0
  5
1CE039
331
0
  5
1CE03A
331
0
  5
1CE03B
331
0
  5
1CE03C
331
0
  5
1CE03D
331
0
  5
1CE03E
331
0
  5
1CE03F
331
0
  5
1CE040
331
0
  5
1CE041
331
0
  5
1CE042
331
0
  5
1CE043
331
0
  5
1CE044
331
0
  5
1CE045
331
0
  5
1CE046
331
0
  5
1CE047
331
0
  5
1CE048
331
0
  5
1CE049
331
0
  5
1CE04A
331
0
  5
1CE04B
331
0
  5
1CE04C
331
0
  5
1CE04D
331
0
  5
1CE04E
331
0
  5
1CE125
331
0
  5
1CE146
331
0
  5
1CE155
331
0
  5
1CE1B2
331
0
  5
1CE1B3
331
0
  5
1CE1B4
331
0
  5
1CE24F
331
0
  5
1CE26E
331
0
  5
1CE28D
331
0
  5
1CE28E
331
0
  5
1CE360
331
0
  5
1CE361
331
0
  5
1D2085
331
0
  5
1D2086
331
0
  5
1D2087
331
0
  5
1D2088
331
0
  5
1D2089
331
0
  5
1D208A
331
0
  5
1D208B
331
0
  5
1D208C
331
0
  5
1D208D
331
0
  5
1D208E
331
0
  5
1D208F
331
0
  5
1D2090
331
0
  5
1D2091
331
0
  5
1D2092
331
0
  5
1D2093
331
0
  5
1D2097
331
0
  5
1D2098
331
0
  5
1D47D2
331
0
  5
1D47D3
331
0
  5
1D47D4
331
0
  5
1D47D5
331
0
  5
1D47DB
331
0
  5
1D47DF
331
0
  5
1D47E0
331
0
  5
1D47E4
331
0
  5
1D47E8
331
0
  5
1D47E9
331
0
  5
1D47EA
331
0
  5
1D47EE
331
0
  5
1D47F4
331
0
  5
1D47F8
331
0
  5
1D47FC
331
0
  5
1D4803
331
0
  5
1D4807
331
0
  5
1D480B
331
0
  5
1D4811
331
0
  5
1D4812
331
0
  5
1D4813
331
0
  5
1D4814
331
0
  5
1D4815
331
0
  5
1D4816
331
0
  5
1D481A
331
0
  5
1D481B
331
0
  5
1D481C
331
0
  5
1D4820
331
0
  5
1D4821
331
0
  5
1D4822
331
0
  5
1D4826
331
0
  5
1D4827
331
0
  5
1D4828
331
0
  5
1D482C
331
0
  5
1D482D
331
0
  5
1D482E
331
0
  5
1D4832
331
0
  5
1D4836
331
0
  5
1D483A
331
0
  5
1D483E
331
0
  5
1D4842
331
0
  5
1D4846
331
0
  5
1D484A
331
0
  5
1D484E
331
0
  5
1D4852
331
0
  5
1D4856
331
0
  5
1D4857
331
0
  5
1D4858
331
0
  5
1D4859
331
0
  5
1D485A
331
0
  5
1D485B
331
0
  5
1D485C
331
0
  5
1D485D
331
0
  5
1D485E
331
0
  5
1D485F
331
0
  5
1D4860
331
0
  5
1D4861
331
0
  5
1D4862
331
0
  5
1D4863
331
0
  5
1D4864
331
0
  5
1D4865
331
0
  5
1D4866
331
0
  5
1D4867
331
0
  5
1D4868
331
0
  5
1D4869
331
0
  5
1D486A
331
0
  5
1D486B
331
0
  5
1D486F
331
0
  5
1D4873
331
0
  5
1D4874
331
0
  5
1D4878
331
0
  5
1D4879
331
0
  5
1D487A
331
0
  5
1D487B
331
0
  5
1D487C
331
0
  5
1D487D
331
0
  5
1D487E
331
0
  5
1D487F
331
0
  5
1D4885
331
0
  5
1D4889
331
0
  5
1D488A
331
0
  5
1D488E
331
0
  5
1D4892
331
0
  5
1D4893
331
0
  5
1D4894
331
0
  5
1D4898
331
0
  5
1D489E
331
0
  5
1D48A2
331
0
  5
1D48A6
331
0
  5
1D48A7
331
0
  5
1D48A8
331
0
  5
1D48A9
331
0
  5
1D48AA
331
0
  5
1D48AE
331
0
  5
1D48AF
331
0
  5
1D48B0
331
0
  5
1D48B4
331
0
  5
1D48B5
331
0
  5
1D48B6
331
0
  5
1D48BA
331
0
  5
1D48BB
331
0
  5
1D48BC
331
0
  5
1D48C0
331
0
  5
1D48C1
331
0
  5
1D48C2
331
0
  5
1D48C3
331
0
  5
1D48C9
331
0
  5
1D48CA
331
0
  5
1D48CB
331
0
  5
1D48D1
331
0
  5
1D48D2
331
0
  5
1D48D3
331
0
  5
1D48D4
331
0
  5
1D48D5
331
0
  5
1D48D6
331
0
  5
1D48D7
331
0
  5
1D48D8
331
0
  5
1D48DE
331
0
  5
1D48DF
331
0
  5
1D48E0
331
0
  5
1D48E1
331
0
  5
1D48E2
331
0
  5
1D48E3
331
0
  5
1D48E4
331
0
  5
1D48E5
331
0
  5
1D48E6
331
0
  5
1D48E7
331
0
  5
1D48E8
331
0
  5
1D48E9
331
0
  5
1D48EA
331
0
  5
1D48EB
331
0
  5
1D48EC
331
0
  5
1D48ED
331
0
  5
1D48EE
331
0
  5
1D48EF
331
0
  5
1D48F0
331
0
  5
1D48F1
331
0
  5
1D48F2
331
0
  5
1D48F3
331
0
  5
1D48F4
331
0
  5
1D48F5
331
0
  5
1D48F6
331
0
  5
1D48F7
331
0
  5
1D48F8
331
0
  5
1D48F9
331
0
  5
1D4B77
331
0
  5
1D4B78
331
0
  5
1D4B79
331
0
  5
1E5753
331
0
  5
1E5758
331
0
  5
1E5759
331
0
  5
1E575A
331
0
  5
1E57C3
331
0
  5
1E58D2
331
0
  5
1E58D3
331
0
  5
1E58D4
331
0
  5
1E58D5
  0
GROUP
  5
229E46
102
{ACAD_REACTORS
330
D
102
}
330
D
100
AcDbGroup
300

 70
     1
 71
     1
340
2295AB
340
2295AF
340
2295B3
340
2295B7
340
2295BB
340
2295BF
340
2295C3
340
2295C7
340
2295CB
340
2295CF
340
2295D3
340
2295D4
340
2295D5
340
2295D6
340
2295D7
340
2295D8
340
2295D9
340
2295DA
340
2295DB
340
2295DC
340
2295DD
340
2295DE
340
2295DF
340
2295E0
340
2295E1
340
2295E2
340
2295E3
340
2295E4
340
2295E5
340
2295E6
340
2295E7
340
2295E8
340
2295EC
340
2295F0
340
2295F1
340
2295F5
340
2295F6
340
2295F7
340
2295F8
340
2295F9
340
2295FA
340
2295FB
340
2295FC
340
229602
340
229606
340
229607
340
22960B
340
22960F
340
229610
340
229611
340
229615
340
22961B
340
22961F
340
229623
340
22962A
340
22962E
340
229632
340
229638
340
229639
340
22963A
340
22963B
340
22963C
340
22963D
340
229641
340
229642
340
229643
340
229647
340
229648
340
229649
340
22964D
340
22964E
340
22964F
340
229653
340
229654
340
229655
340
229659
340
22965D
340
229661
340
229665
340
229669
340
22966D
340
229671
340
229675
340
229679
340
22967D
340
22967E
340
22967F
340
229680
340
229681
340
229682
340
229683
340
229684
340
229685
340
229686
340
229687
340
229688
340
229689
340
22968A
340
22968B
340
22968C
340
22968D
340
22968E
340
22968F
340
229690
340
229691
340
229692
340
229696
340
22969A
340
22969B
340
22969F
340
2296A0
340
2296A1
340
2296A2
340
2296A3
340
2296A4
340
2296A5
340
2296A6
340
2296AC
340
2296B0
340
2296B1
340
2296B5
340
2296B9
340
2296BA
340
2296BB
340
2296BF
340
2296C5
340
2296C9
340
2296CD
340
2296CE
340
2296CF
340
2296D0
340
2296D1
340
2296D5
340
2296D6
340
2296D7
340
2296DB
340
2296DC
340
2296DD
340
2296E1
340
2296E2
340
2296E3
340
2296E7
340
2296E8
340
2296E9
340
2296EA
  0
LAYOUT
  5
619
102
{ACAD_REACTORS
330
617
102
}
330
617
100
AcDbPlotSettings
  1

  2
JUST PDF 2
  4
A4
  6

 40
3.174999952316284
 41
3.174999952316284
 42
3.175003051757812
 43
3.17498779296875
 44
209.8886566162109
 45
297.0530090332031
 46
14.27171685847861
 47
9.855175046765908
 48
29220.48553540976
 49
-6781.431542054412
140
29570.47597520012
141
-6239.446199665639
142
1.0
143
2.0
 70
  3748
 72
     1
 73
     0
 74
     4
  7
spax form.ctb
 75
     0
147
0.5362887889336797
148
-29220.48553540976
149
6781.431542054412
100
AcDbLayout
  1
Model
 70
     1
 71
     0
 10
0.0
 20
0.0
 11
12.0
 21
9.0
 12
0.0
 22
0.0
 32
0.0
 14
29605.26928886725
 24
-8092.282886704606
 34
0.0
 15
29693.26928886725
 25
-8015.08972534137
 35
0.0
146
0.0
 13
0.0
 23
0.0
 33
0.0
 16
1.0
 26
0.0
 36
0.0
 17
0.0
 27
1.0
 37
0.0
 76
     0
330
18
331
186E
1001
ACAD_PSEXT
1000
JUST PDF 2
1000
JUST PDF 2
1000
JUST PDF 2 Port:
1000

1070
     0
  0
LAYOUT
  5
61A
102
{ACAD_REACTORS
330
617
102
}
330
617
100
AcDbPlotSettings
  1

  2
Canon LASER SHOT LBP-750
  4

  6

 40
0.0
 41
0.0
 42
0.0
 43
0.0
 44
0.0
 45
0.0
 46
0.0
 47
0.0
 48
0.0
 49
0.0
140
0.0
141
0.0
142
1.0
143
1.0
 70
   688
 72
     0
 73
     0
 74
     5
  7
spax form.ctb
 75
    16
147
1.0
148
0.0
149
0.0
100
AcDbLayout
  1
ﾚｲｱｳﾄ1
 70
     0
 71
     1
 10
0.0
 20
0.0
 11
12.0
 21
9.0
 12
0.0
 22
0.0
 32
0.0
 14
1.000000000000000E+20
 24
1.000000000000000E+20
 34
1.000000000000000E+20
 15
-1.000000000000000E+20
 25
-1.000000000000000E+20
 35
-1.000000000000000E+20
146
0.0
 13
0.0
 23
0.0
 33
0.0
 16
1.0
 26
0.0
 36
0.0
 17
0.0
 27
1.0
 37
0.0
 76
     0
330
15
  0
MLINESTYLE
  5
1B
102
{ACAD_REACTORS
330
E
102
}
330
E
100
AcDbMlineStyle
  2
STANDARD
 70
     0
  3

 62
     0
 51
90.0
 52
90.0
 71
     2
 49
0.5
 62
   256
  6
BYLAYER
 49
-0.5
 62
   256
  6
BYLAYER
  0
ACDBPLACEHOLDER
  5
616
102
{ACAD_REACTORS
330
615
102
}
330
615
  0
SCALE
  5
18A1
102
{ACAD_REACTORS
330
18A0
102
}
330
18A0
100
AcDbScale
 70
     0
300
1:1
140
1.0
141
1.0
290
     1
1001
ACAD
1000
AcRTDxfName
1000
SCALE
1000
AcRTDxfName
1000
SCALE
1000
AcRTDxfName
1000
SCALE
1000
AcRTDxfName
1000
SCALE
1000
AcRTDxfName
1000
SCALE
1000
AcRTDxfName
1000
SCALE
1000
AcRTDxfName
1000
SCALE
1000
AcRTDxfName
1000
SCALE
1000
AcRTDxfName
1000
SCALE
1000
AcRTDxfName
1000
SCALE
1000
AcRTDxfName
1000
SCALE
1000
AcRTDxfName
1000
SCALE
1000
AcRTDxfName
1000
SCALE
1000
AcRTDxfName
1000
SCALE
1000
AcRTDxfName
1000
SCALE
1000
AcRTDxfName
1000
SCALE
1000
AcRTDxfName
1000
SCALE
1000
AcRTDxfName
1000
SCALE
1000
AcRTDxfName
1000
SCALE
1000
AcRTDxfName
1000
SCALE
1000
AcRTDxfName
1000
SCALE
1000
AcRTDxfName
1000
SCALE
1000
AcRTDxfName
1000
SCALE
1000
AcRTDxfName
1000
SCALE
1000
AcRTDxfName
1000
SCALE
1000
AcRTDxfName
1000
SCALE
1000
AcRTDxfName
1000
SCALE
1000
AcRTDxfName
1000
SCALE
1000
AcRTDxfName
1000
SCALE
1000
AcRTDxfName
1000
SCALE
1000
AcRTDxfName
1000
SCALE
1000
AcRTDxfName
1000
SCALE
1000
AcRTDxfName
1000
SCALE
1000
AcRTDxfName
1000
SCALE
1000
AcRTDxfName
1000
SCALE
1000
AcRTDxfName
1000
SCALE
1000
AcRTDxfName
1000
SCALE
1000
AcRTDxfName
1000
SCALE
1000
AcRTDxfName
1000
SCALE
1000
AcRTDxfName
1000
SCALE
1000
AcRTDxfName
1000
SCALE
1000
AcRTDxfName
1000
SCALE
1000
AcRTDxfName
1000
SCALE
1000
AcRTDxfName
1000
SCALE
1000
AcRTDxfName
1000
SCALE
1000
AcRTDxfName
1000
SCALE
1000
AcRTDxfName
1000
SCALE
1000
AcRTDxfName
1000
SCALE
1000
AcRTDxfName
1000
SCALE
1000
AcRTDxfName
1000
SCALE
1000
AcRTDxfName
1000
SCALE
1000
AcRTDxfName
1000
SCALE
1000
AcRTDxfName
1000
SCALE
1000
AcRTDxfName
1000
SCALE
1000
AcRTDxfName
1000
SCALE
1000
AcRTDxfName
1000
SCALE
1000
AcRTDxfName
1000
SCALE
1000
AcRTDxfName
1000
SCALE
1000
AcRTDxfName
1000
SCALE
1000
AcRTDxfName
1000
SCALE
1000
AcRTDxfName
1000
SCALE
1000
AcRTDxfName
1000
SCALE
1000
AcRTDxfName
1000
SCALE
1000
AcRTDxfName
1000
SCALE
1000
AcRTDxfName
1000
SCALE
1000
AcRTDxfName
1000
SCALE
1000
AcRTDxfName
1000
SCALE
1000
AcRTDxfName
1000
SCALE
1000
AcRTDxfName
1000
SCALE
1000
AcRTDxfName
1000
SCALE
1000
AcRTDxfName
1000
SCALE
1000
AcRTDxfName
1000
SCALE
1000
AcRTDxfName
1000
SCALE
1000
AcRTDxfName
1000
SCALE
1000
AcRTDxfName
1000
SCALE
1000
AcRTDxfName
1000
SCALE
1000
AcRTDxfName
1000
SCALE
1000
AcRTDxfName
1000
SCALE
1000
AcRTDxfName
1000
SCALE
1000
AcRTDxfName
1000
SCALE
1000
AcRTDxfName
1000
SCALE
1000
AcRTDxfName
1000
SCALE
1000
AcRTDxfName
1000
SCALE
1000
AcRTDxfName
1000
SCALE
1000
AcRTDxfName
1000
SCALE
1000
AcRTDxfName
1000
SCALE
1000
AcRTDxfName
1000
SCALE
1000
AcRTDxfName
1000
SCALE
1000
AcRTDxfName
1000
SCALE
1000
AcRTDxfName
1000
SCALE
1000
AcRTDxfName
1000
SCALE
1000
AcRTDxfName
1000
SCALE
1000
AcRTDxfName
1000
SCALE
1000
AcRTDxfName
1000
SCALE
1000
AcRTDxfName
1000
SCALE
1000
AcRTDxfName
1000
SCALE
1000
AcRTDxfName
1000
SCALE
1000
AcRTDxfName
1000
SCALE
1000
AcRTDxfName
1000
SCALE
1000
AcRTDxfName
1000
SCALE
1000
AcRTDxfName
1000
SCALE
1000
AcRTDxfName
1000
SCALE
1000
AcRTDxfName
1000
SCALE
1000
AcRTDxfName
1000
SCALE
1000
AcRTDxfName
1000
SCALE
1000
AcRTDxfName
1000
SCALE
1000
AcRTDxfName
1000
SCALE
1000
AcRTDxfName
1000
SCALE
1000
AcRTDxfName
1000
SCALE
1000
AcRTDxfName
1000
SCALE
1000
AcRTDxfName
1000
SCALE
1000
AcRTDxfName
1000
SCALE
1000
AcRTDxfName
1000
SCALE
1000
AcRTDxfName
1000
SCALE
1000
AcRTDxfName
1000
SCALE
1000
AcRTDxfName
1000
SCALE
1000
AcRTDxfName
1000
SCALE
1000
AcRTDxfName
1000
SCALE
1000
AcRTDxfName
1000
SCALE
1000
AcRTDxfName
1000
SCALE
1000
AcRTDxfName
1000
SCALE
1000
AcRTDxfName
1000
SCALE
1000
AcRTDxfName
1000
SCALE
1000
AcRTDxfName
1000
SCALE
1000
AcRTDxfName
1000
SCALE
1000
AcRTDxfName
1000
SCALE
1000
AcRTDxfName
1000
SCALE
1000
AcRTDxfName
1000
SCALE
1000
AcRTDxfName
1000
SCALE
1000
AcRTDxfName
1000
SCALE
1000
AcRTDxfName
1000
SCALE
1000
AcRTDxfName
1000
SCALE
1000
AcRTDxfName
1000
SCALE
1000
AcRTDxfName
1000
SCALE
1000
AcRTDxfName
1000
SCALE
1000
AcRTDxfName
1000
SCALE
1000
AcRTDxfName
1000
SCALE
1000
AcRTDxfName
1000
SCALE
1000
AcRTDxfName
1000
SCALE
1000
AcRTDxfName
1000
SCALE
1000
AcRTDxfName
1000
SCALE
1000
AcRTDxfName
1000
SCALE
1000
AcRTDxfName
1000
SCALE
1000
AcRTDxfName
1000
SCALE
1000
AcRTDxfName
1000
SCALE
1000
AcRTDxfName
1000
SCALE
1000
AcRTDxfName
1000
SCALE
1000
AcRTDxfName
1000
SCALE
1000
AcRTDxfName
1000
SCALE
1000
AcRTDxfName
1000
SCALE
1000
AcRTDxfName
1000
SCALE
1000
AcRTDxfName
1000
SCALE
1000
AcRTDxfName
1000
SCALE
1000
AcRTDxfName
1000
SCALE
1000
AcRTDxfName
1000
SCALE
1000
AcRTDxfName
1000
SCALE
  0
SCALE
  5
18A2
102
{ACAD_REACTORS
330
18A0
102
}
330
18A0
100
AcDbScale
 70
     0
300
1:2
140
1.0
141
2.0
290
     0
1001
ACAD
1000
AcRTDxfName
1000
SCALE
1000
AcRTDxfName
1000
SCALE
1000
AcRTDxfName
1000
SCALE
1000
AcRTDxfName
1000
SCALE
1000
AcRTDxfName
1000
SCALE
1000
AcRTDxfName
1000
SCALE
1000
AcRTDxfName
1000
SCALE
1000
AcRTDxfName
1000
SCALE
1000
AcRTDxfName
1000
SCALE
1000
AcRTDxfName
1000
SCALE
1000
AcRTDxfName
1000
SCALE
1000
AcRTDxfName
1000
SCALE
1000
AcRTDxfName
1000
SCALE
1000
AcRTDxfName
1000
SCALE
1000
AcRTDxfName
1000
SCALE
1000
AcRTDxfName
1000
SCALE
1000
AcRTDxfName
1000
SCALE
1000
AcRTDxfName
1000
SCALE
1000
AcRTDxfName
1000
SCALE
1000
AcRTDxfName
1000
SCALE
1000
AcRTDxfName
1000
SCALE
1000
AcRTDxfName
1000
SCALE
1000
AcRTDxfName
1000
SCALE
1000
AcRTDxfName
1000
SCALE
1000
AcRTDxfName
1000
SCALE
1000
AcRTDxfName
1000
SCALE
1000
AcRTDxfName
1000
SCALE
1000
AcRTDxfName
1000
SCALE
1000
AcRTDxfName
1000
SCALE
1000
AcRTDxfName
1000
SCALE
1000
AcRTDxfName
1000
SCALE
1000
AcRTDxfName
1000
SCALE
1000
AcRTDxfName
1000
SCALE
1000
AcRTDxfName
1000
SCALE
1000
AcRTDxfName
1000
SCALE
1000
AcRTDxfName
1000
SCALE
1000
AcRTDxfName
1000
SCALE
1000
AcRTDxfName
1000
SCALE
1000
AcRTDxfName
1000
SCALE
1000
AcRTDxfName
1000
SCALE
1000
AcRTDxfName
1000
SCALE
1000
AcRTDxfName
1000
SCALE
1000
AcRTDxfName
1000
SCALE
1000
AcRTDxfName
1000
SCALE
1000
AcRTDxfName
1000
SCALE
1000
AcRTDxfName
1000
SCALE
1000
AcRTDxfName
1000
SCALE
1000
AcRTDxfName
1000
SCALE
1000
AcRTDxfName
1000
SCALE
1000
AcRTDxfName
1000
SCALE
1000
AcRTDxfName
1000
SCALE
1000
AcRTDxfName
1000
SCALE
1000
AcRTDxfName
1000
SCALE
1000
AcRTDxfName
1000
SCALE
1000
AcRTDxfName
1000
SCALE
1000
AcRTDxfName
1000
SCALE
1000
AcRTDxfName
1000
SCALE
1000
AcRTDxfName
1000
SCALE
1000
AcRTDxfName
1000
SCALE
1000
AcRTDxfName
1000
SCALE
1000
AcRTDxfName
1000
SCALE
1000
AcRTDxfName
1000
SCALE
1000
AcRTDxfName
1000
SCALE
1000
AcRTDxfName
1000
SCALE
1000
AcRTDxfName
1000
SCALE
1000
AcRTDxfName
1000
SCALE
1000
AcRTDxfName
1000
SCALE
1000
AcRTDxfName
1000
SCALE
1000
AcRTDxfName
1000
SCALE
1000
AcRTDxfName
1000
SCALE
1000
AcRTDxfName
1000
SCALE
1000
AcRTDxfName
1000
SCALE
1000
AcRTDxfName
1000
SCALE
1000
AcRTDxfName
1000
SCALE
1000
AcRTDxfName
1000
SCALE
1000
AcRTDxfName
1000
SCALE
1000
AcRTDxfName
1000
SCALE
1000
AcRTDxfName
1000
SCALE
1000
AcRTDxfName
1000
SCALE
1000
AcRTDxfName
1000
SCALE
1000
AcRTDxfName
1000
SCALE
1000
AcRTDxfName
1000
SCALE
1000
AcRTDxfName
1000
SCALE
1000
AcRTDxfName
1000
SCALE
1000
AcRTDxfName
1000
SCALE
1000
AcRTDxfName
1000
SCALE
1000
AcRTDxfName
1000
SCALE
1000
AcRTDxfName
1000
SCALE
1000
AcRTDxfName
1000
SCALE
1000
AcRTDxfName
1000
SCALE
1000
AcRTDxfName
1000
SCALE
1000
AcRTDxfName
1000
SCALE
1000
AcRTDxfName
1000
SCALE
1000
AcRTDxfName
1000
SCALE
1000
AcRTDxfName
1000
SCALE
1000
AcRTDxfName
1000
SCALE
1000
AcRTDxfName
1000
SCALE
1000
AcRTDxfName
1000
SCALE
1000
AcRTDxfName
1000
SCALE
1000
AcRTDxfName
1000
SCALE
1000
AcRTDxfName
1000
SCALE
1000
AcRTDxfName
1000
SCALE
1000
AcRTDxfName
1000
SCALE
1000
AcRTDxfName
1000
SCALE
1000
AcRTDxfName
1000
SCALE
1000
AcRTDxfName
1000
SCALE
1000
AcRTDxfName
1000
SCALE
1000
AcRTDxfName
1000
SCALE
1000
AcRTDxfName
1000
SCALE
1000
AcRTDxfName
1000
SCALE
1000
AcRTDxfName
1000
SCALE
1000
AcRTDxfName
1000
SCALE
1000
AcRTDxfName
1000
SCALE
1000
AcRTDxfName
1000
SCALE
1000
AcRTDxfName
1000
SCALE
1000
AcRTDxfName
1000
SCALE
1000
AcRTDxfName
1000
SCALE
1000
AcRTDxfName
1000
SCALE
1000
AcRTDxfName
1000
SCALE
1000
AcRTDxfName
1000
SCALE
1000
AcRTDxfName
1000
SCALE
1000
AcRTDxfName
1000
SCALE
1000
AcRTDxfName
1000
SCALE
1000
AcRTDxfName
1000
SCALE
1000
AcRTDxfName
1000
SCALE
1000
AcRTDxfName
1000
SCALE
1000
AcRTDxfName
1000
SCALE
1000
AcRTDxfName
1000
SCALE
1000
AcRTDxfName
1000
SCALE
1000
AcRTDxfName
1000
SCALE
1000
AcRTDxfName
1000
SCALE
1000
AcRTDxfName
1000
SCALE
1000
AcRTDxfName
1000
SCALE
1000
AcRTDxfName
1000
SCALE
1000
AcRTDxfName
1000
SCALE
1000
AcRTDxfName
1000
SCALE
1000
AcRTDxfName
1000
SCALE
1000
AcRTDxfName
1000
SCALE
1000
AcRTDxfName
1000
SCALE
1000
AcRTDxfName
1000
SCALE
1000
AcRTDxfName
1000
SCALE
1000
AcRTDxfName
1000
SCALE
1000
AcRTDxfName
1000
SCALE
1000
AcRTDxfName
1000
SCALE
1000
AcRTDxfName
1000
SCALE
1000
AcRTDxfName
1000
SCALE
1000
AcRTDxfName
1000
SCALE
1000
AcRTDxfName
1000
SCALE
1000
AcRTDxfName
1000
SCALE
1000
AcRTDxfName
1000
SCALE
1000
AcRTDxfName
1000
SCALE
1000
AcRTDxfName
1000
SCALE
1000
AcRTDxfName
1000
SCALE
1000
AcRTDxfName
1000
SCALE
1000
AcRTDxfName
1000
SCALE
1000
AcRTDxfName
1000
SCALE
  0
SCALE
  5
18A3
102
{ACAD_REACTORS
330
18A0
102
}
330
18A0
100
AcDbScale
 70
     0
300
1:4
140
1.0
141
4.0
290
     0
1001
ACAD
1000
AcRTDxfName
1000
SCALE
1000
AcRTDxfName
1000
SCALE
1000
AcRTDxfName
1000
SCALE
1000
AcRTDxfName
1000
SCALE
1000
AcRTDxfName
1000
SCALE
1000
AcRTDxfName
1000
SCALE
1000
AcRTDxfName
1000
SCALE
1000
AcRTDxfName
1000
SCALE
1000
AcRTDxfName
1000
SCALE
1000
AcRTDxfName
1000
SCALE
1000
AcRTDxfName
1000
SCALE
1000
AcRTDxfName
1000
SCALE
1000
AcRTDxfName
1000
SCALE
1000
AcRTDxfName
1000
SCALE
1000
AcRTDxfName
1000
SCALE
1000
AcRTDxfName
1000
SCALE
1000
AcRTDxfName
1000
SCALE
1000
AcRTDxfName
1000
SCALE
1000
AcRTDxfName
1000
SCALE
1000
AcRTDxfName
1000
SCALE
1000
AcRTDxfName
1000
SCALE
1000
AcRTDxfName
1000
SCALE
1000
AcRTDxfName
1000
SCALE
1000
AcRTDxfName
1000
SCALE
1000
AcRTDxfName
1000
SCALE
1000
AcRTDxfName
1000
SCALE
1000
AcRTDxfName
1000
SCALE
1000
AcRTDxfName
1000
SCALE
1000
AcRTDxfName
1000
SCALE
1000
AcRTDxfName
1000
SCALE
1000
AcRTDxfName
1000
SCALE
1000
AcRTDxfName
1000
SCALE
1000
AcRTDxfName
1000
SCALE
1000
AcRTDxfName
1000
SCALE
1000
AcRTDxfName
1000
SCALE
1000
AcRTDxfName
1000
SCALE
1000
AcRTDxfName
1000
SCALE
1000
AcRTDxfName
1000
SCALE
1000
AcRTDxfName
1000
SCALE
1000
AcRTDxfName
1000
SCALE
1000
AcRTDxfName
1000
SCALE
1000
AcRTDxfName
1000
SCALE
1000
AcRTDxfName
1000
SCALE
1000
AcRTDxfName
1000
SCALE
1000
AcRTDxfName
1000
SCALE
1000
AcRTDxfName
1000
SCALE
1000
AcRTDxfName
1000
SCALE
1000
AcRTDxfName
1000
SCALE
1000
AcRTDxfName
1000
SCALE
1000
AcRTDxfName
1000
SCALE
1000
AcRTDxfName
1000
SCALE
1000
AcRTDxfName
1000
SCALE
1000
AcRTDxfName
1000
SCALE
1000
AcRTDxfName
1000
SCALE
1000
AcRTDxfName
1000
SCALE
1000
AcRTDxfName
1000
SCALE
1000
AcRTDxfName
1000
SCALE
1000
AcRTDxfName
1000
SCALE
1000
AcRTDxfName
1000
SCALE
1000
AcRTDxfName
1000
SCALE
1000
AcRTDxfName
1000
SCALE
1000
AcRTDxfName
1000
SCALE
1000
AcRTDxfName
1000
SCALE
1000
AcRTDxfName
1000
SCALE
1000
AcRTDxfName
1000
SCALE
1000
AcRTDxfName
1000
SCALE
1000
AcRTDxfName
1000
SCALE
1000
AcRTDxfName
1000
SCALE
1000
AcRTDxfName
1000
SCALE
1000
AcRTDxfName
1000
SCALE
1000
AcRTDxfName
1000
SCALE
1000
AcRTDxfName
1000
SCALE
1000
AcRTDxfName
1000
SCALE
1000
AcRTDxfName
1000
SCALE
1000
AcRTDxfName
1000
SCALE
1000
AcRTDxfName
1000
SCALE
1000
AcRTDxfName
1000
SCALE
1000
AcRTDxfName
1000
SCALE
1000
AcRTDxfName
1000
SCALE
1000
AcRTDxfName
1000
SCALE
1000
AcRTDxfName
1000
SCALE
1000
AcRTDxfName
1000
SCALE
1000
AcRTDxfName
1000
SCALE
1000
AcRTDxfName
1000
SCALE
1000
AcRTDxfName
1000
SCALE
1000
AcRTDxfName
1000
SCALE
1000
AcRTDxfName
1000
SCALE
1000
AcRTDxfName
1000
SCALE
1000
AcRTDxfName
1000
SCALE
1000
AcRTDxfName
1000
SCALE
1000
AcRTDxfName
1000
SCALE
1000
AcRTDxfName
1000
SCALE
1000
AcRTDxfName
1000
SCALE
1000
AcRTDxfName
1000
SCALE
1000
AcRTDxfName
1000
SCALE
1000
AcRTDxfName
1000
SCALE
1000
AcRTDxfName
1000
SCALE
1000
AcRTDxfName
1000
SCALE
1000
AcRTDxfName
1000
SCALE
1000
AcRTDxfName
1000
SCALE
1000
AcRTDxfName
1000
SCALE
1000
AcRTDxfName
1000
SCALE
1000
AcRTDxfName
1000
SCALE
1000
AcRTDxfName
1000
SCALE
1000
AcRTDxfName
1000
SCALE
1000
AcRTDxfName
1000
SCALE
1000
AcRTDxfName
1000
SCALE
1000
AcRTDxfName
1000
SCALE
1000
AcRTDxfName
1000
SCALE
1000
AcRTDxfName
1000
SCALE
1000
AcRTDxfName
1000
SCALE
1000
AcRTDxfName
1000
SCALE
1000
AcRTDxfName
1000
SCALE
1000
AcRTDxfName
1000
SCALE
1000
AcRTDxfName
1000
SCALE
1000
AcRTDxfName
1000
SCALE
1000
AcRTDxfName
1000
SCALE
1000
AcRTDxfName
1000
SCALE
1000
AcRTDxfName
1000
SCALE
1000
AcRTDxfName
1000
SCALE
1000
AcRTDxfName
1000
SCALE
1000
AcRTDxfName
1000
SCALE
1000
AcRTDxfName
1000
SCALE
1000
AcRTDxfName
1000
SCALE
1000
AcRTDxfName
1000
SCALE
1000
AcRTDxfName
1000
SCALE
1000
AcRTDxfName
1000
SCALE
1000
AcRTDxfName
1000
SCALE
1000
AcRTDxfName
1000
SCALE
1000
AcRTDxfName
1000
SCALE
1000
AcRTDxfName
1000
SCALE
1000
AcRTDxfName
1000
SCALE
1000
AcRTDxfName
1000
SCALE
1000
AcRTDxfName
1000
SCALE
1000
AcRTDxfName
1000
SCALE
1000
AcRTDxfName
1000
SCALE
1000
AcRTDxfName
1000
SCALE
1000
AcRTDxfName
1000
SCALE
1000
AcRTDxfName
1000
SCALE
1000
AcRTDxfName
1000
SCALE
1000
AcRTDxfName
1000
SCALE
1000
AcRTDxfName
1000
SCALE
1000
AcRTDxfName
1000
SCALE
1000
AcRTDxfName
1000
SCALE
1000
AcRTDxfName
1000
SCALE
1000
AcRTDxfName
1000
SCALE
1000
AcRTDxfName
1000
SCALE
1000
AcRTDxfName
1000
SCALE
1000
AcRTDxfName
1000
SCALE
1000
AcRTDxfName
1000
SCALE
1000
AcRTDxfName
1000
SCALE
1000
AcRTDxfName
1000
SCALE
1000
AcRTDxfName
1000
SCALE
1000
AcRTDxfName
1000
SCALE
1000
AcRTDxfName
1000
SCALE
1000
AcRTDxfName
1000
SCALE
  0
SCALE
  5
18A4
102
{ACAD_REACTORS
330
18A0
102
}
330
18A0
100
AcDbScale
 70
     0
300
1:5
140
1.0
141
5.0
290
     0
1001
ACAD
1000
AcRTDxfName
1000
SCALE
1000
AcRTDxfName
1000
SCALE
1000
AcRTDxfName
1000
SCALE
1000
AcRTDxfName
1000
SCALE
1000
AcRTDxfName
1000
SCALE
1000
AcRTDxfName
1000
SCALE
1000
AcRTDxfName
1000
SCALE
1000
AcRTDxfName
1000
SCALE
1000
AcRTDxfName
1000
SCALE
1000
AcRTDxfName
1000
SCALE
1000
AcRTDxfName
1000
SCALE
1000
AcRTDxfName
1000
SCALE
1000
AcRTDxfName
1000
SCALE
1000
AcRTDxfName
1000
SCALE
1000
AcRTDxfName
1000
SCALE
1000
AcRTDxfName
1000
SCALE
1000
AcRTDxfName
1000
SCALE
1000
AcRTDxfName
1000
SCALE
1000
AcRTDxfName
1000
SCALE
1000
AcRTDxfName
1000
SCALE
1000
AcRTDxfName
1000
SCALE
1000
AcRTDxfName
1000
SCALE
1000
AcRTDxfName
1000
SCALE
1000
AcRTDxfName
1000
SCALE
1000
AcRTDxfName
1000
SCALE
1000
AcRTDxfName
1000
SCALE
1000
AcRTDxfName
1000
SCALE
1000
AcRTDxfName
1000
SCALE
1000
AcRTDxfName
1000
SCALE
1000
AcRTDxfName
1000
SCALE
1000
AcRTDxfName
1000
SCALE
1000
AcRTDxfName
1000
SCALE
1000
AcRTDxfName
1000
SCALE
1000
AcRTDxfName
1000
SCALE
1000
AcRTDxfName
1000
SCALE
1000
AcRTDxfName
1000
SCALE
1000
AcRTDxfName
1000
SCALE
1000
AcRTDxfName
1000
SCALE
1000
AcRTDxfName
1000
SCALE
1000
AcRTDxfName
1000
SCALE
1000
AcRTDxfName
1000
SCALE
1000
AcRTDxfName
1000
SCALE
1000
AcRTDxfName
1000
SCALE
1000
AcRTDxfName
1000
SCALE
1000
AcRTDxfName
1000
SCALE
1000
AcRTDxfName
1000
SCALE
1000
AcRTDxfName
1000
SCALE
1000
AcRTDxfName
1000
SCALE
1000
AcRTDxfName
1000
SCALE
1000
AcRTDxfName
1000
SCALE
1000
AcRTDxfName
1000
SCALE
1000
AcRTDxfName
1000
SCALE
1000
AcRTDxfName
1000
SCALE
1000
AcRTDxfName
1000
SCALE
1000
AcRTDxfName
1000
SCALE
1000
AcRTDxfName
1000
SCALE
1000
AcRTDxfName
1000
SCALE
1000
AcRTDxfName
1000
SCALE
1000
AcRTDxfName
1000
SCALE
1000
AcRTDxfName
1000
SCALE
1000
AcRTDxfName
1000
SCALE
1000
AcRTDxfName
1000
SCALE
1000
AcRTDxfName
1000
SCALE
1000
AcRTDxfName
1000
SCALE
1000
AcRTDxfName
1000
SCALE
1000
AcRTDxfName
1000
SCALE
1000
AcRTDxfName
1000
SCALE
1000
AcRTDxfName
1000
SCALE
1000
AcRTDxfName
1000
SCALE
1000
AcRTDxfName
1000
SCALE
1000
AcRTDxfName
1000
SCALE
1000
AcRTDxfName
1000
SCALE
1000
AcRTDxfName
1000
SCALE
1000
AcRTDxfName
1000
SCALE
1000
AcRTDxfName
1000
SCALE
1000
AcRTDxfName
1000
SCALE
1000
AcRTDxfName
1000
SCALE
1000
AcRTDxfName
1000
SCALE
1000
AcRTDxfName
1000
SCALE
1000
AcRTDxfName
1000
SCALE
1000
AcRTDxfName
1000
SCALE
1000
AcRTDxfName
1000
SCALE
1000
AcRTDxfName
1000
SCALE
1000
AcRTDxfName
1000
SCALE
1000
AcRTDxfName
1000
SCALE
1000
AcRTDxfName
1000
SCALE
1000
AcRTDxfName
1000
SCALE
1000
AcRTDxfName
1000
SCALE
1000
AcRTDxfName
1000
SCALE
1000
AcRTDxfName
1000
SCALE
1000
AcRTDxfName
1000
SCALE
1000
AcRTDxfName
1000
SCALE
1000
AcRTDxfName
1000
SCALE
1000
AcRTDxfName
1000
SCALE
1000
AcRTDxfName
1000
SCALE
1000
AcRTDxfName
1000
SCALE
1000
AcRTDxfName
1000
SCALE
1000
AcRTDxfName
1000
SCALE
1000
AcRTDxfName
1000
SCALE
1000
AcRTDxfName
1000
SCALE
1000
AcRTDxfName
1000
SCALE
1000
AcRTDxfName
1000
SCALE
1000
AcRTDxfName
1000
SCALE
1000
AcRTDxfName
1000
SCALE
1000
AcRTDxfName
1000
SCALE
1000
AcRTDxfName
1000
SCALE
1000
AcRTDxfName
1000
SCALE
1000
AcRTDxfName
1000
SCALE
1000
AcRTDxfName
1000
SCALE
1000
AcRTDxfName
1000
SCALE
1000
AcRTDxfName
1000
SCALE
1000
AcRTDxfName
1000
SCALE
1000
AcRTDxfName
1000
SCALE
1000
AcRTDxfName
1000
SCALE
1000
AcRTDxfName
1000
SCALE
1000
AcRTDxfName
1000
SCALE
1000
AcRTDxfName
1000
SCALE
1000
AcRTDxfName
1000
SCALE
1000
AcRTDxfName
1000
SCALE
1000
AcRTDxfName
1000
SCALE
1000
AcRTDxfName
1000
SCALE
1000
AcRTDxfName
1000
SCALE
1000
AcRTDxfName
1000
SCALE
1000
AcRTDxfName
1000
SCALE
1000
AcRTDxfName
1000
SCALE
1000
AcRTDxfName
1000
SCALE
1000
AcRTDxfName
1000
SCALE
1000
AcRTDxfName
1000
SCALE
1000
AcRTDxfName
1000
SCALE
1000
AcRTDxfName
1000
SCALE
1000
AcRTDxfName
1000
SCALE
1000
AcRTDxfName
1000
SCALE
1000
AcRTDxfName
1000
SCALE
1000
AcRTDxfName
1000
SCALE
1000
AcRTDxfName
1000
SCALE
1000
AcRTDxfName
1000
SCALE
1000
AcRTDxfName
1000
SCALE
1000
AcRTDxfName
1000
SCALE
1000
AcRTDxfName
1000
SCALE
1000
AcRTDxfName
1000
SCALE
1000
AcRTDxfName
1000
SCALE
1000
AcRTDxfName
1000
SCALE
1000
AcRTDxfName
1000
SCALE
1000
AcRTDxfName
1000
SCALE
1000
AcRTDxfName
1000
SCALE
1000
AcRTDxfName
1000
SCALE
1000
AcRTDxfName
1000
SCALE
1000
AcRTDxfName
1000
SCALE
1000
AcRTDxfName
1000
SCALE
1000
AcRTDxfName
1000
SCALE
1000
AcRTDxfName
1000
SCALE
1000
AcRTDxfName
1000
SCALE
1000
AcRTDxfName
1000
SCALE
1000
AcRTDxfName
1000
SCALE
1000
AcRTDxfName
1000
SCALE
1000
AcRTDxfName
1000
SCALE
  0
SCALE
  5
18A5
102
{ACAD_REACTORS
330
18A0
102
}
330
18A0
100
AcDbScale
 70
     0
300
1:8
140
1.0
141
8.0
290
     0
1001
ACAD
1000
AcRTDxfName
1000
SCALE
1000
AcRTDxfName
1000
SCALE
1000
AcRTDxfName
1000
SCALE
1000
AcRTDxfName
1000
SCALE
1000
AcRTDxfName
1000
SCALE
1000
AcRTDxfName
1000
SCALE
1000
AcRTDxfName
1000
SCALE
1000
AcRTDxfName
1000
SCALE
1000
AcRTDxfName
1000
SCALE
1000
AcRTDxfName
1000
SCALE
1000
AcRTDxfName
1000
SCALE
1000
AcRTDxfName
1000
SCALE
1000
AcRTDxfName
1000
SCALE
1000
AcRTDxfName
1000
SCALE
1000
AcRTDxfName
1000
SCALE
1000
AcRTDxfName
1000
SCALE
1000
AcRTDxfName
1000
SCALE
1000
AcRTDxfName
1000
SCALE
1000
AcRTDxfName
1000
SCALE
1000
AcRTDxfName
1000
SCALE
1000
AcRTDxfName
1000
SCALE
1000
AcRTDxfName
1000
SCALE
1000
AcRTDxfName
1000
SCALE
1000
AcRTDxfName
1000
SCALE
1000
AcRTDxfName
1000
SCALE
1000
AcRTDxfName
1000
SCALE
1000
AcRTDxfName
1000
SCALE
1000
AcRTDxfName
1000
SCALE
1000
AcRTDxfName
1000
SCALE
1000
AcRTDxfName
1000
SCALE
1000
AcRTDxfName
1000
SCALE
1000
AcRTDxfName
1000
SCALE
1000
AcRTDxfName
1000
SCALE
1000
AcRTDxfName
1000
SCALE
1000
AcRTDxfName
1000
SCALE
1000
AcRTDxfName
1000
SCALE
1000
AcRTDxfName
1000
SCALE
1000
AcRTDxfName
1000
SCALE
1000
AcRTDxfName
1000
SCALE
1000
AcRTDxfName
1000
SCALE
1000
AcRTDxfName
1000
SCALE
1000
AcRTDxfName
1000
SCALE
1000
AcRTDxfName
1000
SCALE
1000
AcRTDxfName
1000
SCALE
1000
AcRTDxfName
1000
SCALE
1000
AcRTDxfName
1000
SCALE
1000
AcRTDxfName
1000
SCALE
1000
AcRTDxfName
1000
SCALE
1000
AcRTDxfName
1000
SCALE
1000
AcRTDxfName
1000
SCALE
1000
AcRTDxfName
1000
SCALE
1000
AcRTDxfName
1000
SCALE
1000
AcRTDxfName
1000
SCALE
1000
AcRTDxfName
1000
SCALE
1000
AcRTDxfName
1000
SCALE
1000
AcRTDxfName
1000
SCALE
1000
AcRTDxfName
1000
SCALE
1000
AcRTDxfName
1000
SCALE
1000
AcRTDxfName
1000
SCALE
1000
AcRTDxfName
1000
SCALE
1000
AcRTDxfName
1000
SCALE
1000
AcRTDxfName
1000
SCALE
1000
AcRTDxfName
1000
SCALE
1000
AcRTDxfName
1000
SCALE
1000
AcRTDxfName
1000
SCALE
1000
AcRTDxfName
1000
SCALE
1000
AcRTDxfName
1000
SCALE
1000
AcRTDxfName
1000
SCALE
1000
AcRTDxfName
1000
SCALE
1000
AcRTDxfName
1000
SCALE
1000
AcRTDxfName
1000
SCALE
1000
AcRTDxfName
1000
SCALE
1000
AcRTDxfName
1000
SCALE
1000
AcRTDxfName
1000
SCALE
1000
AcRTDxfName
1000
SCALE
1000
AcRTDxfName
1000
SCALE
1000
AcRTDxfName
1000
SCALE
1000
AcRTDxfName
1000
SCALE
1000
AcRTDxfName
1000
SCALE
1000
AcRTDxfName
1000
SCALE
1000
AcRTDxfName
1000
SCALE
1000
AcRTDxfName
1000
SCALE
1000
AcRTDxfName
1000
SCALE
1000
AcRTDxfName
1000
SCALE
1000
AcRTDxfName
1000
SCALE
1000
AcRTDxfName
1000
SCALE
1000
AcRTDxfName
1000
SCALE
1000
AcRTDxfName
1000
SCALE
1000
AcRTDxfName
1000
SCALE
1000
AcRTDxfName
1000
SCALE
1000
AcRTDxfName
1000
SCALE
1000
AcRTDxfName
1000
SCALE
1000
AcRTDxfName
1000
SCALE
1000
AcRTDxfName
1000
SCALE
1000
AcRTDxfName
1000
SCALE
1000
AcRTDxfName
1000
SCALE
1000
AcRTDxfName
1000
SCALE
1000
AcRTDxfName
1000
SCALE
1000
AcRTDxfName
1000
SCALE
1000
AcRTDxfName
1000
SCALE
1000
AcRTDxfName
1000
SCALE
1000
AcRTDxfName
1000
SCALE
1000
AcRTDxfName
1000
SCALE
1000
AcRTDxfName
1000
SCALE
1000
AcRTDxfName
1000
SCALE
1000
AcRTDxfName
1000
SCALE
1000
AcRTDxfName
1000
SCALE
1000
AcRTDxfName
1000
SCALE
1000
AcRTDxfName
1000
SCALE
1000
AcRTDxfName
1000
SCALE
1000
AcRTDxfName
1000
SCALE
1000
AcRTDxfName
1000
SCALE
1000
AcRTDxfName
1000
SCALE
1000
AcRTDxfName
1000
SCALE
1000
AcRTDxfName
1000
SCALE
1000
AcRTDxfName
1000
SCALE
1000
AcRTDxfName
1000
SCALE
1000
AcRTDxfName
1000
SCALE
1000
AcRTDxfName
1000
SCALE
1000
AcRTDxfName
1000
SCALE
1000
AcRTDxfName
1000
SCALE
1000
AcRTDxfName
1000
SCALE
1000
AcRTDxfName
1000
SCALE
1000
AcRTDxfName
1000
SCALE
1000
AcRTDxfName
1000
SCALE
1000
AcRTDxfName
1000
SCALE
1000
AcRTDxfName
1000
SCALE
1000
AcRTDxfName
1000
SCALE
1000
AcRTDxfName
1000
SCALE
1000
AcRTDxfName
1000
SCALE
1000
AcRTDxfName
1000
SCALE
1000
AcRTDxfName
1000
SCALE
1000
AcRTDxfName
1000
SCALE
1000
AcRTDxfName
1000
SCALE
1000
AcRTDxfName
1000
SCALE
1000
AcRTDxfName
1000
SCALE
1000
AcRTDxfName
1000
SCALE
1000
AcRTDxfName
1000
SCALE
1000
AcRTDxfName
1000
SCALE
1000
AcRTDxfName
1000
SCALE
1000
AcRTDxfName
1000
SCALE
1000
AcRTDxfName
1000
SCALE
1000
AcRTDxfName
1000
SCALE
1000
AcRTDxfName
1000
SCALE
1000
AcRTDxfName
1000
SCALE
1000
AcRTDxfName
1000
SCALE
1000
AcRTDxfName
1000
SCALE
1000
AcRTDxfName
1000
SCALE
1000
AcRTDxfName
1000
SCALE
1000
AcRTDxfName
1000
SCALE
1000
AcRTDxfName
1000
SCALE
1000
AcRTDxfName
1000
SCALE
1000
AcRTDxfName
1000
SCALE
1000
AcRTDxfName
1000
SCALE
1000
AcRTDxfName
1000
SCALE
1000
AcRTDxfName
1000
SCALE
  0
SCALE
  5
18A6
102
{ACAD_REACTORS
330
18A0
102
}
330
18A0
100
AcDbScale
 70
     0
300
1:10
140
1.0
141
10.0
290
     0
1001
ACAD
1000
AcRTDxfName
1000
SCALE
1000
AcRTDxfName
1000
SCALE
1000
AcRTDxfName
1000
SCALE
1000
AcRTDxfName
1000
SCALE
1000
AcRTDxfName
1000
SCALE
1000
AcRTDxfName
1000
SCALE
1000
AcRTDxfName
1000
SCALE
1000
AcRTDxfName
1000
SCALE
1000
AcRTDxfName
1000
SCALE
1000
AcRTDxfName
1000
SCALE
1000
AcRTDxfName
1000
SCALE
1000
AcRTDxfName
1000
SCALE
1000
AcRTDxfName
1000
SCALE
1000
AcRTDxfName
1000
SCALE
1000
AcRTDxfName
1000
SCALE
1000
AcRTDxfName
1000
SCALE
1000
AcRTDxfName
1000
SCALE
1000
AcRTDxfName
1000
SCALE
1000
AcRTDxfName
1000
SCALE
1000
AcRTDxfName
1000
SCALE
1000
AcRTDxfName
1000
SCALE
1000
AcRTDxfName
1000
SCALE
1000
AcRTDxfName
1000
SCALE
1000
AcRTDxfName
1000
SCALE
1000
AcRTDxfName
1000
SCALE
1000
AcRTDxfName
1000
SCALE
1000
AcRTDxfName
1000
SCALE
1000
AcRTDxfName
1000
SCALE
1000
AcRTDxfName
1000
SCALE
1000
AcRTDxfName
1000
SCALE
1000
AcRTDxfName
1000
SCALE
1000
AcRTDxfName
1000
SCALE
1000
AcRTDxfName
1000
SCALE
1000
AcRTDxfName
1000
SCALE
1000
AcRTDxfName
1000
SCALE
1000
AcRTDxfName
1000
SCALE
1000
AcRTDxfName
1000
SCALE
1000
AcRTDxfName
1000
SCALE
1000
AcRTDxfName
1000
SCALE
1000
AcRTDxfName
1000
SCALE
1000
AcRTDxfName
1000
SCALE
1000
AcRTDxfName
1000
SCALE
1000
AcRTDxfName
1000
SCALE
1000
AcRTDxfName
1000
SCALE
1000
AcRTDxfName
1000
SCALE
1000
AcRTDxfName
1000
SCALE
1000
AcRTDxfName
1000
SCALE
1000
AcRTDxfName
1000
SCALE
1000
AcRTDxfName
1000
SCALE
1000
AcRTDxfName
1000
SCALE
1000
AcRTDxfName
1000
SCALE
1000
AcRTDxfName
1000
SCALE
1000
AcRTDxfName
1000
SCALE
1000
AcRTDxfName
1000
SCALE
1000
AcRTDxfName
1000
SCALE
1000
AcRTDxfName
1000
SCALE
1000
AcRTDxfName
1000
SCALE
1000
AcRTDxfName
1000
SCALE
1000
AcRTDxfName
1000
SCALE
1000
AcRTDxfName
1000
SCALE
1000
AcRTDxfName
1000
SCALE
1000
AcRTDxfName
1000
SCALE
1000
AcRTDxfName
1000
SCALE
1000
AcRTDxfName
1000
SCALE
1000
AcRTDxfName
1000
SCALE
1000
AcRTDxfName
1000
SCALE
1000
AcRTDxfName
1000
SCALE
1000
AcRTDxfName
1000
SCALE
1000
AcRTDxfName
1000
SCALE
1000
AcRTDxfName
1000
SCALE
1000
AcRTDxfName
1000
SCALE
1000
AcRTDxfName
1000
SCALE
1000
AcRTDxfName
1000
SCALE
1000
AcRTDxfName
1000
SCALE
1000
AcRTDxfName
1000
SCALE
1000
AcRTDxfName
1000
SCALE
1000
AcRTDxfName
1000
SCALE
1000
AcRTDxfName
1000
SCALE
1000
AcRTDxfName
1000
SCALE
1000
AcRTDxfName
1000
SCALE
1000
AcRTDxfName
1000
SCALE
1000
AcRTDxfName
1000
SCALE
1000
AcRTDxfName
1000
SCALE
1000
AcRTDxfName
1000
SCALE
1000
AcRTDxfName
1000
SCALE
1000
AcRTDxfName
1000
SCALE
1000
AcRTDxfName
1000
SCALE
1000
AcRTDxfName
1000
SCALE
1000
AcRTDxfName
1000
SCALE
1000
AcRTDxfName
1000
SCALE
1000
AcRTDxfName
1000
SCALE
1000
AcRTDxfName
1000
SCALE
1000
AcRTDxfName
1000
SCALE
1000
AcRTDxfName
1000
SCALE
1000
AcRTDxfName
1000
SCALE
1000
AcRTDxfName
1000
SCALE
1000
AcRTDxfName
1000
SCALE
1000
AcRTDxfName
1000
SCALE
1000
AcRTDxfName
1000
SCALE
1000
AcRTDxfName
1000
SCALE
1000
AcRTDxfName
1000
SCALE
1000
AcRTDxfName
1000
SCALE
1000
AcRTDxfName
1000
SCALE
1000
AcRTDxfName
1000
SCALE
1000
AcRTDxfName
1000
SCALE
1000
AcRTDxfName
1000
SCALE
1000
AcRTDxfName
1000
SCALE
1000
AcRTDxfName
1000
SCALE
1000
AcRTDxfName
1000
SCALE
1000
AcRTDxfName
1000
SCALE
1000
AcRTDxfName
1000
SCALE
1000
AcRTDxfName
1000
SCALE
1000
AcRTDxfName
1000
SCALE
1000
AcRTDxfName
1000
SCALE
1000
AcRTDxfName
1000
SCALE
1000
AcRTDxfName
1000
SCALE
1000
AcRTDxfName
1000
SCALE
1000
AcRTDxfName
1000
SCALE
1000
AcRTDxfName
1000
SCALE
1000
AcRTDxfName
1000
SCALE
1000
AcRTDxfName
1000
SCALE
1000
AcRTDxfName
1000
SCALE
1000
AcRTDxfName
1000
SCALE
1000
AcRTDxfName
1000
SCALE
1000
AcRTDxfName
1000
SCALE
1000
AcRTDxfName
1000
SCALE
1000
AcRTDxfName
1000
SCALE
1000
AcRTDxfName
1000
SCALE
1000
AcRTDxfName
1000
SCALE
1000
AcRTDxfName
1000
SCALE
1000
AcRTDxfName
1000
SCALE
1000
AcRTDxfName
1000
SCALE
1000
AcRTDxfName
1000
SCALE
1000
AcRTDxfName
1000
SCALE
1000
AcRTDxfName
1000
SCALE
1000
AcRTDxfName
1000
SCALE
1000
AcRTDxfName
1000
SCALE
1000
AcRTDxfName
1000
SCALE
1000
AcRTDxfName
1000
SCALE
1000
AcRTDxfName
1000
SCALE
1000
AcRTDxfName
1000
SCALE
1000
AcRTDxfName
1000
SCALE
1000
AcRTDxfName
1000
SCALE
1000
AcRTDxfName
1000
SCALE
1000
AcRTDxfName
1000
SCALE
1000
AcRTDxfName
1000
SCALE
1000
AcRTDxfName
1000
SCALE
1000
AcRTDxfName
1000
SCALE
1000
AcRTDxfName
1000
SCALE
1000
AcRTDxfName
1000
SCALE
1000
AcRTDxfName
1000
SCALE
1000
AcRTDxfName
1000
SCALE
1000
AcRTDxfName
1000
SCALE
1000
AcRTDxfName
1000
SCALE
1000
AcRTDxfName
1000
SCALE
1000
AcRTDxfName
1000
SCALE
  0
SCALE
  5
18A7
102
{ACAD_REACTORS
330
18A0
102
}
330
18A0
100
AcDbScale
 70
     0
300
1:16
140
1.0
141
16.0
290
     0
1001
ACAD
1000
AcRTDxfName
1000
SCALE
1000
AcRTDxfName
1000
SCALE
1000
AcRTDxfName
1000
SCALE
1000
AcRTDxfName
1000
SCALE
1000
AcRTDxfName
1000
SCALE
1000
AcRTDxfName
1000
SCALE
1000
AcRTDxfName
1000
SCALE
1000
AcRTDxfName
1000
SCALE
1000
AcRTDxfName
1000
SCALE
1000
AcRTDxfName
1000
SCALE
1000
AcRTDxfName
1000
SCALE
1000
AcRTDxfName
1000
SCALE
1000
AcRTDxfName
1000
SCALE
1000
AcRTDxfName
1000
SCALE
1000
AcRTDxfName
1000
SCALE
1000
AcRTDxfName
1000
SCALE
1000
AcRTDxfName
1000
SCALE
1000
AcRTDxfName
1000
SCALE
1000
AcRTDxfName
1000
SCALE
1000
AcRTDxfName
1000
SCALE
1000
AcRTDxfName
1000
SCALE
1000
AcRTDxfName
1000
SCALE
1000
AcRTDxfName
1000
SCALE
1000
AcRTDxfName
1000
SCALE
1000
AcRTDxfName
1000
SCALE
1000
AcRTDxfName
1000
SCALE
1000
AcRTDxfName
1000
SCALE
1000
AcRTDxfName
1000
SCALE
1000
AcRTDxfName
1000
SCALE
1000
AcRTDxfName
1000
SCALE
1000
AcRTDxfName
1000
SCALE
1000
AcRTDxfName
1000
SCALE
1000
AcRTDxfName
1000
SCALE
1000
AcRTDxfName
1000
SCALE
1000
AcRTDxfName
1000
SCALE
1000
AcRTDxfName
1000
SCALE
1000
AcRTDxfName
1000
SCALE
1000
AcRTDxfName
1000
SCALE
1000
AcRTDxfName
1000
SCALE
1000
AcRTDxfName
1000
SCALE
1000
AcRTDxfName
1000
SCALE
1000
AcRTDxfName
1000
SCALE
1000
AcRTDxfName
1000
SCALE
1000
AcRTDxfName
1000
SCALE
1000
AcRTDxfName
1000
SCALE
1000
AcRTDxfName
1000
SCALE
1000
AcRTDxfName
1000
SCALE
1000
AcRTDxfName
1000
SCALE
1000
AcRTDxfName
1000
SCALE
1000
AcRTDxfName
1000
SCALE
1000
AcRTDxfName
1000
SCALE
1000
AcRTDxfName
1000
SCALE
1000
AcRTDxfName
1000
SCALE
1000
AcRTDxfName
1000
SCALE
1000
AcRTDxfName
1000
SCALE
1000
AcRTDxfName
1000
SCALE
1000
AcRTDxfName
1000
SCALE
1000
AcRTDxfName
1000
SCALE
1000
AcRTDxfName
1000
SCALE
1000
AcRTDxfName
1000
SCALE
1000
AcRTDxfName
1000
SCALE
1000
AcRTDxfName
1000
SCALE
1000
AcRTDxfName
1000
SCALE
1000
AcRTDxfName
1000
SCALE
1000
AcRTDxfName
1000
SCALE
1000
AcRTDxfName
1000
SCALE
1000
AcRTDxfName
1000
SCALE
1000
AcRTDxfName
1000
SCALE
1000
AcRTDxfName
1000
SCALE
1000
AcRTDxfName
1000
SCALE
1000
AcRTDxfName
1000
SCALE
1000
AcRTDxfName
1000
SCALE
1000
AcRTDxfName
1000
SCALE
1000
AcRTDxfName
1000
SCALE
1000
AcRTDxfName
1000
SCALE
1000
AcRTDxfName
1000
SCALE
1000
AcRTDxfName
1000
SCALE
1000
AcRTDxfName
1000
SCALE
1000
AcRTDxfName
1000
SCALE
1000
AcRTDxfName
1000
SCALE
1000
AcRTDxfName
1000
SCALE
1000
AcRTDxfName
1000
SCALE
1000
AcRTDxfName
1000
SCALE
1000
AcRTDxfName
1000
SCALE
1000
AcRTDxfName
1000
SCALE
1000
AcRTDxfName
1000
SCALE
1000
AcRTDxfName
1000
SCALE
1000
AcRTDxfName
1000
SCALE
1000
AcRTDxfName
1000
SCALE
1000
AcRTDxfName
1000
SCALE
1000
AcRTDxfName
1000
SCALE
1000
AcRTDxfName
1000
SCALE
1000
AcRTDxfName
1000
SCALE
1000
AcRTDxfName
1000
SCALE
1000
AcRTDxfName
1000
SCALE
1000
AcRTDxfName
1000
SCALE
1000
AcRTDxfName
1000
SCALE
1000
AcRTDxfName
1000
SCALE
1000
AcRTDxfName
1000
SCALE
1000
AcRTDxfName
1000
SCALE
1000
AcRTDxfName
1000
SCALE
1000
AcRTDxfName
1000
SCALE
1000
AcRTDxfName
1000
SCALE
1000
AcRTDxfName
1000
SCALE
1000
AcRTDxfName
1000
SCALE
1000
AcRTDxfName
1000
SCALE
1000
AcRTDxfName
1000
SCALE
1000
AcRTDxfName
1000
SCALE
1000
AcRTDxfName
1000
SCALE
1000
AcRTDxfName
1000
SCALE
1000
AcRTDxfName
1000
SCALE
1000
AcRTDxfName
1000
SCALE
1000
AcRTDxfName
1000
SCALE
1000
AcRTDxfName
1000
SCALE
1000
AcRTDxfName
1000
SCALE
1000
AcRTDxfName
1000
SCALE
1000
AcRTDxfName
1000
SCALE
1000
AcRTDxfName
1000
SCALE
1000
AcRTDxfName
1000
SCALE
1000
AcRTDxfName
1000
SCALE
1000
AcRTDxfName
1000
SCALE
1000
AcRTDxfName
1000
SCALE
1000
AcRTDxfName
1000
SCALE
1000
AcRTDxfName
1000
SCALE
1000
AcRTDxfName
1000
SCALE
1000
AcRTDxfName
1000
SCALE
1000
AcRTDxfName
1000
SCALE
1000
AcRTDxfName
1000
SCALE
1000
AcRTDxfName
1000
SCALE
1000
AcRTDxfName
1000
SCALE
1000
AcRTDxfName
1000
SCALE
1000
AcRTDxfName
1000
SCALE
1000
AcRTDxfName
1000
SCALE
1000
AcRTDxfName
1000
SCALE
1000
AcRTDxfName
1000
SCALE
1000
AcRTDxfName
1000
SCALE
1000
AcRTDxfName
1000
SCALE
1000
AcRTDxfName
1000
SCALE
1000
AcRTDxfName
1000
SCALE
1000
AcRTDxfName
1000
SCALE
1000
AcRTDxfName
1000
SCALE
1000
AcRTDxfName
1000
SCALE
1000
AcRTDxfName
1000
SCALE
1000
AcRTDxfName
1000
SCALE
1000
AcRTDxfName
1000
SCALE
1000
AcRTDxfName
1000
SCALE
1000
AcRTDxfName
1000
SCALE
1000
AcRTDxfName
1000
SCALE
1000
AcRTDxfName
1000
SCALE
1000
AcRTDxfName
1000
SCALE
1000
AcRTDxfName
1000
SCALE
1000
AcRTDxfName
1000
SCALE
1000
AcRTDxfName
1000
SCALE
1000
AcRTDxfName
1000
SCALE
1000
AcRTDxfName
1000
SCALE
1000
AcRTDxfName
1000
SCALE
  0
SCALE
  5
18A8
102
{ACAD_REACTORS
330
18A0
102
}
330
18A0
100
AcDbScale
 70
     0
300
1:20
140
1.0
141
20.0
290
     0
1001
ACAD
1000
AcRTDxfName
1000
SCALE
1000
AcRTDxfName
1000
SCALE
1000
AcRTDxfName
1000
SCALE
1000
AcRTDxfName
1000
SCALE
1000
AcRTDxfName
1000
SCALE
1000
AcRTDxfName
1000
SCALE
1000
AcRTDxfName
1000
SCALE
1000
AcRTDxfName
1000
SCALE
1000
AcRTDxfName
1000
SCALE
1000
AcRTDxfName
1000
SCALE
1000
AcRTDxfName
1000
SCALE
1000
AcRTDxfName
1000
SCALE
1000
AcRTDxfName
1000
SCALE
1000
AcRTDxfName
1000
SCALE
1000
AcRTDxfName
1000
SCALE
1000
AcRTDxfName
1000
SCALE
1000
AcRTDxfName
1000
SCALE
1000
AcRTDxfName
1000
SCALE
1000
AcRTDxfName
1000
SCALE
1000
AcRTDxfName
1000
SCALE
1000
AcRTDxfName
1000
SCALE
1000
AcRTDxfName
1000
SCALE
1000
AcRTDxfName
1000
SCALE
1000
AcRTDxfName
1000
SCALE
1000
AcRTDxfName
1000
SCALE
1000
AcRTDxfName
1000
SCALE
1000
AcRTDxfName
1000
SCALE
1000
AcRTDxfName
1000
SCALE
1000
AcRTDxfName
1000
SCALE
1000
AcRTDxfName
1000
SCALE
1000
AcRTDxfName
1000
SCALE
1000
AcRTDxfName
1000
SCALE
1000
AcRTDxfName
1000
SCALE
1000
AcRTDxfName
1000
SCALE
1000
AcRTDxfName
1000
SCALE
1000
AcRTDxfName
1000
SCALE
1000
AcRTDxfName
1000
SCALE
1000
AcRTDxfName
1000
SCALE
1000
AcRTDxfName
1000
SCALE
1000
AcRTDxfName
1000
SCALE
1000
AcRTDxfName
1000
SCALE
1000
AcRTDxfName
1000
SCALE
1000
AcRTDxfName
1000
SCALE
1000
AcRTDxfName
1000
SCALE
1000
AcRTDxfName
1000
SCALE
1000
AcRTDxfName
1000
SCALE
1000
AcRTDxfName
1000
SCALE
1000
AcRTDxfName
1000
SCALE
1000
AcRTDxfName
1000
SCALE
1000
AcRTDxfName
1000
SCALE
1000
AcRTDxfName
1000
SCALE
1000
AcRTDxfName
1000
SCALE
1000
AcRTDxfName
1000
SCALE
1000
AcRTDxfName
1000
SCALE
1000
AcRTDxfName
1000
SCALE
1000
AcRTDxfName
1000
SCALE
1000
AcRTDxfName
1000
SCALE
1000
AcRTDxfName
1000
SCALE
1000
AcRTDxfName
1000
SCALE
1000
AcRTDxfName
1000
SCALE
1000
AcRTDxfName
1000
SCALE
1000
AcRTDxfName
1000
SCALE
1000
AcRTDxfName
1000
SCALE
1000
AcRTDxfName
1000
SCALE
1000
AcRTDxfName
1000
SCALE
1000
AcRTDxfName
1000
SCALE
1000
AcRTDxfName
1000
SCALE
1000
AcRTDxfName
1000
SCALE
1000
AcRTDxfName
1000
SCALE
1000
AcRTDxfName
1000
SCALE
1000
AcRTDxfName
1000
SCALE
1000
AcRTDxfName
1000
SCALE
1000
AcRTDxfName
1000
SCALE
1000
AcRTDxfName
1000
SCALE
1000
AcRTDxfName
1000
SCALE
1000
AcRTDxfName
1000
SCALE
1000
AcRTDxfName
1000
SCALE
1000
AcRTDxfName
1000
SCALE
1000
AcRTDxfName
1000
SCALE
1000
AcRTDxfName
1000
SCALE
1000
AcRTDxfName
1000
SCALE
1000
AcRTDxfName
1000
SCALE
1000
AcRTDxfName
1000
SCALE
1000
AcRTDxfName
1000
SCALE
1000
AcRTDxfName
1000
SCALE
1000
AcRTDxfName
1000
SCALE
1000
AcRTDxfName
1000
SCALE
1000
AcRTDxfName
1000
SCALE
1000
AcRTDxfName
1000
SCALE
1000
AcRTDxfName
1000
SCALE
1000
AcRTDxfName
1000
SCALE
1000
AcRTDxfName
1000
SCALE
1000
AcRTDxfName
1000
SCALE
1000
AcRTDxfName
1000
SCALE
1000
AcRTDxfName
1000
SCALE
1000
AcRTDxfName
1000
SCALE
1000
AcRTDxfName
1000
SCALE
1000
AcRTDxfName
1000
SCALE
1000
AcRTDxfName
1000
SCALE
1000
AcRTDxfName
1000
SCALE
1000
AcRTDxfName
1000
SCALE
1000
AcRTDxfName
1000
SCALE
1000
AcRTDxfName
1000
SCALE
1000
AcRTDxfName
1000
SCALE
1000
AcRTDxfName
1000
SCALE
1000
AcRTDxfName
1000
SCALE
1000
AcRTDxfName
1000
SCALE
1000
AcRTDxfName
1000
SCALE
1000
AcRTDxfName
1000
SCALE
1000
AcRTDxfName
1000
SCALE
1000
AcRTDxfName
1000
SCALE
1000
AcRTDxfName
1000
SCALE
1000
AcRTDxfName
1000
SCALE
1000
AcRTDxfName
1000
SCALE
1000
AcRTDxfName
1000
SCALE
1000
AcRTDxfName
1000
SCALE
1000
AcRTDxfName
1000
SCALE
1000
AcRTDxfName
1000
SCALE
1000
AcRTDxfName
1000
SCALE
1000
AcRTDxfName
1000
SCALE
1000
AcRTDxfName
1000
SCALE
1000
AcRTDxfName
1000
SCALE
1000
AcRTDxfName
1000
SCALE
1000
AcRTDxfName
1000
SCALE
1000
AcRTDxfName
1000
SCALE
1000
AcRTDxfName
1000
SCALE
1000
AcRTDxfName
1000
SCALE
1000
AcRTDxfName
1000
SCALE
1000
AcRTDxfName
1000
SCALE
1000
AcRTDxfName
1000
SCALE
1000
AcRTDxfName
1000
SCALE
1000
AcRTDxfName
1000
SCALE
1000
AcRTDxfName
1000
SCALE
1000
AcRTDxfName
1000
SCALE
1000
AcRTDxfName
1000
SCALE
1000
AcRTDxfName
1000
SCALE
1000
AcRTDxfName
1000
SCALE
1000
AcRTDxfName
1000
SCALE
1000
AcRTDxfName
1000
SCALE
1000
AcRTDxfName
1000
SCALE
1000
AcRTDxfName
1000
SCALE
1000
AcRTDxfName
1000
SCALE
1000
AcRTDxfName
1000
SCALE
1000
AcRTDxfName
1000
SCALE
1000
AcRTDxfName
1000
SCALE
1000
AcRTDxfName
1000
SCALE
1000
AcRTDxfName
1000
SCALE
1000
AcRTDxfName
1000
SCALE
1000
AcRTDxfName
1000
SCALE
1000
AcRTDxfName
1000
SCALE
1000
AcRTDxfName
1000
SCALE
1000
AcRTDxfName
1000
SCALE
1000
AcRTDxfName
1000
SCALE
1000
AcRTDxfName
1000
SCALE
1000
AcRTDxfName
1000
SCALE
1000
AcRTDxfName
1000
SCALE
  0
SCALE
  5
18A9
102
{ACAD_REACTORS
330
18A0
102
}
330
18A0
100
AcDbScale
 70
     0
300
1:30
140
1.0
141
30.0
290
     0
1001
ACAD
1000
AcRTDxfName
1000
SCALE
1000
AcRTDxfName
1000
SCALE
1000
AcRTDxfName
1000
SCALE
1000
AcRTDxfName
1000
SCALE
1000
AcRTDxfName
1000
SCALE
1000
AcRTDxfName
1000
SCALE
1000
AcRTDxfName
1000
SCALE
1000
AcRTDxfName
1000
SCALE
1000
AcRTDxfName
1000
SCALE
1000
AcRTDxfName
1000
SCALE
1000
AcRTDxfName
1000
SCALE
1000
AcRTDxfName
1000
SCALE
1000
AcRTDxfName
1000
SCALE
1000
AcRTDxfName
1000
SCALE
1000
AcRTDxfName
1000
SCALE
1000
AcRTDxfName
1000
SCALE
1000
AcRTDxfName
1000
SCALE
1000
AcRTDxfName
1000
SCALE
1000
AcRTDxfName
1000
SCALE
1000
AcRTDxfName
1000
SCALE
1000
AcRTDxfName
1000
SCALE
1000
AcRTDxfName
1000
SCALE
1000
AcRTDxfName
1000
SCALE
1000
AcRTDxfName
1000
SCALE
1000
AcRTDxfName
1000
SCALE
1000
AcRTDxfName
1000
SCALE
1000
AcRTDxfName
1000
SCALE
1000
AcRTDxfName
1000
SCALE
1000
AcRTDxfName
1000
SCALE
1000
AcRTDxfName
1000
SCALE
1000
AcRTDxfName
1000
SCALE
1000
AcRTDxfName
1000
SCALE
1000
AcRTDxfName
1000
SCALE
1000
AcRTDxfName
1000
SCALE
1000
AcRTDxfName
1000
SCALE
1000
AcRTDxfName
1000
SCALE
1000
AcRTDxfName
1000
SCALE
1000
AcRTDxfName
1000
SCALE
1000
AcRTDxfName
1000
SCALE
1000
AcRTDxfName
1000
SCALE
1000
AcRTDxfName
1000
SCALE
1000
AcRTDxfName
1000
SCALE
1000
AcRTDxfName
1000
SCALE
1000
AcRTDxfName
1000
SCALE
1000
AcRTDxfName
1000
SCALE
1000
AcRTDxfName
1000
SCALE
1000
AcRTDxfName
1000
SCALE
1000
AcRTDxfName
1000
SCALE
1000
AcRTDxfName
1000
SCALE
1000
AcRTDxfName
1000
SCALE
1000
AcRTDxfName
1000
SCALE
1000
AcRTDxfName
1000
SCALE
1000
AcRTDxfName
1000
SCALE
1000
AcRTDxfName
1000
SCALE
1000
AcRTDxfName
1000
SCALE
1000
AcRTDxfName
1000
SCALE
1000
AcRTDxfName
1000
SCALE
1000
AcRTDxfName
1000
SCALE
1000
AcRTDxfName
1000
SCALE
1000
AcRTDxfName
1000
SCALE
1000
AcRTDxfName
1000
SCALE
1000
AcRTDxfName
1000
SCALE
1000
AcRTDxfName
1000
SCALE
1000
AcRTDxfName
1000
SCALE
1000
AcRTDxfName
1000
SCALE
1000
AcRTDxfName
1000
SCALE
1000
AcRTDxfName
1000
SCALE
1000
AcRTDxfName
1000
SCALE
1000
AcRTDxfName
1000
SCALE
1000
AcRTDxfName
1000
SCALE
1000
AcRTDxfName
1000
SCALE
1000
AcRTDxfName
1000
SCALE
1000
AcRTDxfName
1000
SCALE
1000
AcRTDxfName
1000
SCALE
1000
AcRTDxfName
1000
SCALE
1000
AcRTDxfName
1000
SCALE
1000
AcRTDxfName
1000
SCALE
1000
AcRTDxfName
1000
SCALE
1000
AcRTDxfName
1000
SCALE
1000
AcRTDxfName
1000
SCALE
1000
AcRTDxfName
1000
SCALE
1000
AcRTDxfName
1000
SCALE
1000
AcRTDxfName
1000
SCALE
1000
AcRTDxfName
1000
SCALE
1000
AcRTDxfName
1000
SCALE
1000
AcRTDxfName
1000
SCALE
1000
AcRTDxfName
1000
SCALE
1000
AcRTDxfName
1000
SCALE
1000
AcRTDxfName
1000
SCALE
1000
AcRTDxfName
1000
SCALE
1000
AcRTDxfName
1000
SCALE
1000
AcRTDxfName
1000
SCALE
1000
AcRTDxfName
1000
SCALE
1000
AcRTDxfName
1000
SCALE
1000
AcRTDxfName
1000
SCALE
1000
AcRTDxfName
1000
SCALE
1000
AcRTDxfName
1000
SCALE
1000
AcRTDxfName
1000
SCALE
1000
AcRTDxfName
1000
SCALE
1000
AcRTDxfName
1000
SCALE
1000
AcRTDxfName
1000
SCALE
1000
AcRTDxfName
1000
SCALE
1000
AcRTDxfName
1000
SCALE
1000
AcRTDxfName
1000
SCALE
1000
AcRTDxfName
1000
SCALE
1000
AcRTDxfName
1000
SCALE
1000
AcRTDxfName
1000
SCALE
1000
AcRTDxfName
1000
SCALE
1000
AcRTDxfName
1000
SCALE
1000
AcRTDxfName
1000
SCALE
1000
AcRTDxfName
1000
SCALE
1000
AcRTDxfName
1000
SCALE
1000
AcRTDxfName
1000
SCALE
1000
AcRTDxfName
1000
SCALE
1000
AcRTDxfName
1000
SCALE
1000
AcRTDxfName
1000
SCALE
1000
AcRTDxfName
1000
SCALE
1000
AcRTDxfName
1000
SCALE
1000
AcRTDxfName
1000
SCALE
1000
AcRTDxfName
1000
SCALE
1000
AcRTDxfName
1000
SCALE
1000
AcRTDxfName
1000
SCALE
1000
AcRTDxfName
1000
SCALE
1000
AcRTDxfName
1000
SCALE
1000
AcRTDxfName
1000
SCALE
1000
AcRTDxfName
1000
SCALE
1000
AcRTDxfName
1000
SCALE
1000
AcRTDxfName
1000
SCALE
1000
AcRTDxfName
1000
SCALE
1000
AcRTDxfName
1000
SCALE
1000
AcRTDxfName
1000
SCALE
1000
AcRTDxfName
1000
SCALE
1000
AcRTDxfName
1000
SCALE
1000
AcRTDxfName
1000
SCALE
1000
AcRTDxfName
1000
SCALE
1000
AcRTDxfName
1000
SCALE
1000
AcRTDxfName
1000
SCALE
1000
AcRTDxfName
1000
SCALE
1000
AcRTDxfName
1000
SCALE
1000
AcRTDxfName
1000
SCALE
1000
AcRTDxfName
1000
SCALE
1000
AcRTDxfName
1000
SCALE
1000
AcRTDxfName
1000
SCALE
1000
AcRTDxfName
1000
SCALE
1000
AcRTDxfName
1000
SCALE
1000
AcRTDxfName
1000
SCALE
1000
AcRTDxfName
1000
SCALE
1000
AcRTDxfName
1000
SCALE
1000
AcRTDxfName
1000
SCALE
1000
AcRTDxfName
1000
SCALE
1000
AcRTDxfName
1000
SCALE
1000
AcRTDxfName
1000
SCALE
1000
AcRTDxfName
1000
SCALE
1000
AcRTDxfName
1000
SCALE
1000
AcRTDxfName
1000
SCALE
1000
AcRTDxfName
1000
SCALE
  0
SCALE
  5
18AA
102
{ACAD_REACTORS
330
18A0
102
}
330
18A0
100
AcDbScale
 70
     0
300
1:40
140
1.0
141
40.0
290
     0
1001
ACAD
1000
AcRTDxfName
1000
SCALE
1000
AcRTDxfName
1000
SCALE
1000
AcRTDxfName
1000
SCALE
1000
AcRTDxfName
1000
SCALE
1000
AcRTDxfName
1000
SCALE
1000
AcRTDxfName
1000
SCALE
1000
AcRTDxfName
1000
SCALE
1000
AcRTDxfName
1000
SCALE
1000
AcRTDxfName
1000
SCALE
1000
AcRTDxfName
1000
SCALE
1000
AcRTDxfName
1000
SCALE
1000
AcRTDxfName
1000
SCALE
1000
AcRTDxfName
1000
SCALE
1000
AcRTDxfName
1000
SCALE
1000
AcRTDxfName
1000
SCALE
1000
AcRTDxfName
1000
SCALE
1000
AcRTDxfName
1000
SCALE
1000
AcRTDxfName
1000
SCALE
1000
AcRTDxfName
1000
SCALE
1000
AcRTDxfName
1000
SCALE
1000
AcRTDxfName
1000
SCALE
1000
AcRTDxfName
1000
SCALE
1000
AcRTDxfName
1000
SCALE
1000
AcRTDxfName
1000
SCALE
1000
AcRTDxfName
1000
SCALE
1000
AcRTDxfName
1000
SCALE
1000
AcRTDxfName
1000
SCALE
1000
AcRTDxfName
1000
SCALE
1000
AcRTDxfName
1000
SCALE
1000
AcRTDxfName
1000
SCALE
1000
AcRTDxfName
1000
SCALE
1000
AcRTDxfName
1000
SCALE
1000
AcRTDxfName
1000
SCALE
1000
AcRTDxfName
1000
SCALE
1000
AcRTDxfName
1000
SCALE
1000
AcRTDxfName
1000
SCALE
1000
AcRTDxfName
1000
SCALE
1000
AcRTDxfName
1000
SCALE
1000
AcRTDxfName
1000
SCALE
1000
AcRTDxfName
1000
SCALE
1000
AcRTDxfName
1000
SCALE
1000
AcRTDxfName
1000
SCALE
1000
AcRTDxfName
1000
SCALE
1000
AcRTDxfName
1000
SCALE
1000
AcRTDxfName
1000
SCALE
1000
AcRTDxfName
1000
SCALE
1000
AcRTDxfName
1000
SCALE
1000
AcRTDxfName
1000
SCALE
1000
AcRTDxfName
1000
SCALE
1000
AcRTDxfName
1000
SCALE
1000
AcRTDxfName
1000
SCALE
1000
AcRTDxfName
1000
SCALE
1000
AcRTDxfName
1000
SCALE
1000
AcRTDxfName
1000
SCALE
1000
AcRTDxfName
1000
SCALE
1000
AcRTDxfName
1000
SCALE
1000
AcRTDxfName
1000
SCALE
1000
AcRTDxfName
1000
SCALE
1000
AcRTDxfName
1000
SCALE
1000
AcRTDxfName
1000
SCALE
1000
AcRTDxfName
1000
SCALE
1000
AcRTDxfName
1000
SCALE
1000
AcRTDxfName
1000
SCALE
1000
AcRTDxfName
1000
SCALE
1000
AcRTDxfName
1000
SCALE
1000
AcRTDxfName
1000
SCALE
1000
AcRTDxfName
1000
SCALE
1000
AcRTDxfName
1000
SCALE
1000
AcRTDxfName
1000
SCALE
1000
AcRTDxfName
1000
SCALE
1000
AcRTDxfName
1000
SCALE
1000
AcRTDxfName
1000
SCALE
1000
AcRTDxfName
1000
SCALE
1000
AcRTDxfName
1000
SCALE
1000
AcRTDxfName
1000
SCALE
1000
AcRTDxfName
1000
SCALE
1000
AcRTDxfName
1000
SCALE
1000
AcRTDxfName
1000
SCALE
1000
AcRTDxfName
1000
SCALE
1000
AcRTDxfName
1000
SCALE
1000
AcRTDxfName
1000
SCALE
1000
AcRTDxfName
1000
SCALE
1000
AcRTDxfName
1000
SCALE
1000
AcRTDxfName
1000
SCALE
1000
AcRTDxfName
1000
SCALE
1000
AcRTDxfName
1000
SCALE
1000
AcRTDxfName
1000
SCALE
1000
AcRTDxfName
1000
SCALE
1000
AcRTDxfName
1000
SCALE
1000
AcRTDxfName
1000
SCALE
1000
AcRTDxfName
1000
SCALE
1000
AcRTDxfName
1000
SCALE
1000
AcRTDxfName
1000
SCALE
1000
AcRTDxfName
1000
SCALE
1000
AcRTDxfName
1000
SCALE
1000
AcRTDxfName
1000
SCALE
1000
AcRTDxfName
1000
SCALE
1000
AcRTDxfName
1000
SCALE
1000
AcRTDxfName
1000
SCALE
1000
AcRTDxfName
1000
SCALE
1000
AcRTDxfName
1000
SCALE
1000
AcRTDxfName
1000
SCALE
1000
AcRTDxfName
1000
SCALE
1000
AcRTDxfName
1000
SCALE
1000
AcRTDxfName
1000
SCALE
1000
AcRTDxfName
1000
SCALE
1000
AcRTDxfName
1000
SCALE
1000
AcRTDxfName
1000
SCALE
1000
AcRTDxfName
1000
SCALE
1000
AcRTDxfName
1000
SCALE
1000
AcRTDxfName
1000
SCALE
1000
AcRTDxfName
1000
SCALE
1000
AcRTDxfName
1000
SCALE
1000
AcRTDxfName
1000
SCALE
1000
AcRTDxfName
1000
SCALE
1000
AcRTDxfName
1000
SCALE
1000
AcRTDxfName
1000
SCALE
1000
AcRTDxfName
1000
SCALE
1000
AcRTDxfName
1000
SCALE
1000
AcRTDxfName
1000
SCALE
1000
AcRTDxfName
1000
SCALE
1000
AcRTDxfName
1000
SCALE
1000
AcRTDxfName
1000
SCALE
1000
AcRTDxfName
1000
SCALE
1000
AcRTDxfName
1000
SCALE
1000
AcRTDxfName
1000
SCALE
1000
AcRTDxfName
1000
SCALE
1000
AcRTDxfName
1000
SCALE
1000
AcRTDxfName
1000
SCALE
1000
AcRTDxfName
1000
SCALE
1000
AcRTDxfName
1000
SCALE
1000
AcRTDxfName
1000
SCALE
1000
AcRTDxfName
1000
SCALE
1000
AcRTDxfName
1000
SCALE
1000
AcRTDxfName
1000
SCALE
1000
AcRTDxfName
1000
SCALE
1000
AcRTDxfName
1000
SCALE
1000
AcRTDxfName
1000
SCALE
1000
AcRTDxfName
1000
SCALE
1000
AcRTDxfName
1000
SCALE
1000
AcRTDxfName
1000
SCALE
1000
AcRTDxfName
1000
SCALE
1000
AcRTDxfName
1000
SCALE
1000
AcRTDxfName
1000
SCALE
1000
AcRTDxfName
1000
SCALE
1000
AcRTDxfName
1000
SCALE
1000
AcRTDxfName
1000
SCALE
1000
AcRTDxfName
1000
SCALE
1000
AcRTDxfName
1000
SCALE
1000
AcRTDxfName
1000
SCALE
1000
AcRTDxfName
1000
SCALE
1000
AcRTDxfName
1000
SCALE
1000
AcRTDxfName
1000
SCALE
1000
AcRTDxfName
1000
SCALE
1000
AcRTDxfName
1000
SCALE
1000
AcRTDxfName
1000
SCALE
  0
SCALE
  5
18AB
102
{ACAD_REACTORS
330
18A0
102
}
330
18A0
100
AcDbScale
 70
     0
300
1:50
140
1.0
141
50.0
290
     0
1001
ACAD
1000
AcRTDxfName
1000
SCALE
1000
AcRTDxfName
1000
SCALE
1000
AcRTDxfName
1000
SCALE
1000
AcRTDxfName
1000
SCALE
1000
AcRTDxfName
1000
SCALE
1000
AcRTDxfName
1000
SCALE
1000
AcRTDxfName
1000
SCALE
1000
AcRTDxfName
1000
SCALE
1000
AcRTDxfName
1000
SCALE
1000
AcRTDxfName
1000
SCALE
1000
AcRTDxfName
1000
SCALE
1000
AcRTDxfName
1000
SCALE
1000
AcRTDxfName
1000
SCALE
1000
AcRTDxfName
1000
SCALE
1000
AcRTDxfName
1000
SCALE
1000
AcRTDxfName
1000
SCALE
1000
AcRTDxfName
1000
SCALE
1000
AcRTDxfName
1000
SCALE
1000
AcRTDxfName
1000
SCALE
1000
AcRTDxfName
1000
SCALE
1000
AcRTDxfName
1000
SCALE
1000
AcRTDxfName
1000
SCALE
1000
AcRTDxfName
1000
SCALE
1000
AcRTDxfName
1000
SCALE
1000
AcRTDxfName
1000
SCALE
1000
AcRTDxfName
1000
SCALE
1000
AcRTDxfName
1000
SCALE
1000
AcRTDxfName
1000
SCALE
1000
AcRTDxfName
1000
SCALE
1000
AcRTDxfName
1000
SCALE
1000
AcRTDxfName
1000
SCALE
1000
AcRTDxfName
1000
SCALE
1000
AcRTDxfName
1000
SCALE
1000
AcRTDxfName
1000
SCALE
1000
AcRTDxfName
1000
SCALE
1000
AcRTDxfName
1000
SCALE
1000
AcRTDxfName
1000
SCALE
1000
AcRTDxfName
1000
SCALE
1000
AcRTDxfName
1000
SCALE
1000
AcRTDxfName
1000
SCALE
1000
AcRTDxfName
1000
SCALE
1000
AcRTDxfName
1000
SCALE
1000
AcRTDxfName
1000
SCALE
1000
AcRTDxfName
1000
SCALE
1000
AcRTDxfName
1000
SCALE
1000
AcRTDxfName
1000
SCALE
1000
AcRTDxfName
1000
SCALE
1000
AcRTDxfName
1000
SCALE
1000
AcRTDxfName
1000
SCALE
1000
AcRTDxfName
1000
SCALE
1000
AcRTDxfName
1000
SCALE
1000
AcRTDxfName
1000
SCALE
1000
AcRTDxfName
1000
SCALE
1000
AcRTDxfName
1000
SCALE
1000
AcRTDxfName
1000
SCALE
1000
AcRTDxfName
1000
SCALE
1000
AcRTDxfName
1000
SCALE
1000
AcRTDxfName
1000
SCALE
1000
AcRTDxfName
1000
SCALE
1000
AcRTDxfName
1000
SCALE
1000
AcRTDxfName
1000
SCALE
1000
AcRTDxfName
1000
SCALE
1000
AcRTDxfName
1000
SCALE
1000
AcRTDxfName
1000
SCALE
1000
AcRTDxfName
1000
SCALE
1000
AcRTDxfName
1000
SCALE
1000
AcRTDxfName
1000
SCALE
1000
AcRTDxfName
1000
SCALE
1000
AcRTDxfName
1000
SCALE
1000
AcRTDxfName
1000
SCALE
1000
AcRTDxfName
1000
SCALE
1000
AcRTDxfName
1000
SCALE
1000
AcRTDxfName
1000
SCALE
1000
AcRTDxfName
1000
SCALE
1000
AcRTDxfName
1000
SCALE
1000
AcRTDxfName
1000
SCALE
1000
AcRTDxfName
1000
SCALE
1000
AcRTDxfName
1000
SCALE
1000
AcRTDxfName
1000
SCALE
1000
AcRTDxfName
1000
SCALE
1000
AcRTDxfName
1000
SCALE
1000
AcRTDxfName
1000
SCALE
1000
AcRTDxfName
1000
SCALE
1000
AcRTDxfName
1000
SCALE
1000
AcRTDxfName
1000
SCALE
1000
AcRTDxfName
1000
SCALE
1000
AcRTDxfName
1000
SCALE
1000
AcRTDxfName
1000
SCALE
1000
AcRTDxfName
1000
SCALE
1000
AcRTDxfName
1000
SCALE
1000
AcRTDxfName
1000
SCALE
1000
AcRTDxfName
1000
SCALE
1000
AcRTDxfName
1000
SCALE
1000
AcRTDxfName
1000
SCALE
1000
AcRTDxfName
1000
SCALE
1000
AcRTDxfName
1000
SCALE
1000
AcRTDxfName
1000
SCALE
1000
AcRTDxfName
1000
SCALE
1000
AcRTDxfName
1000
SCALE
1000
AcRTDxfName
1000
SCALE
1000
AcRTDxfName
1000
SCALE
1000
AcRTDxfName
1000
SCALE
1000
AcRTDxfName
1000
SCALE
1000
AcRTDxfName
1000
SCALE
1000
AcRTDxfName
1000
SCALE
1000
AcRTDxfName
1000
SCALE
1000
AcRTDxfName
1000
SCALE
1000
AcRTDxfName
1000
SCALE
1000
AcRTDxfName
1000
SCALE
1000
AcRTDxfName
1000
SCALE
1000
AcRTDxfName
1000
SCALE
1000
AcRTDxfName
1000
SCALE
1000
AcRTDxfName
1000
SCALE
1000
AcRTDxfName
1000
SCALE
1000
AcRTDxfName
1000
SCALE
1000
AcRTDxfName
1000
SCALE
1000
AcRTDxfName
1000
SCALE
1000
AcRTDxfName
1000
SCALE
1000
AcRTDxfName
1000
SCALE
1000
AcRTDxfName
1000
SCALE
1000
AcRTDxfName
1000
SCALE
1000
AcRTDxfName
1000
SCALE
1000
AcRTDxfName
1000
SCALE
1000
AcRTDxfName
1000
SCALE
1000
AcRTDxfName
1000
SCALE
1000
AcRTDxfName
1000
SCALE
1000
AcRTDxfName
1000
SCALE
1000
AcRTDxfName
1000
SCALE
1000
AcRTDxfName
1000
SCALE
1000
AcRTDxfName
1000
SCALE
1000
AcRTDxfName
1000
SCALE
1000
AcRTDxfName
1000
SCALE
1000
AcRTDxfName
1000
SCALE
1000
AcRTDxfName
1000
SCALE
1000
AcRTDxfName
1000
SCALE
1000
AcRTDxfName
1000
SCALE
1000
AcRTDxfName
1000
SCALE
1000
AcRTDxfName
1000
SCALE
1000
AcRTDxfName
1000
SCALE
1000
AcRTDxfName
1000
SCALE
1000
AcRTDxfName
1000
SCALE
1000
AcRTDxfName
1000
SCALE
1000
AcRTDxfName
1000
SCALE
1000
AcRTDxfName
1000
SCALE
1000
AcRTDxfName
1000
SCALE
1000
AcRTDxfName
1000
SCALE
1000
AcRTDxfName
1000
SCALE
1000
AcRTDxfName
1000
SCALE
1000
AcRTDxfName
1000
SCALE
1000
AcRTDxfName
1000
SCALE
1000
AcRTDxfName
1000
SCALE
1000
AcRTDxfName
1000
SCALE
1000
AcRTDxfName
1000
SCALE
1000
AcRTDxfName
1000
SCALE
1000
AcRTDxfName
1000
SCALE
1000
AcRTDxfName
1000
SCALE
  0
SCALE
  5
18AC
102
{ACAD_REACTORS
330
18A0
102
}
330
18A0
100
AcDbScale
 70
     0
300
1:100
140
1.0
141
100.0
290
     0
1001
ACAD
1000
AcRTDxfName
1000
SCALE
1000
AcRTDxfName
1000
SCALE
1000
AcRTDxfName
1000
SCALE
1000
AcRTDxfName
1000
SCALE
1000
AcRTDxfName
1000
SCALE
1000
AcRTDxfName
1000
SCALE
1000
AcRTDxfName
1000
SCALE
1000
AcRTDxfName
1000
SCALE
1000
AcRTDxfName
1000
SCALE
1000
AcRTDxfName
1000
SCALE
1000
AcRTDxfName
1000
SCALE
1000
AcRTDxfName
1000
SCALE
1000
AcRTDxfName
1000
SCALE
1000
AcRTDxfName
1000
SCALE
1000
AcRTDxfName
1000
SCALE
1000
AcRTDxfName
1000
SCALE
1000
AcRTDxfName
1000
SCALE
1000
AcRTDxfName
1000
SCALE
1000
AcRTDxfName
1000
SCALE
1000
AcRTDxfName
1000
SCALE
1000
AcRTDxfName
1000
SCALE
1000
AcRTDxfName
1000
SCALE
1000
AcRTDxfName
1000
SCALE
1000
AcRTDxfName
1000
SCALE
1000
AcRTDxfName
1000
SCALE
1000
AcRTDxfName
1000
SCALE
1000
AcRTDxfName
1000
SCALE
1000
AcRTDxfName
1000
SCALE
1000
AcRTDxfName
1000
SCALE
1000
AcRTDxfName
1000
SCALE
1000
AcRTDxfName
1000
SCALE
1000
AcRTDxfName
1000
SCALE
1000
AcRTDxfName
1000
SCALE
1000
AcRTDxfName
1000
SCALE
1000
AcRTDxfName
1000
SCALE
1000
AcRTDxfName
1000
SCALE
1000
AcRTDxfName
1000
SCALE
1000
AcRTDxfName
1000
SCALE
1000
AcRTDxfName
1000
SCALE
1000
AcRTDxfName
1000
SCALE
1000
AcRTDxfName
1000
SCALE
1000
AcRTDxfName
1000
SCALE
1000
AcRTDxfName
1000
SCALE
1000
AcRTDxfName
1000
SCALE
1000
AcRTDxfName
1000
SCALE
1000
AcRTDxfName
1000
SCALE
1000
AcRTDxfName
1000
SCALE
1000
AcRTDxfName
1000
SCALE
1000
AcRTDxfName
1000
SCALE
1000
AcRTDxfName
1000
SCALE
1000
AcRTDxfName
1000
SCALE
1000
AcRTDxfName
1000
SCALE
1000
AcRTDxfName
1000
SCALE
1000
AcRTDxfName
1000
SCALE
1000
AcRTDxfName
1000
SCALE
1000
AcRTDxfName
1000
SCALE
1000
AcRTDxfName
1000
SCALE
1000
AcRTDxfName
1000
SCALE
1000
AcRTDxfName
1000
SCALE
1000
AcRTDxfName
1000
SCALE
1000
AcRTDxfName
1000
SCALE
1000
AcRTDxfName
1000
SCALE
1000
AcRTDxfName
1000
SCALE
1000
AcRTDxfName
1000
SCALE
1000
AcRTDxfName
1000
SCALE
1000
AcRTDxfName
1000
SCALE
1000
AcRTDxfName
1000
SCALE
1000
AcRTDxfName
1000
SCALE
1000
AcRTDxfName
1000
SCALE
1000
AcRTDxfName
1000
SCALE
1000
AcRTDxfName
1000
SCALE
1000
AcRTDxfName
1000
SCALE
1000
AcRTDxfName
1000
SCALE
1000
AcRTDxfName
1000
SCALE
1000
AcRTDxfName
1000
SCALE
1000
AcRTDxfName
1000
SCALE
1000
AcRTDxfName
1000
SCALE
1000
AcRTDxfName
1000
SCALE
1000
AcRTDxfName
1000
SCALE
1000
AcRTDxfName
1000
SCALE
1000
AcRTDxfName
1000
SCALE
1000
AcRTDxfName
1000
SCALE
1000
AcRTDxfName
1000
SCALE
1000
AcRTDxfName
1000
SCALE
1000
AcRTDxfName
1000
SCALE
1000
AcRTDxfName
1000
SCALE
1000
AcRTDxfName
1000
SCALE
1000
AcRTDxfName
1000
SCALE
1000
AcRTDxfName
1000
SCALE
1000
AcRTDxfName
1000
SCALE
1000
AcRTDxfName
1000
SCALE
1000
AcRTDxfName
1000
SCALE
1000
AcRTDxfName
1000
SCALE
1000
AcRTDxfName
1000
SCALE
1000
AcRTDxfName
1000
SCALE
1000
AcRTDxfName
1000
SCALE
1000
AcRTDxfName
1000
SCALE
1000
AcRTDxfName
1000
SCALE
1000
AcRTDxfName
1000
SCALE
1000
AcRTDxfName
1000
SCALE
1000
AcRTDxfName
1000
SCALE
1000
AcRTDxfName
1000
SCALE
1000
AcRTDxfName
1000
SCALE
1000
AcRTDxfName
1000
SCALE
1000
AcRTDxfName
1000
SCALE
1000
AcRTDxfName
1000
SCALE
1000
AcRTDxfName
1000
SCALE
1000
AcRTDxfName
1000
SCALE
1000
AcRTDxfName
1000
SCALE
1000
AcRTDxfName
1000
SCALE
1000
AcRTDxfName
1000
SCALE
1000
AcRTDxfName
1000
SCALE
1000
AcRTDxfName
1000
SCALE
1000
AcRTDxfName
1000
SCALE
1000
AcRTDxfName
1000
SCALE
1000
AcRTDxfName
1000
SCALE
1000
AcRTDxfName
1000
SCALE
1000
AcRTDxfName
1000
SCALE
1000
AcRTDxfName
1000
SCALE
1000
AcRTDxfName
1000
SCALE
1000
AcRTDxfName
1000
SCALE
1000
AcRTDxfName
1000
SCALE
1000
AcRTDxfName
1000
SCALE
1000
AcRTDxfName
1000
SCALE
1000
AcRTDxfName
1000
SCALE
1000
AcRTDxfName
1000
SCALE
1000
AcRTDxfName
1000
SCALE
1000
AcRTDxfName
1000
SCALE
1000
AcRTDxfName
1000
SCALE
1000
AcRTDxfName
1000
SCALE
1000
AcRTDxfName
1000
SCALE
1000
AcRTDxfName
1000
SCALE
1000
AcRTDxfName
1000
SCALE
1000
AcRTDxfName
1000
SCALE
1000
AcRTDxfName
1000
SCALE
1000
AcRTDxfName
1000
SCALE
1000
AcRTDxfName
1000
SCALE
1000
AcRTDxfName
1000
SCALE
1000
AcRTDxfName
1000
SCALE
1000
AcRTDxfName
1000
SCALE
1000
AcRTDxfName
1000
SCALE
1000
AcRTDxfName
1000
SCALE
1000
AcRTDxfName
1000
SCALE
1000
AcRTDxfName
1000
SCALE
1000
AcRTDxfName
1000
SCALE
1000
AcRTDxfName
1000
SCALE
1000
AcRTDxfName
1000
SCALE
1000
AcRTDxfName
1000
SCALE
1000
AcRTDxfName
1000
SCALE
1000
AcRTDxfName
1000
SCALE
1000
AcRTDxfName
1000
SCALE
1000
AcRTDxfName
1000
SCALE
1000
AcRTDxfName
1000
SCALE
1000
AcRTDxfName
1000
SCALE
1000
AcRTDxfName
1000
SCALE
1000
AcRTDxfName
1000
SCALE
  0
SCALE
  5
18AD
102
{ACAD_REACTORS
330
18A0
102
}
330
18A0
100
AcDbScale
 70
     0
300
2:1
140
2.0
141
1.0
290
     0
1001
ACAD
1000
AcRTDxfName
1000
SCALE
1000
AcRTDxfName
1000
SCALE
1000
AcRTDxfName
1000
SCALE
1000
AcRTDxfName
1000
SCALE
1000
AcRTDxfName
1000
SCALE
1000
AcRTDxfName
1000
SCALE
1000
AcRTDxfName
1000
SCALE
1000
AcRTDxfName
1000
SCALE
1000
AcRTDxfName
1000
SCALE
1000
AcRTDxfName
1000
SCALE
1000
AcRTDxfName
1000
SCALE
1000
AcRTDxfName
1000
SCALE
1000
AcRTDxfName
1000
SCALE
1000
AcRTDxfName
1000
SCALE
1000
AcRTDxfName
1000
SCALE
1000
AcRTDxfName
1000
SCALE
1000
AcRTDxfName
1000
SCALE
1000
AcRTDxfName
1000
SCALE
1000
AcRTDxfName
1000
SCALE
1000
AcRTDxfName
1000
SCALE
1000
AcRTDxfName
1000
SCALE
1000
AcRTDxfName
1000
SCALE
1000
AcRTDxfName
1000
SCALE
1000
AcRTDxfName
1000
SCALE
1000
AcRTDxfName
1000
SCALE
1000
AcRTDxfName
1000
SCALE
1000
AcRTDxfName
1000
SCALE
1000
AcRTDxfName
1000
SCALE
1000
AcRTDxfName
1000
SCALE
1000
AcRTDxfName
1000
SCALE
1000
AcRTDxfName
1000
SCALE
1000
AcRTDxfName
1000
SCALE
1000
AcRTDxfName
1000
SCALE
1000
AcRTDxfName
1000
SCALE
1000
AcRTDxfName
1000
SCALE
1000
AcRTDxfName
1000
SCALE
1000
AcRTDxfName
1000
SCALE
1000
AcRTDxfName
1000
SCALE
1000
AcRTDxfName
1000
SCALE
1000
AcRTDxfName
1000
SCALE
1000
AcRTDxfName
1000
SCALE
1000
AcRTDxfName
1000
SCALE
1000
AcRTDxfName
1000
SCALE
1000
AcRTDxfName
1000
SCALE
1000
AcRTDxfName
1000
SCALE
1000
AcRTDxfName
1000
SCALE
1000
AcRTDxfName
1000
SCALE
1000
AcRTDxfName
1000
SCALE
1000
AcRTDxfName
1000
SCALE
1000
AcRTDxfName
1000
SCALE
1000
AcRTDxfName
1000
SCALE
1000
AcRTDxfName
1000
SCALE
1000
AcRTDxfName
1000
SCALE
1000
AcRTDxfName
1000
SCALE
1000
AcRTDxfName
1000
SCALE
1000
AcRTDxfName
1000
SCALE
1000
AcRTDxfName
1000
SCALE
1000
AcRTDxfName
1000
SCALE
1000
AcRTDxfName
1000
SCALE
1000
AcRTDxfName
1000
SCALE
1000
AcRTDxfName
1000
SCALE
1000
AcRTDxfName
1000
SCALE
1000
AcRTDxfName
1000
SCALE
1000
AcRTDxfName
1000
SCALE
1000
AcRTDxfName
1000
SCALE
1000
AcRTDxfName
1000
SCALE
1000
AcRTDxfName
1000
SCALE
1000
AcRTDxfName
1000
SCALE
1000
AcRTDxfName
1000
SCALE
1000
AcRTDxfName
1000
SCALE
1000
AcRTDxfName
1000
SCALE
1000
AcRTDxfName
1000
SCALE
1000
AcRTDxfName
1000
SCALE
1000
AcRTDxfName
1000
SCALE
1000
AcRTDxfName
1000
SCALE
1000
AcRTDxfName
1000
SCALE
1000
AcRTDxfName
1000
SCALE
1000
AcRTDxfName
1000
SCALE
1000
AcRTDxfName
1000
SCALE
1000
AcRTDxfName
1000
SCALE
1000
AcRTDxfName
1000
SCALE
1000
AcRTDxfName
1000
SCALE
1000
AcRTDxfName
1000
SCALE
1000
AcRTDxfName
1000
SCALE
1000
AcRTDxfName
1000
SCALE
1000
AcRTDxfName
1000
SCALE
1000
AcRTDxfName
1000
SCALE
1000
AcRTDxfName
1000
SCALE
1000
AcRTDxfName
1000
SCALE
1000
AcRTDxfName
1000
SCALE
1000
AcRTDxfName
1000
SCALE
1000
AcRTDxfName
1000
SCALE
1000
AcRTDxfName
1000
SCALE
1000
AcRTDxfName
1000
SCALE
1000
AcRTDxfName
1000
SCALE
1000
AcRTDxfName
1000
SCALE
1000
AcRTDxfName
1000
SCALE
1000
AcRTDxfName
1000
SCALE
1000
AcRTDxfName
1000
SCALE
1000
AcRTDxfName
1000
SCALE
1000
AcRTDxfName
1000
SCALE
1000
AcRTDxfName
1000
SCALE
1000
AcRTDxfName
1000
SCALE
1000
AcRTDxfName
1000
SCALE
1000
AcRTDxfName
1000
SCALE
1000
AcRTDxfName
1000
SCALE
1000
AcRTDxfName
1000
SCALE
1000
AcRTDxfName
1000
SCALE
1000
AcRTDxfName
1000
SCALE
1000
AcRTDxfName
1000
SCALE
1000
AcRTDxfName
1000
SCALE
1000
AcRTDxfName
1000
SCALE
1000
AcRTDxfName
1000
SCALE
1000
AcRTDxfName
1000
SCALE
1000
AcRTDxfName
1000
SCALE
1000
AcRTDxfName
1000
SCALE
1000
AcRTDxfName
1000
SCALE
1000
AcRTDxfName
1000
SCALE
1000
AcRTDxfName
1000
SCALE
1000
AcRTDxfName
1000
SCALE
1000
AcRTDxfName
1000
SCALE
1000
AcRTDxfName
1000
SCALE
1000
AcRTDxfName
1000
SCALE
1000
AcRTDxfName
1000
SCALE
1000
AcRTDxfName
1000
SCALE
1000
AcRTDxfName
1000
SCALE
1000
AcRTDxfName
1000
SCALE
1000
AcRTDxfName
1000
SCALE
1000
AcRTDxfName
1000
SCALE
1000
AcRTDxfName
1000
SCALE
1000
AcRTDxfName
1000
SCALE
1000
AcRTDxfName
1000
SCALE
1000
AcRTDxfName
1000
SCALE
1000
AcRTDxfName
1000
SCALE
1000
AcRTDxfName
1000
SCALE
1000
AcRTDxfName
1000
SCALE
1000
AcRTDxfName
1000
SCALE
1000
AcRTDxfName
1000
SCALE
1000
AcRTDxfName
1000
SCALE
1000
AcRTDxfName
1000
SCALE
1000
AcRTDxfName
1000
SCALE
1000
AcRTDxfName
1000
SCALE
1000
AcRTDxfName
1000
SCALE
1000
AcRTDxfName
1000
SCALE
1000
AcRTDxfName
1000
SCALE
1000
AcRTDxfName
1000
SCALE
1000
AcRTDxfName
1000
SCALE
1000
AcRTDxfName
1000
SCALE
1000
AcRTDxfName
1000
SCALE
1000
AcRTDxfName
1000
SCALE
1000
AcRTDxfName
1000
SCALE
1000
AcRTDxfName
1000
SCALE
1000
AcRTDxfName
1000
SCALE
1000
AcRTDxfName
1000
SCALE
1000
AcRTDxfName
1000
SCALE
1000
AcRTDxfName
1000
SCALE
  0
SCALE
  5
18AE
102
{ACAD_REACTORS
330
18A0
102
}
330
18A0
100
AcDbScale
 70
     0
300
4:1
140
4.0
141
1.0
290
     0
1001
ACAD
1000
AcRTDxfName
1000
SCALE
1000
AcRTDxfName
1000
SCALE
1000
AcRTDxfName
1000
SCALE
1000
AcRTDxfName
1000
SCALE
1000
AcRTDxfName
1000
SCALE
1000
AcRTDxfName
1000
SCALE
1000
AcRTDxfName
1000
SCALE
1000
AcRTDxfName
1000
SCALE
1000
AcRTDxfName
1000
SCALE
1000
AcRTDxfName
1000
SCALE
1000
AcRTDxfName
1000
SCALE
1000
AcRTDxfName
1000
SCALE
1000
AcRTDxfName
1000
SCALE
1000
AcRTDxfName
1000
SCALE
1000
AcRTDxfName
1000
SCALE
1000
AcRTDxfName
1000
SCALE
1000
AcRTDxfName
1000
SCALE
1000
AcRTDxfName
1000
SCALE
1000
AcRTDxfName
1000
SCALE
1000
AcRTDxfName
1000
SCALE
1000
AcRTDxfName
1000
SCALE
1000
AcRTDxfName
1000
SCALE
1000
AcRTDxfName
1000
SCALE
1000
AcRTDxfName
1000
SCALE
1000
AcRTDxfName
1000
SCALE
1000
AcRTDxfName
1000
SCALE
1000
AcRTDxfName
1000
SCALE
1000
AcRTDxfName
1000
SCALE
1000
AcRTDxfName
1000
SCALE
1000
AcRTDxfName
1000
SCALE
1000
AcRTDxfName
1000
SCALE
1000
AcRTDxfName
1000
SCALE
1000
AcRTDxfName
1000
SCALE
1000
AcRTDxfName
1000
SCALE
1000
AcRTDxfName
1000
SCALE
1000
AcRTDxfName
1000
SCALE
1000
AcRTDxfName
1000
SCALE
1000
AcRTDxfName
1000
SCALE
1000
AcRTDxfName
1000
SCALE
1000
AcRTDxfName
1000
SCALE
1000
AcRTDxfName
1000
SCALE
1000
AcRTDxfName
1000
SCALE
1000
AcRTDxfName
1000
SCALE
1000
AcRTDxfName
1000
SCALE
1000
AcRTDxfName
1000
SCALE
1000
AcRTDxfName
1000
SCALE
1000
AcRTDxfName
1000
SCALE
1000
AcRTDxfName
1000
SCALE
1000
AcRTDxfName
1000
SCALE
1000
AcRTDxfName
1000
SCALE
1000
AcRTDxfName
1000
SCALE
1000
AcRTDxfName
1000
SCALE
1000
AcRTDxfName
1000
SCALE
1000
AcRTDxfName
1000
SCALE
1000
AcRTDxfName
1000
SCALE
1000
AcRTDxfName
1000
SCALE
1000
AcRTDxfName
1000
SCALE
1000
AcRTDxfName
1000
SCALE
1000
AcRTDxfName
1000
SCALE
1000
AcRTDxfName
1000
SCALE
1000
AcRTDxfName
1000
SCALE
1000
AcRTDxfName
1000
SCALE
1000
AcRTDxfName
1000
SCALE
1000
AcRTDxfName
1000
SCALE
1000
AcRTDxfName
1000
SCALE
1000
AcRTDxfName
1000
SCALE
1000
AcRTDxfName
1000
SCALE
1000
AcRTDxfName
1000
SCALE
1000
AcRTDxfName
1000
SCALE
1000
AcRTDxfName
1000
SCALE
1000
AcRTDxfName
1000
SCALE
1000
AcRTDxfName
1000
SCALE
1000
AcRTDxfName
1000
SCALE
1000
AcRTDxfName
1000
SCALE
1000
AcRTDxfName
1000
SCALE
1000
AcRTDxfName
1000
SCALE
1000
AcRTDxfName
1000
SCALE
1000
AcRTDxfName
1000
SCALE
1000
AcRTDxfName
1000
SCALE
1000
AcRTDxfName
1000
SCALE
1000
AcRTDxfName
1000
SCALE
1000
AcRTDxfName
1000
SCALE
1000
AcRTDxfName
1000
SCALE
1000
AcRTDxfName
1000
SCALE
1000
AcRTDxfName
1000
SCALE
1000
AcRTDxfName
1000
SCALE
1000
AcRTDxfName
1000
SCALE
1000
AcRTDxfName
1000
SCALE
1000
AcRTDxfName
1000
SCALE
1000
AcRTDxfName
1000
SCALE
1000
AcRTDxfName
1000
SCALE
1000
AcRTDxfName
1000
SCALE
1000
AcRTDxfName
1000
SCALE
1000
AcRTDxfName
1000
SCALE
1000
AcRTDxfName
1000
SCALE
1000
AcRTDxfName
1000
SCALE
1000
AcRTDxfName
1000
SCALE
1000
AcRTDxfName
1000
SCALE
1000
AcRTDxfName
1000
SCALE
1000
AcRTDxfName
1000
SCALE
1000
AcRTDxfName
1000
SCALE
1000
AcRTDxfName
1000
SCALE
1000
AcRTDxfName
1000
SCALE
1000
AcRTDxfName
1000
SCALE
1000
AcRTDxfName
1000
SCALE
1000
AcRTDxfName
1000
SCALE
1000
AcRTDxfName
1000
SCALE
1000
AcRTDxfName
1000
SCALE
1000
AcRTDxfName
1000
SCALE
1000
AcRTDxfName
1000
SCALE
1000
AcRTDxfName
1000
SCALE
1000
AcRTDxfName
1000
SCALE
1000
AcRTDxfName
1000
SCALE
1000
AcRTDxfName
1000
SCALE
1000
AcRTDxfName
1000
SCALE
1000
AcRTDxfName
1000
SCALE
1000
AcRTDxfName
1000
SCALE
1000
AcRTDxfName
1000
SCALE
1000
AcRTDxfName
1000
SCALE
1000
AcRTDxfName
1000
SCALE
1000
AcRTDxfName
1000
SCALE
1000
AcRTDxfName
1000
SCALE
1000
AcRTDxfName
1000
SCALE
1000
AcRTDxfName
1000
SCALE
1000
AcRTDxfName
1000
SCALE
1000
AcRTDxfName
1000
SCALE
1000
AcRTDxfName
1000
SCALE
1000
AcRTDxfName
1000
SCALE
1000
AcRTDxfName
1000
SCALE
1000
AcRTDxfName
1000
SCALE
1000
AcRTDxfName
1000
SCALE
1000
AcRTDxfName
1000
SCALE
1000
AcRTDxfName
1000
SCALE
1000
AcRTDxfName
1000
SCALE
1000
AcRTDxfName
1000
SCALE
1000
AcRTDxfName
1000
SCALE
1000
AcRTDxfName
1000
SCALE
1000
AcRTDxfName
1000
SCALE
1000
AcRTDxfName
1000
SCALE
1000
AcRTDxfName
1000
SCALE
1000
AcRTDxfName
1000
SCALE
1000
AcRTDxfName
1000
SCALE
1000
AcRTDxfName
1000
SCALE
1000
AcRTDxfName
1000
SCALE
1000
AcRTDxfName
1000
SCALE
1000
AcRTDxfName
1000
SCALE
1000
AcRTDxfName
1000
SCALE
1000
AcRTDxfName
1000
SCALE
1000
AcRTDxfName
1000
SCALE
1000
AcRTDxfName
1000
SCALE
1000
AcRTDxfName
1000
SCALE
1000
AcRTDxfName
1000
SCALE
1000
AcRTDxfName
1000
SCALE
1000
AcRTDxfName
1000
SCALE
1000
AcRTDxfName
1000
SCALE
1000
AcRTDxfName
1000
SCALE
  0
SCALE
  5
18AF
102
{ACAD_REACTORS
330
18A0
102
}
330
18A0
100
AcDbScale
 70
     0
300
8:1
140
8.0
141
1.0
290
     0
1001
ACAD
1000
AcRTDxfName
1000
SCALE
1000
AcRTDxfName
1000
SCALE
1000
AcRTDxfName
1000
SCALE
1000
AcRTDxfName
1000
SCALE
1000
AcRTDxfName
1000
SCALE
1000
AcRTDxfName
1000
SCALE
1000
AcRTDxfName
1000
SCALE
1000
AcRTDxfName
1000
SCALE
1000
AcRTDxfName
1000
SCALE
1000
AcRTDxfName
1000
SCALE
1000
AcRTDxfName
1000
SCALE
1000
AcRTDxfName
1000
SCALE
1000
AcRTDxfName
1000
SCALE
1000
AcRTDxfName
1000
SCALE
1000
AcRTDxfName
1000
SCALE
1000
AcRTDxfName
1000
SCALE
1000
AcRTDxfName
1000
SCALE
1000
AcRTDxfName
1000
SCALE
1000
AcRTDxfName
1000
SCALE
1000
AcRTDxfName
1000
SCALE
1000
AcRTDxfName
1000
SCALE
1000
AcRTDxfName
1000
SCALE
1000
AcRTDxfName
1000
SCALE
1000
AcRTDxfName
1000
SCALE
1000
AcRTDxfName
1000
SCALE
1000
AcRTDxfName
1000
SCALE
1000
AcRTDxfName
1000
SCALE
1000
AcRTDxfName
1000
SCALE
1000
AcRTDxfName
1000
SCALE
1000
AcRTDxfName
1000
SCALE
1000
AcRTDxfName
1000
SCALE
1000
AcRTDxfName
1000
SCALE
1000
AcRTDxfName
1000
SCALE
1000
AcRTDxfName
1000
SCALE
1000
AcRTDxfName
1000
SCALE
1000
AcRTDxfName
1000
SCALE
1000
AcRTDxfName
1000
SCALE
1000
AcRTDxfName
1000
SCALE
1000
AcRTDxfName
1000
SCALE
1000
AcRTDxfName
1000
SCALE
1000
AcRTDxfName
1000
SCALE
1000
AcRTDxfName
1000
SCALE
1000
AcRTDxfName
1000
SCALE
1000
AcRTDxfName
1000
SCALE
1000
AcRTDxfName
1000
SCALE
1000
AcRTDxfName
1000
SCALE
1000
AcRTDxfName
1000
SCALE
1000
AcRTDxfName
1000
SCALE
1000
AcRTDxfName
1000
SCALE
1000
AcRTDxfName
1000
SCALE
1000
AcRTDxfName
1000
SCALE
1000
AcRTDxfName
1000
SCALE
1000
AcRTDxfName
1000
SCALE
1000
AcRTDxfName
1000
SCALE
1000
AcRTDxfName
1000
SCALE
1000
AcRTDxfName
1000
SCALE
1000
AcRTDxfName
1000
SCALE
1000
AcRTDxfName
1000
SCALE
1000
AcRTDxfName
1000
SCALE
1000
AcRTDxfName
1000
SCALE
1000
AcRTDxfName
1000
SCALE
1000
AcRTDxfName
1000
SCALE
1000
AcRTDxfName
1000
SCALE
1000
AcRTDxfName
1000
SCALE
1000
AcRTDxfName
1000
SCALE
1000
AcRTDxfName
1000
SCALE
1000
AcRTDxfName
1000
SCALE
1000
AcRTDxfName
1000
SCALE
1000
AcRTDxfName
1000
SCALE
1000
AcRTDxfName
1000
SCALE
1000
AcRTDxfName
1000
SCALE
1000
AcRTDxfName
1000
SCALE
1000
AcRTDxfName
1000
SCALE
1000
AcRTDxfName
1000
SCALE
1000
AcRTDxfName
1000
SCALE
1000
AcRTDxfName
1000
SCALE
1000
AcRTDxfName
1000
SCALE
1000
AcRTDxfName
1000
SCALE
1000
AcRTDxfName
1000
SCALE
1000
AcRTDxfName
1000
SCALE
1000
AcRTDxfName
1000
SCALE
1000
AcRTDxfName
1000
SCALE
1000
AcRTDxfName
1000
SCALE
1000
AcRTDxfName
1000
SCALE
1000
AcRTDxfName
1000
SCALE
1000
AcRTDxfName
1000
SCALE
1000
AcRTDxfName
1000
SCALE
1000
AcRTDxfName
1000
SCALE
1000
AcRTDxfName
1000
SCALE
1000
AcRTDxfName
1000
SCALE
1000
AcRTDxfName
1000
SCALE
1000
AcRTDxfName
1000
SCALE
1000
AcRTDxfName
1000
SCALE
1000
AcRTDxfName
1000
SCALE
1000
AcRTDxfName
1000
SCALE
1000
AcRTDxfName
1000
SCALE
1000
AcRTDxfName
1000
SCALE
1000
AcRTDxfName
1000
SCALE
1000
AcRTDxfName
1000
SCALE
1000
AcRTDxfName
1000
SCALE
1000
AcRTDxfName
1000
SCALE
1000
AcRTDxfName
1000
SCALE
1000
AcRTDxfName
1000
SCALE
1000
AcRTDxfName
1000
SCALE
1000
AcRTDxfName
1000
SCALE
1000
AcRTDxfName
1000
SCALE
1000
AcRTDxfName
1000
SCALE
1000
AcRTDxfName
1000
SCALE
1000
AcRTDxfName
1000
SCALE
1000
AcRTDxfName
1000
SCALE
1000
AcRTDxfName
1000
SCALE
1000
AcRTDxfName
1000
SCALE
1000
AcRTDxfName
1000
SCALE
1000
AcRTDxfName
1000
SCALE
1000
AcRTDxfName
1000
SCALE
1000
AcRTDxfName
1000
SCALE
1000
AcRTDxfName
1000
SCALE
1000
AcRTDxfName
1000
SCALE
1000
AcRTDxfName
1000
SCALE
1000
AcRTDxfName
1000
SCALE
1000
AcRTDxfName
1000
SCALE
1000
AcRTDxfName
1000
SCALE
1000
AcRTDxfName
1000
SCALE
1000
AcRTDxfName
1000
SCALE
1000
AcRTDxfName
1000
SCALE
1000
AcRTDxfName
1000
SCALE
1000
AcRTDxfName
1000
SCALE
1000
AcRTDxfName
1000
SCALE
1000
AcRTDxfName
1000
SCALE
1000
AcRTDxfName
1000
SCALE
1000
AcRTDxfName
1000
SCALE
1000
AcRTDxfName
1000
SCALE
1000
AcRTDxfName
1000
SCALE
1000
AcRTDxfName
1000
SCALE
1000
AcRTDxfName
1000
SCALE
1000
AcRTDxfName
1000
SCALE
1000
AcRTDxfName
1000
SCALE
1000
AcRTDxfName
1000
SCALE
1000
AcRTDxfName
1000
SCALE
1000
AcRTDxfName
1000
SCALE
1000
AcRTDxfName
1000
SCALE
1000
AcRTDxfName
1000
SCALE
1000
AcRTDxfName
1000
SCALE
1000
AcRTDxfName
1000
SCALE
1000
AcRTDxfName
1000
SCALE
1000
AcRTDxfName
1000
SCALE
1000
AcRTDxfName
1000
SCALE
1000
AcRTDxfName
1000
SCALE
1000
AcRTDxfName
1000
SCALE
1000
AcRTDxfName
1000
SCALE
1000
AcRTDxfName
1000
SCALE
1000
AcRTDxfName
1000
SCALE
1000
AcRTDxfName
1000
SCALE
1000
AcRTDxfName
1000
SCALE
1000
AcRTDxfName
1000
SCALE
1000
AcRTDxfName
1000
SCALE
  0
SCALE
  5
18B0
102
{ACAD_REACTORS
330
18A0
102
}
330
18A0
100
AcDbScale
 70
     0
300
10:1
140
10.0
141
1.0
290
     0
1001
ACAD
1000
AcRTDxfName
1000
SCALE
1000
AcRTDxfName
1000
SCALE
1000
AcRTDxfName
1000
SCALE
1000
AcRTDxfName
1000
SCALE
1000
AcRTDxfName
1000
SCALE
1000
AcRTDxfName
1000
SCALE
1000
AcRTDxfName
1000
SCALE
1000
AcRTDxfName
1000
SCALE
1000
AcRTDxfName
1000
SCALE
1000
AcRTDxfName
1000
SCALE
1000
AcRTDxfName
1000
SCALE
1000
AcRTDxfName
1000
SCALE
1000
AcRTDxfName
1000
SCALE
1000
AcRTDxfName
1000
SCALE
1000
AcRTDxfName
1000
SCALE
1000
AcRTDxfName
1000
SCALE
1000
AcRTDxfName
1000
SCALE
1000
AcRTDxfName
1000
SCALE
1000
AcRTDxfName
1000
SCALE
1000
AcRTDxfName
1000
SCALE
1000
AcRTDxfName
1000
SCALE
1000
AcRTDxfName
1000
SCALE
1000
AcRTDxfName
1000
SCALE
1000
AcRTDxfName
1000
SCALE
1000
AcRTDxfName
1000
SCALE
1000
AcRTDxfName
1000
SCALE
1000
AcRTDxfName
1000
SCALE
1000
AcRTDxfName
1000
SCALE
1000
AcRTDxfName
1000
SCALE
1000
AcRTDxfName
1000
SCALE
1000
AcRTDxfName
1000
SCALE
1000
AcRTDxfName
1000
SCALE
1000
AcRTDxfName
1000
SCALE
1000
AcRTDxfName
1000
SCALE
1000
AcRTDxfName
1000
SCALE
1000
AcRTDxfName
1000
SCALE
1000
AcRTDxfName
1000
SCALE
1000
AcRTDxfName
1000
SCALE
1000
AcRTDxfName
1000
SCALE
1000
AcRTDxfName
1000
SCALE
1000
AcRTDxfName
1000
SCALE
1000
AcRTDxfName
1000
SCALE
1000
AcRTDxfName
1000
SCALE
1000
AcRTDxfName
1000
SCALE
1000
AcRTDxfName
1000
SCALE
1000
AcRTDxfName
1000
SCALE
1000
AcRTDxfName
1000
SCALE
1000
AcRTDxfName
1000
SCALE
1000
AcRTDxfName
1000
SCALE
1000
AcRTDxfName
1000
SCALE
1000
AcRTDxfName
1000
SCALE
1000
AcRTDxfName
1000
SCALE
1000
AcRTDxfName
1000
SCALE
1000
AcRTDxfName
1000
SCALE
1000
AcRTDxfName
1000
SCALE
1000
AcRTDxfName
1000
SCALE
1000
AcRTDxfName
1000
SCALE
1000
AcRTDxfName
1000
SCALE
1000
AcRTDxfName
1000
SCALE
1000
AcRTDxfName
1000
SCALE
1000
AcRTDxfName
1000
SCALE
1000
AcRTDxfName
1000
SCALE
1000
AcRTDxfName
1000
SCALE
1000
AcRTDxfName
1000
SCALE
1000
AcRTDxfName
1000
SCALE
1000
AcRTDxfName
1000
SCALE
1000
AcRTDxfName
1000
SCALE
1000
AcRTDxfName
1000
SCALE
1000
AcRTDxfName
1000
SCALE
1000
AcRTDxfName
1000
SCALE
1000
AcRTDxfName
1000
SCALE
1000
AcRTDxfName
1000
SCALE
1000
AcRTDxfName
1000
SCALE
1000
AcRTDxfName
1000
SCALE
1000
AcRTDxfName
1000
SCALE
1000
AcRTDxfName
1000
SCALE
1000
AcRTDxfName
1000
SCALE
1000
AcRTDxfName
1000
SCALE
1000
AcRTDxfName
1000
SCALE
1000
AcRTDxfName
1000
SCALE
1000
AcRTDxfName
1000
SCALE
1000
AcRTDxfName
1000
SCALE
1000
AcRTDxfName
1000
SCALE
1000
AcRTDxfName
1000
SCALE
1000
AcRTDxfName
1000
SCALE
1000
AcRTDxfName
1000
SCALE
1000
AcRTDxfName
1000
SCALE
1000
AcRTDxfName
1000
SCALE
1000
AcRTDxfName
1000
SCALE
1000
AcRTDxfName
1000
SCALE
1000
AcRTDxfName
1000
SCALE
1000
AcRTDxfName
1000
SCALE
1000
AcRTDxfName
1000
SCALE
1000
AcRTDxfName
1000
SCALE
1000
AcRTDxfName
1000
SCALE
1000
AcRTDxfName
1000
SCALE
1000
AcRTDxfName
1000
SCALE
1000
AcRTDxfName
1000
SCALE
1000
AcRTDxfName
1000
SCALE
1000
AcRTDxfName
1000
SCALE
1000
AcRTDxfName
1000
SCALE
1000
AcRTDxfName
1000
SCALE
1000
AcRTDxfName
1000
SCALE
1000
AcRTDxfName
1000
SCALE
1000
AcRTDxfName
1000
SCALE
1000
AcRTDxfName
1000
SCALE
1000
AcRTDxfName
1000
SCALE
1000
AcRTDxfName
1000
SCALE
1000
AcRTDxfName
1000
SCALE
1000
AcRTDxfName
1000
SCALE
1000
AcRTDxfName
1000
SCALE
1000
AcRTDxfName
1000
SCALE
1000
AcRTDxfName
1000
SCALE
1000
AcRTDxfName
1000
SCALE
1000
AcRTDxfName
1000
SCALE
1000
AcRTDxfName
1000
SCALE
1000
AcRTDxfName
1000
SCALE
1000
AcRTDxfName
1000
SCALE
1000
AcRTDxfName
1000
SCALE
1000
AcRTDxfName
1000
SCALE
1000
AcRTDxfName
1000
SCALE
1000
AcRTDxfName
1000
SCALE
1000
AcRTDxfName
1000
SCALE
1000
AcRTDxfName
1000
SCALE
1000
AcRTDxfName
1000
SCALE
1000
AcRTDxfName
1000
SCALE
1000
AcRTDxfName
1000
SCALE
1000
AcRTDxfName
1000
SCALE
1000
AcRTDxfName
1000
SCALE
1000
AcRTDxfName
1000
SCALE
1000
AcRTDxfName
1000
SCALE
1000
AcRTDxfName
1000
SCALE
1000
AcRTDxfName
1000
SCALE
1000
AcRTDxfName
1000
SCALE
1000
AcRTDxfName
1000
SCALE
1000
AcRTDxfName
1000
SCALE
1000
AcRTDxfName
1000
SCALE
1000
AcRTDxfName
1000
SCALE
1000
AcRTDxfName
1000
SCALE
1000
AcRTDxfName
1000
SCALE
1000
AcRTDxfName
1000
SCALE
1000
AcRTDxfName
1000
SCALE
1000
AcRTDxfName
1000
SCALE
1000
AcRTDxfName
1000
SCALE
1000
AcRTDxfName
1000
SCALE
1000
AcRTDxfName
1000
SCALE
1000
AcRTDxfName
1000
SCALE
1000
AcRTDxfName
1000
SCALE
1000
AcRTDxfName
1000
SCALE
1000
AcRTDxfName
1000
SCALE
1000
AcRTDxfName
1000
SCALE
1000
AcRTDxfName
1000
SCALE
1000
AcRTDxfName
1000
SCALE
1000
AcRTDxfName
1000
SCALE
1000
AcRTDxfName
1000
SCALE
1000
AcRTDxfName
1000
SCALE
  0
SCALE
  5
18B1
102
{ACAD_REACTORS
330
18A0
102
}
330
18A0
100
AcDbScale
 70
     0
300
100:1
140
100.0
141
1.0
290
     0
1001
ACAD
1000
AcRTDxfName
1000
SCALE
1000
AcRTDxfName
1000
SCALE
1000
AcRTDxfName
1000
SCALE
1000
AcRTDxfName
1000
SCALE
1000
AcRTDxfName
1000
SCALE
1000
AcRTDxfName
1000
SCALE
1000
AcRTDxfName
1000
SCALE
1000
AcRTDxfName
1000
SCALE
1000
AcRTDxfName
1000
SCALE
1000
AcRTDxfName
1000
SCALE
1000
AcRTDxfName
1000
SCALE
1000
AcRTDxfName
1000
SCALE
1000
AcRTDxfName
1000
SCALE
1000
AcRTDxfName
1000
SCALE
1000
AcRTDxfName
1000
SCALE
1000
AcRTDxfName
1000
SCALE
1000
AcRTDxfName
1000
SCALE
1000
AcRTDxfName
1000
SCALE
1000
AcRTDxfName
1000
SCALE
1000
AcRTDxfName
1000
SCALE
1000
AcRTDxfName
1000
SCALE
1000
AcRTDxfName
1000
SCALE
1000
AcRTDxfName
1000
SCALE
1000
AcRTDxfName
1000
SCALE
1000
AcRTDxfName
1000
SCALE
1000
AcRTDxfName
1000
SCALE
1000
AcRTDxfName
1000
SCALE
1000
AcRTDxfName
1000
SCALE
1000
AcRTDxfName
1000
SCALE
1000
AcRTDxfName
1000
SCALE
1000
AcRTDxfName
1000
SCALE
1000
AcRTDxfName
1000
SCALE
1000
AcRTDxfName
1000
SCALE
1000
AcRTDxfName
1000
SCALE
1000
AcRTDxfName
1000
SCALE
1000
AcRTDxfName
1000
SCALE
1000
AcRTDxfName
1000
SCALE
1000
AcRTDxfName
1000
SCALE
1000
AcRTDxfName
1000
SCALE
1000
AcRTDxfName
1000
SCALE
1000
AcRTDxfName
1000
SCALE
1000
AcRTDxfName
1000
SCALE
1000
AcRTDxfName
1000
SCALE
1000
AcRTDxfName
1000
SCALE
1000
AcRTDxfName
1000
SCALE
1000
AcRTDxfName
1000
SCALE
1000
AcRTDxfName
1000
SCALE
1000
AcRTDxfName
1000
SCALE
1000
AcRTDxfName
1000
SCALE
1000
AcRTDxfName
1000
SCALE
1000
AcRTDxfName
1000
SCALE
1000
AcRTDxfName
1000
SCALE
1000
AcRTDxfName
1000
SCALE
1000
AcRTDxfName
1000
SCALE
1000
AcRTDxfName
1000
SCALE
1000
AcRTDxfName
1000
SCALE
1000
AcRTDxfName
1000
SCALE
1000
AcRTDxfName
1000
SCALE
1000
AcRTDxfName
1000
SCALE
1000
AcRTDxfName
1000
SCALE
1000
AcRTDxfName
1000
SCALE
1000
AcRTDxfName
1000
SCALE
1000
AcRTDxfName
1000
SCALE
1000
AcRTDxfName
1000
SCALE
1000
AcRTDxfName
1000
SCALE
1000
AcRTDxfName
1000
SCALE
1000
AcRTDxfName
1000
SCALE
1000
AcRTDxfName
1000
SCALE
1000
AcRTDxfName
1000
SCALE
1000
AcRTDxfName
1000
SCALE
1000
AcRTDxfName
1000
SCALE
1000
AcRTDxfName
1000
SCALE
1000
AcRTDxfName
1000
SCALE
1000
AcRTDxfName
1000
SCALE
1000
AcRTDxfName
1000
SCALE
1000
AcRTDxfName
1000
SCALE
1000
AcRTDxfName
1000
SCALE
1000
AcRTDxfName
1000
SCALE
1000
AcRTDxfName
1000
SCALE
1000
AcRTDxfName
1000
SCALE
1000
AcRTDxfName
1000
SCALE
1000
AcRTDxfName
1000
SCALE
1000
AcRTDxfName
1000
SCALE
1000
AcRTDxfName
1000
SCALE
1000
AcRTDxfName
1000
SCALE
1000
AcRTDxfName
1000
SCALE
1000
AcRTDxfName
1000
SCALE
1000
AcRTDxfName
1000
SCALE
1000
AcRTDxfName
1000
SCALE
1000
AcRTDxfName
1000
SCALE
1000
AcRTDxfName
1000
SCALE
1000
AcRTDxfName
1000
SCALE
1000
AcRTDxfName
1000
SCALE
1000
AcRTDxfName
1000
SCALE
1000
AcRTDxfName
1000
SCALE
1000
AcRTDxfName
1000
SCALE
1000
AcRTDxfName
1000
SCALE
1000
AcRTDxfName
1000
SCALE
1000
AcRTDxfName
1000
SCALE
1000
AcRTDxfName
1000
SCALE
1000
AcRTDxfName
1000
SCALE
1000
AcRTDxfName
1000
SCALE
1000
AcRTDxfName
1000
SCALE
1000
AcRTDxfName
1000
SCALE
1000
AcRTDxfName
1000
SCALE
1000
AcRTDxfName
1000
SCALE
1000
AcRTDxfName
1000
SCALE
1000
AcRTDxfName
1000
SCALE
1000
AcRTDxfName
1000
SCALE
1000
AcRTDxfName
1000
SCALE
1000
AcRTDxfName
1000
SCALE
1000
AcRTDxfName
1000
SCALE
1000
AcRTDxfName
1000
SCALE
1000
AcRTDxfName
1000
SCALE
1000
AcRTDxfName
1000
SCALE
1000
AcRTDxfName
1000
SCALE
1000
AcRTDxfName
1000
SCALE
1000
AcRTDxfName
1000
SCALE
1000
AcRTDxfName
1000
SCALE
1000
AcRTDxfName
1000
SCALE
1000
AcRTDxfName
1000
SCALE
1000
AcRTDxfName
1000
SCALE
1000
AcRTDxfName
1000
SCALE
1000
AcRTDxfName
1000
SCALE
1000
AcRTDxfName
1000
SCALE
1000
AcRTDxfName
1000
SCALE
1000
AcRTDxfName
1000
SCALE
1000
AcRTDxfName
1000
SCALE
1000
AcRTDxfName
1000
SCALE
1000
AcRTDxfName
1000
SCALE
1000
AcRTDxfName
1000
SCALE
1000
AcRTDxfName
1000
SCALE
1000
AcRTDxfName
1000
SCALE
1000
AcRTDxfName
1000
SCALE
1000
AcRTDxfName
1000
SCALE
1000
AcRTDxfName
1000
SCALE
1000
AcRTDxfName
1000
SCALE
1000
AcRTDxfName
1000
SCALE
1000
AcRTDxfName
1000
SCALE
1000
AcRTDxfName
1000
SCALE
1000
AcRTDxfName
1000
SCALE
1000
AcRTDxfName
1000
SCALE
1000
AcRTDxfName
1000
SCALE
1000
AcRTDxfName
1000
SCALE
1000
AcRTDxfName
1000
SCALE
1000
AcRTDxfName
1000
SCALE
1000
AcRTDxfName
1000
SCALE
1000
AcRTDxfName
1000
SCALE
1000
AcRTDxfName
1000
SCALE
1000
AcRTDxfName
1000
SCALE
1000
AcRTDxfName
1000
SCALE
1000
AcRTDxfName
1000
SCALE
1000
AcRTDxfName
1000
SCALE
1000
AcRTDxfName
1000
SCALE
1000
AcRTDxfName
1000
SCALE
1000
AcRTDxfName
1000
SCALE
  0
SCALE
  5
18B2
102
{ACAD_REACTORS
330
18A0
102
}
330
18A0
100
AcDbScale
 70
     0
300
1/128" = 1'-0"
140
0.0078125
141
12.0
290
     0
1001
ACAD
1000
AcRTDxfName
1000
SCALE
1000
AcRTDxfName
1000
SCALE
1000
AcRTDxfName
1000
SCALE
1000
AcRTDxfName
1000
SCALE
1000
AcRTDxfName
1000
SCALE
1000
AcRTDxfName
1000
SCALE
1000
AcRTDxfName
1000
SCALE
1000
AcRTDxfName
1000
SCALE
1000
AcRTDxfName
1000
SCALE
1000
AcRTDxfName
1000
SCALE
1000
AcRTDxfName
1000
SCALE
1000
AcRTDxfName
1000
SCALE
1000
AcRTDxfName
1000
SCALE
1000
AcRTDxfName
1000
SCALE
1000
AcRTDxfName
1000
SCALE
1000
AcRTDxfName
1000
SCALE
1000
AcRTDxfName
1000
SCALE
1000
AcRTDxfName
1000
SCALE
1000
AcRTDxfName
1000
SCALE
1000
AcRTDxfName
1000
SCALE
1000
AcRTDxfName
1000
SCALE
1000
AcRTDxfName
1000
SCALE
1000
AcRTDxfName
1000
SCALE
1000
AcRTDxfName
1000
SCALE
1000
AcRTDxfName
1000
SCALE
1000
AcRTDxfName
1000
SCALE
1000
AcRTDxfName
1000
SCALE
1000
AcRTDxfName
1000
SCALE
1000
AcRTDxfName
1000
SCALE
1000
AcRTDxfName
1000
SCALE
1000
AcRTDxfName
1000
SCALE
1000
AcRTDxfName
1000
SCALE
1000
AcRTDxfName
1000
SCALE
1000
AcRTDxfName
1000
SCALE
1000
AcRTDxfName
1000
SCALE
1000
AcRTDxfName
1000
SCALE
1000
AcRTDxfName
1000
SCALE
1000
AcRTDxfName
1000
SCALE
1000
AcRTDxfName
1000
SCALE
1000
AcRTDxfName
1000
SCALE
1000
AcRTDxfName
1000
SCALE
1000
AcRTDxfName
1000
SCALE
1000
AcRTDxfName
1000
SCALE
1000
AcRTDxfName
1000
SCALE
1000
AcRTDxfName
1000
SCALE
1000
AcRTDxfName
1000
SCALE
1000
AcRTDxfName
1000
SCALE
1000
AcRTDxfName
1000
SCALE
1000
AcRTDxfName
1000
SCALE
1000
AcRTDxfName
1000
SCALE
1000
AcRTDxfName
1000
SCALE
1000
AcRTDxfName
1000
SCALE
1000
AcRTDxfName
1000
SCALE
1000
AcRTDxfName
1000
SCALE
1000
AcRTDxfName
1000
SCALE
1000
AcRTDxfName
1000
SCALE
1000
AcRTDxfName
1000
SCALE
1000
AcRTDxfName
1000
SCALE
1000
AcRTDxfName
1000
SCALE
1000
AcRTDxfName
1000
SCALE
1000
AcRTDxfName
1000
SCALE
1000
AcRTDxfName
1000
SCALE
1000
AcRTDxfName
1000
SCALE
1000
AcRTDxfName
1000
SCALE
1000
AcRTDxfName
1000
SCALE
1000
AcRTDxfName
1000
SCALE
1000
AcRTDxfName
1000
SCALE
1000
AcRTDxfName
1000
SCALE
1000
AcRTDxfName
1000
SCALE
1000
AcRTDxfName
1000
SCALE
1000
AcRTDxfName
1000
SCALE
1000
AcRTDxfName
1000
SCALE
1000
AcRTDxfName
1000
SCALE
1000
AcRTDxfName
1000
SCALE
1000
AcRTDxfName
1000
SCALE
1000
AcRTDxfName
1000
SCALE
1000
AcRTDxfName
1000
SCALE
1000
AcRTDxfName
1000
SCALE
1000
AcRTDxfName
1000
SCALE
1000
AcRTDxfName
1000
SCALE
1000
AcRTDxfName
1000
SCALE
1000
AcRTDxfName
1000
SCALE
1000
AcRTDxfName
1000
SCALE
1000
AcRTDxfName
1000
SCALE
1000
AcRTDxfName
1000
SCALE
1000
AcRTDxfName
1000
SCALE
1000
AcRTDxfName
1000
SCALE
1000
AcRTDxfName
1000
SCALE
1000
AcRTDxfName
1000
SCALE
1000
AcRTDxfName
1000
SCALE
1000
AcRTDxfName
1000
SCALE
1000
AcRTDxfName
1000
SCALE
1000
AcRTDxfName
1000
SCALE
1000
AcRTDxfName
1000
SCALE
1000
AcRTDxfName
1000
SCALE
1000
AcRTDxfName
1000
SCALE
1000
AcRTDxfName
1000
SCALE
1000
AcRTDxfName
1000
SCALE
1000
AcRTDxfName
1000
SCALE
1000
AcRTDxfName
1000
SCALE
1000
AcRTDxfName
1000
SCALE
1000
AcRTDxfName
1000
SCALE
1000
AcRTDxfName
1000
SCALE
1000
AcRTDxfName
1000
SCALE
1000
AcRTDxfName
1000
SCALE
1000
AcRTDxfName
1000
SCALE
1000
AcRTDxfName
1000
SCALE
1000
AcRTDxfName
1000
SCALE
1000
AcRTDxfName
1000
SCALE
1000
AcRTDxfName
1000
SCALE
1000
AcRTDxfName
1000
SCALE
1000
AcRTDxfName
1000
SCALE
1000
AcRTDxfName
1000
SCALE
1000
AcRTDxfName
1000
SCALE
1000
AcRTDxfName
1000
SCALE
1000
AcRTDxfName
1000
SCALE
1000
AcRTDxfName
1000
SCALE
1000
AcRTDxfName
1000
SCALE
1000
AcRTDxfName
1000
SCALE
1000
AcRTDxfName
1000
SCALE
1000
AcRTDxfName
1000
SCALE
1000
AcRTDxfName
1000
SCALE
1000
AcRTDxfName
1000
SCALE
1000
AcRTDxfName
1000
SCALE
1000
AcRTDxfName
1000
SCALE
1000
AcRTDxfName
1000
SCALE
1000
AcRTDxfName
1000
SCALE
1000
AcRTDxfName
1000
SCALE
1000
AcRTDxfName
1000
SCALE
1000
AcRTDxfName
1000
SCALE
1000
AcRTDxfName
1000
SCALE
1000
AcRTDxfName
1000
SCALE
1000
AcRTDxfName
1000
SCALE
1000
AcRTDxfName
1000
SCALE
1000
AcRTDxfName
1000
SCALE
1000
AcRTDxfName
1000
SCALE
1000
AcRTDxfName
1000
SCALE
1000
AcRTDxfName
1000
SCALE
1000
AcRTDxfName
1000
SCALE
1000
AcRTDxfName
1000
SCALE
1000
AcRTDxfName
1000
SCALE
1000
AcRTDxfName
1000
SCALE
1000
AcRTDxfName
1000
SCALE
1000
AcRTDxfName
1000
SCALE
1000
AcRTDxfName
1000
SCALE
1000
AcRTDxfName
1000
SCALE
1000
AcRTDxfName
1000
SCALE
1000
AcRTDxfName
1000
SCALE
1000
AcRTDxfName
1000
SCALE
1000
AcRTDxfName
1000
SCALE
1000
AcRTDxfName
1000
SCALE
1000
AcRTDxfName
1000
SCALE
1000
AcRTDxfName
1000
SCALE
1000
AcRTDxfName
1000
SCALE
1000
AcRTDxfName
1000
SCALE
1000
AcRTDxfName
1000
SCALE
  0
SCALE
  5
18B3
102
{ACAD_REACTORS
330
18A0
102
}
330
18A0
100
AcDbScale
 70
     0
300
1/64" = 1'-0"
140
0.015625
141
12.0
290
     0
1001
ACAD
1000
AcRTDxfName
1000
SCALE
1000
AcRTDxfName
1000
SCALE
1000
AcRTDxfName
1000
SCALE
1000
AcRTDxfName
1000
SCALE
1000
AcRTDxfName
1000
SCALE
1000
AcRTDxfName
1000
SCALE
1000
AcRTDxfName
1000
SCALE
1000
AcRTDxfName
1000
SCALE
1000
AcRTDxfName
1000
SCALE
1000
AcRTDxfName
1000
SCALE
1000
AcRTDxfName
1000
SCALE
1000
AcRTDxfName
1000
SCALE
1000
AcRTDxfName
1000
SCALE
1000
AcRTDxfName
1000
SCALE
1000
AcRTDxfName
1000
SCALE
1000
AcRTDxfName
1000
SCALE
1000
AcRTDxfName
1000
SCALE
1000
AcRTDxfName
1000
SCALE
1000
AcRTDxfName
1000
SCALE
1000
AcRTDxfName
1000
SCALE
1000
AcRTDxfName
1000
SCALE
1000
AcRTDxfName
1000
SCALE
1000
AcRTDxfName
1000
SCALE
1000
AcRTDxfName
1000
SCALE
1000
AcRTDxfName
1000
SCALE
1000
AcRTDxfName
1000
SCALE
1000
AcRTDxfName
1000
SCALE
1000
AcRTDxfName
1000
SCALE
1000
AcRTDxfName
1000
SCALE
1000
AcRTDxfName
1000
SCALE
1000
AcRTDxfName
1000
SCALE
1000
AcRTDxfName
1000
SCALE
1000
AcRTDxfName
1000
SCALE
1000
AcRTDxfName
1000
SCALE
1000
AcRTDxfName
1000
SCALE
1000
AcRTDxfName
1000
SCALE
1000
AcRTDxfName
1000
SCALE
1000
AcRTDxfName
1000
SCALE
1000
AcRTDxfName
1000
SCALE
1000
AcRTDxfName
1000
SCALE
1000
AcRTDxfName
1000
SCALE
1000
AcRTDxfName
1000
SCALE
1000
AcRTDxfName
1000
SCALE
1000
AcRTDxfName
1000
SCALE
1000
AcRTDxfName
1000
SCALE
1000
AcRTDxfName
1000
SCALE
1000
AcRTDxfName
1000
SCALE
1000
AcRTDxfName
1000
SCALE
1000
AcRTDxfName
1000
SCALE
1000
AcRTDxfName
1000
SCALE
1000
AcRTDxfName
1000
SCALE
1000
AcRTDxfName
1000
SCALE
1000
AcRTDxfName
1000
SCALE
1000
AcRTDxfName
1000
SCALE
1000
AcRTDxfName
1000
SCALE
1000
AcRTDxfName
1000
SCALE
1000
AcRTDxfName
1000
SCALE
1000
AcRTDxfName
1000
SCALE
1000
AcRTDxfName
1000
SCALE
1000
AcRTDxfName
1000
SCALE
1000
AcRTDxfName
1000
SCALE
1000
AcRTDxfName
1000
SCALE
1000
AcRTDxfName
1000
SCALE
1000
AcRTDxfName
1000
SCALE
1000
AcRTDxfName
1000
SCALE
1000
AcRTDxfName
1000
SCALE
1000
AcRTDxfName
1000
SCALE
1000
AcRTDxfName
1000
SCALE
1000
AcRTDxfName
1000
SCALE
1000
AcRTDxfName
1000
SCALE
1000
AcRTDxfName
1000
SCALE
1000
AcRTDxfName
1000
SCALE
1000
AcRTDxfName
1000
SCALE
1000
AcRTDxfName
1000
SCALE
1000
AcRTDxfName
1000
SCALE
1000
AcRTDxfName
1000
SCALE
1000
AcRTDxfName
1000
SCALE
1000
AcRTDxfName
1000
SCALE
1000
AcRTDxfName
1000
SCALE
1000
AcRTDxfName
1000
SCALE
1000
AcRTDxfName
1000
SCALE
1000
AcRTDxfName
1000
SCALE
1000
AcRTDxfName
1000
SCALE
1000
AcRTDxfName
1000
SCALE
1000
AcRTDxfName
1000
SCALE
1000
AcRTDxfName
1000
SCALE
1000
AcRTDxfName
1000
SCALE
1000
AcRTDxfName
1000
SCALE
1000
AcRTDxfName
1000
SCALE
1000
AcRTDxfName
1000
SCALE
1000
AcRTDxfName
1000
SCALE
1000
AcRTDxfName
1000
SCALE
1000
AcRTDxfName
1000
SCALE
1000
AcRTDxfName
1000
SCALE
1000
AcRTDxfName
1000
SCALE
1000
AcRTDxfName
1000
SCALE
1000
AcRTDxfName
1000
SCALE
1000
AcRTDxfName
1000
SCALE
1000
AcRTDxfName
1000
SCALE
1000
AcRTDxfName
1000
SCALE
1000
AcRTDxfName
1000
SCALE
1000
AcRTDxfName
1000
SCALE
1000
AcRTDxfName
1000
SCALE
1000
AcRTDxfName
1000
SCALE
1000
AcRTDxfName
1000
SCALE
1000
AcRTDxfName
1000
SCALE
1000
AcRTDxfName
1000
SCALE
1000
AcRTDxfName
1000
SCALE
1000
AcRTDxfName
1000
SCALE
1000
AcRTDxfName
1000
SCALE
1000
AcRTDxfName
1000
SCALE
1000
AcRTDxfName
1000
SCALE
1000
AcRTDxfName
1000
SCALE
1000
AcRTDxfName
1000
SCALE
1000
AcRTDxfName
1000
SCALE
1000
AcRTDxfName
1000
SCALE
1000
AcRTDxfName
1000
SCALE
1000
AcRTDxfName
1000
SCALE
1000
AcRTDxfName
1000
SCALE
1000
AcRTDxfName
1000
SCALE
1000
AcRTDxfName
1000
SCALE
1000
AcRTDxfName
1000
SCALE
1000
AcRTDxfName
1000
SCALE
1000
AcRTDxfName
1000
SCALE
1000
AcRTDxfName
1000
SCALE
1000
AcRTDxfName
1000
SCALE
1000
AcRTDxfName
1000
SCALE
1000
AcRTDxfName
1000
SCALE
1000
AcRTDxfName
1000
SCALE
1000
AcRTDxfName
1000
SCALE
1000
AcRTDxfName
1000
SCALE
1000
AcRTDxfName
1000
SCALE
1000
AcRTDxfName
1000
SCALE
1000
AcRTDxfName
1000
SCALE
1000
AcRTDxfName
1000
SCALE
1000
AcRTDxfName
1000
SCALE
1000
AcRTDxfName
1000
SCALE
1000
AcRTDxfName
1000
SCALE
1000
AcRTDxfName
1000
SCALE
1000
AcRTDxfName
1000
SCALE
1000
AcRTDxfName
1000
SCALE
1000
AcRTDxfName
1000
SCALE
1000
AcRTDxfName
1000
SCALE
1000
AcRTDxfName
1000
SCALE
1000
AcRTDxfName
1000
SCALE
1000
AcRTDxfName
1000
SCALE
1000
AcRTDxfName
1000
SCALE
1000
AcRTDxfName
1000
SCALE
1000
AcRTDxfName
1000
SCALE
1000
AcRTDxfName
1000
SCALE
1000
AcRTDxfName
1000
SCALE
1000
AcRTDxfName
1000
SCALE
1000
AcRTDxfName
1000
SCALE
1000
AcRTDxfName
1000
SCALE
1000
AcRTDxfName
1000
SCALE
1000
AcRTDxfName
1000
SCALE
  0
SCALE
  5
18B4
102
{ACAD_REACTORS
330
18A0
102
}
330
18A0
100
AcDbScale
 70
     0
300
1/32" = 1'-0"
140
0.03125
141
12.0
290
     0
1001
ACAD
1000
AcRTDxfName
1000
SCALE
1000
AcRTDxfName
1000
SCALE
1000
AcRTDxfName
1000
SCALE
1000
AcRTDxfName
1000
SCALE
1000
AcRTDxfName
1000
SCALE
1000
AcRTDxfName
1000
SCALE
1000
AcRTDxfName
1000
SCALE
1000
AcRTDxfName
1000
SCALE
1000
AcRTDxfName
1000
SCALE
1000
AcRTDxfName
1000
SCALE
1000
AcRTDxfName
1000
SCALE
1000
AcRTDxfName
1000
SCALE
1000
AcRTDxfName
1000
SCALE
1000
AcRTDxfName
1000
SCALE
1000
AcRTDxfName
1000
SCALE
1000
AcRTDxfName
1000
SCALE
1000
AcRTDxfName
1000
SCALE
1000
AcRTDxfName
1000
SCALE
1000
AcRTDxfName
1000
SCALE
1000
AcRTDxfName
1000
SCALE
1000
AcRTDxfName
1000
SCALE
1000
AcRTDxfName
1000
SCALE
1000
AcRTDxfName
1000
SCALE
1000
AcRTDxfName
1000
SCALE
1000
AcRTDxfName
1000
SCALE
1000
AcRTDxfName
1000
SCALE
1000
AcRTDxfName
1000
SCALE
1000
AcRTDxfName
1000
SCALE
1000
AcRTDxfName
1000
SCALE
1000
AcRTDxfName
1000
SCALE
1000
AcRTDxfName
1000
SCALE
1000
AcRTDxfName
1000
SCALE
1000
AcRTDxfName
1000
SCALE
1000
AcRTDxfName
1000
SCALE
1000
AcRTDxfName
1000
SCALE
1000
AcRTDxfName
1000
SCALE
1000
AcRTDxfName
1000
SCALE
1000
AcRTDxfName
1000
SCALE
1000
AcRTDxfName
1000
SCALE
1000
AcRTDxfName
1000
SCALE
1000
AcRTDxfName
1000
SCALE
1000
AcRTDxfName
1000
SCALE
1000
AcRTDxfName
1000
SCALE
1000
AcRTDxfName
1000
SCALE
1000
AcRTDxfName
1000
SCALE
1000
AcRTDxfName
1000
SCALE
1000
AcRTDxfName
1000
SCALE
1000
AcRTDxfName
1000
SCALE
1000
AcRTDxfName
1000
SCALE
1000
AcRTDxfName
1000
SCALE
1000
AcRTDxfName
1000
SCALE
1000
AcRTDxfName
1000
SCALE
1000
AcRTDxfName
1000
SCALE
1000
AcRTDxfName
1000
SCALE
1000
AcRTDxfName
1000
SCALE
1000
AcRTDxfName
1000
SCALE
1000
AcRTDxfName
1000
SCALE
1000
AcRTDxfName
1000
SCALE
1000
AcRTDxfName
1000
SCALE
1000
AcRTDxfName
1000
SCALE
1000
AcRTDxfName
1000
SCALE
1000
AcRTDxfName
1000
SCALE
1000
AcRTDxfName
1000
SCALE
1000
AcRTDxfName
1000
SCALE
1000
AcRTDxfName
1000
SCALE
1000
AcRTDxfName
1000
SCALE
1000
AcRTDxfName
1000
SCALE
1000
AcRTDxfName
1000
SCALE
1000
AcRTDxfName
1000
SCALE
1000
AcRTDxfName
1000
SCALE
1000
AcRTDxfName
1000
SCALE
1000
AcRTDxfName
1000
SCALE
1000
AcRTDxfName
1000
SCALE
1000
AcRTDxfName
1000
SCALE
1000
AcRTDxfName
1000
SCALE
1000
AcRTDxfName
1000
SCALE
1000
AcRTDxfName
1000
SCALE
1000
AcRTDxfName
1000
SCALE
1000
AcRTDxfName
1000
SCALE
1000
AcRTDxfName
1000
SCALE
1000
AcRTDxfName
1000
SCALE
1000
AcRTDxfName
1000
SCALE
1000
AcRTDxfName
1000
SCALE
1000
AcRTDxfName
1000
SCALE
1000
AcRTDxfName
1000
SCALE
1000
AcRTDxfName
1000
SCALE
1000
AcRTDxfName
1000
SCALE
1000
AcRTDxfName
1000
SCALE
1000
AcRTDxfName
1000
SCALE
1000
AcRTDxfName
1000
SCALE
1000
AcRTDxfName
1000
SCALE
1000
AcRTDxfName
1000
SCALE
1000
AcRTDxfName
1000
SCALE
1000
AcRTDxfName
1000
SCALE
1000
AcRTDxfName
1000
SCALE
1000
AcRTDxfName
1000
SCALE
1000
AcRTDxfName
1000
SCALE
1000
AcRTDxfName
1000
SCALE
1000
AcRTDxfName
1000
SCALE
1000
AcRTDxfName
1000
SCALE
1000
AcRTDxfName
1000
SCALE
1000
AcRTDxfName
1000
SCALE
1000
AcRTDxfName
1000
SCALE
1000
AcRTDxfName
1000
SCALE
1000
AcRTDxfName
1000
SCALE
1000
AcRTDxfName
1000
SCALE
1000
AcRTDxfName
1000
SCALE
1000
AcRTDxfName
1000
SCALE
1000
AcRTDxfName
1000
SCALE
1000
AcRTDxfName
1000
SCALE
1000
AcRTDxfName
1000
SCALE
1000
AcRTDxfName
1000
SCALE
1000
AcRTDxfName
1000
SCALE
1000
AcRTDxfName
1000
SCALE
1000
AcRTDxfName
1000
SCALE
1000
AcRTDxfName
1000
SCALE
1000
AcRTDxfName
1000
SCALE
1000
AcRTDxfName
1000
SCALE
1000
AcRTDxfName
1000
SCALE
1000
AcRTDxfName
1000
SCALE
1000
AcRTDxfName
1000
SCALE
1000
AcRTDxfName
1000
SCALE
1000
AcRTDxfName
1000
SCALE
1000
AcRTDxfName
1000
SCALE
1000
AcRTDxfName
1000
SCALE
1000
AcRTDxfName
1000
SCALE
1000
AcRTDxfName
1000
SCALE
1000
AcRTDxfName
1000
SCALE
1000
AcRTDxfName
1000
SCALE
1000
AcRTDxfName
1000
SCALE
1000
AcRTDxfName
1000
SCALE
1000
AcRTDxfName
1000
SCALE
1000
AcRTDxfName
1000
SCALE
1000
AcRTDxfName
1000
SCALE
1000
AcRTDxfName
1000
SCALE
1000
AcRTDxfName
1000
SCALE
1000
AcRTDxfName
1000
SCALE
1000
AcRTDxfName
1000
SCALE
1000
AcRTDxfName
1000
SCALE
1000
AcRTDxfName
1000
SCALE
1000
AcRTDxfName
1000
SCALE
1000
AcRTDxfName
1000
SCALE
1000
AcRTDxfName
1000
SCALE
1000
AcRTDxfName
1000
SCALE
1000
AcRTDxfName
1000
SCALE
1000
AcRTDxfName
1000
SCALE
1000
AcRTDxfName
1000
SCALE
1000
AcRTDxfName
1000
SCALE
1000
AcRTDxfName
1000
SCALE
1000
AcRTDxfName
1000
SCALE
1000
AcRTDxfName
1000
SCALE
1000
AcRTDxfName
1000
SCALE
1000
AcRTDxfName
1000
SCALE
1000
AcRTDxfName
1000
SCALE
1000
AcRTDxfName
1000
SCALE
1000
AcRTDxfName
1000
SCALE
  0
SCALE
  5
18B5
102
{ACAD_REACTORS
330
18A0
102
}
330
18A0
100
AcDbScale
 70
     0
300
1/16" = 1'-0"
140
0.0625
141
12.0
290
     0
1001
ACAD
1000
AcRTDxfName
1000
SCALE
1000
AcRTDxfName
1000
SCALE
1000
AcRTDxfName
1000
SCALE
1000
AcRTDxfName
1000
SCALE
1000
AcRTDxfName
1000
SCALE
1000
AcRTDxfName
1000
SCALE
1000
AcRTDxfName
1000
SCALE
1000
AcRTDxfName
1000
SCALE
1000
AcRTDxfName
1000
SCALE
1000
AcRTDxfName
1000
SCALE
1000
AcRTDxfName
1000
SCALE
1000
AcRTDxfName
1000
SCALE
1000
AcRTDxfName
1000
SCALE
1000
AcRTDxfName
1000
SCALE
1000
AcRTDxfName
1000
SCALE
1000
AcRTDxfName
1000
SCALE
1000
AcRTDxfName
1000
SCALE
1000
AcRTDxfName
1000
SCALE
1000
AcRTDxfName
1000
SCALE
1000
AcRTDxfName
1000
SCALE
1000
AcRTDxfName
1000
SCALE
1000
AcRTDxfName
1000
SCALE
1000
AcRTDxfName
1000
SCALE
1000
AcRTDxfName
1000
SCALE
1000
AcRTDxfName
1000
SCALE
1000
AcRTDxfName
1000
SCALE
1000
AcRTDxfName
1000
SCALE
1000
AcRTDxfName
1000
SCALE
1000
AcRTDxfName
1000
SCALE
1000
AcRTDxfName
1000
SCALE
1000
AcRTDxfName
1000
SCALE
1000
AcRTDxfName
1000
SCALE
1000
AcRTDxfName
1000
SCALE
1000
AcRTDxfName
1000
SCALE
1000
AcRTDxfName
1000
SCALE
1000
AcRTDxfName
1000
SCALE
1000
AcRTDxfName
1000
SCALE
1000
AcRTDxfName
1000
SCALE
1000
AcRTDxfName
1000
SCALE
1000
AcRTDxfName
1000
SCALE
1000
AcRTDxfName
1000
SCALE
1000
AcRTDxfName
1000
SCALE
1000
AcRTDxfName
1000
SCALE
1000
AcRTDxfName
1000
SCALE
1000
AcRTDxfName
1000
SCALE
1000
AcRTDxfName
1000
SCALE
1000
AcRTDxfName
1000
SCALE
1000
AcRTDxfName
1000
SCALE
1000
AcRTDxfName
1000
SCALE
1000
AcRTDxfName
1000
SCALE
1000
AcRTDxfName
1000
SCALE
1000
AcRTDxfName
1000
SCALE
1000
AcRTDxfName
1000
SCALE
1000
AcRTDxfName
1000
SCALE
1000
AcRTDxfName
1000
SCALE
1000
AcRTDxfName
1000
SCALE
1000
AcRTDxfName
1000
SCALE
1000
AcRTDxfName
1000
SCALE
1000
AcRTDxfName
1000
SCALE
1000
AcRTDxfName
1000
SCALE
1000
AcRTDxfName
1000
SCALE
1000
AcRTDxfName
1000
SCALE
1000
AcRTDxfName
1000
SCALE
1000
AcRTDxfName
1000
SCALE
1000
AcRTDxfName
1000
SCALE
1000
AcRTDxfName
1000
SCALE
1000
AcRTDxfName
1000
SCALE
1000
AcRTDxfName
1000
SCALE
1000
AcRTDxfName
1000
SCALE
1000
AcRTDxfName
1000
SCALE
1000
AcRTDxfName
1000
SCALE
1000
AcRTDxfName
1000
SCALE
1000
AcRTDxfName
1000
SCALE
1000
AcRTDxfName
1000
SCALE
1000
AcRTDxfName
1000
SCALE
1000
AcRTDxfName
1000
SCALE
1000
AcRTDxfName
1000
SCALE
1000
AcRTDxfName
1000
SCALE
1000
AcRTDxfName
1000
SCALE
1000
AcRTDxfName
1000
SCALE
1000
AcRTDxfName
1000
SCALE
1000
AcRTDxfName
1000
SCALE
1000
AcRTDxfName
1000
SCALE
1000
AcRTDxfName
1000
SCALE
1000
AcRTDxfName
1000
SCALE
1000
AcRTDxfName
1000
SCALE
1000
AcRTDxfName
1000
SCALE
1000
AcRTDxfName
1000
SCALE
1000
AcRTDxfName
1000
SCALE
1000
AcRTDxfName
1000
SCALE
1000
AcRTDxfName
1000
SCALE
1000
AcRTDxfName
1000
SCALE
1000
AcRTDxfName
1000
SCALE
1000
AcRTDxfName
1000
SCALE
1000
AcRTDxfName
1000
SCALE
1000
AcRTDxfName
1000
SCALE
1000
AcRTDxfName
1000
SCALE
1000
AcRTDxfName
1000
SCALE
1000
AcRTDxfName
1000
SCALE
1000
AcRTDxfName
1000
SCALE
1000
AcRTDxfName
1000
SCALE
1000
AcRTDxfName
1000
SCALE
1000
AcRTDxfName
1000
SCALE
1000
AcRTDxfName
1000
SCALE
1000
AcRTDxfName
1000
SCALE
1000
AcRTDxfName
1000
SCALE
1000
AcRTDxfName
1000
SCALE
1000
AcRTDxfName
1000
SCALE
1000
AcRTDxfName
1000
SCALE
1000
AcRTDxfName
1000
SCALE
1000
AcRTDxfName
1000
SCALE
1000
AcRTDxfName
1000
SCALE
1000
AcRTDxfName
1000
SCALE
1000
AcRTDxfName
1000
SCALE
1000
AcRTDxfName
1000
SCALE
1000
AcRTDxfName
1000
SCALE
1000
AcRTDxfName
1000
SCALE
1000
AcRTDxfName
1000
SCALE
1000
AcRTDxfName
1000
SCALE
1000
AcRTDxfName
1000
SCALE
1000
AcRTDxfName
1000
SCALE
1000
AcRTDxfName
1000
SCALE
1000
AcRTDxfName
1000
SCALE
1000
AcRTDxfName
1000
SCALE
1000
AcRTDxfName
1000
SCALE
1000
AcRTDxfName
1000
SCALE
1000
AcRTDxfName
1000
SCALE
1000
AcRTDxfName
1000
SCALE
1000
AcRTDxfName
1000
SCALE
1000
AcRTDxfName
1000
SCALE
1000
AcRTDxfName
1000
SCALE
1000
AcRTDxfName
1000
SCALE
1000
AcRTDxfName
1000
SCALE
1000
AcRTDxfName
1000
SCALE
1000
AcRTDxfName
1000
SCALE
1000
AcRTDxfName
1000
SCALE
1000
AcRTDxfName
1000
SCALE
1000
AcRTDxfName
1000
SCALE
1000
AcRTDxfName
1000
SCALE
1000
AcRTDxfName
1000
SCALE
1000
AcRTDxfName
1000
SCALE
1000
AcRTDxfName
1000
SCALE
1000
AcRTDxfName
1000
SCALE
1000
AcRTDxfName
1000
SCALE
1000
AcRTDxfName
1000
SCALE
1000
AcRTDxfName
1000
SCALE
1000
AcRTDxfName
1000
SCALE
1000
AcRTDxfName
1000
SCALE
1000
AcRTDxfName
1000
SCALE
1000
AcRTDxfName
1000
SCALE
1000
AcRTDxfName
1000
SCALE
1000
AcRTDxfName
1000
SCALE
1000
AcRTDxfName
1000
SCALE
1000
AcRTDxfName
1000
SCALE
1000
AcRTDxfName
1000
SCALE
1000
AcRTDxfName
1000
SCALE
  0
SCALE
  5
18B6
102
{ACAD_REACTORS
330
18A0
102
}
330
18A0
100
AcDbScale
 70
     0
300
3/32" = 1'-0"
140
0.09375
141
12.0
290
     0
1001
ACAD
1000
AcRTDxfName
1000
SCALE
1000
AcRTDxfName
1000
SCALE
1000
AcRTDxfName
1000
SCALE
1000
AcRTDxfName
1000
SCALE
1000
AcRTDxfName
1000
SCALE
1000
AcRTDxfName
1000
SCALE
1000
AcRTDxfName
1000
SCALE
1000
AcRTDxfName
1000
SCALE
1000
AcRTDxfName
1000
SCALE
1000
AcRTDxfName
1000
SCALE
1000
AcRTDxfName
1000
SCALE
1000
AcRTDxfName
1000
SCALE
1000
AcRTDxfName
1000
SCALE
1000
AcRTDxfName
1000
SCALE
1000
AcRTDxfName
1000
SCALE
1000
AcRTDxfName
1000
SCALE
1000
AcRTDxfName
1000
SCALE
1000
AcRTDxfName
1000
SCALE
1000
AcRTDxfName
1000
SCALE
1000
AcRTDxfName
1000
SCALE
1000
AcRTDxfName
1000
SCALE
1000
AcRTDxfName
1000
SCALE
1000
AcRTDxfName
1000
SCALE
1000
AcRTDxfName
1000
SCALE
1000
AcRTDxfName
1000
SCALE
1000
AcRTDxfName
1000
SCALE
1000
AcRTDxfName
1000
SCALE
1000
AcRTDxfName
1000
SCALE
1000
AcRTDxfName
1000
SCALE
1000
AcRTDxfName
1000
SCALE
1000
AcRTDxfName
1000
SCALE
1000
AcRTDxfName
1000
SCALE
1000
AcRTDxfName
1000
SCALE
1000
AcRTDxfName
1000
SCALE
1000
AcRTDxfName
1000
SCALE
1000
AcRTDxfName
1000
SCALE
1000
AcRTDxfName
1000
SCALE
1000
AcRTDxfName
1000
SCALE
1000
AcRTDxfName
1000
SCALE
1000
AcRTDxfName
1000
SCALE
1000
AcRTDxfName
1000
SCALE
1000
AcRTDxfName
1000
SCALE
1000
AcRTDxfName
1000
SCALE
1000
AcRTDxfName
1000
SCALE
1000
AcRTDxfName
1000
SCALE
1000
AcRTDxfName
1000
SCALE
1000
AcRTDxfName
1000
SCALE
1000
AcRTDxfName
1000
SCALE
1000
AcRTDxfName
1000
SCALE
1000
AcRTDxfName
1000
SCALE
1000
AcRTDxfName
1000
SCALE
1000
AcRTDxfName
1000
SCALE
1000
AcRTDxfName
1000
SCALE
1000
AcRTDxfName
1000
SCALE
1000
AcRTDxfName
1000
SCALE
1000
AcRTDxfName
1000
SCALE
1000
AcRTDxfName
1000
SCALE
1000
AcRTDxfName
1000
SCALE
1000
AcRTDxfName
1000
SCALE
1000
AcRTDxfName
1000
SCALE
1000
AcRTDxfName
1000
SCALE
1000
AcRTDxfName
1000
SCALE
1000
AcRTDxfName
1000
SCALE
1000
AcRTDxfName
1000
SCALE
1000
AcRTDxfName
1000
SCALE
1000
AcRTDxfName
1000
SCALE
1000
AcRTDxfName
1000
SCALE
1000
AcRTDxfName
1000
SCALE
1000
AcRTDxfName
1000
SCALE
1000
AcRTDxfName
1000
SCALE
1000
AcRTDxfName
1000
SCALE
1000
AcRTDxfName
1000
SCALE
1000
AcRTDxfName
1000
SCALE
1000
AcRTDxfName
1000
SCALE
1000
AcRTDxfName
1000
SCALE
1000
AcRTDxfName
1000
SCALE
1000
AcRTDxfName
1000
SCALE
1000
AcRTDxfName
1000
SCALE
1000
AcRTDxfName
1000
SCALE
1000
AcRTDxfName
1000
SCALE
1000
AcRTDxfName
1000
SCALE
1000
AcRTDxfName
1000
SCALE
1000
AcRTDxfName
1000
SCALE
1000
AcRTDxfName
1000
SCALE
1000
AcRTDxfName
1000
SCALE
1000
AcRTDxfName
1000
SCALE
1000
AcRTDxfName
1000
SCALE
1000
AcRTDxfName
1000
SCALE
1000
AcRTDxfName
1000
SCALE
1000
AcRTDxfName
1000
SCALE
1000
AcRTDxfName
1000
SCALE
1000
AcRTDxfName
1000
SCALE
1000
AcRTDxfName
1000
SCALE
1000
AcRTDxfName
1000
SCALE
1000
AcRTDxfName
1000
SCALE
1000
AcRTDxfName
1000
SCALE
1000
AcRTDxfName
1000
SCALE
1000
AcRTDxfName
1000
SCALE
1000
AcRTDxfName
1000
SCALE
1000
AcRTDxfName
1000
SCALE
1000
AcRTDxfName
1000
SCALE
1000
AcRTDxfName
1000
SCALE
1000
AcRTDxfName
1000
SCALE
1000
AcRTDxfName
1000
SCALE
1000
AcRTDxfName
1000
SCALE
1000
AcRTDxfName
1000
SCALE
1000
AcRTDxfName
1000
SCALE
1000
AcRTDxfName
1000
SCALE
1000
AcRTDxfName
1000
SCALE
1000
AcRTDxfName
1000
SCALE
1000
AcRTDxfName
1000
SCALE
1000
AcRTDxfName
1000
SCALE
1000
AcRTDxfName
1000
SCALE
1000
AcRTDxfName
1000
SCALE
1000
AcRTDxfName
1000
SCALE
1000
AcRTDxfName
1000
SCALE
1000
AcRTDxfName
1000
SCALE
1000
AcRTDxfName
1000
SCALE
1000
AcRTDxfName
1000
SCALE
1000
AcRTDxfName
1000
SCALE
1000
AcRTDxfName
1000
SCALE
1000
AcRTDxfName
1000
SCALE
1000
AcRTDxfName
1000
SCALE
1000
AcRTDxfName
1000
SCALE
1000
AcRTDxfName
1000
SCALE
1000
AcRTDxfName
1000
SCALE
1000
AcRTDxfName
1000
SCALE
1000
AcRTDxfName
1000
SCALE
1000
AcRTDxfName
1000
SCALE
1000
AcRTDxfName
1000
SCALE
1000
AcRTDxfName
1000
SCALE
1000
AcRTDxfName
1000
SCALE
1000
AcRTDxfName
1000
SCALE
1000
AcRTDxfName
1000
SCALE
1000
AcRTDxfName
1000
SCALE
1000
AcRTDxfName
1000
SCALE
1000
AcRTDxfName
1000
SCALE
1000
AcRTDxfName
1000
SCALE
1000
AcRTDxfName
1000
SCALE
1000
AcRTDxfName
1000
SCALE
1000
AcRTDxfName
1000
SCALE
1000
AcRTDxfName
1000
SCALE
1000
AcRTDxfName
1000
SCALE
1000
AcRTDxfName
1000
SCALE
1000
AcRTDxfName
1000
SCALE
1000
AcRTDxfName
1000
SCALE
1000
AcRTDxfName
1000
SCALE
1000
AcRTDxfName
1000
SCALE
1000
AcRTDxfName
1000
SCALE
1000
AcRTDxfName
1000
SCALE
1000
AcRTDxfName
1000
SCALE
1000
AcRTDxfName
1000
SCALE
1000
AcRTDxfName
1000
SCALE
1000
AcRTDxfName
1000
SCALE
1000
AcRTDxfName
1000
SCALE
1000
AcRTDxfName
1000
SCALE
  0
SCALE
  5
18B7
102
{ACAD_REACTORS
330
18A0
102
}
330
18A0
100
AcDbScale
 70
     0
300
1/8" = 1'-0"
140
0.125
141
12.0
290
     0
1001
ACAD
1000
AcRTDxfName
1000
SCALE
1000
AcRTDxfName
1000
SCALE
1000
AcRTDxfName
1000
SCALE
1000
AcRTDxfName
1000
SCALE
1000
AcRTDxfName
1000
SCALE
1000
AcRTDxfName
1000
SCALE
1000
AcRTDxfName
1000
SCALE
1000
AcRTDxfName
1000
SCALE
1000
AcRTDxfName
1000
SCALE
1000
AcRTDxfName
1000
SCALE
1000
AcRTDxfName
1000
SCALE
1000
AcRTDxfName
1000
SCALE
1000
AcRTDxfName
1000
SCALE
1000
AcRTDxfName
1000
SCALE
1000
AcRTDxfName
1000
SCALE
1000
AcRTDxfName
1000
SCALE
1000
AcRTDxfName
1000
SCALE
1000
AcRTDxfName
1000
SCALE
1000
AcRTDxfName
1000
SCALE
1000
AcRTDxfName
1000
SCALE
1000
AcRTDxfName
1000
SCALE
1000
AcRTDxfName
1000
SCALE
1000
AcRTDxfName
1000
SCALE
1000
AcRTDxfName
1000
SCALE
1000
AcRTDxfName
1000
SCALE
1000
AcRTDxfName
1000
SCALE
1000
AcRTDxfName
1000
SCALE
1000
AcRTDxfName
1000
SCALE
1000
AcRTDxfName
1000
SCALE
1000
AcRTDxfName
1000
SCALE
1000
AcRTDxfName
1000
SCALE
1000
AcRTDxfName
1000
SCALE
1000
AcRTDxfName
1000
SCALE
1000
AcRTDxfName
1000
SCALE
1000
AcRTDxfName
1000
SCALE
1000
AcRTDxfName
1000
SCALE
1000
AcRTDxfName
1000
SCALE
1000
AcRTDxfName
1000
SCALE
1000
AcRTDxfName
1000
SCALE
1000
AcRTDxfName
1000
SCALE
1000
AcRTDxfName
1000
SCALE
1000
AcRTDxfName
1000
SCALE
1000
AcRTDxfName
1000
SCALE
1000
AcRTDxfName
1000
SCALE
1000
AcRTDxfName
1000
SCALE
1000
AcRTDxfName
1000
SCALE
1000
AcRTDxfName
1000
SCALE
1000
AcRTDxfName
1000
SCALE
1000
AcRTDxfName
1000
SCALE
1000
AcRTDxfName
1000
SCALE
1000
AcRTDxfName
1000
SCALE
1000
AcRTDxfName
1000
SCALE
1000
AcRTDxfName
1000
SCALE
1000
AcRTDxfName
1000
SCALE
1000
AcRTDxfName
1000
SCALE
1000
AcRTDxfName
1000
SCALE
1000
AcRTDxfName
1000
SCALE
1000
AcRTDxfName
1000
SCALE
1000
AcRTDxfName
1000
SCALE
1000
AcRTDxfName
1000
SCALE
1000
AcRTDxfName
1000
SCALE
1000
AcRTDxfName
1000
SCALE
1000
AcRTDxfName
1000
SCALE
1000
AcRTDxfName
1000
SCALE
1000
AcRTDxfName
1000
SCALE
1000
AcRTDxfName
1000
SCALE
1000
AcRTDxfName
1000
SCALE
1000
AcRTDxfName
1000
SCALE
1000
AcRTDxfName
1000
SCALE
1000
AcRTDxfName
1000
SCALE
1000
AcRTDxfName
1000
SCALE
1000
AcRTDxfName
1000
SCALE
1000
AcRTDxfName
1000
SCALE
1000
AcRTDxfName
1000
SCALE
1000
AcRTDxfName
1000
SCALE
1000
AcRTDxfName
1000
SCALE
1000
AcRTDxfName
1000
SCALE
1000
AcRTDxfName
1000
SCALE
1000
AcRTDxfName
1000
SCALE
1000
AcRTDxfName
1000
SCALE
1000
AcRTDxfName
1000
SCALE
1000
AcRTDxfName
1000
SCALE
1000
AcRTDxfName
1000
SCALE
1000
AcRTDxfName
1000
SCALE
1000
AcRTDxfName
1000
SCALE
1000
AcRTDxfName
1000
SCALE
1000
AcRTDxfName
1000
SCALE
1000
AcRTDxfName
1000
SCALE
1000
AcRTDxfName
1000
SCALE
1000
AcRTDxfName
1000
SCALE
1000
AcRTDxfName
1000
SCALE
1000
AcRTDxfName
1000
SCALE
1000
AcRTDxfName
1000
SCALE
1000
AcRTDxfName
1000
SCALE
1000
AcRTDxfName
1000
SCALE
1000
AcRTDxfName
1000
SCALE
1000
AcRTDxfName
1000
SCALE
1000
AcRTDxfName
1000
SCALE
1000
AcRTDxfName
1000
SCALE
1000
AcRTDxfName
1000
SCALE
1000
AcRTDxfName
1000
SCALE
1000
AcRTDxfName
1000
SCALE
1000
AcRTDxfName
1000
SCALE
1000
AcRTDxfName
1000
SCALE
1000
AcRTDxfName
1000
SCALE
1000
AcRTDxfName
1000
SCALE
1000
AcRTDxfName
1000
SCALE
1000
AcRTDxfName
1000
SCALE
1000
AcRTDxfName
1000
SCALE
1000
AcRTDxfName
1000
SCALE
1000
AcRTDxfName
1000
SCALE
1000
AcRTDxfName
1000
SCALE
1000
AcRTDxfName
1000
SCALE
1000
AcRTDxfName
1000
SCALE
1000
AcRTDxfName
1000
SCALE
1000
AcRTDxfName
1000
SCALE
1000
AcRTDxfName
1000
SCALE
1000
AcRTDxfName
1000
SCALE
1000
AcRTDxfName
1000
SCALE
1000
AcRTDxfName
1000
SCALE
1000
AcRTDxfName
1000
SCALE
1000
AcRTDxfName
1000
SCALE
1000
AcRTDxfName
1000
SCALE
1000
AcRTDxfName
1000
SCALE
1000
AcRTDxfName
1000
SCALE
1000
AcRTDxfName
1000
SCALE
1000
AcRTDxfName
1000
SCALE
1000
AcRTDxfName
1000
SCALE
1000
AcRTDxfName
1000
SCALE
1000
AcRTDxfName
1000
SCALE
1000
AcRTDxfName
1000
SCALE
1000
AcRTDxfName
1000
SCALE
1000
AcRTDxfName
1000
SCALE
1000
AcRTDxfName
1000
SCALE
1000
AcRTDxfName
1000
SCALE
1000
AcRTDxfName
1000
SCALE
1000
AcRTDxfName
1000
SCALE
1000
AcRTDxfName
1000
SCALE
1000
AcRTDxfName
1000
SCALE
1000
AcRTDxfName
1000
SCALE
1000
AcRTDxfName
1000
SCALE
1000
AcRTDxfName
1000
SCALE
1000
AcRTDxfName
1000
SCALE
1000
AcRTDxfName
1000
SCALE
1000
AcRTDxfName
1000
SCALE
1000
AcRTDxfName
1000
SCALE
1000
AcRTDxfName
1000
SCALE
1000
AcRTDxfName
1000
SCALE
1000
AcRTDxfName
1000
SCALE
1000
AcRTDxfName
1000
SCALE
1000
AcRTDxfName
1000
SCALE
1000
AcRTDxfName
1000
SCALE
1000
AcRTDxfName
1000
SCALE
1000
AcRTDxfName
1000
SCALE
1000
AcRTDxfName
1000
SCALE
1000
AcRTDxfName
1000
SCALE
  0
SCALE
  5
18B8
102
{ACAD_REACTORS
330
18A0
102
}
330
18A0
100
AcDbScale
 70
     0
300
3/16" = 1'-0"
140
0.1875
141
12.0
290
     0
1001
ACAD
1000
AcRTDxfName
1000
SCALE
1000
AcRTDxfName
1000
SCALE
1000
AcRTDxfName
1000
SCALE
1000
AcRTDxfName
1000
SCALE
1000
AcRTDxfName
1000
SCALE
1000
AcRTDxfName
1000
SCALE
1000
AcRTDxfName
1000
SCALE
1000
AcRTDxfName
1000
SCALE
1000
AcRTDxfName
1000
SCALE
1000
AcRTDxfName
1000
SCALE
1000
AcRTDxfName
1000
SCALE
1000
AcRTDxfName
1000
SCALE
1000
AcRTDxfName
1000
SCALE
1000
AcRTDxfName
1000
SCALE
1000
AcRTDxfName
1000
SCALE
1000
AcRTDxfName
1000
SCALE
1000
AcRTDxfName
1000
SCALE
1000
AcRTDxfName
1000
SCALE
1000
AcRTDxfName
1000
SCALE
1000
AcRTDxfName
1000
SCALE
1000
AcRTDxfName
1000
SCALE
1000
AcRTDxfName
1000
SCALE
1000
AcRTDxfName
1000
SCALE
1000
AcRTDxfName
1000
SCALE
1000
AcRTDxfName
1000
SCALE
1000
AcRTDxfName
1000
SCALE
1000
AcRTDxfName
1000
SCALE
1000
AcRTDxfName
1000
SCALE
1000
AcRTDxfName
1000
SCALE
1000
AcRTDxfName
1000
SCALE
1000
AcRTDxfName
1000
SCALE
1000
AcRTDxfName
1000
SCALE
1000
AcRTDxfName
1000
SCALE
1000
AcRTDxfName
1000
SCALE
1000
AcRTDxfName
1000
SCALE
1000
AcRTDxfName
1000
SCALE
1000
AcRTDxfName
1000
SCALE
1000
AcRTDxfName
1000
SCALE
1000
AcRTDxfName
1000
SCALE
1000
AcRTDxfName
1000
SCALE
1000
AcRTDxfName
1000
SCALE
1000
AcRTDxfName
1000
SCALE
1000
AcRTDxfName
1000
SCALE
1000
AcRTDxfName
1000
SCALE
1000
AcRTDxfName
1000
SCALE
1000
AcRTDxfName
1000
SCALE
1000
AcRTDxfName
1000
SCALE
1000
AcRTDxfName
1000
SCALE
1000
AcRTDxfName
1000
SCALE
1000
AcRTDxfName
1000
SCALE
1000
AcRTDxfName
1000
SCALE
1000
AcRTDxfName
1000
SCALE
1000
AcRTDxfName
1000
SCALE
1000
AcRTDxfName
1000
SCALE
1000
AcRTDxfName
1000
SCALE
1000
AcRTDxfName
1000
SCALE
1000
AcRTDxfName
1000
SCALE
1000
AcRTDxfName
1000
SCALE
1000
AcRTDxfName
1000
SCALE
1000
AcRTDxfName
1000
SCALE
1000
AcRTDxfName
1000
SCALE
1000
AcRTDxfName
1000
SCALE
1000
AcRTDxfName
1000
SCALE
1000
AcRTDxfName
1000
SCALE
1000
AcRTDxfName
1000
SCALE
1000
AcRTDxfName
1000
SCALE
1000
AcRTDxfName
1000
SCALE
1000
AcRTDxfName
1000
SCALE
1000
AcRTDxfName
1000
SCALE
1000
AcRTDxfName
1000
SCALE
1000
AcRTDxfName
1000
SCALE
1000
AcRTDxfName
1000
SCALE
1000
AcRTDxfName
1000
SCALE
1000
AcRTDxfName
1000
SCALE
1000
AcRTDxfName
1000
SCALE
1000
AcRTDxfName
1000
SCALE
1000
AcRTDxfName
1000
SCALE
1000
AcRTDxfName
1000
SCALE
1000
AcRTDxfName
1000
SCALE
1000
AcRTDxfName
1000
SCALE
1000
AcRTDxfName
1000
SCALE
1000
AcRTDxfName
1000
SCALE
1000
AcRTDxfName
1000
SCALE
1000
AcRTDxfName
1000
SCALE
1000
AcRTDxfName
1000
SCALE
1000
AcRTDxfName
1000
SCALE
1000
AcRTDxfName
1000
SCALE
1000
AcRTDxfName
1000
SCALE
1000
AcRTDxfName
1000
SCALE
1000
AcRTDxfName
1000
SCALE
1000
AcRTDxfName
1000
SCALE
1000
AcRTDxfName
1000
SCALE
1000
AcRTDxfName
1000
SCALE
1000
AcRTDxfName
1000
SCALE
1000
AcRTDxfName
1000
SCALE
1000
AcRTDxfName
1000
SCALE
1000
AcRTDxfName
1000
SCALE
1000
AcRTDxfName
1000
SCALE
1000
AcRTDxfName
1000
SCALE
1000
AcRTDxfName
1000
SCALE
1000
AcRTDxfName
1000
SCALE
1000
AcRTDxfName
1000
SCALE
1000
AcRTDxfName
1000
SCALE
1000
AcRTDxfName
1000
SCALE
1000
AcRTDxfName
1000
SCALE
1000
AcRTDxfName
1000
SCALE
1000
AcRTDxfName
1000
SCALE
1000
AcRTDxfName
1000
SCALE
1000
AcRTDxfName
1000
SCALE
1000
AcRTDxfName
1000
SCALE
1000
AcRTDxfName
1000
SCALE
1000
AcRTDxfName
1000
SCALE
1000
AcRTDxfName
1000
SCALE
1000
AcRTDxfName
1000
SCALE
1000
AcRTDxfName
1000
SCALE
1000
AcRTDxfName
1000
SCALE
1000
AcRTDxfName
1000
SCALE
1000
AcRTDxfName
1000
SCALE
1000
AcRTDxfName
1000
SCALE
1000
AcRTDxfName
1000
SCALE
1000
AcRTDxfName
1000
SCALE
1000
AcRTDxfName
1000
SCALE
1000
AcRTDxfName
1000
SCALE
1000
AcRTDxfName
1000
SCALE
1000
AcRTDxfName
1000
SCALE
1000
AcRTDxfName
1000
SCALE
1000
AcRTDxfName
1000
SCALE
1000
AcRTDxfName
1000
SCALE
1000
AcRTDxfName
1000
SCALE
1000
AcRTDxfName
1000
SCALE
1000
AcRTDxfName
1000
SCALE
1000
AcRTDxfName
1000
SCALE
1000
AcRTDxfName
1000
SCALE
1000
AcRTDxfName
1000
SCALE
1000
AcRTDxfName
1000
SCALE
1000
AcRTDxfName
1000
SCALE
1000
AcRTDxfName
1000
SCALE
1000
AcRTDxfName
1000
SCALE
1000
AcRTDxfName
1000
SCALE
1000
AcRTDxfName
1000
SCALE
1000
AcRTDxfName
1000
SCALE
1000
AcRTDxfName
1000
SCALE
1000
AcRTDxfName
1000
SCALE
1000
AcRTDxfName
1000
SCALE
1000
AcRTDxfName
1000
SCALE
1000
AcRTDxfName
1000
SCALE
1000
AcRTDxfName
1000
SCALE
1000
AcRTDxfName
1000
SCALE
1000
AcRTDxfName
1000
SCALE
1000
AcRTDxfName
1000
SCALE
1000
AcRTDxfName
1000
SCALE
1000
AcRTDxfName
1000
SCALE
1000
AcRTDxfName
1000
SCALE
1000
AcRTDxfName
1000
SCALE
1000
AcRTDxfName
1000
SCALE
1000
AcRTDxfName
1000
SCALE
  0
SCALE
  5
18B9
102
{ACAD_REACTORS
330
18A0
102
}
330
18A0
100
AcDbScale
 70
     0
300
1/4" = 1'-0"
140
0.25
141
12.0
290
     0
1001
ACAD
1000
AcRTDxfName
1000
SCALE
1000
AcRTDxfName
1000
SCALE
1000
AcRTDxfName
1000
SCALE
1000
AcRTDxfName
1000
SCALE
1000
AcRTDxfName
1000
SCALE
1000
AcRTDxfName
1000
SCALE
1000
AcRTDxfName
1000
SCALE
1000
AcRTDxfName
1000
SCALE
1000
AcRTDxfName
1000
SCALE
1000
AcRTDxfName
1000
SCALE
1000
AcRTDxfName
1000
SCALE
1000
AcRTDxfName
1000
SCALE
1000
AcRTDxfName
1000
SCALE
1000
AcRTDxfName
1000
SCALE
1000
AcRTDxfName
1000
SCALE
1000
AcRTDxfName
1000
SCALE
1000
AcRTDxfName
1000
SCALE
1000
AcRTDxfName
1000
SCALE
1000
AcRTDxfName
1000
SCALE
1000
AcRTDxfName
1000
SCALE
1000
AcRTDxfName
1000
SCALE
1000
AcRTDxfName
1000
SCALE
1000
AcRTDxfName
1000
SCALE
1000
AcRTDxfName
1000
SCALE
1000
AcRTDxfName
1000
SCALE
1000
AcRTDxfName
1000
SCALE
1000
AcRTDxfName
1000
SCALE
1000
AcRTDxfName
1000
SCALE
1000
AcRTDxfName
1000
SCALE
1000
AcRTDxfName
1000
SCALE
1000
AcRTDxfName
1000
SCALE
1000
AcRTDxfName
1000
SCALE
1000
AcRTDxfName
1000
SCALE
1000
AcRTDxfName
1000
SCALE
1000
AcRTDxfName
1000
SCALE
1000
AcRTDxfName
1000
SCALE
1000
AcRTDxfName
1000
SCALE
1000
AcRTDxfName
1000
SCALE
1000
AcRTDxfName
1000
SCALE
1000
AcRTDxfName
1000
SCALE
1000
AcRTDxfName
1000
SCALE
1000
AcRTDxfName
1000
SCALE
1000
AcRTDxfName
1000
SCALE
1000
AcRTDxfName
1000
SCALE
1000
AcRTDxfName
1000
SCALE
1000
AcRTDxfName
1000
SCALE
1000
AcRTDxfName
1000
SCALE
1000
AcRTDxfName
1000
SCALE
1000
AcRTDxfName
1000
SCALE
1000
AcRTDxfName
1000
SCALE
1000
AcRTDxfName
1000
SCALE
1000
AcRTDxfName
1000
SCALE
1000
AcRTDxfName
1000
SCALE
1000
AcRTDxfName
1000
SCALE
1000
AcRTDxfName
1000
SCALE
1000
AcRTDxfName
1000
SCALE
1000
AcRTDxfName
1000
SCALE
1000
AcRTDxfName
1000
SCALE
1000
AcRTDxfName
1000
SCALE
1000
AcRTDxfName
1000
SCALE
1000
AcRTDxfName
1000
SCALE
1000
AcRTDxfName
1000
SCALE
1000
AcRTDxfName
1000
SCALE
1000
AcRTDxfName
1000
SCALE
1000
AcRTDxfName
1000
SCALE
1000
AcRTDxfName
1000
SCALE
1000
AcRTDxfName
1000
SCALE
1000
AcRTDxfName
1000
SCALE
1000
AcRTDxfName
1000
SCALE
1000
AcRTDxfName
1000
SCALE
1000
AcRTDxfName
1000
SCALE
1000
AcRTDxfName
1000
SCALE
1000
AcRTDxfName
1000
SCALE
1000
AcRTDxfName
1000
SCALE
1000
AcRTDxfName
1000
SCALE
1000
AcRTDxfName
1000
SCALE
1000
AcRTDxfName
1000
SCALE
1000
AcRTDxfName
1000
SCALE
1000
AcRTDxfName
1000
SCALE
1000
AcRTDxfName
1000
SCALE
1000
AcRTDxfName
1000
SCALE
1000
AcRTDxfName
1000
SCALE
1000
AcRTDxfName
1000
SCALE
1000
AcRTDxfName
1000
SCALE
1000
AcRTDxfName
1000
SCALE
1000
AcRTDxfName
1000
SCALE
1000
AcRTDxfName
1000
SCALE
1000
AcRTDxfName
1000
SCALE
1000
AcRTDxfName
1000
SCALE
1000
AcRTDxfName
1000
SCALE
1000
AcRTDxfName
1000
SCALE
1000
AcRTDxfName
1000
SCALE
1000
AcRTDxfName
1000
SCALE
1000
AcRTDxfName
1000
SCALE
1000
AcRTDxfName
1000
SCALE
1000
AcRTDxfName
1000
SCALE
1000
AcRTDxfName
1000
SCALE
1000
AcRTDxfName
1000
SCALE
1000
AcRTDxfName
1000
SCALE
1000
AcRTDxfName
1000
SCALE
1000
AcRTDxfName
1000
SCALE
1000
AcRTDxfName
1000
SCALE
1000
AcRTDxfName
1000
SCALE
1000
AcRTDxfName
1000
SCALE
1000
AcRTDxfName
1000
SCALE
1000
AcRTDxfName
1000
SCALE
1000
AcRTDxfName
1000
SCALE
1000
AcRTDxfName
1000
SCALE
1000
AcRTDxfName
1000
SCALE
1000
AcRTDxfName
1000
SCALE
1000
AcRTDxfName
1000
SCALE
1000
AcRTDxfName
1000
SCALE
1000
AcRTDxfName
1000
SCALE
1000
AcRTDxfName
1000
SCALE
1000
AcRTDxfName
1000
SCALE
1000
AcRTDxfName
1000
SCALE
1000
AcRTDxfName
1000
SCALE
1000
AcRTDxfName
1000
SCALE
1000
AcRTDxfName
1000
SCALE
1000
AcRTDxfName
1000
SCALE
1000
AcRTDxfName
1000
SCALE
1000
AcRTDxfName
1000
SCALE
1000
AcRTDxfName
1000
SCALE
1000
AcRTDxfName
1000
SCALE
1000
AcRTDxfName
1000
SCALE
1000
AcRTDxfName
1000
SCALE
1000
AcRTDxfName
1000
SCALE
1000
AcRTDxfName
1000
SCALE
1000
AcRTDxfName
1000
SCALE
1000
AcRTDxfName
1000
SCALE
1000
AcRTDxfName
1000
SCALE
1000
AcRTDxfName
1000
SCALE
1000
AcRTDxfName
1000
SCALE
1000
AcRTDxfName
1000
SCALE
1000
AcRTDxfName
1000
SCALE
1000
AcRTDxfName
1000
SCALE
1000
AcRTDxfName
1000
SCALE
1000
AcRTDxfName
1000
SCALE
1000
AcRTDxfName
1000
SCALE
1000
AcRTDxfName
1000
SCALE
1000
AcRTDxfName
1000
SCALE
1000
AcRTDxfName
1000
SCALE
1000
AcRTDxfName
1000
SCALE
1000
AcRTDxfName
1000
SCALE
1000
AcRTDxfName
1000
SCALE
1000
AcRTDxfName
1000
SCALE
1000
AcRTDxfName
1000
SCALE
1000
AcRTDxfName
1000
SCALE
1000
AcRTDxfName
1000
SCALE
1000
AcRTDxfName
1000
SCALE
1000
AcRTDxfName
1000
SCALE
1000
AcRTDxfName
1000
SCALE
1000
AcRTDxfName
1000
SCALE
1000
AcRTDxfName
1000
SCALE
1000
AcRTDxfName
1000
SCALE
1000
AcRTDxfName
1000
SCALE
  0
SCALE
  5
18BA
102
{ACAD_REACTORS
330
18A0
102
}
330
18A0
100
AcDbScale
 70
     0
300
3/8" = 1'-0"
140
0.375
141
12.0
290
     0
1001
ACAD
1000
AcRTDxfName
1000
SCALE
1000
AcRTDxfName
1000
SCALE
1000
AcRTDxfName
1000
SCALE
1000
AcRTDxfName
1000
SCALE
1000
AcRTDxfName
1000
SCALE
1000
AcRTDxfName
1000
SCALE
1000
AcRTDxfName
1000
SCALE
1000
AcRTDxfName
1000
SCALE
1000
AcRTDxfName
1000
SCALE
1000
AcRTDxfName
1000
SCALE
1000
AcRTDxfName
1000
SCALE
1000
AcRTDxfName
1000
SCALE
1000
AcRTDxfName
1000
SCALE
1000
AcRTDxfName
1000
SCALE
1000
AcRTDxfName
1000
SCALE
1000
AcRTDxfName
1000
SCALE
1000
AcRTDxfName
1000
SCALE
1000
AcRTDxfName
1000
SCALE
1000
AcRTDxfName
1000
SCALE
1000
AcRTDxfName
1000
SCALE
1000
AcRTDxfName
1000
SCALE
1000
AcRTDxfName
1000
SCALE
1000
AcRTDxfName
1000
SCALE
1000
AcRTDxfName
1000
SCALE
1000
AcRTDxfName
1000
SCALE
1000
AcRTDxfName
1000
SCALE
1000
AcRTDxfName
1000
SCALE
1000
AcRTDxfName
1000
SCALE
1000
AcRTDxfName
1000
SCALE
1000
AcRTDxfName
1000
SCALE
1000
AcRTDxfName
1000
SCALE
1000
AcRTDxfName
1000
SCALE
1000
AcRTDxfName
1000
SCALE
1000
AcRTDxfName
1000
SCALE
1000
AcRTDxfName
1000
SCALE
1000
AcRTDxfName
1000
SCALE
1000
AcRTDxfName
1000
SCALE
1000
AcRTDxfName
1000
SCALE
1000
AcRTDxfName
1000
SCALE
1000
AcRTDxfName
1000
SCALE
1000
AcRTDxfName
1000
SCALE
1000
AcRTDxfName
1000
SCALE
1000
AcRTDxfName
1000
SCALE
1000
AcRTDxfName
1000
SCALE
1000
AcRTDxfName
1000
SCALE
1000
AcRTDxfName
1000
SCALE
1000
AcRTDxfName
1000
SCALE
1000
AcRTDxfName
1000
SCALE
1000
AcRTDxfName
1000
SCALE
1000
AcRTDxfName
1000
SCALE
1000
AcRTDxfName
1000
SCALE
1000
AcRTDxfName
1000
SCALE
1000
AcRTDxfName
1000
SCALE
1000
AcRTDxfName
1000
SCALE
1000
AcRTDxfName
1000
SCALE
1000
AcRTDxfName
1000
SCALE
1000
AcRTDxfName
1000
SCALE
1000
AcRTDxfName
1000
SCALE
1000
AcRTDxfName
1000
SCALE
1000
AcRTDxfName
1000
SCALE
1000
AcRTDxfName
1000
SCALE
1000
AcRTDxfName
1000
SCALE
1000
AcRTDxfName
1000
SCALE
1000
AcRTDxfName
1000
SCALE
1000
AcRTDxfName
1000
SCALE
1000
AcRTDxfName
1000
SCALE
1000
AcRTDxfName
1000
SCALE
1000
AcRTDxfName
1000
SCALE
1000
AcRTDxfName
1000
SCALE
1000
AcRTDxfName
1000
SCALE
1000
AcRTDxfName
1000
SCALE
1000
AcRTDxfName
1000
SCALE
1000
AcRTDxfName
1000
SCALE
1000
AcRTDxfName
1000
SCALE
1000
AcRTDxfName
1000
SCALE
1000
AcRTDxfName
1000
SCALE
1000
AcRTDxfName
1000
SCALE
1000
AcRTDxfName
1000
SCALE
1000
AcRTDxfName
1000
SCALE
1000
AcRTDxfName
1000
SCALE
1000
AcRTDxfName
1000
SCALE
1000
AcRTDxfName
1000
SCALE
1000
AcRTDxfName
1000
SCALE
1000
AcRTDxfName
1000
SCALE
1000
AcRTDxfName
1000
SCALE
1000
AcRTDxfName
1000
SCALE
1000
AcRTDxfName
1000
SCALE
1000
AcRTDxfName
1000
SCALE
1000
AcRTDxfName
1000
SCALE
1000
AcRTDxfName
1000
SCALE
1000
AcRTDxfName
1000
SCALE
1000
AcRTDxfName
1000
SCALE
1000
AcRTDxfName
1000
SCALE
1000
AcRTDxfName
1000
SCALE
1000
AcRTDxfName
1000
SCALE
1000
AcRTDxfName
1000
SCALE
1000
AcRTDxfName
1000
SCALE
1000
AcRTDxfName
1000
SCALE
1000
AcRTDxfName
1000
SCALE
1000
AcRTDxfName
1000
SCALE
1000
AcRTDxfName
1000
SCALE
1000
AcRTDxfName
1000
SCALE
1000
AcRTDxfName
1000
SCALE
1000
AcRTDxfName
1000
SCALE
1000
AcRTDxfName
1000
SCALE
1000
AcRTDxfName
1000
SCALE
1000
AcRTDxfName
1000
SCALE
1000
AcRTDxfName
1000
SCALE
1000
AcRTDxfName
1000
SCALE
1000
AcRTDxfName
1000
SCALE
1000
AcRTDxfName
1000
SCALE
1000
AcRTDxfName
1000
SCALE
1000
AcRTDxfName
1000
SCALE
1000
AcRTDxfName
1000
SCALE
1000
AcRTDxfName
1000
SCALE
1000
AcRTDxfName
1000
SCALE
1000
AcRTDxfName
1000
SCALE
1000
AcRTDxfName
1000
SCALE
1000
AcRTDxfName
1000
SCALE
1000
AcRTDxfName
1000
SCALE
1000
AcRTDxfName
1000
SCALE
1000
AcRTDxfName
1000
SCALE
1000
AcRTDxfName
1000
SCALE
1000
AcRTDxfName
1000
SCALE
1000
AcRTDxfName
1000
SCALE
1000
AcRTDxfName
1000
SCALE
1000
AcRTDxfName
1000
SCALE
1000
AcRTDxfName
1000
SCALE
1000
AcRTDxfName
1000
SCALE
1000
AcRTDxfName
1000
SCALE
1000
AcRTDxfName
1000
SCALE
1000
AcRTDxfName
1000
SCALE
1000
AcRTDxfName
1000
SCALE
1000
AcRTDxfName
1000
SCALE
1000
AcRTDxfName
1000
SCALE
1000
AcRTDxfName
1000
SCALE
1000
AcRTDxfName
1000
SCALE
1000
AcRTDxfName
1000
SCALE
1000
AcRTDxfName
1000
SCALE
1000
AcRTDxfName
1000
SCALE
1000
AcRTDxfName
1000
SCALE
1000
AcRTDxfName
1000
SCALE
1000
AcRTDxfName
1000
SCALE
1000
AcRTDxfName
1000
SCALE
1000
AcRTDxfName
1000
SCALE
1000
AcRTDxfName
1000
SCALE
1000
AcRTDxfName
1000
SCALE
1000
AcRTDxfName
1000
SCALE
1000
AcRTDxfName
1000
SCALE
1000
AcRTDxfName
1000
SCALE
1000
AcRTDxfName
1000
SCALE
1000
AcRTDxfName
1000
SCALE
1000
AcRTDxfName
1000
SCALE
1000
AcRTDxfName
1000
SCALE
1000
AcRTDxfName
1000
SCALE
1000
AcRTDxfName
1000
SCALE
  0
SCALE
  5
18BB
102
{ACAD_REACTORS
330
18A0
102
}
330
18A0
100
AcDbScale
 70
     0
300
1/2" = 1'-0"
140
0.5
141
12.0
290
     0
1001
ACAD
1000
AcRTDxfName
1000
SCALE
1000
AcRTDxfName
1000
SCALE
1000
AcRTDxfName
1000
SCALE
1000
AcRTDxfName
1000
SCALE
1000
AcRTDxfName
1000
SCALE
1000
AcRTDxfName
1000
SCALE
1000
AcRTDxfName
1000
SCALE
1000
AcRTDxfName
1000
SCALE
1000
AcRTDxfName
1000
SCALE
1000
AcRTDxfName
1000
SCALE
1000
AcRTDxfName
1000
SCALE
1000
AcRTDxfName
1000
SCALE
1000
AcRTDxfName
1000
SCALE
1000
AcRTDxfName
1000
SCALE
1000
AcRTDxfName
1000
SCALE
1000
AcRTDxfName
1000
SCALE
1000
AcRTDxfName
1000
SCALE
1000
AcRTDxfName
1000
SCALE
1000
AcRTDxfName
1000
SCALE
1000
AcRTDxfName
1000
SCALE
1000
AcRTDxfName
1000
SCALE
1000
AcRTDxfName
1000
SCALE
1000
AcRTDxfName
1000
SCALE
1000
AcRTDxfName
1000
SCALE
1000
AcRTDxfName
1000
SCALE
1000
AcRTDxfName
1000
SCALE
1000
AcRTDxfName
1000
SCALE
1000
AcRTDxfName
1000
SCALE
1000
AcRTDxfName
1000
SCALE
1000
AcRTDxfName
1000
SCALE
1000
AcRTDxfName
1000
SCALE
1000
AcRTDxfName
1000
SCALE
1000
AcRTDxfName
1000
SCALE
1000
AcRTDxfName
1000
SCALE
1000
AcRTDxfName
1000
SCALE
1000
AcRTDxfName
1000
SCALE
1000
AcRTDxfName
1000
SCALE
1000
AcRTDxfName
1000
SCALE
1000
AcRTDxfName
1000
SCALE
1000
AcRTDxfName
1000
SCALE
1000
AcRTDxfName
1000
SCALE
1000
AcRTDxfName
1000
SCALE
1000
AcRTDxfName
1000
SCALE
1000
AcRTDxfName
1000
SCALE
1000
AcRTDxfName
1000
SCALE
1000
AcRTDxfName
1000
SCALE
1000
AcRTDxfName
1000
SCALE
1000
AcRTDxfName
1000
SCALE
1000
AcRTDxfName
1000
SCALE
1000
AcRTDxfName
1000
SCALE
1000
AcRTDxfName
1000
SCALE
1000
AcRTDxfName
1000
SCALE
1000
AcRTDxfName
1000
SCALE
1000
AcRTDxfName
1000
SCALE
1000
AcRTDxfName
1000
SCALE
1000
AcRTDxfName
1000
SCALE
1000
AcRTDxfName
1000
SCALE
1000
AcRTDxfName
1000
SCALE
1000
AcRTDxfName
1000
SCALE
1000
AcRTDxfName
1000
SCALE
1000
AcRTDxfName
1000
SCALE
1000
AcRTDxfName
1000
SCALE
1000
AcRTDxfName
1000
SCALE
1000
AcRTDxfName
1000
SCALE
1000
AcRTDxfName
1000
SCALE
1000
AcRTDxfName
1000
SCALE
1000
AcRTDxfName
1000
SCALE
1000
AcRTDxfName
1000
SCALE
1000
AcRTDxfName
1000
SCALE
1000
AcRTDxfName
1000
SCALE
1000
AcRTDxfName
1000
SCALE
1000
AcRTDxfName
1000
SCALE
1000
AcRTDxfName
1000
SCALE
1000
AcRTDxfName
1000
SCALE
1000
AcRTDxfName
1000
SCALE
1000
AcRTDxfName
1000
SCALE
1000
AcRTDxfName
1000
SCALE
1000
AcRTDxfName
1000
SCALE
1000
AcRTDxfName
1000
SCALE
1000
AcRTDxfName
1000
SCALE
1000
AcRTDxfName
1000
SCALE
1000
AcRTDxfName
1000
SCALE
1000
AcRTDxfName
1000
SCALE
1000
AcRTDxfName
1000
SCALE
1000
AcRTDxfName
1000
SCALE
1000
AcRTDxfName
1000
SCALE
1000
AcRTDxfName
1000
SCALE
1000
AcRTDxfName
1000
SCALE
1000
AcRTDxfName
1000
SCALE
1000
AcRTDxfName
1000
SCALE
1000
AcRTDxfName
1000
SCALE
1000
AcRTDxfName
1000
SCALE
1000
AcRTDxfName
1000
SCALE
1000
AcRTDxfName
1000
SCALE
1000
AcRTDxfName
1000
SCALE
1000
AcRTDxfName
1000
SCALE
1000
AcRTDxfName
1000
SCALE
1000
AcRTDxfName
1000
SCALE
1000
AcRTDxfName
1000
SCALE
1000
AcRTDxfName
1000
SCALE
1000
AcRTDxfName
1000
SCALE
1000
AcRTDxfName
1000
SCALE
1000
AcRTDxfName
1000
SCALE
1000
AcRTDxfName
1000
SCALE
1000
AcRTDxfName
1000
SCALE
1000
AcRTDxfName
1000
SCALE
1000
AcRTDxfName
1000
SCALE
1000
AcRTDxfName
1000
SCALE
1000
AcRTDxfName
1000
SCALE
1000
AcRTDxfName
1000
SCALE
1000
AcRTDxfName
1000
SCALE
1000
AcRTDxfName
1000
SCALE
1000
AcRTDxfName
1000
SCALE
1000
AcRTDxfName
1000
SCALE
1000
AcRTDxfName
1000
SCALE
1000
AcRTDxfName
1000
SCALE
1000
AcRTDxfName
1000
SCALE
1000
AcRTDxfName
1000
SCALE
1000
AcRTDxfName
1000
SCALE
1000
AcRTDxfName
1000
SCALE
1000
AcRTDxfName
1000
SCALE
1000
AcRTDxfName
1000
SCALE
1000
AcRTDxfName
1000
SCALE
1000
AcRTDxfName
1000
SCALE
1000
AcRTDxfName
1000
SCALE
1000
AcRTDxfName
1000
SCALE
1000
AcRTDxfName
1000
SCALE
1000
AcRTDxfName
1000
SCALE
1000
AcRTDxfName
1000
SCALE
1000
AcRTDxfName
1000
SCALE
1000
AcRTDxfName
1000
SCALE
1000
AcRTDxfName
1000
SCALE
1000
AcRTDxfName
1000
SCALE
1000
AcRTDxfName
1000
SCALE
1000
AcRTDxfName
1000
SCALE
1000
AcRTDxfName
1000
SCALE
1000
AcRTDxfName
1000
SCALE
1000
AcRTDxfName
1000
SCALE
1000
AcRTDxfName
1000
SCALE
1000
AcRTDxfName
1000
SCALE
1000
AcRTDxfName
1000
SCALE
1000
AcRTDxfName
1000
SCALE
1000
AcRTDxfName
1000
SCALE
1000
AcRTDxfName
1000
SCALE
1000
AcRTDxfName
1000
SCALE
1000
AcRTDxfName
1000
SCALE
1000
AcRTDxfName
1000
SCALE
1000
AcRTDxfName
1000
SCALE
1000
AcRTDxfName
1000
SCALE
1000
AcRTDxfName
1000
SCALE
1000
AcRTDxfName
1000
SCALE
1000
AcRTDxfName
1000
SCALE
1000
AcRTDxfName
1000
SCALE
1000
AcRTDxfName
1000
SCALE
1000
AcRTDxfName
1000
SCALE
1000
AcRTDxfName
1000
SCALE
  0
SCALE
  5
18BC
102
{ACAD_REACTORS
330
18A0
102
}
330
18A0
100
AcDbScale
 70
     0
300
3/4" = 1'-0"
140
0.75
141
12.0
290
     0
1001
ACAD
1000
AcRTDxfName
1000
SCALE
1000
AcRTDxfName
1000
SCALE
1000
AcRTDxfName
1000
SCALE
1000
AcRTDxfName
1000
SCALE
1000
AcRTDxfName
1000
SCALE
1000
AcRTDxfName
1000
SCALE
1000
AcRTDxfName
1000
SCALE
1000
AcRTDxfName
1000
SCALE
1000
AcRTDxfName
1000
SCALE
1000
AcRTDxfName
1000
SCALE
1000
AcRTDxfName
1000
SCALE
1000
AcRTDxfName
1000
SCALE
1000
AcRTDxfName
1000
SCALE
1000
AcRTDxfName
1000
SCALE
1000
AcRTDxfName
1000
SCALE
1000
AcRTDxfName
1000
SCALE
1000
AcRTDxfName
1000
SCALE
1000
AcRTDxfName
1000
SCALE
1000
AcRTDxfName
1000
SCALE
1000
AcRTDxfName
1000
SCALE
1000
AcRTDxfName
1000
SCALE
1000
AcRTDxfName
1000
SCALE
1000
AcRTDxfName
1000
SCALE
1000
AcRTDxfName
1000
SCALE
1000
AcRTDxfName
1000
SCALE
1000
AcRTDxfName
1000
SCALE
1000
AcRTDxfName
1000
SCALE
1000
AcRTDxfName
1000
SCALE
1000
AcRTDxfName
1000
SCALE
1000
AcRTDxfName
1000
SCALE
1000
AcRTDxfName
1000
SCALE
1000
AcRTDxfName
1000
SCALE
1000
AcRTDxfName
1000
SCALE
1000
AcRTDxfName
1000
SCALE
1000
AcRTDxfName
1000
SCALE
1000
AcRTDxfName
1000
SCALE
1000
AcRTDxfName
1000
SCALE
1000
AcRTDxfName
1000
SCALE
1000
AcRTDxfName
1000
SCALE
1000
AcRTDxfName
1000
SCALE
1000
AcRTDxfName
1000
SCALE
1000
AcRTDxfName
1000
SCALE
1000
AcRTDxfName
1000
SCALE
1000
AcRTDxfName
1000
SCALE
1000
AcRTDxfName
1000
SCALE
1000
AcRTDxfName
1000
SCALE
1000
AcRTDxfName
1000
SCALE
1000
AcRTDxfName
1000
SCALE
1000
AcRTDxfName
1000
SCALE
1000
AcRTDxfName
1000
SCALE
1000
AcRTDxfName
1000
SCALE
1000
AcRTDxfName
1000
SCALE
1000
AcRTDxfName
1000
SCALE
1000
AcRTDxfName
1000
SCALE
1000
AcRTDxfName
1000
SCALE
1000
AcRTDxfName
1000
SCALE
1000
AcRTDxfName
1000
SCALE
1000
AcRTDxfName
1000
SCALE
1000
AcRTDxfName
1000
SCALE
1000
AcRTDxfName
1000
SCALE
1000
AcRTDxfName
1000
SCALE
1000
AcRTDxfName
1000
SCALE
1000
AcRTDxfName
1000
SCALE
1000
AcRTDxfName
1000
SCALE
1000
AcRTDxfName
1000
SCALE
1000
AcRTDxfName
1000
SCALE
1000
AcRTDxfName
1000
SCALE
1000
AcRTDxfName
1000
SCALE
1000
AcRTDxfName
1000
SCALE
1000
AcRTDxfName
1000
SCALE
1000
AcRTDxfName
1000
SCALE
1000
AcRTDxfName
1000
SCALE
1000
AcRTDxfName
1000
SCALE
1000
AcRTDxfName
1000
SCALE
1000
AcRTDxfName
1000
SCALE
1000
AcRTDxfName
1000
SCALE
1000
AcRTDxfName
1000
SCALE
1000
AcRTDxfName
1000
SCALE
1000
AcRTDxfName
1000
SCALE
1000
AcRTDxfName
1000
SCALE
1000
AcRTDxfName
1000
SCALE
1000
AcRTDxfName
1000
SCALE
1000
AcRTDxfName
1000
SCALE
1000
AcRTDxfName
1000
SCALE
1000
AcRTDxfName
1000
SCALE
1000
AcRTDxfName
1000
SCALE
1000
AcRTDxfName
1000
SCALE
1000
AcRTDxfName
1000
SCALE
1000
AcRTDxfName
1000
SCALE
1000
AcRTDxfName
1000
SCALE
1000
AcRTDxfName
1000
SCALE
1000
AcRTDxfName
1000
SCALE
1000
AcRTDxfName
1000
SCALE
1000
AcRTDxfName
1000
SCALE
1000
AcRTDxfName
1000
SCALE
1000
AcRTDxfName
1000
SCALE
1000
AcRTDxfName
1000
SCALE
1000
AcRTDxfName
1000
SCALE
1000
AcRTDxfName
1000
SCALE
1000
AcRTDxfName
1000
SCALE
1000
AcRTDxfName
1000
SCALE
1000
AcRTDxfName
1000
SCALE
1000
AcRTDxfName
1000
SCALE
1000
AcRTDxfName
1000
SCALE
1000
AcRTDxfName
1000
SCALE
1000
AcRTDxfName
1000
SCALE
1000
AcRTDxfName
1000
SCALE
1000
AcRTDxfName
1000
SCALE
1000
AcRTDxfName
1000
SCALE
1000
AcRTDxfName
1000
SCALE
1000
AcRTDxfName
1000
SCALE
1000
AcRTDxfName
1000
SCALE
1000
AcRTDxfName
1000
SCALE
1000
AcRTDxfName
1000
SCALE
1000
AcRTDxfName
1000
SCALE
1000
AcRTDxfName
1000
SCALE
1000
AcRTDxfName
1000
SCALE
1000
AcRTDxfName
1000
SCALE
1000
AcRTDxfName
1000
SCALE
1000
AcRTDxfName
1000
SCALE
1000
AcRTDxfName
1000
SCALE
1000
AcRTDxfName
1000
SCALE
1000
AcRTDxfName
1000
SCALE
1000
AcRTDxfName
1000
SCALE
1000
AcRTDxfName
1000
SCALE
1000
AcRTDxfName
1000
SCALE
1000
AcRTDxfName
1000
SCALE
1000
AcRTDxfName
1000
SCALE
1000
AcRTDxfName
1000
SCALE
1000
AcRTDxfName
1000
SCALE
1000
AcRTDxfName
1000
SCALE
1000
AcRTDxfName
1000
SCALE
1000
AcRTDxfName
1000
SCALE
1000
AcRTDxfName
1000
SCALE
1000
AcRTDxfName
1000
SCALE
1000
AcRTDxfName
1000
SCALE
1000
AcRTDxfName
1000
SCALE
1000
AcRTDxfName
1000
SCALE
1000
AcRTDxfName
1000
SCALE
1000
AcRTDxfName
1000
SCALE
1000
AcRTDxfName
1000
SCALE
1000
AcRTDxfName
1000
SCALE
1000
AcRTDxfName
1000
SCALE
1000
AcRTDxfName
1000
SCALE
1000
AcRTDxfName
1000
SCALE
1000
AcRTDxfName
1000
SCALE
1000
AcRTDxfName
1000
SCALE
1000
AcRTDxfName
1000
SCALE
1000
AcRTDxfName
1000
SCALE
1000
AcRTDxfName
1000
SCALE
1000
AcRTDxfName
1000
SCALE
1000
AcRTDxfName
1000
SCALE
1000
AcRTDxfName
1000
SCALE
1000
AcRTDxfName
1000
SCALE
1000
AcRTDxfName
1000
SCALE
1000
AcRTDxfName
1000
SCALE
  0
SCALE
  5
18BD
102
{ACAD_REACTORS
330
18A0
102
}
330
18A0
100
AcDbScale
 70
     0
300
1" = 1'-0"
140
1.0
141
12.0
290
     0
1001
ACAD
1000
AcRTDxfName
1000
SCALE
1000
AcRTDxfName
1000
SCALE
1000
AcRTDxfName
1000
SCALE
1000
AcRTDxfName
1000
SCALE
1000
AcRTDxfName
1000
SCALE
1000
AcRTDxfName
1000
SCALE
1000
AcRTDxfName
1000
SCALE
1000
AcRTDxfName
1000
SCALE
1000
AcRTDxfName
1000
SCALE
1000
AcRTDxfName
1000
SCALE
1000
AcRTDxfName
1000
SCALE
1000
AcRTDxfName
1000
SCALE
1000
AcRTDxfName
1000
SCALE
1000
AcRTDxfName
1000
SCALE
1000
AcRTDxfName
1000
SCALE
1000
AcRTDxfName
1000
SCALE
1000
AcRTDxfName
1000
SCALE
1000
AcRTDxfName
1000
SCALE
1000
AcRTDxfName
1000
SCALE
1000
AcRTDxfName
1000
SCALE
1000
AcRTDxfName
1000
SCALE
1000
AcRTDxfName
1000
SCALE
1000
AcRTDxfName
1000
SCALE
1000
AcRTDxfName
1000
SCALE
1000
AcRTDxfName
1000
SCALE
1000
AcRTDxfName
1000
SCALE
1000
AcRTDxfName
1000
SCALE
1000
AcRTDxfName
1000
SCALE
1000
AcRTDxfName
1000
SCALE
1000
AcRTDxfName
1000
SCALE
1000
AcRTDxfName
1000
SCALE
1000
AcRTDxfName
1000
SCALE
1000
AcRTDxfName
1000
SCALE
1000
AcRTDxfName
1000
SCALE
1000
AcRTDxfName
1000
SCALE
1000
AcRTDxfName
1000
SCALE
1000
AcRTDxfName
1000
SCALE
1000
AcRTDxfName
1000
SCALE
1000
AcRTDxfName
1000
SCALE
1000
AcRTDxfName
1000
SCALE
1000
AcRTDxfName
1000
SCALE
1000
AcRTDxfName
1000
SCALE
1000
AcRTDxfName
1000
SCALE
1000
AcRTDxfName
1000
SCALE
1000
AcRTDxfName
1000
SCALE
1000
AcRTDxfName
1000
SCALE
1000
AcRTDxfName
1000
SCALE
1000
AcRTDxfName
1000
SCALE
1000
AcRTDxfName
1000
SCALE
1000
AcRTDxfName
1000
SCALE
1000
AcRTDxfName
1000
SCALE
1000
AcRTDxfName
1000
SCALE
1000
AcRTDxfName
1000
SCALE
1000
AcRTDxfName
1000
SCALE
1000
AcRTDxfName
1000
SCALE
1000
AcRTDxfName
1000
SCALE
1000
AcRTDxfName
1000
SCALE
1000
AcRTDxfName
1000
SCALE
1000
AcRTDxfName
1000
SCALE
1000
AcRTDxfName
1000
SCALE
1000
AcRTDxfName
1000
SCALE
1000
AcRTDxfName
1000
SCALE
1000
AcRTDxfName
1000
SCALE
1000
AcRTDxfName
1000
SCALE
1000
AcRTDxfName
1000
SCALE
1000
AcRTDxfName
1000
SCALE
1000
AcRTDxfName
1000
SCALE
1000
AcRTDxfName
1000
SCALE
1000
AcRTDxfName
1000
SCALE
1000
AcRTDxfName
1000
SCALE
1000
AcRTDxfName
1000
SCALE
1000
AcRTDxfName
1000
SCALE
1000
AcRTDxfName
1000
SCALE
1000
AcRTDxfName
1000
SCALE
1000
AcRTDxfName
1000
SCALE
1000
AcRTDxfName
1000
SCALE
1000
AcRTDxfName
1000
SCALE
1000
AcRTDxfName
1000
SCALE
1000
AcRTDxfName
1000
SCALE
1000
AcRTDxfName
1000
SCALE
1000
AcRTDxfName
1000
SCALE
1000
AcRTDxfName
1000
SCALE
1000
AcRTDxfName
1000
SCALE
1000
AcRTDxfName
1000
SCALE
1000
AcRTDxfName
1000
SCALE
1000
AcRTDxfName
1000
SCALE
1000
AcRTDxfName
1000
SCALE
1000
AcRTDxfName
1000
SCALE
1000
AcRTDxfName
1000
SCALE
1000
AcRTDxfName
1000
SCALE
1000
AcRTDxfName
1000
SCALE
1000
AcRTDxfName
1000
SCALE
1000
AcRTDxfName
1000
SCALE
1000
AcRTDxfName
1000
SCALE
1000
AcRTDxfName
1000
SCALE
1000
AcRTDxfName
1000
SCALE
1000
AcRTDxfName
1000
SCALE
1000
AcRTDxfName
1000
SCALE
1000
AcRTDxfName
1000
SCALE
1000
AcRTDxfName
1000
SCALE
1000
AcRTDxfName
1000
SCALE
1000
AcRTDxfName
1000
SCALE
1000
AcRTDxfName
1000
SCALE
1000
AcRTDxfName
1000
SCALE
1000
AcRTDxfName
1000
SCALE
1000
AcRTDxfName
1000
SCALE
1000
AcRTDxfName
1000
SCALE
1000
AcRTDxfName
1000
SCALE
1000
AcRTDxfName
1000
SCALE
1000
AcRTDxfName
1000
SCALE
1000
AcRTDxfName
1000
SCALE
1000
AcRTDxfName
1000
SCALE
1000
AcRTDxfName
1000
SCALE
1000
AcRTDxfName
1000
SCALE
1000
AcRTDxfName
1000
SCALE
1000
AcRTDxfName
1000
SCALE
1000
AcRTDxfName
1000
SCALE
1000
AcRTDxfName
1000
SCALE
1000
AcRTDxfName
1000
SCALE
1000
AcRTDxfName
1000
SCALE
1000
AcRTDxfName
1000
SCALE
1000
AcRTDxfName
1000
SCALE
1000
AcRTDxfName
1000
SCALE
1000
AcRTDxfName
1000
SCALE
1000
AcRTDxfName
1000
SCALE
1000
AcRTDxfName
1000
SCALE
1000
AcRTDxfName
1000
SCALE
1000
AcRTDxfName
1000
SCALE
1000
AcRTDxfName
1000
SCALE
1000
AcRTDxfName
1000
SCALE
1000
AcRTDxfName
1000
SCALE
1000
AcRTDxfName
1000
SCALE
1000
AcRTDxfName
1000
SCALE
1000
AcRTDxfName
1000
SCALE
1000
AcRTDxfName
1000
SCALE
1000
AcRTDxfName
1000
SCALE
1000
AcRTDxfName
1000
SCALE
1000
AcRTDxfName
1000
SCALE
1000
AcRTDxfName
1000
SCALE
1000
AcRTDxfName
1000
SCALE
1000
AcRTDxfName
1000
SCALE
1000
AcRTDxfName
1000
SCALE
1000
AcRTDxfName
1000
SCALE
1000
AcRTDxfName
1000
SCALE
1000
AcRTDxfName
1000
SCALE
1000
AcRTDxfName
1000
SCALE
1000
AcRTDxfName
1000
SCALE
1000
AcRTDxfName
1000
SCALE
1000
AcRTDxfName
1000
SCALE
1000
AcRTDxfName
1000
SCALE
1000
AcRTDxfName
1000
SCALE
1000
AcRTDxfName
1000
SCALE
1000
AcRTDxfName
1000
SCALE
1000
AcRTDxfName
1000
SCALE
1000
AcRTDxfName
1000
SCALE
1000
AcRTDxfName
1000
SCALE
  0
SCALE
  5
18BE
102
{ACAD_REACTORS
330
18A0
102
}
330
18A0
100
AcDbScale
 70
     0
300
1-1/2" = 1'-0"
140
1.5
141
12.0
290
     0
1001
ACAD
1000
AcRTDxfName
1000
SCALE
1000
AcRTDxfName
1000
SCALE
1000
AcRTDxfName
1000
SCALE
1000
AcRTDxfName
1000
SCALE
1000
AcRTDxfName
1000
SCALE
1000
AcRTDxfName
1000
SCALE
1000
AcRTDxfName
1000
SCALE
1000
AcRTDxfName
1000
SCALE
1000
AcRTDxfName
1000
SCALE
1000
AcRTDxfName
1000
SCALE
1000
AcRTDxfName
1000
SCALE
1000
AcRTDxfName
1000
SCALE
1000
AcRTDxfName
1000
SCALE
1000
AcRTDxfName
1000
SCALE
1000
AcRTDxfName
1000
SCALE
1000
AcRTDxfName
1000
SCALE
1000
AcRTDxfName
1000
SCALE
1000
AcRTDxfName
1000
SCALE
1000
AcRTDxfName
1000
SCALE
1000
AcRTDxfName
1000
SCALE
1000
AcRTDxfName
1000
SCALE
1000
AcRTDxfName
1000
SCALE
1000
AcRTDxfName
1000
SCALE
1000
AcRTDxfName
1000
SCALE
1000
AcRTDxfName
1000
SCALE
1000
AcRTDxfName
1000
SCALE
1000
AcRTDxfName
1000
SCALE
1000
AcRTDxfName
1000
SCALE
1000
AcRTDxfName
1000
SCALE
1000
AcRTDxfName
1000
SCALE
1000
AcRTDxfName
1000
SCALE
1000
AcRTDxfName
1000
SCALE
1000
AcRTDxfName
1000
SCALE
1000
AcRTDxfName
1000
SCALE
1000
AcRTDxfName
1000
SCALE
1000
AcRTDxfName
1000
SCALE
1000
AcRTDxfName
1000
SCALE
1000
AcRTDxfName
1000
SCALE
1000
AcRTDxfName
1000
SCALE
1000
AcRTDxfName
1000
SCALE
1000
AcRTDxfName
1000
SCALE
1000
AcRTDxfName
1000
SCALE
1000
AcRTDxfName
1000
SCALE
1000
AcRTDxfName
1000
SCALE
1000
AcRTDxfName
1000
SCALE
1000
AcRTDxfName
1000
SCALE
1000
AcRTDxfName
1000
SCALE
1000
AcRTDxfName
1000
SCALE
1000
AcRTDxfName
1000
SCALE
1000
AcRTDxfName
1000
SCALE
1000
AcRTDxfName
1000
SCALE
1000
AcRTDxfName
1000
SCALE
1000
AcRTDxfName
1000
SCALE
1000
AcRTDxfName
1000
SCALE
1000
AcRTDxfName
1000
SCALE
1000
AcRTDxfName
1000
SCALE
1000
AcRTDxfName
1000
SCALE
1000
AcRTDxfName
1000
SCALE
1000
AcRTDxfName
1000
SCALE
1000
AcRTDxfName
1000
SCALE
1000
AcRTDxfName
1000
SCALE
1000
AcRTDxfName
1000
SCALE
1000
AcRTDxfName
1000
SCALE
1000
AcRTDxfName
1000
SCALE
1000
AcRTDxfName
1000
SCALE
1000
AcRTDxfName
1000
SCALE
1000
AcRTDxfName
1000
SCALE
1000
AcRTDxfName
1000
SCALE
1000
AcRTDxfName
1000
SCALE
1000
AcRTDxfName
1000
SCALE
1000
AcRTDxfName
1000
SCALE
1000
AcRTDxfName
1000
SCALE
1000
AcRTDxfName
1000
SCALE
1000
AcRTDxfName
1000
SCALE
1000
AcRTDxfName
1000
SCALE
1000
AcRTDxfName
1000
SCALE
1000
AcRTDxfName
1000
SCALE
1000
AcRTDxfName
1000
SCALE
1000
AcRTDxfName
1000
SCALE
1000
AcRTDxfName
1000
SCALE
1000
AcRTDxfName
1000
SCALE
1000
AcRTDxfName
1000
SCALE
1000
AcRTDxfName
1000
SCALE
1000
AcRTDxfName
1000
SCALE
1000
AcRTDxfName
1000
SCALE
1000
AcRTDxfName
1000
SCALE
1000
AcRTDxfName
1000
SCALE
1000
AcRTDxfName
1000
SCALE
1000
AcRTDxfName
1000
SCALE
1000
AcRTDxfName
1000
SCALE
1000
AcRTDxfName
1000
SCALE
1000
AcRTDxfName
1000
SCALE
1000
AcRTDxfName
1000
SCALE
1000
AcRTDxfName
1000
SCALE
1000
AcRTDxfName
1000
SCALE
1000
AcRTDxfName
1000
SCALE
1000
AcRTDxfName
1000
SCALE
1000
AcRTDxfName
1000
SCALE
1000
AcRTDxfName
1000
SCALE
1000
AcRTDxfName
1000
SCALE
1000
AcRTDxfName
1000
SCALE
1000
AcRTDxfName
1000
SCALE
1000
AcRTDxfName
1000
SCALE
1000
AcRTDxfName
1000
SCALE
1000
AcRTDxfName
1000
SCALE
1000
AcRTDxfName
1000
SCALE
1000
AcRTDxfName
1000
SCALE
1000
AcRTDxfName
1000
SCALE
1000
AcRTDxfName
1000
SCALE
1000
AcRTDxfName
1000
SCALE
1000
AcRTDxfName
1000
SCALE
1000
AcRTDxfName
1000
SCALE
1000
AcRTDxfName
1000
SCALE
1000
AcRTDxfName
1000
SCALE
1000
AcRTDxfName
1000
SCALE
1000
AcRTDxfName
1000
SCALE
1000
AcRTDxfName
1000
SCALE
1000
AcRTDxfName
1000
SCALE
1000
AcRTDxfName
1000
SCALE
1000
AcRTDxfName
1000
SCALE
1000
AcRTDxfName
1000
SCALE
1000
AcRTDxfName
1000
SCALE
1000
AcRTDxfName
1000
SCALE
1000
AcRTDxfName
1000
SCALE
1000
AcRTDxfName
1000
SCALE
1000
AcRTDxfName
1000
SCALE
1000
AcRTDxfName
1000
SCALE
1000
AcRTDxfName
1000
SCALE
1000
AcRTDxfName
1000
SCALE
1000
AcRTDxfName
1000
SCALE
1000
AcRTDxfName
1000
SCALE
1000
AcRTDxfName
1000
SCALE
1000
AcRTDxfName
1000
SCALE
1000
AcRTDxfName
1000
SCALE
1000
AcRTDxfName
1000
SCALE
1000
AcRTDxfName
1000
SCALE
1000
AcRTDxfName
1000
SCALE
1000
AcRTDxfName
1000
SCALE
1000
AcRTDxfName
1000
SCALE
1000
AcRTDxfName
1000
SCALE
1000
AcRTDxfName
1000
SCALE
1000
AcRTDxfName
1000
SCALE
1000
AcRTDxfName
1000
SCALE
1000
AcRTDxfName
1000
SCALE
1000
AcRTDxfName
1000
SCALE
1000
AcRTDxfName
1000
SCALE
1000
AcRTDxfName
1000
SCALE
1000
AcRTDxfName
1000
SCALE
1000
AcRTDxfName
1000
SCALE
1000
AcRTDxfName
1000
SCALE
1000
AcRTDxfName
1000
SCALE
1000
AcRTDxfName
1000
SCALE
1000
AcRTDxfName
1000
SCALE
1000
AcRTDxfName
1000
SCALE
1000
AcRTDxfName
1000
SCALE
1000
AcRTDxfName
1000
SCALE
  0
SCALE
  5
18BF
102
{ACAD_REACTORS
330
18A0
102
}
330
18A0
100
AcDbScale
 70
     0
300
3" = 1'-0"
140
3.0
141
12.0
290
     0
1001
ACAD
1000
AcRTDxfName
1000
SCALE
1000
AcRTDxfName
1000
SCALE
1000
AcRTDxfName
1000
SCALE
1000
AcRTDxfName
1000
SCALE
1000
AcRTDxfName
1000
SCALE
1000
AcRTDxfName
1000
SCALE
1000
AcRTDxfName
1000
SCALE
1000
AcRTDxfName
1000
SCALE
1000
AcRTDxfName
1000
SCALE
1000
AcRTDxfName
1000
SCALE
1000
AcRTDxfName
1000
SCALE
1000
AcRTDxfName
1000
SCALE
1000
AcRTDxfName
1000
SCALE
1000
AcRTDxfName
1000
SCALE
1000
AcRTDxfName
1000
SCALE
1000
AcRTDxfName
1000
SCALE
1000
AcRTDxfName
1000
SCALE
1000
AcRTDxfName
1000
SCALE
1000
AcRTDxfName
1000
SCALE
1000
AcRTDxfName
1000
SCALE
1000
AcRTDxfName
1000
SCALE
1000
AcRTDxfName
1000
SCALE
1000
AcRTDxfName
1000
SCALE
1000
AcRTDxfName
1000
SCALE
1000
AcRTDxfName
1000
SCALE
1000
AcRTDxfName
1000
SCALE
1000
AcRTDxfName
1000
SCALE
1000
AcRTDxfName
1000
SCALE
1000
AcRTDxfName
1000
SCALE
1000
AcRTDxfName
1000
SCALE
1000
AcRTDxfName
1000
SCALE
1000
AcRTDxfName
1000
SCALE
1000
AcRTDxfName
1000
SCALE
1000
AcRTDxfName
1000
SCALE
1000
AcRTDxfName
1000
SCALE
1000
AcRTDxfName
1000
SCALE
1000
AcRTDxfName
1000
SCALE
1000
AcRTDxfName
1000
SCALE
1000
AcRTDxfName
1000
SCALE
1000
AcRTDxfName
1000
SCALE
1000
AcRTDxfName
1000
SCALE
1000
AcRTDxfName
1000
SCALE
1000
AcRTDxfName
1000
SCALE
1000
AcRTDxfName
1000
SCALE
1000
AcRTDxfName
1000
SCALE
1000
AcRTDxfName
1000
SCALE
1000
AcRTDxfName
1000
SCALE
1000
AcRTDxfName
1000
SCALE
1000
AcRTDxfName
1000
SCALE
1000
AcRTDxfName
1000
SCALE
1000
AcRTDxfName
1000
SCALE
1000
AcRTDxfName
1000
SCALE
1000
AcRTDxfName
1000
SCALE
1000
AcRTDxfName
1000
SCALE
1000
AcRTDxfName
1000
SCALE
1000
AcRTDxfName
1000
SCALE
1000
AcRTDxfName
1000
SCALE
1000
AcRTDxfName
1000
SCALE
1000
AcRTDxfName
1000
SCALE
1000
AcRTDxfName
1000
SCALE
1000
AcRTDxfName
1000
SCALE
1000
AcRTDxfName
1000
SCALE
1000
AcRTDxfName
1000
SCALE
1000
AcRTDxfName
1000
SCALE
1000
AcRTDxfName
1000
SCALE
1000
AcRTDxfName
1000
SCALE
1000
AcRTDxfName
1000
SCALE
1000
AcRTDxfName
1000
SCALE
1000
AcRTDxfName
1000
SCALE
1000
AcRTDxfName
1000
SCALE
1000
AcRTDxfName
1000
SCALE
1000
AcRTDxfName
1000
SCALE
1000
AcRTDxfName
1000
SCALE
1000
AcRTDxfName
1000
SCALE
1000
AcRTDxfName
1000
SCALE
1000
AcRTDxfName
1000
SCALE
1000
AcRTDxfName
1000
SCALE
1000
AcRTDxfName
1000
SCALE
1000
AcRTDxfName
1000
SCALE
1000
AcRTDxfName
1000
SCALE
1000
AcRTDxfName
1000
SCALE
1000
AcRTDxfName
1000
SCALE
1000
AcRTDxfName
1000
SCALE
1000
AcRTDxfName
1000
SCALE
1000
AcRTDxfName
1000
SCALE
1000
AcRTDxfName
1000
SCALE
1000
AcRTDxfName
1000
SCALE
1000
AcRTDxfName
1000
SCALE
1000
AcRTDxfName
1000
SCALE
1000
AcRTDxfName
1000
SCALE
1000
AcRTDxfName
1000
SCALE
1000
AcRTDxfName
1000
SCALE
1000
AcRTDxfName
1000
SCALE
1000
AcRTDxfName
1000
SCALE
1000
AcRTDxfName
1000
SCALE
1000
AcRTDxfName
1000
SCALE
1000
AcRTDxfName
1000
SCALE
1000
AcRTDxfName
1000
SCALE
1000
AcRTDxfName
1000
SCALE
1000
AcRTDxfName
1000
SCALE
1000
AcRTDxfName
1000
SCALE
1000
AcRTDxfName
1000
SCALE
1000
AcRTDxfName
1000
SCALE
1000
AcRTDxfName
1000
SCALE
1000
AcRTDxfName
1000
SCALE
1000
AcRTDxfName
1000
SCALE
1000
AcRTDxfName
1000
SCALE
1000
AcRTDxfName
1000
SCALE
1000
AcRTDxfName
1000
SCALE
1000
AcRTDxfName
1000
SCALE
1000
AcRTDxfName
1000
SCALE
1000
AcRTDxfName
1000
SCALE
1000
AcRTDxfName
1000
SCALE
1000
AcRTDxfName
1000
SCALE
1000
AcRTDxfName
1000
SCALE
1000
AcRTDxfName
1000
SCALE
1000
AcRTDxfName
1000
SCALE
1000
AcRTDxfName
1000
SCALE
1000
AcRTDxfName
1000
SCALE
1000
AcRTDxfName
1000
SCALE
1000
AcRTDxfName
1000
SCALE
1000
AcRTDxfName
1000
SCALE
1000
AcRTDxfName
1000
SCALE
1000
AcRTDxfName
1000
SCALE
1000
AcRTDxfName
1000
SCALE
1000
AcRTDxfName
1000
SCALE
1000
AcRTDxfName
1000
SCALE
1000
AcRTDxfName
1000
SCALE
1000
AcRTDxfName
1000
SCALE
1000
AcRTDxfName
1000
SCALE
1000
AcRTDxfName
1000
SCALE
1000
AcRTDxfName
1000
SCALE
1000
AcRTDxfName
1000
SCALE
1000
AcRTDxfName
1000
SCALE
1000
AcRTDxfName
1000
SCALE
1000
AcRTDxfName
1000
SCALE
1000
AcRTDxfName
1000
SCALE
1000
AcRTDxfName
1000
SCALE
1000
AcRTDxfName
1000
SCALE
1000
AcRTDxfName
1000
SCALE
1000
AcRTDxfName
1000
SCALE
1000
AcRTDxfName
1000
SCALE
1000
AcRTDxfName
1000
SCALE
1000
AcRTDxfName
1000
SCALE
1000
AcRTDxfName
1000
SCALE
1000
AcRTDxfName
1000
SCALE
1000
AcRTDxfName
1000
SCALE
1000
AcRTDxfName
1000
SCALE
1000
AcRTDxfName
1000
SCALE
1000
AcRTDxfName
1000
SCALE
1000
AcRTDxfName
1000
SCALE
1000
AcRTDxfName
1000
SCALE
1000
AcRTDxfName
1000
SCALE
1000
AcRTDxfName
1000
SCALE
1000
AcRTDxfName
1000
SCALE
1000
AcRTDxfName
1000
SCALE
  0
SCALE
  5
18C0
102
{ACAD_REACTORS
330
18A0
102
}
330
18A0
100
AcDbScale
 70
     0
300
6" = 1'-0"
140
6.0
141
12.0
290
     0
1001
ACAD
1000
AcRTDxfName
1000
SCALE
1000
AcRTDxfName
1000
SCALE
1000
AcRTDxfName
1000
SCALE
1000
AcRTDxfName
1000
SCALE
1000
AcRTDxfName
1000
SCALE
1000
AcRTDxfName
1000
SCALE
1000
AcRTDxfName
1000
SCALE
1000
AcRTDxfName
1000
SCALE
1000
AcRTDxfName
1000
SCALE
1000
AcRTDxfName
1000
SCALE
1000
AcRTDxfName
1000
SCALE
1000
AcRTDxfName
1000
SCALE
1000
AcRTDxfName
1000
SCALE
1000
AcRTDxfName
1000
SCALE
1000
AcRTDxfName
1000
SCALE
1000
AcRTDxfName
1000
SCALE
1000
AcRTDxfName
1000
SCALE
1000
AcRTDxfName
1000
SCALE
1000
AcRTDxfName
1000
SCALE
1000
AcRTDxfName
1000
SCALE
1000
AcRTDxfName
1000
SCALE
1000
AcRTDxfName
1000
SCALE
1000
AcRTDxfName
1000
SCALE
1000
AcRTDxfName
1000
SCALE
1000
AcRTDxfName
1000
SCALE
1000
AcRTDxfName
1000
SCALE
1000
AcRTDxfName
1000
SCALE
1000
AcRTDxfName
1000
SCALE
1000
AcRTDxfName
1000
SCALE
1000
AcRTDxfName
1000
SCALE
1000
AcRTDxfName
1000
SCALE
1000
AcRTDxfName
1000
SCALE
1000
AcRTDxfName
1000
SCALE
1000
AcRTDxfName
1000
SCALE
1000
AcRTDxfName
1000
SCALE
1000
AcRTDxfName
1000
SCALE
1000
AcRTDxfName
1000
SCALE
1000
AcRTDxfName
1000
SCALE
1000
AcRTDxfName
1000
SCALE
1000
AcRTDxfName
1000
SCALE
1000
AcRTDxfName
1000
SCALE
1000
AcRTDxfName
1000
SCALE
1000
AcRTDxfName
1000
SCALE
1000
AcRTDxfName
1000
SCALE
1000
AcRTDxfName
1000
SCALE
1000
AcRTDxfName
1000
SCALE
1000
AcRTDxfName
1000
SCALE
1000
AcRTDxfName
1000
SCALE
1000
AcRTDxfName
1000
SCALE
1000
AcRTDxfName
1000
SCALE
1000
AcRTDxfName
1000
SCALE
1000
AcRTDxfName
1000
SCALE
1000
AcRTDxfName
1000
SCALE
1000
AcRTDxfName
1000
SCALE
1000
AcRTDxfName
1000
SCALE
1000
AcRTDxfName
1000
SCALE
1000
AcRTDxfName
1000
SCALE
1000
AcRTDxfName
1000
SCALE
1000
AcRTDxfName
1000
SCALE
1000
AcRTDxfName
1000
SCALE
1000
AcRTDxfName
1000
SCALE
1000
AcRTDxfName
1000
SCALE
1000
AcRTDxfName
1000
SCALE
1000
AcRTDxfName
1000
SCALE
1000
AcRTDxfName
1000
SCALE
1000
AcRTDxfName
1000
SCALE
1000
AcRTDxfName
1000
SCALE
1000
AcRTDxfName
1000
SCALE
1000
AcRTDxfName
1000
SCALE
1000
AcRTDxfName
1000
SCALE
1000
AcRTDxfName
1000
SCALE
1000
AcRTDxfName
1000
SCALE
1000
AcRTDxfName
1000
SCALE
1000
AcRTDxfName
1000
SCALE
1000
AcRTDxfName
1000
SCALE
1000
AcRTDxfName
1000
SCALE
1000
AcRTDxfName
1000
SCALE
1000
AcRTDxfName
1000
SCALE
1000
AcRTDxfName
1000
SCALE
1000
AcRTDxfName
1000
SCALE
1000
AcRTDxfName
1000
SCALE
1000
AcRTDxfName
1000
SCALE
1000
AcRTDxfName
1000
SCALE
1000
AcRTDxfName
1000
SCALE
1000
AcRTDxfName
1000
SCALE
1000
AcRTDxfName
1000
SCALE
1000
AcRTDxfName
1000
SCALE
1000
AcRTDxfName
1000
SCALE
1000
AcRTDxfName
1000
SCALE
1000
AcRTDxfName
1000
SCALE
1000
AcRTDxfName
1000
SCALE
1000
AcRTDxfName
1000
SCALE
1000
AcRTDxfName
1000
SCALE
1000
AcRTDxfName
1000
SCALE
1000
AcRTDxfName
1000
SCALE
1000
AcRTDxfName
1000
SCALE
1000
AcRTDxfName
1000
SCALE
1000
AcRTDxfName
1000
SCALE
1000
AcRTDxfName
1000
SCALE
1000
AcRTDxfName
1000
SCALE
1000
AcRTDxfName
1000
SCALE
1000
AcRTDxfName
1000
SCALE
1000
AcRTDxfName
1000
SCALE
1000
AcRTDxfName
1000
SCALE
1000
AcRTDxfName
1000
SCALE
1000
AcRTDxfName
1000
SCALE
1000
AcRTDxfName
1000
SCALE
1000
AcRTDxfName
1000
SCALE
1000
AcRTDxfName
1000
SCALE
1000
AcRTDxfName
1000
SCALE
1000
AcRTDxfName
1000
SCALE
1000
AcRTDxfName
1000
SCALE
1000
AcRTDxfName
1000
SCALE
1000
AcRTDxfName
1000
SCALE
1000
AcRTDxfName
1000
SCALE
1000
AcRTDxfName
1000
SCALE
1000
AcRTDxfName
1000
SCALE
1000
AcRTDxfName
1000
SCALE
1000
AcRTDxfName
1000
SCALE
1000
AcRTDxfName
1000
SCALE
1000
AcRTDxfName
1000
SCALE
1000
AcRTDxfName
1000
SCALE
1000
AcRTDxfName
1000
SCALE
1000
AcRTDxfName
1000
SCALE
1000
AcRTDxfName
1000
SCALE
1000
AcRTDxfName
1000
SCALE
1000
AcRTDxfName
1000
SCALE
1000
AcRTDxfName
1000
SCALE
1000
AcRTDxfName
1000
SCALE
1000
AcRTDxfName
1000
SCALE
1000
AcRTDxfName
1000
SCALE
1000
AcRTDxfName
1000
SCALE
1000
AcRTDxfName
1000
SCALE
1000
AcRTDxfName
1000
SCALE
1000
AcRTDxfName
1000
SCALE
1000
AcRTDxfName
1000
SCALE
1000
AcRTDxfName
1000
SCALE
1000
AcRTDxfName
1000
SCALE
1000
AcRTDxfName
1000
SCALE
1000
AcRTDxfName
1000
SCALE
1000
AcRTDxfName
1000
SCALE
1000
AcRTDxfName
1000
SCALE
1000
AcRTDxfName
1000
SCALE
1000
AcRTDxfName
1000
SCALE
1000
AcRTDxfName
1000
SCALE
1000
AcRTDxfName
1000
SCALE
1000
AcRTDxfName
1000
SCALE
1000
AcRTDxfName
1000
SCALE
1000
AcRTDxfName
1000
SCALE
1000
AcRTDxfName
1000
SCALE
1000
AcRTDxfName
1000
SCALE
1000
AcRTDxfName
1000
SCALE
1000
AcRTDxfName
1000
SCALE
1000
AcRTDxfName
1000
SCALE
1000
AcRTDxfName
1000
SCALE
1000
AcRTDxfName
1000
SCALE
  0
SCALE
  5
18C1
102
{ACAD_REACTORS
330
18A0
102
}
330
18A0
100
AcDbScale
 70
     0
300
1'-0" = 1'-0"
140
12.0
141
12.0
290
     0
1001
ACAD
1000
AcRTDxfName
1000
SCALE
1000
AcRTDxfName
1000
SCALE
1000
AcRTDxfName
1000
SCALE
1000
AcRTDxfName
1000
SCALE
1000
AcRTDxfName
1000
SCALE
1000
AcRTDxfName
1000
SCALE
1000
AcRTDxfName
1000
SCALE
1000
AcRTDxfName
1000
SCALE
1000
AcRTDxfName
1000
SCALE
1000
AcRTDxfName
1000
SCALE
1000
AcRTDxfName
1000
SCALE
1000
AcRTDxfName
1000
SCALE
1000
AcRTDxfName
1000
SCALE
1000
AcRTDxfName
1000
SCALE
1000
AcRTDxfName
1000
SCALE
1000
AcRTDxfName
1000
SCALE
1000
AcRTDxfName
1000
SCALE
1000
AcRTDxfName
1000
SCALE
1000
AcRTDxfName
1000
SCALE
1000
AcRTDxfName
1000
SCALE
1000
AcRTDxfName
1000
SCALE
1000
AcRTDxfName
1000
SCALE
1000
AcRTDxfName
1000
SCALE
1000
AcRTDxfName
1000
SCALE
1000
AcRTDxfName
1000
SCALE
1000
AcRTDxfName
1000
SCALE
1000
AcRTDxfName
1000
SCALE
1000
AcRTDxfName
1000
SCALE
1000
AcRTDxfName
1000
SCALE
1000
AcRTDxfName
1000
SCALE
1000
AcRTDxfName
1000
SCALE
1000
AcRTDxfName
1000
SCALE
1000
AcRTDxfName
1000
SCALE
1000
AcRTDxfName
1000
SCALE
1000
AcRTDxfName
1000
SCALE
1000
AcRTDxfName
1000
SCALE
1000
AcRTDxfName
1000
SCALE
1000
AcRTDxfName
1000
SCALE
1000
AcRTDxfName
1000
SCALE
1000
AcRTDxfName
1000
SCALE
1000
AcRTDxfName
1000
SCALE
1000
AcRTDxfName
1000
SCALE
1000
AcRTDxfName
1000
SCALE
1000
AcRTDxfName
1000
SCALE
1000
AcRTDxfName
1000
SCALE
1000
AcRTDxfName
1000
SCALE
1000
AcRTDxfName
1000
SCALE
1000
AcRTDxfName
1000
SCALE
1000
AcRTDxfName
1000
SCALE
1000
AcRTDxfName
1000
SCALE
1000
AcRTDxfName
1000
SCALE
1000
AcRTDxfName
1000
SCALE
1000
AcRTDxfName
1000
SCALE
1000
AcRTDxfName
1000
SCALE
1000
AcRTDxfName
1000
SCALE
1000
AcRTDxfName
1000
SCALE
1000
AcRTDxfName
1000
SCALE
1000
AcRTDxfName
1000
SCALE
1000
AcRTDxfName
1000
SCALE
1000
AcRTDxfName
1000
SCALE
1000
AcRTDxfName
1000
SCALE
1000
AcRTDxfName
1000
SCALE
1000
AcRTDxfName
1000
SCALE
1000
AcRTDxfName
1000
SCALE
1000
AcRTDxfName
1000
SCALE
1000
AcRTDxfName
1000
SCALE
1000
AcRTDxfName
1000
SCALE
1000
AcRTDxfName
1000
SCALE
1000
AcRTDxfName
1000
SCALE
1000
AcRTDxfName
1000
SCALE
1000
AcRTDxfName
1000
SCALE
1000
AcRTDxfName
1000
SCALE
1000
AcRTDxfName
1000
SCALE
1000
AcRTDxfName
1000
SCALE
1000
AcRTDxfName
1000
SCALE
1000
AcRTDxfName
1000
SCALE
1000
AcRTDxfName
1000
SCALE
1000
AcRTDxfName
1000
SCALE
1000
AcRTDxfName
1000
SCALE
1000
AcRTDxfName
1000
SCALE
1000
AcRTDxfName
1000
SCALE
1000
AcRTDxfName
1000
SCALE
1000
AcRTDxfName
1000
SCALE
1000
AcRTDxfName
1000
SCALE
1000
AcRTDxfName
1000
SCALE
1000
AcRTDxfName
1000
SCALE
1000
AcRTDxfName
1000
SCALE
1000
AcRTDxfName
1000
SCALE
1000
AcRTDxfName
1000
SCALE
1000
AcRTDxfName
1000
SCALE
1000
AcRTDxfName
1000
SCALE
1000
AcRTDxfName
1000
SCALE
1000
AcRTDxfName
1000
SCALE
1000
AcRTDxfName
1000
SCALE
1000
AcRTDxfName
1000
SCALE
1000
AcRTDxfName
1000
SCALE
1000
AcRTDxfName
1000
SCALE
1000
AcRTDxfName
1000
SCALE
1000
AcRTDxfName
1000
SCALE
1000
AcRTDxfName
1000
SCALE
1000
AcRTDxfName
1000
SCALE
1000
AcRTDxfName
1000
SCALE
1000
AcRTDxfName
1000
SCALE
1000
AcRTDxfName
1000
SCALE
1000
AcRTDxfName
1000
SCALE
1000
AcRTDxfName
1000
SCALE
1000
AcRTDxfName
1000
SCALE
1000
AcRTDxfName
1000
SCALE
1000
AcRTDxfName
1000
SCALE
1000
AcRTDxfName
1000
SCALE
1000
AcRTDxfName
1000
SCALE
1000
AcRTDxfName
1000
SCALE
1000
AcRTDxfName
1000
SCALE
1000
AcRTDxfName
1000
SCALE
1000
AcRTDxfName
1000
SCALE
1000
AcRTDxfName
1000
SCALE
1000
AcRTDxfName
1000
SCALE
1000
AcRTDxfName
1000
SCALE
1000
AcRTDxfName
1000
SCALE
1000
AcRTDxfName
1000
SCALE
1000
AcRTDxfName
1000
SCALE
1000
AcRTDxfName
1000
SCALE
1000
AcRTDxfName
1000
SCALE
1000
AcRTDxfName
1000
SCALE
1000
AcRTDxfName
1000
SCALE
1000
AcRTDxfName
1000
SCALE
1000
AcRTDxfName
1000
SCALE
1000
AcRTDxfName
1000
SCALE
1000
AcRTDxfName
1000
SCALE
1000
AcRTDxfName
1000
SCALE
1000
AcRTDxfName
1000
SCALE
1000
AcRTDxfName
1000
SCALE
1000
AcRTDxfName
1000
SCALE
1000
AcRTDxfName
1000
SCALE
1000
AcRTDxfName
1000
SCALE
1000
AcRTDxfName
1000
SCALE
1000
AcRTDxfName
1000
SCALE
1000
AcRTDxfName
1000
SCALE
1000
AcRTDxfName
1000
SCALE
1000
AcRTDxfName
1000
SCALE
1000
AcRTDxfName
1000
SCALE
1000
AcRTDxfName
1000
SCALE
1000
AcRTDxfName
1000
SCALE
1000
AcRTDxfName
1000
SCALE
1000
AcRTDxfName
1000
SCALE
1000
AcRTDxfName
1000
SCALE
1000
AcRTDxfName
1000
SCALE
1000
AcRTDxfName
1000
SCALE
1000
AcRTDxfName
1000
SCALE
1000
AcRTDxfName
1000
SCALE
1000
AcRTDxfName
1000
SCALE
1000
AcRTDxfName
1000
SCALE
1000
AcRTDxfName
1000
SCALE
1000
AcRTDxfName
1000
SCALE
1000
AcRTDxfName
1000
SCALE
1000
AcRTDxfName
1000
SCALE
  0
DICTIONARYVAR
  5
6DF
102
{ACAD_REACTORS
330
6DE
102
}
330
6DE
100
DictionaryVariables
280
     0
  1
1
  0
DICTIONARYVAR
  5
18FC
102
{ACAD_REACTORS
330
6DE
102
}
330
6DE
100
DictionaryVariables
280
     0
  1
0
  0
DICTIONARYVAR
  5
6E0
102
{ACAD_REACTORS
330
6DE
102
}
330
6DE
100
DictionaryVariables
280
     0
  1

  0
DICTIONARYVAR
  5
18FB
102
{ACAD_REACTORS
330
6DE
102
}
330
6DE
100
DictionaryVariables
280
     0
  1
127
  0
ENDSEC
  0
EOF
