  0
SECTION
  2
HEADER
  9
$ACADVER
  1
AC1015
  9
$ACADMAINTVER
 70
    20
  9
$DWGCODEPAGE
  3
ANSI_932
  9
$INSBASE
 10
0.0
 20
0.0
 30
0.0
  9
$EXTMIN
 10
2254.372675531282
 20
-1770.673725291794
 30
-0.0000000000000076
  9
$EXTMAX
 10
2325.150754565133
 20
-1706.347112929372
 30
0.0000000000000076
  9
$LIMMIN
 10
0.0
 20
0.0
  9
$LIMMAX
 10
420.0
 20
297.0
  9
$ORTHOMODE
 70
     0
  9
$REGENMODE
 70
     1
  9
$FILLMODE
 70
     1
  9
$QTEXTMODE
 70
     0
  9
$MIRRTEXT
 70
     1
  9
$LTSCALE
 40
5.0
  9
$ATTMODE
 70
     0
  9
$TEXTSIZE
 40
3.5
  9
$TRACEWID
 40
1.0
  9
$TEXTSTYLE
  7
STANDARD
  9
$CLAYER
  8
0
  9
$CELTYPE
  6
BYLAYER
  9
$CECOLOR
 62
   256
  9
$CELTSCALE
 40
1.0
  9
$DISPSILH
 70
     0
  9
$DIMSCALE
 40
1.0
  9
$DIMASZ
 40
2.5
  9
$DIMEXO
 40
1.5
  9
$DIMDLI
 40
0.38
  9
$DIMRND
 40
0.0
  9
$DIMDLE
 40
0.0
  9
$DIMEXE
 40
1.0
  9
$DIMTP
 40
0.0
  9
$DIMTM
 40
0.0
  9
$DIMTXT
 40
2.500000000000002
  9
$DIMCEN
 40
0.0
  9
$DIMTSZ
 40
0.0
  9
$DIMTOL
 70
     0
  9
$DIMLIM
 70
     0
  9
$DIMTIH
 70
     0
  9
$DIMTOH
 70
     0
  9
$DIMSE1
 70
     0
  9
$DIMSE2
 70
     0
  9
$DIMTAD
 70
     3
  9
$DIMZIN
 70
     8
  9
$DIMBLK
  1

  9
$DIMASO
 70
     1
  9
$DIMSHO
 70
     0
  9
$DIMPOST
  1

  9
$DIMAPOST
  1

  9
$DIMALT
 70
     0
  9
$DIMALTD
 70
     0
  9
$DIMALTF
 40
25.4
  9
$DIMLFAC
 40
1.0
  9
$DIMTOFL
 70
     1
  9
$DIMTVP
 40
0.0
  9
$DIMTIX
 70
     0
  9
$DIMSOXD
 70
     0
  9
$DIMSAH
 70
     1
  9
$DIMBLK1
  1
OPEN
  9
$DIMBLK2
  1
OPEN
  9
$DIMSTYLE
  2
STANDARD
  9
$DIMCLRD
 70
     8
  9
$DIMCLRE
 70
     8
  9
$DIMCLRT
 70
   256
  9
$DIMTFAC
 40
1.0
  9
$DIMGAP
 40
1.0
  9
$DIMJUST
 70
     0
  9
$DIMSD1
 70
     0
  9
$DIMSD2
 70
     0
  9
$DIMTOLJ
 70
     1
  9
$DIMTZIN
 70
     0
  9
$DIMALTZ
 70
     0
  9
$DIMALTTZ
 70
     0
  9
$DIMUPT
 70
     0
  9
$DIMDEC
 70
     2
  9
$DIMTDEC
 70
     2
  9
$DIMALTU
 70
     2
  9
$DIMALTTD
 70
     0
  9
$DIMTXSTY
  7
STANDARD
  9
$DIMAUNIT
 70
     0
  9
$DIMADEC
 70
     2
  9
$DIMALTRND
 40
0.0
  9
$DIMAZIN
 70
     2
  9
$DIMDSEP
 70
    46
  9
$DIMATFIT
 70
     1
  9
$DIMFRAC
 70
     0
  9
$DIMLDRBLK
  1
OPEN
  9
$DIMLUNIT
 70
     2
  9
$DIMLWD
 70
    -2
  9
$DIMLWE
 70
    -2
  9
$DIMTMOVE
 70
     0
  9
$LUNITS
 70
     2
  9
$LUPREC
 70
     2
  9
$SKETCHINC
 40
0.1
  9
$FILLETRAD
 40
0.0
  9
$AUNITS
 70
     0
  9
$AUPREC
 70
     1
  9
$MENU
  1
FM
  9
$ELEVATION
 40
0.0
  9
$PELEVATION
 40
0.0
  9
$THICKNESS
 40
0.0
  9
$LIMCHECK
 70
     0
  9
$CHAMFERA
 40
0.0
  9
$CHAMFERB
 40
0.0
  9
$CHAMFERC
 40
0.0
  9
$CHAMFERD
 40
0.0
  9
$SKPOLY
 70
     0
  9
$TDCREATE
 40
2448636.619629630
  9
$TDUCREATE
 40
2448636.244629629
  9
$TDUPDATE
 40
2457221.368283819
  9
$TDUUPDATE
 40
2457220.993283820
  9
$TDINDWG
 40
1.8232198148
  9
$TDUSRTIMER
 40
2456973.332591320
  9
$USRTIMER
 70
     1
  9
$ANGBASE
 50
0.0
  9
$ANGDIR
 70
     0
  9
$PDMODE
 70
     3
  9
$PDSIZE
 40
0.0
  9
$PLINEWID
 40
0.0
  9
$SPLFRAME
 70
     0
  9
$SPLINETYPE
 70
     6
  9
$SPLINESEGS
 70
     8
  9
$HANDSEED
  5
217D0
  9
$SURFTAB1
 70
     6
  9
$SURFTAB2
 70
     6
  9
$SURFTYPE
 70
     6
  9
$SURFU
 70
     6
  9
$SURFV
 70
     6
  9
$UCSBASE
  2

  9
$UCSNAME
  2

  9
$UCSORG
 10
0.0
 20
0.0
 30
0.0
  9
$UCSXDIR
 10
1.0
 20
0.0
 30
0.0
  9
$UCSYDIR
 10
0.0
 20
1.0
 30
0.0
  9
$UCSORTHOREF
  2

  9
$UCSORTHOVIEW
 70
     0
  9
$UCSORGTOP
 10
0.0
 20
0.0
 30
0.0
  9
$UCSORGBOTTOM
 10
0.0
 20
0.0
 30
0.0
  9
$UCSORGLEFT
 10
0.0
 20
0.0
 30
0.0
  9
$UCSORGRIGHT
 10
0.0
 20
0.0
 30
0.0
  9
$UCSORGFRONT
 10
0.0
 20
0.0
 30
0.0
  9
$UCSORGBACK
 10
0.0
 20
0.0
 30
0.0
  9
$PUCSBASE
  2

  9
$PUCSNAME
  2

  9
$PUCSORG
 10
0.0
 20
0.0
 30
0.0
  9
$PUCSXDIR
 10
1.0
 20
0.0
 30
0.0
  9
$PUCSYDIR
 10
0.0
 20
1.0
 30
0.0
  9
$PUCSORTHOREF
  2

  9
$PUCSORTHOVIEW
 70
     0
  9
$PUCSORGTOP
 10
0.0
 20
0.0
 30
0.0
  9
$PUCSORGBOTTOM
 10
0.0
 20
0.0
 30
0.0
  9
$PUCSORGLEFT
 10
0.0
 20
0.0
 30
0.0
  9
$PUCSORGRIGHT
 10
0.0
 20
0.0
 30
0.0
  9
$PUCSORGFRONT
 10
0.0
 20
0.0
 30
0.0
  9
$PUCSORGBACK
 10
0.0
 20
0.0
 30
0.0
  9
$USERI1
 70
     0
  9
$USERI2
 70
     0
  9
$USERI3
 70
     0
  9
$USERI4
 70
     0
  9
$USERI5
 70
     0
  9
$USERR1
 40
0.0
  9
$USERR2
 40
0.0
  9
$USERR3
 40
0.0
  9
$USERR4
 40
0.0
  9
$USERR5
 40
0.0
  9
$WORLDVIEW
 70
     0
  9
$SHADEDGE
 70
     3
  9
$SHADEDIF
 70
    70
  9
$TILEMODE
 70
     1
  9
$MAXACTVP
 70
    16
  9
$PINSBASE
 10
0.0
 20
0.0
 30
0.0
  9
$PLIMCHECK
 70
     0
  9
$PEXTMIN
 10
1.000000000000000E+20
 20
1.000000000000000E+20
 30
1.000000000000000E+20
  9
$PEXTMAX
 10
-1.000000000000000E+20
 20
-1.000000000000000E+20
 30
-1.000000000000000E+20
  9
$PLIMMIN
 10
0.0
 20
0.0
  9
$PLIMMAX
 10
12.0
 20
9.0
  9
$UNITMODE
 70
     0
  9
$VISRETAIN
 70
     0
  9
$PLINEGEN
 70
     0
  9
$PSLTSCALE
 70
     0
  9
$TREEDEPTH
 70
  3020
  9
$CMLSTYLE
  2
STANDARD
  9
$CMLJUST
 70
     0
  9
$CMLSCALE
 40
1.0
  9
$PROXYGRAPHICS
 70
     1
  9
$MEASUREMENT
 70
     0
  9
$CELWEIGHT
370
    -1
  9
$ENDCAPS
280
     0
  9
$JOINSTYLE
280
     0
  9
$LWDISPLAY
290
     0
  9
$INSUNITS
 70
     0
  9
$HYPERLINKBASE
  1

  9
$STYLESHEET
  1
spax form.ctb
  9
$XEDIT
290
     1
  9
$CEPSNTYPE
380
     0
  9
$PSTYLEMODE
290
     1
  9
$FINGERPRINTGUID
  2
{BBAEEBA6-8B94-11D3-9160-00E0294F7E09}
  9
$VERSIONGUID
  2
{A2B4BDAD-4B0E-4B71-A6B1-753364C736D0}
  9
$EXTNAMES
290
     1
  9
$PSVPSCALE
 40
0.0
  9
$OLESTARTUP
290
     0
  0
ENDSEC
  0
SECTION
  2
CLASSES
  0
CLASS
  1
LWPOLYLINE
  2
AcDbPolyline
  3
ObjectDBX Classes
 90
        0
280
     0
281
     1
  0
CLASS
  1
ACDBDICTIONARYWDFLT
  2
AcDbDictionaryWithDefault
  3
ObjectDBX Classes
 90
        0
280
     0
281
     0
  0
CLASS
  1
ACDBPLACEHOLDER
  2
AcDbPlaceHolder
  3
ObjectDBX Classes
 90
        0
280
     0
281
     0
  0
CLASS
  1
LAYOUT
  2
AcDbLayout
  3
ObjectDBX Classes
 90
        0
280
     0
281
     0
  0
CLASS
  1
DICTIONARYVAR
  2
AcDbDictionaryVar
  3
ObjectDBX Classes
 90
        0
280
     0
281
     0
  0
CLASS
  1
MATERIAL
  2
AcDbMaterial
  3
ObjectDBX Classes
 90
     1153
280
     0
281
     0
  0
CLASS
  1
VISUALSTYLE
  2
AcDbVisualStyle
  3
ObjectDBX Classes
 90
     4095
280
     0
281
     0
  0
CLASS
  1
TABLESTYLE
  2
AcDbTableStyle
  3
ObjectDBX Classes
 90
     4095
280
     0
281
     0
  0
CLASS
  1
SCALE
  2
AcDbScale
  3
ObjectDBX Classes
 90
     1153
280
     0
281
     0
  0
CLASS
  1
MLEADERSTYLE
  2
AcDbMLeaderStyle
  3
ACDB_MLEADERSTYLE_CLASS
 90
     4095
280
     0
281
     0
  0
CLASS
  1
CELLSTYLEMAP
  2
AcDbCellStyleMap
  3
ObjectDBX Classes
 90
     1152
280
     0
281
     0
  0
CLASS
  1
SORTENTSTABLE
  2
AcDbSortentsTable
  3
ObjectDBX Classes
 90
        0
280
     0
281
     0
  0
CLASS
  1
MULTILEADER
  2
AcDbMLeader
  3
ACDB_MLEADER_CLASS
 90
    33793
280
     0
281
     1
  0
CLASS
  1
RASTERVARIABLES
  2
AcDbRasterVariables
  3
ISM
 90
        0
280
     0
281
     0
  0
CLASS
  1
SUN
  2
AcDbSun
  3
SCENEOE
 90
    33921
280
     0
281
     0
  0
CLASS
  1
AEC_VARS_DWG_SETUP
  2
AecDbVarsDwgSetup
  3
AecBase60
 90
      129
280
     0
281
     0
  0
CLASS
  1
AEC_DISP_REP_2D_SECTION
  2
AecDbDispRep2dSection
  3
AecBase60
 90
      129
280
     0
281
     0
  0
CLASS
  1
AEC_DISP_PROPS_2D_SECTION
  2
AecDbDispProps2dSection
  3
AecBase60
 90
      129
280
     0
281
     0
  0
CLASS
  1
AEC_DISP_REP_CLIP_VOLUME_MODEL
  2
AecDbDispRepClipVolModel
  3
AecBase60
 90
      129
280
     0
281
     0
  0
CLASS
  1
AEC_DISP_PROPS_CLIP_VOLUME
  2
AecDbDispPropsClipVol
  3
AecBase60
 90
      129
280
     0
281
     0
  0
CLASS
  1
AEC_DISP_REP_CLIP_VOLUME_PLAN
  2
AecDbDispRepClipVolPlan
  3
AecBase60
 90
      129
280
     0
281
     0
  0
CLASS
  1
AEC_DISP_REP_CLIP_VOLUME_RESULT
  2
AecDbDispRepClipVolResult
  3
AecBase60
 90
      129
280
     0
281
     0
  0
CLASS
  1
AEC_DISP_REP_CLIP_VOLUME_RESULT_SUBDIV
  2
AecDbDispRepClipVolResSubDiv
  3
AecBase60
 90
      129
280
     0
281
     0
  0
CLASS
  1
AEC_DISP_PROPS_CLIP_VOLUME_RESULT
  2
AecDbDispPropsClipVolResSubDiv
  3
AecBase60
 90
      129
280
     0
281
     0
  0
CLASS
  1
AEC_DISP_REP_DISPLAYTHEME
  2
AecDbDispRepDisplayTheme
  3
AecBase60
 90
      129
280
     0
281
     0
  0
CLASS
  1
AEC_DISP_PROPS_DISPLAYTHEME
  2
AecDbDispPropsDisplayTheme
  3
AecBase60
 90
      129
280
     0
281
     0
  0
CLASS
  1
AEC_DISP_REP_ENT_REF
  2
AecDbDispRepEntRef
  3
AecBase60
 90
      129
280
     0
281
     0
  0
CLASS
  1
AEC_DISP_PROPS_ENT_REF
  2
AecDbDispPropsEntRef
  3
AecBase60
 90
      129
280
     0
281
     0
  0
CLASS
  1
AEC_DISP_REP_LAYOUT_CURVE
  2
AecDbDispRepLayoutCurve
  3
AecBase60
 90
      129
280
     0
281
     0
  0
CLASS
  1
AEC_DISP_PROPS_LAYOUT_CURVE
  2
AecDbDispPropsLayoutCurve
  3
AecBase60
 90
      129
280
     0
281
     0
  0
CLASS
  1
AEC_DISP_REP_LAYOUT_GRID2D
  2
AecDbDispRepLayoutGrid2d
  3
AecBase60
 90
      129
280
     0
281
     0
  0
CLASS
  1
AEC_DISP_PROPS_LAYOUT_GRID2D
  2
AecDbDispPropsLayoutGrid2d
  3
AecBase60
 90
      129
280
     0
281
     0
  0
CLASS
  1
AEC_DISP_REP_LAYOUT_GRID3D
  2
AecDbDispRepLayoutGrid3d
  3
AecBase60
 90
      129
280
     0
281
     0
  0
CLASS
  1
AEC_DISP_PROPS_LAYOUT_GRID3D
  2
AecDbDispPropsLayoutGrid3d
  3
AecBase60
 90
      129
280
     0
281
     0
  0
CLASS
  1
AEC_DISP_REP_MASKBLOCK_REF
  2
AecDbDispRepMaskBlockRef
  3
AecBase60
 90
      129
280
     0
281
     0
  0
CLASS
  1
AEC_DISP_PROPS_MASKBLOCK
  2
AecDbDispPropsMaskBlock
  3
AecBase60
 90
      129
280
     0
281
     0
  0
CLASS
  1
AEC_DISP_REP_MASKBLOCK_REF_RCP
  2
AecDbDispRepMaskBlockRefRcp
  3
AecArchBase60
 90
      129
280
     0
281
     0
  0
CLASS
  1
AEC_DISP_REP_MASS_ELEM_MODEL
  2
AecDbDispRepMassElemModel
  3
AecBase60
 90
      129
280
     0
281
     0
  0
CLASS
  1
AEC_DISP_PROPS_MASS_ELEM_MODEL
  2
AecDbDispPropsMassElem
  3
AecBase60
 90
      129
280
     0
281
     0
  0
CLASS
  1
AEC_DISP_REP_MASS_ELEM_SCHEM
  2
AecDbDispRepMassElemSchem
  3
AecBase60
 90
      129
280
     0
281
     0
  0
CLASS
  1
AEC_DISPREPAECDBDISPREPMASSELEMPLAN50
  2
AecDbDispRepMassElemPlan50
  3
AecArchDACHBase60
 90
      129
280
     0
281
     0
  0
CLASS
  1
AEC_DISPROPSMASSELEMPLANCOMMON
  2
AecDbDispPropsMassElemPlanCommon
  3
AecArchDACHBase60
 90
      129
280
     0
281
     0
  0
CLASS
  1
AEC_DISPREPAECDBDISPREPMASSELEMPLAN100
  2
AecDbDispRepMassElemPlan100
  3
AecArchDACHBase60
 90
      129
280
     0
281
     0
  0
CLASS
  1
AEC_DISP_REP_MASS_ELEM_RCP
  2
AecDbDispRepMassElemRcp
  3
AecArchBase60
 90
      129
280
     0
281
     0
  0
CLASS
  1
AEC_DISP_REP_MASS_GROUP_MODEL
  2
AecDbDispRepMassGroupModel
  3
AecBase60
 90
      129
280
     0
281
     0
  0
CLASS
  1
AEC_DISP_PROPS_MASS_GROUP
  2
AecDbDispPropsMassGroup
  3
AecBase60
 90
      129
280
     0
281
     0
  0
CLASS
  1
AEC_DISP_REP_MASS_GROUP_PLAN
  2
AecDbDispRepMassGroupPlan
  3
AecBase60
 90
      129
280
     0
281
     0
  0
CLASS
  1
AEC_DISPREPAECDBDISPREPMASSGROUPPLAN50
  2
AecDbDispRepMassGroupPlan50
  3
AecArchDACHBase60
 90
      129
280
     0
281
     0
  0
CLASS
  1
AEC_DISPROPSMASSGROUPPLANCOMMON
  2
AecDbDispPropsMassGroupPlanCommon
  3
AecArchDACHBase60
 90
      129
280
     0
281
     0
  0
CLASS
  1
AEC_DISPREPAECDBDISPREPMASSGROUPPLAN100
  2
AecDbDispRepMassGroupPlan100
  3
AecArchDACHBase60
 90
      129
280
     0
281
     0
  0
CLASS
  1
AEC_DISP_REP_MASS_GROUP_RCP
  2
AecDbDispRepMassGroupRcp
  3
AecArchBase60
 90
      129
280
     0
281
     0
  0
CLASS
  1
AEC_DISP_REP_MVBLOCK_REF
  2
AecDbDispRepMvBlockRef
  3
AecBase60
 90
      129
280
     0
281
     0
  0
CLASS
  1
AEC_DISP_REP_MVBLOCK_REF_MODEL
  2
AecDbDispRepMvBlockRefModel
  3
AecBase60
 90
      129
280
     0
281
     0
  0
CLASS
  1
AEC_AECDBDISPREPMVBLOCKREFPLAN100
  2
AecDbDispRepMvBlockRefPlan100
  3
AecBase60
 90
      129
280
     0
281
     0
  0
CLASS
  1
AEC_AECDBDISPREPMVBLOCKREFPLAN50
  2
AecDbDispRepMvBlockRefPlan50
  3
AecBase60
 90
      129
280
     0
281
     0
  0
CLASS
  1
AEC_DISP_REP_POLYGON_MODEL
  2
AecDbDispRepPolygonModel
  3
AecBase60
 90
      129
280
     0
281
     0
  0
CLASS
  1
AEC_DISP_PROPS_POLYGON_MODEL
  2
AecDbDispPropsPolygonModel
  3
AecBase60
 90
      129
280
     0
281
     0
  0
CLASS
  1
AEC_DISP_REP_POLYGON_TRUECOLOUR
  2
AecDbDispRepPolygonTrueColour
  3
AecBase60
 90
      129
280
     0
281
     0
  0
CLASS
  1
AEC_DISP_PROPS_POLYGON_TRUECOLOUR
  2
AecDbDispPropsPolygonTrueColour
  3
AecBase60
 90
      129
280
     0
281
     0
  0
CLASS
  1
AEC_DISP_REP_SLICE
  2
AecDbDispRepSlice
  3
AecBase60
 90
      129
280
     0
281
     0
  0
CLASS
  1
AEC_DISP_PROPS_SLICE
  2
AecDbDispPropsSlice
  3
AecBase60
 90
      129
280
     0
281
     0
  0
CLASS
  1
AEC_DISP_REP_ANCHOR
  2
AecDbDispRepAnchor
  3
AecBase60
 90
      129
280
     0
281
     0
  0
CLASS
  1
AEC_DISP_REP_ANCHOR_ENT_TO_NODE
  2
AecDbDispRepAnchorEntToNode
  3
AecBase60
 90
      129
280
     0
281
     0
  0
CLASS
  1
AEC_DISP_PROPS_ENT
  2
AecDbDispPropsEnt
  3
AecBase60
 90
      129
280
     0
281
     0
  0
CLASS
  1
AEC_DISP_REP_MATERIAL
  2
AecDbDispRepMaterial
  3
AecBase60
 90
      129
280
     0
281
     0
  0
CLASS
  1
AEC_DISP_PROPS_MATERIAL
  2
AecDbDispPropsMaterial
  3
AecBase60
 90
      129
280
     0
281
     0
  0
CLASS
  1
AEC_DISP_REP_EDITINPLACEPROFILE
  2
AecDbDispRepEditInPlaceProfile
  3
AecBase60
 90
      129
280
     0
281
     0
  0
CLASS
  1
AEC_DISP_PROPS_EDITINPLACEPROFILE_MODEL
  2
AecDbDispPropsEditInPlaceProfile
  3
AecBase60
 90
      129
280
     0
281
     0
  0
ENDSEC
  0
SECTION
  2
TABLES
  0
TABLE
  2
VPORT
  5
8
102
{ACAD_XDICTIONARY
360
1C625
102
}
330
0
100
AcDbSymbolTable
 70
     1
  0
VPORT
  5
112CA
330
8
100
AcDbSymbolTableRecord
100
AcDbViewportTableRecord
  2
*Active
 70
     0
 10
0.0
 20
0.0
 11
1.0
 21
1.0
 12
2289.761715048207
 22
-1738.510419110583
 13
0.0
 23
0.0
 14
1.0
 24
1.0
 15
20.0
 25
20.0
 16
0.0
 26
0.0
 36
1.0
 17
0.0
 27
0.0
 37
0.0
 40
64.82981923879015
 41
1.761096605744125
 42
50.0
 43
0.0
 44
0.0
 50
0.0
 51
0.0
 71
    16
 72
   100
 73
     1
 74
     0
 75
     0
 76
     0
 77
     0
 78
     0
281
     0
 65
     1
110
0.0
120
0.0
130
0.0
111
1.0
121
0.0
131
0.0
112
0.0
122
1.0
132
0.0
 79
     0
146
0.0
  0
ENDTAB
  0
TABLE
  2
LTYPE
  5
5
330
0
100
AcDbSymbolTable
 70
     4
  0
LTYPE
  5
12
330
5
100
AcDbSymbolTableRecord
100
AcDbLinetypeTableRecord
  2
BYBLOCK
 70
     0
  3

 72
    65
 73
     0
 40
0.0
  0
LTYPE
  5
13
330
5
100
AcDbSymbolTableRecord
100
AcDbLinetypeTableRecord
  2
BYLAYER
 70
     0
  3

 72
    65
 73
     0
 40
0.0
  0
LTYPE
  5
14
330
5
100
AcDbSymbolTableRecord
100
AcDbLinetypeTableRecord
  2
CONTINUOUS
 70
     0
  3
Solid line
 72
    65
 73
     0
 40
0.0
  0
ENDTAB
  0
TABLE
  2
LAYER
  5
2
102
{ACAD_XDICTIONARY
360
1843
102
}
330
0
100
AcDbSymbolTable
 70
    20
  0
LAYER
  5
F
102
{ACAD_XDICTIONARY
360
18CA
102
}
330
2
100
AcDbSymbolTableRecord
100
AcDbLayerTableRecord
  2
0
 70
     0
 62
     7
  6
CONTINUOUS
370
    -3
390
616
  0
LAYER
  5
36
330
2
100
AcDbSymbolTableRecord
100
AcDbLayerTableRecord
  2
DEFPOINTS
 70
     0
 62
     7
  6
CONTINUOUS
290
     0
370
    -3
390
616
  0
LAYER
  5
2F4
102
{ACAD_XDICTIONARY
360
18D8
102
}
330
2
100
AcDbSymbolTableRecord
100
AcDbLayerTableRecord
  2
文字
 70
     0
 62
     7
  6
CONTINUOUS
370
    -3
390
616
  0
LAYER
  5
305
102
{ACAD_XDICTIONARY
360
18DC
102
}
330
2
100
AcDbSymbolTableRecord
100
AcDbLayerTableRecord
  2
姿図
 70
     0
 62
     8
  6
CONTINUOUS
370
    -3
390
616
  0
ENDTAB
  0
TABLE
  2
STYLE
  5
3
330
0
100
AcDbSymbolTable
 70
     3
  0
STYLE
  5
10
330
3
100
AcDbSymbolTableRecord
100
AcDbTextStyleTableRecord
  2
STANDARD
 70
     0
 40
0.0
 41
1.0
 50
0.0
 71
     0
 42
3.5
  3
MONOTXT
  4
BIGFONT
  0
ENDTAB
  0
TABLE
  2
VIEW
  5
6
330
0
100
AcDbSymbolTable
 70
     0
  0
ENDTAB
  0
TABLE
  2
UCS
  5
7
330
0
100
AcDbSymbolTable
 70
     0
  0
ENDTAB
  0
TABLE
  2
APPID
  5
9
330
0
100
AcDbSymbolTable
 70
    13
  0
APPID
  5
11
330
9
100
AcDbSymbolTableRecord
100
AcDbRegAppTableRecord
  2
ACAD
 70
     0
  0
APPID
  5
18C4
330
9
100
AcDbSymbolTableRecord
100
AcDbRegAppTableRecord
  2
ACAD_MLEADERVER
 70
     0
  0
APPID
  5
18C8
330
9
100
AcDbSymbolTableRecord
100
AcDbRegAppTableRecord
  2
ACAD_DSTYLE_DIMJAG
 70
     0
  0
APPID
  5
18C9
330
9
100
AcDbSymbolTableRecord
100
AcDbRegAppTableRecord
  2
ACAD_DSTYLE_DIMTALN
 70
     0
  0
APPID
  5
1903
330
9
100
AcDbSymbolTableRecord
100
AcDbRegAppTableRecord
  2
ACAD_EXEMPT_FROM_CAD_STANDARDS
 70
     0
  0
APPID
  5
19B4
330
9
100
AcDbSymbolTableRecord
100
AcDbRegAppTableRecord
  2
ACAD_PSEXT
 70
     0
  0
APPID
  5
19DA
330
9
100
AcDbSymbolTableRecord
100
AcDbRegAppTableRecord
  2
ACAD_DSTYLE_DIMBREAK
 70
     0
  0
APPID
  5
1D8C
330
9
100
AcDbSymbolTableRecord
100
AcDbRegAppTableRecord
  2
AcAecLayerStandard
 70
     0
  0
APPID
  5
1C47C
330
9
100
AcDbSymbolTableRecord
100
AcDbRegAppTableRecord
  2
ACAD_SPLINE_DATA
 70
     0
  0
APPID
  5
1C47D
330
9
100
AcDbSymbolTableRecord
100
AcDbRegAppTableRecord
  2
ACAD_SPLINE_DATA2
 70
     0
  0
APPID
  5
1C4C0
330
9
100
AcDbSymbolTableRecord
100
AcDbRegAppTableRecord
  2
AECBASE
 70
     0
  0
APPID
  5
1C4C1
330
9
100
AcDbSymbolTableRecord
100
AcDbRegAppTableRecord
  2
AEC_2DSECTION_XDATA
 70
     0
  0
APPID
  5
1C4C2
330
9
100
AcDbSymbolTableRecord
100
AcDbRegAppTableRecord
  2
AEC_MASSGROUP_XDADA
 70
     0
  0
ENDTAB
  0
TABLE
  2
DIMSTYLE
  5
A
330
0
100
AcDbSymbolTable
 70
     3
100
AcDbDimStyleTable
 71
     1
340
1CC
  0
DIMSTYLE
105
1CC
330
A
100
AcDbSymbolTableRecord
100
AcDbDimStyleTableRecord
  2
STANDARD
 70
     0
 41
2.5
 42
1.5
 44
1.0
 73
     0
 74
     0
 77
     3
 78
     8
 79
     2
140
2.500000000000002
141
0.0
147
1.0
171
     0
172
     1
173
     1
176
     8
177
     8
178
   256
179
     2
271
     2
272
     2
274
     0
289
     1
340
10
341
608
343
608
344
608
1001
ACAD_DSTYLE_DIMJAG
1070
   388
1040
1.5
1001
ACAD_DSTYLE_DIMTALN
1070
   392
1070
     0
  0
ENDTAB
  0
TABLE
  2
BLOCK_RECORD
  5
1
330
0
100
AcDbSymbolTable
 70
    23
  0
BLOCK_RECORD
  5
18
102
{ACAD_XDICTIONARY
360
A091
102
}
330
1
100
AcDbSymbolTableRecord
100
AcDbBlockTableRecord
  2
*MODEL_SPACE
340
619
  0
BLOCK_RECORD
  5
15
330
1
100
AcDbSymbolTableRecord
100
AcDbBlockTableRecord
  2
*PAPER_SPACE
340
61A
  0
BLOCK_RECORD
  5
608
330
1
100
AcDbSymbolTableRecord
100
AcDbBlockTableRecord
  2
_OPEN
340
0
  0
ENDTAB
  0
ENDSEC
  0
SECTION
  2
BLOCKS
  0
BLOCK
  5
39
330
18
100
AcDbEntity
  8
0
100
AcDbBlockBegin
  2
*MODEL_SPACE
 70
     0
 10
0.0
 20
0.0
 30
0.0
  3
*MODEL_SPACE
  1

  0
ENDBLK
  5
3A
330
18
100
AcDbEntity
  8
0
100
AcDbBlockEnd
  0
BLOCK
  5
37
330
15
100
AcDbEntity
 67
     1
  8
0
100
AcDbBlockBegin
  2
*PAPER_SPACE
 70
     0
 10
0.0
 20
0.0
 30
0.0
  3
*PAPER_SPACE
  1

  0
ENDBLK
  5
38
330
15
100
AcDbEntity
 67
     1
  8
0
100
AcDbBlockEnd
  0
BLOCK
  5
609
330
608
100
AcDbEntity
  8
0
100
AcDbBlockBegin
  2
_OPEN
 70
     0
 10
0.0
 20
0.0
 30
0.0
  3
_OPEN
  1

  0
LINE
  5
60A
330
608
100
AcDbEntity
  8
0
  6
ByBlock
 62
     0
100
AcDbLine
 10
-1.0
 20
0.1666666666666666
 30
0.0
 11
0.0
 21
0.0
 31
0.0
  0
LINE
  5
60B
330
608
100
AcDbEntity
  8
0
  6
ByBlock
 62
     0
100
AcDbLine
 10
0.0
 20
0.0
 30
0.0
 11
-1.0
 21
-0.1666666666666666
 31
0.0
  0
LINE
  5
60C
330
608
100
AcDbEntity
  8
0
  6
ByBlock
 62
     0
100
AcDbLine
 10
0.0
 20
0.0
 30
0.0
 11
-1.0
 21
0.0
 31
0.0
  0
ENDBLK
  5
60D
330
608
100
AcDbEntity
  8
0
100
AcDbBlockEnd
  0
ENDSEC
  0
SECTION
  2
ENTITIES
  0
TEXT
  5
2108D
330
18
100
AcDbEntity
  8
文字
100
AcDbText
 10
2254.529602855159
 20
-1770.567515116742
 30
0.0
 40
5.999999999999997
  1
SX-B0355D/W3/NC
 41
0.8
100
AcDbText
  0
LINE
  5
211A7
330
18
100
AcDbEntity
  8
姿図
370
     0
100
AcDbLine
 10
2271.616325606865
 20
-1729.13079776879
 30
0.0
 11
2272.735292620753
 21
-1728.981931370286
 31
0.0
  0
LINE
  5
211A8
330
18
100
AcDbEntity
  8
姿図
370
     0
100
AcDbLine
 10
2272.735292620753
 20
-1722.404143343895
 30
0.0
 11
2274.027892447142
 21
-1723.699346352774
 31
0.0
  0
POLYLINE
  5
211A9
330
18
100
AcDbEntity
  8
姿図
370
     0
100
AcDb2dPolyline
 66
     1
 10
0.0
 20
0.0
 30
0.0
  0
VERTEX
  5
211AA
330
211A9
100
AcDbEntity
  8
姿図
370
     0
100
AcDbVertex
100
AcDb2dVertex
 10
2271.616325606865
 20
-1722.436531181743
 30
0.0
  0
VERTEX
  5
211AB
330
211A9
100
AcDbEntity
  8
姿図
370
     0
100
AcDbVertex
100
AcDb2dVertex
 10
2272.735292620753
 20
-1722.404143343895
 30
0.0
  0
VERTEX
  5
211AC
330
211A9
100
AcDbEntity
  8
姿図
370
     0
100
AcDbVertex
100
AcDb2dVertex
 10
2272.735292620753
 20
-1728.981931370286
 30
0.0
  0
VERTEX
  5
211AD
330
211A9
100
AcDbEntity
  8
姿図
370
     0
100
AcDbVertex
100
AcDb2dVertex
 10
2272.973613343053
 20
-1729.801145514638
 30
0.0
  0
SEQEND
  5
211AE
330
211A9
100
AcDbEntity
  8
姿図
370
     0
  0
LINE
  5
211AF
330
18
100
AcDbEntity
  8
姿図
370
     0
100
AcDbLine
 10
2274.073712217107
 20
-1727.679939693779
 30
0.0
 11
2273.879391149039
 21
-1729.244957871339
 31
0.0
  0
SPLINE
  5
211B0
330
18
100
AcDbEntity
  8
姿図
370
     0
100
AcDbSpline
210
0.0
220
0.0
230
1.0
 70
     8
 71
     3
 72
    14
 73
    10
 74
     0
 42
0.0000000001
 43
0.0000000001
 40
0.0
 40
0.0
 40
0.0
 40
0.0
 40
1.0
 40
1.0
 40
1.0
 40
2.0
 40
2.0
 40
2.0
 40
3.0
 40
3.0
 40
3.0
 40
3.0
 10
2275.590587759642
 20
-1720.753500438881
 30
0.0
 10
2275.590587759642
 20
-1720.753500438881
 30
0.0
 10
2277.474021461898
 20
-1723.505215222132
 30
0.0
 10
2277.474021461898
 20
-1723.505215222132
 30
0.0
 10
2277.474021461898
 20
-1723.505215222132
 30
0.0
 10
2276.084958961897
 20
-1724.27209347734
 30
0.0
 10
2276.174055698397
 20
-1728.340739579941
 30
0.0
 10
2276.174055698397
 20
-1728.340739579941
 30
0.0
 10
2275.590587759642
 20
-1727.193940679077
 30
0.0
 10
2275.590587759642
 20
-1727.193940679077
 30
0.0
  0
SPLINE
  5
211B1
330
18
100
AcDbEntity
  8
姿図
370
     0
100
AcDbSpline
210
0.0
220
0.0
230
1.0
 70
     8
 71
     3
 72
    14
 73
    10
 74
     0
 42
0.0000000001
 43
0.0000000001
 40
0.0
 40
0.0
 40
0.0
 40
0.0
 40
1.0
 40
1.0
 40
1.0
 40
2.0
 40
2.0
 40
2.0
 40
3.0
 40
3.0
 40
3.0
 40
3.0
 10
2279.178999217975
 20
-1719.864936141471
 30
0.0
 10
2279.178999217975
 20
-1719.864936141471
 30
0.0
 10
2280.201503558252
 20
-1722.567115721264
 30
0.0
 10
2280.201503558252
 20
-1722.567115721264
 30
0.0
 10
2280.201503558252
 20
-1722.567115721264
 30
0.0
 10
2279.397246017019
 20
-1723.039782821958
 30
0.0
 10
2279.490698663816
 20
-1727.543806745316
 30
0.0
 10
2279.490698663816
 20
-1727.543806745316
 30
0.0
 10
2279.178999217975
 20
-1726.364807202168
 30
0.0
 10
2279.178999217975
 20
-1726.364807202168
 30
0.0
  0
LINE
  5
211B2
330
18
100
AcDbEntity
  8
姿図
370
     0
100
AcDbLine
 10
2277.867106856864
 20
-1726.625187068765
 30
0.0
 11
2277.757380565632
 21
-1727.929837482331
 31
0.0
  0
LINE
  5
211B3
330
18
100
AcDbEntity
  8
姿図
370
     0
100
AcDbLine
 10
2281.687028731863
 20
-1725.973093271832
 30
0.0
 11
2281.642411501105
 21
-1727.201592402444
 31
0.0
  0
SPLINE
  5
211B4
330
18
100
AcDbEntity
  8
姿図
370
     0
100
AcDbSpline
210
0.0
220
0.0
230
1.0
 70
     8
 71
     3
 72
    17
 73
    13
 74
     0
 42
0.0000000001
 43
0.0000000001
 40
0.0
 40
0.0
 40
0.0
 40
0.0
 40
1.0
 40
1.0
 40
1.0
 40
2.0
 40
2.0
 40
2.0
 40
3.0
 40
3.0
 40
3.0
 40
4.0
 40
4.0
 40
4.0
 40
4.0
 10
2282.921750954085
 20
-1719.287440015368
 30
0.0
 10
2282.921750954085
 20
-1719.287440015368
 30
0.0
 10
2283.416122156343
 20
-1721.833396510109
 30
0.0
 10
2283.416122156343
 20
-1721.833396510109
 30
0.0
 10
2283.416122156343
 20
-1721.833396510109
 30
0.0
 10
2283.04956399662
 20
-1722.159560925257
 30
0.0
 10
2283.126734135509
 20
-1726.307455890534
 30
0.0
 10
2283.126734135509
 20
-1726.307455890534
 30
0.0
 10
2283.146540911201
 20
-1727.020295911803
 30
0.0
 10
2283.146540911201
 20
-1727.020295911803
 30
0.0
 10
2283.146540911201
 20
-1727.020295911803
 30
0.0
 10
2282.921750954085
 20
-1725.825083750634
 30
0.0
 10
2282.921750954085
 20
-1725.825083750634
 30
0.0
  0
LINE
  5
211B5
330
18
100
AcDbEntity
  8
姿図
370
     0
100
AcDbLine
 10
2285.429780467976
 20
-1725.60606562822
 30
0.0
 11
2285.396492892365
 21
-1726.82561693691
 31
0.0
  0
POLYLINE
  5
211B6
330
18
100
AcDbEntity
  8
姿図
370
     0
100
AcDb2dPolyline
 66
     1
 10
0.0
 20
0.0
 30
0.0
  0
VERTEX
  5
211B7
330
211B6
100
AcDbEntity
  8
姿図
370
     0
100
AcDbVertex
100
AcDb2dVertex
 10
2289.326872481863
 20
-1725.45642624158
 30
0.0
  0
VERTEX
  5
211B8
330
211B6
100
AcDbEntity
  8
姿図
370
     0
100
AcDbVertex
100
AcDb2dVertex
 10
2289.184048284758
 20
-1726.678398646149
 30
0.0
  0
VERTEX
  5
211B9
330
211B6
100
AcDbEntity
  8
姿図
370
     0
100
AcDbVertex
100
AcDb2dVertex
 10
2289.153239669364
 20
-1721.216035398998
 30
0.0
  0
VERTEX
  5
211BA
330
211B6
100
AcDbEntity
  8
姿図
370
     0
100
AcDbVertex
100
AcDb2dVertex
 10
2289.326872481863
 20
-1718.896719037801
 30
0.0
  0
SEQEND
  5
211BB
330
211B6
100
AcDbEntity
  8
姿図
370
     0
  0
SPLINE
  5
211BC
330
18
100
AcDbEntity
  8
姿図
370
     0
100
AcDbSpline
210
0.0
220
0.0
230
1.0
 70
     8
 71
     3
 72
     8
 73
     4
 74
     0
 42
0.0000000001
 43
0.0000000001
 40
0.0
 40
0.0
 40
0.0
 40
0.0
 40
1.0
 40
1.0
 40
1.0
 40
1.0
 10
2277.757380565632
 20
-1727.929837482331
 30
0.0
 10
2278.281896353392
 20
-1727.782731905074
 30
0.0
 10
2278.939048317367
 20
-1727.645272595178
 30
0.0
 10
2279.488365666161
 20
-1727.544244500445
 30
0.0
  0
SPLINE
  5
211BD
330
18
100
AcDbEntity
  8
姿図
370
     0
100
AcDbSpline
210
0.0
220
0.0
230
1.0
 70
     8
 71
     3
 72
     8
 73
     4
 74
     0
 42
0.0000000001
 43
0.0000000001
 40
0.0850857552395827
 40
0.0850857552395827
 40
0.0850857552395827
 40
0.0850857552395827
 40
0.8955348276784185
 40
0.8955348276784185
 40
0.8955348276784185
 40
0.8955348276784185
 10
2281.642411501105
 20
-1727.201592402444
 30
0.0
 10
2282.130094803277
 20
-1727.135334951638
 30
0.0
 10
2282.631899186073
 20
-1727.07468883171
 30
0.0
 10
2283.14654091121
 20
-1727.020295911802
 30
0.0
  0
SPLINE
  5
211BE
330
18
100
AcDbEntity
  8
姿図
370
     0
100
AcDbSpline
210
0.0
220
0.0
230
1.0
 70
     8
 71
     3
 72
     8
 73
     4
 74
     0
 42
0.0000000001
 43
0.0000000001
 40
0.0873178755174612
 40
0.0873178755174612
 40
0.0873178755174612
 40
0.0873178755174612
 40
0.942855272765804
 40
0.942855272765804
 40
0.942855272765804
 40
0.942855272765804
 10
2285.396492892365
 20
-1726.82561693691
 30
0.0
 10
2285.926814515772
 20
-1726.789740666684
 30
0.0
 10
2286.467572806281
 20
-1726.760042360045
 30
0.0
 10
2287.017797232298
 20
-1726.746361055466
 30
0.0
  0
SPLINE
  5
211BF
330
18
100
AcDbEntity
  8
姿図
370
     0
100
AcDbSpline
210
0.0
220
0.0
230
1.0
 70
     8
 71
     3
 72
     8
 73
     4
 74
     0
 42
0.0000000001
 43
0.0000000001
 40
0.1605767127388613
 40
0.1605767127388613
 40
0.1605767127388613
 40
0.1605767127388613
 40
0.9869778418494609
 40
0.9869778418494609
 40
0.9869778418494609
 40
0.9869778418494609
 10
2289.184048284758
 20
-1726.678398646149
 30
0.0
 10
2289.435796434869
 20
-1726.675754974225
 30
0.0
 10
2289.689191537609
 20
-1726.674067009733
 30
0.0
 10
2289.944233592974
 20
-1726.67401527443
 30
0.0
  0
SPLINE
  5
211C0
330
18
100
AcDbEntity
  8
姿図
370
     0
100
AcDbSpline
210
0.0
220
0.0
230
1.0
 70
     8
 71
     3
 72
    11
 73
     7
 74
     0
 42
0.0000000001
 43
0.0000000001
 40
0.840844221862104
 40
0.840844221862104
 40
0.840844221862104
 40
0.840844221862104
 40
1.0
 40
1.0
 40
1.0
 40
1.457536746542017
 40
1.457536746542017
 40
1.457536746542017
 40
1.457536746542017
 10
2271.98852670477
 20
-1731.368914665761
 30
0.0
 10
2271.987981788809
 20
-1731.354432431671
 30
0.0
 10
2271.987706900267
 20
-1731.339908555728
 30
0.0
 10
2271.987706900267
 20
-1731.325323593442
 30
0.0
 10
2271.987706900267
 20
-1730.791287457497
 30
0.0
 10
2272.334782406199
 20
-1730.278454479731
 30
0.0
 10
2272.973613343053
 20
-1729.801145514638
 30
0.0
  0
SPLINE
  5
211C1
330
18
100
AcDbEntity
  8
姿図
370
     0
100
AcDbSpline
210
0.0
220
0.0
230
1.0
 70
     8
 71
     3
 72
     8
 73
     4
 74
     0
 42
0.0000000001
 43
0.0000000001
 40
1.641024445931122
 40
1.641024445931122
 40
1.641024445931122
 40
1.641024445931122
 40
1.974180383622867
 40
1.974180383622867
 40
1.974180383622867
 40
1.974180383622867
 10
2273.879391149039
 20
-1729.244957871339
 30
0.0
 10
2274.508471195175
 20
-1728.919828808208
 30
0.0
 10
2275.280478497076
 20
-1728.616579765922
 30
0.0
 10
2276.174055698334
 20
-1728.34073957996
 30
0.0
  0
SPLINE
  5
211C2
330
18
100
AcDbEntity
  8
姿図
370
     0
100
AcDbSpline
210
0.0
220
0.0
230
1.0
 70
     8
 71
     3
 72
    14
 73
    10
 74
     0
 42
0.0000000001
 43
0.0000000001
 40
0.0
 40
0.0
 40
0.0
 40
0.0
 40
1.0
 40
1.0
 40
1.0
 40
2.0
 40
2.0
 40
2.0
 40
3.0
 40
3.0
 40
3.0
 40
3.0
 10
2286.78025789853
 20
-1718.971142726137
 30
0.0
 10
2286.78025789853
 20
-1718.971142726137
 30
0.0
 10
2287.017797232298
 20
-1721.370375676776
 30
0.0
 10
2287.017797232298
 20
-1721.370375676776
 30
0.0
 10
2287.017797232298
 20
-1721.370375676776
 30
0.0
 10
2286.915305641585
 20
-1724.887043021611
 30
0.0
 10
2287.017797232298
 20
-1726.746361055466
 30
0.0
 10
2287.017797232298
 20
-1726.746361055466
 30
0.0
 10
2286.78025789853
 20
-1725.542989202167
 30
0.0
 10
2286.78025789853
 20
-1725.542989202167
 30
0.0
  0
SPLINE
  5
211C3
330
18
100
AcDbEntity
  8
姿図
370
     0
100
AcDbSpline
210
0.0
220
0.0
230
1.0
 70
     8
 71
     3
 72
     8
 73
     4
 74
     0
 42
0.0000000001
 43
0.0000000001
 40
1.096765595309555
 40
1.096765595309555
 40
1.096765595309555
 40
1.096765595309555
 40
1.744866559373208
 40
1.744866559373208
 40
1.744866559373208
 40
1.744866559373208
 10
2269.880150708445
 20
-1716.197148548657
 30
0.0
 10
2269.926276016835
 20
-1715.622182539641
 30
0.0
 10
2270.133280151216
 20
-1715.060108501961
 30
0.0
 10
2270.483121033005
 20
-1714.519483102572
 30
0.0
  0
LINE
  5
211C4
330
18
100
AcDbEntity
  8
姿図
370
     0
100
AcDbLine
 10
2269.340432754813
 20
-1731.624217077081
 30
0.0
 11
2269.880150708445
 21
-1716.197148548657
 31
0.0
  0
SPLINE
  5
211C5
330
18
100
AcDbEntity
  8
姿図
370
     0
100
AcDbSpline
210
0.0
220
0.0
230
1.0
 70
     8
 71
     3
 72
     8
 73
     4
 74
     0
 42
0.0000000001
 43
0.0000000001
 40
0.0473460729394893
 40
0.0473460729394893
 40
0.0473460729394893
 40
0.0473460729394893
 40
0.9040913982387943
 40
0.9040913982387943
 40
0.9040913982387943
 40
0.9040913982387943
 10
2272.973613342983
 20
-1729.801145514399
 30
0.0
 10
2273.314350485076
 20
-1728.740648305714
 30
0.0
 10
2273.681555623898
 20
-1727.712411352171
 30
0.0
 10
2274.073712217132
 20
-1726.723638229788
 30
0.0
  0
SPLINE
  5
211C6
330
18
100
AcDbEntity
  8
姿図
370
     0
100
AcDbSpline
210
0.0
220
0.0
230
1.0
 70
     8
 71
     3
 72
     8
 73
     4
 74
     0
 42
0.0000000001
 43
0.0000000001
 40
0.0
 40
0.0
 40
0.0
 40
0.0
 40
0.9575307246217787
 40
0.9575307246217787
 40
0.9575307246217787
 40
0.9575307246217787
 10
2280.201503558252
 20
-1722.567115721264
 30
0.0
 10
2280.68527034583
 20
-1722.425103036605
 30
0.0
 10
2281.180092540632
 20
-1722.294698529531
 30
0.0
 10
2281.687028731863
 20
-1722.174314316227
 30
0.0
  0
SPLINE
  5
211C7
330
18
100
AcDbEntity
  8
姿図
370
     0
100
AcDbSpline
210
0.0
220
0.0
230
1.0
 70
     8
 71
     3
 72
     8
 73
     4
 74
     0
 42
0.0000000001
 43
0.0000000001
 40
0.0
 40
0.0
 40
0.0
 40
0.0
 40
1.0
 40
1.0
 40
1.0
 40
1.0
 10
2283.416122156343
 20
-1721.833396510109
 30
0.0
 10
2284.023837000094
 20
-1721.700760333894
 30
0.0
 10
2284.77383428742
 20
-1721.588019584111
 30
0.0
 10
2285.429780467976
 20
-1721.511358435665
 30
0.0
  0
SPLINE
  5
211C8
330
18
100
AcDbEntity
  8
姿図
370
     0
100
AcDbSpline
210
0.0
220
0.0
230
1.0
 70
     8
 71
     3
 72
     8
 73
     4
 74
     0
 42
0.0000000001
 43
0.0000000001
 40
0.0
 40
0.0
 40
0.0
 40
0.0
 40
1.0
 40
1.0
 40
1.0
 40
1.0
 10
2287.016245088855
 20
-1721.359523625995
 30
0.0
 10
2287.699064864675
 20
-1721.302248913538
 30
0.0
 10
2288.459914202785
 20
-1721.265472519224
 30
0.0
 10
2289.153239669364
 20
-1721.216035398998
 30
0.0
  0
ELLIPSE
  5
211C9
330
18
100
AcDbEntity
  8
姿図
370
     0
100
AcDbEllipse
 10
2289.946042268106
 20
-1741.033085908981
 30
0.0
 11
18.03068237304687
 21
-0.0084404839409722
 31
0.0
210
0.0
220
0.0
230
1.0
 40
0.2579329166467375
 41
1.571017380755464
 42
4.712409412418404
  0
SPLINE
  5
211CA
330
18
100
AcDbEntity
  8
姿図
370
     0
100
AcDbSpline
210
0.0
220
0.0
230
1.0
 70
     8
 71
     3
 72
     8
 73
     4
 74
     0
 42
0.0000000001
 43
0.0000000001
 40
0.0232302051821877
 40
0.0232302051821877
 40
0.0232302051821877
 40
0.0232302051821877
 40
0.9990562148238973
 40
0.9990562148238973
 40
0.9990562148238973
 40
0.9990562148238973
 10
2270.578146082124
 20
-1711.139911534008
 30
0.0
 10
2273.781798484808
 20
-1708.286554470959
 30
0.0
 10
2281.218447032321
 20
-1706.395790681045
 30
0.0
 10
2289.944233592974
 20
-1706.392139329511
 30
0.0
  0
SPLINE
  5
211CB
330
18
100
AcDbEntity
  8
姿図
370
     0
100
AcDbSpline
210
0.0
220
0.0
230
1.0
 70
     8
 71
     3
 72
     8
 73
     4
 74
     0
 42
0.0000000001
 43
0.0000000001
 40
1.0
 40
1.0
 40
1.0
 40
1.000000000000071
 40
1.990668573714681
 40
1.990668573714681
 40
1.990668573714681
 40
1.990668573714681
 10
2269.814696083173
 20
-1717.915595452247
 30
0.0
 10
2269.866733864243
 20
-1714.491444657132
 30
0.0
 10
2278.827325509416
 20
-1711.730249133274
 30
0.0
 10
2289.944233592974
 20
-1711.679013321463
 30
0.0
  0
SPLINE
  5
211CC
330
18
100
AcDbEntity
  8
姿図
370
     0
100
AcDbSpline
210
0.0
220
0.0
230
1.0
 70
     8
 71
     3
 72
    11
 73
     7
 74
     0
 42
0.0000000001
 43
0.0000000001
 40
0.1529983471533442
 40
0.1529983471533442
 40
0.1529983471533442
 40
0.1529983471533442
 40
1.0
 40
1.0
 40
1.0
 40
2.0
 40
2.0
 40
2.0
 40
2.0
 10
2269.840515135256
 20
-1732.920282115352
 30
0.0
 10
2269.512815160395
 20
-1732.487271636327
 30
0.0
 10
2269.339806509643
 20
-1732.037754393356
 30
0.0
 10
2269.339806509643
 20
-1731.576126544831
 30
0.0
 10
2269.371275349808
 20
-1730.742625454272
 30
0.0
 10
2270.215205272663
 20
-1729.629916878358
 30
0.0
 10
2271.616325606865
 20
-1729.13079776879
 30
0.0
  0
SPLINE
  5
211CD
330
18
100
AcDbEntity
  8
姿図
370
     0
100
AcDbSpline
210
0.0
220
0.0
230
1.0
 70
     8
 71
     3
 72
     8
 73
     4
 74
     0
 42
0.0000000001
 43
0.0000000001
 40
0.0718835219517273
 40
0.0718835219517273
 40
0.0718835219517273
 40
0.0718835219517273
 40
0.9359235149740419
 40
0.9359235149740419
 40
0.9359235149740419
 40
0.9359235149740419
 10
2274.073712217109
 20
-1727.679939693787
 30
0.0
 10
2274.549702672635
 20
-1727.510216620546
 30
0.0
 10
2275.056105658679
 20
-1727.347439143778
 30
0.0
 10
2275.590587759643
 20
-1727.193940679083
 30
0.0
  0
SPLINE
  5
211CE
330
18
100
AcDbEntity
  8
姿図
370
     0
100
AcDbSpline
210
0.0
220
0.0
230
1.0
 70
     8
 71
     3
 72
     8
 73
     4
 74
     0
 42
0.0000000001
 43
0.0000000001
 40
0.1255278800300358
 40
0.1255278800300358
 40
0.1255278800300358
 40
0.1255278800300358
 40
0.9526328790304889
 40
0.9526328790304889
 40
0.9526328790304889
 40
0.9526328790304889
 10
2277.867106856864
 20
-1726.625187068765
 30
0.0
 10
2278.29269304773
 20
-1726.534264310418
 30
0.0
 10
2278.730445342834
 20
-1726.446333918056
 30
0.0
 10
2279.178999217975
 20
-1726.364807202168
 30
0.0
  0
SPLINE
  5
211CF
330
18
100
AcDbEntity
  8
姿図
370
     0
100
AcDbSpline
210
0.0
220
0.0
230
1.0
 70
     8
 71
     3
 72
     8
 73
     4
 74
     0
 42
0.0000000001
 43
0.0000000001
 40
0.0
 40
0.0
 40
0.0
 40
0.0
 40
0.9488391040319468
 40
0.9488391040319468
 40
0.9488391040319468
 40
0.9488391040319468
 10
2281.687028731863
 20
-1725.973093271832
 30
0.0
 10
2281.97076415795
 20
-1725.934536222317
 30
0.0
 10
2282.437959488076
 20
-1725.877199969437
 30
0.0
 10
2282.921750954089
 20
-1725.825083095248
 30
0.0
  0
SPLINE
  5
211D0
330
18
100
AcDbEntity
  8
姿図
370
     0
100
AcDbSpline
210
0.0
220
0.0
230
1.0
 70
     8
 71
     3
 72
     8
 73
     4
 74
     0
 42
0.0000000001
 43
0.0000000001
 40
0.0865555877311071
 40
0.0865555877311071
 40
0.0865555877311071
 40
0.0865555877311071
 40
1.0
 40
1.0
 40
1.0
 40
1.0
 10
2285.429780467976
 20
-1725.60606562822
 30
0.0
 10
2285.904982941957
 20
-1725.573934344147
 30
0.0
 10
2286.379342428109
 20
-1725.547394866677
 30
0.0
 10
2286.78025789853
 20
-1725.542989202167
 30
0.0
  0
SPLINE
  5
211D1
330
18
100
AcDbEntity
  8
姿図
370
     0
100
AcDbSpline
210
0.0
220
0.0
230
1.0
 70
     8
 71
     3
 72
     8
 73
     4
 74
     0
 42
0.0000000001
 43
0.0000000001
 40
0.0
 40
0.0
 40
0.0
 40
0.0
 40
0.8376687604042556
 40
0.8376687604042556
 40
0.8376687604042556
 40
0.8376687604042556
 10
2289.326872481863
 20
-1725.45642624158
 30
0.0
 10
2289.479993082428
 20
-1725.454348438027
 30
0.0
 10
2289.71197599169
 20
-1725.453010466529
 30
0.0
 10
2289.944233592974
 20
-1725.452655925945
 30
0.0
  0
SPLINE
  5
211D2
330
18
100
AcDbEntity
  8
姿図
370
     0
100
AcDbSpline
210
0.0
220
0.0
230
1.0
 70
     8
 71
     3
 72
     8
 73
     4
 74
     0
 42
0.0000000001
 43
0.0000000001
 40
0.0
 40
0.0
 40
0.0
 40
0.0
 40
1.0
 40
1.0
 40
1.0
 40
1.0
 10
2271.616325606865
 20
-1722.436531181743
 30
0.0
 10
2272.096227408079
 20
-1722.117358505552
 30
0.0
 10
2273.084969812593
 20
-1721.641074054597
 30
0.0
 10
2274.073712217107
 20
-1721.274265420865
 30
0.0
  0
SPLINE
  5
211D3
330
18
100
AcDbEntity
  8
姿図
370
     0
100
AcDbSpline
210
0.0
220
0.0
230
1.0
 70
     8
 71
     3
 72
     8
 73
     4
 74
     0
 42
0.0000000001
 43
0.0000000001
 40
0.0
 40
0.0
 40
0.0
 40
0.0
 40
1.0
 40
1.0
 40
1.0
 40
1.0
 10
2275.590587759642
 20
-1720.753500438881
 30
0.0
 10
2276.246533940197
 20
-1720.54682560082
 30
0.0
 10
2277.114698002697
 20
-1720.314712292445
 30
0.0
 10
2277.867106856864
 20
-1720.144700062442
 30
0.0
  0
SPLINE
  5
211D4
330
18
100
AcDbEntity
  8
姿図
370
     0
100
AcDbSpline
210
0.0
220
0.0
230
1.0
 70
     8
 71
     3
 72
     8
 73
     4
 74
     0
 42
0.0000000001
 43
0.0000000001
 40
0.0
 40
0.0
 40
0.0
 40
0.0
 40
1.0
 40
1.0
 40
1.0
 40
1.0
 10
2279.178999217975
 20
-1719.864936141471
 30
0.0
 10
2279.895234569538
 20
-1719.720863958025
 30
0.0
 10
2280.847803471446
 20
-1719.559891871437
 30
0.0
 10
2281.687028731863
 20
-1719.445418650365
 30
0.0
  0
SPLINE
  5
211D5
330
18
100
AcDbEntity
  8
姿図
370
     0
100
AcDbSpline
210
0.0
220
0.0
230
1.0
 70
     8
 71
     3
 72
     8
 73
     4
 74
     0
 42
0.0000000001
 43
0.0000000001
 40
0.0
 40
0.0
 40
0.0
 40
0.0
 40
1.0
 40
1.0
 40
1.0
 40
1.0
 10
2282.921750954085
 20
-1719.287440015368
 30
0.0
 10
2283.724802711899
 20
-1719.191525036585
 30
0.0
 10
2284.712339332991
 20
-1719.099282604944
 30
0.0
 10
2285.429780467976
 20
-1719.052330255358
 30
0.0
  0
SPLINE
  5
211D6
330
18
100
AcDbEntity
  8
姿図
370
     0
100
AcDbSpline
210
0.0
220
0.0
230
1.0
 70
     8
 71
     3
 72
     8
 73
     4
 74
     0
 42
0.0000000001
 43
0.0000000001
 40
0.0
 40
0.0
 40
0.0
 40
0.0
 40
1.0
 40
1.0
 40
1.0
 40
1.0
 10
2286.78025789853
 20
-1718.971142726137
 30
0.0
 10
2287.508551084295
 20
-1718.931678709545
 30
0.0
 10
2288.486441438026
 20
-1718.902137015751
 30
0.0
 10
2289.326872481863
 20
-1718.896719037801
 30
0.0
  0
LINE
  5
211D7
330
18
100
AcDbEntity
  8
姿図
370
     0
100
AcDbLine
 10
2271.616325606865
 20
-1722.436531181743
 30
0.0
 11
2271.616325606865
 21
-1729.13079776879
 31
0.0
  0
LINE
  5
211D8
330
18
100
AcDbEntity
  8
姿図
370
     0
100
AcDbLine
 10
2289.326872481863
 20
-1718.896719037801
 30
0.0
 11
2289.326872481863
 21
-1725.465819063278
 31
0.0
  0
LINE
  5
211D9
330
18
100
AcDbEntity
  8
姿図
370
     0
100
AcDbLine
 10
2286.78025789853
 20
-1718.971142726137
 30
0.0
 11
2286.78025789853
 21
-1725.542989202167
 31
0.0
  0
LINE
  5
211DA
330
18
100
AcDbEntity
  8
姿図
370
     0
100
AcDbLine
 10
2285.429780467976
 20
-1719.052330255358
 30
0.0
 11
2285.429780467976
 21
-1725.60606562822
 31
0.0
  0
LINE
  5
211DB
330
18
100
AcDbEntity
  8
姿図
370
     0
100
AcDbLine
 10
2282.921750954085
 20
-1719.287440015368
 30
0.0
 11
2282.921750954085
 21
-1725.825083095224
 31
0.0
  0
LINE
  5
211DC
330
18
100
AcDbEntity
  8
姿図
370
     0
100
AcDbLine
 10
2281.687028731863
 20
-1719.445418650365
 30
0.0
 11
2281.687028731863
 21
-1725.973093271831
 31
0.0
  0
LINE
  5
211DD
330
18
100
AcDbEntity
  8
姿図
370
     0
100
AcDbLine
 10
2279.178999217975
 20
-1719.864936141471
 30
0.0
 11
2279.178999217975
 21
-1726.364807202168
 31
0.0
  0
LINE
  5
211DE
330
18
100
AcDbEntity
  8
姿図
370
     0
100
AcDbLine
 10
2277.867106856864
 20
-1720.144700062442
 30
0.0
 11
2277.867106856864
 21
-1726.625187068765
 31
0.0
  0
LINE
  5
211DF
330
18
100
AcDbEntity
  8
姿図
370
     0
100
AcDbLine
 10
2275.590587759642
 20
-1720.753500438881
 30
0.0
 11
2275.590587759642
 21
-1727.193940679077
 31
0.0
  0
LINE
  5
211E0
330
18
100
AcDbEntity
  8
姿図
370
     0
100
AcDbLine
 10
2274.073712217107
 20
-1721.274265420865
 30
0.0
 11
2274.073712217107
 21
-1727.679939693779
 31
0.0
  0
LINE
  5
211E1
330
18
100
AcDbEntity
  8
姿図
370
     0
100
AcDbLine
 10
2266.54600632518
 20
-1739.680196924755
 30
0.0
 11
2266.46271821323
 21
-1740.571707407242
 31
0.0
  0
SPLINE
  5
211E2
330
18
100
AcDbEntity
  8
姿図
370
     0
100
AcDbSpline
210
0.0
220
0.0
230
1.0
 70
     8
 71
     3
 72
     8
 73
     4
 74
     0
 42
0.0000000001
 43
0.0000000001
 40
0.0
 40
0.0
 40
0.0
 40
0.0
 40
0.9999361422886213
 40
0.9999361422886213
 40
0.9999361422886213
 40
0.9999361422886213
 10
2266.54600632518
 20
-1739.680196924755
 30
0.0
 10
2267.087971361676
 20
-1736.283721935195
 30
0.0
 10
2277.356954622601
 20
-1733.580483866686
 30
0.0
 10
2289.944233592974
 20
-1733.587371949979
 30
0.0
  0
LINE
  5
211E3
330
18
100
AcDbEntity
  8
姿図
370
     0
100
AcDbLine
 10
2269.145258325114
 20
-1737.024573141582
 30
0.0
 11
2269.188879316911
 21
-1734.347611840388
 31
0.0
  0
ELLIPSE
  5
211E6
330
18
100
AcDbEntity
  8
姿図
370
     0
100
AcDbEllipse
 10
2289.960813115002
 20
-1740.843777925189
 30
0.0
 11
23.51790127224392
 21
-0.01085205078125
 31
0.0
210
0.0
220
0.0
230
1.0
 40
0.2715305715501497
 41
1.571626595898409
 42
4.711809300268824
  0
SPLINE
  5
211E7
330
18
100
AcDbEntity
  8
姿図
370
     0
100
AcDbSpline
210
0.0
220
0.0
230
1.0
 70
     8
 71
     3
 72
    11
 73
     7
 74
     0
 42
0.0000000001
 43
0.0000000001
 40
0.9413684295130511
 40
0.9413684295130511
 40
0.9413684295130511
 40
0.9413684295130511
 40
1.0
 40
1.0
 40
1.0
 40
1.99748518372597
 40
1.99748518372597
 40
1.99748518372597
 40
1.99748518372597
 10
2269.186192720346
 20
-1734.512484639999
 30
0.0
 10
2269.185708718735
 20
-1734.495126830666
 30
0.0
 10
2269.185466231864
 20
-1734.477751954969
 30
0.0
 10
2269.185466231864
 20
-1734.460360498974
 30
0.0
 10
2269.185466231864
 20
-1731.062588651726
 30
0.0
 10
2278.471348555016
 20
-1728.305470701192
 30
0.0
 10
2289.944233592974
 20
-1728.29162489954
 30
0.0
  0
ARC
  5
211E8
330
18
100
AcDbEntity
  8
姿図
370
     0
100
AcDbCircle
 10
2278.415883631786
 20
-1725.186005693168
 30
0.0
 40
1.926696902627027
100
AcDbArc
 50
106.5485536225689
 51
119.2649003105408
  0
LINE
  5
211E9
330
18
100
AcDbEntity
  8
姿図
370
     0
100
AcDbLine
 10
2308.272141579086
 20
-1729.130797768792
 30
0.0
 11
2307.153174565196
 21
-1728.981931370287
 31
0.0
  0
LINE
  5
211EA
330
18
100
AcDbEntity
  8
姿図
370
     0
100
AcDbLine
 10
2307.153174565197
 20
-1722.404143343897
 30
0.0
 11
2305.860574738808
 21
-1723.699346352775
 31
0.0
  0
POLYLINE
  5
211EB
330
18
100
AcDbEntity
  8
姿図
370
     0
100
AcDb2dPolyline
 66
     1
 10
0.0
 20
0.0
 30
0.0
  0
VERTEX
  5
211EC
330
211EB
100
AcDbEntity
  8
姿図
370
     0
100
AcDbVertex
100
AcDb2dVertex
 10
2308.272141579086
 20
-1722.436531181744
 30
0.0
  0
VERTEX
  5
211ED
330
211EB
100
AcDbEntity
  8
姿図
370
     0
100
AcDbVertex
100
AcDb2dVertex
 10
2307.153174565197
 20
-1722.404143343897
 30
0.0
  0
VERTEX
  5
211EE
330
211EB
100
AcDbEntity
  8
姿図
370
     0
100
AcDbVertex
100
AcDb2dVertex
 10
2307.153174565196
 20
-1728.981931370287
 30
0.0
  0
VERTEX
  5
211EF
330
211EB
100
AcDbEntity
  8
姿図
370
     0
100
AcDbVertex
100
AcDb2dVertex
 10
2306.914853842894
 20
-1729.80114551464
 30
0.0
  0
SEQEND
  5
211F0
330
211EB
100
AcDbEntity
  8
姿図
370
     0
  0
LINE
  5
211F1
330
18
100
AcDbEntity
  8
姿図
370
     0
100
AcDbLine
 10
2305.814754968842
 20
-1727.67993969378
 30
0.0
 11
2306.009076036907
 21
-1729.244957871341
 31
0.0
  0
SPLINE
  5
211F2
330
18
100
AcDbEntity
  8
姿図
370
     0
100
AcDbSpline
210
0.0
220
0.0
230
1.0
 70
     8
 71
     3
 72
    14
 73
    10
 74
     0
 42
0.0000000001
 43
0.0000000001
 40
0.0
 40
0.0
 40
0.0
 40
0.0
 40
1.0
 40
1.0
 40
1.0
 40
2.0
 40
2.0
 40
2.0
 40
3.0
 40
3.0
 40
3.0
 40
3.0
 10
2304.297879426307
 20
-1720.753500438882
 30
0.0
 10
2304.297879426307
 20
-1720.753500438882
 30
0.0
 10
2302.414445724049
 20
-1723.505215222132
 30
0.0
 10
2302.414445724049
 20
-1723.505215222132
 30
0.0
 10
2302.414445724049
 20
-1723.505215222132
 30
0.0
 10
2303.803508224049
 20
-1724.272093477341
 30
0.0
 10
2303.714411487552
 20
-1728.340739579942
 30
0.0
 10
2303.714411487552
 20
-1728.340739579942
 30
0.0
 10
2304.297879426307
 20
-1727.193940679078
 30
0.0
 10
2304.297879426307
 20
-1727.193940679078
 30
0.0
  0
SPLINE
  5
211F3
330
18
100
AcDbEntity
  8
姿図
370
     0
100
AcDbSpline
210
0.0
220
0.0
230
1.0
 70
     8
 71
     3
 72
    14
 73
    10
 74
     0
 42
0.0000000001
 43
0.0000000001
 40
0.0
 40
0.0
 40
0.0
 40
0.0
 40
1.0
 40
1.0
 40
1.0
 40
2.0
 40
2.0
 40
2.0
 40
3.0
 40
3.0
 40
3.0
 40
3.0
 10
2300.709467967974
 20
-1719.864936141472
 30
0.0
 10
2300.709467967974
 20
-1719.864936141472
 30
0.0
 10
2299.686963627695
 20
-1722.567115721264
 30
0.0
 10
2299.686963627695
 20
-1722.567115721264
 30
0.0
 10
2299.686963627695
 20
-1722.567115721264
 30
0.0
 10
2300.491221168928
 20
-1723.039782821959
 30
0.0
 10
2300.397768522133
 20
-1727.543806745317
 30
0.0
 10
2300.397768522133
 20
-1727.543806745317
 30
0.0
 10
2300.709467967974
 20
-1726.364807202169
 30
0.0
 10
2300.709467967974
 20
-1726.364807202169
 30
0.0
  0
LINE
  5
211F4
330
18
100
AcDbEntity
  8
姿図
370
     0
100
AcDbLine
 10
2302.021360329085
 20
-1726.625187068766
 30
0.0
 11
2302.131086620317
 21
-1727.929837482332
 31
0.0
  0
LINE
  5
211F5
330
18
100
AcDbEntity
  8
姿図
370
     0
100
AcDbLine
 10
2298.201438454084
 20
-1725.973093271833
 30
0.0
 11
2298.246055684844
 21
-1727.201592402445
 31
0.0
  0
SPLINE
  5
211F6
330
18
100
AcDbEntity
  8
姿図
370
     0
100
AcDbSpline
210
0.0
220
0.0
230
1.0
 70
     8
 71
     3
 72
    17
 73
    13
 74
     0
 42
0.0000000001
 43
0.0000000001
 40
0.0
 40
0.0
 40
0.0
 40
0.0
 40
1.0
 40
1.0
 40
1.0
 40
2.0
 40
2.0
 40
2.0
 40
3.0
 40
3.0
 40
3.0
 40
4.0
 40
4.0
 40
4.0
 40
4.0
 10
2296.966716231864
 20
-1719.287440015369
 30
0.0
 10
2296.966716231864
 20
-1719.287440015369
 30
0.0
 10
2296.472345029606
 20
-1721.83339651011
 30
0.0
 10
2296.472345029606
 20
-1721.83339651011
 30
0.0
 10
2296.472345029606
 20
-1721.83339651011
 30
0.0
 10
2296.838903189328
 20
-1722.159560925257
 30
0.0
 10
2296.76173305044
 20
-1726.307455890535
 30
0.0
 10
2296.76173305044
 20
-1726.307455890535
 30
0.0
 10
2296.74192627475
 20
-1727.020295911804
 30
0.0
 10
2296.74192627475
 20
-1727.020295911804
 30
0.0
 10
2296.74192627475
 20
-1727.020295911804
 30
0.0
 10
2296.966716231862
 20
-1725.825083750635
 30
0.0
 10
2296.966716231862
 20
-1725.825083750635
 30
0.0
  0
LINE
  5
211F7
330
18
100
AcDbEntity
  8
姿図
370
     0
100
AcDbLine
 10
2294.458686717973
 20
-1725.60606562822
 30
0.0
 11
2294.491974293583
 21
-1726.82561693691
 31
0.0
  0
POLYLINE
  5
211F8
330
18
100
AcDbEntity
  8
姿図
370
     0
100
AcDb2dPolyline
 66
     1
 10
0.0
 20
0.0
 30
0.0
  0
VERTEX
  5
211F9
330
211F8
100
AcDbEntity
  8
姿図
370
     0
100
AcDbVertex
100
AcDb2dVertex
 10
2290.561594704084
 20
-1725.45642624158
 30
0.0
  0
VERTEX
  5
211FA
330
211F8
100
AcDbEntity
  8
姿図
370
     0
100
AcDbVertex
100
AcDb2dVertex
 10
2290.70441890119
 20
-1726.678398646149
 30
0.0
  0
VERTEX
  5
211FB
330
211F8
100
AcDbEntity
  8
姿図
370
     0
100
AcDbVertex
100
AcDb2dVertex
 10
2290.735227516585
 20
-1721.216035398998
 30
0.0
  0
VERTEX
  5
211FC
330
211F8
100
AcDbEntity
  8
姿図
370
     0
100
AcDbVertex
100
AcDb2dVertex
 10
2290.561594704084
 20
-1718.896719037801
 30
0.0
  0
SEQEND
  5
211FD
330
211F8
100
AcDbEntity
  8
姿図
370
     0
  0
SPLINE
  5
211FE
330
18
100
AcDbEntity
  8
姿図
370
     0
100
AcDbSpline
210
0.0
220
0.0
230
1.0
 70
     8
 71
     3
 72
     8
 73
     4
 74
     0
 42
0.0000000001
 43
0.0000000001
 40
0.0
 40
0.0
 40
0.0
 40
0.0
 40
1.0
 40
1.0
 40
1.0
 40
1.0
 10
2302.131086620317
 20
-1727.929837482332
 30
0.0
 10
2301.606570832557
 20
-1727.782731905076
 30
0.0
 10
2300.94941886858
 20
-1727.645272595179
 30
0.0
 10
2300.400101519787
 20
-1727.544244500446
 30
0.0
  0
SPLINE
  5
211FF
330
18
100
AcDbEntity
  8
姿図
370
     0
100
AcDbSpline
210
0.0
220
0.0
230
1.0
 70
     8
 71
     3
 72
     8
 73
     4
 74
     0
 42
0.0000000001
 43
0.0000000001
 40
0.0850857552395827
 40
0.0850857552395827
 40
0.0850857552395827
 40
0.0850857552395827
 40
0.8955348276784185
 40
0.8955348276784185
 40
0.8955348276784185
 40
0.8955348276784185
 10
2298.246055684844
 20
-1727.201592402445
 30
0.0
 10
2297.75837238267
 20
-1727.135334951639
 30
0.0
 10
2297.256567999875
 20
-1727.074688831711
 30
0.0
 10
2296.741926274741
 20
-1727.020295911802
 30
0.0
  0
SPLINE
  5
21200
330
18
100
AcDbEntity
  8
姿図
370
     0
100
AcDbSpline
210
0.0
220
0.0
230
1.0
 70
     8
 71
     3
 72
     8
 73
     4
 74
     0
 42
0.0000000001
 43
0.0000000001
 40
0.0873178755174612
 40
0.0873178755174612
 40
0.0873178755174612
 40
0.0873178755174612
 40
0.942855272765804
 40
0.942855272765804
 40
0.942855272765804
 40
0.942855272765804
 10
2294.491974293583
 20
-1726.82561693691
 30
0.0
 10
2293.96165267018
 20
-1726.789740666685
 30
0.0
 10
2293.420894379668
 20
-1726.760042360045
 30
0.0
 10
2292.87066995365
 20
-1726.746361055466
 30
0.0
  0
SPLINE
  5
21201
330
18
100
AcDbEntity
  8
姿図
370
     0
100
AcDbSpline
210
0.0
220
0.0
230
1.0
 70
     8
 71
     3
 72
     8
 73
     4
 74
     0
 42
0.0000000001
 43
0.0000000001
 40
0.1605767127388613
 40
0.1605767127388613
 40
0.1605767127388613
 40
0.1605767127388613
 40
0.9869778418494609
 40
0.9869778418494609
 40
0.9869778418494609
 40
0.9869778418494609
 10
2290.70441890119
 20
-1726.678398646149
 30
0.0
 10
2290.452670751079
 20
-1726.675754974225
 30
0.0
 10
2290.19927564834
 20
-1726.674067009733
 30
0.0
 10
2289.944233592973
 20
-1726.67401527443
 30
0.0
  0
SPLINE
  5
21202
330
18
100
AcDbEntity
  8
姿図
370
     0
100
AcDbSpline
210
0.0
220
0.0
230
1.0
 70
     8
 71
     3
 72
    11
 73
     7
 74
     0
 42
0.0000000001
 43
0.0000000001
 40
0.840844221862104
 40
0.840844221862104
 40
0.840844221862104
 40
0.840844221862104
 40
1.0
 40
1.0
 40
1.0
 40
1.457536746542017
 40
1.457536746542017
 40
1.457536746542017
 40
1.457536746542017
 10
2307.899940481179
 20
-1731.368914665762
 30
0.0
 10
2307.90048539714
 20
-1731.354432431673
 30
0.0
 10
2307.900760285682
 20
-1731.33990855573
 30
0.0
 10
2307.900760285682
 20
-1731.325323593444
 30
0.0
 10
2307.900760285682
 20
-1730.791287457498
 30
0.0
 10
2307.553684779748
 20
-1730.278454479733
 30
0.0
 10
2306.914853842894
 20
-1729.80114551464
 30
0.0
  0
SPLINE
  5
21203
330
18
100
AcDbEntity
  8
姿図
370
     0
100
AcDbSpline
210
0.0
220
0.0
230
1.0
 70
     8
 71
     3
 72
     8
 73
     4
 74
     0
 42
0.0000000001
 43
0.0000000001
 40
1.641024445931122
 40
1.641024445931122
 40
1.641024445931122
 40
1.641024445931122
 40
1.974180383622867
 40
1.974180383622867
 40
1.974180383622867
 40
1.974180383622867
 10
2306.009076036907
 20
-1729.244957871341
 30
0.0
 10
2305.379995990772
 20
-1728.919828808209
 30
0.0
 10
2304.607988688873
 20
-1728.616579765924
 30
0.0
 10
2303.714411487614
 20
-1728.340739579961
 30
0.0
  0
SPLINE
  5
21204
330
18
100
AcDbEntity
  8
姿図
370
     0
100
AcDbSpline
210
0.0
220
0.0
230
1.0
 70
     8
 71
     3
 72
    14
 73
    10
 74
     0
 42
0.0000000001
 43
0.0000000001
 40
0.0
 40
0.0
 40
0.0
 40
0.0
 40
1.0
 40
1.0
 40
1.0
 40
2.0
 40
2.0
 40
2.0
 40
3.0
 40
3.0
 40
3.0
 40
3.0
 10
2293.108209287419
 20
-1718.971142726138
 30
0.0
 10
2293.108209287419
 20
-1718.971142726138
 30
0.0
 10
2292.87066995365
 20
-1721.370375676776
 30
0.0
 10
2292.87066995365
 20
-1721.370375676776
 30
0.0
 10
2292.87066995365
 20
-1721.370375676776
 30
0.0
 10
2292.973161544361
 20
-1724.887043021611
 30
0.0
 10
2292.87066995365
 20
-1726.746361055466
 30
0.0
 10
2292.87066995365
 20
-1726.746361055466
 30
0.0
 10
2293.108209287419
 20
-1725.542989202167
 30
0.0
 10
2293.108209287419
 20
-1725.542989202167
 30
0.0
  0
LINE
  5
21205
330
18
100
AcDbEntity
  8
姿図
370
     0
100
AcDbLine
 10
2310.548034431136
 20
-1731.624217077083
 30
0.0
 11
2310.008316477506
 21
-1716.197148548659
 31
0.0
  0
SPLINE
  5
21206
330
18
100
AcDbEntity
  8
姿図
370
     0
100
AcDbSpline
210
0.0
220
0.0
230
1.0
 70
     8
 71
     3
 72
     8
 73
     4
 74
     0
 42
0.0000000001
 43
0.0000000001
 40
0.0473460729394893
 40
0.0473460729394893
 40
0.0473460729394893
 40
0.0473460729394893
 40
0.9040913982387943
 40
0.9040913982387943
 40
0.9040913982387943
 40
0.9040913982387943
 10
2306.914853842966
 20
-1729.801145514401
 30
0.0
 10
2306.574116700873
 20
-1728.740648305716
 30
0.0
 10
2306.206911562051
 20
-1727.712411352172
 30
0.0
 10
2305.814754968818
 20
-1726.723638229788
 30
0.0
  0
SPLINE
  5
21207
330
18
100
AcDbEntity
  8
姿図
370
     0
100
AcDbSpline
210
0.0
220
0.0
230
1.0
 70
     8
 71
     3
 72
     8
 73
     4
 74
     0
 42
0.0000000001
 43
0.0000000001
 40
0.0
 40
0.0
 40
0.0
 40
0.0
 40
0.9575307246217787
 40
0.9575307246217787
 40
0.9575307246217787
 40
0.9575307246217787
 10
2299.686963627695
 20
-1722.567115721264
 30
0.0
 10
2299.203196840119
 20
-1722.425103036606
 30
0.0
 10
2298.708374645319
 20
-1722.294698529531
 30
0.0
 10
2298.201438454084
 20
-1722.174314316228
 30
0.0
  0
SPLINE
  5
21208
330
18
100
AcDbEntity
  8
姿図
370
     0
100
AcDbSpline
210
0.0
220
0.0
230
1.0
 70
     8
 71
     3
 72
     8
 73
     4
 74
     0
 42
0.0000000001
 43
0.0000000001
 40
0.0
 40
0.0
 40
0.0
 40
0.0
 40
1.0
 40
1.0
 40
1.0
 40
1.0
 10
2296.472345029606
 20
-1721.83339651011
 30
0.0
 10
2295.864630185855
 20
-1721.700760333894
 30
0.0
 10
2295.114632898529
 20
-1721.588019584111
 30
0.0
 10
2294.458686717973
 20
-1721.511358435666
 30
0.0
  0
SPLINE
  5
21209
330
18
100
AcDbEntity
  8
姿図
370
     0
100
AcDbSpline
210
0.0
220
0.0
230
1.0
 70
     8
 71
     3
 72
     8
 73
     4
 74
     0
 42
0.0000000001
 43
0.0000000001
 40
0.0
 40
0.0
 40
0.0
 40
0.0
 40
1.0
 40
1.0
 40
1.0
 40
1.0
 10
2292.872222097094
 20
-1721.359523625995
 30
0.0
 10
2292.189402321272
 20
-1721.302248913538
 30
0.0
 10
2291.428552983165
 20
-1721.265472519224
 30
0.0
 10
2290.735227516585
 20
-1721.216035398998
 30
0.0
  0
ELLIPSE
  5
2120A
330
18
100
AcDbEntity
  8
姿図
370
     0
100
AcDbEllipse
 10
2289.942424917843
 20
-1741.033085908981
 30
0.0
 11
-18.03068237304687
 21
-0.0084404839396152
 31
0.0
210
0.0
220
0.0
230
-1.0
 40
0.2579329166467375
 41
1.571017380755464
 42
4.712409412418404
  0
SPLINE
  5
2120B
330
18
100
AcDbEntity
  8
姿図
370
     0
100
AcDbSpline
210
0.0
220
0.0
230
1.0
 70
     8
 71
     3
 72
     8
 73
     4
 74
     0
 42
0.0000000001
 43
0.0000000001
 40
1.0
 40
1.0
 40
1.0
 40
1.000000000000071
 40
1.990668573714681
 40
1.990668573714681
 40
1.990668573714681
 40
1.990668573714681
 10
2310.073771102776
 20
-1717.915595452248
 30
0.0
 10
2310.021733321706
 20
-1714.491444657133
 30
0.0
 10
2301.061141676533
 20
-1711.730249133275
 30
0.0
 10
2289.944233592974
 20
-1711.679013321463
 30
0.0
  0
SPLINE
  5
2120C
330
18
100
AcDbEntity
  8
姿図
370
     0
100
AcDbSpline
210
0.0
220
0.0
230
1.0
 70
     8
 71
     3
 72
    11
 73
     7
 74
     0
 42
0.0000000001
 43
0.0000000001
 40
0.1529983471533442
 40
0.1529983471533442
 40
0.1529983471533442
 40
0.1529983471533442
 40
1.0
 40
1.0
 40
1.0
 40
2.0
 40
2.0
 40
2.0
 40
2.0
 10
2310.047952050692
 20
-1732.920282115354
 30
0.0
 10
2310.375652025555
 20
-1732.487271636329
 30
0.0
 10
2310.548660676306
 20
-1732.037754393358
 30
0.0
 10
2310.548660676306
 20
-1731.576126544833
 30
0.0
 10
2310.517191836141
 20
-1730.742625454273
 30
0.0
 10
2309.673261913285
 20
-1729.629916878359
 30
0.0
 10
2308.272141579086
 20
-1729.130797768792
 30
0.0
  0
SPLINE
  5
2120D
330
18
100
AcDbEntity
  8
姿図
370
     0
100
AcDbSpline
210
0.0
220
0.0
230
1.0
 70
     8
 71
     3
 72
     8
 73
     4
 74
     0
 42
0.0000000001
 43
0.0000000001
 40
0.0718835219517273
 40
0.0718835219517273
 40
0.0718835219517273
 40
0.0718835219517273
 40
0.9359235149740419
 40
0.9359235149740419
 40
0.9359235149740419
 40
0.9359235149740419
 10
2305.814754968838
 20
-1727.679939693788
 30
0.0
 10
2305.338764513313
 20
-1727.510216620547
 30
0.0
 10
2304.832361527269
 20
-1727.347439143779
 30
0.0
 10
2304.297879426306
 20
-1727.193940679084
 30
0.0
  0
SPLINE
  5
2120E
330
18
100
AcDbEntity
  8
姿図
370
     0
100
AcDbSpline
210
0.0
220
0.0
230
1.0
 70
     8
 71
     3
 72
     8
 73
     4
 74
     0
 42
0.0000000001
 43
0.0000000001
 40
0.1255278800300358
 40
0.1255278800300358
 40
0.1255278800300358
 40
0.1255278800300358
 40
0.9526328790304889
 40
0.9526328790304889
 40
0.9526328790304889
 40
0.9526328790304889
 10
2302.021360329085
 20
-1726.625187068766
 30
0.0
 10
2301.595774138217
 20
-1726.534264310419
 30
0.0
 10
2301.158021843116
 20
-1726.446333918057
 30
0.0
 10
2300.709467967974
 20
-1726.364807202169
 30
0.0
  0
SPLINE
  5
2120F
330
18
100
AcDbEntity
  8
姿図
370
     0
100
AcDbSpline
210
0.0
220
0.0
230
1.0
 70
     8
 71
     3
 72
     8
 73
     4
 74
     0
 42
0.0000000001
 43
0.0000000001
 40
0.0
 40
0.0
 40
0.0
 40
0.0
 40
0.9488391040319468
 40
0.9488391040319468
 40
0.9488391040319468
 40
0.9488391040319468
 10
2298.201438454084
 20
-1725.973093271833
 30
0.0
 10
2297.917703027999
 20
-1725.934536222317
 30
0.0
 10
2297.450507697873
 20
-1725.877199969438
 30
0.0
 10
2296.96671623186
 20
-1725.825083095248
 30
0.0
  0
SPLINE
  5
21210
330
18
100
AcDbEntity
  8
姿図
370
     0
100
AcDbSpline
210
0.0
220
0.0
230
1.0
 70
     8
 71
     3
 72
     8
 73
     4
 74
     0
 42
0.0000000001
 43
0.0000000001
 40
0.0865555877311071
 40
0.0865555877311071
 40
0.0865555877311071
 40
0.0865555877311071
 40
1.0
 40
1.0
 40
1.0
 40
1.0
 10
2294.458686717973
 20
-1725.60606562822
 30
0.0
 10
2293.983484243992
 20
-1725.573934344147
 30
0.0
 10
2293.50912475784
 20
-1725.547394866677
 30
0.0
 10
2293.108209287419
 20
-1725.542989202167
 30
0.0
  0
SPLINE
  5
21211
330
18
100
AcDbEntity
  8
姿図
370
     0
100
AcDbSpline
210
0.0
220
0.0
230
1.0
 70
     8
 71
     3
 72
     8
 73
     4
 74
     0
 42
0.0000000001
 43
0.0000000001
 40
0.0
 40
0.0
 40
0.0
 40
0.0
 40
0.8376687604042556
 40
0.8376687604042556
 40
0.8376687604042556
 40
0.8376687604042556
 10
2290.561594704084
 20
-1725.45642624158
 30
0.0
 10
2290.40847410352
 20
-1725.454348438027
 30
0.0
 10
2290.176491194259
 20
-1725.453010466529
 30
0.0
 10
2289.944233592973
 20
-1725.452655925945
 30
0.0
  0
SPLINE
  5
21212
330
18
100
AcDbEntity
  8
姿図
370
     0
100
AcDbSpline
210
0.0
220
0.0
230
1.0
 70
     8
 71
     3
 72
     8
 73
     4
 74
     0
 42
0.0000000001
 43
0.0000000001
 40
0.0
 40
0.0
 40
0.0
 40
0.0
 40
1.0
 40
1.0
 40
1.0
 40
1.0
 10
2308.272141579086
 20
-1722.436531181744
 30
0.0
 10
2307.792239777869
 20
-1722.117358505553
 30
0.0
 10
2306.803497373356
 20
-1721.641074054598
 30
0.0
 10
2305.814754968842
 20
-1721.274265420866
 30
0.0
  0
SPLINE
  5
21213
330
18
100
AcDbEntity
  8
姿図
370
     0
100
AcDbSpline
210
0.0
220
0.0
230
1.0
 70
     8
 71
     3
 72
     8
 73
     4
 74
     0
 42
0.0000000001
 43
0.0000000001
 40
0.0
 40
0.0
 40
0.0
 40
0.0
 40
1.0
 40
1.0
 40
1.0
 40
1.0
 10
2304.297879426307
 20
-1720.753500438882
 30
0.0
 10
2303.64193324575
 20
-1720.546825600822
 30
0.0
 10
2302.77376918325
 20
-1720.314712292445
 30
0.0
 10
2302.021360329085
 20
-1720.144700062443
 30
0.0
  0
SPLINE
  5
21214
330
18
100
AcDbEntity
  8
姿図
370
     0
100
AcDbSpline
210
0.0
220
0.0
230
1.0
 70
     8
 71
     3
 72
     8
 73
     4
 74
     0
 42
0.0000000001
 43
0.0000000001
 40
0.0
 40
0.0
 40
0.0
 40
0.0
 40
1.0
 40
1.0
 40
1.0
 40
1.0
 10
2300.709467967974
 20
-1719.864936141472
 30
0.0
 10
2299.993232616411
 20
-1719.720863958027
 30
0.0
 10
2299.040663714503
 20
-1719.559891871438
 30
0.0
 10
2298.201438454086
 20
-1719.445418650365
 30
0.0
  0
SPLINE
  5
21215
330
18
100
AcDbEntity
  8
姿図
370
     0
100
AcDbSpline
210
0.0
220
0.0
230
1.0
 70
     8
 71
     3
 72
     8
 73
     4
 74
     0
 42
0.0000000001
 43
0.0000000001
 40
0.0
 40
0.0
 40
0.0
 40
0.0
 40
1.0
 40
1.0
 40
1.0
 40
1.0
 10
2296.966716231864
 20
-1719.287440015369
 30
0.0
 10
2296.16366447405
 20
-1719.191525036585
 30
0.0
 10
2295.176127852958
 20
-1719.099282604944
 30
0.0
 10
2294.458686717973
 20
-1719.052330255359
 30
0.0
  0
SPLINE
  5
21216
330
18
100
AcDbEntity
  8
姿図
370
     0
100
AcDbSpline
210
0.0
220
0.0
230
1.0
 70
     8
 71
     3
 72
     8
 73
     4
 74
     0
 42
0.0000000001
 43
0.0000000001
 40
0.0
 40
0.0
 40
0.0
 40
0.0
 40
1.0
 40
1.0
 40
1.0
 40
1.0
 10
2293.108209287419
 20
-1718.971142726138
 30
0.0
 10
2292.379916101656
 20
-1718.931678709545
 30
0.0
 10
2291.402025747922
 20
-1718.902137015751
 30
0.0
 10
2290.561594704084
 20
-1718.896719037801
 30
0.0
  0
LINE
  5
21217
330
18
100
AcDbEntity
  8
姿図
370
     0
100
AcDbLine
 10
2308.272141579086
 20
-1722.436531181744
 30
0.0
 11
2308.272141579086
 21
-1729.130797768792
 31
0.0
  0
LINE
  5
21218
330
18
100
AcDbEntity
  8
姿図
370
     0
100
AcDbLine
 10
2290.561594704084
 20
-1718.896719037801
 30
0.0
 11
2290.561594704084
 21
-1725.465819063278
 31
0.0
  0
LINE
  5
21219
330
18
100
AcDbEntity
  8
姿図
370
     0
100
AcDbLine
 10
2293.108209287419
 20
-1718.971142726138
 30
0.0
 11
2293.108209287419
 21
-1725.542989202167
 31
0.0
  0
LINE
  5
2121A
330
18
100
AcDbEntity
  8
姿図
370
     0
100
AcDbLine
 10
2294.458686717973
 20
-1719.052330255359
 30
0.0
 11
2294.458686717973
 21
-1725.60606562822
 31
0.0
  0
LINE
  5
2121B
330
18
100
AcDbEntity
  8
姿図
370
     0
100
AcDbLine
 10
2296.966716231864
 20
-1719.287440015369
 30
0.0
 11
2296.966716231862
 21
-1725.825083095226
 31
0.0
  0
LINE
  5
2121C
330
18
100
AcDbEntity
  8
姿図
370
     0
100
AcDbLine
 10
2298.201438454086
 20
-1719.445418650365
 30
0.0
 11
2298.201438454084
 21
-1725.973093271831
 31
0.0
  0
LINE
  5
2121D
330
18
100
AcDbEntity
  8
姿図
370
     0
100
AcDbLine
 10
2300.709467967974
 20
-1719.864936141472
 30
0.0
 11
2300.709467967974
 21
-1726.364807202169
 31
0.0
  0
LINE
  5
2121E
330
18
100
AcDbEntity
  8
姿図
370
     0
100
AcDbLine
 10
2302.021360329085
 20
-1720.144700062443
 30
0.0
 11
2302.021360329085
 21
-1726.625187068766
 31
0.0
  0
LINE
  5
2121F
330
18
100
AcDbEntity
  8
姿図
370
     0
100
AcDbLine
 10
2304.297879426307
 20
-1720.753500438882
 30
0.0
 11
2304.297879426307
 21
-1727.193940679078
 31
0.0
  0
LINE
  5
21220
330
18
100
AcDbEntity
  8
姿図
370
     0
100
AcDbLine
 10
2305.814754968842
 20
-1721.274265420866
 30
0.0
 11
2305.814754968842
 21
-1727.67993969378
 31
0.0
  0
LINE
  5
21221
330
18
100
AcDbEntity
  8
姿図
370
     0
100
AcDbLine
 10
2313.342460860768
 20
-1739.680196924757
 30
0.0
 11
2313.425748972717
 21
-1740.571707407244
 31
0.0
  0
SPLINE
  5
21222
330
18
100
AcDbEntity
  8
姿図
370
     0
100
AcDbSpline
210
0.0
220
0.0
230
1.0
 70
     8
 71
     3
 72
     8
 73
     4
 74
     0
 42
0.0000000001
 43
0.0000000001
 40
0.0
 40
0.0
 40
0.0
 40
0.0
 40
0.9999361422886213
 40
0.9999361422886213
 40
0.9999361422886213
 40
0.9999361422886213
 10
2313.342460860768
 20
-1739.680196924757
 30
0.0
 10
2312.800495824273
 20
-1736.283721935196
 30
0.0
 10
2302.531512563346
 20
-1733.580483866687
 30
0.0
 10
2289.944233592973
 20
-1733.587371949979
 30
0.0
  0
LINE
  5
21223
330
18
100
AcDbEntity
  8
姿図
370
     0
100
AcDbLine
 10
2310.743208860837
 20
-1737.024573141584
 30
0.0
 11
2310.699587869038
 21
-1734.34761184039
 31
0.0
  0
ELLIPSE
  5
21226
330
18
100
AcDbEntity
  8
姿図
370
     0
100
AcDbEllipse
 10
2289.927654070945
 20
-1740.843777925189
 30
0.0
 11
-23.51790127224392
 21
-0.01085205077948
 31
0.0
210
0.0
220
0.0
230
-0.9999999999999998
 40
0.2715305715501497
 41
1.571626595898409
 42
4.711809300268824
  0
SPLINE
  5
21227
330
18
100
AcDbEntity
  8
姿図
370
     0
100
AcDbSpline
210
0.0
220
0.0
230
1.0
 70
     8
 71
     3
 72
    11
 73
     7
 74
     0
 42
0.0000000001
 43
0.0000000001
 40
0.9413684295130511
 40
0.9413684295130511
 40
0.9413684295130511
 40
0.9413684295130511
 40
1.0
 40
1.0
 40
1.0
 40
1.99748518372597
 40
1.99748518372597
 40
1.99748518372597
 40
1.99748518372597
 10
2310.702274465603
 20
-1734.51248464
 30
0.0
 10
2310.702758467214
 20
-1734.495126830667
 30
0.0
 10
2310.703000954085
 20
-1734.477751954971
 30
0.0
 10
2310.703000954085
 20
-1734.460360498975
 30
0.0
 10
2310.703000954085
 20
-1731.062588651728
 30
0.0
 10
2301.417118630931
 20
-1728.305470701192
 30
0.0
 10
2289.944233592973
 20
-1728.29162489954
 30
0.0
  0
ARC
  5
21228
330
18
100
AcDbEntity
  8
姿図
370
     0
100
AcDbCircle
 10
2301.472583554163
 20
-1725.186005693169
 30
0.0
 40
1.926696902627027
100
AcDbArc
 50
60.73509968945919
 51
73.45144637743105
  0
ELLIPSE
  5
21235
330
18
100
AcDbEntity
  8
姿図
370
     0
100
AcDbEllipse
 10
2289.941796403236
 20
-1741.026823618108
 30
0.0
 11
19.08072985001266
 21
0.0090555828698857
 31
0.0
210
0.0
220
0.0
230
-1.0
 40
0.2815178545097996
 41
-1.570534989937893
 42
1.570802202802992
  0
ELLIPSE
  5
21236
330
18
100
AcDbEntity
  8
姿図
370
     0
100
AcDbEllipse
 10
2289.946670782711
 20
-1741.026823618108
 30
0.0
 11
-19.08072985001267
 21
0.0090555828712991
 31
0.0
210
0.0
220
0.0
230
0.9999999999999998
 40
0.2815178545097996
 41
-1.570534989937893
 42
1.570802202802992
  0
LINE
  5
21237
330
18
100
AcDbEntity
  8
姿図
370
     0
100
AcDbLine
 10
2270.483121032996
 20
-1714.519483102588
 30
0.0
 11
2270.578146082124
 21
-1711.139911534008
 31
0.0
  0
SPLINE
  5
21238
330
18
100
AcDbEntity
  8
姿図
370
     0
100
AcDbSpline
210
0.0
220
0.0
230
1.0
 70
     8
 71
     3
 72
     8
 73
     4
 74
     0
 42
0.0000000001
 43
0.0000000001
 40
1.096765595308994
 40
1.096765595308994
 40
1.096765595308994
 40
1.096765595308994
 40
1.744866559373208
 40
1.744866559373208
 40
1.744866559373208
 40
1.744866559373208
 10
2310.008316477508
 20
-1716.197148548659
 30
0.0
 10
2309.962191169116
 20
-1715.622182539641
 30
0.0
 10
2309.755187034734
 20
-1715.060108501961
 30
0.0
 10
2309.405346152946
 20
-1714.519483102572
 30
0.0
  0
LINE
  5
21239
330
18
100
AcDbEntity
  8
姿図
370
     0
100
AcDbLine
 10
2309.405346152955
 20
-1714.519483102588
 30
0.0
 11
2309.310321103827
 21
-1711.139911534008
 31
0.0
  0
SPLINE
  5
2123A
330
18
100
AcDbEntity
  8
姿図
370
     0
100
AcDbSpline
210
0.0
220
0.0
230
1.0
 70
     8
 71
     3
 72
     8
 73
     4
 74
     0
 42
0.0000000001
 43
0.0000000001
 40
0.0232302051821877
 40
0.0232302051821877
 40
0.0232302051821877
 40
0.0232302051821877
 40
0.9990562148238973
 40
0.9990562148238973
 40
0.9990562148238973
 40
0.9990562148238973
 10
2309.310321103827
 20
-1711.139911534008
 30
0.0
 10
2306.106668701143
 20
-1708.286554470959
 30
0.0
 10
2298.670020153628
 20
-1706.395790681045
 30
0.0
 10
2289.944233592974
 20
-1706.392139329511
 30
0.0
  0
SPLINE
  5
2133E
330
18
100
AcDbEntity
  8
姿図
100
AcDbSpline
210
0.0
220
0.0
230
1.0
 70
     8
 71
     3
 72
     8
 73
     4
 74
     0
 42
0.0000000001
 43
0.0000000001
 40
0.5192946764927047
 40
0.5192946764927047
 40
0.5192946764927047
 40
0.5192946764927047
 40
1.0
 40
1.0
 40
1.0
 40
1.0
 10
2255.582903419437
 20
-1746.488078576474
 30
0.0
 10
2255.611741041216
 20
-1746.551874167577
 30
0.0
 10
2255.665146913945
 20
-1746.633678272583
 30
0.0
 10
2255.763895195601
 20
-1746.712165015289
 30
0.0
  0
SPLINE
  5
2133F
330
18
100
AcDbEntity
  8
姿図
100
AcDbSpline
210
0.0
220
0.0
230
1.0
 70
    24
 71
     3
 72
     8
 73
     4
 74
     0
 42
0.0000000001
 43
0.0000000001
 40
1.0
 40
1.0
 40
1.0
 40
1.0
 40
2.0
 40
2.0
 40
2.0
 40
2.0
 10
2255.763895195601
 20
-1746.712165015289
 30
0.0
 10
2255.763895195601
 20
-1746.712165015289
 30
0.0
 10
2256.534969866212
 20
-1747.399314552364
 30
0.0
 10
2256.534969866212
 20
-1747.399314552364
 30
0.0
  0
SPLINE
  5
21340
330
18
100
AcDbEntity
  8
姿図
100
AcDbSpline
210
0.0
220
0.0
230
1.0
 70
     8
 71
     3
 72
     8
 73
     4
 74
     0
 42
0.0000000001
 43
0.0000000001
 40
2.0
 40
2.0
 40
2.0
 40
2.0
 40
3.0
 40
3.0
 40
3.0
 40
3.0
 10
2256.534969866212
 20
-1747.399314552364
 30
0.0
 10
2256.534969866212
 20
-1747.399314552364
 30
0.0
 10
2256.651672026467
 20
-1747.386982644828
 30
0.0
 10
2256.568059175871
 20
-1747.023377730475
 30
0.0
  0
SPLINE
  5
21341
330
18
100
AcDbEntity
  8
姿図
370
     0
100
AcDbSpline
210
0.0
220
0.0
230
1.0
 70
     8
 71
     3
 72
    14
 73
    10
 74
     0
 42
0.0000000001
 43
0.0000000001
 40
0.0
 40
0.0
 40
0.0
 40
0.0
 40
1.0
 40
1.0
 40
1.0
 40
2.0
 40
2.0
 40
2.0
 40
3.0
 40
3.0
 40
3.0
 40
3.0
 10
2255.119103004066
 20
-1746.211570134472
 30
0.0
 10
2255.119103004066
 20
-1746.211570134472
 30
0.0
 10
2255.240858736792
 20
-1746.999676668723
 30
0.0
 10
2255.481707724807
 20
-1747.210815497699
 30
0.0
 10
2255.481707724807
 20
-1747.210815497699
 30
0.0
 10
2256.814385043648
 20
-1748.262801642298
 30
0.0
 10
2256.814385043648
 20
-1748.262801642298
 30
0.0
 10
2256.814385043648
 20
-1748.262801642298
 30
0.0
 10
2257.189155339494
 20
-1748.459210240207
 30
0.0
 10
2257.041699809901
 20
-1747.502764955397
 30
0.0
  0
SPLINE
  5
21342
330
18
100
AcDbEntity
  8
姿図
370
     0
100
AcDbSpline
210
0.0
220
0.0
230
1.0
 70
     8
 71
     3
 72
    11
 73
     7
 74
     0
 42
0.0000000001
 43
0.0000000001
 40
0.03541891214335
 40
0.03541891214335
 40
0.03541891214335
 40
0.03541891214335
 40
1.0
 40
1.0
 40
1.0
 40
1.99263132897008
 40
1.99263132897008
 40
1.99263132897008
 40
1.99263132897008
 10
2257.041699809901
 20
-1747.502764955397
 30
0.0
 10
2255.957849942582
 20
-1743.062316869779
 30
0.0
 10
2256.512858342364
 20
-1736.850449429418
 30
0.0
 10
2258.895460791774
 20
-1730.516121666359
 30
0.0
 10
2261.572832440722
 20
-1723.392932491391
 30
0.0
 10
2265.884798167115
 20
-1717.910043475019
 30
0.0
 10
2270.086820863006
 20
-1715.650046778988
 30
0.0
  0
SPLINE
  5
21343
330
18
100
AcDbEntity
  8
姿図
370
     0
100
AcDbSpline
210
0.0
220
0.0
230
1.0
 70
     8
 71
     3
 72
    11
 73
     7
 74
     0
 42
0.0000000001
 43
0.0000000001
 40
0.0289387478528501
 40
0.0289387478528501
 40
0.0289387478528501
 40
0.0289387478528501
 40
1.0
 40
1.0
 40
1.0
 40
1.986316442698137
 40
1.986316442698137
 40
1.986316442698137
 40
1.986316442698137
 10
2256.570169878692
 20
-1747.032670914791
 30
0.0
 10
2255.564385144326
 20
-1742.61037304889
 30
0.0
 10
2256.141709283884
 20
-1736.507684054802
 30
0.0
 10
2258.48085052611
 20
-1730.288840306335
 30
0.0
 10
2261.251122619653
 20
-1722.921939981768
 30
0.0
 10
2265.768019341637
 20
-1717.308755132488
 30
0.0
 10
2270.104124366195
 20
-1715.201603488707
 30
0.0
  0
SPLINE
  5
21344
330
18
100
AcDbEntity
  8
姿図
370
     0
100
AcDbSpline
210
0.0
220
0.0
230
1.0
 70
     8
 71
     3
 72
    11
 73
     7
 74
     0
 42
0.0000000001
 43
0.0000000001
 40
0.014445577542336
 40
0.014445577542336
 40
0.014445577542336
 40
0.014445577542336
 40
1.0
 40
1.0
 40
1.0
 40
1.968225917887298
 40
1.968225917887298
 40
1.968225917887298
 40
1.968225917887298
 10
2255.582903419437
 20
-1746.488078576474
 30
0.0
 10
2254.721302601891
 20
-1741.840712117559
 30
0.0
 10
2255.396751222352
 20
-1735.756211654827
 30
0.0
 10
2257.780707055846
 20
-1729.607052468545
 30
0.0
 10
2260.719765234322
 20
-1722.022424043781
 30
0.0
 10
2265.507896660882
 20
-1716.262999388634
 30
0.0
 10
2270.179785083283
 20
-1714.00876857717
 30
0.0
  0
SPLINE
  5
21345
330
18
100
AcDbEntity
  8
姿図
370
     0
100
AcDbSpline
210
0.0
220
0.0
230
1.0
 70
     8
 71
     3
 72
    11
 73
     7
 74
     0
 42
0.0000000001
 43
0.0000000001
 40
0.0697732564073768
 40
0.0697732564073768
 40
0.0697732564073768
 40
0.0697732564073768
 40
1.0
 40
1.0
 40
1.0
 40
1.972990325457916
 40
1.972990325457916
 40
1.972990325457916
 40
1.972990325457916
 10
2255.119103004105
 20
-1746.211570134686
 30
0.0
 10
2254.263439253123
 20
-1741.566743968406
 30
0.0
 10
2254.940422672406
 20
-1735.492024978028
 30
0.0
 10
2257.320769131739
 20
-1729.351670895529
 30
0.0
 10
2260.334659188981
 20
-1721.574194080582
 30
0.0
 10
2265.293122947641
 20
-1715.71564611451
 30
0.0
 10
2270.075887286752
 20
-1713.588427077479
 30
0.0
  0
SPLINE
  5
21346
330
18
100
AcDbEntity
  8
姿図
100
AcDbSpline
210
0.0
220
0.0
230
1.0
 70
     8
 71
     3
 72
     8
 73
     4
 74
     0
 42
0.0000000001
 43
0.0000000001
 40
0.5192946764927047
 40
0.5192946764927047
 40
0.5192946764927047
 40
0.5192946764927047
 40
1.0
 40
1.0
 40
1.0
 40
1.0
 10
2323.741620801107
 20
-1746.661979750341
 30
0.0
 10
2323.712297663698
 20
-1746.725553640317
 30
0.0
 10
2323.658269699146
 20
-1746.806948221735
 30
0.0
 10
2323.558925933658
 20
-1746.884679863741
 30
0.0
  0
SPLINE
  5
21347
330
18
100
AcDbEntity
  8
姿図
100
AcDbSpline
210
0.0
220
0.0
230
1.0
 70
    24
 71
     3
 72
     8
 73
     4
 74
     0
 42
0.0000000001
 43
0.0000000001
 40
1.0
 40
1.0
 40
1.0
 40
1.0
 40
2.0
 40
2.0
 40
2.0
 40
2.0
 10
2323.558925933658
 20
-1746.884679863741
 30
0.0
 10
2323.558925933658
 20
-1746.884679863741
 30
0.0
 10
2322.782635100368
 20
-1747.565931048039
 30
0.0
 10
2322.782635100368
 20
-1747.565931048039
 30
0.0
  0
SPLINE
  5
21348
330
18
100
AcDbEntity
  8
姿図
100
AcDbSpline
210
0.0
220
0.0
230
1.0
 70
     8
 71
     3
 72
     8
 73
     4
 74
     0
 42
0.0000000001
 43
0.0000000001
 40
2.0
 40
2.0
 40
2.0
 40
2.0
 40
3.0
 40
3.0
 40
3.0
 40
3.0
 10
2322.782635100368
 20
-1747.565931048039
 30
0.0
 10
2322.782635100368
 20
-1747.565931048039
 30
0.0
 10
2322.666030345343
 20
-1747.552709805381
 30
0.0
 10
2322.752412753594
 20
-1747.189752890483
 30
0.0
  0
SPLINE
  5
21349
330
18
100
AcDbEntity
  8
姿図
370
     0
100
AcDbSpline
210
0.0
220
0.0
230
1.0
 70
     8
 71
     3
 72
    14
 73
    10
 74
     0
 42
0.0000000001
 43
0.0000000001
 40
0.0
 40
0.0
 40
0.0
 40
0.0
 40
1.0
 40
1.0
 40
1.0
 40
2.0
 40
2.0
 40
2.0
 40
3.0
 40
3.0
 40
3.0
 40
3.0
 10
2324.207515734955
 20
-1746.389015184127
 30
0.0
 10
2324.207515734955
 20
-1746.389015184127
 30
0.0
 10
2324.079755311901
 20
-1747.176170595771
 30
0.0
 10
2323.837303679789
 20
-1747.385467146664
 30
0.0
 10
2323.837303679789
 20
-1747.385467146664
 30
0.0
 10
2322.496645141145
 20
-1748.427262888325
 30
0.0
 10
2322.496645141145
 20
-1748.427262888325
 30
0.0
 10
2322.496645141145
 20
-1748.427262888325
 30
0.0
 10
2322.120388390746
 20
-1748.620808670401
 30
0.0
 10
2322.275131215314
 20
-1747.665515325775
 30
0.0
  0
SPLINE
  5
2134A
330
18
100
AcDbEntity
  8
姿図
370
     0
100
AcDbSpline
210
0.0
220
0.0
230
1.0
 70
     8
 71
     3
 72
     8
 73
     4
 74
     0
 42
0.0000000001
 43
0.0000000001
 40
0.03541891214335
 40
0.03541891214335
 40
0.03541891214335
 40
0.03541891214335
 40
1.0
 40
1.0
 40
1.0
 40
1.0
 10
2322.275131215314
 20
-1747.665515325775
 30
0.0
 10
2323.392801896162
 20
-1743.233459145498
 30
0.0
 10
2322.885166572195
 20
-1737.017541047718
 30
0.0
 10
2320.550923900505
 20
-1730.665233294511
 30
0.0
  0
SPLINE
  5
2134B
330
18
100
AcDbEntity
  8
姿図
370
     0
100
AcDbSpline
210
0.0
220
0.0
230
1.0
 70
     8
 71
     3
 72
    11
 73
     7
 74
     0
 42
0.0000000001
 43
0.0000000001
 40
0.0289387478528501
 40
0.0289387478528501
 40
0.0289387478528501
 40
0.0289387478528501
 40
1.0
 40
1.0
 40
1.0
 40
1.955444405740102
 40
1.955444405740102
 40
1.955444405740102
 40
1.955444405740102
 10
2322.75023126436
 20
-1747.199029713532
 30
0.0
 10
2323.789700710386
 20
-1742.784528086233
 30
0.0
 10
2323.258917959628
 20
-1736.677615135145
 30
0.0
 10
2320.967254825321
 20
-1730.441119372474
 30
0.0
 10
2318.338175746486
 20
-1723.284554425831
 30
0.0
 10
2314.057602542935
 20
-1717.761096405336
 30
0.0
 10
2309.865376671024
 20
-1715.476925769831
 30
0.0
  0
SPLINE
  5
2134C
330
18
100
AcDbEntity
  8
姿図
370
     0
100
AcDbSpline
210
0.0
220
0.0
230
1.0
 70
     8
 71
     3
 72
    11
 73
     7
 74
     0
 42
0.0000000001
 43
0.0000000001
 40
0.014445577542336
 40
0.014445577542336
 40
0.014445577542336
 40
0.014445577542336
 40
1.0
 40
1.0
 40
1.0
 40
1.968225917887298
 40
1.968225917887298
 40
1.968225917887298
 40
1.968225917887298
 10
2323.741620801107
 20
-1746.661979750342
 30
0.0
 10
2324.638626358853
 20
-1742.021316866483
 30
0.0
 10
2324.009583316167
 20
-1735.931843853952
 30
0.0
 10
2321.672575643956
 20
-1729.764688978785
 30
0.0
 10
2318.791425237169
 20
-1722.157874688186
 30
0.0
 10
2314.047340647972
 20
-1716.362114485518
 30
0.0
 10
2309.392773401905
 20
-1714.072332457779
 30
0.0
  0
SPLINE
  5
2134D
330
18
100
AcDbEntity
  8
姿図
370
     0
100
AcDbSpline
210
0.0
220
0.0
230
1.0
 70
     8
 71
     3
 72
    11
 73
     7
 74
     0
 42
0.0000000001
 43
0.0000000001
 40
0.0697732564073768
 40
0.0697732564073768
 40
0.0697732564073768
 40
0.0697732564073768
 40
1.0
 40
1.0
 40
1.0
 40
1.972990325457885
 40
1.972990325457885
 40
1.972990325457885
 40
1.972990325457885
 10
2324.207515734916
 20
-1746.389015184341
 30
0.0
 10
2325.098565032395
 20
-1741.750847257328
 30
0.0
 10
2324.467912665216
 20
-1735.671143732169
 30
0.0
 10
2322.134447135467
 20
-1729.512821221421
 30
0.0
 10
2319.17993722833
 20
-1721.712593654688
 30
0.0
 10
2314.266280935871
 20
-1715.81641447184
 30
0.0
 10
2309.499872705051
 20
-1713.652795251142
 30
0.0
  0
ENDSEC
  0
SECTION
  2
OBJECTS
  0
DICTIONARY
  5
C
330
0
100
AcDbDictionary
281
     1
  3
ACAD_COLOR
350
1C606
  3
ACAD_DETAILVIEWSTYLE
350
1C5A7
  3
ACAD_GROUP
350
D
  3
ACAD_IMAGE_VARS
350
112CC
  3
ACAD_LAYOUT
350
617
  3
ACAD_MATERIAL
350
1C5DC
  3
ACAD_MLEADERSTYLE
350
1C609
  3
ACAD_MLINESTYLE
350
E
  3
ACAD_PLOTSETTINGS
350
618
  3
ACAD_PLOTSTYLENAME
350
615
  3
ACAD_SCALELIST
350
18A0
  3
ACAD_SECTIONVIEWSTYLE
350
1C5A8
  3
ACAD_TABLESTYLE
350
1C607
  3
ACAD_VISUALSTYLE
350
1C5F5
  3
AcadDim
350
1C73
  3
ACDB_RECOMPOSE_DATA
350
1C623
  3
AcDbVariableDictionary
350
6DE
  3
AEC_DISP_REPS
350
1C4C5
  3
AEC_DISPLAY_PROPS_DEFAULTS
350
1C4C7
  3
AEC_VARS
350
1C4C3
  3
APPDATA
350
112CB
  3
DWGPROPS
350
217C7
  0
DICTIONARY
  5
1C625
330
8
100
AcDbDictionary
280
     1
281
     1
  0
DICTIONARY
  5
1843
330
2
100
AcDbDictionary
280
     1
281
     1
  3
ACAD_LAYERSTATES
360
1844
  0
DICTIONARY
  5
18CA
330
F
100
AcDbDictionary
280
     1
281
     1
  3
ADSK_XREC_LAYER_RECONCILED
360
18CB
  0
DICTIONARY
  5
18D8
330
2F4
100
AcDbDictionary
280
     1
281
     1
  3
ADSK_XREC_LAYER_RECONCILED
360
18D9
  0
DICTIONARY
  5
18DC
330
305
100
AcDbDictionary
280
     1
281
     1
  3
ADSK_XREC_LAYER_RECONCILED
360
18DD
  0
DICTIONARY
  5
A091
330
18
100
AcDbDictionary
280
     1
281
     1
  3
ACAD_SORTENTS
360
A092
  0
DICTIONARY
  5
1C606
102
{ACAD_REACTORS
330
C
102
}
330
C
100
AcDbDictionary
281
     1
  0
DICTIONARY
  5
1C5A7
102
{ACAD_REACTORS
330
C
102
}
330
C
100
AcDbDictionary
281
     1
  0
DICTIONARY
  5
D
102
{ACAD_REACTORS
330
C
102
}
330
C
100
AcDbDictionary
281
     1
  0
RASTERVARIABLES
  5
112CC
102
{ACAD_REACTORS
330
C
102
}
330
C
100
AcDbRasterVariables
 90
        0
 70
     1
 71
     1
 72
     0
  0
DICTIONARY
  5
617
102
{ACAD_REACTORS
330
C
102
}
330
C
100
AcDbDictionary
281
     1
  3
Model
350
619
  3
ﾚｲｱｳﾄ1
350
61A
  0
DICTIONARY
  5
1C5DC
102
{ACAD_REACTORS
330
C
102
}
330
C
100
AcDbDictionary
281
     1
  3
ByBlock
350
1C5E5
  3
ByLayer
350
1C5DD
  3
Global
350
1C5ED
  0
DICTIONARY
  5
1C609
102
{ACAD_REACTORS
330
C
102
}
330
C
100
AcDbDictionary
281
     1
  3
Standard
350
1C60A
  0
DICTIONARY
  5
E
102
{ACAD_REACTORS
330
C
102
}
330
C
100
AcDbDictionary
281
     1
  3
STANDARD
350
1B
  0
DICTIONARY
  5
618
102
{ACAD_REACTORS
330
C
102
}
330
C
100
AcDbDictionary
281
     1
  0
ACDBDICTIONARYWDFLT
  5
615
102
{ACAD_REACTORS
330
C
102
}
330
C
100
AcDbDictionary
281
     1
  3
Normal
350
616
100
AcDbDictionaryWithDefault
340
616
  0
DICTIONARY
  5
18A0
102
{ACAD_REACTORS
330
C
102
}
330
C
100
AcDbDictionary
281
     1
  3
A0
350
18A1
  3
A1
350
18A2
  3
A2
350
18A3
  3
A3
350
18A4
  3
A4
350
18A5
  3
A5
350
18A6
  3
A6
350
18A7
  3
A7
350
18A8
  3
A8
350
18A9
  3
A9
350
18AA
  3
B0
350
18AB
  3
B1
350
18AC
  3
B2
350
18AD
  3
B3
350
18AE
  3
B4
350
18AF
  3
B5
350
18B0
  3
B6
350
18B1
  3
B7
350
18B2
  3
B8
350
18B3
  3
B9
350
18B4
  3
C0
350
18B5
  3
C1
350
18B6
  3
C2
350
18B7
  3
C3
350
18B8
  3
C4
350
18B9
  3
C5
350
18BA
  3
C6
350
18BB
  3
C7
350
18BC
  3
C8
350
18BD
  3
C9
350
18BE
  3
D0
350
18BF
  3
D1
350
18C0
  3
D2
350
18C1
  0
DICTIONARY
  5
1C5A8
102
{ACAD_REACTORS
330
C
102
}
330
C
100
AcDbDictionary
281
     1
  0
DICTIONARY
  5
1C607
102
{ACAD_REACTORS
330
C
102
}
330
C
100
AcDbDictionary
281
     1
  3
Standard
350
1C608
  0
DICTIONARY
  5
1C5F5
102
{ACAD_REACTORS
330
C
102
}
330
C
100
AcDbDictionary
281
     1
  3
2dWireframe
350
1C5FB
  3
3D Hidden
350
1C5FD
  3
3dWireframe
350
1C5FC
  3
Basic
350
1C5FA
  3
Brighten
350
1C601
  3
ColorChange
350
1C605
  3
Conceptual
350
1C5FE
  3
Dim
350
1C600
  3
Facepattern
350
1C604
  3
Flat
350
1C5F6
  3
FlatWithEdges
350
1C5F7
  3
Gouraud
350
1C5F8
  3
GouraudWithEdges
350
1C5F9
  3
Linepattern
350
1C603
  3
Realistic
350
1C5FF
  3
Thicken
350
1C602
  0
XRECORD
  5
1C73
102
{ACAD_REACTORS
330
C
102
}
330
C
100
AcDbXrecord
280
     1
 90
   990106
  3
OPEN
 60
     0
 61
     0
 62
     4
 63
     4
 64
     1
 65
     0
 66
     0
 67
     3
 68
     1
 69
     0
 70
     0
 71
     0
 72
     0
 40
0.0
170
     0
  0
XRECORD
  5
1C623
102
{ACAD_REACTORS
330
C
102
}
330
C
100
AcDbXrecord
280
     1
 90
        1
330
1C608
  0
DICTIONARY
  5
6DE
102
{ACAD_REACTORS
330
C
102
}
330
C
100
AcDbDictionary
281
     1
  3
CANNOSCALE
350
1C631
  3
CMLEADERSTYLE
350
1C630
  3
CTABLESTYLE
350
1C62F
  3
DIMASSOC
350
6DF
  3
INDEXCTL
350
18FC
  3
PROJECTNAME
350
6E0
  3
SORTENTS
350
18FB
  0
DICTIONARY
  5
1C4C5
102
{ACAD_REACTORS
330
C
102
}
330
C
100
AcDbDictionary
281
     1
  3
AecDbDispRep2dSection
350
1C4C6
  3
AecDbDispRepAnchor
350
1C500
  3
AecDbDispRepAnchorEntToNode
350
1C501
  3
AecDbDispRepClipVolModel
350
1C4CD
  3
AecDbDispRepClipVolPlan
350
1C4CF
  3
AecDbDispRepClipVolResSubDiv
350
1C4D2
  3
AecDbDispRepClipVolResult
350
1C4D1
  3
AecDbDispRepDisplayTheme
350
1C4D4
  3
AecDbDispRepEditInPlaceProfile
350
1C505
  3
AecDbDispRepEntRef
350
1C4D6
  3
AecDbDispRepLayoutCurve
350
1C4D8
  3
AecDbDispRepLayoutGrid2d
350
1C4DA
  3
AecDbDispRepLayoutGrid3d
350
1C4DC
  3
AecDbDispRepMaskBlockRef
350
1C4DE
  3
AecDbDispRepMaskBlockRefRcp
350
1C4E0
  3
AecDbDispRepMassElemModel
350
1C4E2
  3
AecDbDispRepMassElemPlan100
350
1C4E8
  3
AecDbDispRepMassElemPlan50
350
1C4E6
  3
AecDbDispRepMassElemRcp
350
1C4EA
  3
AecDbDispRepMassElemSchem
350
1C4E4
  3
AecDbDispRepMassGroupModel
350
1C4EC
  3
AecDbDispRepMassGroupPlan
350
1C4EE
  3
AecDbDispRepMassGroupPlan100
350
1C4F2
  3
AecDbDispRepMassGroupPlan50
350
1C4F0
  3
AecDbDispRepMassGroupRcp
350
1C4F4
  3
AecDbDispRepMaterial
350
1C503
  3
AecDbDispRepMvBlockRef
350
1C4F6
  3
AecDbDispRepMvBlockRefModel
350
1C4F7
  3
AecDbDispRepMvBlockRefPlan100
350
1C4F8
  3
AecDbDispRepMvBlockRefPlan50
350
1C4F9
  3
AecDbDispRepPolygonModel
350
1C4FA
  3
AecDbDispRepPolygonTrueColour
350
1C4FC
  3
AecDbDispRepSlice
350
1C4FE
  0
DICTIONARY
  5
1C4C7
102
{ACAD_REACTORS
330
C
102
}
330
C
100
AcDbDictionary
281
     1
  3
*A1
350
1C4C8
  3
*A10
350
1C4E3
  3
*A11
350
1C4E5
  3
*A12
350
1C4FB
  3
*A13
350
1C4E7
  3
*A14
350
1C4EB
  3
*A15
350
1C502
  3
*A16
350
1C4ED
  3
*A17
350
1C4F1
  3
*A18
350
1C4CE
  3
*A19
350
1C4F3
  3
*A2
350
1C4D3
  3
*A20
350
1C4F5
  3
*A21
350
1C4FD
  3
*A22
350
1C4D9
  3
*A23
350
1C4FF
  3
*A24
350
1C504
  3
*A25
350
1C4DF
  3
*A26
350
1C506
  3
*A27
350
1C4D0
  3
*A3
350
1C4D5
  3
*A4
350
1C4E9
  3
*A5
350
1C4D7
  3
*A6
350
1C4DB
  3
*A7
350
1C4EF
  3
*A8
350
1C4DD
  3
*A9
350
1C4E1
  0
DICTIONARY
  5
1C4C3
102
{ACAD_REACTORS
330
C
102
}
330
C
100
AcDbDictionary
281
     1
  3
AEC_VARS_DWG_SETUP
350
1C4C4
  0
DICTIONARY
  5
112CB
102
{ACAD_REACTORS
330
C
102
}
330
C
100
AcDbDictionary
281
     1
  0
XRECORD
  5
217C7
102
{ACAD_REACTORS
330
C
102
}
330
C
100
AcDbXrecord
280
     1
  1
DWGPROPS COOKIE
  2

  3

  4

  6

  7

  8
SPAX
  9

300
=
301
=
302
=
303
=
304
=
305
=
306
=
307
=
308
=
309
=
 40
1.823219652777777
 41
2448636.61962963
 42
2457221.368283819
  1

 90
        0
  0
DICTIONARY
  5
1844
102
{ACAD_REACTORS
330
1843
102
}
330
1843
100
AcDbDictionary
281
     1
  0
XRECORD
  5
18CB
102
{ACAD_REACTORS
330
18CA
102
}
330
18CA
100
AcDbXrecord
280
     1
290
     1
  0
XRECORD
  5
18D9
102
{ACAD_REACTORS
330
18D8
102
}
330
18D8
100
AcDbXrecord
280
     1
290
     1
  0
XRECORD
  5
18DD
102
{ACAD_REACTORS
330
18DC
102
}
330
18DC
100
AcDbXrecord
280
     1
290
     1
  0
SORTENTSTABLE
  5
A092
102
{ACAD_REACTORS
330
A091
102
}
330
A091
100
AcDbSortentsTable
330
18
  0
LAYOUT
  5
619
102
{ACAD_XDICTIONARY
360
217C8
102
}
102
{ACAD_REACTORS
330
617
102
}
330
617
100
AcDbPlotSettings
  1

  2
JUST PDF 3
  4
A4
  6

 40
3.174999952316284
 41
3.174999952316284
 42
3.175003051757812
 43
3.17498779296875
 44
209.8886566162109
 45
297.0530090332031
 46
14.27171755861491
 47
9.855173074624929
 48
2246.009725397522
 49
-2190.068090348289
140
2596.000162387336
141
-1648.082740070953
142
1.0
143
2.0
 70
  3748
 72
     1
 73
     0
 74
     4
  7
spax form.ctb
 75
     0
147
0.0563157878202551
148
-2246.009725397522
149
2190.068090348289
100
AcDbLayout
  1
Model
 70
     1
 71
     0
 10
0.0
 20
0.0
 11
12.0
 21
9.0
 12
0.0
 22
0.0
 32
0.0
 14
0.0
 24
0.0
 34
0.0
 15
0.0
 25
0.0
 35
0.0
146
0.0
 13
0.0
 23
0.0
 33
0.0
 16
1.0
 26
0.0
 36
0.0
 17
0.0
 27
1.0
 37
0.0
 76
     0
330
18
331
112CA
1001
ACAD_PSEXT
1000
JUST PDF 3
1000
JUST PDF 3
1000
JUST PDF 3 Port:
1000

1070
     0
  0
LAYOUT
  5
61A
102
{ACAD_XDICTIONARY
360
217CA
102
}
102
{ACAD_REACTORS
330
617
102
}
330
617
100
AcDbPlotSettings
  1

  2
Canon LASER SHOT LBP-750
  4

  6

 40
0.0
 41
0.0
 42
0.0
 43
0.0
 44
0.0
 45
0.0
 46
0.0
 47
0.0
 48
0.0
 49
0.0
140
0.0
141
0.0
142
1.0
143
1.0
 70
   688
 72
     0
 73
     0
 74
     5
  7
monochrome.ctb
 75
    16
147
1.0
148
0.0
149
0.0
100
AcDbLayout
  1
ﾚｲｱｳﾄ1
 70
     0
 71
     1
 10
0.0
 20
0.0
 11
12.0
 21
9.0
 12
0.0
 22
0.0
 32
0.0
 14
1.000000000000000E+20
 24
1.000000000000000E+20
 34
1.000000000000000E+20
 15
-1.000000000000000E+20
 25
-1.000000000000000E+20
 35
-1.000000000000000E+20
146
0.0
 13
0.0
 23
0.0
 33
0.0
 16
1.0
 26
0.0
 36
0.0
 17
0.0
 27
1.0
 37
0.0
 76
     0
330
15
  0
MATERIAL
  5
1C5E5
102
{ACAD_XDICTIONARY
360
1C5E6
102
}
102
{ACAD_REACTORS
330
1C5DC
102
}
330
1C5DC
100
AcDbMaterial
  1
ByBlock
 72
     0
 43
0.0208333333333333
 43
0.0
 43
0.0
 43
0.0
 43
0.0
 43
0.0208333333333333
 43
0.0
 43
0.0
 43
0.0
 43
0.0
 43
1.0
 43
0.0
 43
0.0
 43
0.0
 43
0.0
 43
1.0
 77
     0
 47
0.0208333333333333
 47
0.0
 47
0.0
 47
0.0
 47
0.0
 47
0.0208333333333333
 47
0.0
 47
0.0
 47
0.0
 47
0.0
 47
1.0
 47
0.0
 47
0.0
 47
0.0
 47
0.0
 47
1.0
171
     0
 49
0.0208333333333333
 49
0.0
 49
0.0
 49
0.0
 49
0.0
 49
0.0208333333333333
 49
0.0
 49
0.0
 49
0.0
 49
0.0
 49
1.0
 49
0.0
 49
0.0
 49
0.0
 49
0.0
 49
1.0
175
     0
142
0.0208333333333333
142
0.0
142
0.0
142
0.0
142
0.0
142
0.0208333333333333
142
0.0
142
0.0
142
0.0
142
0.0
142
1.0
142
0.0
142
0.0
142
0.0
142
0.0
142
1.0
179
     0
144
0.0208333333333333
144
0.0
144
0.0
144
0.0
144
0.0
144
0.0208333333333333
144
0.0
144
0.0
144
0.0
144
0.0
144
1.0
144
0.0
144
0.0
144
0.0
144
0.0
144
1.0
147
0.0208333333333333
147
0.0
147
0.0
147
0.0
147
0.0
147
0.0208333333333333
147
0.0
147
0.0
147
0.0
147
0.0
147
1.0
147
0.0
147
0.0
147
0.0
147
0.0
147
1.0
  0
MATERIAL
  5
1C5DD
102
{ACAD_XDICTIONARY
360
1C5DE
102
}
102
{ACAD_REACTORS
330
1C5DC
102
}
330
1C5DC
100
AcDbMaterial
  1
ByLayer
 72
     0
 43
0.0208333333333333
 43
0.0
 43
0.0
 43
0.0
 43
0.0
 43
0.0208333333333333
 43
0.0
 43
0.0
 43
0.0
 43
0.0
 43
1.0
 43
0.0
 43
0.0
 43
0.0
 43
0.0
 43
1.0
 77
     0
 47
0.0208333333333333
 47
0.0
 47
0.0
 47
0.0
 47
0.0
 47
0.0208333333333333
 47
0.0
 47
0.0
 47
0.0
 47
0.0
 47
1.0
 47
0.0
 47
0.0
 47
0.0
 47
0.0
 47
1.0
171
     0
 49
0.0208333333333333
 49
0.0
 49
0.0
 49
0.0
 49
0.0
 49
0.0208333333333333
 49
0.0
 49
0.0
 49
0.0
 49
0.0
 49
1.0
 49
0.0
 49
0.0
 49
0.0
 49
0.0
 49
1.0
175
     0
142
0.0208333333333333
142
0.0
142
0.0
142
0.0
142
0.0
142
0.0208333333333333
142
0.0
142
0.0
142
0.0
142
0.0
142
1.0
142
0.0
142
0.0
142
0.0
142
0.0
142
1.0
179
     0
144
0.0208333333333333
144
0.0
144
0.0
144
0.0
144
0.0
144
0.0208333333333333
144
0.0
144
0.0
144
0.0
144
0.0
144
1.0
144
0.0
144
0.0
144
0.0
144
0.0
144
1.0
147
0.0208333333333333
147
0.0
147
0.0
147
0.0
147
0.0
147
0.0208333333333333
147
0.0
147
0.0
147
0.0
147
0.0
147
1.0
147
0.0
147
0.0
147
0.0
147
0.0
147
1.0
  0
MATERIAL
  5
1C5ED
102
{ACAD_XDICTIONARY
360
1C5EE
102
}
102
{ACAD_REACTORS
330
1C5DC
102
}
330
1C5DC
100
AcDbMaterial
  1
Global
 72
     0
 43
0.0208333333333333
 43
0.0
 43
0.0
 43
0.0
 43
0.0
 43
0.0208333333333333
 43
0.0
 43
0.0
 43
0.0
 43
0.0
 43
1.0
 43
0.0
 43
0.0
 43
0.0
 43
0.0
 43
1.0
 77
     0
 47
0.0208333333333333
 47
0.0
 47
0.0
 47
0.0
 47
0.0
 47
0.0208333333333333
 47
0.0
 47
0.0
 47
0.0
 47
0.0
 47
1.0
 47
0.0
 47
0.0
 47
0.0
 47
0.0
 47
1.0
171
     0
 49
0.0208333333333333
 49
0.0
 49
0.0
 49
0.0
 49
0.0
 49
0.0208333333333333
 49
0.0
 49
0.0
 49
0.0
 49
0.0
 49
1.0
 49
0.0
 49
0.0
 49
0.0
 49
0.0
 49
1.0
175
     0
142
0.0208333333333333
142
0.0
142
0.0
142
0.0
142
0.0
142
0.0208333333333333
142
0.0
142
0.0
142
0.0
142
0.0
142
1.0
142
0.0
142
0.0
142
0.0
142
0.0
142
1.0
179
     0
144
0.0208333333333333
144
0.0
144
0.0
144
0.0
144
0.0
144
0.0208333333333333
144
0.0
144
0.0
144
0.0
144
0.0
144
1.0
144
0.0
144
0.0
144
0.0
144
0.0
144
1.0
147
0.0208333333333333
147
0.0
147
0.0
147
0.0
147
0.0
147
0.0208333333333333
147
0.0
147
0.0
147
0.0
147
0.0
147
1.0
147
0.0
147
0.0
147
0.0
147
0.0
147
1.0
  0
MLEADERSTYLE
  5
1C60A
102
{ACAD_REACTORS
330
1C609
102
}
330
1C609
100
AcDbMLeaderStyle
170
     2
171
     1
172
     0
 90
        2
 40
0.0
 41
0.0
173
     1
 91
-1056964608
340
12
 92
       -2
290
     1
 42
0.09
291
     1
 43
0.36
  3
Standard
 44
0.18
300

342
10
174
     1
178
     6
175
     1
176
     0
 93
-1056964608
 45
0.18
292
     0
297
     0
 46
0.18
 94
-1056964608
 47
1.0
 49
1.0
140
1.0
293
     1
141
0.0
294
     1
177
     0
142
1.0
295
     0
296
     0
143
0.125
1001
ACAD_MLEADERVER
1070
     2
  0
MLINESTYLE
  5
1B
102
{ACAD_REACTORS
330
E
102
}
330
E
100
AcDbMlineStyle
  2
STANDARD
 70
     0
  3

 62
     0
 51
90.0
 52
90.0
 71
     2
 49
0.5
 62
   256
  6
BYLAYER
 49
-0.5
 62
   256
  6
BYLAYER
  0
ACDBPLACEHOLDER
  5
616
102
{ACAD_REACTORS
330
615
102
}
330
615
  0
SCALE
  5
18A1
102
{ACAD_REACTORS
330
18A0
102
}
330
18A0
100
AcDbScale
 70
     0
300
1:1
140
1.0
141
1.0
290
     1
1001
ACAD
1000
AcRTDxfName
1000
SCALE
1000
AcRTDxfName
1000
SCALE
1000
AcRTDxfName
1000
SCALE
1000
AcRTDxfName
1000
SCALE
  0
SCALE
  5
18A2
102
{ACAD_REACTORS
330
18A0
102
}
330
18A0
100
AcDbScale
 70
     0
300
1:2
140
1.0
141
2.0
290
     0
1001
ACAD
1000
AcRTDxfName
1000
SCALE
1000
AcRTDxfName
1000
SCALE
1000
AcRTDxfName
1000
SCALE
1000
AcRTDxfName
1000
SCALE
  0
SCALE
  5
18A3
102
{ACAD_REACTORS
330
18A0
102
}
330
18A0
100
AcDbScale
 70
     0
300
1:4
140
1.0
141
4.0
290
     0
1001
ACAD
1000
AcRTDxfName
1000
SCALE
1000
AcRTDxfName
1000
SCALE
1000
AcRTDxfName
1000
SCALE
1000
AcRTDxfName
1000
SCALE
  0
SCALE
  5
18A4
102
{ACAD_REACTORS
330
18A0
102
}
330
18A0
100
AcDbScale
 70
     0
300
1:5
140
1.0
141
5.0
290
     0
1001
ACAD
1000
AcRTDxfName
1000
SCALE
1000
AcRTDxfName
1000
SCALE
1000
AcRTDxfName
1000
SCALE
1000
AcRTDxfName
1000
SCALE
  0
SCALE
  5
18A5
102
{ACAD_REACTORS
330
18A0
102
}
330
18A0
100
AcDbScale
 70
     0
300
1:8
140
1.0
141
8.0
290
     0
1001
ACAD
1000
AcRTDxfName
1000
SCALE
1000
AcRTDxfName
1000
SCALE
1000
AcRTDxfName
1000
SCALE
1000
AcRTDxfName
1000
SCALE
  0
SCALE
  5
18A6
102
{ACAD_REACTORS
330
18A0
102
}
330
18A0
100
AcDbScale
 70
     0
300
1:10
140
1.0
141
10.0
290
     0
1001
ACAD
1000
AcRTDxfName
1000
SCALE
1000
AcRTDxfName
1000
SCALE
1000
AcRTDxfName
1000
SCALE
1000
AcRTDxfName
1000
SCALE
  0
SCALE
  5
18A7
102
{ACAD_REACTORS
330
18A0
102
}
330
18A0
100
AcDbScale
 70
     0
300
1:16
140
1.0
141
16.0
290
     0
1001
ACAD
1000
AcRTDxfName
1000
SCALE
1000
AcRTDxfName
1000
SCALE
1000
AcRTDxfName
1000
SCALE
1000
AcRTDxfName
1000
SCALE
  0
SCALE
  5
18A8
102
{ACAD_REACTORS
330
18A0
102
}
330
18A0
100
AcDbScale
 70
     0
300
1:20
140
1.0
141
20.0
290
     0
1001
ACAD
1000
AcRTDxfName
1000
SCALE
1000
AcRTDxfName
1000
SCALE
1000
AcRTDxfName
1000
SCALE
1000
AcRTDxfName
1000
SCALE
  0
SCALE
  5
18A9
102
{ACAD_REACTORS
330
18A0
102
}
330
18A0
100
AcDbScale
 70
     0
300
1:30
140
1.0
141
30.0
290
     0
1001
ACAD
1000
AcRTDxfName
1000
SCALE
1000
AcRTDxfName
1000
SCALE
1000
AcRTDxfName
1000
SCALE
1000
AcRTDxfName
1000
SCALE
  0
SCALE
  5
18AA
102
{ACAD_REACTORS
330
18A0
102
}
330
18A0
100
AcDbScale
 70
     0
300
1:40
140
1.0
141
40.0
290
     0
1001
ACAD
1000
AcRTDxfName
1000
SCALE
1000
AcRTDxfName
1000
SCALE
1000
AcRTDxfName
1000
SCALE
1000
AcRTDxfName
1000
SCALE
  0
SCALE
  5
18AB
102
{ACAD_REACTORS
330
18A0
102
}
330
18A0
100
AcDbScale
 70
     0
300
1:50
140
1.0
141
50.0
290
     0
1001
ACAD
1000
AcRTDxfName
1000
SCALE
1000
AcRTDxfName
1000
SCALE
1000
AcRTDxfName
1000
SCALE
1000
AcRTDxfName
1000
SCALE
  0
SCALE
  5
18AC
102
{ACAD_REACTORS
330
18A0
102
}
330
18A0
100
AcDbScale
 70
     0
300
1:100
140
1.0
141
100.0
290
     0
1001
ACAD
1000
AcRTDxfName
1000
SCALE
1000
AcRTDxfName
1000
SCALE
1000
AcRTDxfName
1000
SCALE
1000
AcRTDxfName
1000
SCALE
  0
SCALE
  5
18AD
102
{ACAD_REACTORS
330
18A0
102
}
330
18A0
100
AcDbScale
 70
     0
300
2:1
140
2.0
141
1.0
290
     0
1001
ACAD
1000
AcRTDxfName
1000
SCALE
1000
AcRTDxfName
1000
SCALE
1000
AcRTDxfName
1000
SCALE
1000
AcRTDxfName
1000
SCALE
  0
SCALE
  5
18AE
102
{ACAD_REACTORS
330
18A0
102
}
330
18A0
100
AcDbScale
 70
     0
300
4:1
140
4.0
141
1.0
290
     0
1001
ACAD
1000
AcRTDxfName
1000
SCALE
1000
AcRTDxfName
1000
SCALE
1000
AcRTDxfName
1000
SCALE
1000
AcRTDxfName
1000
SCALE
  0
SCALE
  5
18AF
102
{ACAD_REACTORS
330
18A0
102
}
330
18A0
100
AcDbScale
 70
     0
300
8:1
140
8.0
141
1.0
290
     0
1001
ACAD
1000
AcRTDxfName
1000
SCALE
1000
AcRTDxfName
1000
SCALE
1000
AcRTDxfName
1000
SCALE
1000
AcRTDxfName
1000
SCALE
  0
SCALE
  5
18B0
102
{ACAD_REACTORS
330
18A0
102
}
330
18A0
100
AcDbScale
 70
     0
300
10:1
140
10.0
141
1.0
290
     0
1001
ACAD
1000
AcRTDxfName
1000
SCALE
1000
AcRTDxfName
1000
SCALE
1000
AcRTDxfName
1000
SCALE
1000
AcRTDxfName
1000
SCALE
  0
SCALE
  5
18B1
102
{ACAD_REACTORS
330
18A0
102
}
330
18A0
100
AcDbScale
 70
     0
300
100:1
140
100.0
141
1.0
290
     0
1001
ACAD
1000
AcRTDxfName
1000
SCALE
1000
AcRTDxfName
1000
SCALE
1000
AcRTDxfName
1000
SCALE
1000
AcRTDxfName
1000
SCALE
  0
SCALE
  5
18B2
102
{ACAD_REACTORS
330
18A0
102
}
330
18A0
100
AcDbScale
 70
     0
300
1/128" = 1'-0"
140
0.0078125
141
12.0
290
     0
1001
ACAD
1000
AcRTDxfName
1000
SCALE
1000
AcRTDxfName
1000
SCALE
1000
AcRTDxfName
1000
SCALE
1000
AcRTDxfName
1000
SCALE
  0
SCALE
  5
18B3
102
{ACAD_REACTORS
330
18A0
102
}
330
18A0
100
AcDbScale
 70
     0
300
1/64" = 1'-0"
140
0.015625
141
12.0
290
     0
1001
ACAD
1000
AcRTDxfName
1000
SCALE
1000
AcRTDxfName
1000
SCALE
1000
AcRTDxfName
1000
SCALE
1000
AcRTDxfName
1000
SCALE
  0
SCALE
  5
18B4
102
{ACAD_REACTORS
330
18A0
102
}
330
18A0
100
AcDbScale
 70
     0
300
1/32" = 1'-0"
140
0.03125
141
12.0
290
     0
1001
ACAD
1000
AcRTDxfName
1000
SCALE
1000
AcRTDxfName
1000
SCALE
1000
AcRTDxfName
1000
SCALE
1000
AcRTDxfName
1000
SCALE
  0
SCALE
  5
18B5
102
{ACAD_REACTORS
330
18A0
102
}
330
18A0
100
AcDbScale
 70
     0
300
1/16" = 1'-0"
140
0.0625
141
12.0
290
     0
1001
ACAD
1000
AcRTDxfName
1000
SCALE
1000
AcRTDxfName
1000
SCALE
1000
AcRTDxfName
1000
SCALE
1000
AcRTDxfName
1000
SCALE
  0
SCALE
  5
18B6
102
{ACAD_REACTORS
330
18A0
102
}
330
18A0
100
AcDbScale
 70
     0
300
3/32" = 1'-0"
140
0.09375
141
12.0
290
     0
1001
ACAD
1000
AcRTDxfName
1000
SCALE
1000
AcRTDxfName
1000
SCALE
1000
AcRTDxfName
1000
SCALE
1000
AcRTDxfName
1000
SCALE
  0
SCALE
  5
18B7
102
{ACAD_REACTORS
330
18A0
102
}
330
18A0
100
AcDbScale
 70
     0
300
1/8" = 1'-0"
140
0.125
141
12.0
290
     0
1001
ACAD
1000
AcRTDxfName
1000
SCALE
1000
AcRTDxfName
1000
SCALE
1000
AcRTDxfName
1000
SCALE
1000
AcRTDxfName
1000
SCALE
  0
SCALE
  5
18B8
102
{ACAD_REACTORS
330
18A0
102
}
330
18A0
100
AcDbScale
 70
     0
300
3/16" = 1'-0"
140
0.1875
141
12.0
290
     0
1001
ACAD
1000
AcRTDxfName
1000
SCALE
1000
AcRTDxfName
1000
SCALE
1000
AcRTDxfName
1000
SCALE
1000
AcRTDxfName
1000
SCALE
  0
SCALE
  5
18B9
102
{ACAD_REACTORS
330
18A0
102
}
330
18A0
100
AcDbScale
 70
     0
300
1/4" = 1'-0"
140
0.25
141
12.0
290
     0
1001
ACAD
1000
AcRTDxfName
1000
SCALE
1000
AcRTDxfName
1000
SCALE
1000
AcRTDxfName
1000
SCALE
1000
AcRTDxfName
1000
SCALE
  0
SCALE
  5
18BA
102
{ACAD_REACTORS
330
18A0
102
}
330
18A0
100
AcDbScale
 70
     0
300
3/8" = 1'-0"
140
0.375
141
12.0
290
     0
1001
ACAD
1000
AcRTDxfName
1000
SCALE
1000
AcRTDxfName
1000
SCALE
1000
AcRTDxfName
1000
SCALE
1000
AcRTDxfName
1000
SCALE
  0
SCALE
  5
18BB
102
{ACAD_REACTORS
330
18A0
102
}
330
18A0
100
AcDbScale
 70
     0
300
1/2" = 1'-0"
140
0.5
141
12.0
290
     0
1001
ACAD
1000
AcRTDxfName
1000
SCALE
1000
AcRTDxfName
1000
SCALE
1000
AcRTDxfName
1000
SCALE
1000
AcRTDxfName
1000
SCALE
  0
SCALE
  5
18BC
102
{ACAD_REACTORS
330
18A0
102
}
330
18A0
100
AcDbScale
 70
     0
300
3/4" = 1'-0"
140
0.75
141
12.0
290
     0
1001
ACAD
1000
AcRTDxfName
1000
SCALE
1000
AcRTDxfName
1000
SCALE
1000
AcRTDxfName
1000
SCALE
1000
AcRTDxfName
1000
SCALE
  0
SCALE
  5
18BD
102
{ACAD_REACTORS
330
18A0
102
}
330
18A0
100
AcDbScale
 70
     0
300
1" = 1'-0"
140
1.0
141
12.0
290
     0
1001
ACAD
1000
AcRTDxfName
1000
SCALE
1000
AcRTDxfName
1000
SCALE
1000
AcRTDxfName
1000
SCALE
1000
AcRTDxfName
1000
SCALE
  0
SCALE
  5
18BE
102
{ACAD_REACTORS
330
18A0
102
}
330
18A0
100
AcDbScale
 70
     0
300
1-1/2" = 1'-0"
140
1.5
141
12.0
290
     0
1001
ACAD
1000
AcRTDxfName
1000
SCALE
1000
AcRTDxfName
1000
SCALE
1000
AcRTDxfName
1000
SCALE
1000
AcRTDxfName
1000
SCALE
  0
SCALE
  5
18BF
102
{ACAD_REACTORS
330
18A0
102
}
330
18A0
100
AcDbScale
 70
     0
300
3" = 1'-0"
140
3.0
141
12.0
290
     0
1001
ACAD
1000
AcRTDxfName
1000
SCALE
1000
AcRTDxfName
1000
SCALE
1000
AcRTDxfName
1000
SCALE
1000
AcRTDxfName
1000
SCALE
  0
SCALE
  5
18C0
102
{ACAD_REACTORS
330
18A0
102
}
330
18A0
100
AcDbScale
 70
     0
300
6" = 1'-0"
140
6.0
141
12.0
290
     0
1001
ACAD
1000
AcRTDxfName
1000
SCALE
1000
AcRTDxfName
1000
SCALE
1000
AcRTDxfName
1000
SCALE
1000
AcRTDxfName
1000
SCALE
  0
SCALE
  5
18C1
102
{ACAD_REACTORS
330
18A0
102
}
330
18A0
100
AcDbScale
 70
     0
300
1'-0" = 1'-0"
140
12.0
141
12.0
290
     0
1001
ACAD
1000
AcRTDxfName
1000
SCALE
1000
AcRTDxfName
1000
SCALE
1000
AcRTDxfName
1000
SCALE
1000
AcRTDxfName
1000
SCALE
  0
TABLESTYLE
  5
1C608
102
{ACAD_XDICTIONARY
360
1C621
102
}
102
{ACAD_REACTORS
330
1C607
102
}
330
1C607
100
AcDbTableStyle
  3
Standard
 70
     0
 71
     0
 40
0.06
 41
0.06
280
     0
281
     0
  7
STANDARD
140
0.18
170
     2
 62
     0
 63
     7
283
     0
274
    -2
284
     1
 64
     0
275
    -2
285
     1
 65
     0
276
    -2
286
     1
 66
     0
277
    -2
287
     1
 67
     0
278
    -2
288
     1
 68
     0
279
    -2
289
     1
 69
     0
  7
STANDARD
140
0.25
170
     5
 62
     0
 63
     7
283
     0
274
    -2
284
     1
 64
     0
275
    -2
285
     1
 65
     0
276
    -2
286
     1
 66
     0
277
    -2
287
     1
 67
     0
278
    -2
288
     1
 68
     0
279
    -2
289
     1
 69
     0
  7
STANDARD
140
0.18
170
     5
 62
     0
 63
     7
283
     0
274
    -2
284
     1
 64
     0
275
    -2
285
     1
 65
     0
276
    -2
286
     1
 66
     0
277
    -2
287
     1
 67
     0
278
    -2
288
     1
 68
     0
279
    -2
289
     1
 69
     0
  0
VISUALSTYLE
  5
1C5FB
102
{ACAD_REACTORS
330
1C5F5
102
}
330
1C5F5
100
AcDbVisualStyle
  2
2dWireframe
 70
     4
 71
     0
 72
     2
 73
     0
 90
        0
 40
-0.6
 41
-30.0
 62
     5
 63
     7
 74
     1
 91
        4
 64
     7
 65
   257
 75
     1
175
     1
 42
1.0
 92
        0
 66
   257
 43
1.0
 76
     1
 77
     6
 78
     2
 67
     7
 79
     5
170
     0
171
     0
290
     0
174
     0
 93
        1
 44
0.0
173
     0
291
     0
 45
0.0
1001
ACAD
1000
AcDbSavedByObjectVersion
1070
     0
  0
VISUALSTYLE
  5
1C5FD
102
{ACAD_REACTORS
330
1C5F5
102
}
330
1C5F5
100
AcDbVisualStyle
  2
3D Hidden
 70
     6
 71
     1
 72
     2
 73
     2
 90
        0
 40
-0.6
 41
-30.0
 62
     5
 63
     7
 74
     2
 91
        2
 64
     7
 65
   257
 75
     2
175
     1
 42
40.0
 92
        0
 66
   257
 43
1.0
 76
     1
 77
     6
 78
     2
 67
     7
 79
     3
170
     0
171
     0
290
     0
174
     0
 93
        1
 44
0.0
173
     0
291
     0
 45
0.0
1001
ACAD
1000
AcDbSavedByObjectVersion
1070
     0
  0
VISUALSTYLE
  5
1C5FC
102
{ACAD_REACTORS
330
1C5F5
102
}
330
1C5F5
100
AcDbVisualStyle
  2
3dWireframe
 70
     5
 71
     0
 72
     2
 73
     0
 90
        0
 40
-0.6
 41
-30.0
 62
     5
 63
     7
 74
     1
 91
        4
 64
     7
 65
   257
 75
     1
175
     1
 42
1.0
 92
        0
 66
   257
 43
1.0
 76
     1
 77
     6
 78
     2
 67
     7
 79
     5
170
     0
171
     0
290
     0
174
     0
 93
        1
 44
0.0
173
     0
291
     0
 45
0.0
1001
ACAD
1000
AcDbSavedByObjectVersion
1070
     0
  0
VISUALSTYLE
  5
1C5FA
102
{ACAD_REACTORS
330
1C5F5
102
}
330
1C5F5
100
AcDbVisualStyle
  2
Basic
 70
     7
 71
     1
 72
     0
 73
     1
 90
        0
 40
-0.6
 41
-30.0
 62
     5
 63
     7
 74
     0
 91
        4
 64
     7
 65
   257
 75
     1
175
     1
 42
1.0
 92
        8
 66
     7
 43
1.0
 76
     1
 77
     6
 78
     2
 67
     7
 79
     5
170
     0
171
     0
290
     0
174
     0
 93
        1
 44
0.0
173
     0
291
     1
 45
0.0
1001
ACAD
1000
AcDbSavedByObjectVersion
1070
     0
  0
VISUALSTYLE
  5
1C601
102
{ACAD_REACTORS
330
1C5F5
102
}
330
1C5F5
100
AcDbVisualStyle
  2
Brighten
 70
    12
 71
     2
 72
     2
 73
     0
 90
        0
 40
-0.6
 41
-30.0
 62
     5
 63
     7
 74
     1
 91
        4
 64
     7
 65
   257
 75
     1
175
     1
 42
1.0
 92
        8
 66
     7
 43
1.0
 76
     1
 77
     6
 78
     2
 67
     7
 79
     5
170
     0
171
     0
290
     0
174
     0
 93
        1
 44
50.0
173
     0
291
     1
 45
0.0
1001
ACAD
1000
AcDbSavedByObjectVersion
1070
     0
  0
VISUALSTYLE
  5
1C605
102
{ACAD_REACTORS
330
1C5F5
102
}
330
1C5F5
100
AcDbVisualStyle
  2
ColorChange
 70
    16
 71
     2
 72
     2
 73
     3
 90
        0
 40
-0.6
 41
-30.0
 62
     5
 63
     8
 74
     1
 91
        4
 64
     7
 65
   257
 75
     1
175
     1
 42
1.0
 92
        8
 66
     8
 43
1.0
 76
     1
 77
     6
 78
     2
 67
     7
 79
     5
170
     0
171
     0
290
     0
174
     0
 93
        1
 44
0.0
173
     0
291
     1
 45
0.0
1001
ACAD
1000
AcDbSavedByObjectVersion
1070
     0
  0
VISUALSTYLE
  5
1C5FE
102
{ACAD_REACTORS
330
1C5F5
102
}
330
1C5F5
100
AcDbVisualStyle
  2
Conceptual
 70
     9
 71
     3
 72
     2
 73
     0
 90
        0
 40
-0.6
 41
-30.0
 62
     5
 63
     7
 74
     2
 91
        2
 64
     7
 65
   257
 75
     1
175
     1
 42
40.0
 92
        8
 66
     7
 43
1.0
 76
     1
 77
     6
 78
     2
 67
     7
 79
     3
170
     0
171
     0
290
     0
174
     0
 93
        1
 44
0.0
173
     0
291
     0
 45
0.0
1001
ACAD
1000
AcDbSavedByObjectVersion
1070
     0
  0
VISUALSTYLE
  5
1C600
102
{ACAD_REACTORS
330
1C5F5
102
}
330
1C5F5
100
AcDbVisualStyle
  2
Dim
 70
    11
 71
     2
 72
     2
 73
     0
 90
        0
 40
-0.6
 41
-30.0
 62
     5
 63
     7
 74
     1
 91
        4
 64
     7
 65
   257
 75
     1
175
     1
 42
1.0
 92
        8
 66
     7
 43
1.0
 76
     1
 77
     6
 78
     2
 67
     7
 79
     5
170
     0
171
     0
290
     0
174
     0
 93
        1
 44
-50.0
173
     0
291
     1
 45
0.0
1001
ACAD
1000
AcDbSavedByObjectVersion
1070
     0
  0
VISUALSTYLE
  5
1C604
102
{ACAD_REACTORS
330
1C5F5
102
}
330
1C5F5
100
AcDbVisualStyle
  2
Facepattern
 70
    15
 71
     2
 72
     2
 73
     0
 90
        0
 40
-0.6
 41
-30.0
 62
     5
 63
     7
 74
     1
 91
        4
 64
     7
 65
   257
 75
     1
175
     1
 42
1.0
 92
        8
 66
     7
 43
1.0
 76
     1
 77
     6
 78
     2
 67
     7
 79
     5
170
     0
171
     0
290
     0
174
     0
 93
        1
 44
0.0
173
     0
291
     1
 45
0.0
1001
ACAD
1000
AcDbSavedByObjectVersion
1070
     0
  0
VISUALSTYLE
  5
1C5F6
102
{ACAD_REACTORS
330
1C5F5
102
}
330
1C5F5
100
AcDbVisualStyle
  2
Flat
 70
     0
 71
     2
 72
     1
 73
     1
 90
        2
 40
-0.6
 41
30.0
 62
     5
 63
     7
 74
     0
 91
        4
 64
     7
 65
   257
 75
     1
175
     1
 42
1.0
 92
        8
 66
     7
 43
1.0
 76
     1
 77
     6
 78
     2
 67
     7
 79
     5
170
     0
171
     0
290
     0
174
     0
 93
       13
 44
0.0
173
     0
291
     1
 45
0.0
1001
ACAD
1000
AcDbSavedByObjectVersion
1070
     0
  0
VISUALSTYLE
  5
1C5F7
102
{ACAD_REACTORS
330
1C5F5
102
}
330
1C5F5
100
AcDbVisualStyle
  2
FlatWithEdges
 70
     1
 71
     2
 72
     1
 73
     1
 90
        2
 40
-0.6
 41
30.0
 62
     5
 63
     7
 74
     1
 91
        4
 64
     7
 65
   257
 75
     1
175
     1
 42
1.0
 92
        0
 66
   257
 43
1.0
 76
     1
 77
     6
 78
     2
 67
     7
 79
     5
170
     0
171
     0
290
     0
174
     0
 93
       13
 44
0.0
173
     0
291
     1
 45
0.0
1001
ACAD
1000
AcDbSavedByObjectVersion
1070
     0
  0
VISUALSTYLE
  5
1C5F8
102
{ACAD_REACTORS
330
1C5F5
102
}
330
1C5F5
100
AcDbVisualStyle
  2
Gouraud
 70
     2
 71
     2
 72
     2
 73
     1
 90
        2
 40
-0.6
 41
30.0
 62
     5
 63
     7
 74
     0
 91
        4
 64
     7
 65
   257
 75
     1
175
     1
 42
1.0
 92
        0
 66
     7
 43
1.0
 76
     1
 77
     6
 78
     2
 67
     7
 79
     5
170
     0
171
     0
290
     0
174
     0
 93
       13
 44
0.0
173
     0
291
     1
 45
0.0
1001
ACAD
1000
AcDbSavedByObjectVersion
1070
     0
  0
VISUALSTYLE
  5
1C5F9
102
{ACAD_REACTORS
330
1C5F5
102
}
330
1C5F5
100
AcDbVisualStyle
  2
GouraudWithEdges
 70
     3
 71
     2
 72
     2
 73
     1
 90
        2
 40
-0.6
 41
30.0
 62
     5
 63
     7
 74
     1
 91
        4
 64
     7
 65
   257
 75
     1
175
     1
 42
1.0
 92
        0
 66
   257
 43
1.0
 76
     1
 77
     6
 78
     2
 67
     7
 79
     5
170
     0
171
     0
290
     0
174
     0
 93
       13
 44
0.0
173
     0
291
     1
 45
0.0
1001
ACAD
1000
AcDbSavedByObjectVersion
1070
     0
  0
VISUALSTYLE
  5
1C603
102
{ACAD_REACTORS
330
1C5F5
102
}
330
1C5F5
100
AcDbVisualStyle
  2
Linepattern
 70
    14
 71
     2
 72
     2
 73
     0
 90
        0
 40
-0.6
 41
-30.0
 62
     5
 63
     7
 74
     1
 91
        4
 64
     7
 65
   257
 75
     7
175
     7
 42
1.0
 92
        8
 66
     7
 43
1.0
 76
     1
 77
     6
 78
     2
 67
     7
 79
     5
170
     0
171
     0
290
     0
174
     0
 93
        1
 44
0.0
173
     0
291
     1
 45
0.0
1001
ACAD
1000
AcDbSavedByObjectVersion
1070
     0
  0
VISUALSTYLE
  5
1C5FF
102
{ACAD_REACTORS
330
1C5F5
102
}
330
1C5F5
100
AcDbVisualStyle
  2
Realistic
 70
     8
 71
     2
 72
     2
 73
     0
 90
        0
 40
-0.6
 41
-30.0
 62
     5
 63
     7
 74
     1
 91
        0
 64
     7
 65
   257
 75
     1
175
     1
 42
1.0
 92
        8
 66
     8
 43
1.0
 76
     1
 77
     6
 78
     2
 67
     7
 79
     5
170
     0
171
     0
290
     0
174
     0
 93
       13
 44
0.0
173
     0
291
     0
 45
0.0
1001
ACAD
1000
AcDbSavedByObjectVersion
1070
     0
  0
VISUALSTYLE
  5
1C602
102
{ACAD_REACTORS
330
1C5F5
102
}
330
1C5F5
100
AcDbVisualStyle
  2
Thicken
 70
    13
 71
     2
 72
     2
 73
     0
 90
        0
 40
-0.6
 41
-30.0
 62
     5
 63
     7
 74
     1
 91
        4
 64
     7
 65
   257
 75
     1
175
     1
 42
1.0
 92
       12
 66
     7
 43
1.0
 76
     1
 77
     6
 78
     2
 67
     7
 79
     5
170
     0
171
     0
290
     0
174
     0
 93
        1
 44
0.0
173
     0
291
     1
 45
0.0
1001
ACAD
1000
AcDbSavedByObjectVersion
1070
     0
  0
DICTIONARYVAR
  5
1C631
102
{ACAD_REACTORS
330
6DE
102
}
330
6DE
100
DictionaryVariables
280
     0
  1
1:1
  0
DICTIONARYVAR
  5
1C630
102
{ACAD_REACTORS
330
6DE
102
}
330
6DE
100
DictionaryVariables
280
     0
  1
STANDARD
  0
DICTIONARYVAR
  5
1C62F
102
{ACAD_REACTORS
330
6DE
102
}
330
6DE
100
DictionaryVariables
280
     0
  1
STANDARD
  0
DICTIONARYVAR
  5
6DF
102
{ACAD_REACTORS
330
6DE
102
}
330
6DE
100
DictionaryVariables
280
     0
  1
1
  0
DICTIONARYVAR
  5
18FC
102
{ACAD_REACTORS
330
6DE
102
}
330
6DE
100
DictionaryVariables
280
     0
  1
0
  0
DICTIONARYVAR
  5
6E0
102
{ACAD_REACTORS
330
6DE
102
}
330
6DE
100
DictionaryVariables
280
     0
  1

  0
DICTIONARYVAR
  5
18FB
102
{ACAD_REACTORS
330
6DE
102
}
330
6DE
100
DictionaryVariables
280
     0
  1
127
  0
ACAD_PROXY_OBJECT
  5
1C4C6
102
{ACAD_REACTORS
330
1C4C5
102
}
330
1C4C5
100
AcDbProxyObject
 90
      499
 91
      516
 95
       31
 70
     0
 93
      107
310
51B4D1465180051946946A81802C
340
1C4C8
 94
        0
1001
ACAD
1000
AcRTDxfName
1000
AEC_DISP_REP_2D_SECTION
1000
AcRTDxfName
1000
AEC_DISP_REP_2D_SECTION
1000
AcRTDxfName
1000
AEC_DISP_REP_2D_SECTION
1000
AcRTDxfName
1000
AEC_DISP_REP_2D_SECTION
1000
AcRTDxfName
1000
AEC_DISP_REP_2D_SECTION
1000
AcRTDxfName
1000
AEC_DISP_REP_2D_SECTION
1000
AcRTDxfName
1000
AEC_DISP_REP_2D_SECTION
1000
AcRTDxfName
1000
AEC_DISP_REP_2D_SECTION
  0
ACAD_PROXY_OBJECT
  5
1C500
102
{ACAD_REACTORS
330
1C4C5
102
}
330
1C4C5
100
AcDbProxyObject
 90
      499
 91
      561
 95
       31
 70
     0
 93
      107
310
51B4D1465180051946946A81802C
340
0
 94
        0
1001
ACAD
1000
AcRTDxfName
1000
AEC_DISP_REP_ANCHOR
1000
AcRTDxfName
1000
AEC_DISP_REP_ANCHOR
1000
AcRTDxfName
1000
AEC_DISP_REP_ANCHOR
1000
AcRTDxfName
1000
AEC_DISP_REP_ANCHOR
1000
AcRTDxfName
1000
AEC_DISP_REP_ANCHOR
1000
AcRTDxfName
1000
AEC_DISP_REP_ANCHOR
1000
AcRTDxfName
1000
AEC_DISP_REP_ANCHOR
1000
AcRTDxfName
1000
AEC_DISP_REP_ANCHOR
  0
ACAD_PROXY_OBJECT
  5
1C501
102
{ACAD_REACTORS
330
1C4C5
102
}
330
1C4C5
100
AcDbProxyObject
 90
      499
 91
      562
 95
       31
 70
     0
 93
      107
310
51B4D1465180051946946A81802C
340
1C502
 94
        0
1001
ACAD
1000
AcRTDxfName
1000
AEC_DISP_REP_ANCHOR_ENT_TO_NODE
1000
AcRTDxfName
1000
AEC_DISP_REP_ANCHOR_ENT_TO_NODE
1000
AcRTDxfName
1000
AEC_DISP_REP_ANCHOR_ENT_TO_NODE
1000
AcRTDxfName
1000
AEC_DISP_REP_ANCHOR_ENT_TO_NODE
1000
AcRTDxfName
1000
AEC_DISP_REP_ANCHOR_ENT_TO_NODE
1000
AcRTDxfName
1000
AEC_DISP_REP_ANCHOR_ENT_TO_NODE
1000
AcRTDxfName
1000
AEC_DISP_REP_ANCHOR_ENT_TO_NODE
1000
AcRTDxfName
1000
AEC_DISP_REP_ANCHOR_ENT_TO_NODE
  0
ACAD_PROXY_OBJECT
  5
1C4CD
102
{ACAD_REACTORS
330
1C4C5
102
}
330
1C4C5
100
AcDbProxyObject
 90
      499
 91
      518
 95
       31
 70
     0
 93
      117
310
51B4D146518005194694651AA0600C
340
1C4CE
 94
        0
1001
ACAD
1000
AcRTDxfName
1000
AEC_DISP_REP_CLIP_VOLUME_MODEL
1000
AcRTDxfName
1000
AEC_DISP_REP_CLIP_VOLUME_MODEL
1000
AcRTDxfName
1000
AEC_DISP_REP_CLIP_VOLUME_MODEL
1000
AcRTDxfName
1000
AEC_DISP_REP_CLIP_VOLUME_MODEL
1000
AcRTDxfName
1000
AEC_DISP_REP_CLIP_VOLUME_MODEL
1000
AcRTDxfName
1000
AEC_DISP_REP_CLIP_VOLUME_MODEL
1000
AcRTDxfName
1000
AEC_DISP_REP_CLIP_VOLUME_MODEL
1000
AcRTDxfName
1000
AEC_DISP_REP_CLIP_VOLUME_MODEL
  0
ACAD_PROXY_OBJECT
  5
1C4CF
102
{ACAD_REACTORS
330
1C4C5
102
}
330
1C4C5
100
AcDbProxyObject
 90
      499
 91
      520
 95
       31
 70
     0
 93
      117
310
51B4D146518005194694651AA0600C
340
1C4D0
 94
        0
1001
ACAD
1000
AcRTDxfName
1000
AEC_DISP_REP_CLIP_VOLUME_PLAN
1000
AcRTDxfName
1000
AEC_DISP_REP_CLIP_VOLUME_PLAN
1000
AcRTDxfName
1000
AEC_DISP_REP_CLIP_VOLUME_PLAN
1000
AcRTDxfName
1000
AEC_DISP_REP_CLIP_VOLUME_PLAN
1000
AcRTDxfName
1000
AEC_DISP_REP_CLIP_VOLUME_PLAN
1000
AcRTDxfName
1000
AEC_DISP_REP_CLIP_VOLUME_PLAN
1000
AcRTDxfName
1000
AEC_DISP_REP_CLIP_VOLUME_PLAN
1000
AcRTDxfName
1000
AEC_DISP_REP_CLIP_VOLUME_PLAN
  0
ACAD_PROXY_OBJECT
  5
1C4D2
102
{ACAD_REACTORS
330
1C4C5
102
}
330
1C4C5
100
AcDbProxyObject
 90
      499
 91
      522
 95
       31
 70
     0
 93
      117
310
51B4D146518005194694651AA0600C
340
1C4D3
 94
        0
1001
ACAD
1000
AcRTDxfName
1000
AEC_DISP_REP_CLIP_VOLUME_RESULT_SUBDIV
1000
AcRTDxfName
1000
AEC_DISP_REP_CLIP_VOLUME_RESULT_SUBDIV
1000
AcRTDxfName
1000
AEC_DISP_REP_CLIP_VOLUME_RESULT_SUBDIV
1000
AcRTDxfName
1000
AEC_DISP_REP_CLIP_VOLUME_RESULT_SUBDIV
1000
AcRTDxfName
1000
AEC_DISP_REP_CLIP_VOLUME_RESULT_SUBDIV
1000
AcRTDxfName
1000
AEC_DISP_REP_CLIP_VOLUME_RESULT_SUBDIV
1000
AcRTDxfName
1000
AEC_DISP_REP_CLIP_VOLUME_RESULT_SUBDIV
1000
AcRTDxfName
1000
AEC_DISP_REP_CLIP_VOLUME_RESULT_SUBDIV
  0
ACAD_PROXY_OBJECT
  5
1C4D1
102
{ACAD_REACTORS
330
1C4C5
102
}
330
1C4C5
100
AcDbProxyObject
 90
      499
 91
      521
 95
       31
 70
     0
 93
      107
310
51B4D1465180051946946A81802C
340
0
 94
        0
1001
ACAD
1000
AcRTDxfName
1000
AEC_DISP_REP_CLIP_VOLUME_RESULT
1000
AcRTDxfName
1000
AEC_DISP_REP_CLIP_VOLUME_RESULT
1000
AcRTDxfName
1000
AEC_DISP_REP_CLIP_VOLUME_RESULT
1000
AcRTDxfName
1000
AEC_DISP_REP_CLIP_VOLUME_RESULT
1000
AcRTDxfName
1000
AEC_DISP_REP_CLIP_VOLUME_RESULT
1000
AcRTDxfName
1000
AEC_DISP_REP_CLIP_VOLUME_RESULT
1000
AcRTDxfName
1000
AEC_DISP_REP_CLIP_VOLUME_RESULT
1000
AcRTDxfName
1000
AEC_DISP_REP_CLIP_VOLUME_RESULT
  0
ACAD_PROXY_OBJECT
  5
1C4D4
102
{ACAD_REACTORS
330
1C4C5
102
}
330
1C4C5
100
AcDbProxyObject
 90
      499
 91
      524
 95
       31
 70
     0
 93
      107
310
51B4D1465180051946946A81802C
340
1C4D5
 94
        0
1001
ACAD
1000
AcRTDxfName
1000
AEC_DISP_REP_DISPLAYTHEME
1000
AcRTDxfName
1000
AEC_DISP_REP_DISPLAYTHEME
1000
AcRTDxfName
1000
AEC_DISP_REP_DISPLAYTHEME
1000
AcRTDxfName
1000
AEC_DISP_REP_DISPLAYTHEME
1000
AcRTDxfName
1000
AEC_DISP_REP_DISPLAYTHEME
1000
AcRTDxfName
1000
AEC_DISP_REP_DISPLAYTHEME
1000
AcRTDxfName
1000
AEC_DISP_REP_DISPLAYTHEME
1000
AcRTDxfName
1000
AEC_DISP_REP_DISPLAYTHEME
  0
ACAD_PROXY_OBJECT
  5
1C505
102
{ACAD_REACTORS
330
1C4C5
102
}
330
1C4C5
100
AcDbProxyObject
 90
      499
 91
      566
 95
       31
 70
     0
 93
      107
310
51B4D1465180051946946A81802C
340
1C506
 94
        0
1001
ACAD
1000
AcRTDxfName
1000
AEC_DISP_REP_EDITINPLACEPROFILE
1000
AcRTDxfName
1000
AEC_DISP_REP_EDITINPLACEPROFILE
1000
AcRTDxfName
1000
AEC_DISP_REP_EDITINPLACEPROFILE
1000
AcRTDxfName
1000
AEC_DISP_REP_EDITINPLACEPROFILE
1000
AcRTDxfName
1000
AEC_DISP_REP_EDITINPLACEPROFILE
1000
AcRTDxfName
1000
AEC_DISP_REP_EDITINPLACEPROFILE
1000
AcRTDxfName
1000
AEC_DISP_REP_EDITINPLACEPROFILE
1000
AcRTDxfName
1000
AEC_DISP_REP_EDITINPLACEPROFILE
  0
ACAD_PROXY_OBJECT
  5
1C4D6
102
{ACAD_REACTORS
330
1C4C5
102
}
330
1C4C5
100
AcDbProxyObject
 90
      499
 91
      526
 95
       31
 70
     0
 93
      107
310
51B4D1465180051946946A81802C
340
1C4D7
 94
        0
1001
ACAD
1000
AcRTDxfName
1000
AEC_DISP_REP_ENT_REF
1000
AcRTDxfName
1000
AEC_DISP_REP_ENT_REF
1000
AcRTDxfName
1000
AEC_DISP_REP_ENT_REF
1000
AcRTDxfName
1000
AEC_DISP_REP_ENT_REF
1000
AcRTDxfName
1000
AEC_DISP_REP_ENT_REF
1000
AcRTDxfName
1000
AEC_DISP_REP_ENT_REF
1000
AcRTDxfName
1000
AEC_DISP_REP_ENT_REF
1000
AcRTDxfName
1000
AEC_DISP_REP_ENT_REF
  0
ACAD_PROXY_OBJECT
  5
1C4D8
102
{ACAD_REACTORS
330
1C4C5
102
}
330
1C4C5
100
AcDbProxyObject
 90
      499
 91
      528
 95
       31
 70
     0
 93
      107
310
51B4D1465180051946946A81802C
340
1C4D9
 94
        0
1001
ACAD
1000
AcRTDxfName
1000
AEC_DISP_REP_LAYOUT_CURVE
1000
AcRTDxfName
1000
AEC_DISP_REP_LAYOUT_CURVE
1000
AcRTDxfName
1000
AEC_DISP_REP_LAYOUT_CURVE
1000
AcRTDxfName
1000
AEC_DISP_REP_LAYOUT_CURVE
1000
AcRTDxfName
1000
AEC_DISP_REP_LAYOUT_CURVE
1000
AcRTDxfName
1000
AEC_DISP_REP_LAYOUT_CURVE
1000
AcRTDxfName
1000
AEC_DISP_REP_LAYOUT_CURVE
1000
AcRTDxfName
1000
AEC_DISP_REP_LAYOUT_CURVE
  0
ACAD_PROXY_OBJECT
  5
1C4DA
102
{ACAD_REACTORS
330
1C4C5
102
}
330
1C4C5
100
AcDbProxyObject
 90
      499
 91
      530
 95
       31
 70
     0
 93
      107
310
51B4D1465180051946946A81802C
340
1C4DB
 94
        0
1001
ACAD
1000
AcRTDxfName
1000
AEC_DISP_REP_LAYOUT_GRID2D
1000
AcRTDxfName
1000
AEC_DISP_REP_LAYOUT_GRID2D
1000
AcRTDxfName
1000
AEC_DISP_REP_LAYOUT_GRID2D
1000
AcRTDxfName
1000
AEC_DISP_REP_LAYOUT_GRID2D
1000
AcRTDxfName
1000
AEC_DISP_REP_LAYOUT_GRID2D
1000
AcRTDxfName
1000
AEC_DISP_REP_LAYOUT_GRID2D
1000
AcRTDxfName
1000
AEC_DISP_REP_LAYOUT_GRID2D
1000
AcRTDxfName
1000
AEC_DISP_REP_LAYOUT_GRID2D
  0
ACAD_PROXY_OBJECT
  5
1C4DC
102
{ACAD_REACTORS
330
1C4C5
102
}
330
1C4C5
100
AcDbProxyObject
 90
      499
 91
      532
 95
       31
 70
     0
 93
      107
310
51B4D1465180051946946A81802C
340
1C4DD
 94
        0
1001
ACAD
1000
AcRTDxfName
1000
AEC_DISP_REP_LAYOUT_GRID3D
1000
AcRTDxfName
1000
AEC_DISP_REP_LAYOUT_GRID3D
1000
AcRTDxfName
1000
AEC_DISP_REP_LAYOUT_GRID3D
1000
AcRTDxfName
1000
AEC_DISP_REP_LAYOUT_GRID3D
1000
AcRTDxfName
1000
AEC_DISP_REP_LAYOUT_GRID3D
1000
AcRTDxfName
1000
AEC_DISP_REP_LAYOUT_GRID3D
1000
AcRTDxfName
1000
AEC_DISP_REP_LAYOUT_GRID3D
1000
AcRTDxfName
1000
AEC_DISP_REP_LAYOUT_GRID3D
  0
ACAD_PROXY_OBJECT
  5
1C4DE
102
{ACAD_REACTORS
330
1C4C5
102
}
330
1C4C5
100
AcDbProxyObject
 90
      499
 91
      534
 95
       31
 70
     0
 93
      107
310
51B4D1465180051946946A81802C
340
1C4DF
 94
        0
1001
ACAD
1000
AcRTDxfName
1000
AEC_DISP_REP_MASKBLOCK_REF
1000
AcRTDxfName
1000
AEC_DISP_REP_MASKBLOCK_REF
1000
AcRTDxfName
1000
AEC_DISP_REP_MASKBLOCK_REF
1000
AcRTDxfName
1000
AEC_DISP_REP_MASKBLOCK_REF
1000
AcRTDxfName
1000
AEC_DISP_REP_MASKBLOCK_REF
1000
AcRTDxfName
1000
AEC_DISP_REP_MASKBLOCK_REF
1000
AcRTDxfName
1000
AEC_DISP_REP_MASKBLOCK_REF
1000
AcRTDxfName
1000
AEC_DISP_REP_MASKBLOCK_REF
  0
ACAD_PROXY_OBJECT
  5
1C4E0
102
{ACAD_REACTORS
330
1C4C5
102
}
330
1C4C5
100
AcDbProxyObject
 90
      499
 91
      536
 95
       31
 70
     0
 93
      117
310
51B4D146518005194694651AA0600C
340
1C4E1
 94
        0
1001
ACAD
1000
AcRTDxfName
1000
AEC_DISP_REP_MASKBLOCK_REF_RCP
1000
AcRTDxfName
1000
AEC_DISP_REP_MASKBLOCK_REF_RCP
1000
AcRTDxfName
1000
AEC_DISP_REP_MASKBLOCK_REF_RCP
1000
AcRTDxfName
1000
AEC_DISP_REP_MASKBLOCK_REF_RCP
1000
AcRTDxfName
1000
AEC_DISP_REP_MASKBLOCK_REF_RCP
1000
AcRTDxfName
1000
AEC_DISP_REP_MASKBLOCK_REF_RCP
1000
AcRTDxfName
1000
AEC_DISP_REP_MASKBLOCK_REF_RCP
1000
AcRTDxfName
1000
AEC_DISP_REP_MASKBLOCK_REF_RCP
  0
ACAD_PROXY_OBJECT
  5
1C4E2
102
{ACAD_REACTORS
330
1C4C5
102
}
330
1C4C5
100
AcDbProxyObject
 90
      499
 91
      537
 95
       31
 70
     0
 93
      117
310
51B4D146518005194694651AA0600C
340
1C4E3
 94
        0
1001
ACAD
1000
AcRTDxfName
1000
AEC_DISP_REP_MASS_ELEM_MODEL
1000
AcRTDxfName
1000
AEC_DISP_REP_MASS_ELEM_MODEL
1000
AcRTDxfName
1000
AEC_DISP_REP_MASS_ELEM_MODEL
1000
AcRTDxfName
1000
AEC_DISP_REP_MASS_ELEM_MODEL
1000
AcRTDxfName
1000
AEC_DISP_REP_MASS_ELEM_MODEL
1000
AcRTDxfName
1000
AEC_DISP_REP_MASS_ELEM_MODEL
1000
AcRTDxfName
1000
AEC_DISP_REP_MASS_ELEM_MODEL
1000
AcRTDxfName
1000
AEC_DISP_REP_MASS_ELEM_MODEL
  0
ACAD_PROXY_OBJECT
  5
1C4E8
102
{ACAD_REACTORS
330
1C4C5
102
}
330
1C4C5
100
AcDbProxyObject
 90
      499
 91
      542
 95
       31
 70
     0
 93
      127
310
51B4D146518005194694651946A81802
340
1C4E9
 94
        0
1001
ACAD
1000
AcRTDxfName
1000
AEC_DISPREPAECDBDISPREPMASSELEMPLAN100
1000
AcRTDxfName
1000
AEC_DISPREPAECDBDISPREPMASSELEMPLAN100
1000
AcRTDxfName
1000
AEC_DISPREPAECDBDISPREPMASSELEMPLAN100
1000
AcRTDxfName
1000
AEC_DISPREPAECDBDISPREPMASSELEMPLAN100
1000
AcRTDxfName
1000
AEC_DISPREPAECDBDISPREPMASSELEMPLAN100
1000
AcRTDxfName
1000
AEC_DISPREPAECDBDISPREPMASSELEMPLAN100
1000
AcRTDxfName
1000
AEC_DISPREPAECDBDISPREPMASSELEMPLAN100
1000
AcRTDxfName
1000
AEC_DISPREPAECDBDISPREPMASSELEMPLAN100
  0
ACAD_PROXY_OBJECT
  5
1C4E6
102
{ACAD_REACTORS
330
1C4C5
102
}
330
1C4C5
100
AcDbProxyObject
 90
      499
 91
      540
 95
       31
 70
     0
 93
      127
310
51B4D146518005194694651946A81802
340
1C4E7
 94
        0
1001
ACAD
1000
AcRTDxfName
1000
AEC_DISPREPAECDBDISPREPMASSELEMPLAN50
1000
AcRTDxfName
1000
AEC_DISPREPAECDBDISPREPMASSELEMPLAN50
1000
AcRTDxfName
1000
AEC_DISPREPAECDBDISPREPMASSELEMPLAN50
1000
AcRTDxfName
1000
AEC_DISPREPAECDBDISPREPMASSELEMPLAN50
1000
AcRTDxfName
1000
AEC_DISPREPAECDBDISPREPMASSELEMPLAN50
1000
AcRTDxfName
1000
AEC_DISPREPAECDBDISPREPMASSELEMPLAN50
1000
AcRTDxfName
1000
AEC_DISPREPAECDBDISPREPMASSELEMPLAN50
1000
AcRTDxfName
1000
AEC_DISPREPAECDBDISPREPMASSELEMPLAN50
  0
ACAD_PROXY_OBJECT
  5
1C4EA
102
{ACAD_REACTORS
330
1C4C5
102
}
330
1C4C5
100
AcDbProxyObject
 90
      499
 91
      543
 95
       31
 70
     0
 93
      127
310
51B4D146518005194694651946A81802
340
1C4EB
 94
        0
1001
ACAD
1000
AcRTDxfName
1000
AEC_DISP_REP_MASS_ELEM_RCP
1000
AcRTDxfName
1000
AEC_DISP_REP_MASS_ELEM_RCP
1000
AcRTDxfName
1000
AEC_DISP_REP_MASS_ELEM_RCP
1000
AcRTDxfName
1000
AEC_DISP_REP_MASS_ELEM_RCP
1000
AcRTDxfName
1000
AEC_DISP_REP_MASS_ELEM_RCP
1000
AcRTDxfName
1000
AEC_DISP_REP_MASS_ELEM_RCP
1000
AcRTDxfName
1000
AEC_DISP_REP_MASS_ELEM_RCP
1000
AcRTDxfName
1000
AEC_DISP_REP_MASS_ELEM_RCP
  0
ACAD_PROXY_OBJECT
  5
1C4E4
102
{ACAD_REACTORS
330
1C4C5
102
}
330
1C4C5
100
AcDbProxyObject
 90
      499
 91
      539
 95
       31
 70
     0
 93
      117
310
51B4D146518005194694651AA0600C
340
1C4E5
 94
        0
1001
ACAD
1000
AcRTDxfName
1000
AEC_DISP_REP_MASS_ELEM_SCHEM
1000
AcRTDxfName
1000
AEC_DISP_REP_MASS_ELEM_SCHEM
1000
AcRTDxfName
1000
AEC_DISP_REP_MASS_ELEM_SCHEM
1000
AcRTDxfName
1000
AEC_DISP_REP_MASS_ELEM_SCHEM
1000
AcRTDxfName
1000
AEC_DISP_REP_MASS_ELEM_SCHEM
1000
AcRTDxfName
1000
AEC_DISP_REP_MASS_ELEM_SCHEM
1000
AcRTDxfName
1000
AEC_DISP_REP_MASS_ELEM_SCHEM
1000
AcRTDxfName
1000
AEC_DISP_REP_MASS_ELEM_SCHEM
  0
ACAD_PROXY_OBJECT
  5
1C4EC
102
{ACAD_REACTORS
330
1C4C5
102
}
330
1C4C5
100
AcDbProxyObject
 90
      499
 91
      544
 95
       31
 70
     0
 93
      117
310
51B4D146518005194694651AA0600C
340
1C4ED
 94
        0
1001
ACAD
1000
AcRTDxfName
1000
AEC_DISP_REP_MASS_GROUP_MODEL
1000
AcRTDxfName
1000
AEC_DISP_REP_MASS_GROUP_MODEL
1000
AcRTDxfName
1000
AEC_DISP_REP_MASS_GROUP_MODEL
1000
AcRTDxfName
1000
AEC_DISP_REP_MASS_GROUP_MODEL
1000
AcRTDxfName
1000
AEC_DISP_REP_MASS_GROUP_MODEL
1000
AcRTDxfName
1000
AEC_DISP_REP_MASS_GROUP_MODEL
1000
AcRTDxfName
1000
AEC_DISP_REP_MASS_GROUP_MODEL
1000
AcRTDxfName
1000
AEC_DISP_REP_MASS_GROUP_MODEL
  0
ACAD_PROXY_OBJECT
  5
1C4EE
102
{ACAD_REACTORS
330
1C4C5
102
}
330
1C4C5
100
AcDbProxyObject
 90
      499
 91
      546
 95
       31
 70
     0
 93
      117
310
51B4D146518005194694651AA0600C
340
1C4EF
 94
        0
1001
ACAD
1000
AcRTDxfName
1000
AEC_DISP_REP_MASS_GROUP_PLAN
1000
AcRTDxfName
1000
AEC_DISP_REP_MASS_GROUP_PLAN
1000
AcRTDxfName
1000
AEC_DISP_REP_MASS_GROUP_PLAN
1000
AcRTDxfName
1000
AEC_DISP_REP_MASS_GROUP_PLAN
1000
AcRTDxfName
1000
AEC_DISP_REP_MASS_GROUP_PLAN
1000
AcRTDxfName
1000
AEC_DISP_REP_MASS_GROUP_PLAN
1000
AcRTDxfName
1000
AEC_DISP_REP_MASS_GROUP_PLAN
1000
AcRTDxfName
1000
AEC_DISP_REP_MASS_GROUP_PLAN
  0
ACAD_PROXY_OBJECT
  5
1C4F2
102
{ACAD_REACTORS
330
1C4C5
102
}
330
1C4C5
100
AcDbProxyObject
 90
      499
 91
      549
 95
       31
 70
     0
 93
      127
310
51B4D146518005194694651946A81802
340
1C4F3
 94
        0
1001
ACAD
1000
AcRTDxfName
1000
AEC_DISPREPAECDBDISPREPMASSGROUPPLAN100
1000
AcRTDxfName
1000
AEC_DISPREPAECDBDISPREPMASSGROUPPLAN100
1000
AcRTDxfName
1000
AEC_DISPREPAECDBDISPREPMASSGROUPPLAN100
1000
AcRTDxfName
1000
AEC_DISPREPAECDBDISPREPMASSGROUPPLAN100
1000
AcRTDxfName
1000
AEC_DISPREPAECDBDISPREPMASSGROUPPLAN100
1000
AcRTDxfName
1000
AEC_DISPREPAECDBDISPREPMASSGROUPPLAN100
1000
AcRTDxfName
1000
AEC_DISPREPAECDBDISPREPMASSGROUPPLAN100
1000
AcRTDxfName
1000
AEC_DISPREPAECDBDISPREPMASSGROUPPLAN100
  0
ACAD_PROXY_OBJECT
  5
1C4F0
102
{ACAD_REACTORS
330
1C4C5
102
}
330
1C4C5
100
AcDbProxyObject
 90
      499
 91
      547
 95
       31
 70
     0
 93
      127
310
51B4D146518005194694651946A81802
340
1C4F1
 94
        0
1001
ACAD
1000
AcRTDxfName
1000
AEC_DISPREPAECDBDISPREPMASSGROUPPLAN50
1000
AcRTDxfName
1000
AEC_DISPREPAECDBDISPREPMASSGROUPPLAN50
1000
AcRTDxfName
1000
AEC_DISPREPAECDBDISPREPMASSGROUPPLAN50
1000
AcRTDxfName
1000
AEC_DISPREPAECDBDISPREPMASSGROUPPLAN50
1000
AcRTDxfName
1000
AEC_DISPREPAECDBDISPREPMASSGROUPPLAN50
1000
AcRTDxfName
1000
AEC_DISPREPAECDBDISPREPMASSGROUPPLAN50
1000
AcRTDxfName
1000
AEC_DISPREPAECDBDISPREPMASSGROUPPLAN50
1000
AcRTDxfName
1000
AEC_DISPREPAECDBDISPREPMASSGROUPPLAN50
  0
ACAD_PROXY_OBJECT
  5
1C4F4
102
{ACAD_REACTORS
330
1C4C5
102
}
330
1C4C5
100
AcDbProxyObject
 90
      499
 91
      550
 95
       31
 70
     0
 93
      127
310
51B4D146518005194694651946A81802
340
1C4F5
 94
        0
1001
ACAD
1000
AcRTDxfName
1000
AEC_DISP_REP_MASS_GROUP_RCP
1000
AcRTDxfName
1000
AEC_DISP_REP_MASS_GROUP_RCP
1000
AcRTDxfName
1000
AEC_DISP_REP_MASS_GROUP_RCP
1000
AcRTDxfName
1000
AEC_DISP_REP_MASS_GROUP_RCP
1000
AcRTDxfName
1000
AEC_DISP_REP_MASS_GROUP_RCP
1000
AcRTDxfName
1000
AEC_DISP_REP_MASS_GROUP_RCP
1000
AcRTDxfName
1000
AEC_DISP_REP_MASS_GROUP_RCP
1000
AcRTDxfName
1000
AEC_DISP_REP_MASS_GROUP_RCP
  0
ACAD_PROXY_OBJECT
  5
1C503
102
{ACAD_REACTORS
330
1C4C5
102
}
330
1C4C5
100
AcDbProxyObject
 90
      499
 91
      564
 95
       31
 70
     0
 93
      107
310
51B4D1465180051946946A81802C
340
1C504
 94
        0
1001
ACAD
1000
AcRTDxfName
1000
AEC_DISP_REP_MATERIAL
1000
AcRTDxfName
1000
AEC_DISP_REP_MATERIAL
1000
AcRTDxfName
1000
AEC_DISP_REP_MATERIAL
1000
AcRTDxfName
1000
AEC_DISP_REP_MATERIAL
1000
AcRTDxfName
1000
AEC_DISP_REP_MATERIAL
1000
AcRTDxfName
1000
AEC_DISP_REP_MATERIAL
1000
AcRTDxfName
1000
AEC_DISP_REP_MATERIAL
1000
AcRTDxfName
1000
AEC_DISP_REP_MATERIAL
  0
ACAD_PROXY_OBJECT
  5
1C4F6
102
{ACAD_REACTORS
330
1C4C5
102
}
330
1C4C5
100
AcDbProxyObject
 90
      499
 91
      551
 95
       31
 70
     0
 93
      107
310
51B4D1465180051946946A81802C
340
0
 94
        0
1001
ACAD
1000
AcRTDxfName
1000
AEC_DISP_REP_MVBLOCK_REF
1000
AcRTDxfName
1000
AEC_DISP_REP_MVBLOCK_REF
1000
AcRTDxfName
1000
AEC_DISP_REP_MVBLOCK_REF
1000
AcRTDxfName
1000
AEC_DISP_REP_MVBLOCK_REF
1000
AcRTDxfName
1000
AEC_DISP_REP_MVBLOCK_REF
1000
AcRTDxfName
1000
AEC_DISP_REP_MVBLOCK_REF
1000
AcRTDxfName
1000
AEC_DISP_REP_MVBLOCK_REF
1000
AcRTDxfName
1000
AEC_DISP_REP_MVBLOCK_REF
  0
ACAD_PROXY_OBJECT
  5
1C4F7
102
{ACAD_REACTORS
330
1C4C5
102
}
330
1C4C5
100
AcDbProxyObject
 90
      499
 91
      552
 95
       31
 70
     0
 93
      117
310
51B4D146518005194694651AA0600C
340
0
 94
        0
1001
ACAD
1000
AcRTDxfName
1000
AEC_DISP_REP_MVBLOCK_REF_MODEL
1000
AcRTDxfName
1000
AEC_DISP_REP_MVBLOCK_REF_MODEL
1000
AcRTDxfName
1000
AEC_DISP_REP_MVBLOCK_REF_MODEL
1000
AcRTDxfName
1000
AEC_DISP_REP_MVBLOCK_REF_MODEL
1000
AcRTDxfName
1000
AEC_DISP_REP_MVBLOCK_REF_MODEL
1000
AcRTDxfName
1000
AEC_DISP_REP_MVBLOCK_REF_MODEL
1000
AcRTDxfName
1000
AEC_DISP_REP_MVBLOCK_REF_MODEL
1000
AcRTDxfName
1000
AEC_DISP_REP_MVBLOCK_REF_MODEL
  0
ACAD_PROXY_OBJECT
  5
1C4F8
102
{ACAD_REACTORS
330
1C4C5
102
}
330
1C4C5
100
AcDbProxyObject
 90
      499
 91
      553
 95
       31
 70
     0
 93
      117
310
51B4D146518005194694651AA0600C
340
0
 94
        0
1001
ACAD
1000
AcRTDxfName
1000
AEC_AECDBDISPREPMVBLOCKREFPLAN100
1000
AcRTDxfName
1000
AEC_AECDBDISPREPMVBLOCKREFPLAN100
1000
AcRTDxfName
1000
AEC_AECDBDISPREPMVBLOCKREFPLAN100
1000
AcRTDxfName
1000
AEC_AECDBDISPREPMVBLOCKREFPLAN100
1000
AcRTDxfName
1000
AEC_AECDBDISPREPMVBLOCKREFPLAN100
1000
AcRTDxfName
1000
AEC_AECDBDISPREPMVBLOCKREFPLAN100
1000
AcRTDxfName
1000
AEC_AECDBDISPREPMVBLOCKREFPLAN100
1000
AcRTDxfName
1000
AEC_AECDBDISPREPMVBLOCKREFPLAN100
  0
ACAD_PROXY_OBJECT
  5
1C4F9
102
{ACAD_REACTORS
330
1C4C5
102
}
330
1C4C5
100
AcDbProxyObject
 90
      499
 91
      554
 95
       31
 70
     0
 93
      117
310
51B4D146518005194694651AA0600C
340
0
 94
        0
1001
ACAD
1000
AcRTDxfName
1000
AEC_AECDBDISPREPMVBLOCKREFPLAN50
1000
AcRTDxfName
1000
AEC_AECDBDISPREPMVBLOCKREFPLAN50
1000
AcRTDxfName
1000
AEC_AECDBDISPREPMVBLOCKREFPLAN50
1000
AcRTDxfName
1000
AEC_AECDBDISPREPMVBLOCKREFPLAN50
1000
AcRTDxfName
1000
AEC_AECDBDISPREPMVBLOCKREFPLAN50
1000
AcRTDxfName
1000
AEC_AECDBDISPREPMVBLOCKREFPLAN50
1000
AcRTDxfName
1000
AEC_AECDBDISPREPMVBLOCKREFPLAN50
1000
AcRTDxfName
1000
AEC_AECDBDISPREPMVBLOCKREFPLAN50
  0
ACAD_PROXY_OBJECT
  5
1C4FA
102
{ACAD_REACTORS
330
1C4C5
102
}
330
1C4C5
100
AcDbProxyObject
 90
      499
 91
      555
 95
       31
 70
     0
 93
      117
310
51B4D146518005194694651AA0600C
340
1C4FB
 94
        0
1001
ACAD
1000
AcRTDxfName
1000
AEC_DISP_REP_POLYGON_MODEL
1000
AcRTDxfName
1000
AEC_DISP_REP_POLYGON_MODEL
1000
AcRTDxfName
1000
AEC_DISP_REP_POLYGON_MODEL
1000
AcRTDxfName
1000
AEC_DISP_REP_POLYGON_MODEL
1000
AcRTDxfName
1000
AEC_DISP_REP_POLYGON_MODEL
1000
AcRTDxfName
1000
AEC_DISP_REP_POLYGON_MODEL
1000
AcRTDxfName
1000
AEC_DISP_REP_POLYGON_MODEL
1000
AcRTDxfName
1000
AEC_DISP_REP_POLYGON_MODEL
  0
ACAD_PROXY_OBJECT
  5
1C4FC
102
{ACAD_REACTORS
330
1C4C5
102
}
330
1C4C5
100
AcDbProxyObject
 90
      499
 91
      557
 95
       31
 70
     0
 93
      117
310
51B4D146518005194694651AA0600C
340
1C4FD
 94
        0
1001
ACAD
1000
AcRTDxfName
1000
AEC_DISP_REP_POLYGON_TRUECOLOUR
1000
AcRTDxfName
1000
AEC_DISP_REP_POLYGON_TRUECOLOUR
1000
AcRTDxfName
1000
AEC_DISP_REP_POLYGON_TRUECOLOUR
1000
AcRTDxfName
1000
AEC_DISP_REP_POLYGON_TRUECOLOUR
1000
AcRTDxfName
1000
AEC_DISP_REP_POLYGON_TRUECOLOUR
1000
AcRTDxfName
1000
AEC_DISP_REP_POLYGON_TRUECOLOUR
1000
AcRTDxfName
1000
AEC_DISP_REP_POLYGON_TRUECOLOUR
1000
AcRTDxfName
1000
AEC_DISP_REP_POLYGON_TRUECOLOUR
  0
ACAD_PROXY_OBJECT
  5
1C4FE
102
{ACAD_REACTORS
330
1C4C5
102
}
330
1C4C5
100
AcDbProxyObject
 90
      499
 91
      559
 95
       31
 70
     0
 93
      107
310
51B4D1465180051946946A81802C
340
1C4FF
 94
        0
1001
ACAD
1000
AcRTDxfName
1000
AEC_DISP_REP_SLICE
1000
AcRTDxfName
1000
AEC_DISP_REP_SLICE
1000
AcRTDxfName
1000
AEC_DISP_REP_SLICE
1000
AcRTDxfName
1000
AEC_DISP_REP_SLICE
1000
AcRTDxfName
1000
AEC_DISP_REP_SLICE
1000
AcRTDxfName
1000
AEC_DISP_REP_SLICE
1000
AcRTDxfName
1000
AEC_DISP_REP_SLICE
1000
AcRTDxfName
1000
AEC_DISP_REP_SLICE
  0
ACAD_PROXY_OBJECT
  5
1C4C8
102
{ACAD_REACTORS
330
1C4C7
102
}
330
1C4C7
100
AcDbProxyObject
 90
      499
 91
      517
 95
       31
 70
     0
 93
     3876
310
51B4D14651800519465194651913D0951946946C00000060801FDFEA03000000003684A8CA34A3600000030400FEFF50140400000001B4254651A51B000000182007F7FA80C00000000DA12A328D28D8000000C1003FBFD40501000000006D0951946946C00000060801FDFEA0280800000003684A8CA34A3600000030400F
310
EFF50140400000001B4254651A51B000000182007F7FA80A0200000000DA12A328D28D8000000C1003FBFD40501000000006D0951946946C00000060801FDFEA0280800000003684A8CA34A3600000030400FEFF50140400000001B4254651A51B000000182007F7FA80A0200000000DA12A328D28D8000000C1003FBFD405
310
01000000006D0951946946C00000060801FDFEA0280800000003684A8CA34A3600000030400FEFF50140400000001B4254651A51B000000182007F7FA80C00000000DA12A328D28D8000000C1003FBFD406000000006D0951946946C00000060801FDFEA0280800000003684A8CA34A3600000030400FEFF50140400000001
310
B4254651A51B000000182007F7FA80A0200000000CA328D28CA3203A14A328D28C8000000C1003FBFD40600000000651A0000000000000E100182D4454FB21E93F00000000000005080A55555555555555555555555520E82009C00A6009200620066006201A801C
340
F
340
12
340
0
340
F
340
12
340
0
340
F
340
12
340
0
340
F
340
12
340
0
340
F
340
12
340
0
340
F
340
12
340
0
340
F
340
12
340
0
340
F
340
12
340
0
340
F
340
12
340
0
340
F
340
12
340
0
340
F
340
12
340
0
340
F
340
12
340
0
340
F
340
12
340
0
340
F
340
12
340
0
340
F
340
12
340
0
340
F
340
12
340
0
340
F
340
12
340
0
340
F
340
12
340
0
340
F
340
12
340
0
340
F
340
12
340
0
 94
        0
1001
ACAD
1000
AcRTDxfName
1000
AEC_DISP_PROPS_2D_SECTION
1000
AcRTDxfName
1000
AEC_DISP_PROPS_2D_SECTION
1000
AcRTDxfName
1000
AEC_DISP_PROPS_2D_SECTION
1000
AcRTDxfName
1000
AEC_DISP_PROPS_2D_SECTION
1000
AcRTDxfName
1000
AEC_DISP_PROPS_2D_SECTION
1000
AcRTDxfName
1000
AEC_DISP_PROPS_2D_SECTION
1000
AcRTDxfName
1000
AEC_DISP_PROPS_2D_SECTION
1000
AcRTDxfName
1000
AEC_DISP_PROPS_2D_SECTION
  0
ACAD_PROXY_OBJECT
  5
1C4E3
102
{ACAD_REACTORS
330
1C4C7
102
}
330
1C4C7
100
AcDbProxyObject
 90
      499
 91
      538
 95
       31
 70
     0
 93
      977
310
51B4D14651800519465194651903D0951946946C00000060801FDFEA0280800000003684A8CA34A3200000030400FEFF501800000001B4294651A519000000182007F7FA80A0200000000CA340000000000001C200305A88A9F643D27E0000000000000A1014AAAAA90741004E00530049003100330031008C00CC
340
F
340
12
340
0
340
F
340
12
340
0
340
F
340
12
340
0
 94
        0
1001
ACAD
1000
AcRTDxfName
1000
AEC_DISP_PROPS_MASS_ELEM_MODEL
1000
AcRTDxfName
1000
AEC_DISP_PROPS_MASS_ELEM_MODEL
1000
AcRTDxfName
1000
AEC_DISP_PROPS_MASS_ELEM_MODEL
1000
AcRTDxfName
1000
AEC_DISP_PROPS_MASS_ELEM_MODEL
1000
AcRTDxfName
1000
AEC_DISP_PROPS_MASS_ELEM_MODEL
1000
AcRTDxfName
1000
AEC_DISP_PROPS_MASS_ELEM_MODEL
1000
AcRTDxfName
1000
AEC_DISP_PROPS_MASS_ELEM_MODEL
1000
AcRTDxfName
1000
AEC_DISP_PROPS_MASS_ELEM_MODEL
  0
ACAD_PROXY_OBJECT
  5
1C4E5
102
{ACAD_REACTORS
330
1C4C7
102
}
330
1C4C7
100
AcDbProxyObject
 90
      499
 91
      538
 95
       31
 70
     0
 93
      977
310
51B4D14651800519465194651903D0951946946C00000060801FDFEA0280800000003684A8CA34A3200000030400FEFF501800000001B4294651A519000000182007F7FA80A0200000000CA340000000000001C200305A88A9F643D27E0000000000000A1014AAAAA90741004E00530049003100330031008C00CC
340
F
340
12
340
0
340
F
340
12
340
0
340
F
340
12
340
0
 94
        0
1001
ACAD
1000
AcRTDxfName
1000
AEC_DISP_PROPS_MASS_ELEM_MODEL
1000
AcRTDxfName
1000
AEC_DISP_PROPS_MASS_ELEM_MODEL
1000
AcRTDxfName
1000
AEC_DISP_PROPS_MASS_ELEM_MODEL
1000
AcRTDxfName
1000
AEC_DISP_PROPS_MASS_ELEM_MODEL
1000
AcRTDxfName
1000
AEC_DISP_PROPS_MASS_ELEM_MODEL
1000
AcRTDxfName
1000
AEC_DISP_PROPS_MASS_ELEM_MODEL
1000
AcRTDxfName
1000
AEC_DISP_PROPS_MASS_ELEM_MODEL
1000
AcRTDxfName
1000
AEC_DISP_PROPS_MASS_ELEM_MODEL
  0
ACAD_PROXY_OBJECT
  5
1C4FB
102
{ACAD_REACTORS
330
1C4C7
102
}
330
1C4C7
100
AcDbProxyObject
 90
      499
 91
      556
 95
       31
 70
     0
 93
     1787
310
51B4D14651800519465194651906D0951946946C00000060801FDFEA03000000003684A8CA34A3600000030400FEFF501800000001B4254651A51B000000182007F7FA80C00000000DA12A328D28D8000000C1003FBFD406000000006D0A51946946400000060801FDFEA0300000000328D000000000000070800C16A22A7D
310
90F49F8000000000000284052B4294651A519000000182007F7FA80C00000000CA340000000000001C200305A88A9F643D27E0000000000000A1014AAAAAAA90741004E0053004900310033003100A41D040138014C012400C400CC00C4004806C
340
F
340
12
340
0
340
F
340
12
340
0
340
F
340
12
340
0
340
F
340
12
340
0
340
F
340
12
340
0
340
F
340
12
340
0
 94
        0
1001
ACAD
1000
AcRTDxfName
1000
AEC_DISP_PROPS_POLYGON_MODEL
1000
AcRTDxfName
1000
AEC_DISP_PROPS_POLYGON_MODEL
1000
AcRTDxfName
1000
AEC_DISP_PROPS_POLYGON_MODEL
1000
AcRTDxfName
1000
AEC_DISP_PROPS_POLYGON_MODEL
1000
AcRTDxfName
1000
AEC_DISP_PROPS_POLYGON_MODEL
1000
AcRTDxfName
1000
AEC_DISP_PROPS_POLYGON_MODEL
1000
AcRTDxfName
1000
AEC_DISP_PROPS_POLYGON_MODEL
1000
AcRTDxfName
1000
AEC_DISP_PROPS_POLYGON_MODEL
  0
ACAD_PROXY_OBJECT
  5
1C4E7
102
{ACAD_REACTORS
330
1C4C7
102
}
330
1C4C7
100
AcDbProxyObject
 90
      499
 91
      541
 95
       31
 70
     0
 93
     1351
310
51B4D14651800519465194651903D0951946946C00000060801FDFEA03000000003684A8CA34A3200000030400FEFF501800000001B4294651A519000000182007F7FA80A0200000000CA340000000000001C200305A88A9F643D27E0000000000000A1014A5194651902D0951946946C00000060801FDFEA0280800000003
310
684A8CA34A3600000030400FEFF501800000001A00AAAA90741004E0053004900310033003100AAA5802
340
F
340
12
340
0
340
F
340
12
340
0
340
F
340
12
340
0
340
F
340
12
340
0
340
F
340
12
340
0
 94
        0
1001
ACAD
1000
AcRTDxfName
1000
AEC_DISPROPSMASSELEMPLANCOMMON
1000
AcRTDxfName
1000
AEC_DISPROPSMASSELEMPLANCOMMON
1000
AcRTDxfName
1000
AEC_DISPROPSMASSELEMPLANCOMMON
1000
AcRTDxfName
1000
AEC_DISPROPSMASSELEMPLANCOMMON
1000
AcRTDxfName
1000
AEC_DISPROPSMASSELEMPLANCOMMON
1000
AcRTDxfName
1000
AEC_DISPROPSMASSELEMPLANCOMMON
1000
AcRTDxfName
1000
AEC_DISPROPSMASSELEMPLANCOMMON
1000
AcRTDxfName
1000
AEC_DISPROPSMASSELEMPLANCOMMON
  0
ACAD_PROXY_OBJECT
  5
1C4EB
102
{ACAD_REACTORS
330
1C4C7
102
}
330
1C4C7
100
AcDbProxyObject
 90
      499
 91
      538
 95
       31
 70
     0
 93
      977
310
51B4D14651800519465194651903D0951946946C00000060801FDFEA0280800000003684A8CA34A3200000030400FEFF501800000001B4294651A519000000182007F7FA80A0200000000CA340000000000001C200305A88A9F643D27E0000000000000A1014AAAAA90741004E00530049003100330031008C00CC
340
F
340
12
340
0
340
F
340
12
340
0
340
F
340
12
340
0
 94
        0
1001
ACAD
1000
AcRTDxfName
1000
AEC_DISP_PROPS_MASS_ELEM_MODEL
1000
AcRTDxfName
1000
AEC_DISP_PROPS_MASS_ELEM_MODEL
1000
AcRTDxfName
1000
AEC_DISP_PROPS_MASS_ELEM_MODEL
1000
AcRTDxfName
1000
AEC_DISP_PROPS_MASS_ELEM_MODEL
1000
AcRTDxfName
1000
AEC_DISP_PROPS_MASS_ELEM_MODEL
1000
AcRTDxfName
1000
AEC_DISP_PROPS_MASS_ELEM_MODEL
1000
AcRTDxfName
1000
AEC_DISP_PROPS_MASS_ELEM_MODEL
1000
AcRTDxfName
1000
AEC_DISP_PROPS_MASS_ELEM_MODEL
  0
ACAD_PROXY_OBJECT
  5
1C502
102
{ACAD_REACTORS
330
1C4C7
102
}
330
1C4C7
100
AcDbProxyObject
 90
      499
 91
      563
 95
       31
 70
     0
 93
      264
310
51B4D146518005194651B4254651A51B000000182007F7FA80C00000000D541001CC
340
F
340
12
340
0
 94
        0
1001
ACAD
1000
AcRTDxfName
1000
AEC_DISP_PROPS_ENT
1000
AcRTDxfName
1000
AEC_DISP_PROPS_ENT
1000
AcRTDxfName
1000
AEC_DISP_PROPS_ENT
1000
AcRTDxfName
1000
AEC_DISP_PROPS_ENT
1000
AcRTDxfName
1000
AEC_DISP_PROPS_ENT
1000
AcRTDxfName
1000
AEC_DISP_PROPS_ENT
1000
AcRTDxfName
1000
AEC_DISP_PROPS_ENT
1000
AcRTDxfName
1000
AEC_DISP_PROPS_ENT
  0
ACAD_PROXY_OBJECT
  5
1C4ED
102
{ACAD_REACTORS
330
1C4C7
102
}
330
1C4C7
100
AcDbProxyObject
 90
      499
 91
      545
 95
       31
 70
     0
 93
      467
310
51B4D146518005194651A5194640B4254651A51B000000182007F7FA80A0200000000DA12A328D28D8000000C1003FBFD406000000006AAA83802C
340
F
340
12
340
0
340
F
340
12
340
0
 94
        0
1001
ACAD
1000
AcRTDxfName
1000
AEC_DISP_PROPS_MASS_GROUP
1000
AcRTDxfName
1000
AEC_DISP_PROPS_MASS_GROUP
1000
AcRTDxfName
1000
AEC_DISP_PROPS_MASS_GROUP
1000
AcRTDxfName
1000
AEC_DISP_PROPS_MASS_GROUP
1000
AcRTDxfName
1000
AEC_DISP_PROPS_MASS_GROUP
1000
AcRTDxfName
1000
AEC_DISP_PROPS_MASS_GROUP
1000
AcRTDxfName
1000
AEC_DISP_PROPS_MASS_GROUP
1000
AcRTDxfName
1000
AEC_DISP_PROPS_MASS_GROUP
  0
ACAD_PROXY_OBJECT
  5
1C4F1
102
{ACAD_REACTORS
330
1C4C7
102
}
330
1C4C7
100
AcDbProxyObject
 90
      499
 91
      548
 95
       31
 70
     0
 93
     1353
310
51B4D146518005194651A5194640B4254651A51B000000182007F7FA80C00000000DA12A328D28D8000000C1003FBFD4060000000065194651903D0951946946C00000060801FDFEA028080000000368528CA34A3200000030400FEFF5014040000000194680000000000003840060B51153EC87A4FC000000000000142029
310
5A12A328D28D8000000C1003FBFD406000000006802AAAAA90741004E0053004900310033003100A9600CC
340
F
340
12
340
0
340
F
340
12
340
0
340
F
340
12
340
0
340
F
340
12
340
0
340
F
340
12
340
0
 94
        0
1001
ACAD
1000
AcRTDxfName
1000
AEC_DISPROPSMASSGROUPPLANCOMMON
1000
AcRTDxfName
1000
AEC_DISPROPSMASSGROUPPLANCOMMON
1000
AcRTDxfName
1000
AEC_DISPROPSMASSGROUPPLANCOMMON
1000
AcRTDxfName
1000
AEC_DISPROPSMASSGROUPPLANCOMMON
1000
AcRTDxfName
1000
AEC_DISPROPSMASSGROUPPLANCOMMON
1000
AcRTDxfName
1000
AEC_DISPROPSMASSGROUPPLANCOMMON
1000
AcRTDxfName
1000
AEC_DISPROPSMASSGROUPPLANCOMMON
1000
AcRTDxfName
1000
AEC_DISPROPSMASSGROUPPLANCOMMON
  0
ACAD_PROXY_OBJECT
  5
1C4CE
102
{ACAD_REACTORS
330
1C4C7
102
}
330
1C4C7
100
AcDbProxyObject
 90
      499
 91
      519
 95
       31
 70
     0
 93
      618
310
51B4D14651800519465194651903D0951946946C00000060801FDFEA03000000003684A8CA34A3600000030400FEFF501800000001B4254651A51B000000182007F7FA80C00000000D555509004C
340
F
340
12
340
0
340
F
340
12
340
0
340
F
340
12
340
0
 94
        0
1001
ACAD
1000
AcRTDxfName
1000
AEC_DISP_PROPS_CLIP_VOLUME
1000
AcRTDxfName
1000
AEC_DISP_PROPS_CLIP_VOLUME
1000
AcRTDxfName
1000
AEC_DISP_PROPS_CLIP_VOLUME
1000
AcRTDxfName
1000
AEC_DISP_PROPS_CLIP_VOLUME
1000
AcRTDxfName
1000
AEC_DISP_PROPS_CLIP_VOLUME
1000
AcRTDxfName
1000
AEC_DISP_PROPS_CLIP_VOLUME
1000
AcRTDxfName
1000
AEC_DISP_PROPS_CLIP_VOLUME
1000
AcRTDxfName
1000
AEC_DISP_PROPS_CLIP_VOLUME
  0
ACAD_PROXY_OBJECT
  5
1C4F3
102
{ACAD_REACTORS
330
1C4C7
102
}
330
1C4C7
100
AcDbProxyObject
 90
      499
 91
      548
 95
       31
 70
     0
 93
     1353
310
51B4D146518005194651A5194640B4254651A51B000000182007F7FA80C00000000DA12A328D28D8000000C1003FBFD4060000000065194651903D0951946946C00000060801FDFEA028080000000368528CA34A3200000030400FEFF5014040000000194680000000000003840060B51153EC87A4FC000000000000142029
310
5A12A328D28D8000000C1003FBFD406000000006802AAAAA90741004E0053004900310033003100A9600CC
340
F
340
12
340
0
340
F
340
12
340
0
340
F
340
12
340
0
340
F
340
12
340
0
340
F
340
12
340
0
 94
        0
1001
ACAD
1000
AcRTDxfName
1000
AEC_DISPROPSMASSGROUPPLANCOMMON
1000
AcRTDxfName
1000
AEC_DISPROPSMASSGROUPPLANCOMMON
1000
AcRTDxfName
1000
AEC_DISPROPSMASSGROUPPLANCOMMON
1000
AcRTDxfName
1000
AEC_DISPROPSMASSGROUPPLANCOMMON
1000
AcRTDxfName
1000
AEC_DISPROPSMASSGROUPPLANCOMMON
1000
AcRTDxfName
1000
AEC_DISPROPSMASSGROUPPLANCOMMON
1000
AcRTDxfName
1000
AEC_DISPROPSMASSGROUPPLANCOMMON
1000
AcRTDxfName
1000
AEC_DISPROPSMASSGROUPPLANCOMMON
  0
ACAD_PROXY_OBJECT
  5
1C4D3
102
{ACAD_REACTORS
330
1C4C7
102
}
330
1C4C7
100
AcDbProxyObject
 90
      499
 91
      523
 95
       31
 70
     0
 93
     1938
310
51B4D1465180051946519465190AD0951946946C00000060801FDFEA03000000003684A8CA34A3600000030400FEFF501800000001B4254651A51B000000182007F7FA80C00000000DA12A328D28D8000000C1003FBFD406000000006D0951946946C00000060801FDFEA03000000003684A8CA34A3600000030400FEFF501
310
800000001B4254651A51B000000182007F7FA80C00000000DA12A328D28D8000000C1003FBFD406000000006D0951946946C00000060801FDFEA03000000003684A8CA34A3600000030400FEFF50180000000194651901D0951946946C00000060801FDFEA0300000000355555555555551A004C
340
F
340
12
340
0
340
F
340
12
340
0
340
F
340
12
340
0
340
F
340
12
340
0
340
F
340
12
340
0
340
F
340
12
340
0
340
F
340
12
340
0
340
F
340
12
340
0
340
F
340
12
340
0
340
F
340
12
340
0
340
F
340
12
340
0
 94
        0
1001
ACAD
1000
AcRTDxfName
1000
AEC_DISP_PROPS_CLIP_VOLUME_RESULT
1000
AcRTDxfName
1000
AEC_DISP_PROPS_CLIP_VOLUME_RESULT
1000
AcRTDxfName
1000
AEC_DISP_PROPS_CLIP_VOLUME_RESULT
1000
AcRTDxfName
1000
AEC_DISP_PROPS_CLIP_VOLUME_RESULT
1000
AcRTDxfName
1000
AEC_DISP_PROPS_CLIP_VOLUME_RESULT
1000
AcRTDxfName
1000
AEC_DISP_PROPS_CLIP_VOLUME_RESULT
1000
AcRTDxfName
1000
AEC_DISP_PROPS_CLIP_VOLUME_RESULT
1000
AcRTDxfName
1000
AEC_DISP_PROPS_CLIP_VOLUME_RESULT
  0
ACAD_PROXY_OBJECT
  5
1C4F5
102
{ACAD_REACTORS
330
1C4C7
102
}
330
1C4C7
100
AcDbProxyObject
 90
      499
 91
      545
 95
       31
 70
     0
 93
      467
310
51B4D146518005194651A5194640B4254651A51B000000182007F7FA80A0200000000DA12A328D28D8000000C1003FBFD406000000006AAA83802C
340
F
340
12
340
0
340
F
340
12
340
0
 94
        0
1001
ACAD
1000
AcRTDxfName
1000
AEC_DISP_PROPS_MASS_GROUP
1000
AcRTDxfName
1000
AEC_DISP_PROPS_MASS_GROUP
1000
AcRTDxfName
1000
AEC_DISP_PROPS_MASS_GROUP
1000
AcRTDxfName
1000
AEC_DISP_PROPS_MASS_GROUP
1000
AcRTDxfName
1000
AEC_DISP_PROPS_MASS_GROUP
1000
AcRTDxfName
1000
AEC_DISP_PROPS_MASS_GROUP
1000
AcRTDxfName
1000
AEC_DISP_PROPS_MASS_GROUP
1000
AcRTDxfName
1000
AEC_DISP_PROPS_MASS_GROUP
  0
ACAD_PROXY_OBJECT
  5
1C4FD
102
{ACAD_REACTORS
330
1C4C7
102
}
330
1C4C7
100
AcDbProxyObject
 90
      499
 91
      558
 95
       31
 70
     0
 93
      171
310
51B4D146518005194651BFFFFFFFFFFFD0240A81002C
 94
        0
1001
ACAD
1000
AcRTDxfName
1000
AEC_DISP_PROPS_POLYGON_TRUECOLOUR
1000
AcRTDxfName
1000
AEC_DISP_PROPS_POLYGON_TRUECOLOUR
1000
AcRTDxfName
1000
AEC_DISP_PROPS_POLYGON_TRUECOLOUR
1000
AcRTDxfName
1000
AEC_DISP_PROPS_POLYGON_TRUECOLOUR
1000
AcRTDxfName
1000
AEC_DISP_PROPS_POLYGON_TRUECOLOUR
1000
AcRTDxfName
1000
AEC_DISP_PROPS_POLYGON_TRUECOLOUR
1000
AcRTDxfName
1000
AEC_DISP_PROPS_POLYGON_TRUECOLOUR
1000
AcRTDxfName
1000
AEC_DISP_PROPS_POLYGON_TRUECOLOUR
  0
ACAD_PROXY_OBJECT
  5
1C4D9
102
{ACAD_REACTORS
330
1C4C7
102
}
330
1C4C7
100
AcDbProxyObject
 90
      499
 91
      529
 95
       31
 70
     0
 93
      298
310
51B4D14651800519465194651901D0951946946C00000060801FDFEA0300000000335505004C
340
F
340
12
340
0
 94
        0
1001
ACAD
1000
AcRTDxfName
1000
AEC_DISP_PROPS_LAYOUT_CURVE
1000
AcRTDxfName
1000
AEC_DISP_PROPS_LAYOUT_CURVE
1000
AcRTDxfName
1000
AEC_DISP_PROPS_LAYOUT_CURVE
1000
AcRTDxfName
1000
AEC_DISP_PROPS_LAYOUT_CURVE
1000
AcRTDxfName
1000
AEC_DISP_PROPS_LAYOUT_CURVE
1000
AcRTDxfName
1000
AEC_DISP_PROPS_LAYOUT_CURVE
1000
AcRTDxfName
1000
AEC_DISP_PROPS_LAYOUT_CURVE
1000
AcRTDxfName
1000
AEC_DISP_PROPS_LAYOUT_CURVE
  0
ACAD_PROXY_OBJECT
  5
1C4FF
102
{ACAD_REACTORS
330
1C4C7
102
}
330
1C4C7
100
AcDbProxyObject
 90
      499
 91
      560
 95
       31
 70
     0
 93
      618
310
51B4D14651800519465194651903D0951946946C00000060801FDFEA03000000003684A8CA34A3600000030400FEFF501800000001B4254651A51B000000182007F7FA80C00000000D555509004C
340
F
340
12
340
0
340
F
340
12
340
0
340
F
340
12
340
0
 94
        0
1001
ACAD
1000
AcRTDxfName
1000
AEC_DISP_PROPS_SLICE
1000
AcRTDxfName
1000
AEC_DISP_PROPS_SLICE
1000
AcRTDxfName
1000
AEC_DISP_PROPS_SLICE
1000
AcRTDxfName
1000
AEC_DISP_PROPS_SLICE
1000
AcRTDxfName
1000
AEC_DISP_PROPS_SLICE
1000
AcRTDxfName
1000
AEC_DISP_PROPS_SLICE
1000
AcRTDxfName
1000
AEC_DISP_PROPS_SLICE
1000
AcRTDxfName
1000
AEC_DISP_PROPS_SLICE
  0
ACAD_PROXY_OBJECT
  5
1C504
102
{ACAD_REACTORS
330
1C4C7
102
}
330
1C4C7
100
AcDbProxyObject
 90
      499
 91
      565
 95
       31
 70
     0
 93
     2486
310
51B4D14651800519465194651905D0951946946C00000060801FDFEA03000000003684A8CA34A3600000030400FEFF501800000001B4254651A51B000000182007F7FA80C00000000DA12A328D28D8000000C1003FBFD406000000006D0951946946C00000060801FDFEA0300000000328CA3207A14A328D28C8000000C100
310
3FBFD40600000000651A0000000000000E100182D4454FB21E93F00000000000005080A568528CA34A3200000030400FEFF50180000000194680000000000003840060B51153EC87A4FC0000000000001420295A14A328D28C8000000C1003FBFD40600000000651A0000000000000E100182D4454FB21E93F000000000000
310
05080A555555555483A080270029802480188019801880520E82009C00A6009200620066006201483A0802700298024801880198018804B00C
340
F
340
12
340
0
340
F
340
12
340
0
340
F
340
12
340
0
340
F
340
12
340
0
340
F
340
12
340
0
340
F
340
12
340
0
340
F
340
12
340
0
340
F
340
12
340
0
340
0
340
0
340
0
 94
        0
1001
ACAD
1000
AcRTDxfName
1000
AEC_DISP_PROPS_MATERIAL
1000
AcRTDxfName
1000
AEC_DISP_PROPS_MATERIAL
1000
AcRTDxfName
1000
AEC_DISP_PROPS_MATERIAL
1000
AcRTDxfName
1000
AEC_DISP_PROPS_MATERIAL
1000
AcRTDxfName
1000
AEC_DISP_PROPS_MATERIAL
1000
AcRTDxfName
1000
AEC_DISP_PROPS_MATERIAL
1000
AcRTDxfName
1000
AEC_DISP_PROPS_MATERIAL
1000
AcRTDxfName
1000
AEC_DISP_PROPS_MATERIAL
  0
ACAD_PROXY_OBJECT
  5
1C4DF
102
{ACAD_REACTORS
330
1C4C7
102
}
330
1C4C7
100
AcDbProxyObject
 90
      499
 91
      535
 95
       31
 70
     0
 93
      457
310
51B4D14651800519465194651902D0951946946C00000060801FDFEA03000000003684A8CA34A3600000030400FEFF501800000001AAAA0E00CC
340
F
340
12
340
0
340
F
340
12
340
0
 94
        0
1001
ACAD
1000
AcRTDxfName
1000
AEC_DISP_PROPS_MASKBLOCK
1000
AcRTDxfName
1000
AEC_DISP_PROPS_MASKBLOCK
1000
AcRTDxfName
1000
AEC_DISP_PROPS_MASKBLOCK
1000
AcRTDxfName
1000
AEC_DISP_PROPS_MASKBLOCK
1000
AcRTDxfName
1000
AEC_DISP_PROPS_MASKBLOCK
1000
AcRTDxfName
1000
AEC_DISP_PROPS_MASKBLOCK
1000
AcRTDxfName
1000
AEC_DISP_PROPS_MASKBLOCK
1000
AcRTDxfName
1000
AEC_DISP_PROPS_MASKBLOCK
  0
ACAD_PROXY_OBJECT
  5
1C506
102
{ACAD_REACTORS
330
1C4C7
102
}
330
1C4C7
100
AcDbProxyObject
 90
      499
 91
      567
 95
       31
 70
     0
 93
     1122
310
51B4D14651800519465194651904D0951946946C00000060801FDFEA0300000000368528CA34A3200000030400FEFF50180000000194680000000000003840060B51153EC87A4FC0000000000001420295A12A328D28D8000000C1003FBFD406000000006D0951946946C00000060801FDFEA03000000003555483A0802700
310
298024801880198018805548004C
340
F
340
12
340
0
340
F
340
12
340
0
340
F
340
12
340
0
340
F
340
12
340
0
 94
        0
1001
ACAD
1000
AcRTDxfName
1000
AEC_DISP_PROPS_EDITINPLACEPROFILE_MODEL
1000
AcRTDxfName
1000
AEC_DISP_PROPS_EDITINPLACEPROFILE_MODEL
1000
AcRTDxfName
1000
AEC_DISP_PROPS_EDITINPLACEPROFILE_MODEL
1000
AcRTDxfName
1000
AEC_DISP_PROPS_EDITINPLACEPROFILE_MODEL
1000
AcRTDxfName
1000
AEC_DISP_PROPS_EDITINPLACEPROFILE_MODEL
1000
AcRTDxfName
1000
AEC_DISP_PROPS_EDITINPLACEPROFILE_MODEL
1000
AcRTDxfName
1000
AEC_DISP_PROPS_EDITINPLACEPROFILE_MODEL
1000
AcRTDxfName
1000
AEC_DISP_PROPS_EDITINPLACEPROFILE_MODEL
  0
ACAD_PROXY_OBJECT
  5
1C4D0
102
{ACAD_REACTORS
330
1C4C7
102
}
330
1C4C7
100
AcDbProxyObject
 90
      499
 91
      519
 95
       31
 70
     0
 93
      618
310
51B4D14651800519465194651903D0951946946C00000060801FDFEA03000000003684A8CA34A3600000030400FEFF501800000001B4254651A51B000000182007F7FA80C00000000D555509004C
340
F
340
12
340
0
340
F
340
12
340
0
340
F
340
12
340
0
 94
        0
1001
ACAD
1000
AcRTDxfName
1000
AEC_DISP_PROPS_CLIP_VOLUME
1000
AcRTDxfName
1000
AEC_DISP_PROPS_CLIP_VOLUME
1000
AcRTDxfName
1000
AEC_DISP_PROPS_CLIP_VOLUME
1000
AcRTDxfName
1000
AEC_DISP_PROPS_CLIP_VOLUME
1000
AcRTDxfName
1000
AEC_DISP_PROPS_CLIP_VOLUME
1000
AcRTDxfName
1000
AEC_DISP_PROPS_CLIP_VOLUME
1000
AcRTDxfName
1000
AEC_DISP_PROPS_CLIP_VOLUME
1000
AcRTDxfName
1000
AEC_DISP_PROPS_CLIP_VOLUME
  0
ACAD_PROXY_OBJECT
  5
1C4D5
102
{ACAD_REACTORS
330
1C4C7
102
}
330
1C4C7
100
AcDbProxyObject
 90
      499
 91
      525
 95
       31
 70
     0
 93
     1283
310
51B4D14651800519465194651905D0951946946C00000060801FDFEA0300000000368528CA34A3200000030400FEFF50180000000194680000000000003840060B51153EC87A4FC0000000000001420295A12A328D28D8000000C1003FBFD406000000006D0951946946C00000060801FDFEA03000000003684A8CA34A3600
310
000030400FEFF501800000001AAAA41D040138014C012400C400CC00C402AAA5002C
340
F
340
12
340
0
340
F
340
12
340
0
340
F
340
12
340
0
340
F
340
12
340
0
340
F
340
12
340
0
 94
        0
1001
ACAD
1000
AcRTDxfName
1000
AEC_DISP_PROPS_DISPLAYTHEME
1000
AcRTDxfName
1000
AEC_DISP_PROPS_DISPLAYTHEME
1000
AcRTDxfName
1000
AEC_DISP_PROPS_DISPLAYTHEME
1000
AcRTDxfName
1000
AEC_DISP_PROPS_DISPLAYTHEME
1000
AcRTDxfName
1000
AEC_DISP_PROPS_DISPLAYTHEME
1000
AcRTDxfName
1000
AEC_DISP_PROPS_DISPLAYTHEME
1000
AcRTDxfName
1000
AEC_DISP_PROPS_DISPLAYTHEME
1000
AcRTDxfName
1000
AEC_DISP_PROPS_DISPLAYTHEME
  0
ACAD_PROXY_OBJECT
  5
1C4E9
102
{ACAD_REACTORS
330
1C4C7
102
}
330
1C4C7
100
AcDbProxyObject
 90
      499
 91
      541
 95
       31
 70
     0
 93
     1351
310
51B4D14651800519465194651903D0951946946C00000060801FDFEA03000000003684A8CA34A3200000030400FEFF501800000001B4294651A519000000182007F7FA80A0200000000CA340000000000001C200305A88A9F643D27E0000000000000A1014A5194651902D0951946946C00000060801FDFEA0280800000003
310
684A8CA34A3600000030400FEFF501800000001A00AAAA90741004E0053004900310033003100AAA5802
340
F
340
12
340
0
340
F
340
12
340
0
340
F
340
12
340
0
340
F
340
12
340
0
340
F
340
12
340
0
 94
        0
1001
ACAD
1000
AcRTDxfName
1000
AEC_DISPROPSMASSELEMPLANCOMMON
1000
AcRTDxfName
1000
AEC_DISPROPSMASSELEMPLANCOMMON
1000
AcRTDxfName
1000
AEC_DISPROPSMASSELEMPLANCOMMON
1000
AcRTDxfName
1000
AEC_DISPROPSMASSELEMPLANCOMMON
1000
AcRTDxfName
1000
AEC_DISPROPSMASSELEMPLANCOMMON
1000
AcRTDxfName
1000
AEC_DISPROPSMASSELEMPLANCOMMON
1000
AcRTDxfName
1000
AEC_DISPROPSMASSELEMPLANCOMMON
1000
AcRTDxfName
1000
AEC_DISPROPSMASSELEMPLANCOMMON
  0
ACAD_PROXY_OBJECT
  5
1C4D7
102
{ACAD_REACTORS
330
1C4C7
102
}
330
1C4C7
100
AcDbProxyObject
 90
      499
 91
      527
 95
       31
 70
     0
 93
      459
310
51B4D146518005194651A5194640B4254651A51B000000182007F7FA80C00000000DA12A328D28D8000000C1003FBFD406000000006AAA83802C
340
F
340
12
340
0
340
F
340
12
340
0
 94
        0
1001
ACAD
1000
AcRTDxfName
1000
AEC_DISP_PROPS_ENT_REF
1000
AcRTDxfName
1000
AEC_DISP_PROPS_ENT_REF
1000
AcRTDxfName
1000
AEC_DISP_PROPS_ENT_REF
1000
AcRTDxfName
1000
AEC_DISP_PROPS_ENT_REF
1000
AcRTDxfName
1000
AEC_DISP_PROPS_ENT_REF
1000
AcRTDxfName
1000
AEC_DISP_PROPS_ENT_REF
1000
AcRTDxfName
1000
AEC_DISP_PROPS_ENT_REF
1000
AcRTDxfName
1000
AEC_DISP_PROPS_ENT_REF
  0
ACAD_PROXY_OBJECT
  5
1C4DB
102
{ACAD_REACTORS
330
1C4C7
102
}
330
1C4C7
100
AcDbProxyObject
 90
      499
 91
      531
 95
       31
 70
     0
 93
      781
310
51B4D14651800519465194651904D0951946946400000060801FDFEA03000000003684A8CA34A3200000030400FEFF501800000001B4254651A51B000000182007F7FA80C00000000DA12A328D28D8000000C1003FBFD4060000000066AAAAA1600C
340
F
340
12
340
0
340
F
340
12
340
0
340
F
340
12
340
0
340
F
340
12
340
0
 94
        0
1001
ACAD
1000
AcRTDxfName
1000
AEC_DISP_PROPS_LAYOUT_GRID2D
1000
AcRTDxfName
1000
AEC_DISP_PROPS_LAYOUT_GRID2D
1000
AcRTDxfName
1000
AEC_DISP_PROPS_LAYOUT_GRID2D
1000
AcRTDxfName
1000
AEC_DISP_PROPS_LAYOUT_GRID2D
1000
AcRTDxfName
1000
AEC_DISP_PROPS_LAYOUT_GRID2D
1000
AcRTDxfName
1000
AEC_DISP_PROPS_LAYOUT_GRID2D
1000
AcRTDxfName
1000
AEC_DISP_PROPS_LAYOUT_GRID2D
1000
AcRTDxfName
1000
AEC_DISP_PROPS_LAYOUT_GRID2D
  0
ACAD_PROXY_OBJECT
  5
1C4EF
102
{ACAD_REACTORS
330
1C4C7
102
}
330
1C4C7
100
AcDbProxyObject
 90
      499
 91
      545
 95
       31
 70
     0
 93
      467
310
51B4D146518005194651A5194640B4254651A51B000000182007F7FA80A0200000000DA12A328D28D8000000C1003FBFD406000000006AAA83802C
340
F
340
12
340
0
340
F
340
12
340
0
 94
        0
1001
ACAD
1000
AcRTDxfName
1000
AEC_DISP_PROPS_MASS_GROUP
1000
AcRTDxfName
1000
AEC_DISP_PROPS_MASS_GROUP
1000
AcRTDxfName
1000
AEC_DISP_PROPS_MASS_GROUP
1000
AcRTDxfName
1000
AEC_DISP_PROPS_MASS_GROUP
1000
AcRTDxfName
1000
AEC_DISP_PROPS_MASS_GROUP
1000
AcRTDxfName
1000
AEC_DISP_PROPS_MASS_GROUP
1000
AcRTDxfName
1000
AEC_DISP_PROPS_MASS_GROUP
1000
AcRTDxfName
1000
AEC_DISP_PROPS_MASS_GROUP
  0
ACAD_PROXY_OBJECT
  5
1C4DD
102
{ACAD_REACTORS
330
1C4C7
102
}
330
1C4C7
100
AcDbProxyObject
 90
      499
 91
      533
 95
       31
 70
     0
 93
      984
310
51B4D14651800519465194651904D0951946946400000060801FDFEA03000000003684A8CA34A3200000030400FEFF501800000001B4254651A51B000000182007F7FA80C00000000DA12A328D28D8000000C1003FBFD406000000006546519464074254651A51B000000182007F7FA80C00000000D55555543801CC
340
F
340
12
340
0
340
F
340
12
340
0
340
F
340
12
340
0
340
F
340
12
340
0
340
F
340
12
340
0
 94
        0
1001
ACAD
1000
AcRTDxfName
1000
AEC_DISP_PROPS_LAYOUT_GRID3D
1000
AcRTDxfName
1000
AEC_DISP_PROPS_LAYOUT_GRID3D
1000
AcRTDxfName
1000
AEC_DISP_PROPS_LAYOUT_GRID3D
1000
AcRTDxfName
1000
AEC_DISP_PROPS_LAYOUT_GRID3D
1000
AcRTDxfName
1000
AEC_DISP_PROPS_LAYOUT_GRID3D
1000
AcRTDxfName
1000
AEC_DISP_PROPS_LAYOUT_GRID3D
1000
AcRTDxfName
1000
AEC_DISP_PROPS_LAYOUT_GRID3D
1000
AcRTDxfName
1000
AEC_DISP_PROPS_LAYOUT_GRID3D
  0
ACAD_PROXY_OBJECT
  5
1C4E1
102
{ACAD_REACTORS
330
1C4C7
102
}
330
1C4C7
100
AcDbProxyObject
 90
      499
 91
      535
 95
       31
 70
     0
 93
      457
310
51B4D14651800519465194651902D0951946946C00000060801FDFEA03000000003684A8CA34A3600000030400FEFF501800000001AAAA0E00CC
340
F
340
12
340
0
340
F
340
12
340
0
 94
        0
1001
ACAD
1000
AcRTDxfName
1000
AEC_DISP_PROPS_MASKBLOCK
1000
AcRTDxfName
1000
AEC_DISP_PROPS_MASKBLOCK
1000
AcRTDxfName
1000
AEC_DISP_PROPS_MASKBLOCK
1000
AcRTDxfName
1000
AEC_DISP_PROPS_MASKBLOCK
1000
AcRTDxfName
1000
AEC_DISP_PROPS_MASKBLOCK
1000
AcRTDxfName
1000
AEC_DISP_PROPS_MASKBLOCK
1000
AcRTDxfName
1000
AEC_DISP_PROPS_MASKBLOCK
1000
AcRTDxfName
1000
AEC_DISP_PROPS_MASKBLOCK
  0
ACAD_PROXY_OBJECT
  5
1C4C4
102
{ACAD_REACTORS
330
1C4C3
102
}
330
1C4C3
100
AcDbProxyObject
 90
      499
 91
      515
 95
       31
 70
     0
 93
     1856
310
51B4D146518005194651A8FC812095550000000000000B08000000000000008200000000000001807E8F2048F205000200001204000000000000581F8000000000000B0807EC3FA6DEBC0E99F8000000000001C07FE8FCC02A41A4E2520CA600E2005C008C00E8005C008321803A80170023003A0017002089800620064006
310
001202DA008C2080248020801000140019001A801B00100021803780360037803900148010001000100010002080220019001A801B0021082008600820088008200A4008600900087A08032803180260030803C803280390029803A003200170032003B80338049C09CC
330
0
 94
        0
1001
ACAD
1000
AcRTDxfName
1000
AEC_VARS_DWG_SETUP
1000
AcRTDxfName
1000
AEC_VARS_DWG_SETUP
1000
AcRTDxfName
1000
AEC_VARS_DWG_SETUP
1000
AcRTDxfName
1000
AEC_VARS_DWG_SETUP
1000
AcRTDxfName
1000
AEC_VARS_DWG_SETUP
1000
AcRTDxfName
1000
AEC_VARS_DWG_SETUP
1000
AcRTDxfName
1000
AEC_VARS_DWG_SETUP
1000
AcRTDxfName
1000
AEC_VARS_DWG_SETUP
  0
DICTIONARY
  5
217C8
330
619
100
AcDbDictionary
280
     1
281
     1
  3
ACAD_XREC_ROUNDTRIP
360
217C9
  0
DICTIONARY
  5
217CA
330
61A
100
AcDbDictionary
280
     1
281
     1
  3
ACAD_XREC_ROUNDTRIP
360
217CB
  0
DICTIONARY
  5
1C5E6
330
1C5E5
100
AcDbDictionary
280
     1
281
     1
  3
ACAD_XREC_ROUNDTRIP
360
217CD
  3
BUMPTILE
360
1C5E8
  3
DIFFUSETILE
360
1C5E7
  3
OPACITYTILE
360
1C5EB
  3
REFLECTIONTILE
360
1C5EA
  3
REFRACTIONTILE
360
1C5EC
  3
SPECULARTILE
360
1C5E9
  0
DICTIONARY
  5
1C5DE
330
1C5DD
100
AcDbDictionary
280
     1
281
     1
  3
ACAD_XREC_ROUNDTRIP
360
217CC
  3
BUMPTILE
360
1C5E0
  3
DIFFUSETILE
360
1C5DF
  3
OPACITYTILE
360
1C5E3
  3
REFLECTIONTILE
360
1C5E2
  3
REFRACTIONTILE
360
1C5E4
  3
SPECULARTILE
360
1C5E1
  0
DICTIONARY
  5
1C5EE
330
1C5ED
100
AcDbDictionary
280
     1
281
     1
  3
ACAD_XREC_ROUNDTRIP
360
217CE
  3
BUMPTILE
360
1C5F0
  3
DIFFUSETILE
360
1C5EF
  3
OPACITYTILE
360
1C5F3
  3
REFLECTIONTILE
360
1C5F2
  3
REFRACTIONTILE
360
1C5F4
  3
SPECULARTILE
360
1C5F1
  0
DICTIONARY
  5
1C621
330
1C608
100
AcDbDictionary
280
     1
281
     1
  3
ACAD_ROUNDTRIP_2008_TABLESTYLE_CELLSTYLEMAP
360
217C6
  3
ACAD_XREC_ROUNDTRIP
360
217CF
  0
XRECORD
  5
217C9
102
{ACAD_REACTORS
330
217C8
102
}
330
217C8
100
AcDbXrecord
280
     1
102
SHADEPLOT
 70
     0
102
SHADEPLOTRESLEVEL
 70
     2
102
SHADEPLOTCUSTOMDPI
 70
   300
  0
XRECORD
  5
217CB
102
{ACAD_REACTORS
330
217CA
102
}
330
217CA
100
AcDbXrecord
280
     1
102
SHADEPLOT
 70
     0
102
SHADEPLOTRESLEVEL
 70
     2
102
SHADEPLOTCUSTOMDPI
 70
   300
  0
XRECORD
  5
217CD
102
{ACAD_REACTORS
330
1C5E6
102
}
330
1C5E6
100
AcDbXrecord
280
     1
102
MATERIAL
148
0.0
149
0.0
149
0.0
 93
        0
 94
      127
282
     0
 72
     0
 77
     0
171
     0
175
     0
179
     0
273
     0
  0
XRECORD
  5
1C5E8
102
{ACAD_REACTORS
330
1C5E6
102
}
330
1C5E6
100
AcDbXrecord
280
     1
270
     1
271
     1
  0
XRECORD
  5
1C5E7
102
{ACAD_REACTORS
330
1C5E6
102
}
330
1C5E6
100
AcDbXrecord
280
     1
270
     1
271
     1
  0
XRECORD
  5
1C5EB
102
{ACAD_REACTORS
330
1C5E6
102
}
330
1C5E6
100
AcDbXrecord
280
     1
270
     1
271
     1
  0
XRECORD
  5
1C5EA
102
{ACAD_REACTORS
330
1C5E6
102
}
330
1C5E6
100
AcDbXrecord
280
     1
270
     1
271
     1
  0
XRECORD
  5
1C5EC
102
{ACAD_REACTORS
330
1C5E6
102
}
330
1C5E6
100
AcDbXrecord
280
     1
270
     1
271
     1
  0
XRECORD
  5
1C5E9
102
{ACAD_REACTORS
330
1C5E6
102
}
330
1C5E6
100
AcDbXrecord
280
     1
270
     1
271
     1
  0
XRECORD
  5
217CC
102
{ACAD_REACTORS
330
1C5DE
102
}
330
1C5DE
100
AcDbXrecord
280
     1
102
MATERIAL
148
0.0
149
0.0
149
0.0
 93
        0
 94
      127
282
     0
 72
     0
 77
     0
171
     0
175
     0
179
     0
273
     0
  0
XRECORD
  5
1C5E0
102
{ACAD_REACTORS
330
1C5DE
102
}
330
1C5DE
100
AcDbXrecord
280
     1
270
     1
271
     1
  0
XRECORD
  5
1C5DF
102
{ACAD_REACTORS
330
1C5DE
102
}
330
1C5DE
100
AcDbXrecord
280
     1
270
     1
271
     1
  0
XRECORD
  5
1C5E3
102
{ACAD_REACTORS
330
1C5DE
102
}
330
1C5DE
100
AcDbXrecord
280
     1
270
     1
271
     1
  0
XRECORD
  5
1C5E2
102
{ACAD_REACTORS
330
1C5DE
102
}
330
1C5DE
100
AcDbXrecord
280
     1
270
     1
271
     1
  0
XRECORD
  5
1C5E4
102
{ACAD_REACTORS
330
1C5DE
102
}
330
1C5DE
100
AcDbXrecord
280
     1
270
     1
271
     1
  0
XRECORD
  5
1C5E1
102
{ACAD_REACTORS
330
1C5DE
102
}
330
1C5DE
100
AcDbXrecord
280
     1
270
     1
271
     1
  0
XRECORD
  5
217CE
102
{ACAD_REACTORS
330
1C5EE
102
}
330
1C5EE
100
AcDbXrecord
280
     1
102
MATERIAL
148
0.0
149
0.0
149
0.0
 93
        0
 94
      127
282
     0
 72
     0
 77
     0
171
     0
175
     0
179
     0
273
     0
  0
XRECORD
  5
1C5F0
102
{ACAD_REACTORS
330
1C5EE
102
}
330
1C5EE
100
AcDbXrecord
280
     1
270
     1
271
     1
  0
XRECORD
  5
1C5EF
102
{ACAD_REACTORS
330
1C5EE
102
}
330
1C5EE
100
AcDbXrecord
280
     1
270
     1
271
     1
  0
XRECORD
  5
1C5F3
102
{ACAD_REACTORS
330
1C5EE
102
}
330
1C5EE
100
AcDbXrecord
280
     1
270
     1
271
     1
  0
XRECORD
  5
1C5F2
102
{ACAD_REACTORS
330
1C5EE
102
}
330
1C5EE
100
AcDbXrecord
280
     1
270
     1
271
     1
  0
XRECORD
  5
1C5F4
102
{ACAD_REACTORS
330
1C5EE
102
}
330
1C5EE
100
AcDbXrecord
280
     1
270
     1
271
     1
  0
XRECORD
  5
1C5F1
102
{ACAD_REACTORS
330
1C5EE
102
}
330
1C5EE
100
AcDbXrecord
280
     1
270
     1
271
     1
  0
CELLSTYLEMAP
  5
217C6
102
{ACAD_REACTORS
330
1C621
102
}
330
1C621
100
AcDbCellStyleMap
 90
        3
300
CELLSTYLE
  1
TABLEFORMAT_BEGIN
 90
        5
170
     1
 91
        0
 92
    32768
 62
   257
 93
        1
300
CONTENTFORMAT
  1
CONTENTFORMAT_BEGIN
 90
        0
 91
        0
 92
      512
 93
        0
300

 40
0.0
140
1.0
 94
        5
 62
     0
340
10
144
0.25
309
CONTENTFORMAT_END
171
     0
 94
        0
309
TABLEFORMAT_END
  1
CELLSTYLE_BEGIN
 90
        1
 91
        1
300
_TITLE
309
CELLSTYLE_END
300
CELLSTYLE
  1
TABLEFORMAT_BEGIN
 90
        5
170
     1
 91
        0
 92
        0
 62
   257
 93
        1
300
CONTENTFORMAT
  1
CONTENTFORMAT_BEGIN
 90
        0
 91
        0
 92
      512
 93
        0
300

 40
0.0
140
1.0
 94
        5
 62
     0
340
10
144
0.18
309
CONTENTFORMAT_END
171
     0
 94
        0
309
TABLEFORMAT_END
  1
CELLSTYLE_BEGIN
 90
        2
 91
        1
300
_HEADER
309
CELLSTYLE_END
300
CELLSTYLE
  1
TABLEFORMAT_BEGIN
 90
        5
170
     1
 91
        0
 92
        0
 62
   257
 93
        1
300
CONTENTFORMAT
  1
CONTENTFORMAT_BEGIN
 90
        0
 91
        0
 92
      512
 93
        0
300

 40
0.0
140
1.0
 94
        2
 62
     0
340
10
144
0.18
309
CONTENTFORMAT_END
171
     0
 94
        0
309
TABLEFORMAT_END
  1
CELLSTYLE_BEGIN
 90
        3
 91
        2
300
_DATA
309
CELLSTYLE_END
  0
XRECORD
  5
217CF
102
{ACAD_REACTORS
330
1C621
102
}
330
1C621
100
AcDbXrecord
280
     1
102
ACAD_ROUNDTRIP_PRE2007_TABLESTYLE
 90
      512
 91
        0
  1

 92
      512
 93
        0
  2

 94
      512
 95
        0
  3

  0
ENDSEC
  0
EOF
