  0
SECTION
  2
HEADER
  9
$ACADVER
  1
AC1015
  9
$ACADMAINTVER
 70
     6
  9
$DWGCODEPAGE
  3
ANSI_932
  9
$INSBASE
 10
0.0
 20
0.0
 30
0.0
  9
$EXTMIN
 10
5412.868735247136
 20
477.1985126471133
 30
0.0
  9
$EXTMAX
 10
5504.518735247136
 20
560.6528675283716
 30
0.0
  9
$LIMMIN
 10
0.0
 20
0.0
  9
$LIMMAX
 10
840.0
 20
594.0
  9
$ORTHOMODE
 70
     1
  9
$REGENMODE
 70
     1
  9
$FILLMODE
 70
     1
  9
$QTEXTMODE
 70
     0
  9
$MIRRTEXT
 70
     1
  9
$LTSCALE
 40
7.0
  9
$ATTMODE
 70
     0
  9
$TEXTSIZE
 40
6.0
  9
$TRACEWID
 40
1.0
  9
$TEXTSTYLE
  7
STANDARD
  9
$CLAYER
  8
寸法線
  9
$CELTYPE
  6
BYLAYER
  9
$CECOLOR
 62
   256
  9
$CELTSCALE
 40
1.0
  9
$DISPSILH
 70
     0
  9
$DIMSCALE
 40
1.0
  9
$DIMASZ
 40
6.0
  9
$DIMEXO
 40
3.0
  9
$DIMDLI
 40
7.149999999999999
  9
$DIMRND
 40
0.0
  9
$DIMDLE
 40
0.0
  9
$DIMEXE
 40
2.0
  9
$DIMTP
 40
0.0
  9
$DIMTM
 40
0.0
  9
$DIMTXT
 40
5.0
  9
$DIMCEN
 40
0.0
  9
$DIMTSZ
 40
0.0
  9
$DIMTOL
 70
     0
  9
$DIMLIM
 70
     0
  9
$DIMTIH
 70
     0
  9
$DIMTOH
 70
     0
  9
$DIMSE1
 70
     0
  9
$DIMSE2
 70
     0
  9
$DIMTAD
 70
     3
  9
$DIMZIN
 70
     8
  9
$DIMBLK
  1
Open30
  9
$DIMASO
 70
     1
  9
$DIMSHO
 70
     0
  9
$DIMPOST
  1

  9
$DIMAPOST
  1

  9
$DIMALT
 70
     0
  9
$DIMALTD
 70
     2
  9
$DIMALTF
 40
25.4
  9
$DIMLFAC
 40
1.0
  9
$DIMTOFL
 70
     0
  9
$DIMTVP
 40
0.0
  9
$DIMTIX
 70
     0
  9
$DIMSOXD
 70
     0
  9
$DIMSAH
 70
     0
  9
$DIMBLK1
  1

  9
$DIMBLK2
  1

  9
$DIMSTYLE
  2
STANDARD
  9
$DIMCLRD
 70
     0
  9
$DIMCLRE
 70
     0
  9
$DIMCLRT
 70
     0
  9
$DIMTFAC
 40
1.0
  9
$DIMGAP
 40
2.0
  9
$DIMJUST
 70
     0
  9
$DIMSD1
 70
     0
  9
$DIMSD2
 70
     0
  9
$DIMTOLJ
 70
     1
  9
$DIMTZIN
 70
     0
  9
$DIMALTZ
 70
     0
  9
$DIMALTTZ
 70
     0
  9
$DIMUPT
 70
     1
  9
$DIMDEC
 70
     2
  9
$DIMTDEC
 70
     2
  9
$DIMALTU
 70
     2
  9
$DIMALTTD
 70
     2
  9
$DIMTXSTY
  7
STANDARD
  9
$DIMAUNIT
 70
     0
  9
$DIMADEC
 70
     2
  9
$DIMALTRND
 40
0.0
  9
$DIMAZIN
 70
     2
  9
$DIMDSEP
 70
    46
  9
$DIMATFIT
 70
     3
  9
$DIMFRAC
 70
     0
  9
$DIMLDRBLK
  1
Open30
  9
$DIMLUNIT
 70
     2
  9
$DIMLWD
 70
    -2
  9
$DIMLWE
 70
    -2
  9
$DIMTMOVE
 70
     0
  9
$LUNITS
 70
     2
  9
$LUPREC
 70
     2
  9
$SKETCHINC
 40
0.1
  9
$FILLETRAD
 40
0.16
  9
$AUNITS
 70
     0
  9
$AUPREC
 70
     2
  9
$MENU
  1
ACAD
  9
$ELEVATION
 40
0.0
  9
$PELEVATION
 40
0.0
  9
$THICKNESS
 40
0.0
  9
$LIMCHECK
 70
     0
  9
$CHAMFERA
 40
0.0
  9
$CHAMFERB
 40
0.0
  9
$CHAMFERC
 40
0.0
  9
$CHAMFERD
 40
0.0
  9
$SKPOLY
 70
     0
  9
$TDCREATE
 40
2449505.922222222
  9
$TDUCREATE
 40
2449505.547222222
  9
$TDUPDATE
 40
2456821.600813484
  9
$TDUUPDATE
 40
2456821.225813484
  9
$TDINDWG
 40
3.0810528009
  9
$TDUSRTIMER
 40
2456821.225675579
  9
$USRTIMER
 70
     1
  9
$ANGBASE
 50
0.0
  9
$ANGDIR
 70
     0
  9
$PDMODE
 70
     3
  9
$PDSIZE
 40
0.0
  9
$PLINEWID
 40
0.0
  9
$SPLFRAME
 70
     0
  9
$SPLINETYPE
 70
     6
  9
$SPLINESEGS
 70
     8
  9
$HANDSEED
  5
28446
  9
$SURFTAB1
 70
     6
  9
$SURFTAB2
 70
     6
  9
$SURFTYPE
 70
     6
  9
$SURFU
 70
     6
  9
$SURFV
 70
     6
  9
$UCSBASE
  2

  9
$UCSNAME
  2

  9
$UCSORG
 10
0.0
 20
0.0
 30
0.0
  9
$UCSXDIR
 10
1.0
 20
0.0
 30
0.0
  9
$UCSYDIR
 10
0.0
 20
1.0
 30
0.0
  9
$UCSORTHOREF
  2

  9
$UCSORTHOVIEW
 70
     0
  9
$UCSORGTOP
 10
0.0
 20
0.0
 30
0.0
  9
$UCSORGBOTTOM
 10
0.0
 20
0.0
 30
0.0
  9
$UCSORGLEFT
 10
0.0
 20
0.0
 30
0.0
  9
$UCSORGRIGHT
 10
0.0
 20
0.0
 30
0.0
  9
$UCSORGFRONT
 10
0.0
 20
0.0
 30
0.0
  9
$UCSORGBACK
 10
0.0
 20
0.0
 30
0.0
  9
$PUCSBASE
  2

  9
$PUCSNAME
  2

  9
$PUCSORG
 10
0.0
 20
0.0
 30
0.0
  9
$PUCSXDIR
 10
1.0
 20
0.0
 30
0.0
  9
$PUCSYDIR
 10
0.0
 20
1.0
 30
0.0
  9
$PUCSORTHOREF
  2

  9
$PUCSORTHOVIEW
 70
     0
  9
$PUCSORGTOP
 10
0.0
 20
0.0
 30
0.0
  9
$PUCSORGBOTTOM
 10
0.0
 20
0.0
 30
0.0
  9
$PUCSORGLEFT
 10
0.0
 20
0.0
 30
0.0
  9
$PUCSORGRIGHT
 10
0.0
 20
0.0
 30
0.0
  9
$PUCSORGFRONT
 10
0.0
 20
0.0
 30
0.0
  9
$PUCSORGBACK
 10
0.0
 20
0.0
 30
0.0
  9
$USERI1
 70
     0
  9
$USERI2
 70
     0
  9
$USERI3
 70
     0
  9
$USERI4
 70
     0
  9
$USERI5
 70
     0
  9
$USERR1
 40
0.0
  9
$USERR2
 40
0.0
  9
$USERR3
 40
0.0
  9
$USERR4
 40
0.0
  9
$USERR5
 40
0.0
  9
$WORLDVIEW
 70
     0
  9
$SHADEDGE
 70
     3
  9
$SHADEDIF
 70
    70
  9
$TILEMODE
 70
     1
  9
$MAXACTVP
 70
    16
  9
$PINSBASE
 10
0.0
 20
0.0
 30
0.0
  9
$PLIMCHECK
 70
     0
  9
$PEXTMIN
 10
1.000000000000000E+20
 20
1.000000000000000E+20
 30
1.000000000000000E+20
  9
$PEXTMAX
 10
-1.000000000000000E+20
 20
-1.000000000000000E+20
 30
-1.000000000000000E+20
  9
$PLIMMIN
 10
0.0
 20
0.0
  9
$PLIMMAX
 10
0.0
 20
0.0
  9
$UNITMODE
 70
     0
  9
$VISRETAIN
 70
     0
  9
$PLINEGEN
 70
     0
  9
$PSLTSCALE
 70
     0
  9
$TREEDEPTH
 70
  3020
  9
$CMLSTYLE
  2
STANDARD
  9
$CMLJUST
 70
     0
  9
$CMLSCALE
 40
1.0
  9
$PROXYGRAPHICS
 70
     1
  9
$MEASUREMENT
 70
     0
  9
$CELWEIGHT
370
    -1
  9
$ENDCAPS
280
     0
  9
$JOINSTYLE
280
     0
  9
$LWDISPLAY
290
     0
  9
$INSUNITS
 70
     0
  9
$HYPERLINKBASE
  1

  9
$STYLESHEET
  1
spax form.ctb
  9
$XEDIT
290
     1
  9
$CEPSNTYPE
380
     0
  9
$PSTYLEMODE
290
     1
  9
$FINGERPRINTGUID
  2
{C1CFCF3E-DF91-11D3-B30C-0060B0FA8DFC}
  9
$VERSIONGUID
  2
{93AD4366-743E-42D0-B3D8-CEDB6A59268E}
  9
$EXTNAMES
290
     1
  9
$PSVPSCALE
 40
0.0
  9
$OLESTARTUP
290
     0
  0
ENDSEC
  0
SECTION
  2
CLASSES
  0
CLASS
  1
LWPOLYLINE
  2
AcDbPolyline
  3
ObjectDBX Classes
 90
        0
280
     0
281
     1
  0
CLASS
  1
ACDBDICTIONARYWDFLT
  2
AcDbDictionaryWithDefault
  3
ObjectDBX Classes
 90
        0
280
     0
281
     0
  0
CLASS
  1
ACDBPLACEHOLDER
  2
AcDbPlaceHolder
  3
ObjectDBX Classes
 90
        0
280
     0
281
     0
  0
CLASS
  1
LAYOUT
  2
AcDbLayout
  3
ObjectDBX Classes
 90
        0
280
     0
281
     0
  0
CLASS
  1
DICTIONARYVAR
  2
AcDbDictionaryVar
  3
ObjectDBX Classes
 90
        0
280
     0
281
     0
  0
CLASS
  1
LONG_TRANSACTION
  2
AcDbLongTransaction
  3
ObjectDBX Classes
 90
        0
280
     0
281
     0
  0
CLASS
  1
LWPOLYLINE
  2
AcDbPolyline
  3
ObjectDBX Classes
 90
        0
280
     0
281
     1
  0
CLASS
  1
HATCH
  2
AcDbHatch
  3
ObjectDBX Classes
 90
        0
280
     0
281
     1
  0
CLASS
  1
XRECORD
  2
AcDbXrecord
  3
ObjectDBX Classes
 90
        0
280
     0
281
     0
  0
CLASS
  1
MATERIAL
  2
AcDbMaterial
  3
ObjectDBX Classes
 90
     1153
280
     0
281
     0
  0
CLASS
  1
VISUALSTYLE
  2
AcDbVisualStyle
  3
ObjectDBX Classes
 90
     4095
280
     0
281
     0
  0
CLASS
  1
TABLESTYLE
  2
AcDbTableStyle
  3
ObjectDBX Classes
 90
     4095
280
     0
281
     0
  0
CLASS
  1
SCALE
  2
AcDbScale
  3
ObjectDBX Classes
 90
     1153
280
     0
281
     0
  0
CLASS
  1
MLEADERSTYLE
  2
AcDbMLeaderStyle
  3
ACDB_MLEADERSTYLE_CLASS
 90
     4095
280
     0
281
     0
  0
CLASS
  1
CELLSTYLEMAP
  2
AcDbCellStyleMap
  3
ObjectDBX Classes
 90
     1152
280
     0
281
     0
  0
CLASS
  1
SORTENTSTABLE
  2
AcDbSortentsTable
  3
ObjectDBX Classes
 90
        0
280
     0
281
     0
  0
CLASS
  1
RASTERVARIABLES
  2
AcDbRasterVariables
  3
ISM
 90
        0
280
     0
281
     0
  0
CLASS
  1
SUN
  2
AcDbSun
  3
SCENEOE
 90
     1153
280
     0
281
     0
  0
ENDSEC
  0
SECTION
  2
TABLES
  0
TABLE
  2
VPORT
  5
8
330
0
100
AcDbSymbolTable
 70
     1
  0
VPORT
  5
27A71
330
8
100
AcDbSymbolTableRecord
100
AcDbViewportTableRecord
  2
*Active
 70
     0
 10
0.0
 20
0.0
 11
1.0
 21
1.0
 12
5458.693735247136
 22
518.9256900877424
 13
0.0
 23
0.0
 14
1.0
 24
1.0
 15
20.0
 25
20.0
 16
0.0
 26
0.0
 36
1.0
 17
0.0
 27
0.0
 37
0.0
 40
85.12344197888355
 41
1.731829573934837
 42
50.0
 43
0.0
 44
0.0
 50
0.0
 51
0.0
 71
    16
 72
  2000
 73
     1
 74
     0
 75
     0
 76
     0
 77
     0
 78
     1
281
     0
 65
     1
110
0.0
120
0.0
130
0.0
111
1.0
121
0.0
131
0.0
112
0.0
122
1.0
132
0.0
 79
     0
146
0.0
  0
ENDTAB
  0
TABLE
  2
LTYPE
  5
5
330
0
100
AcDbSymbolTable
 70
     6
  0
LTYPE
  5
12
330
5
100
AcDbSymbolTableRecord
100
AcDbLinetypeTableRecord
  2
BYBLOCK
 70
     0
  3

 72
    65
 73
     0
 40
0.0
  0
LTYPE
  5
13
330
5
100
AcDbSymbolTableRecord
100
AcDbLinetypeTableRecord
  2
BYLAYER
 70
     0
  3

 72
    65
 73
     0
 40
0.0
  0
LTYPE
  5
14
330
5
100
AcDbSymbolTableRecord
100
AcDbLinetypeTableRecord
  2
CONTINUOUS
 70
     0
  3
Solid line
 72
    65
 73
     0
 40
0.0
  0
LTYPE
  5
3D
330
5
100
AcDbSymbolTableRecord
100
AcDbLinetypeTableRecord
  2
PHANTOM
 70
     0
  3
_____ _ _ _____ _ _ _____ _ _ _____ _ _ ____
 72
    65
 73
     6
 40
2.5
 49
1.25
 74
     0
 49
-0.25
 74
     0
 49
0.25
 74
     0
 49
-0.25
 74
     0
 49
0.25
 74
     0
 49
-0.25
 74
     0
  0
LTYPE
  5
40D2
330
5
100
AcDbSymbolTableRecord
100
AcDbLinetypeTableRecord
  2
CENTER
 70
     0
  3
____ _ ____ _ ____ _ ____ _ ____ _ ____ _ ____ 
 72
    65
 73
     4
 40
2.0
 49
1.25
 74
     0
 49
-0.25
 74
     0
 49
0.25
 74
     0
 49
-0.25
 74
     0
  0
LTYPE
  5
A244
330
5
100
AcDbSymbolTableRecord
100
AcDbLinetypeTableRecord
  2
HIDDEN
 70
     0
  3
_ _ _ _ _ _ _ _ _ _ _ _ _ _ _ _ _ _ _ _ _ _ _
 72
    65
 73
     2
 40
0.375
 49
0.25
 74
     0
 49
-0.125
 74
     0
  0
ENDTAB
  0
TABLE
  2
LAYER
  5
2
102
{ACAD_XDICTIONARY
360
1B086
102
}
330
0
100
AcDbSymbolTable
 70
    24
  0
LAYER
  5
F
102
{ACAD_XDICTIONARY
360
1AFD3
102
}
330
2
100
AcDbSymbolTableRecord
100
AcDbLayerTableRecord
  2
0
 70
     0
 62
     7
  6
CONTINUOUS
370
    -3
390
40CA
  0
LAYER
  5
4C
102
{ACAD_XDICTIONARY
360
1AFDB
102
}
330
2
100
AcDbSymbolTableRecord
100
AcDbLayerTableRecord
  2
寸法線
 70
     0
 62
     7
  6
CONTINUOUS
370
    -3
390
40CA
  0
LAYER
  5
4D
102
{ACAD_XDICTIONARY
360
1AFDD
102
}
330
2
100
AcDbSymbolTableRecord
100
AcDbLayerTableRecord
  2
姿図
 70
     0
 62
     8
  6
CONTINUOUS
370
    -3
390
40CA
  0
LAYER
  5
40D4
102
{ACAD_XDICTIONARY
360
1AFE1
102
}
330
2
100
AcDbSymbolTableRecord
100
AcDbLayerTableRecord
  2
文字
 70
     0
 62
     7
  6
CONTINUOUS
370
    -3
390
40CA
  0
ENDTAB
  0
TABLE
  2
STYLE
  5
3
330
0
100
AcDbSymbolTable
 70
     1
  0
STYLE
  5
10
330
3
100
AcDbSymbolTableRecord
100
AcDbTextStyleTableRecord
  2
STANDARD
 70
     0
 40
0.0
 41
1.0
 50
0.0
 71
     0
 42
6.0
  3
MONOTXT
  4
BIGFONT
  0
ENDTAB
  0
TABLE
  2
VIEW
  5
6
330
0
100
AcDbSymbolTable
 70
     1
  0
VIEW
  5
41
330
6
100
AcDbSymbolTableRecord
100
AcDbViewTableRecord
  2
CUT1
 70
     0
 40
612.7795527156796
 10
420.0000000000169
 20
306.3897763578398
 41
840.0000000000338
 11
0.0
 21
0.0
 31
1.0
 12
0.0
 22
0.0
 32
0.0
 42
50.0
 43
0.0
 44
0.0
 50
0.0
 71
     0
281
     0
 72
     0
  0
ENDTAB
  0
TABLE
  2
UCS
  5
7
330
0
100
AcDbSymbolTable
 70
     0
  0
ENDTAB
  0
TABLE
  2
APPID
  5
9
330
0
100
AcDbSymbolTable
 70
     8
  0
APPID
  5
11
330
9
100
AcDbSymbolTableRecord
100
AcDbRegAppTableRecord
  2
ACAD
 70
     0
  0
APPID
  5
158AD
330
9
100
AcDbSymbolTableRecord
100
AcDbRegAppTableRecord
  2
AUTO_SEKKEIYA
 70
     0
  0
APPID
  5
1AFCF
330
9
100
AcDbSymbolTableRecord
100
AcDbRegAppTableRecord
  2
ACAD_MLEADERVER
 70
     0
  0
APPID
  5
1E776
330
9
100
AcDbSymbolTableRecord
100
AcDbRegAppTableRecord
  2
ACAD_EXEMPT_FROM_CAD_STANDARDS
 70
     0
  0
APPID
  5
1F07E
330
9
100
AcDbSymbolTableRecord
100
AcDbRegAppTableRecord
  2
AcAecLayerStandard
 70
     0
  0
APPID
  5
1F191
330
9
100
AcDbSymbolTableRecord
100
AcDbRegAppTableRecord
  2
ACAD_PSEXT
 70
     0
  0
APPID
  5
1FB49
330
9
100
AcDbSymbolTableRecord
100
AcDbRegAppTableRecord
  2
ACAD_DSTYLE_DIMJAG
 70
     0
  0
APPID
  5
1FB4A
330
9
100
AcDbSymbolTableRecord
100
AcDbRegAppTableRecord
  2
ACAD_DSTYLE_DIMTALN
 70
     0
  0
ENDTAB
  0
TABLE
  2
DIMSTYLE
  5
A
330
0
100
AcDbSymbolTable
 70
     3
100
AcDbDimStyleTable
  0
DIMSTYLE
105
1B3A
330
A
100
AcDbSymbolTableRecord
100
AcDbDimStyleTableRecord
  2
STANDARD
 70
     0
 41
4.0
 42
3.0
 43
7.149999999999999
 44
2.0
 73
     0
 74
     0
 77
     3
 78
     8
 79
     2
140
5.0
141
0.0
147
2.0
178
     0
179
     2
271
     2
272
     2
288
     1
340
10
341
49C3
342
49C3
  0
ENDTAB
  0
TABLE
  2
BLOCK_RECORD
  5
1
330
0
100
AcDbSymbolTable
 70
    60
  0
BLOCK_RECORD
  5
18
102
{ACAD_XDICTIONARY
360
9FD5
102
}
330
1
100
AcDbSymbolTableRecord
100
AcDbBlockTableRecord
  2
*MODEL_SPACE
340
40CD
  0
BLOCK_RECORD
  5
15
330
1
100
AcDbSymbolTableRecord
100
AcDbBlockTableRecord
  2
*PAPER_SPACE
340
40CE
  0
BLOCK_RECORD
  5
49C3
330
1
100
AcDbSymbolTableRecord
100
AcDbBlockTableRecord
  2
_OPEN
340
0
102
{BLKREFS
331
19160
331
19161
331
19172
331
19173
331
1917B
331
1917C
331
19186
331
19187
331
1918F
331
19190
331
1919A
331
1919B
331
1939D
331
1939E
331
19418
331
19419
331
19D23
331
19D24
331
19D35
331
19D36
331
19D3E
331
19D3F
331
19D47
331
19D48
331
19D5D
331
19D5E
331
19D89
331
19D8A
331
1AF07
331
1AF08
331
1AF10
331
1AF11
331
1AF24
331
1AF25
331
1AF2D
331
1AF2E
331
1AF43
331
1AF44
331
1AF4D
331
1AF4E
102
}
  0
BLOCK_RECORD
  5
FD36
330
1
100
AcDbSymbolTableRecord
100
AcDbBlockTableRecord
  2
_Open30
340
0
102
{BLKREFS
331
1C213
331
1C214
331
1C21C
331
1C21D
331
1C225
331
1C226
331
1C230
331
1C231
331
1C239
331
1C23A
331
1C242
331
1C243
331
1FB12
331
1FB13
331
1FB1D
331
1FB1E
331
1FB26
331
1FB27
331
1FB2F
331
1FB30
331
1FB3A
331
1FB3B
331
1FB43
331
1FB44
331
266AB
331
266AC
331
266B5
331
266B6
331
266BE
331
266BF
331
266C7
331
266C8
331
266D2
331
266D3
331
266DB
331
266DC
331
2705F
331
27060
331
27068
331
27069
331
27073
331
27074
331
2707C
331
2707D
331
27091
331
27092
331
2709E
331
2709F
331
27A16
331
27A17
331
27A1F
331
27A20
331
27A2A
331
27A2B
331
27A33
331
27A34
331
27A3E
331
27A3F
331
283B2
331
283B3
331
283BD
331
283BE
331
283C6
331
283C7
331
283CF
331
283D0
331
283DA
331
283DB
331
283F7
331
283F8
102
}
  0
ENDTAB
  0
ENDSEC
  0
SECTION
  2
BLOCKS
  0
BLOCK
  5
52
330
18
100
AcDbEntity
  8
0
100
AcDbBlockBegin
  2
*MODEL_SPACE
 70
     0
 10
0.0
 20
0.0
 30
0.0
  3
*MODEL_SPACE
  1
*MODEL_SPACE
  0
ENDBLK
  5
53
330
18
100
AcDbEntity
  8
0
100
AcDbBlockEnd
  0
BLOCK
  5
50
330
15
100
AcDbEntity
 67
     1
  8
0
100
AcDbBlockBegin
  2
*PAPER_SPACE
 70
     0
 10
0.0
 20
0.0
 30
0.0
  3
*PAPER_SPACE
  1
*PAPER_SPACE
  0
ENDBLK
  5
51
330
15
100
AcDbEntity
 67
     1
  8
0
100
AcDbBlockEnd
  0
BLOCK
  5
49C7
330
49C3
100
AcDbEntity
  8
0
100
AcDbBlockBegin
  2
_OPEN
 70
     0
 10
0.0
 20
0.0
 30
0.0
  3
_OPEN
  1
_OPEN
  0
LINE
  5
49C4
330
49C3
100
AcDbEntity
  8
0
  6
ByBlock
 62
     0
100
AcDbLine
 10
-1.0
 20
0.1666666666666667
 30
0.0
 11
0.0
 21
0.0
 31
0.0
  0
LINE
  5
49C5
330
49C3
100
AcDbEntity
  8
0
  6
ByBlock
 62
     0
100
AcDbLine
 10
0.0
 20
0.0
 30
0.0
 11
-1.0
 21
-0.1666666666666667
 31
0.0
  0
LINE
  5
49C6
330
49C3
100
AcDbEntity
  8
0
  6
ByBlock
 62
     0
100
AcDbLine
 10
0.0
 20
0.0
 30
0.0
 11
-1.0
 21
0.0
 31
0.0
  0
ENDBLK
  5
49C8
330
49C3
100
AcDbEntity
  8
0
100
AcDbBlockEnd
  0
BLOCK
  5
FD3A
330
FD36
100
AcDbEntity
  8
0
100
AcDbBlockBegin
  2
_Open30
 70
     0
 10
0.0
 20
0.0
 30
0.0
  3
_Open30
  1
_Open30
  0
LINE
  5
FD37
330
FD36
100
AcDbEntity
  8
寸法線
 62
     0
370
    -2
100
AcDbLine
 10
-1.0
 20
0.26794919
 30
0.0
 11
0.0
 21
0.0
 31
0.0
  0
LINE
  5
FD38
330
FD36
100
AcDbEntity
  8
寸法線
 62
     0
370
    -2
100
AcDbLine
 10
0.0
 20
0.0
 30
0.0
 11
-1.0
 21
-0.26794919
 31
0.0
  0
LINE
  5
FD39
330
FD36
100
AcDbEntity
  8
寸法線
 62
     0
370
    -2
100
AcDbLine
 10
0.0
 20
0.0
 30
0.0
 11
-1.0
 21
0.0
 31
0.0
  0
ENDBLK
  5
FD3B
330
FD36
100
AcDbEntity
  8
0
100
AcDbBlockEnd
  0
ENDSEC
  0
SECTION
  2
ENTITIES
  0
LINE
  5
280AD
330
18
100
AcDbEntity
  8
姿図
100
AcDbLine
 10
5462.237229208435
 20
528.7272648883256
 30
0.0
 11
5462.406383396803
 21
519.763298688239
 31
0.0
  0
LINE
  5
280AE
330
18
100
AcDbEntity
  8
姿図
100
AcDbLine
 10
5461.641916708435
 20
529.6974037772147
 30
0.0
 11
5461.994694486212
 21
516.644625999437
 31
0.0
  0
LINE
  5
280AF
330
18
100
AcDbEntity
  8
姿図
100
AcDbLine
 10
5457.348983223192
 20
525.4585582911036
 30
0.0
 11
5455.271849027228
 21
526.9080822168848
 31
0.0
  0
SPLINE
  5
280B0
330
18
100
AcDbEntity
  8
姿図
100
AcDbSpline
210
0.0
220
0.0
230
1.0
 70
     8
 71
     3
 72
    12
 73
     8
 74
     6
 42
0.000000001
 43
0.0000000001
 44
0.0000000001
 40
0.0
 40
0.0
 40
0.0
 40
0.0
 40
2.344472056217917
 40
3.48506950182749
 40
4.152524498741307
 40
4.565337826234322
 40
5.186795096789631
 40
5.186795096789631
 40
5.186795096789631
 40
5.186795096789631
 10
5469.78723951744
 20
527.8601062156845
 30
0.0
 10
5469.948436210383
 20
527.087808430568
 30
0.0
 10
5470.188055905092
 20
525.9397838891364
 30
0.0
 10
5470.009012519315
 20
524.5524817066104
 30
0.0
 10
5469.771556595013
 20
523.8443583681834
 30
0.0
 10
5469.443966919045
 20
523.3718790595517
 30
0.0
 10
5469.165075569911
 20
523.1649305630127
 30
0.0
 10
5468.99749944724
 20
523.0405824010836
 30
0.0
 11
5469.78723951744
 21
527.8601062156845
 31
0.0
 11
5470.09438705653
 21
525.5358408238633
 31
0.0
 11
5469.942702980105
 21
524.4053743387828
 31
0.0
 11
5469.709035880031
 21
523.780157688934
 31
0.0
 11
5469.471420616554
 21
523.4425872075251
 31
0.0
 11
5468.99749944724
 21
523.0405824010836
 31
0.0
  0
LINE
  5
280B1
330
18
100
AcDbEntity
  8
姿図
100
AcDbLine
 10
5471.376963509858
 20
528.1462109327924
 30
0.0
 11
5469.990856373606
 21
526.8039610077769
 31
0.0
  0
SPLINE
  5
280B2
330
18
100
AcDbEntity
  8
姿図
100
AcDbSpline
210
0.0
220
0.0
230
1.0
 70
     8
 71
     3
 72
     8
 73
     4
 74
     0
 42
0.000000001
 43
0.0000000001
 40
36.0
 40
36.0
 40
36.0
 40
36.0
 40
37.0
 40
37.0
 40
37.0
 40
37.0
 10
5474.874872980135
 20
529.3961301769543
 30
0.0
 10
5472.621780532219
 20
526.4435110905827
 30
0.0
 10
5470.912496406785
 20
524.4493175684472
 30
0.0
 10
5470.239152494025
 20
523.9055092459646
 30
0.0
  0
LINE
  5
280B3
330
18
100
AcDbEntity
  8
姿図
100
AcDbLine
 10
5471.436067462193
 20
527.7003629417279
 30
0.0
 11
5470.064672727212
 21
526.2415425787979
 31
0.0
  0
LINE
  5
280B4
330
18
100
AcDbEntity
  8
姿図
100
AcDbLine
 10
5471.478620905782
 20
527.1407815069913
 30
0.0
 11
5470.095335670669
 21
525.6633441170707
 31
0.0
  0
SPLINE
  5
280B5
330
18
100
AcDbEntity
  8
姿図
100
AcDbSpline
210
0.0
220
0.0
230
1.0
 70
     8
 71
     3
 72
     8
 73
     4
 74
     0
 42
0.000000001
 43
0.0000000001
 40
4.0
 40
4.0
 40
4.0
 40
4.0
 40
5.0
 40
5.0
 40
5.0
 40
5.0
 10
5436.883307360562
 20
522.9319252615896
 30
0.0
 10
5436.436995240336
 20
524.178016298916
 30
0.0
 10
5435.453248224277
 20
526.8305675684473
 30
0.0
 10
5436.630265097107
 20
529.0054563488293
 30
0.0
  0
SPLINE
  5
280B6
330
18
100
AcDbEntity
  8
姿図
100
AcDbSpline
210
0.0
220
0.0
230
1.0
 70
     8
 71
     3
 72
     8
 73
     4
 74
     0
 42
0.000000001
 43
0.0000000001
 40
0.0
 40
0.0
 40
0.0
 40
0.0
 40
1.0
 40
1.0
 40
1.0
 40
1.0
 10
5441.489486152879
 20
531.3290009994369
 30
0.0
 10
5439.07645514702
 20
531.3290009994369
 30
0.0
 10
5435.315875041768
 20
529.3446259994369
 30
0.0
 10
5437.123861152879
 20
523.7442787772147
 30
0.0
  0
SPLINE
  5
280B7
330
18
100
AcDbEntity
  8
姿図
100
AcDbSpline
210
0.0
220
0.0
230
1.0
 70
     8
 71
     3
 72
     8
 73
     4
 74
     0
 42
0.000000001
 43
0.0000000001
 40
0.0
 40
0.0
 40
0.0
 40
0.0
 40
1.0
 40
1.0
 40
1.0
 40
1.0
 10
5436.883307360562
 20
522.9319252615896
 30
0.0
 10
5437.491797350796
 20
524.3998804482217
 30
0.0
 10
5438.68199171386
 20
526.7795801552529
 30
0.0
 10
5441.533583375101
 20
531.2187579438812
 30
0.0
  0
SPLINE
  5
280B8
330
18
100
AcDbEntity
  8
姿図
100
AcDbSpline
210
0.0
220
0.0
230
1.0
 70
     8
 71
     3
 72
     8
 73
     4
 74
     0
 42
0.000000001
 43
0.0000000001
 40
0.0
 40
0.0
 40
0.0
 40
0.0
 40
1.0
 40
1.0
 40
1.0
 40
1.0
 10
5464.838965319546
 20
533.8866398883258
 30
0.0
 10
5466.779243097324
 20
532.2698565766939
 30
0.0
 10
5468.682830608173
 20
528.2347884885862
 30
0.0
 10
5468.602521707575
 20
526.6649942615729
 30
0.0
  0
SPLINE
  5
280B9
330
18
100
AcDbEntity
  8
姿図
100
AcDbSpline
210
0.0
220
0.0
230
1.0
 70
     8
 71
     3
 72
     8
 73
     4
 74
     0
 42
0.000000001
 43
0.0000000001
 40
0.0
 40
0.0
 40
0.0
 40
0.0
 40
1.0
 40
1.0
 40
1.0
 40
1.0
 10
5465.831152819546
 20
521.1425426661035
 30
0.0
 10
5464.772819486212
 20
527.2279593327701
 30
0.0
 10
5464.287750041767
 20
530.1383759994369
 30
0.0
 10
5463.14122226399
 20
531.5053898883259
 30
0.0
  0
LINE
  5
280BA
330
18
100
AcDbEntity
  8
姿図
100
AcDbLine
 10
5460.377738919806
 20
514.3147079221801
 30
0.0
 11
5460.142611152879
 21
530.0501815549926
 31
0.0
  0
LINE
  5
280BB
330
18
100
AcDbEntity
  8
姿図
100
AcDbLine
 10
5459.922125041768
 20
514.1751815549926
 30
0.0
 11
5459.74573615288
 21
529.9178898883258
 31
0.0
  0
LINE
  5
280BC
330
18
100
AcDbEntity
  8
姿図
100
AcDbLine
 10
5453.645591703009
 20
531.3951468327703
 30
0.0
 11
5453.851436158304
 21
518.0777857216592
 31
0.0
  0
LINE
  5
280BD
330
18
100
AcDbEntity
  8
姿図
100
AcDbLine
 10
5455.262547269415
 20
531.0129134885863
 30
0.0
 11
5455.428514744459
 21
521.6946192177529
 31
0.0
  0
LINE
  5
280BE
330
18
100
AcDbEntity
  8
姿図
100
AcDbLine
 10
5453.292813925232
 20
531.0129134885863
 30
0.0
 11
5453.498658380527
 21
518.1365245996974
 31
0.0
  0
LINE
  5
280BF
330
18
100
AcDbEntity
  8
姿図
100
AcDbLine
 10
5452.175655586472
 20
530.6013968327702
 30
0.0
 11
5452.075058798278
 21
522.0549762056
 31
0.0
  0
SPLINE
  5
280C0
330
18
100
AcDbEntity
  8
姿図
100
AcDbSpline
210
0.0
220
0.0
230
1.0
 70
     8
 71
     3
 72
     8
 73
     4
 74
     0
 42
0.000000001
 43
0.0000000001
 40
0.0
 40
0.0
 40
0.0
 40
0.0
 40
1.0
 40
1.0
 40
1.0
 40
1.0
 10
5471.281665204857
 20
524.9614664268822
 30
0.0
 10
5472.453821049678
 20
530.0005752297645
 30
0.0
 10
5468.292501289598
 20
534.8093225868936
 30
0.0
 10
5466.646262411559
 20
536.5732114757823
 30
0.0
  0
SPLINE
  5
28165
330
18
100
AcDbEntity
  8
姿図
100
AcDbSpline
210
0.0
220
0.0
230
1.0
 70
     8
 71
     3
 72
     8
 73
     4
 74
     0
 42
0.000000001
 43
0.0000000001
 40
0.0
 40
0.0
 40
0.0
 40
0.0
 40
1.0
 40
1.0
 40
1.0
 40
1.0
 10
5435.492866822367
 20
519.3428247841591
 30
0.0
 10
5437.796688301316
 20
520.8638344412773
 30
0.0
 10
5442.002719252922
 20
521.8806543740029
 30
0.0
 10
5446.986136000969
 20
522.0999347016939
 30
0.0
  0
SPLINE
  5
28166
330
18
100
AcDbEntity
  8
姿図
100
AcDbSpline
210
0.0
220
0.0
230
1.0
 70
     8
 71
     3
 72
     8
 73
     4
 74
     0
 42
0.000000001
 43
0.0000000001
 40
0.0
 40
0.0
 40
0.0
 40
0.0
 40
1.0
 40
1.0
 40
1.0
 40
1.0
 10
5433.990632935648
 20
516.6244721908431
 30
0.0
 10
5434.513340048278
 20
519.0947779091591
 30
0.0
 10
5439.881229452575
 20
521.0865598644543
 30
0.0
 10
5446.833001506611
 20
521.4877412338119
 30
0.0
  0
SPLINE
  5
28167
330
18
100
AcDbEntity
  8
姿図
100
AcDbSpline
210
0.0
220
0.0
230
1.0
 70
     8
 71
     3
 72
     8
 73
     4
 74
     0
 42
0.000000001
 43
0.0000000001
 40
0.0
 40
0.0
 40
0.0
 40
0.0
 40
1.0
 40
1.0
 40
1.0
 40
1.0
 10
5445.67872226399
 20
520.1357135102876
 30
0.0
 10
5439.593305597324
 20
519.7240245996973
 30
0.0
 10
5434.507397258565
 20
517.6955523774752
 30
0.0
 10
5434.59559170301
 20
517.3134912880653
 30
0.0
  0
SPLINE
  5
28168
330
18
100
AcDbEntity
  8
姿図
100
AcDbSpline
210
0.0
220
0.0
230
1.0
 70
     8
 71
     3
 72
    11
 73
     7
 74
     0
 42
0.000000001
 43
0.0000000001
 40
0.0
 40
0.0
 40
0.0
 40
0.0
 40
1.0
 40
1.0
 40
1.0
 40
2.0
 40
2.0
 40
2.0
 40
2.0
 10
5431.681643813469
 20
510.7852075966591
 30
0.0
 10
5435.311740927184
 20
512.8560544933605
 30
0.0
 10
5442.048280640726
 20
514.0471962576835
 30
0.0
 10
5449.753495077575
 20
514.0471962576835
 30
0.0
 10
5457.614772339944
 20
514.0471962576835
 30
0.0
 10
5464.045215319546
 20
512.8412405827703
 30
0.0
 10
5467.624152765293
 20
510.8591048948363
 30
0.0
  0
ELLIPSE
  5
28169
330
18
100
AcDbEntity
  8
姿図
100
AcDbEllipse
 10
5449.647601455071
 20
506.9563284733952
 30
0.0
 11
20.74330749511719
 21
0.0
 31
0.0
210
0.0
220
0.0
230
1.0
 40
0.324823693302516
 41
0.0
 42
6.283185307179586
  0
SPLINE
  5
2816A
330
18
100
AcDbEntity
  8
姿図
100
AcDbSpline
210
0.0
220
0.0
230
1.0
 70
     8
 71
     3
 72
    11
 73
     7
 74
     0
 42
0.000000001
 43
0.0000000001
 40
0.0
 40
0.0
 40
0.0
 40
0.0
 40
1.0
 40
1.0
 40
1.0
 40
2.0
 40
2.0
 40
2.0
 40
2.0
 10
5462.27426398491
 20
509.7062036904092
 30
0.0
 10
5459.345932821716
 20
508.5698389443153
 30
0.0
 10
5454.95386671386
 20
507.8472301661036
 30
0.0
 10
5450.04434726399
 20
507.8472301661036
 30
0.0
 10
5445.007876045457
 20
507.8472301661036
 30
0.0
 10
5440.516160550666
 20
508.6075627398884
 30
0.0
 10
5437.590499336473
 20
509.7954316634994
 30
0.0
  0
SPLINE
  5
2816B
330
18
100
AcDbEntity
  8
姿図
100
AcDbSpline
210
0.0
220
0.0
230
1.0
 70
     8
 71
     3
 72
    11
 73
     7
 74
     0
 42
0.000000001
 43
0.0000000001
 40
0.0
 40
0.0
 40
0.0
 40
0.0
 40
1.0
 40
1.0
 40
1.0
 40
2.0
 40
2.0
 40
2.0
 40
2.0
 10
5462.850628459737
 20
509.4454099621105
 30
0.0
 10
5459.96260491373
 20
508.1056123275619
 30
0.0
 10
5455.184946493591
 20
507.2298690549926
 30
0.0
 10
5449.779763930657
 20
507.2298690549926
 30
0.0
 10
5444.371136272237
 20
507.2298690549926
 30
0.0
 10
5439.590807903096
 20
508.106818110982
 30
0.0
 10
5436.703387248799
 20
509.4481660384993
 30
0.0
  0
SPLINE
  5
2816C
330
18
100
AcDbEntity
  8
姿図
100
AcDbSpline
210
0.0
220
0.0
230
1.0
 70
     8
 71
     3
 72
    11
 73
     7
 74
     0
 42
0.000000001
 43
0.0000000001
 40
0.0
 40
0.0
 40
0.0
 40
0.0
 40
1.0
 40
1.0
 40
1.0
 40
2.0
 40
2.0
 40
2.0
 40
2.0
 10
5463.463166437166
 20
509.1346623492634
 30
0.0
 10
5460.669883017028
 20
507.6234712142807
 30
0.0
 10
5455.586816882045
 20
506.6125079438814
 30
0.0
 10
5449.779763930657
 20
506.6125079438814
 30
0.0
 10
5443.981237590596
 20
506.6125079438814
 30
0.0
 10
5438.904889391812
 20
507.6203706283432
 30
0.0
 10
5436.108936022671
 20
509.1279444130653
 30
0.0
  0
SPLINE
  5
2816D
330
18
100
AcDbEntity
  8
姿図
100
AcDbSpline
210
0.0
220
0.0
230
1.0
 70
     8
 71
     3
 72
    11
 73
     7
 74
     0
 42
0.000000001
 43
0.0000000001
 40
0.0
 40
0.0
 40
0.0
 40
0.0
 40
1.0
 40
1.0
 40
1.0
 40
2.0
 40
2.0
 40
2.0
 40
2.0
 10
5464.07380961208
 20
508.7913585840722
 30
0.0
 10
5461.457948609476
 20
507.0815576943153
 30
0.0
 10
5456.039588556308
 20
505.9069523883256
 30
0.0
 10
5449.779763930657
 20
505.9069523883256
 30
0.0
 10
5443.543796591247
 20
505.9069523883256
 30
0.0
 10
5438.143006525058
 20
507.0726004460514
 30
0.0
 10
5435.515862834736
 20
508.7717215398015
 30
0.0
  0
SPLINE
  5
2816E
330
18
100
AcDbEntity
  8
姿図
100
AcDbSpline
210
0.0
220
0.0
230
1.0
 70
     8
 71
     3
 72
    11
 73
     7
 74
     0
 42
0.000000001
 43
0.0000000001
 40
0.0
 40
0.0
 40
0.0
 40
0.0
 40
1.0
 40
1.0
 40
1.0
 40
2.0
 40
2.0
 40
2.0
 40
2.0
 10
5464.627436456698
 20
508.3507308713986
 30
0.0
 10
5462.183313464076
 20
506.4984752832911
 30
0.0
 10
5456.534304268113
 20
505.2013968327703
 30
0.0
 10
5449.956152819546
 20
505.2013968327703
 30
0.0
 10
5443.185765042853
 20
505.2013968327703
 30
0.0
 10
5437.399813301316
 20
506.5754731674058
 30
0.0
 10
5435.079024727098
 20
508.5145451617634
 30
0.0
  0
SPLINE
  5
2816F
330
18
100
AcDbEntity
  8
姿図
100
AcDbSpline
210
0.0
220
0.0
230
1.0
 70
     8
 71
     3
 72
    11
 73
     7
 74
     0
 42
0.000000001
 43
0.0000000001
 40
0.0
 40
0.0
 40
0.0
 40
0.0
 40
1.0
 40
1.0
 40
1.0
 40
2.0
 40
2.0
 40
2.0
 40
2.0
 10
5465.064446819111
 20
508.0150063162771
 30
0.0
 10
5462.917118802618
 20
505.96793057843
 30
0.0
 10
5456.963821547844
 20
504.4958412772146
 30
0.0
 10
5449.956152819546
 20
504.4958412772146
 30
0.0
 10
5442.778554756394
 20
504.4958412772146
 30
0.0
 10
5436.707435235996
 20
506.040105328864
 30
0.0
 10
5434.698513930657
 20
508.1648679699231
 30
0.0
  0
SPLINE
  5
28170
330
18
100
AcDbEntity
  8
姿図
100
AcDbSpline
210
0.0
220
0.0
230
1.0
 70
     8
 71
     3
 72
    11
 73
     7
 74
     0
 42
0.000000001
 43
0.0000000001
 40
0.0
 40
0.0
 40
0.0
 40
0.0
 40
1.0
 40
1.0
 40
1.0
 40
2.0
 40
2.0
 40
2.0
 40
2.0
 10
5465.228261109476
 20
507.7487004352008
 30
0.0
 10
5463.3308747705
 20
505.5660601899751
 30
0.0
 10
5457.172249824755
 20
503.9666746105479
 30
0.0
 10
5449.867958375102
 20
503.9666746105479
 30
0.0
 10
5442.452390341247
 20
503.9666746105479
 30
0.0
 10
5436.217801040032
 20
505.6149805458779
 30
0.0
 10
5434.423939820414
 20
507.8487804590723
 30
0.0
  0
SPLINE
  5
28171
330
18
100
AcDbEntity
  8
姿図
100
AcDbSpline
210
0.0
220
0.0
230
1.0
 70
     8
 71
     3
 72
    11
 73
     7
 74
     0
 42
0.000000001
 43
0.0000000001
 40
0.0
 40
0.0
 40
0.0
 40
0.0
 40
1.0
 40
1.0
 40
1.0
 40
2.0
 40
2.0
 40
2.0
 40
2.0
 10
5465.486643270935
 20
507.3842093327703
 30
0.0
 10
5463.960638225361
 20
505.0289698036904
 30
0.0
 10
5457.547592977966
 20
503.2611190549926
 30
0.0
 10
5449.867958375102
 20
503.2611190549926
 30
0.0
 10
5442.02425109971
 20
503.2611190549926
 30
0.0
 10
5435.50182407063
 20
505.1054509234821
 30
0.0
 10
5434.158322958435
 20
507.5359657889335
 30
0.0
  0
SPLINE
  5
28172
330
18
100
AcDbEntity
  8
姿図
100
AcDbSpline
210
0.0
220
0.0
230
1.0
 70
     8
 71
     3
 72
    11
 73
     7
 74
     0
 42
0.000000001
 43
0.0000000001
 40
0.0
 40
0.0
 40
0.0
 40
0.0
 40
1.0
 40
1.0
 40
1.0
 40
2.0
 40
2.0
 40
2.0
 40
2.0
 10
5465.640639039164
 20
507.0414223319021
 30
0.0
 10
5464.452597860778
 20
504.5502737858953
 30
0.0
 10
5457.843182170674
 20
502.6437579438814
 30
0.0
 10
5449.867958375102
 20
502.6437579438814
 30
0.0
 10
5441.622725220805
 20
502.6437579438814
 30
0.0
 10
5434.837523533522
 20
504.6817041786903
 30
0.0
 10
5433.993216757262
 20
507.2963593978745
 30
0.0
  0
SPLINE
  5
28173
330
18
100
AcDbEntity
  8
姿図
100
AcDbSpline
210
0.0
220
0.0
230
1.0
 70
     8
 71
     3
 72
    11
 73
     7
 74
     0
 42
0.000000001
 43
0.0000000001
 40
0.0
 40
0.0
 40
0.0
 40
0.0
 40
1.0
 40
1.0
 40
1.0
 40
2.0
 40
2.0
 40
2.0
 40
2.0
 10
5465.750365330396
 20
506.6154362750447
 30
0.0
 10
5464.941112400709
 20
503.9888954764335
 30
0.0
 10
5458.138943618157
 20
501.9382023883256
 30
0.0
 10
5449.867958375102
 20
501.9382023883256
 30
0.0
 10
5441.051700643981
 20
501.9382023883256
 30
0.0
 10
5433.904763930657
 20
504.2681204655828
 30
0.0
 10
5433.904763930657
 20
507.1416746105481
 30
0.0
  0
SPLINE
  5
28174
330
18
100
AcDbEntity
  8
姿図
100
AcDbSpline
210
0.0
220
0.0
230
1.0
 70
    11
 71
     3
 72
    20
 73
    16
 74
     0
 42
0.000000001
 43
0.0000000001
 40
0.0
 40
0.0
 40
0.0
 40
0.0
 40
1.0
 40
1.0
 40
1.0
 40
2.0
 40
2.0
 40
2.0
 40
3.0
 40
3.0
 40
3.0
 40
4.0
 40
4.0
 40
4.0
 40
5.0
 40
5.0
 40
5.0
 40
5.0
 10
5434.464247437601
 20
507.9080361014335
 30
0.0
 10
5436.412190552835
 20
510.0648381305134
 30
0.0
 10
5442.531799792202
 20
511.6395912772148
 30
0.0
 10
5449.779763930657
 20
511.6395912772148
 30
0.0
 10
5458.595935534389
 20
511.6395912772148
 30
0.0
 10
5465.742958375102
 20
509.3096731999578
 30
0.0
 10
5465.742958375102
 20
506.4361190549923
 30
0.0
 10
5465.742958375102
 20
503.5625649100273
 30
0.0
 10
5458.595935534389
 20
501.2326468327703
 30
0.0
 10
5449.779763930657
 20
501.2326468327703
 30
0.0
 10
5440.963506199537
 20
501.2326468327703
 30
0.0
 10
5433.816569486213
 20
503.5625649100273
 30
0.0
 10
5433.816569486213
 20
506.4361190549923
 30
0.0
 10
5433.816569486213
 20
506.9473712251313
 30
0.0
 10
5434.042740004876
 20
507.4413979178396
 30
0.0
 10
5434.464247437601
 20
507.9080361014335
 30
0.0
  0
ELLIPSE
  5
28175
330
18
100
AcDbEntity
  8
姿図
100
AcDbEllipse
 10
5449.757715319545
 20
506.4361190549923
 30
0.0
 11
17.21996527777777
 21
0.0
 31
0.0
210
0.0
220
0.0
230
1.0
 40
0.3329065300896287
 41
0.0
 42
6.283185307179586
  0
SPLINE
  5
28176
330
18
100
AcDbEntity
  8
姿図
100
AcDbSpline
210
0.0
220
0.0
230
1.0
 70
     8
 71
     3
 72
     8
 73
     4
 74
     0
 42
0.000000001
 43
0.0000000001
 40
46.0
 40
46.0
 40
46.0
 40
46.0
 40
47.0
 40
47.0
 40
47.0
 40
47.0
 10
5456.46393819281
 20
500.5923758366764
 30
0.0
 10
5448.880249499233
 20
499.8303207151487
 30
0.0
 10
5440.897446493591
 20
499.9028399751312
 30
0.0
 10
5433.095941637905
 20
502.8420231891071
 30
0.0
  0
SPLINE
  5
28177
330
18
100
AcDbEntity
  8
姿図
100
AcDbSpline
210
0.0
220
0.0
230
1.0
 70
     8
 71
     3
 72
     8
 73
     4
 74
     0
 42
0.000000001
 43
0.0000000001
 40
3.0
 40
3.0
 40
3.0
 40
3.0
 40
4.0
 40
4.0
 40
4.0
 40
4.0
 10
5435.507077841247
 20
519.3610837902354
 30
0.0
 10
5435.507077841247
 20
519.3610837902354
 30
0.0
 10
5436.567133722323
 20
522.5040444022147
 30
0.0
 10
5436.883307360562
 20
522.9319252615896
 30
0.0
  0
LINE
  5
28178
330
18
100
AcDbEntity
  8
姿図
100
AcDbLine
 10
5433.610208266595
 20
516.292364985982
 30
0.0
 11
5434.530221016161
 21
516.9663979178397
 31
0.0
  0
LINE
  5
28179
330
18
100
AcDbEntity
  8
姿図
100
AcDbLine
 10
5434.585687053486
 20
517.2716333779092
 30
0.0
 11
5434.363736776794
 21
512.0271645194023
 31
0.0
  0
LINE
  5
2817A
330
18
100
AcDbEntity
  8
姿図
100
AcDbLine
 10
5433.498242663296
 20
516.2041705415375
 30
0.0
 11
5433.534932930223
 21
516.233109343621
 31
0.0
  0
SPLINE
  5
2817B
330
18
100
AcDbEntity
  8
姿図
100
AcDbSpline
210
0.0
220
0.0
230
1.0
 70
    24
 71
     3
 72
     8
 73
     4
 74
     0
 42
0.000000001
 43
0.0000000001
 40
0.0
 40
0.0
 40
0.0
 40
0.0
 40
1.0
 40
1.0
 40
1.0
 40
1.0
 10
5433.534932930223
 20
516.233109343621
 30
0.0
 10
5433.534932930223
 20
516.233109343621
 30
0.0
 10
5433.610208266595
 20
516.292364985982
 30
0.0
 10
5433.610208266595
 20
516.292364985982
 30
0.0
  0
SPLINE
  5
2817C
330
18
100
AcDbEntity
  8
姿図
100
AcDbSpline
210
0.0
220
0.0
230
1.0
 70
     8
 71
     3
 72
     8
 73
     4
 74
     0
 42
0.000000001
 43
0.0000000001
 40
1.0
 40
1.0
 40
1.0
 40
1.0
 40
2.0
 40
2.0
 40
2.0
 40
2.0
 10
5433.610208266595
 20
516.292364985982
 30
0.0
 10
5433.610208266595
 20
516.292364985982
 30
0.0
 10
5433.479983657219
 20
517.0547646170585
 30
0.0
 10
5434.05652038682
 20
517.910354081034
 30
0.0
  0
LINE
  5
2817D
330
18
100
AcDbEntity
  8
姿図
100
AcDbLine
 10
5432.996464505743
 20
515.8086735797322
 30
0.0
 11
5432.809826457784
 21
511.4444266179264
 31
0.0
  0
LINE
  5
2817E
330
18
100
AcDbEntity
  8
姿図
100
AcDbLine
 10
5432.532324016377
 20
515.745456077562
 30
0.0
 11
5432.36583977701
 21
511.1948294499578
 31
0.0
  0
SPLINE
  5
2817F
330
18
100
AcDbEntity
  8
姿図
100
AcDbSpline
210
0.0
220
0.0
230
1.0
 70
     8
 71
     3
 72
     8
 73
     4
 74
     0
 42
0.000000001
 43
0.0000000001
 40
48.0
 40
48.0
 40
48.0
 40
48.0
 40
49.0
 40
49.0
 40
49.0
 40
49.0
 10
5431.713166437167
 20
510.8243094304264
 30
0.0
 10
5431.750459595804
 20
511.8659340506522
 30
0.0
 10
5431.787580499667
 20
513.9860458128048
 30
0.0
 10
5431.806184015292
 20
514.2650985471798
 30
0.0
  0
SPLINE
  5
28180
330
18
100
AcDbEntity
  8
姿図
100
AcDbSpline
210
0.0
220
0.0
230
1.0
 70
     8
 71
     3
 72
     8
 73
     4
 74
     0
 42
0.000000001
 43
0.0000000001
 40
49.0
 40
49.0
 40
49.0
 40
49.0
 40
50.0
 40
50.0
 40
50.0
 40
50.0
 10
5431.806184015292
 20
514.2650985471798
 30
0.0
 10
5431.824787530917
 20
514.5439790267808
 30
0.0
 10
5432.215375231655
 20
515.7900700641069
 30
0.0
 10
5432.531462742506
 20
515.8086735797322
 30
0.0
  0
SPLINE
  5
28181
330
18
100
AcDbEntity
  8
姿図
100
AcDbSpline
210
0.0
220
0.0
230
1.0
 70
     8
 71
     3
 72
     8
 73
     4
 74
     0
 42
0.000000001
 43
0.0000000001
 40
50.0
 40
50.0
 40
50.0
 40
50.0
 40
51.0
 40
51.0
 40
51.0
 40
51.0
 10
5432.531462742506
 20
515.8086735797322
 30
0.0
 10
5432.847636380744
 20
515.827277095357
 30
0.0
 10
5432.996464505743
 20
515.8086735797322
 30
0.0
 10
5432.996464505743
 20
515.8086735797322
 30
0.0
  0
SPLINE
  5
28182
330
18
100
AcDbEntity
  8
姿図
100
AcDbSpline
210
0.0
220
0.0
230
1.0
 70
    24
 71
     3
 72
     8
 73
     4
 74
     0
 42
0.000000001
 43
0.0000000001
 40
51.0
 40
51.0
 40
51.0
 40
51.0
 40
52.0
 40
52.0
 40
52.0
 40
52.0
 10
5432.996464505743
 20
515.8086735797322
 30
0.0
 10
5432.996464505743
 20
515.8086735797322
 30
0.0
 10
5433.498242663296
 20
516.2041705415375
 30
0.0
 10
5433.498242663296
 20
516.2041705415375
 30
0.0
  0
SPLINE
  5
28183
330
18
100
AcDbEntity
  8
姿図
100
AcDbSpline
210
0.0
220
0.0
230
1.0
 70
     8
 71
     3
 72
     8
 73
     4
 74
     0
 42
0.000000001
 43
0.0000000001
 40
2.0
 40
2.0
 40
2.0
 40
2.0
 40
3.0
 40
3.0
 40
3.0
 40
3.0
 10
5434.05652038682
 20
517.910354081034
 30
0.0
 10
5434.633057116421
 20
518.7657712902355
 30
0.0
 10
5435.507077841247
 20
519.3610837902354
 30
0.0
 10
5435.507077841247
 20
519.3610837902354
 30
0.0
  0
SPLINE
  5
28184
330
18
100
AcDbEntity
  8
姿図
100
AcDbSpline
210
0.0
220
0.0
230
1.0
 70
     8
 71
     3
 72
     8
 73
     4
 74
     0
 42
0.000000001
 43
0.0000000001
 40
47.0
 40
47.0
 40
47.0
 40
47.0
 40
48.0
 40
48.0
 40
48.0
 40
48.0
 10
5433.095941637905
 20
502.8420231891071
 30
0.0
 10
5428.92315585774
 20
504.5836912121106
 30
0.0
 10
5426.668599244242
 20
507.7509397472668
 30
0.0
 10
5431.713166437167
 20
510.8243094304264
 30
0.0
  0
SPLINE
  5
28191
330
18
100
AcDbEntity
  8
姿図
100
AcDbSpline
210
0.0
220
0.0
230
1.0
 70
     8
 71
     3
 72
     8
 73
     4
 74
     0
 42
0.000000001
 43
0.0000000001
 40
0.0
 40
0.0
 40
0.0
 40
0.0
 40
1.0
 40
1.0
 40
1.0
 40
1.0
 10
5465.396722311705
 20
523.6309246284779
 30
0.0
 10
5466.762916891112
 20
523.3777464009363
 30
0.0
 10
5469.094279058754
 20
523.6913712448088
 30
0.0
 10
5468.602521707575
 20
526.6649942615729
 30
0.0
  0
SPLINE
  5
28192
330
18
100
AcDbEntity
  8
姿図
100
AcDbSpline
210
0.0
220
0.0
230
1.0
 70
     8
 71
     3
 72
     8
 73
     4
 74
     0
 42
0.000000001
 43
0.0000000001
 40
0.0
 40
0.0
 40
0.0
 40
0.0
 40
1.0
 40
1.0
 40
1.0
 40
1.0
 10
5466.119162802184
 20
522.4241181869368
 30
0.0
 10
5465.86973788899
 20
522.6997258258259
 30
0.0
 10
5465.687836847323
 20
522.8650904091592
 30
0.0
 10
5465.53091274793
 20
522.9536293631522
 30
0.0
  0
SPLINE
  5
28193
330
18
100
AcDbEntity
  8
姿図
100
AcDbSpline
210
0.0
220
0.0
230
1.0
 70
     8
 71
     3
 72
     8
 73
     4
 74
     0
 42
0.000000001
 43
0.0000000001
 40
0.0
 40
0.0
 40
0.0
 40
0.0
 40
1.0
 40
1.0
 40
1.0
 40
1.0
 10
5465.864225736212
 20
521.0512476357217
 30
0.0
 10
5465.156947632913
 20
522.0165633909298
 30
0.0
 10
5464.138405152446
 20
522.620316374871
 30
0.0
 10
5462.523861152878
 20
522.9284801661036
 30
0.0
  0
SPLINE
  5
28194
330
18
100
AcDbEntity
  8
姿図
100
AcDbSpline
210
0.0
220
0.0
230
1.0
 70
     8
 71
     3
 72
     8
 73
     4
 74
     0
 42
0.000000001
 43
0.0000000001
 40
0.0
 40
0.0
 40
0.0
 40
0.0
 40
0.9455772662780577
 40
0.9455772662780577
 40
0.9455772662780577
 40
0.9455772662780577
 10
5462.415340645066
 20
519.7531356565548
 30
0.0
 10
5464.276572674367
 20
518.8851470782624
 30
0.0
 10
5465.506031839093
 20
517.8377300779246
 30
0.0
 10
5465.846528757776
 20
516.7084593359382
 30
0.0
  0
SPLINE
  5
28195
330
18
100
AcDbEntity
  8
姿図
100
AcDbSpline
210
0.0
220
0.0
230
1.0
 70
     8
 71
     3
 72
     8
 73
     4
 74
     0
 42
0.000000001
 43
0.0000000001
 40
1.0
 40
1.0
 40
1.0
 40
1.0
 40
2.0
 40
2.0
 40
2.0
 40
2.0
 10
5463.670388930657
 20
517.893989877475
 30
0.0
 10
5464.566975030917
 20
517.4383759994369
 30
0.0
 10
5465.801697253139
 20
516.9386648991765
 30
0.0
 10
5466.629381443678
 20
516.0233030285167
 30
0.0
  0
SPLINE
  5
28196
330
18
100
AcDbEntity
  8
姿図
100
AcDbSpline
210
0.0
220
0.0
230
1.0
 70
     8
 71
     3
 72
     8
 73
     4
 74
     0
 42
0.000000001
 43
0.0000000001
 40
0.0
 40
0.0
 40
0.0
 40
0.0
 40
1.0
 40
1.0
 40
1.0
 40
1.0
 10
5457.283612536343
 20
524.95591885968
 30
0.0
 10
5458.43952819932
 20
524.1459769108953
 30
0.0
 10
5459.775191719285
 20
525.0709850489161
 30
0.0
 10
5459.775191719285
 20
525.4935260102877
 30
0.0
  0
LINE
  5
28197
330
18
100
AcDbEntity
  8
姿図
100
AcDbLine
 10
5457.384639961472
 20
524.8923568479611
 30
0.0
 11
5455.30750576551
 21
526.3418807737423
 31
0.0
  0
SPLINE
  5
28198
330
18
100
AcDbEntity
  8
姿図
100
AcDbSpline
210
0.0
220
0.0
230
1.0
 70
     8
 71
     3
 72
     8
 73
     4
 74
     0
 42
0.000000001
 43
0.0000000001
 40
0.0
 40
0.0
 40
0.0
 40
0.0
 40
1.0
 40
1.0
 40
1.0
 40
1.0
 10
5459.758483006178
 20
526.0032278874576
 30
0.0
 10
5459.758483006178
 20
525.5806869260862
 30
0.0
 10
5458.504812758782
 20
524.648616342319
 30
0.0
 10
5457.348983223192
 20
525.4585582911036
 30
0.0
  0
LINE
  5
28199
330
18
100
AcDbEntity
  8
姿図
100
AcDbLine
 10
5453.822066719285
 20
523.6633190332911
 30
0.0
 11
5455.321372274841
 21
523.3398245671453
 31
0.0
  0
LINE
  5
2819A
330
18
100
AcDbEntity
  8
姿図
100
AcDbLine
 10
5453.792697280266
 20
524.3101357108085
 30
0.0
 11
5455.292002835822
 21
523.9866412446625
 31
0.0
  0
LINE
  5
2819B
330
18
100
AcDbEntity
  8
姿図
100
AcDbLine
 10
5453.792697280266
 20
524.8980412555131
 30
0.0
 11
5455.292002835822
 21
524.5745467893673
 31
0.0
  0
LINE
  5
2819C
330
18
100
AcDbEntity
  8
姿図
100
AcDbLine
 10
5453.792697280266
 20
525.4566634885862
 30
0.0
 11
5455.292002835822
 21
525.1331690224404
 31
0.0
  0
LINE
  5
2819D
330
18
100
AcDbEntity
  8
姿図
100
AcDbLine
 10
5453.76324171386
 20
526.1033079113292
 30
0.0
 11
5455.262547269415
 21
525.7798134451834
 31
0.0
  0
LINE
  5
2819E
330
18
100
AcDbEntity
  8
姿図
100
AcDbLine
 10
5453.733872274841
 20
526.6913857108084
 30
0.0
 11
5455.233177830396
 21
526.3678912446626
 31
0.0
  0
LINE
  5
2819F
330
18
100
AcDbEntity
  8
姿図
100
AcDbLine
 10
5461.75215976399
 20
526.2578204438812
 30
0.0
 11
5460.296951430657
 21
526.566500999437
 31
0.0
  0
LINE
  5
281A0
330
18
100
AcDbEntity
  8
姿図
100
AcDbLine
 10
5461.708062541768
 20
525.7286537772147
 30
0.0
 11
5460.252854208435
 21
526.0373343327703
 31
0.0
  0
LINE
  5
281A1
330
18
100
AcDbEntity
  8
姿図
100
AcDbLine
 10
5461.708062541768
 20
525.0671954438815
 30
0.0
 11
5460.252854208435
 21
525.3758759994369
 31
0.0
  0
LINE
  5
281A2
330
18
100
AcDbEntity
  8
姿図
100
AcDbLine
 10
5461.708062541768
 20
524.4939315549925
 30
0.0
 11
5460.252854208435
 21
524.8026121105479
 31
0.0
  0
LINE
  5
281A3
330
18
100
AcDbEntity
  8
姿図
100
AcDbLine
 10
5461.708062541768
 20
523.9206676661036
 30
0.0
 11
5460.252854208435
 21
524.2293482216592
 31
0.0
  0
LINE
  5
281A4
330
18
100
AcDbEntity
  8
姿図
100
AcDbLine
 10
5461.796256986212
 20
523.3033065549923
 30
0.0
 11
5460.341048652879
 21
523.6119871105482
 31
0.0
  0
SPLINE
  5
281A5
330
18
100
AcDbEntity
  8
姿図
100
AcDbSpline
210
0.0
220
0.0
230
1.0
 70
     8
 71
     3
 72
     8
 73
     4
 74
     0
 42
0.000000001
 43
0.0000000001
 40
0.0
 40
0.0
 40
0.0
 40
0.0
 40
1.0
 40
1.0
 40
1.0
 40
1.0
 10
5462.425503676751
 20
519.1910683279959
 30
0.0
 10
5463.501579251837
 20
518.649327062805
 30
0.0
 10
5464.300152385518
 20
518.0374781044716
 30
0.0
 10
5464.750426365552
 20
517.380326140496
 30
0.0
  0
SPLINE
  5
281A6
330
18
100
AcDbEntity
  8
姿図
100
AcDbSpline
210
0.0
220
0.0
230
1.0
 70
     8
 71
     3
 72
     8
 73
     4
 74
     0
 42
0.000000001
 43
0.0000000001
 40
0.0
 40
0.0
 40
0.0
 40
0.0
 40
1.0
 40
1.0
 40
1.0
 40
1.0
 10
5463.670388930657
 20
517.893989877475
 30
0.0
 10
5462.963627591681
 20
518.2031871973536
 30
0.0
 10
5462.413618097324
 20
518.5499360580307
 30
0.0
 10
5462.413618097324
 20
519.3786537772146
 30
0.0
  0
LINE
  5
281A7
330
18
100
AcDbEntity
  8
姿図
100
AcDbLine
 10
5462.406383396803
 20
519.763298688239
 30
0.0
 11
5462.413618097324
 21
519.3786537772146
 31
0.0
  0
SPLINE
  5
281A8
330
18
100
AcDbEntity
  8
姿図
100
AcDbSpline
210
0.0
220
0.0
230
1.0
 70
     8
 71
     3
 72
     8
 73
     4
 74
     0
 42
0.000000001
 43
0.0000000001
 40
0.0
 40
0.0
 40
0.0
 40
0.0
 40
1.0
 40
1.0
 40
1.0
 40
1.0
 10
5455.4369552284
 20
521.14960511185
 30
0.0
 10
5457.055116578226
 20
520.9180946951835
 30
0.0
 10
5458.537885675449
 20
520.5959782672319
 30
0.0
 10
5459.832035794806
 20
520.2020315983953
 30
0.0
  0
SPLINE
  5
281A9
330
18
100
AcDbEntity
  8
姿図
100
AcDbSpline
210
0.0
220
0.0
230
1.0
 70
     8
 71
     3
 72
     8
 73
     4
 74
     0
 42
0.000000001
 43
0.0000000001
 40
0.0
 40
0.0
 40
0.0
 40
0.0
 40
1.0
 40
1.0
 40
1.0
 40
1.0
 10
5455.3377364784
 20
521.6994423514334
 30
0.0
 10
5456.978979967984
 20
521.457941157857
 30
0.0
 10
5458.494994236647
 20
521.1251449338986
 30
0.0
 10
5459.83703118326
 20
520.7198294499578
 30
0.0
  0
SPLINE
  5
281AA
330
18
100
AcDbEntity
  8
姿図
100
AcDbSpline
210
0.0
220
0.0
230
1.0
 70
     8
 71
     3
 72
     8
 73
     4
 74
     0
 42
0.000000001
 43
0.0000000001
 40
0.0
 40
0.0
 40
0.0
 40
0.0
 40
1.0
 40
1.0
 40
1.0
 40
1.0
 10
5460.377738919806
 20
514.3147079221801
 30
0.0
 10
5460.377738919806
 20
514.2010197711381
 30
0.0
 10
5460.226843737515
 20
514.0075776595932
 30
0.0
 10
5459.878027819546
 20
514.1090357216592
 30
0.0
  0
SPLINE
  5
281AB
330
18
100
AcDbEntity
  8
姿図
100
AcDbSpline
210
0.0
220
0.0
230
1.0
 70
     8
 71
     3
 72
     8
 73
     4
 74
     0
 42
0.000000001
 43
0.0000000001
 40
0.0
 40
0.0
 40
0.0
 40
0.0
 40
1.0
 40
1.0
 40
1.0
 40
1.0
 10
5455.703519491638
 20
514.8145912772147
 30
0.0
 10
5456.203230591898
 20
514.6969412663641
 30
0.0
 10
5458.760955608174
 20
514.520552377475
 30
0.0
 10
5459.96622226399
 20
514.0795801552529
 30
0.0
  0
SPLINE
  5
281AC
330
18
100
AcDbEntity
  8
姿図
100
AcDbSpline
210
0.0
220
0.0
230
1.0
 70
     8
 71
     3
 72
     8
 73
     4
 74
     0
 42
0.000000001
 43
0.0000000001
 40
0.0
 40
0.0
 40
0.0
 40
0.0
 40
1.0
 40
1.0
 40
1.0
 40
1.0
 10
5455.438936158304
 20
515.2555634994369
 30
0.0
 10
5455.438936158304
 20
515.0118229937946
 30
0.0
 10
5455.557275188252
 20
514.8145912772147
 30
0.0
 10
5455.703519491638
 20
514.8145912772147
 30
0.0
  0
LINE
  5
281AD
330
18
100
AcDbEntity
  8
姿図
100
AcDbLine
 10
5455.35074171386
 20
517.871941266364
 30
0.0
 11
5455.409480591898
 21
515.2261079330308
 31
0.0
  0
LINE
  5
281AE
330
18
100
AcDbEntity
  8
姿図
100
AcDbLine
 10
5453.851522285691
 20
518.6362356999578
 30
0.0
 11
5455.350827841247
 21
518.312741233812
 31
0.0
  0
LINE
  5
281AF
330
18
100
AcDbEntity
  8
姿図
100
AcDbLine
 10
5453.851522285691
 20
519.3123356891072
 30
0.0
 11
5455.350827841247
 21
518.9888412229614
 31
0.0
  0
LINE
  5
281B0
330
18
100
AcDbEntity
  8
姿図
100
AcDbLine
 10
5453.851522285691
 20
519.9591523666243
 30
0.0
 11
5455.350827841247
 21
519.6356579004785
 31
0.0
  0
LINE
  5
281B1
330
18
100
AcDbEntity
  8
姿図
100
AcDbLine
 10
5453.851522285691
 20
520.5177745996973
 30
0.0
 11
5455.350827841247
 21
520.1942801335515
 31
0.0
  0
LINE
  5
281B2
330
18
100
AcDbEntity
  8
姿図
100
AcDbLine
 10
5453.822066719285
 20
521.1938745888467
 30
0.0
 11
5455.321372274841
 21
520.8703801227009
 31
0.0
  0
LINE
  5
281B3
330
18
100
AcDbEntity
  8
姿図
100
AcDbLine
 10
5453.822066719285
 20
521.8112356999577
 30
0.0
 11
5455.321372274841
 21
521.4877412338119
 31
0.0
  0
LINE
  5
281B4
330
18
100
AcDbEntity
  8
姿図
100
AcDbLine
 10
5453.792697280266
 20
522.3991412446626
 30
0.0
 11
5455.292002835822
 21
522.0756467785168
 31
0.0
  0
LINE
  5
281B5
330
18
100
AcDbEntity
  8
姿図
100
AcDbLine
 10
5453.822066719285
 20
523.0459579221799
 30
0.0
 11
5455.321372274841
 21
522.7224634560341
 31
0.0
  0
LINE
  5
281B6
330
18
100
AcDbEntity
  8
姿図
100
AcDbLine
 10
5455.428514744459
 20
521.6946192177529
 30
0.0
 11
5455.438074884432
 21
521.1583901053398
 31
0.0
  0
LINE
  5
281B7
330
18
100
AcDbEntity
  8
姿図
100
AcDbLine
 10
5455.438074884432
 20
521.1583901053398
 30
0.0
 11
5455.497675036342
 21
517.8132023883256
 31
0.0
  0
LINE
  5
281B8
330
18
100
AcDbEntity
  8
姿図
100
AcDbLine
 10
5453.586852824971
 20
518.0777857216592
 30
0.0
 11
5455.321286147454
 21
517.8424856999577
 31
0.0
  0
LINE
  5
281B9
330
18
100
AcDbEntity
  8
姿図
100
AcDbLine
 10
5461.796256986212
 20
522.7741398883256
 30
0.0
 11
5460.341048652879
 21
523.0828204438815
 31
0.0
  0
LINE
  5
281BA
330
18
100
AcDbEntity
  8
姿図
100
AcDbLine
 10
5461.75215976399
 20
522.1567787772146
 30
0.0
 11
5460.296951430657
 21
522.4654593327703
 31
0.0
  0
LINE
  5
281BB
330
18
100
AcDbEntity
  8
姿図
100
AcDbLine
 10
5461.75215976399
 20
521.4953204438814
 30
0.0
 11
5460.296951430657
 21
521.8040009994368
 31
0.0
  0
LINE
  5
281BC
330
18
100
AcDbEntity
  8
姿図
100
AcDbLine
 10
5461.75215976399
 20
520.8779593327702
 30
0.0
 11
5460.296951430657
 21
521.1866398883258
 31
0.0
  0
LINE
  5
281BD
330
18
100
AcDbEntity
  8
姿図
100
AcDbLine
 10
5461.75215976399
 20
520.2605982216592
 30
0.0
 11
5460.296951430657
 21
520.5692787772148
 31
0.0
  0
LINE
  5
281BE
330
18
100
AcDbEntity
  8
姿図
100
AcDbLine
 10
5461.75215976399
 20
519.643237110548
 30
0.0
 11
5460.296951430657
 21
519.9519176661036
 31
0.0
  0
LINE
  5
281BF
330
18
100
AcDbEntity
  8
姿図
100
AcDbLine
 10
5461.796256986212
 20
519.0699732216592
 30
0.0
 11
5460.341048652879
 21
519.3786537772146
 31
0.0
  0
LINE
  5
281C0
330
18
100
AcDbEntity
  8
姿図
100
AcDbLine
 10
5461.840354208434
 20
518.4967093327703
 30
0.0
 11
5460.385145875101
 21
518.8053898883256
 31
0.0
  0
LINE
  5
281C1
330
18
100
AcDbEntity
  8
姿図
100
AcDbLine
 10
5461.840354208434
 20
517.879348221659
 30
0.0
 11
5460.385145875101
 21
518.1880287772146
 31
0.0
  0
LINE
  5
281C2
330
18
100
AcDbEntity
  8
姿図
100
AcDbLine
 10
5461.884451430657
 20
517.261987110548
 30
0.0
 11
5460.429243097324
 21
517.5706676661036
 31
0.0
  0
LINE
  5
281C3
330
18
100
AcDbEntity
  8
姿図
100
AcDbLine
 10
5461.884451430657
 20
516.6887232216591
 30
0.0
 11
5460.429243097324
 21
516.9974037772147
 31
0.0
  0
SPLINE
  5
281C4
330
18
100
AcDbEntity
  8
姿図
100
AcDbSpline
210
0.0
220
0.0
230
1.0
 70
     8
 71
     3
 72
     8
 73
     4
 74
     0
 42
0.000000001
 43
0.0000000001
 40
0.0
 40
0.0
 40
0.0
 40
0.0
 40
1.0
 40
1.0
 40
1.0
 40
1.0
 10
5466.183930597323
 20
516.4548012381522
 30
0.0
 10
5466.183930597323
 20
518.8677461166244
 30
0.0
 10
5466.185480890292
 20
521.0958616222667
 30
0.0
 10
5465.765179240987
 20
521.0879379026487
 30
0.0
  0
SPLINE
  5
281C5
330
18
100
AcDbEntity
  8
姿図
100
AcDbSpline
210
0.0
220
0.0
230
1.0
 70
     8
 71
     3
 72
     8
 73
     4
 74
     0
 42
0.000000001
 43
0.0000000001
 40
38.0
 40
38.0
 40
38.0
 40
38.0
 40
39.0
 40
39.0
 40
39.0
 40
39.0
 10
5466.111411337341
 20
522.4461667980479
 30
0.0
 10
5466.629381443678
 20
521.8505097884993
 30
0.0
 10
5466.758744779181
 20
521.3843883692286
 30
0.0
 10
5466.810593466247
 20
520.8404077919715
 30
0.0
  0
SPLINE
  5
281C6
330
18
100
AcDbEntity
  8
姿図
100
AcDbSpline
210
0.0
220
0.0
230
1.0
 70
     8
 71
     3
 72
    11
 73
     7
 74
     0
 42
0.000000001
 43
0.0000000001
 40
39.0
 40
39.0
 40
39.0
 40
39.0
 40
40.0
 40
40.0
 40
40.0
 40
41.0
 40
41.0
 40
41.0
 40
41.0
 10
5466.810593466247
 20
520.8404077919715
 30
0.0
 10
5466.862442153313
 20
520.2965994694889
 30
0.0
 10
5466.914290840379
 20
517.0334050250447
 30
0.0
 10
5466.914290840379
 20
516.8520207477006
 30
0.0
 10
5466.914290840379
 20
516.6708087251313
 30
0.0
 10
5466.784755250101
 20
516.230353267232
 30
0.0
 10
5466.629381443678
 20
516.0233030285169
 30
0.0
  0
SPLINE
  5
281C7
330
18
100
AcDbEntity
  8
姿図
100
AcDbSpline
210
0.0
220
0.0
230
1.0
 70
     8
 71
     3
 72
    11
 73
     7
 74
     0
 42
0.000000001
 43
0.0000000001
 40
41.0
 40
41.0
 40
41.0
 40
41.0
 40
42.0
 40
42.0
 40
42.0
 40
43.0
 40
43.0
 40
43.0
 40
43.0
 10
5466.629381443678
 20
516.0233030285169
 30
0.0
 10
5467.302725356438
 20
515.401635548048
 30
0.0
 10
5467.458099162861
 20
515.013201031989
 30
0.0
 10
5467.458099162861
 20
514.3140189030828
 30
0.0
 10
5467.458099162861
 20
513.6146645194021
 30
0.0
 10
5467.624152765293
 20
510.8591048948363
 30
0.0
 10
5467.624152765293
 20
510.8591048948363
 30
0.0
  0
SPLINE
  5
281C8
330
18
100
AcDbEntity
  8
姿図
100
AcDbSpline
210
0.0
220
0.0
230
1.0
 70
    27
 71
     3
 72
     8
 73
     4
 74
     0
 42
0.000000001
 43
0.0000000001
 40
43.0
 40
43.0
 40
43.0
 40
43.0
 40
44.0
 40
44.0
 40
44.0
 40
44.0
 10
5467.624152765293
 20
510.8591048948363
 30
0.0
 10
5467.624152765293
 20
510.8591048948363
 30
0.0
 10
5467.624152765293
 20
510.8591048948363
 30
0.0
 10
5467.624152765293
 20
510.8591048948363
 30
0.0
  0
SPLINE
  5
281C9
330
18
100
AcDbEntity
  8
姿図
100
AcDbSpline
210
0.0
220
0.0
230
1.0
 70
     8
 71
     3
 72
     8
 73
     4
 74
     0
 42
0.000000001
 43
0.0000000001
 40
37.0
 40
37.0
 40
37.0
 40
37.0
 40
38.0
 40
38.0
 40
38.0
 40
38.0
 10
5470.239152494025
 20
523.9055092459646
 30
0.0
 10
5468.695231437181
 20
522.449523958478
 30
0.0
 10
5467.126625249422
 20
522.531585719375
 30
0.0
 10
5465.735551419806
 20
522.7887815441418
 30
0.0
  0
LINE
  5
281CA
330
18
100
AcDbEntity
  8
姿図
100
AcDbLine
 10
5471.465620890916
 20
526.6600879759505
 30
0.0
 11
5470.055528625693
 21
524.9988394014579
 31
0.0
  0
LINE
  5
281CB
330
18
100
AcDbEntity
  8
姿図
100
AcDbLine
 10
5471.460946260828
 20
526.1175687303676
 30
0.0
 11
5469.912190436311
 21
524.2929587603901
 31
0.0
  0
LINE
  5
281CC
330
18
100
AcDbEntity
  8
姿図
100
AcDbLine
 10
5471.399459390243
 20
525.579752185514
 30
0.0
 11
5469.461252319405
 21
523.2963244886812
 31
0.0
  0
SPLINE
  5
281CD
330
18
100
AcDbEntity
  8
姿図
100
AcDbSpline
210
0.0
220
0.0
230
1.0
 70
     8
 71
     3
 72
    11
 73
     7
 74
     0
 42
0.000000001
 43
0.0000000001
 40
44.0
 40
44.0
 40
44.0
 40
44.0
 40
45.0
 40
45.0
 40
45.0
 40
46.0
 40
46.0
 40
46.0
 40
46.0
 10
5467.624152765293
 20
510.8591048948363
 30
0.0
 10
5467.624152765293
 20
510.8591048948363
 30
0.0
 10
5470.770902982305
 20
509.7778616765202
 30
0.0
 10
5470.4806536876
 20
506.7298134451835
 30
0.0
 10
5470.190404392895
 20
503.6817652138466
 30
0.0
 10
5463.892253079963
 20
501.4837942937077
 30
0.0
 10
5456.46393819281
 20
500.5923758366764
 30
0.0
  0
LINE
  5
281CE
330
18
100
AcDbEntity
  8
姿図
100
AcDbLine
 10
5452.075058798278
 20
522.0549762056
 30
0.0
 11
5452.058091703009
 21
520.6059690441418
 31
0.0
  0
SPLINE
  5
281CF
330
18
100
AcDbEntity
  8
姿図
100
AcDbSpline
210
0.0
220
0.0
230
1.0
 70
     8
 71
     3
 72
     8
 73
     4
 74
     0
 42
0.000000001
 43
0.0000000001
 40
0.0
 40
0.0
 40
0.0
 40
0.0
 40
1.0
 40
1.0
 40
1.0
 40
1.0
 10
5452.058091703009
 20
520.6059690441418
 30
0.0
 10
5452.058091703009
 20
520.4597247407562
 30
0.0
 10
5451.92347459689
 20
520.3119301444021
 30
0.0
 10
5451.793508369676
 20
520.3119301444021
 30
0.0
  0
LINE
  5
281D0
330
18
100
AcDbEntity
  8
姿図
100
AcDbLine
 10
5451.470100030918
 20
520.253191266364
 30
0.0
 11
5451.793508369676
 21
520.3119301444021
 31
0.0
  0
SPLINE
  5
281D1
330
18
100
AcDbEntity
  8
姿図
100
AcDbSpline
210
0.0
220
0.0
230
1.0
 70
     8
 71
     3
 72
     8
 73
     4
 74
     0
 42
0.000000001
 43
0.0000000001
 40
0.0
 40
0.0
 40
0.0
 40
0.0
 40
1.0
 40
1.0
 40
1.0
 40
1.0
 10
5450.882194486212
 20
517.3427745996973
 30
0.0
 10
5450.882194486212
 20
517.1153982976141
 30
0.0
 10
5450.711317750101
 20
516.9312579438813
 30
0.0
 10
5450.500047269416
 20
516.9312579438813
 30
0.0
  0
LINE
  5
281D2
330
18
100
AcDbEntity
  8
姿図
100
AcDbLine
 10
5451.08795281412
 20
519.87095792218
 30
0.0
 11
5450.882194486212
 21
517.3427745996973
 31
0.0
  0
LINE
  5
281D3
330
18
100
AcDbEntity
  8
姿図
100
AcDbLine
 10
5450.44122226399
 20
521.8996023991765
 30
0.0
 11
5450.558786147454
 21
519.4888968327703
 31
0.0
  0
SPLINE
  5
281D4
330
18
100
AcDbEntity
  8
姿図
100
AcDbSpline
210
0.0
220
0.0
230
1.0
 70
     8
 71
     3
 72
     8
 73
     4
 74
     0
 42
0.000000001
 43
0.0000000001
 40
0.0
 40
0.0
 40
0.0
 40
0.0
 40
1.0
 40
1.0
 40
1.0
 40
1.0
 10
5451.08795281412
 20
519.87095792218
 30
0.0
 10
5451.08795281412
 20
520.0823145302529
 30
0.0
 10
5451.258829550232
 20
520.253191266364
 30
0.0
 10
5451.470100030918
 20
520.253191266364
 30
0.0
  0
LINE
  5
281D5
330
18
100
AcDbEntity
  8
姿図
100
AcDbLine
 10
5446.737055597323
 20
516.901802377475
 30
0.0
 11
5450.264833375101
 21
516.8725190658431
 31
0.0
  0
LINE
  5
281D6
330
18
100
AcDbEntity
  8
姿図
100
AcDbLine
 10
5447.236852824971
 20
522.1934690441417
 30
0.0
 11
5450.059075047193
 21
522.222924610548
 31
0.0
  0
SPLINE
  5
281D7
330
18
100
AcDbEntity
  8
姿図
100
AcDbSpline
210
0.0
220
0.0
230
1.0
 70
     8
 71
     3
 72
     8
 73
     4
 74
     0
 42
0.000000001
 43
0.0000000001
 40
0.0
 40
0.0
 40
0.0
 40
0.0
 40
1.0
 40
1.0
 40
1.0
 40
1.0
 10
5445.85511115288
 20
519.9593246213988
 30
0.0
 10
5445.85511115288
 20
520.0568208236557
 30
0.0
 10
5445.776218466247
 20
520.1357135102876
 30
0.0
 10
5445.67872226399
 20
520.1357135102876
 30
0.0
  0
SPLINE
  5
281D8
330
18
100
AcDbEntity
  8
姿図
100
AcDbSpline
210
0.0
220
0.0
230
1.0
 70
     8
 71
     3
 72
     8
 73
     4
 74
     0
 42
0.000000001
 43
0.0000000001
 40
0.0
 40
0.0
 40
0.0
 40
0.0
 40
1.0
 40
1.0
 40
1.0
 40
1.0
 10
5446.884075047194
 20
521.8701468327702
 30
0.0
 10
5446.884075047194
 20
522.048775033725
 30
0.0
 10
5447.041860420457
 20
522.1934690441417
 30
0.0
 10
5447.236852824971
 20
522.1934690441417
 30
0.0
  0
LINE
  5
281D9
330
18
100
AcDbEntity
  8
姿図
100
AcDbLine
 10
5446.884075047194
 20
521.8701468327702
 30
0.0
 11
5446.899922486429
 21
521.5039331825967
 31
0.0
  0
LINE
  5
281DA
330
18
100
AcDbEntity
  8
姿図
100
AcDbLine
 10
5446.899922486429
 20
521.5039331825967
 30
0.0
 11
5446.972269491638
 21
519.8416746105479
 31
0.0
  0
LINE
  5
281DB
330
18
100
AcDbEntity
  8
姿図
100
AcDbLine
 10
5446.972269491638
 20
519.9004134885861
 30
0.0
 11
5446.678230591899
 21
516.9312579438813
 31
0.0
  0
LINE
  5
281DC
330
18
100
AcDbEntity
  8
姿図
100
AcDbLine
 10
5446.737055597323
 20
516.901802377475
 30
0.0
 11
5446.590036147454
 21
514.050296843621
 31
0.0
  0
LINE
  5
281DD
330
18
100
AcDbEntity
  8
姿図
100
AcDbLine
 10
5446.443102824971
 20
516.8430634994368
 30
0.0
 11
5446.531297269416
 21
514.0208412772147
 31
0.0
  0
SPLINE
  5
281DE
330
18
100
AcDbEntity
  8
姿図
100
AcDbSpline
210
0.0
220
0.0
230
1.0
 70
     8
 71
     3
 72
     8
 73
     4
 74
     0
 42
0.000000001
 43
0.0000000001
 40
0.0
 40
0.0
 40
0.0
 40
0.0
 40
1.0
 40
1.0
 40
1.0
 40
1.0
 10
5446.443102824971
 20
516.8430634994368
 30
0.0
 10
5446.507353855787
 20
516.8430634994368
 30
0.0
 10
5445.913850030917
 20
516.8726913206176
 30
0.0
 10
5445.884480591898
 20
520.0475190658433
 30
0.0
  0
LINE
  5
281DF
330
18
100
AcDbEntity
  8
姿図
100
AcDbLine
 10
5450.323658380526
 20
516.8725190658431
 30
0.0
 11
5450.323658380526
 21
514.0795801552529
 31
0.0
  0
CIRCLE
  5
281E0
330
18
100
AcDbEntity
  8
姿図
100
AcDbCircle
 10
5448.518686727966
 20
515.0350773883258
 30
0.0
 40
0.7760938856336805
  0
SPLINE
  5
281E1
330
18
100
AcDbEntity
  8
姿図
100
AcDbSpline
210
0.0
220
0.0
230
1.0
 70
     8
 71
     3
 72
    11
 73
     7
 74
     0
 42
0.000000001
 43
0.0000000001
 40
0.0
 40
0.0
 40
0.0
 40
0.0
 40
1.0
 40
1.0
 40
1.0
 40
2.0
 40
2.0
 40
2.0
 40
2.0
 10
5461.378711413296
 20
510.0352103093328
 30
0.0
 10
5458.500678644199
 20
509.1181258909298
 30
0.0
 10
5454.563192885735
 20
508.5527857216591
 30
0.0
 10
5450.220736152879
 20
508.5527857216591
 30
0.0
 10
5445.651419882262
 20
508.5527857216591
 30
0.0
 10
5441.530482789163
 20
509.1785873167112
 30
0.0
 10
5438.620496759433
 20
510.1816268674925
 30
0.0
  0
LINE
  5
281E2
330
18
100
AcDbEntity
  8
姿図
100
AcDbLine
 10
5447.060463936083
 20
519.8416746105479
 30
0.0
 11
5450.44122226399
 21
519.87095792218
 31
0.0
  0
LINE
  5
281E3
330
18
100
AcDbEntity
  8
姿図
100
AcDbLine
 10
5450.500047269416
 20
516.9312579438813
 30
0.0
 11
5450.382397258565
 21
514.138319033291
 31
0.0
  0
SPLINE
  5
281E4
330
18
100
AcDbEntity
  8
姿図
100
AcDbSpline
210
0.0
220
0.0
230
1.0
 70
     8
 71
     3
 72
     8
 73
     4
 74
     0
 42
0.000000001
 43
0.0000000001
 40
0.0
 40
0.0
 40
0.0
 40
0.0
 40
1.0
 40
1.0
 40
1.0
 40
1.0
 10
5450.44122226399
 20
521.8996023991765
 30
0.0
 10
5450.44122226399
 20
522.0782306001313
 30
0.0
 10
5450.270345527879
 20
522.222924610548
 30
0.0
 10
5450.059075047193
 20
522.222924610548
 30
0.0
  0
LINE
  5
281E5
330
18
100
AcDbEntity
  8
姿図
100
AcDbLine
 10
5450.558786147454
 20
519.4888968327703
 30
0.0
 11
5450.264833375101
 21
516.8725190658431
 31
0.0
  0
SPLINE
  5
281E6
330
18
100
AcDbEntity
  8
姿図
100
AcDbSpline
210
0.0
220
0.0
230
1.0
 70
     8
 71
     3
 72
     8
 73
     4
 74
     0
 42
0.000000001
 43
0.0000000001
 40
0.0
 40
0.0
 40
0.0
 40
0.0
 40
1.0
 40
1.0
 40
1.0
 40
1.0
 10
5450.411422188035
 20
521.5511309907563
 30
0.0
 10
5450.961776191942
 20
521.5392454113291
 30
0.0
 10
5451.504464858392
 20
521.517713564541
 30
0.0
 10
5452.038024021803
 20
521.4865354503918
 30
0.0
  0
SPLINE
  5
281E7
330
18
100
AcDbEntity
  8
姿図
100
AcDbSpline
210
0.0
220
0.0
230
1.0
 70
     8
 71
     3
 72
     8
 73
     4
 74
     0
 42
0.000000001
 43
0.0000000001
 40
0.0
 40
0.0
 40
0.0
 40
0.0
 40
1.0
 40
1.0
 40
1.0
 40
1.0
 10
5450.33838616373
 20
522.1262896821625
 30
0.0
 10
5450.94971835774
 20
522.1094087142808
 30
0.0
 10
5451.552351685648
 20
522.0804699121973
 30
0.0
 10
5452.144477472324
 20
522.0399900402356
 30
0.0
  0
SPLINE
  5
281E8
330
18
100
AcDbEntity
  8
姿図
100
AcDbSpline
210
0.0
220
0.0
230
1.0
 70
     8
 71
     3
 72
    11
 73
     7
 74
     0
 42
0.000000001
 43
0.0000000001
 40
0.0
 40
0.0
 40
0.0
 40
0.0
 40
1.0
 40
1.0
 40
1.0
 40
2.0
 40
2.0
 40
2.0
 40
2.0
 10
5457.471628622498
 20
511.0745956174926
 30
0.0
 10
5455.274432848842
 20
510.7030420693154
 30
0.0
 10
5452.77863342393
 20
510.4930634994369
 30
0.0
 10
5450.132541708434
 20
510.4930634994369
 30
0.0
 10
5447.39782491156
 20
510.4930634994369
 30
0.0
 10
5444.823735691724
 20
510.7173392155828
 30
0.0
 10
5442.573743829746
 20
511.112147158291
 30
0.0
  0
SPLINE
  5
281E9
330
18
100
AcDbEntity
  8
姿図
100
AcDbSpline
210
0.0
220
0.0
230
1.0
 70
     8
 71
     3
 72
    11
 73
     7
 74
     0
 42
0.000000001
 43
0.0000000001
 40
0.0
 40
0.0
 40
0.0
 40
0.0
 40
1.0
 40
1.0
 40
1.0
 40
2.0
 40
2.0
 40
2.0
 40
2.0
 10
5455.362885675449
 20
511.3765582368501
 30
0.0
 10
5453.774610528964
 20
511.2039589529959
 30
0.0
 10
5452.075231053052
 20
511.1104246105481
 30
0.0
 10
5450.308930597324
 20
511.1104246105481
 30
0.0
 10
5448.394921672627
 20
511.1104246105481
 30
0.0
 10
5446.559547052402
 20
511.220323156555
 30
0.0
 10
5444.85896179307
 20
511.4216889877182
 30
0.0
  0
SPLINE
  5
281EA
330
18
100
AcDbEntity
  8
姿図
100
AcDbSpline
210
0.0
220
0.0
230
1.0
 70
     8
 71
     3
 72
    11
 73
     7
 74
     0
 42
0.000000001
 43
0.0000000001
 40
0.0
 40
0.0
 40
0.0
 40
0.0
 40
1.0
 40
1.0
 40
1.0
 40
2.0
 40
2.0
 40
2.0
 40
2.0
 10
5459.169027168504
 20
510.7121715723536
 30
0.0
 10
5456.669696520717
 20
510.1831771604614
 30
0.0
 10
5453.68762186794
 20
509.8757023883256
 30
0.0
 10
5450.485319486213
 20
509.8757023883256
 30
0.0
 10
5447.01757249728
 20
509.8757023883256
 30
0.0
 10
5443.808035415032
 20
510.2362316309473
 30
0.0
 10
5441.19027960991
 20
510.8484250988292
 30
0.0
  0
SPLINE
  5
281EB
330
18
100
AcDbEntity
  8
姿図
100
AcDbSpline
210
0.0
220
0.0
230
1.0
 70
     8
 71
     3
 72
    11
 73
     7
 74
     0
 42
0.000000001
 43
0.0000000001
 40
0.0
 40
0.0
 40
0.0
 40
0.0
 40
1.0
 40
1.0
 40
1.0
 40
2.0
 40
2.0
 40
2.0
 40
2.0
 10
5460.424592218417
 20
510.3480249794716
 30
0.0
 10
5457.670755141595
 20
509.6119803288641
 30
0.0
 10
5454.148058879658
 20
509.1701468327703
 30
0.0
 10
5450.308930597324
 20
509.1701468327703
 30
0.0
 10
5446.236569350579
 20
509.1701468327703
 30
0.0
 10
5442.520430977098
 20
509.667274111416
 30
0.0
 10
5439.700361939555
 20
510.4854842893676
 30
0.0
  0
SPLINE
  5
28285
330
18
100
AcDbEntity
  8
姿図
100
AcDbSpline
210
0.0
220
0.0
230
1.0
 70
     8
 71
     3
 72
     8
 73
     4
 74
     0
 42
0.000000001
 43
0.0000000001
 40
5.0
 40
5.0
 40
5.0
 40
5.0
 40
6.0
 40
6.0
 40
6.0
 40
6.0
 10
5436.630265097107
 20
529.0054563488293
 30
0.0
 10
5437.504544204095
 20
530.555577062805
 30
0.0
 10
5438.772942234693
 20
531.9060544933607
 30
0.0
 10
5439.186784329962
 20
532.3718314030828
 30
0.0
  0
SPLINE
  5
28286
330
18
100
AcDbEntity
  8
姿図
100
AcDbSpline
210
0.0
220
0.0
230
1.0
 70
     8
 71
     3
 72
     8
 73
     4
 74
     0
 42
0.000000001
 43
0.0000000001
 40
0.0
 40
0.0
 40
0.0
 40
0.0
 40
1.0
 40
1.0
 40
1.0
 40
1.0
 10
5452.116916708434
 20
529.0579940549926
 30
0.0
 10
5452.011755168721
 20
529.0579940549926
 30
0.0
 10
5442.427585653747
 20
534.8852869423622
 30
0.0
 10
5437.359075047193
 20
530.0574162555133
 30
0.0
  0
SPLINE
  5
28294
330
18
100
AcDbEntity
  8
姿図
100
AcDbSpline
210
0.0
220
0.0
230
1.0
 70
     8
 71
     3
 72
    14
 73
    10
 74
     0
 42
0.000000001
 43
0.0000000001
 40
20.0
 40
20.0
 40
20.0
 40
20.0
 40
21.0
 40
21.0
 40
21.0
 40
22.0
 40
22.0
 40
22.0
 40
23.0
 40
23.0
 40
23.0
 40
23.0
 10
5474.170867717548
 20
559.8964217893674
 30
0.0
 10
5474.170867717548
 20
559.8964217893674
 30
0.0
 10
5474.313839180222
 20
560.0871078245236
 30
0.0
 10
5474.480754056525
 20
560.2778799870671
 30
0.0
 10
5474.647668932826
 20
560.4686521496105
 30
0.0
 10
5474.743098077792
 20
560.6593381847667
 30
0.0
 10
5475.10069898925
 20
560.4209375771279
 30
0.0
 10
5475.458299900709
 20
560.1825369694891
 30
0.0
 10
5476.698017511386
 20
558.9666766450532
 30
0.0
 10
5476.698017511386
 20
558.9666766450532
 30
0.0
  0
SPLINE
  5
28295
330
18
100
AcDbEntity
  8
姿図
100
AcDbSpline
210
0.0
220
0.0
230
1.0
 70
     8
 71
     3
 72
     8
 73
     4
 74
     0
 42
0.000000001
 43
0.0000000001
 40
0.0
 40
0.0
 40
0.0
 40
0.0
 40
1.0
 40
1.0
 40
1.0
 40
1.0
 10
5470.107894356004
 20
558.3204628592459
 30
0.0
 10
5473.690793661559
 20
558.3204628592459
 30
0.0
 10
5475.730290189336
 20
557.5708100814682
 30
0.0
 10
5476.673493390157
 20
556.9478113221096
 30
0.0
  0
ELLIPSE
  5
28296
330
18
100
AcDbEntity
  8
姿図
100
AcDbEllipse
 10
5475.765860800231
 20
551.7749967541026
 30
0.0
 11
-1.159877522786458
 21
0.9731964111328124
 31
0.0
210
0.0
220
0.0
230
1.0
 40
0.7351229721554959
 41
0.0
 42
6.283185307179586
  0
SPLINE
  5
28297
330
18
100
AcDbEntity
  8
姿図
100
AcDbSpline
210
0.0
220
0.0
230
1.0
 70
     8
 71
     3
 72
     8
 73
     4
 74
     0
 42
0.000000001
 43
0.0000000001
 40
0.0
 40
0.0
 40
0.0
 40
0.0
 40
1.0
 40
1.0
 40
1.0
 40
1.0
 10
5474.409048804206
 20
552.4710748944594
 30
0.0
 10
5474.81367526905
 20
552.8743233211087
 30
0.0
 10
5475.592266848911
 20
552.8086942520983
 30
0.0
 10
5476.189990915751
 20
552.3071744767078
 30
0.0
  0
SPLINE
  5
28298
330
18
100
AcDbEntity
  8
姿図
100
AcDbSpline
210
0.0
220
0.0
230
1.0
 70
     8
 71
     3
 72
     8
 73
     4
 74
     0
 42
0.000000001
 43
0.0000000001
 40
0.0
 40
0.0
 40
0.0
 40
0.0
 40
1.0
 40
1.0
 40
1.0
 40
1.0
 10
5473.459283244893
 20
541.0123031370238
 30
0.0
 10
5474.716054078226
 20
542.2249767481348
 30
0.0
 10
5476.501991578227
 20
545.0692475814683
 30
0.0
 10
5476.568137411559
 20
545.6204628592459
 30
0.0
  0
SPLINE
  5
28299
330
18
100
AcDbEntity
  8
姿図
100
AcDbSpline
210
0.0
220
0.0
230
1.0
 70
     8
 71
     3
 72
     8
 73
     4
 74
     0
 42
0.000000001
 43
0.0000000001
 40
0.0
 40
0.0
 40
0.0
 40
0.0
 40
1.0
 40
1.0
 40
1.0
 40
1.0
 10
5473.767963800448
 20
540.6154281370239
 30
0.0
 10
5474.804248522671
 20
541.8942475814681
 30
0.0
 10
5476.215359633781
 20
543.3494559148014
 30
0.0
 10
5477.053206856004
 20
545.6645600814682
 30
0.0
  0
SPLINE
  5
2829A
330
18
100
AcDbEntity
  8
姿図
100
AcDbSpline
210
0.0
220
0.0
230
1.0
 70
     8
 71
     3
 72
     8
 73
     4
 74
     0
 42
0.000000001
 43
0.0000000001
 40
0.0
 40
0.0
 40
0.0
 40
0.0
 40
0.8940086046754551
 40
0.8940086046754551
 40
0.8940086046754551
 40
0.8940086046754551
 10
5475.72554778176
 20
545.695918237963
 30
0.0
 10
5475.195417075964
 20
544.816586975877
 30
0.0
 10
5473.905385624907
 20
545.0023147089512
 30
0.0
 10
5473.046834498964
 20
545.3041296764343
 30
0.0
  0
SPLINE
  5
2829B
330
18
100
AcDbEntity
  8
姿図
100
AcDbSpline
210
0.0
220
0.0
230
1.0
 70
     8
 71
     3
 72
     8
 73
     4
 74
     0
 42
0.000000001
 43
0.0000000001
 40
0.0
 40
0.0
 40
0.0
 40
0.0
 40
1.0
 40
1.0
 40
1.0
 40
1.0
 10
5475.988327841247
 20
546.0795218327701
 30
0.0
 10
5475.45916117458
 20
544.9036246159733
 30
0.0
 10
5473.77640428439
 20
545.3373621376747
 30
0.0
 10
5473.239486152879
 20
545.7102075966591
 30
0.0
  0
ELLIPSE
  5
2829C
330
18
100
AcDbEntity
  8
姿図
100
AcDbEllipse
 10
5473.591574911559
 20
548.3792953245236
 30
0.0
 11
-1.128268771701389
 21
0.9467983669704861
 31
0.0
210
0.0
220
0.0
230
1.0
 40
0.7417511887598578
 41
0.0
 42
6.283185307179586
  0
SPLINE
  5
2829D
330
18
100
AcDbEntity
  8
姿図
100
AcDbSpline
210
0.0
220
0.0
230
1.0
 70
     8
 71
     3
 72
     8
 73
     4
 74
     0
 42
0.000000001
 43
0.0000000001
 40
0.0
 40
0.0
 40
0.0
 40
0.0
 40
0.9866995420590119
 40
0.9866995420590119
 40
0.9866995420590119
 40
0.9866995420590119
 10
5476.215359633781
 20
535.5737031478745
 30
0.0
 10
5475.809316337938
 20
537.2560889008694
 30
0.0
 10
5474.487278645502
 20
539.9116558115775
 30
0.0
 10
5472.076285297055
 20
542.2839974094916
 30
0.0
  0
SPLINE
  5
2829E
330
18
100
AcDbEntity
  8
姿図
100
AcDbSpline
210
0.0
220
0.0
230
1.0
 70
     8
 71
     3
 72
     8
 73
     4
 74
     0
 42
0.000000001
 43
0.0000000001
 40
0.0
 40
0.0
 40
0.0
 40
0.0
 40
1.0
 40
1.0
 40
1.0
 40
1.0
 10
5475.509804078227
 20
530.2195079981348
 30
0.0
 10
5477.174474217114
 20
534.0559663314682
 30
0.0
 10
5474.153814494892
 20
539.4137788314681
 30
0.0
 10
5471.717442967114
 20
541.2658621648013
 30
0.0
  0
LINE
  5
2829F
330
18
100
AcDbEntity
  8
姿図
100
AcDbLine
 10
5474.571532322583
 20
556.0786530990463
 30
0.0
 11
5470.420709026143
 21
549.6069551009994
 31
0.0
  0
LINE
  5
282A0
330
18
100
AcDbEntity
  8
姿図
100
AcDbLine
 10
5474.782888930657
 20
555.8691051661035
 30
0.0
 11
5471.07872226399
 21
550.0189023937512
 31
0.0
  0
LINE
  5
282A1
330
18
100
AcDbEntity
  8
姿図
100
AcDbLine
 10
5474.170867717548
 20
559.8964217893674
 30
0.0
 11
5472.775776300448
 21
558.166122581468
 31
0.0
  0
SPLINE
  5
282A2
330
18
100
AcDbEntity
  8
姿図
100
AcDbSpline
210
0.0
220
0.0
230
1.0
 70
     8
 71
     3
 72
     8
 73
     4
 74
     0
 42
0.000000001
 43
0.0000000001
 40
16.0
 40
16.0
 40
16.0
 40
16.0
 40
17.0
 40
17.0
 40
17.0
 40
17.0
 10
5472.144290297843
 20
560.1586796832478
 30
0.0
 10
5472.287261760517
 20
560.0394793794283
 30
0.0
 10
5472.477947795674
 20
559.9202790756087
 30
0.0
 10
5472.477947795674
 20
559.9202790756087
 30
0.0
  0
SPLINE
  5
282A3
330
18
100
AcDbEntity
  8
姿図
100
AcDbSpline
210
0.0
220
0.0
230
1.0
 70
     8
 71
     3
 72
     8
 73
     4
 74
     0
 42
0.000000001
 43
0.0000000001
 40
17.0
 40
17.0
 40
17.0
 40
17.0
 40
18.0
 40
18.0
 40
18.0
 40
18.0
 10
5472.477947795674
 20
559.9202790756087
 30
0.0
 10
5472.477947795674
 20
559.9202790756087
 30
0.0
 10
5472.764062975795
 20
560.2302515419717
 30
0.0
 10
5472.907206693244
 20
560.4209375771279
 30
0.0
  0
SPLINE
  5
282A4
330
18
100
AcDbEntity
  8
姿図
100
AcDbSpline
210
0.0
220
0.0
230
1.0
 70
     8
 71
     3
 72
     8
 73
     4
 74
     0
 42
0.000000001
 43
0.0000000001
 40
18.0
 40
18.0
 40
18.0
 40
18.0
 40
19.0
 40
19.0
 40
19.0
 40
19.0
 10
5472.907206693244
 20
560.4209375771279
 30
0.0
 10
5473.050178155918
 20
560.6117097396711
 30
0.0
 10
5473.145607300883
 20
560.754767329732
 30
0.0
 10
5473.336293336039
 20
560.5639951671885
 30
0.0
  0
SPLINE
  5
282A5
330
18
100
AcDbEntity
  8
姿図
100
AcDbSpline
210
0.0
220
0.0
230
1.0
 70
     8
 71
     3
 72
     8
 73
     4
 74
     0
 42
0.000000001
 43
0.0000000001
 40
19.0
 40
19.0
 40
19.0
 40
19.0
 40
20.0
 40
20.0
 40
20.0
 40
20.0
 10
5473.336293336039
 20
560.5639951671885
 30
0.0
 10
5473.526979371194
 20
560.3733091320323
 30
0.0
 10
5474.170867717548
 20
559.8964217893674
 30
0.0
 10
5474.170867717548
 20
559.8964217893674
 30
0.0
  0
SPLINE
  5
282A6
330
18
100
AcDbEntity
  8
姿図
100
AcDbSpline
210
0.0
220
0.0
230
1.0
 70
     8
 71
     3
 72
     8
 73
     4
 74
     0
 42
0.000000001
 43
0.0000000001
 40
11.0
 40
11.0
 40
11.0
 40
11.0
 40
12.0
 40
12.0
 40
12.0
 40
12.0
 10
5465.968267619892
 20
557.858820064107
 30
0.0
 10
5466.707240601663
 20
558.1448491168414
 30
0.0
 10
5466.775453492288
 20
558.2368331663206
 30
0.0
 10
5466.990082941073
 20
558.1892047212252
 30
0.0
  0
SPLINE
  5
282A7
330
18
100
AcDbEntity
  8
姿図
100
AcDbSpline
210
0.0
220
0.0
230
1.0
 70
     8
 71
     3
 72
     8
 73
     4
 74
     0
 42
0.000000001
 43
0.0000000001
 40
12.0
 40
12.0
 40
12.0
 40
12.0
 40
13.0
 40
13.0
 40
13.0
 40
13.0
 10
5466.990082941073
 20
558.1892047212252
 30
0.0
 10
5467.204712389857
 20
558.1414901487424
 30
0.0
 10
5468.039114516594
 20
557.8553749686209
 30
0.0
 10
5468.349173110344
 20
557.9030895411036
 30
0.0
  0
SPLINE
  5
282A8
330
18
100
AcDbEntity
  8
姿図
100
AcDbSpline
210
0.0
220
0.0
230
1.0
 70
     8
 71
     3
 72
     8
 73
     4
 74
     0
 42
0.000000001
 43
0.0000000001
 40
13.0
 40
13.0
 40
13.0
 40
13.0
 40
14.0
 40
14.0
 40
14.0
 40
14.0
 10
5468.349173110344
 20
557.9030895411036
 30
0.0
 10
5468.659059449319
 20
557.9508041135862
 30
0.0
 10
5469.718426311299
 20
558.2711118664074
 30
0.0
 10
5470.12374179524
 20
558.2949691526487
 30
0.0
  0
LINE
  5
282A9
330
18
100
AcDbEntity
  8
姿図
100
AcDbLine
 10
5472.477947795674
 20
559.9202790756087
 30
0.0
 11
5471.122130467114
 21
558.3645600814682
 31
0.0
  0
SPLINE
  5
282AA
330
18
100
AcDbEntity
  8
姿図
100
AcDbSpline
210
0.0
220
0.0
230
1.0
 70
     8
 71
     3
 72
    11
 73
     7
 74
     0
 42
0.000000001
 43
0.0000000001
 40
14.0
 40
14.0
 40
14.0
 40
14.0
 40
15.0
 40
15.0
 40
15.0
 40
16.0
 40
16.0
 40
16.0
 40
16.0
 10
5470.12374179524
 20
558.2949691526487
 30
0.0
 10
5470.648257583
 20
558.9148279579872
 30
0.0
 10
5471.58962992458
 20
560.0654037229613
 30
0.0
 10
5471.708830228399
 20
560.1607467405393
 30
0.0
 10
5471.828030532219
 20
560.2560897581175
 30
0.0
 10
5472.001146580396
 20
560.2778799870671
 30
0.0
 10
5472.144290297843
 20
560.1586796832478
 30
0.0
  0
LINE
  5
282AB
330
18
100
AcDbEntity
  8
姿図
100
AcDbLine
 10
5471.780789465676
 20
541.6515040632705
 30
0.0
 11
5473.432131549222
 21
545.1861152803019
 31
0.0
  0
SPLINE
  5
282AC
330
18
100
AcDbEntity
  8
姿図
100
AcDbSpline
210
0.0
220
0.0
230
1.0
 70
     8
 71
     3
 72
     8
 73
     4
 74
     0
 42
0.000000001
 43
0.0000000001
 40
0.0
 40
0.0
 40
0.0
 40
0.0
 40
1.0
 40
1.0
 40
1.0
 40
1.0
 10
5473.046834498964
 20
545.3041296764343
 30
0.0
 10
5472.339110447583
 20
545.5062579438813
 30
0.0
 10
5471.927593791768
 20
544.9605548188813
 30
0.0
 10
5471.712361118769
 20
544.7349527196377
 30
0.0
  0
SPLINE
  5
282AD
330
18
100
AcDbEntity
  8
姿図
100
AcDbSpline
210
0.0
220
0.0
230
1.0
 70
     8
 71
     3
 72
     8
 73
     4
 74
     0
 42
0.000000001
 43
0.0000000001
 40
0.134000468148693
 40
0.134000468148693
 40
0.134000468148693
 40
0.134000468148693
 40
1.0
 40
1.0
 40
1.0
 40
1.0
 10
5471.780789465676
 20
541.6515040632705
 30
0.0
 10
5471.683409457974
 20
541.4990739644611
 30
0.0
 10
5471.63441351909
 20
541.3285801261907
 30
0.0
 10
5471.717442967114
 20
541.2658621648013
 30
0.0
  0
SPLINE
  5
282AE
330
18
100
AcDbEntity
  8
姿図
100
AcDbSpline
210
0.0
220
0.0
230
1.0
 70
     8
 71
     3
 72
     8
 73
     4
 74
     0
 42
0.000000001
 43
0.0000000001
 40
0.0
 40
0.0
 40
0.0
 40
0.0
 40
1.0
 40
1.0
 40
1.0
 40
1.0
 10
5473.239486152879
 20
545.7102075966591
 30
0.0
 10
5472.537547947584
 20
545.9472301661035
 30
0.0
 10
5472.126031291768
 20
545.4015270411035
 30
0.0
 10
5471.960666708434
 20
545.1241107270846
 30
0.0
  0
ELLIPSE
  5
282AF
330
18
100
AcDbEntity
  8
姿図
100
AcDbEllipse
 10
5473.543563095736
 20
548.403457459232
 30
0.0
 11
-0.6214952256944444
 21
0.5215874565972222
 31
0.0
210
0.0
220
0.0
230
1.0
 40
0.7351581471724161
 41
0.0
 42
6.283185307179586
  0
SPLINE
  5
282B0
330
18
100
AcDbEntity
  8
姿図
100
AcDbSpline
210
0.0
220
0.0
230
1.0
 70
     8
 71
     3
 72
     8
 73
     4
 74
     0
 42
0.000000001
 43
0.0000000001
 40
0.0
 40
0.0
 40
0.0
 40
0.0
 40
1.0
 40
1.0
 40
1.0
 40
1.0
 10
5468.079422133782
 20
554.6383448036904
 30
0.0
 10
5464.375255467115
 20
553.8004975814681
 30
0.0
 10
5461.48688741156
 20
552.1909489703569
 30
0.0
 10
5461.222304078226
 20
551.9484142481349
 30
0.0
  0
SPLINE
  5
282B1
330
18
100
AcDbEntity
  8
姿図
100
AcDbSpline
210
0.0
220
0.0
230
1.0
 70
     8
 71
     3
 72
     8
 73
     4
 74
     0
 42
0.000000001
 43
0.0000000001
 40
0.0
 40
0.0
 40
0.0
 40
0.0
 40
1.0
 40
1.0
 40
1.0
 40
1.0
 10
5468.189665189337
 20
554.6162961925793
 30
0.0
 10
5464.529595744893
 20
553.5579628592459
 30
0.0
 10
5461.795567967115
 20
552.0586573036903
 30
0.0
 10
5461.575081856005
 20
551.8602198036904
 30
0.0
  0
SPLINE
  5
282B2
330
18
100
AcDbEntity
  8
姿図
100
AcDbSpline
210
0.0
220
0.0
230
1.0
 70
     8
 71
     3
 72
     8
 73
     4
 74
     0
 42
0.000000001
 43
0.0000000001
 40
0.0
 40
0.0
 40
0.0
 40
0.0
 40
1.0
 40
1.0
 40
1.0
 40
1.0
 10
5456.503901300448
 20
549.3025809148014
 30
0.0
 10
5460.208067967115
 20
552.3673378592459
 30
0.0
 10
5464.48549852267
 20
554.6824420259125
 30
0.0
 10
5465.911251289597
 20
554.755908687154
 30
0.0
  0
SPLINE
  5
282B3
330
18
100
AcDbEntity
  8
姿図
100
AcDbSpline
210
0.0
220
0.0
230
1.0
 70
     8
 71
     3
 72
     8
 73
     4
 74
     0
 42
0.000000001
 43
0.0000000001
 40
0.0
 40
0.0
 40
0.0
 40
0.0
 40
1.0
 40
1.0
 40
1.0
 40
1.0
 10
5469.777165189336
 20
554.2635184148014
 30
0.0
 10
5467.109283244892
 20
553.6461573036904
 30
0.0
 10
5465.808415189336
 20
552.5657753592459
 30
0.0
 10
5464.948519356003
 20
552.0366086925792
 30
0.0
  0
SPLINE
  5
282B4
330
18
100
AcDbEntity
  8
姿図
100
AcDbSpline
210
0.0
220
0.0
230
1.0
 70
     8
 71
     3
 72
     8
 73
     4
 74
     0
 42
0.000000001
 43
0.0000000001
 40
0.0
 40
0.0
 40
0.0
 40
0.0
 40
1.0
 40
1.0
 40
1.0
 40
1.0
 10
5469.909456856003
 20
554.1091781370237
 30
0.0
 10
5469.005463800448
 20
553.9107406370238
 30
0.0
 10
5466.293484633781
 20
552.7642128592458
 30
0.0
 10
5465.433588800448
 20
551.8822684148015
 30
0.0
  0
SPLINE
  5
282B5
330
18
100
AcDbEntity
  8
姿図
100
AcDbSpline
210
0.0
220
0.0
230
1.0
 70
     8
 71
     3
 72
     8
 73
     4
 74
     0
 42
0.000000001
 43
0.0000000001
 40
0.0106763948050698
 40
0.0106763948050698
 40
0.0106763948050698
 40
0.0106763948050698
 40
1.0
 40
1.0
 40
1.0
 40
1.0
 10
5466.811951625936
 20
545.486134109738
 30
0.0
 10
5465.084761492621
 20
546.7973171895842
 30
0.0
 10
5460.164989826201
 20
549.2075598797203
 30
0.0
 10
5456.173172133782
 20
548.5749767481348
 30
0.0
  0
SPLINE
  5
282B6
330
18
100
AcDbEntity
  8
姿図
100
AcDbSpline
210
0.0
220
0.0
230
1.0
 70
     8
 71
     3
 72
     8
 73
     4
 74
     0
 42
0.000000001
 43
0.0000000001
 40
0.0
 40
0.0
 40
0.0
 40
0.0
 40
0.9548759970193254
 40
0.9548759970193254
 40
0.9548759970193254
 40
0.9548759970193254
 10
5456.503901300448
 20
549.3025809148014
 30
0.0
 10
5462.419988054898
 20
549.5552251890128
 30
0.0
 10
5465.823116963214
 20
547.1340823149383
 30
0.0
 10
5467.308379681337
 20
546.2431868942251
 30
0.0
  0
SPLINE
  5
282B7
330
18
100
AcDbEntity
  8
姿図
100
AcDbSpline
210
0.0
220
0.0
230
1.0
 70
     8
 71
     3
 72
     8
 73
     4
 74
     0
 42
0.000000001
 43
0.0000000001
 40
0.0
 40
0.0
 40
0.0
 40
0.0
 40
1.0
 40
1.0
 40
1.0
 40
1.0
 10
5458.885151300448
 20
549.3687267481348
 30
0.0
 10
5459.52456102267
 20
550.228622581468
 30
0.0
 10
5460.186019356004
 20
551.3090045259125
 30
0.0
 10
5461.222304078226
 20
551.9484142481349
 30
0.0
  0
SPLINE
  5
282B8
330
18
100
AcDbEntity
  8
姿図
100
AcDbSpline
210
0.0
220
0.0
230
1.0
 70
     8
 71
     3
 72
     8
 73
     4
 74
     0
 42
0.000000001
 43
0.0000000001
 40
0.0
 40
0.0
 40
0.0
 40
0.0
 40
1.0
 40
1.0
 40
1.0
 40
1.0
 10
5459.326123522671
 20
549.236435081468
 30
0.0
 10
5460.075776300449
 20
550.2727198036903
 30
0.0
 10
5460.51674852267
 20
551.1105670259126
 30
0.0
 10
5461.575081856005
 20
551.8602198036904
 30
0.0
  0
SPLINE
  5
282B9
330
18
100
AcDbEntity
  8
姿図
100
AcDbSpline
210
0.0
220
0.0
230
1.0
 70
     8
 71
     3
 72
     8
 73
     4
 74
     0
 42
0.000000001
 43
0.0000000001
 40
0.0
 40
0.0
 40
0.0
 40
0.0
 40
1.0
 40
1.0
 40
1.0
 40
1.0
 10
5462.170394356004
 20
548.7293170259125
 30
0.0
 10
5462.170394356004
 20
548.7440448091158
 30
0.0
 10
5462.170394356004
 20
548.7587725923188
 30
0.0
 10
5462.170566610778
 20
548.7734142481347
 30
0.0
  0
SPLINE
  5
282BA
330
18
100
AcDbEntity
  8
姿図
100
AcDbSpline
210
0.0
220
0.0
230
1.0
 70
     8
 71
     3
 72
     8
 73
     4
 74
     0
 42
0.000000001
 43
0.0000000001
 40
0.0
 40
0.0
 40
0.0
 40
0.0
 40
1.0
 40
1.0
 40
1.0
 40
1.0
 10
5462.655463800449
 20
548.5749767481348
 30
0.0
 10
5463.824040189336
 20
550.2065739703569
 30
0.0
 10
5464.573692967115
 20
551.0003239703572
 30
0.0
 10
5465.433588800448
 20
551.8822684148015
 30
0.0
  0
SPLINE
  5
282BB
330
18
100
AcDbEntity
  8
姿図
100
AcDbSpline
210
0.0
220
0.0
230
1.0
 70
     8
 71
     3
 72
     8
 73
     4
 74
     0
 42
0.000000001
 43
0.0000000001
 40
0.0
 40
0.0
 40
0.0
 40
0.0
 40
1.0
 40
1.0
 40
1.0
 40
1.0
 10
5453.108415189337
 20
547.7591781370236
 30
0.0
 10
5453.836019356004
 20
548.3324420259125
 30
0.0
 10
5454.717963800449
 20
548.8616086925792
 30
0.0
 10
5456.503901300448
 20
549.3025809148014
 30
0.0
  0
SPLINE
  5
282BC
330
18
100
AcDbEntity
  8
姿図
100
AcDbSpline
210
0.0
220
0.0
230
1.0
 70
     8
 71
     3
 72
     8
 73
     4
 74
     0
 42
0.000000001
 43
0.0000000001
 40
1.0
 40
1.0
 40
1.0
 40
1.0
 40
2.0
 40
2.0
 40
2.0
 40
2.0
 10
5462.170566610778
 20
548.7734142481347
 30
0.0
 10
5462.986192967115
 20
549.986087859246
 30
0.0
 10
5463.757894356004
 20
551.0003239703572
 30
0.0
 10
5464.948519356003
 20
552.0366086925792
 30
0.0
  0
SPLINE
  5
282BD
330
18
100
AcDbEntity
  8
姿図
100
AcDbSpline
210
0.0
220
0.0
230
1.0
 70
     8
 71
     3
 72
     8
 73
     4
 74
     0
 42
0.000000001
 43
0.0000000001
 40
0.0
 40
0.0
 40
0.0
 40
0.0
 40
1.0
 40
1.0
 40
1.0
 40
1.0
 10
5459.748169237988
 20
529.9180717712118
 30
0.0
 10
5459.788304600401
 20
530.1192653476007
 30
0.0
 10
5460.080104188075
 20
530.1695637416979
 30
0.0
 10
5460.150556390766
 20
530.0991115390068
 30
0.0
  0
LINE
  5
282BE
330
18
100
AcDbEntity
  8
姿図
100
AcDbLine
 10
5453.675047269416
 20
530.8952634777354
 30
0.0
 11
5455.174352824971
 21
530.5717690115896
 31
0.0
  0
LINE
  5
282BF
330
18
100
AcDbEntity
  8
姿図
100
AcDbLine
 10
5453.675047269416
 20
530.3073579330305
 30
0.0
 11
5455.174352824971
 21
529.9838634668847
 31
0.0
  0
LINE
  5
282C0
330
18
100
AcDbEntity
  8
姿図
100
AcDbLine
 10
5453.704416708435
 20
531.3656912663639
 30
0.0
 11
5455.20372226399
 21
531.0423690549926
 31
0.0
  0
SPLINE
  5
282C1
330
18
100
AcDbEntity
  8
姿図
100
AcDbSpline
210
0.0
220
0.0
230
1.0
 70
     8
 71
     3
 72
     8
 73
     4
 74
     0
 42
0.000000001
 43
0.0000000001
 40
0.0
 40
0.0
 40
0.0
 40
0.0
 40
1.0
 40
1.0
 40
1.0
 40
1.0
 10
5453.204619480787
 20
531.0423690549926
 30
0.0
 10
5453.204619480787
 20
531.1886133583778
 30
0.0
 10
5453.401851197366
 20
531.3069523883257
 30
0.0
 10
5453.645591703009
 20
531.3069523883257
 30
0.0
  0
SPLINE
  5
282C2
330
18
100
AcDbEntity
  8
姿図
100
AcDbSpline
210
0.0
220
0.0
230
1.0
 70
     8
 71
     3
 72
     8
 73
     4
 74
     0
 42
0.000000001
 43
0.0000000001
 40
0.0
 40
0.0
 40
0.0
 40
0.0
 40
1.0
 40
1.0
 40
1.0
 40
1.0
 10
5471.07872226399
 20
550.0189023937512
 30
0.0
 10
5470.990527819546
 20
549.7249496213988
 30
0.0
 10
5470.432077841248
 20
549.4897357270845
 30
0.0
 10
5470.1085833751
 20
549.577930171529
 30
0.0
  0
LINE
  5
282C3
330
18
100
AcDbEntity
  8
姿図
100
AcDbLine
 10
5465.610666708435
 20
543.6541746105479
 30
0.0
 11
5469.138444486212
 21
549.0340357216592
 31
0.0
  0
SPLINE
  5
282C4
330
18
100
AcDbEntity
  8
姿図
100
AcDbSpline
210
0.0
220
0.0
230
1.0
 70
     8
 71
     3
 72
     8
 73
     4
 74
     0
 42
0.000000001
 43
0.0000000001
 40
0.0
 40
0.0
 40
0.0
 40
0.0
 40
1.0
 40
1.0
 40
1.0
 40
1.0
 10
5466.403727689338
 20
546.9433795259126
 30
0.0
 10
5467.704595744892
 20
548.8616086925792
 30
0.0
 10
5468.123519356004
 20
549.3907753592459
 30
0.0
 10
5469.182886217983
 20
550.7577892481347
 30
0.0
  0
SPLINE
  5
282C5
330
18
100
AcDbEntity
  8
姿図
100
AcDbSpline
210
0.0
220
0.0
230
1.0
 70
     8
 71
     3
 72
     8
 73
     4
 74
     0
 42
0.000000001
 43
0.0000000001
 40
0.0
 40
0.0
 40
0.0
 40
0.0
 40
1.0
 40
1.0
 40
1.0
 40
1.0
 10
5469.666922133782
 20
551.9484142481349
 30
0.0
 10
5467.748692967114
 20
550.0081364703572
 30
0.0
 10
5466.337581856003
 20
547.7591781370236
 30
0.0
 10
5465.984804078225
 20
547.0756711925792
 30
0.0
  0
SPLINE
  5
282C6
330
18
100
AcDbEntity
  8
姿図
100
AcDbSpline
210
0.0
220
0.0
230
1.0
 70
     8
 71
     3
 72
     8
 73
     4
 74
     0
 42
0.000000001
 43
0.0000000001
 40
0.0
 40
0.0
 40
0.0
 40
0.0
 40
1.0
 40
1.0
 40
1.0
 40
1.0
 10
5469.138444486212
 20
549.0781329438812
 30
0.0
 10
5469.403027819546
 20
549.4309107216591
 30
0.0
 10
5469.572354262687
 20
549.577930171529
 30
0.0
 10
5470.1085833751
 20
549.577930171529
 30
0.0
  0
LINE
  5
282C7
330
18
100
AcDbEntity
  8
姿図
100
AcDbLine
 10
5467.535383732589
 20
535.5775134336377
 30
0.0
 11
5466.213566342763
 21
534.057533871636
 31
0.0
  0
LINE
  5
282C8
330
18
100
AcDbEntity
  8
姿図
100
AcDbLine
 10
5467.988762867057
 20
535.0289011227014
 30
0.0
 11
5466.627673369938
 21
533.5568334958045
 31
0.0
  0
LINE
  5
282C9
330
18
100
AcDbEntity
  8
姿図
100
AcDbLine
 10
5468.704525590558
 20
534.0890320964859
 30
0.0
 11
5467.34855993879
 21
532.6258936232755
 31
0.0
  0
LINE
  5
282CA
330
18
100
AcDbEntity
  8
姿図
100
AcDbLine
 10
5469.05928671529
 20
533.5811560060233
 30
0.0
 11
5467.678990905299
 21
532.1670286141646
 31
0.0
  0
LINE
  5
282CB
330
18
100
AcDbEntity
  8
姿図
100
AcDbLine
 10
5469.446642501736
 20
532.9854532522784
 30
0.0
 11
5468.037586253238
 21
531.6390741192629
 31
0.0
  0
LINE
  5
282CC
330
18
100
AcDbEntity
  8
姿図
100
AcDbLine
 10
5468.395493440816
 20
534.5330379597128
 30
0.0
 11
5467.000332172403
 21
533.0862065515646
 31
0.0
  0
LINE
  5
282CD
330
18
100
AcDbEntity
  8
姿図
100
AcDbLine
 10
5469.784284033074
 20
532.4218767645061
 30
0.0
 11
5468.392309069292
 21
531.0774959438743
 31
0.0
  0
LINE
  5
282CE
330
18
100
AcDbEntity
  8
姿図
100
AcDbLine
 10
5470.081849536098
 20
531.8805860319394
 30
0.0
 11
5468.656584756178
 21
530.6256315014489
 31
0.0
  0
LINE
  5
282CF
330
18
100
AcDbEntity
  8
姿図
100
AcDbLine
 10
5470.381157104606
 20
531.279354381373
 30
0.0
 11
5468.944804605
 21
530.0881831815016
 31
0.0
  0
LINE
  5
282D0
330
18
100
AcDbEntity
  8
姿図
100
AcDbLine
 10
5467.036864514081
 20
536.1472097336498
 30
0.0
 11
5465.773200972179
 21
534.5687132543101
 31
0.0
  0
SPLINE
  5
282D1
330
18
100
AcDbEntity
  8
姿図
100
AcDbSpline
210
0.0
220
0.0
230
1.0
 70
     8
 71
     3
 72
     8
 73
     4
 74
     0
 42
0.000000001
 43
0.0000000001
 40
0.0
 40
0.0
 40
0.0
 40
0.0
 40
1.0
 40
1.0
 40
1.0
 40
1.0
 10
5472.731679078226
 20
552.9332809202267
 30
0.0
 10
5471.849734633781
 20
553.5359142481348
 30
0.0
 10
5469.42438741156
 20
554.9249767481349
 30
0.0
 10
5465.911251289597
 20
554.755908687154
 30
0.0
  0
SPLINE
  5
282D2
330
18
100
AcDbEntity
  8
姿図
100
AcDbSpline
210
0.0
220
0.0
230
1.0
 70
     8
 71
     3
 72
     8
 73
     4
 74
     0
 42
0.000000001
 43
0.0000000001
 40
0.0
 40
0.0
 40
0.0
 40
0.0
 40
1.0
 40
1.0
 40
1.0
 40
1.0
 10
5471.982026300448
 20
553.3374767481348
 30
0.0
 10
5470.703206856004
 20
553.1390392481348
 30
0.0
 10
5470.240186022671
 20
552.4775809148016
 30
0.0
 10
5469.666922133782
 20
551.9484142481349
 30
0.0
  0
SPLINE
  5
282D3
330
18
100
AcDbEntity
  8
姿図
100
AcDbSpline
210
0.0
220
0.0
230
1.0
 70
     8
 71
     3
 72
     8
 73
     4
 74
     0
 42
0.000000001
 43
0.0000000001
 40
1.0
 40
1.0
 40
1.0
 40
1.0
 40
2.0
 40
2.0
 40
2.0
 40
2.0
 10
5469.182886217983
 20
550.7577892481347
 30
0.0
 10
5469.755116578226
 20
551.6397336925793
 30
0.0
 10
5470.43862352267
 20
552.6760184148015
 30
0.0
 10
5472.092269356004
 20
553.2713309148014
 30
0.0
  0
SPLINE
  5
282D4
330
18
100
AcDbEntity
  8
姿図
100
AcDbSpline
210
0.0
220
0.0
230
1.0
 70
     8
 71
     3
 72
     8
 73
     4
 74
     0
 42
0.000000001
 43
0.0000000001
 40
10.0
 40
10.0
 40
10.0
 40
10.0
 40
11.0
 40
11.0
 40
11.0
 40
11.0
 10
5458.087611695413
 20
552.4946341374578
 30
0.0
 10
5461.412301094286
 20
555.3071239649316
 30
0.0
 10
5465.229122383347
 20
557.5727048839856
 30
0.0
 10
5465.968267619892
 20
557.858820064107
 30
0.0
  0
SPLINE
  5
282D5
330
18
100
AcDbEntity
  8
姿図
100
AcDbSpline
210
0.0
220
0.0
230
1.0
 70
     8
 71
     3
 72
     8
 73
     4
 74
     0
 42
0.000000001
 43
0.0000000001
 40
0.0
 40
0.0
 40
0.0
 40
0.0
 40
1.0
 40
1.0
 40
1.0
 40
1.0
 10
5468.03532491156
 20
557.4826156370236
 30
0.0
 10
5466.866748522671
 20
556.931400359246
 30
0.0
 10
5465.45563741156
 20
555.4100461925793
 30
0.0
 10
5464.816227689336
 20
554.7926850814681
 30
0.0
  0
SPLINE
  5
282D6
330
18
100
AcDbEntity
  8
姿図
100
AcDbSpline
210
0.0
220
0.0
230
1.0
 70
     8
 71
     3
 72
     8
 73
     4
 74
     0
 42
0.000000001
 43
0.0000000001
 40
8.718707976915393
 40
8.718707976915393
 40
8.718707976915393
 40
8.718707976915393
 40
9.0
 40
9.0
 40
9.0
 40
9.0
 10
5451.909511858798
 20
546.2653975222202
 30
0.0
 10
5452.210822554063
 20
546.6899804104319
 30
0.0
 10
5452.450408455843
 20
547.0085844623407
 30
0.0
 10
5452.550998739684
 20
547.1091747461817
 30
0.0
  0
SPLINE
  5
282D7
330
18
100
AcDbEntity
  8
姿図
100
AcDbSpline
210
0.0
220
0.0
230
1.0
 70
     8
 71
     3
 72
     8
 73
     4
 74
     0
 42
0.000000001
 43
0.0000000001
 40
0.0
 40
0.0
 40
0.0
 40
0.0
 40
1.0
 40
1.0
 40
1.0
 40
1.0
 10
5452.175655586472
 20
530.6013968327702
 30
0.0
 10
5452.175655586472
 20
530.8451373384125
 30
0.0
 10
5452.399242283522
 20
531.0423690549926
 30
0.0
 10
5452.675452814121
 20
531.0423690549926
 30
0.0
  0
SPLINE
  5
282D8
330
18
100
AcDbEntity
  8
姿図
100
AcDbSpline
210
0.0
220
0.0
230
1.0
 70
     8
 71
     3
 72
     8
 73
     4
 74
     0
 42
0.000000001
 43
0.0000000001
 40
0.0
 40
0.0
 40
0.0
 40
0.0
 40
1.0
 40
1.0
 40
1.0
 40
1.0
 10
5465.610666708435
 20
543.6541746105479
 30
0.0
 10
5460.764623142896
 20
546.4521089095931
 30
0.0
 10
5454.630544502488
 20
547.0655081608952
 30
0.0
 10
5451.819346585822
 20
546.2397187728745
 30
0.0
  0
SPLINE
  5
282D9
330
18
100
AcDbEntity
  8
姿図
100
AcDbSpline
210
0.0
220
0.0
230
1.0
 70
     8
 71
     3
 72
     8
 73
     4
 74
     0
 42
0.000000001
 43
0.0000000001
 40
0.0
 40
0.0
 40
0.0
 40
0.0
 40
1.0
 40
1.0
 40
1.0
 40
1.0
 10
5452.072130467115
 20
546.4803586925793
 30
0.0
 10
5452.711540189337
 20
547.1638656370237
 30
0.0
 10
5454.012408244893
 20
548.3103934148014
 30
0.0
 10
5456.173172133782
 20
548.5749767481348
 30
0.0
  0
SPLINE
  5
282DA
330
18
100
AcDbEntity
  8
姿図
100
AcDbSpline
210
0.0
220
0.0
230
1.0
 70
     8
 71
     3
 72
     8
 73
     4
 74
     0
 42
0.000000001
 43
0.0000000001
 40
9.0
 40
9.0
 40
9.0
 40
9.0
 40
10.0
 40
10.0
 40
10.0
 40
10.0
 10
5452.550998739684
 20
547.1091747461817
 30
0.0
 10
5453.337772421325
 20
548.0151487316418
 30
0.0
 10
5455.946140341247
 20
550.6830306760862
 30
0.0
 10
5458.087611695413
 20
552.4946341374578
 30
0.0
  0
LINE
  5
282DB
330
18
100
AcDbEntity
  8
姿図
100
AcDbLine
 10
5452.675452814121
 20
531.0423690549926
 30
0.0
 11
5453.204619480787
 21
531.0423690549926
 31
0.0
  0
LINE
  5
282DC
330
18
100
AcDbEntity
  8
姿図
100
AcDbLine
 10
5453.792697280266
 20
527.3087468219194
 30
0.0
 11
5455.292002835822
 21
526.9852523557736
 31
0.0
  0
LINE
  5
282DD
330
18
100
AcDbEntity
  8
姿図
100
AcDbLine
 10
5453.792697280266
 20
527.8966523666243
 30
0.0
 11
5455.292002835822
 21
527.5731579004785
 31
0.0
  0
LINE
  5
282DE
330
18
100
AcDbEntity
  8
姿図
100
AcDbLine
 10
5461.663965319545
 20
527.5807371105482
 30
0.0
 11
5460.208756986212
 21
527.8894176661036
 31
0.0
  0
LINE
  5
282DF
330
18
100
AcDbEntity
  8
姿図
100
AcDbLine
 10
5461.75215976399
 20
526.9192787772147
 30
0.0
 11
5460.296951430657
 21
527.2279593327701
 31
0.0
  0
SPLINE
  5
282E0
330
18
100
AcDbEntity
  8
姿図
100
AcDbSpline
210
0.0
220
0.0
230
1.0
 70
     8
 71
     3
 72
     8
 73
     4
 74
     0
 42
0.000000001
 43
0.0000000001
 40
0.0
 40
0.0
 40
0.0
 40
0.0
 40
1.0
 40
1.0
 40
1.0
 40
1.0
 10
5462.237229208435
 20
528.7272648883256
 30
0.0
 10
5462.237229208435
 20
529.044213673048
 30
0.0
 10
5462.010369670674
 20
529.3005287772146
 30
0.0
 10
5461.73011115288
 20
529.3005287772146
 30
0.0
  0
LINE
  5
282E1
330
18
100
AcDbEntity
  8
姿図
100
AcDbLine
 10
5453.675047269416
 20
528.5434690441418
 30
0.0
 11
5455.174352824971
 21
528.219974577996
 31
0.0
  0
LINE
  5
282E2
330
18
100
AcDbEntity
  8
姿図
100
AcDbLine
 10
5453.675047269416
 20
529.1608301552528
 30
0.0
 11
5455.174352824971
 21
528.837335689107
 31
0.0
  0
LINE
  5
282E3
330
18
100
AcDbEntity
  8
姿図
100
AcDbLine
 10
5453.675047269416
 20
529.6899968219195
 30
0.0
 11
5455.174352824971
 21
529.3665023557737
 31
0.0
  0
LINE
  5
282E4
330
18
100
AcDbEntity
  8
姿図
100
AcDbLine
 10
5461.614162101403
 20
529.2828577978905
 30
0.0
 11
5460.15895376807
 21
529.5915383534459
 31
0.0
  0
LINE
  5
282E5
330
18
100
AcDbEntity
  8
姿図
100
AcDbLine
 10
5461.619868097323
 20
528.7713621105479
 30
0.0
 11
5460.16465976399
 21
529.0800426661035
 31
0.0
  0
LINE
  5
282E6
330
18
100
AcDbEntity
  8
姿図
100
AcDbLine
 10
5461.619868097323
 20
528.1980982216592
 30
0.0
 11
5460.16465976399
 21
528.5067787772148
 31
0.0
  0
LINE
  5
282E7
330
18
100
AcDbEntity
  8
姿図
100
AcDbLine
 10
5470.994346471289
 20
529.7347753040274
 30
0.0
 11
5469.597615131222
 21
528.5382525489515
 31
0.0
  0
LINE
  5
282E8
330
18
100
AcDbEntity
  8
姿図
100
AcDbLine
 10
5471.161804510777
 20
529.1641873184346
 30
0.0
 11
5469.78788795314
 21
527.8758084791932
 31
0.0
  0
LINE
  5
282E9
330
18
100
AcDbEntity
  8
姿図
100
AcDbLine
 10
5471.274901258912
 20
528.693372928044
 30
0.0
 11
5469.89351128489
 21
527.341390702132
 31
0.0
  0
SPLINE
  5
282EA
330
18
100
AcDbEntity
  8
姿図
100
AcDbSpline
210
0.0
220
0.0
230
1.0
 70
     8
 71
     3
 72
     8
 73
     4
 74
     0
 42
0.000000001
 43
0.0000000001
 40
0.3748330610719267
 40
0.3748330610719267
 40
0.3748330610719267
 40
0.3748330610719267
 40
0.9335741083362055
 40
0.9335741083362055
 40
0.9335741083362055
 40
0.9335741083362055
 10
5469.78723951744
 20
527.8601062156845
 30
0.0
 10
5469.133531211022
 20
530.6919931094637
 30
0.0
 10
5466.662454970548
 20
533.580845216936
 30
0.0
 10
5465.454657071923
 20
534.9275390349942
 30
0.0
  0
LINE
  5
282EB
330
18
100
AcDbEntity
  8
姿図
100
AcDbLine
 10
5471.960666708434
 20
545.1241107270846
 30
0.0
 11
5461.906500041768
 21
529.366674610548
 31
0.0
  0
LINE
  5
282EC
330
18
100
AcDbEntity
  8
姿図
100
AcDbLine
 10
5460.158803101664
 20
530.0679237967458
 30
0.0
 11
5461.569914212775
 21
529.7592432411905
 31
0.0
  0
LINE
  5
282ED
330
18
100
AcDbEntity
  8
姿図
100
AcDbLine
 10
5470.578846737468
 20
530.8397091198788
 30
0.0
 11
5469.161693086735
 21
529.6408383921078
 31
0.0
  0
LINE
  5
282EE
330
18
100
AcDbEntity
  8
姿図
100
AcDbLine
 10
5470.79996393273
 20
530.2909502451987
 30
0.0
 11
5469.409119273994
 21
529.0616057647605
 31
0.0
  0
SPLINE
  5
282EF
330
18
100
AcDbEntity
  8
姿図
100
AcDbSpline
210
0.0
220
0.0
230
1.0
 70
     8
 71
     3
 72
     8
 73
     4
 74
     0
 42
0.000000001
 43
0.0000000001
 40
26.0
 40
26.0
 40
26.0
 40
26.0
 40
27.0
 40
27.0
 40
27.0
 40
27.0
 10
5479.691805488816
 20
558.228651064541
 30
0.0
 10
5480.240264690205
 20
557.7756210081175
 30
0.0
 10
5481.241581693243
 20
556.6073891287772
 30
0.0
 10
5481.098610230571
 20
556.2975027898015
 30
0.0
  0
LINE
  5
282F0
330
18
100
AcDbEntity
  8
姿図
100
AcDbLine
 10
5476.698017511386
 20
558.9666766450532
 30
0.0
 11
5475.487755467115
 21
557.6149073036904
 31
0.0
  0
SPLINE
  5
282F1
330
18
100
AcDbEntity
  8
姿図
100
AcDbSpline
210
0.0
220
0.0
230
1.0
 70
     8
 71
     3
 72
     8
 73
     4
 74
     0
 42
0.000000001
 43
0.0000000001
 40
0.0
 40
0.0
 40
0.0
 40
0.0
 40
1.0
 40
1.0
 40
1.0
 40
1.0
 10
5474.571532322583
 20
556.0786530990463
 30
0.0
 10
5474.953593411994
 20
556.695841955383
 30
0.0
 10
5475.365110067809
 20
556.1279179644978
 30
0.0
 10
5475.365110067809
 20
556.2254141667547
 30
0.0
  0
SPLINE
  5
282F2
330
18
100
AcDbEntity
  8
姿図
100
AcDbSpline
210
0.0
220
0.0
230
1.0
 70
     8
 71
     3
 72
     8
 73
     4
 74
     0
 42
0.000000001
 43
0.0000000001
 40
0.0
 40
0.0
 40
0.0
 40
0.0
 40
1.0
 40
1.0
 40
1.0
 40
1.0
 10
5474.782888930657
 20
555.8691051661035
 30
0.0
 10
5475.165122274841
 20
556.5159218436208
 30
0.0
 10
5475.576638930657
 20
555.9479978527354
 30
0.0
 10
5475.576638930657
 20
556.0454940549923
 30
0.0
  0
SPLINE
  5
282F3
330
18
100
AcDbEntity
  8
姿図
100
AcDbSpline
210
0.0
220
0.0
230
1.0
 70
     8
 71
     3
 72
     8
 73
     4
 74
     0
 42
0.000000001
 43
0.0000000001
 40
23.0
 40
23.0
 40
23.0
 40
23.0
 40
24.0
 40
24.0
 40
24.0
 40
24.0
 10
5476.698017511386
 20
558.9666766450532
 30
0.0
 10
5476.698017511386
 20
558.9666766450532
 30
0.0
 10
5476.988783570414
 20
559.2473657997841
 30
0.0
 10
5477.127276408955
 20
559.3719060016072
 30
0.0
  0
SPLINE
  5
282F4
330
18
100
AcDbEntity
  8
姿図
100
AcDbSpline
210
0.0
220
0.0
230
1.0
 70
     8
 71
     3
 72
     8
 73
     4
 74
     0
 42
0.000000001
 43
0.0000000001
 40
24.0
 40
24.0
 40
24.0
 40
24.0
 40
25.0
 40
25.0
 40
25.0
 40
25.0
 10
5477.127276408955
 20
559.3719060016072
 30
0.0
 10
5477.365677016594
 20
559.5865354503917
 30
0.0
 10
5477.532591892896
 20
559.5626781641504
 30
0.0
 10
5477.937907376838
 20
559.3719060016072
 30
0.0
  0
SPLINE
  5
282F5
330
18
100
AcDbEntity
  8
姿図
100
AcDbSpline
210
0.0
220
0.0
230
1.0
 70
     8
 71
     3
 72
     8
 73
     4
 74
     0
 42
0.000000001
 43
0.0000000001
 40
25.0
 40
25.0
 40
25.0
 40
25.0
 40
26.0
 40
26.0
 40
26.0
 40
26.0
 10
5477.937907376838
 20
559.3719060016072
 30
0.0
 10
5478.343222860778
 20
559.1812199664507
 30
0.0
 10
5479.143518542201
 20
558.6815949935774
 30
0.0
 10
5479.691805488816
 20
558.228651064541
 30
0.0
  0
SPLINE
  5
282F6
330
18
100
AcDbEntity
  8
姿図
100
AcDbSpline
210
0.0
220
0.0
230
1.0
 70
     8
 71
     3
 72
     8
 73
     4
 74
     0
 42
0.000000001
 43
0.0000000001
 40
0.0
 40
0.0
 40
0.0
 40
0.0
 40
1.0
 40
1.0
 40
1.0
 40
1.0
 10
5481.198345744893
 20
553.0508448036903
 30
0.0
 10
5480.93376241156
 20
553.8445948036904
 30
0.0
 10
5480.603033244892
 20
554.0430323036903
 30
0.0
 10
5480.162061022671
 20
554.4399073036905
 30
0.0
  0
LINE
  5
282F7
330
18
100
AcDbEntity
  8
姿図
100
AcDbLine
 10
5480.250255467115
 20
554.6162961925793
 30
0.0
 11
5479.235804020365
 21
553.0771284802684
 31
0.0
  0
SPLINE
  5
282F8
330
18
100
AcDbEntity
  8
姿図
100
AcDbSpline
210
0.0
220
0.0
230
1.0
 70
     8
 71
     3
 72
     8
 73
     4
 74
     0
 42
0.000000001
 43
0.0000000001
 40
30.0
 40
30.0
 40
30.0
 40
30.0
 40
31.0
 40
31.0
 40
31.0
 40
31.0
 10
5482.124904175882
 20
553.9631060884126
 30
0.0
 10
5481.981760458435
 20
553.7485627670151
 30
0.0
 10
5481.695645278312
 20
553.3671045693154
 30
0.0
 10
5481.695645278312
 20
553.3671045693154
 30
0.0
  0
LINE
  5
282F9
330
18
100
AcDbEntity
  8
姿図
100
AcDbLine
 10
5478.222472263989
 20
553.3996607216591
 30
0.0
 11
5476.311650052618
 21
555.0753551661035
 31
0.0
  0
SPLINE
  5
282FA
330
18
100
AcDbEntity
  8
姿図
100
AcDbSpline
210
0.0
220
0.0
230
1.0
 70
     8
 71
     3
 72
     8
 73
     4
 74
     0
 42
0.000000001
 43
0.0000000001
 40
0.0
 40
0.0
 40
0.0
 40
0.0
 40
1.0
 40
1.0
 40
1.0
 40
1.0
 10
5482.256679078226
 20
552.6539698036904
 30
0.0
 10
5482.058241578226
 20
552.7642128592458
 30
0.0
 10
5481.617269356004
 20
553.0067475814683
 30
0.0
 10
5481.198345744893
 20
553.0508448036903
 30
0.0
  0
SPLINE
  5
282FB
330
18
100
AcDbEntity
  8
姿図
100
AcDbSpline
210
0.0
220
0.0
230
1.0
 70
     8
 71
     3
 72
     8
 73
     4
 74
     0
 42
0.000000001
 43
0.0000000001
 40
0.0
 40
0.0
 40
0.0
 40
0.0
 40
1.0
 40
1.0
 40
1.0
 40
1.0
 10
5479.545388930657
 20
552.7822996105481
 30
0.0
 10
5479.577945083
 20
552.7822996105481
 30
0.0
 10
5479.868883396803
 20
552.2825885102877
 30
0.0
 10
5479.574844497063
 20
551.8121607216592
 30
0.0
  0
SPLINE
  5
282FC
330
18
100
AcDbEntity
  8
姿図
100
AcDbSpline
210
0.0
220
0.0
230
1.0
 70
    24
 71
     3
 72
     8
 73
     4
 74
     0
 42
0.000000001
 43
0.0000000001
 40
31.0
 40
31.0
 40
31.0
 40
31.0
 40
32.0
 40
32.0
 40
32.0
 40
32.0
 10
5481.695645278312
 20
553.3671045693154
 30
0.0
 10
5481.695645278312
 20
553.3671045693154
 30
0.0
 10
5482.291819052185
 20
552.6519027463987
 30
0.0
 10
5482.291819052185
 20
552.6519027463987
 30
0.0
  0
SPLINE
  5
282FD
330
18
100
AcDbEntity
  8
姿図
100
AcDbSpline
210
0.0
220
0.0
230
1.0
 70
     8
 71
     3
 72
     8
 73
     4
 74
     0
 42
0.000000001
 43
0.0000000001
 40
32.0
 40
32.0
 40
32.0
 40
32.0
 40
33.0
 40
33.0
 40
33.0
 40
33.0
 10
5482.291819052185
 20
552.6519027463987
 30
0.0
 10
5482.291819052185
 20
552.6519027463987
 30
0.0
 10
5483.273326756178
 20
552.2206629189247
 30
0.0
 10
5483.178069865986
 20
551.7200044174058
 30
0.0
  0
LINE
  5
282FE
330
18
100
AcDbEntity
  8
姿図
100
AcDbLine
 10
5478.222472263989
 20
553.3996607216591
 30
0.0
 11
5478.516511163729
 21
553.6936996213988
 31
0.0
  0
SPLINE
  5
282FF
330
18
100
AcDbEntity
  8
姿図
100
AcDbSpline
210
0.0
220
0.0
230
1.0
 70
     8
 71
     3
 72
     8
 73
     4
 74
     0
 42
0.000000001
 43
0.0000000001
 40
1.0
 40
1.0
 40
1.0
 40
1.0
 40
2.0
 40
2.0
 40
2.0
 40
2.0
 10
5476.189990915751
 20
552.3071744767078
 30
0.0
 10
5476.797533504727
 20
551.7973864721505
 30
0.0
 10
5476.994076202209
 20
551.025340573713
 30
0.0
 10
5476.644054500821
 20
550.5587023901192
 30
0.0
  0
LINE
  5
28300
330
18
100
AcDbEntity
  8
姿図
100
AcDbLine
 10
5479.545388930657
 20
552.8117551769542
 30
0.0
 11
5478.516511163729
 21
553.6936996213988
 31
0.0
  0
SPLINE
  5
28301
330
18
100
AcDbEntity
  8
姿図
100
AcDbSpline
210
0.0
220
0.0
230
1.0
 70
     8
 71
     3
 72
     8
 73
     4
 74
     0
 42
0.000000001
 43
0.0000000001
 40
0.0
 40
0.0
 40
0.0
 40
0.0
 40
1.0
 40
1.0
 40
1.0
 40
1.0
 10
5477.251644356003
 20
547.9135184148015
 30
0.0
 10
5477.251644356003
 20
547.0536225814683
 30
0.0
 10
5476.876817967115
 20
546.259872581468
 30
0.0
 10
5476.590186022671
 20
545.5543170259127
 30
0.0
  0
SPLINE
  5
28302
330
18
100
AcDbEntity
  8
姿図
100
AcDbSpline
210
0.0
220
0.0
230
1.0
 70
     8
 71
     3
 72
     8
 73
     4
 74
     0
 42
0.000000001
 43
0.0000000001
 40
0.0
 40
0.0
 40
0.0
 40
0.0
 40
1.0
 40
1.0
 40
1.0
 40
1.0
 10
5477.251644356003
 20
547.9135184148015
 30
0.0
 10
5477.516227689337
 20
547.4284489703571
 30
0.0
 10
5477.097304078226
 20
545.8629975814681
 30
0.0
 10
5477.053206856004
 20
545.6645600814682
 30
0.0
  0
SPLINE
  5
28303
330
18
100
AcDbEntity
  8
姿図
100
AcDbSpline
210
0.0
220
0.0
230
1.0
 70
     8
 71
     3
 72
     8
 73
     4
 74
     0
 42
0.000000001
 43
0.0000000001
 40
0.0
 40
0.0
 40
0.0
 40
0.0
 40
1.0
 40
1.0
 40
1.0
 40
1.0
 10
5478.199734633781
 20
546.7890392481347
 30
0.0
 10
5478.199734633781
 20
547.6827831446192
 30
0.0
 10
5477.846956856003
 20
548.1340045259126
 30
0.0
 10
5477.435440200188
 20
548.4059948145411
 30
0.0
  0
SPLINE
  5
28304
330
18
100
AcDbEntity
  8
姿図
100
AcDbSpline
210
0.0
220
0.0
230
1.0
 70
     8
 71
     3
 72
     8
 73
     4
 74
     0
 42
0.000000001
 43
0.0000000001
 40
0.0
 40
0.0
 40
0.0
 40
0.0
 40
1.0
 40
1.0
 40
1.0
 40
1.0
 10
5478.199734633781
 20
546.7890392481347
 30
0.0
 10
5478.199734633781
 20
541.7802149208778
 30
0.0
 10
5475.575949911559
 20
537.6609142481348
 30
0.0
 10
5475.487755467115
 20
537.7270600814682
 30
0.0
  0
SPLINE
  5
28305
330
18
100
AcDbEntity
  8
姿図
100
AcDbSpline
210
0.0
220
0.0
230
1.0
 70
     8
 71
     3
 72
     8
 73
     4
 74
     0
 42
0.000000001
 43
0.0000000001
 40
0.0
 40
0.0
 40
0.0
 40
0.0
 40
1.0
 40
1.0
 40
1.0
 40
1.0
 10
5478.596609633782
 20
547.8473725814681
 30
0.0
 10
5479.566748522671
 20
549.4569211925793
 30
0.0
 10
5480.316401300448
 20
550.3829628592459
 30
0.0
 10
5481.044005467114
 20
552.5216781370236
 30
0.0
  0
LINE
  5
28306
330
18
100
AcDbEntity
  8
姿図
100
AcDbLine
 10
5475.988327841247
 20
546.0795218327701
 30
0.0
 11
5479.574844497063
 21
551.8416162880653
 31
0.0
  0
SPLINE
  5
28307
330
18
100
AcDbEntity
  8
姿図
100
AcDbSpline
210
0.0
220
0.0
230
1.0
 70
     8
 71
     3
 72
     8
 73
     4
 74
     0
 42
0.000000001
 43
0.0000000001
 40
33.0
 40
33.0
 40
33.0
 40
33.0
 40
34.0
 40
34.0
 40
34.0
 40
34.0
 10
5483.178069865986
 20
551.7200044174058
 30
0.0
 10
5483.212176311299
 20
550.7273001530828
 30
0.0
 10
5481.110495809997
 20
543.1195819184907
 30
0.0
 10
5476.616713257914
 20
536.371759517232
 30
0.0
  0
SPLINE
  5
28308
330
18
100
AcDbEntity
  8
姿図
100
AcDbSpline
210
0.0
220
0.0
230
1.0
 70
     8
 71
     3
 72
     8
 73
     4
 74
     0
 42
0.000000001
 43
0.0000000001
 40
34.0
 40
34.0
 40
34.0
 40
34.0
 40
35.0
 40
35.0
 40
35.0
 40
35.0
 10
5476.616713257914
 20
536.371759517232
 30
0.0
 10
5476.378657159823
 20
536.1025253049925
 30
0.0
 10
5476.143873902445
 20
536.0780651270411
 30
0.0
 10
5476.299247708868
 20
535.2750994966157
 30
0.0
  0
LINE
  5
28309
330
18
100
AcDbEntity
  8
姿図
100
AcDbLine
 10
5480.757373522671
 20
555.7407753592458
 30
0.0
 11
5480.492790189337
 21
555.3879975814682
 31
0.0
  0
SPLINE
  5
2830A
330
18
100
AcDbEntity
  8
姿図
100
AcDbSpline
210
0.0
220
0.0
230
1.0
 70
     8
 71
     3
 72
    11
 73
     7
 74
     0
 42
0.000000001
 43
0.0000000001
 40
28.0
 40
28.0
 40
28.0
 40
28.0
 40
29.0
 40
29.0
 40
29.0
 40
30.0
 40
30.0
 40
30.0
 40
30.0
 10
5480.741870592983
 20
555.703568327996
 30
0.0
 10
5480.741870592983
 20
555.703568327996
 30
0.0
 10
5481.695645278312
 20
554.7737370562945
 30
0.0
 10
5481.910274727097
 20
554.6068221799924
 30
0.0
 10
5482.124904175882
 20
554.4399073036905
 30
0.0
 10
5482.267875638556
 20
554.1777355371973
 30
0.0
 10
5482.124904175882
 20
553.9631060884126
 30
0.0
  0
LINE
  5
2830B
330
18
100
AcDbEntity
  8
姿図
100
AcDbLine
 10
5476.311650052618
 20
555.0753551661035
 30
0.0
 11
5476.458583375101
 21
555.3105690604177
 31
0.0
  0
SPLINE
  5
2830C
330
18
100
AcDbEntity
  8
姿図
100
AcDbSpline
210
0.0
220
0.0
230
1.0
 70
     8
 71
     3
 72
     8
 73
     4
 74
     0
 42
0.000000001
 43
0.0000000001
 40
27.0
 40
27.0
 40
27.0
 40
27.0
 40
28.0
 40
28.0
 40
28.0
 40
28.0
 10
5481.098610230571
 20
556.2975027898015
 30
0.0
 10
5480.955466513122
 20
555.9876164508257
 30
0.0
 10
5480.741870592983
 20
555.703568327996
 30
0.0
 10
5480.741870592983
 20
555.703568327996
 30
0.0
  0
LINE
  5
2830D
330
18
100
AcDbEntity
  8
姿図
100
AcDbLine
 10
5476.96501241156
 20
557.3723725814682
 30
0.0
 11
5475.892858822683
 21
555.8109139990102
 31
0.0
  0
LINE
  5
2830E
330
18
100
AcDbEntity
  8
姿図
100
AcDbLine
 10
5476.488038941507
 20
555.3693940658432
 30
0.0
 11
5475.576638930657
 21
556.0454940549923
 31
0.0
  0
SPLINE
  5
2830F
330
18
100
AcDbEntity
  8
姿図
100
AcDbSpline
210
0.0
220
0.0
230
1.0
 70
     8
 71
     3
 72
     8
 73
     4
 74
     0
 42
0.000000001
 43
0.0000000001
 40
0.0
 40
0.0
 40
0.0
 40
0.0
 40
1.0
 40
1.0
 40
1.0
 40
1.0
 10
5480.250255467115
 20
554.6162961925793
 30
0.0
 10
5481.308588800448
 20
556.0274073036903
 30
0.0
 10
5478.640706856004
 20
559.2906017481348
 30
0.0
 10
5476.96501241156
 20
557.3723725814682
 30
0.0
  0
SPLINE
  5
28310
330
18
100
AcDbEntity
  8
姿図
100
AcDbSpline
210
0.0
220
0.0
230
1.0
 70
     8
 71
     3
 72
     8
 73
     4
 74
     0
 42
0.000000001
 43
0.0000000001
 40
35.0
 40
35.0
 40
35.0
 40
35.0
 40
36.0
 40
36.0
 40
36.0
 40
36.0
 10
5476.299247708868
 20
535.2750994966157
 30
0.0
 10
5476.454621515291
 20
534.4723061209647
 30
0.0
 10
5477.179814115118
 20
531.9082938054264
 30
0.0
 10
5474.874872980135
 20
529.3961301769543
 30
0.0
  0
SPLINE
  5
28311
330
18
100
AcDbEntity
  8
姿図
100
AcDbSpline
210
0.0
220
0.0
230
1.0
 70
     8
 71
     3
 72
     8
 73
     4
 74
     0
 42
0.000000001
 43
0.0000000001
 40
6.0
 40
6.0
 40
6.0
 40
6.0
 40
7.0
 40
7.0
 40
7.0
 40
7.0
 10
5439.186784329962
 20
532.3718314030828
 30
0.0
 10
5440.69056850965
 20
534.3146930024752
 30
0.0
 10
5442.943402575405
 20
536.8613937131956
 30
0.0
 10
5445.209586386169
 20
539.7280576671885
 30
0.0
  0
SPLINE
  5
28312
330
18
100
AcDbEntity
  8
姿図
100
AcDbSpline
210
0.0
220
0.0
230
1.0
 70
     8
 71
     3
 72
     8
 73
     4
 74
     0
 42
0.000000001
 43
0.0000000001
 40
7.0
 40
7.0
 40
7.0
 40
7.0
 40
8.0
 40
8.0
 40
8.0
 40
8.0
 10
5445.209586386169
 20
539.7280576671885
 30
0.0
 10
5447.680581123583
 20
542.8538789291244
 30
0.0
 10
5450.068721314554
 20
546.1181930296018
 30
0.0
 10
5451.819346585822
 20
546.2397187728745
 30
0.0
  0
SPLINE
  5
28313
330
18
100
AcDbEntity
  8
姿図
100
AcDbSpline
210
0.0
220
0.0
230
1.0
 70
     8
 71
     3
 72
     8
 73
     4
 74
     0
 42
0.000000001
 43
0.0000000001
 40
0.0
 40
0.0
 40
0.0
 40
0.0
 40
1.0
 40
1.0
 40
1.0
 40
1.0
 10
5441.489486152879
 20
531.3290009994369
 30
0.0
 10
5445.414138930657
 20
531.769973221659
 30
0.0
 10
5449.82386115288
 20
529.785598221659
 30
0.0
 10
5452.02872226399
 20
528.4185843327703
 30
0.0
  0
TEXT
  5
28350
330
18
100
AcDbEntity
  8
文字
100
AcDbText
 10
5412.868735247136
 20
477.1985126471133
 30
0.0
 40
6.5
  1
SX-B1050D/E11/BF
 41
0.9000000000000001
100
AcDbText
  0
ENDSEC
  0
SECTION
  2
OBJECTS
  0
DICTIONARY
  5
C
330
0
100
AcDbDictionary
281
     1
  3
ACAD_GROUP
350
D
  3
ACAD_IMAGE_VARS
350
28421
  3
ACAD_LAYOUT
350
40CB
  3
ACAD_MLINESTYLE
350
E
  3
ACAD_PLOTSETTINGS
350
40CC
  3
ACAD_PLOTSTYLENAME
350
40C9
  3
ACAD_SCALELIST
350
1AFAB
  3
AcDbVariableDictionary
350
6377
  3
APPDATA
350
28420
  3
DWGPROPS
350
28445
  0
DICTIONARY
  5
1B086
330
2
100
AcDbDictionary
280
     1
281
     1
  3
ACAD_LAYERFILTERS
360
1D53A
  3
ACAD_LAYERSTATES
360
1B087
  0
DICTIONARY
  5
1AFD3
330
F
100
AcDbDictionary
280
     1
281
     1
  3
ADSK_XREC_LAYER_RECONCILED
360
1AFD4
  0
DICTIONARY
  5
1AFDB
330
4C
100
AcDbDictionary
280
     1
281
     1
  3
ADSK_XREC_LAYER_RECONCILED
360
1AFDC
  0
DICTIONARY
  5
1AFDD
330
4D
100
AcDbDictionary
280
     1
281
     1
  3
ADSK_XREC_LAYER_RECONCILED
360
1AFDE
  0
DICTIONARY
  5
1AFE1
330
40D4
100
AcDbDictionary
280
     1
281
     1
  3
ADSK_XREC_LAYER_RECONCILED
360
1AFE2
  0
DICTIONARY
  5
9FD5
330
18
100
AcDbDictionary
280
     1
281
     1
  3
ACAD_SORTENTS
360
27A52
  0
DICTIONARY
  5
D
102
{ACAD_REACTORS
330
C
102
}
330
C
100
AcDbDictionary
281
     1
  0
RASTERVARIABLES
  5
28421
102
{ACAD_REACTORS
330
C
102
}
330
C
100
AcDbRasterVariables
 90
        0
 70
     1
 71
     1
 72
     0
  0
DICTIONARY
  5
40CB
102
{ACAD_REACTORS
330
C
102
}
330
C
100
AcDbDictionary
281
     1
  3
Model
350
40CD
  3
ﾚｲｱｳﾄ1
350
40CE
  0
DICTIONARY
  5
E
102
{ACAD_REACTORS
330
C
102
}
330
C
100
AcDbDictionary
281
     1
  3
STANDARD
350
1B
  0
DICTIONARY
  5
40CC
102
{ACAD_REACTORS
330
C
102
}
330
C
100
AcDbDictionary
281
     1
  0
ACDBDICTIONARYWDFLT
  5
40C9
102
{ACAD_REACTORS
330
C
102
}
330
C
100
AcDbDictionary
281
     1
  3
Normal
350
40CA
100
AcDbDictionaryWithDefault
340
40CA
  0
DICTIONARY
  5
1AFAB
102
{ACAD_REACTORS
330
C
102
}
330
C
100
AcDbDictionary
281
     1
  3
A0
350
1AFAC
  3
A1
350
1AFAD
  3
A2
350
1AFAE
  3
A3
350
1AFAF
  3
A4
350
1AFB0
  3
A5
350
1AFB1
  3
A6
350
1AFB2
  3
A7
350
1AFB3
  3
A8
350
1AFB4
  3
A9
350
1AFB5
  3
B0
350
1AFB6
  3
B1
350
1AFB7
  3
B2
350
1AFB8
  3
B3
350
1AFB9
  3
B4
350
1AFBA
  3
B5
350
1AFBB
  3
B6
350
1AFBC
  3
B7
350
1AFBD
  3
B8
350
1AFBE
  3
B9
350
1AFBF
  3
C0
350
1AFC0
  3
C1
350
1AFC1
  3
C2
350
1AFC2
  3
C3
350
1AFC3
  3
C4
350
1AFC4
  3
C5
350
1AFC5
  3
C6
350
1AFC6
  3
C7
350
1AFC7
  3
C8
350
1AFC8
  3
C9
350
1AFC9
  3
D0
350
1AFCA
  3
D1
350
1AFCB
  3
D2
350
1AFCC
  0
DICTIONARY
  5
6377
102
{ACAD_REACTORS
330
C
102
}
330
C
100
AcDbDictionary
281
     1
  3
DIMASSOC
350
73F2
  3
INDEXCTL
350
1B030
  3
PROJECTNAME
350
1564C
  3
SORTENTS
350
6378
  0
DICTIONARY
  5
28420
102
{ACAD_REACTORS
330
C
102
}
330
C
100
AcDbDictionary
281
     1
  0
XRECORD
  5
28445
102
{ACAD_REACTORS
330
C
102
}
330
C
100
AcDbXrecord
280
     1
  1
DWGPROPS COOKIE
  2

  3

  4

  6

  7

  8
SPAX
  9

300
=
301
=
302
=
303
=
304
=
305
=
306
=
307
=
308
=
309
=
 40
0.0
 41
2449505.547222222
 42
2456821.225813484
  1

 90
        0
  0
DICTIONARY
  5
1D53A
102
{ACAD_REACTORS
330
1B086
102
}
330
1B086
100
AcDbDictionary
281
     1
  0
DICTIONARY
  5
1B087
102
{ACAD_REACTORS
330
1B086
102
}
330
1B086
100
AcDbDictionary
281
     1
  0
XRECORD
  5
1AFD4
102
{ACAD_REACTORS
330
1AFD3
102
}
330
1AFD3
100
AcDbXrecord
280
     1
290
     1
  0
XRECORD
  5
1AFDC
102
{ACAD_REACTORS
330
1AFDB
102
}
330
1AFDB
100
AcDbXrecord
280
     1
290
     1
  0
XRECORD
  5
1AFDE
102
{ACAD_REACTORS
330
1AFDD
102
}
330
1AFDD
100
AcDbXrecord
280
     1
290
     1
  0
XRECORD
  5
1AFE2
102
{ACAD_REACTORS
330
1AFE1
102
}
330
1AFE1
100
AcDbXrecord
280
     1
290
     1
  0
SORTENTSTABLE
  5
27A52
102
{ACAD_REACTORS
330
9FD5
102
}
330
9FD5
100
AcDbSortentsTable
330
18
331
0
  5
16540
  0
LAYOUT
  5
40CD
102
{ACAD_REACTORS
330
40CB
102
}
330
40CB
100
AcDbPlotSettings
  1

  2
JUST PDF 2
  4
A4
  6
CUT1
 40
3.174999952316284
 41
3.174999952316284
 42
3.175003051757812
 43
3.17498779296875
 44
209.8886566162109
 45
297.0530090332031
 46
14.27171755861536
 47
9.855173074625839
 48
5416.225677370756
 49
73.6015656792406
140
5766.216114360568
141
615.5869159565734
142
1.0
143
2.0
 70
 11940
 72
     1
 73
     0
 74
     4
  7
spax form.ctb
 75
     0
147
0.5
148
-5416.225677370756
149
-73.6015656792406
100
AcDbLayout
  1
Model
 70
     1
 71
     0
 10
0.0
 20
0.0
 11
12.0
 21
9.0
 12
0.0
 22
0.0
 32
0.0
 14
5412.868735247136
 24
477.1985126471133
 34
0.0
 15
5504.518735247136
 25
560.6528675283716
 35
0.0
146
0.0
 13
0.0
 23
0.0
 33
0.0
 16
1.0
 26
0.0
 36
0.0
 17
0.0
 27
1.0
 37
0.0
 76
     0
330
18
331
27A71
1001
ACAD_PSEXT
1000
JUST PDF 2
1000
JUST PDF 2
1000
JUST PDF 2 Port:
1000

1070
     0
  0
LAYOUT
  5
40CE
102
{ACAD_REACTORS
330
40CB
102
}
330
40CB
100
AcDbPlotSettings
  1

  2
なし
  4

  6

 40
0.0
 41
0.0
 42
0.0
 43
0.0
 44
0.0
 45
0.0
 46
0.0
 47
0.0
 48
0.0
 49
0.0
140
0.0
141
0.0
142
1.0
143
1.0
 70
   688
 72
     0
 73
     0
 74
     5
  7
Aiba.ctb
 75
    16
147
1.0
148
0.0
149
0.0
100
AcDbLayout
  1
ﾚｲｱｳﾄ1
 70
     0
 71
     1
 10
0.0
 20
0.0
 11
12.0
 21
9.0
 12
0.0
 22
0.0
 32
0.0
 14
1.000000000000000E+20
 24
1.000000000000000E+20
 34
1.000000000000000E+20
 15
-1.000000000000000E+20
 25
-1.000000000000000E+20
 35
-1.000000000000000E+20
146
0.0
 13
0.0
 23
0.0
 33
0.0
 16
1.0
 26
0.0
 36
0.0
 17
0.0
 27
1.0
 37
0.0
 76
     0
330
15
  0
MLINESTYLE
  5
1B
102
{ACAD_REACTORS
330
E
102
}
330
E
100
AcDbMlineStyle
  2
STANDARD
 70
     0
  3

 62
     0
 51
90.0
 52
90.0
 71
     2
 49
0.5
 62
   256
  6
BYLAYER
 49
-0.5
 62
   256
  6
BYLAYER
  0
ACDBPLACEHOLDER
  5
40CA
102
{ACAD_REACTORS
330
40C9
102
}
330
40C9
  0
SCALE
  5
1AFAC
102
{ACAD_REACTORS
330
1AFAB
102
}
330
1AFAB
100
AcDbScale
 70
     0
300
1:1
140
1.0
141
1.0
290
     1
1001
ACAD
1000
AcRTDxfName
1000
SCALE
1000
AcRTDxfName
1000
SCALE
1000
AcRTDxfName
1000
SCALE
1000
AcRTDxfName
1000
SCALE
1000
AcRTDxfName
1000
SCALE
1000
AcRTDxfName
1000
SCALE
  0
SCALE
  5
1AFAD
102
{ACAD_REACTORS
330
1AFAB
102
}
330
1AFAB
100
AcDbScale
 70
     0
300
1:2
140
1.0
141
2.0
290
     0
1001
ACAD
1000
AcRTDxfName
1000
SCALE
1000
AcRTDxfName
1000
SCALE
1000
AcRTDxfName
1000
SCALE
1000
AcRTDxfName
1000
SCALE
1000
AcRTDxfName
1000
SCALE
1000
AcRTDxfName
1000
SCALE
  0
SCALE
  5
1AFAE
102
{ACAD_REACTORS
330
1AFAB
102
}
330
1AFAB
100
AcDbScale
 70
     0
300
1:4
140
1.0
141
4.0
290
     0
1001
ACAD
1000
AcRTDxfName
1000
SCALE
1000
AcRTDxfName
1000
SCALE
1000
AcRTDxfName
1000
SCALE
1000
AcRTDxfName
1000
SCALE
1000
AcRTDxfName
1000
SCALE
1000
AcRTDxfName
1000
SCALE
  0
SCALE
  5
1AFAF
102
{ACAD_REACTORS
330
1AFAB
102
}
330
1AFAB
100
AcDbScale
 70
     0
300
1:5
140
1.0
141
5.0
290
     0
1001
ACAD
1000
AcRTDxfName
1000
SCALE
1000
AcRTDxfName
1000
SCALE
1000
AcRTDxfName
1000
SCALE
1000
AcRTDxfName
1000
SCALE
1000
AcRTDxfName
1000
SCALE
1000
AcRTDxfName
1000
SCALE
  0
SCALE
  5
1AFB0
102
{ACAD_REACTORS
330
1AFAB
102
}
330
1AFAB
100
AcDbScale
 70
     0
300
1:8
140
1.0
141
8.0
290
     0
1001
ACAD
1000
AcRTDxfName
1000
SCALE
1000
AcRTDxfName
1000
SCALE
1000
AcRTDxfName
1000
SCALE
1000
AcRTDxfName
1000
SCALE
1000
AcRTDxfName
1000
SCALE
1000
AcRTDxfName
1000
SCALE
  0
SCALE
  5
1AFB1
102
{ACAD_REACTORS
330
1AFAB
102
}
330
1AFAB
100
AcDbScale
 70
     0
300
1:10
140
1.0
141
10.0
290
     0
1001
ACAD
1000
AcRTDxfName
1000
SCALE
1000
AcRTDxfName
1000
SCALE
1000
AcRTDxfName
1000
SCALE
1000
AcRTDxfName
1000
SCALE
1000
AcRTDxfName
1000
SCALE
1000
AcRTDxfName
1000
SCALE
  0
SCALE
  5
1AFB2
102
{ACAD_REACTORS
330
1AFAB
102
}
330
1AFAB
100
AcDbScale
 70
     0
300
1:16
140
1.0
141
16.0
290
     0
1001
ACAD
1000
AcRTDxfName
1000
SCALE
1000
AcRTDxfName
1000
SCALE
1000
AcRTDxfName
1000
SCALE
1000
AcRTDxfName
1000
SCALE
1000
AcRTDxfName
1000
SCALE
1000
AcRTDxfName
1000
SCALE
  0
SCALE
  5
1AFB3
102
{ACAD_REACTORS
330
1AFAB
102
}
330
1AFAB
100
AcDbScale
 70
     0
300
1:20
140
1.0
141
20.0
290
     0
1001
ACAD
1000
AcRTDxfName
1000
SCALE
1000
AcRTDxfName
1000
SCALE
1000
AcRTDxfName
1000
SCALE
1000
AcRTDxfName
1000
SCALE
1000
AcRTDxfName
1000
SCALE
1000
AcRTDxfName
1000
SCALE
  0
SCALE
  5
1AFB4
102
{ACAD_REACTORS
330
1AFAB
102
}
330
1AFAB
100
AcDbScale
 70
     0
300
1:30
140
1.0
141
30.0
290
     0
1001
ACAD
1000
AcRTDxfName
1000
SCALE
1000
AcRTDxfName
1000
SCALE
1000
AcRTDxfName
1000
SCALE
1000
AcRTDxfName
1000
SCALE
1000
AcRTDxfName
1000
SCALE
1000
AcRTDxfName
1000
SCALE
  0
SCALE
  5
1AFB5
102
{ACAD_REACTORS
330
1AFAB
102
}
330
1AFAB
100
AcDbScale
 70
     0
300
1:40
140
1.0
141
40.0
290
     0
1001
ACAD
1000
AcRTDxfName
1000
SCALE
1000
AcRTDxfName
1000
SCALE
1000
AcRTDxfName
1000
SCALE
1000
AcRTDxfName
1000
SCALE
1000
AcRTDxfName
1000
SCALE
1000
AcRTDxfName
1000
SCALE
  0
SCALE
  5
1AFB6
102
{ACAD_REACTORS
330
1AFAB
102
}
330
1AFAB
100
AcDbScale
 70
     0
300
1:50
140
1.0
141
50.0
290
     0
1001
ACAD
1000
AcRTDxfName
1000
SCALE
1000
AcRTDxfName
1000
SCALE
1000
AcRTDxfName
1000
SCALE
1000
AcRTDxfName
1000
SCALE
1000
AcRTDxfName
1000
SCALE
1000
AcRTDxfName
1000
SCALE
  0
SCALE
  5
1AFB7
102
{ACAD_REACTORS
330
1AFAB
102
}
330
1AFAB
100
AcDbScale
 70
     0
300
1:100
140
1.0
141
100.0
290
     0
1001
ACAD
1000
AcRTDxfName
1000
SCALE
1000
AcRTDxfName
1000
SCALE
1000
AcRTDxfName
1000
SCALE
1000
AcRTDxfName
1000
SCALE
1000
AcRTDxfName
1000
SCALE
1000
AcRTDxfName
1000
SCALE
  0
SCALE
  5
1AFB8
102
{ACAD_REACTORS
330
1AFAB
102
}
330
1AFAB
100
AcDbScale
 70
     0
300
2:1
140
2.0
141
1.0
290
     0
1001
ACAD
1000
AcRTDxfName
1000
SCALE
1000
AcRTDxfName
1000
SCALE
1000
AcRTDxfName
1000
SCALE
1000
AcRTDxfName
1000
SCALE
1000
AcRTDxfName
1000
SCALE
1000
AcRTDxfName
1000
SCALE
  0
SCALE
  5
1AFB9
102
{ACAD_REACTORS
330
1AFAB
102
}
330
1AFAB
100
AcDbScale
 70
     0
300
4:1
140
4.0
141
1.0
290
     0
1001
ACAD
1000
AcRTDxfName
1000
SCALE
1000
AcRTDxfName
1000
SCALE
1000
AcRTDxfName
1000
SCALE
1000
AcRTDxfName
1000
SCALE
1000
AcRTDxfName
1000
SCALE
1000
AcRTDxfName
1000
SCALE
  0
SCALE
  5
1AFBA
102
{ACAD_REACTORS
330
1AFAB
102
}
330
1AFAB
100
AcDbScale
 70
     0
300
8:1
140
8.0
141
1.0
290
     0
1001
ACAD
1000
AcRTDxfName
1000
SCALE
1000
AcRTDxfName
1000
SCALE
1000
AcRTDxfName
1000
SCALE
1000
AcRTDxfName
1000
SCALE
1000
AcRTDxfName
1000
SCALE
1000
AcRTDxfName
1000
SCALE
  0
SCALE
  5
1AFBB
102
{ACAD_REACTORS
330
1AFAB
102
}
330
1AFAB
100
AcDbScale
 70
     0
300
10:1
140
10.0
141
1.0
290
     0
1001
ACAD
1000
AcRTDxfName
1000
SCALE
1000
AcRTDxfName
1000
SCALE
1000
AcRTDxfName
1000
SCALE
1000
AcRTDxfName
1000
SCALE
1000
AcRTDxfName
1000
SCALE
1000
AcRTDxfName
1000
SCALE
  0
SCALE
  5
1AFBC
102
{ACAD_REACTORS
330
1AFAB
102
}
330
1AFAB
100
AcDbScale
 70
     0
300
100:1
140
100.0
141
1.0
290
     0
1001
ACAD
1000
AcRTDxfName
1000
SCALE
1000
AcRTDxfName
1000
SCALE
1000
AcRTDxfName
1000
SCALE
1000
AcRTDxfName
1000
SCALE
1000
AcRTDxfName
1000
SCALE
1000
AcRTDxfName
1000
SCALE
  0
SCALE
  5
1AFBD
102
{ACAD_REACTORS
330
1AFAB
102
}
330
1AFAB
100
AcDbScale
 70
     0
300
1/128" = 1'-0"
140
0.0078125
141
12.0
290
     0
1001
ACAD
1000
AcRTDxfName
1000
SCALE
1000
AcRTDxfName
1000
SCALE
1000
AcRTDxfName
1000
SCALE
1000
AcRTDxfName
1000
SCALE
1000
AcRTDxfName
1000
SCALE
1000
AcRTDxfName
1000
SCALE
  0
SCALE
  5
1AFBE
102
{ACAD_REACTORS
330
1AFAB
102
}
330
1AFAB
100
AcDbScale
 70
     0
300
1/64" = 1'-0"
140
0.015625
141
12.0
290
     0
1001
ACAD
1000
AcRTDxfName
1000
SCALE
1000
AcRTDxfName
1000
SCALE
1000
AcRTDxfName
1000
SCALE
1000
AcRTDxfName
1000
SCALE
1000
AcRTDxfName
1000
SCALE
1000
AcRTDxfName
1000
SCALE
  0
SCALE
  5
1AFBF
102
{ACAD_REACTORS
330
1AFAB
102
}
330
1AFAB
100
AcDbScale
 70
     0
300
1/32" = 1'-0"
140
0.03125
141
12.0
290
     0
1001
ACAD
1000
AcRTDxfName
1000
SCALE
1000
AcRTDxfName
1000
SCALE
1000
AcRTDxfName
1000
SCALE
1000
AcRTDxfName
1000
SCALE
1000
AcRTDxfName
1000
SCALE
1000
AcRTDxfName
1000
SCALE
  0
SCALE
  5
1AFC0
102
{ACAD_REACTORS
330
1AFAB
102
}
330
1AFAB
100
AcDbScale
 70
     0
300
1/16" = 1'-0"
140
0.0625
141
12.0
290
     0
1001
ACAD
1000
AcRTDxfName
1000
SCALE
1000
AcRTDxfName
1000
SCALE
1000
AcRTDxfName
1000
SCALE
1000
AcRTDxfName
1000
SCALE
1000
AcRTDxfName
1000
SCALE
1000
AcRTDxfName
1000
SCALE
  0
SCALE
  5
1AFC1
102
{ACAD_REACTORS
330
1AFAB
102
}
330
1AFAB
100
AcDbScale
 70
     0
300
3/32" = 1'-0"
140
0.09375
141
12.0
290
     0
1001
ACAD
1000
AcRTDxfName
1000
SCALE
1000
AcRTDxfName
1000
SCALE
1000
AcRTDxfName
1000
SCALE
1000
AcRTDxfName
1000
SCALE
1000
AcRTDxfName
1000
SCALE
1000
AcRTDxfName
1000
SCALE
  0
SCALE
  5
1AFC2
102
{ACAD_REACTORS
330
1AFAB
102
}
330
1AFAB
100
AcDbScale
 70
     0
300
1/8" = 1'-0"
140
0.125
141
12.0
290
     0
1001
ACAD
1000
AcRTDxfName
1000
SCALE
1000
AcRTDxfName
1000
SCALE
1000
AcRTDxfName
1000
SCALE
1000
AcRTDxfName
1000
SCALE
1000
AcRTDxfName
1000
SCALE
1000
AcRTDxfName
1000
SCALE
  0
SCALE
  5
1AFC3
102
{ACAD_REACTORS
330
1AFAB
102
}
330
1AFAB
100
AcDbScale
 70
     0
300
3/16" = 1'-0"
140
0.1875
141
12.0
290
     0
1001
ACAD
1000
AcRTDxfName
1000
SCALE
1000
AcRTDxfName
1000
SCALE
1000
AcRTDxfName
1000
SCALE
1000
AcRTDxfName
1000
SCALE
1000
AcRTDxfName
1000
SCALE
1000
AcRTDxfName
1000
SCALE
  0
SCALE
  5
1AFC4
102
{ACAD_REACTORS
330
1AFAB
102
}
330
1AFAB
100
AcDbScale
 70
     0
300
1/4" = 1'-0"
140
0.25
141
12.0
290
     0
1001
ACAD
1000
AcRTDxfName
1000
SCALE
1000
AcRTDxfName
1000
SCALE
1000
AcRTDxfName
1000
SCALE
1000
AcRTDxfName
1000
SCALE
1000
AcRTDxfName
1000
SCALE
1000
AcRTDxfName
1000
SCALE
  0
SCALE
  5
1AFC5
102
{ACAD_REACTORS
330
1AFAB
102
}
330
1AFAB
100
AcDbScale
 70
     0
300
3/8" = 1'-0"
140
0.375
141
12.0
290
     0
1001
ACAD
1000
AcRTDxfName
1000
SCALE
1000
AcRTDxfName
1000
SCALE
1000
AcRTDxfName
1000
SCALE
1000
AcRTDxfName
1000
SCALE
1000
AcRTDxfName
1000
SCALE
1000
AcRTDxfName
1000
SCALE
  0
SCALE
  5
1AFC6
102
{ACAD_REACTORS
330
1AFAB
102
}
330
1AFAB
100
AcDbScale
 70
     0
300
1/2" = 1'-0"
140
0.5
141
12.0
290
     0
1001
ACAD
1000
AcRTDxfName
1000
SCALE
1000
AcRTDxfName
1000
SCALE
1000
AcRTDxfName
1000
SCALE
1000
AcRTDxfName
1000
SCALE
1000
AcRTDxfName
1000
SCALE
1000
AcRTDxfName
1000
SCALE
  0
SCALE
  5
1AFC7
102
{ACAD_REACTORS
330
1AFAB
102
}
330
1AFAB
100
AcDbScale
 70
     0
300
3/4" = 1'-0"
140
0.75
141
12.0
290
     0
1001
ACAD
1000
AcRTDxfName
1000
SCALE
1000
AcRTDxfName
1000
SCALE
1000
AcRTDxfName
1000
SCALE
1000
AcRTDxfName
1000
SCALE
1000
AcRTDxfName
1000
SCALE
1000
AcRTDxfName
1000
SCALE
  0
SCALE
  5
1AFC8
102
{ACAD_REACTORS
330
1AFAB
102
}
330
1AFAB
100
AcDbScale
 70
     0
300
1" = 1'-0"
140
1.0
141
12.0
290
     0
1001
ACAD
1000
AcRTDxfName
1000
SCALE
1000
AcRTDxfName
1000
SCALE
1000
AcRTDxfName
1000
SCALE
1000
AcRTDxfName
1000
SCALE
1000
AcRTDxfName
1000
SCALE
1000
AcRTDxfName
1000
SCALE
  0
SCALE
  5
1AFC9
102
{ACAD_REACTORS
330
1AFAB
102
}
330
1AFAB
100
AcDbScale
 70
     0
300
1-1/2" = 1'-0"
140
1.5
141
12.0
290
     0
1001
ACAD
1000
AcRTDxfName
1000
SCALE
1000
AcRTDxfName
1000
SCALE
1000
AcRTDxfName
1000
SCALE
1000
AcRTDxfName
1000
SCALE
1000
AcRTDxfName
1000
SCALE
1000
AcRTDxfName
1000
SCALE
  0
SCALE
  5
1AFCA
102
{ACAD_REACTORS
330
1AFAB
102
}
330
1AFAB
100
AcDbScale
 70
     0
300
3" = 1'-0"
140
3.0
141
12.0
290
     0
1001
ACAD
1000
AcRTDxfName
1000
SCALE
1000
AcRTDxfName
1000
SCALE
1000
AcRTDxfName
1000
SCALE
1000
AcRTDxfName
1000
SCALE
1000
AcRTDxfName
1000
SCALE
1000
AcRTDxfName
1000
SCALE
  0
SCALE
  5
1AFCB
102
{ACAD_REACTORS
330
1AFAB
102
}
330
1AFAB
100
AcDbScale
 70
     0
300
6" = 1'-0"
140
6.0
141
12.0
290
     0
1001
ACAD
1000
AcRTDxfName
1000
SCALE
1000
AcRTDxfName
1000
SCALE
1000
AcRTDxfName
1000
SCALE
1000
AcRTDxfName
1000
SCALE
1000
AcRTDxfName
1000
SCALE
1000
AcRTDxfName
1000
SCALE
  0
SCALE
  5
1AFCC
102
{ACAD_REACTORS
330
1AFAB
102
}
330
1AFAB
100
AcDbScale
 70
     0
300
1'-0" = 1'-0"
140
12.0
141
12.0
290
     0
1001
ACAD
1000
AcRTDxfName
1000
SCALE
1000
AcRTDxfName
1000
SCALE
1000
AcRTDxfName
1000
SCALE
1000
AcRTDxfName
1000
SCALE
1000
AcRTDxfName
1000
SCALE
1000
AcRTDxfName
1000
SCALE
  0
DICTIONARYVAR
  5
73F2
102
{ACAD_REACTORS
330
6377
102
}
330
6377
100
DictionaryVariables
280
     0
  1
1
  0
DICTIONARYVAR
  5
1B030
102
{ACAD_REACTORS
330
6377
102
}
330
6377
100
DictionaryVariables
280
     0
  1
0
  0
DICTIONARYVAR
  5
1564C
102
{ACAD_REACTORS
330
6377
102
}
330
6377
100
DictionaryVariables
280
     0
  1

  0
DICTIONARYVAR
  5
6378
102
{ACAD_REACTORS
330
6377
102
}
330
6377
100
DictionaryVariables
280
     0
  1
96
  0
ENDSEC
  0
EOF
