  0
SECTION
  2
HEADER
  9
$ACADVER
  1
AC1015
  9
$ACADMAINTVER
 70
     6
  9
$DWGCODEPAGE
  3
ANSI_932
  9
$INSBASE
 10
0.0
 20
0.0
 30
0.0
  9
$EXTMIN
 10
5315.654467185908
 20
474.8682056242648
 30
0.0
  9
$EXTMAX
 10
5424.854467185908
 20
560.65287492342
 30
0.0
  9
$LIMMIN
 10
0.0
 20
0.0
  9
$LIMMAX
 10
840.0
 20
594.0
  9
$ORTHOMODE
 70
     1
  9
$REGENMODE
 70
     1
  9
$FILLMODE
 70
     1
  9
$QTEXTMODE
 70
     0
  9
$MIRRTEXT
 70
     1
  9
$LTSCALE
 40
7.0
  9
$ATTMODE
 70
     0
  9
$TEXTSIZE
 40
6.0
  9
$TRACEWID
 40
1.0
  9
$TEXTSTYLE
  7
STANDARD
  9
$CLAYER
  8
寸法線
  9
$CELTYPE
  6
BYLAYER
  9
$CECOLOR
 62
   256
  9
$CELTSCALE
 40
1.0
  9
$DISPSILH
 70
     0
  9
$DIMSCALE
 40
1.0
  9
$DIMASZ
 40
6.0
  9
$DIMEXO
 40
3.0
  9
$DIMDLI
 40
7.149999999999999
  9
$DIMRND
 40
0.0
  9
$DIMDLE
 40
0.0
  9
$DIMEXE
 40
2.0
  9
$DIMTP
 40
0.0
  9
$DIMTM
 40
0.0
  9
$DIMTXT
 40
5.0
  9
$DIMCEN
 40
0.0
  9
$DIMTSZ
 40
0.0
  9
$DIMTOL
 70
     0
  9
$DIMLIM
 70
     0
  9
$DIMTIH
 70
     0
  9
$DIMTOH
 70
     0
  9
$DIMSE1
 70
     0
  9
$DIMSE2
 70
     0
  9
$DIMTAD
 70
     3
  9
$DIMZIN
 70
     8
  9
$DIMBLK
  1
Open30
  9
$DIMASO
 70
     1
  9
$DIMSHO
 70
     0
  9
$DIMPOST
  1

  9
$DIMAPOST
  1

  9
$DIMALT
 70
     0
  9
$DIMALTD
 70
     2
  9
$DIMALTF
 40
25.4
  9
$DIMLFAC
 40
1.0
  9
$DIMTOFL
 70
     0
  9
$DIMTVP
 40
0.0
  9
$DIMTIX
 70
     0
  9
$DIMSOXD
 70
     0
  9
$DIMSAH
 70
     0
  9
$DIMBLK1
  1

  9
$DIMBLK2
  1

  9
$DIMSTYLE
  2
STANDARD
  9
$DIMCLRD
 70
     0
  9
$DIMCLRE
 70
     0
  9
$DIMCLRT
 70
     0
  9
$DIMTFAC
 40
1.0
  9
$DIMGAP
 40
2.0
  9
$DIMJUST
 70
     0
  9
$DIMSD1
 70
     0
  9
$DIMSD2
 70
     0
  9
$DIMTOLJ
 70
     1
  9
$DIMTZIN
 70
     0
  9
$DIMALTZ
 70
     0
  9
$DIMALTTZ
 70
     0
  9
$DIMUPT
 70
     1
  9
$DIMDEC
 70
     2
  9
$DIMTDEC
 70
     2
  9
$DIMALTU
 70
     2
  9
$DIMALTTD
 70
     2
  9
$DIMTXSTY
  7
STANDARD
  9
$DIMAUNIT
 70
     0
  9
$DIMADEC
 70
     2
  9
$DIMALTRND
 40
0.0
  9
$DIMAZIN
 70
     2
  9
$DIMDSEP
 70
    46
  9
$DIMATFIT
 70
     3
  9
$DIMFRAC
 70
     0
  9
$DIMLDRBLK
  1
Open30
  9
$DIMLUNIT
 70
     2
  9
$DIMLWD
 70
    -2
  9
$DIMLWE
 70
    -2
  9
$DIMTMOVE
 70
     0
  9
$LUNITS
 70
     2
  9
$LUPREC
 70
     2
  9
$SKETCHINC
 40
0.1
  9
$FILLETRAD
 40
0.0
  9
$AUNITS
 70
     0
  9
$AUPREC
 70
     2
  9
$MENU
  1
ACAD
  9
$ELEVATION
 40
0.0
  9
$PELEVATION
 40
0.0
  9
$THICKNESS
 40
0.0
  9
$LIMCHECK
 70
     0
  9
$CHAMFERA
 40
0.0
  9
$CHAMFERB
 40
0.0
  9
$CHAMFERC
 40
0.0
  9
$CHAMFERD
 40
0.0
  9
$SKPOLY
 70
     0
  9
$TDCREATE
 40
2449505.922222222
  9
$TDUCREATE
 40
2449505.547222222
  9
$TDUPDATE
 40
2456821.601006528
  9
$TDUUPDATE
 40
2456821.226006528
  9
$TDINDWG
 40
2.8815434491
  9
$TDUSRTIMER
 40
2456821.225865996
  9
$USRTIMER
 70
     1
  9
$ANGBASE
 50
0.0
  9
$ANGDIR
 70
     0
  9
$PDMODE
 70
     3
  9
$PDSIZE
 40
0.0
  9
$PLINEWID
 40
0.0
  9
$SPLFRAME
 70
     0
  9
$SPLINETYPE
 70
     6
  9
$SPLINESEGS
 70
     8
  9
$HANDSEED
  5
22A4D
  9
$SURFTAB1
 70
     6
  9
$SURFTAB2
 70
     6
  9
$SURFTYPE
 70
     6
  9
$SURFU
 70
     6
  9
$SURFV
 70
     6
  9
$UCSBASE
  2

  9
$UCSNAME
  2

  9
$UCSORG
 10
0.0
 20
0.0
 30
0.0
  9
$UCSXDIR
 10
1.0
 20
0.0
 30
0.0
  9
$UCSYDIR
 10
0.0
 20
1.0
 30
0.0
  9
$UCSORTHOREF
  2

  9
$UCSORTHOVIEW
 70
     0
  9
$UCSORGTOP
 10
0.0
 20
0.0
 30
0.0
  9
$UCSORGBOTTOM
 10
0.0
 20
0.0
 30
0.0
  9
$UCSORGLEFT
 10
0.0
 20
0.0
 30
0.0
  9
$UCSORGRIGHT
 10
0.0
 20
0.0
 30
0.0
  9
$UCSORGFRONT
 10
0.0
 20
0.0
 30
0.0
  9
$UCSORGBACK
 10
0.0
 20
0.0
 30
0.0
  9
$PUCSBASE
  2

  9
$PUCSNAME
  2

  9
$PUCSORG
 10
0.0
 20
0.0
 30
0.0
  9
$PUCSXDIR
 10
1.0
 20
0.0
 30
0.0
  9
$PUCSYDIR
 10
0.0
 20
1.0
 30
0.0
  9
$PUCSORTHOREF
  2

  9
$PUCSORTHOVIEW
 70
     0
  9
$PUCSORGTOP
 10
0.0
 20
0.0
 30
0.0
  9
$PUCSORGBOTTOM
 10
0.0
 20
0.0
 30
0.0
  9
$PUCSORGLEFT
 10
0.0
 20
0.0
 30
0.0
  9
$PUCSORGRIGHT
 10
0.0
 20
0.0
 30
0.0
  9
$PUCSORGFRONT
 10
0.0
 20
0.0
 30
0.0
  9
$PUCSORGBACK
 10
0.0
 20
0.0
 30
0.0
  9
$USERI1
 70
     0
  9
$USERI2
 70
     0
  9
$USERI3
 70
     0
  9
$USERI4
 70
     0
  9
$USERI5
 70
     0
  9
$USERR1
 40
0.0
  9
$USERR2
 40
0.0
  9
$USERR3
 40
0.0
  9
$USERR4
 40
0.0
  9
$USERR5
 40
0.0
  9
$WORLDVIEW
 70
     0
  9
$SHADEDGE
 70
     3
  9
$SHADEDIF
 70
    70
  9
$TILEMODE
 70
     1
  9
$MAXACTVP
 70
    16
  9
$PINSBASE
 10
0.0
 20
0.0
 30
0.0
  9
$PLIMCHECK
 70
     0
  9
$PEXTMIN
 10
1.000000000000000E+20
 20
1.000000000000000E+20
 30
1.000000000000000E+20
  9
$PEXTMAX
 10
-1.000000000000000E+20
 20
-1.000000000000000E+20
 30
-1.000000000000000E+20
  9
$PLIMMIN
 10
0.0
 20
0.0
  9
$PLIMMAX
 10
0.0
 20
0.0
  9
$UNITMODE
 70
     0
  9
$VISRETAIN
 70
     0
  9
$PLINEGEN
 70
     0
  9
$PSLTSCALE
 70
     0
  9
$TREEDEPTH
 70
  3020
  9
$CMLSTYLE
  2
STANDARD
  9
$CMLJUST
 70
     0
  9
$CMLSCALE
 40
1.0
  9
$PROXYGRAPHICS
 70
     1
  9
$MEASUREMENT
 70
     0
  9
$CELWEIGHT
370
    -1
  9
$ENDCAPS
280
     0
  9
$JOINSTYLE
280
     0
  9
$LWDISPLAY
290
     0
  9
$INSUNITS
 70
     0
  9
$HYPERLINKBASE
  1

  9
$STYLESHEET
  1
spax form.ctb
  9
$XEDIT
290
     1
  9
$CEPSNTYPE
380
     0
  9
$PSTYLEMODE
290
     1
  9
$FINGERPRINTGUID
  2
{C1CFCF3E-DF91-11D3-B30C-0060B0FA8DFC}
  9
$VERSIONGUID
  2
{391DEC01-F6ED-425D-98BA-14A6319B3A8D}
  9
$EXTNAMES
290
     1
  9
$PSVPSCALE
 40
0.0
  9
$OLESTARTUP
290
     0
  0
ENDSEC
  0
SECTION
  2
CLASSES
  0
CLASS
  1
LWPOLYLINE
  2
AcDbPolyline
  3
ObjectDBX Classes
 90
        0
280
     0
281
     1
  0
CLASS
  1
ACDBDICTIONARYWDFLT
  2
AcDbDictionaryWithDefault
  3
ObjectDBX Classes
 90
        0
280
     0
281
     0
  0
CLASS
  1
ACDBPLACEHOLDER
  2
AcDbPlaceHolder
  3
ObjectDBX Classes
 90
        0
280
     0
281
     0
  0
CLASS
  1
LAYOUT
  2
AcDbLayout
  3
ObjectDBX Classes
 90
        0
280
     0
281
     0
  0
CLASS
  1
DICTIONARYVAR
  2
AcDbDictionaryVar
  3
ObjectDBX Classes
 90
        0
280
     0
281
     0
  0
CLASS
  1
LONG_TRANSACTION
  2
AcDbLongTransaction
  3
ObjectDBX Classes
 90
        0
280
     0
281
     0
  0
CLASS
  1
LWPOLYLINE
  2
AcDbPolyline
  3
ObjectDBX Classes
 90
        0
280
     0
281
     1
  0
CLASS
  1
HATCH
  2
AcDbHatch
  3
ObjectDBX Classes
 90
        0
280
     0
281
     1
  0
CLASS
  1
XRECORD
  2
AcDbXrecord
  3
ObjectDBX Classes
 90
        0
280
     0
281
     0
  0
CLASS
  1
MATERIAL
  2
AcDbMaterial
  3
ObjectDBX Classes
 90
     1153
280
     0
281
     0
  0
CLASS
  1
VISUALSTYLE
  2
AcDbVisualStyle
  3
ObjectDBX Classes
 90
     4095
280
     0
281
     0
  0
CLASS
  1
TABLESTYLE
  2
AcDbTableStyle
  3
ObjectDBX Classes
 90
     4095
280
     0
281
     0
  0
CLASS
  1
SCALE
  2
AcDbScale
  3
ObjectDBX Classes
 90
     1153
280
     0
281
     0
  0
CLASS
  1
MLEADERSTYLE
  2
AcDbMLeaderStyle
  3
ACDB_MLEADERSTYLE_CLASS
 90
     4095
280
     0
281
     0
  0
CLASS
  1
CELLSTYLEMAP
  2
AcDbCellStyleMap
  3
ObjectDBX Classes
 90
     1152
280
     0
281
     0
  0
CLASS
  1
SORTENTSTABLE
  2
AcDbSortentsTable
  3
ObjectDBX Classes
 90
        0
280
     0
281
     0
  0
CLASS
  1
RASTERVARIABLES
  2
AcDbRasterVariables
  3
ISM
 90
        0
280
     0
281
     0
  0
CLASS
  1
SUN
  2
AcDbSun
  3
SCENEOE
 90
     1153
280
     0
281
     0
  0
ENDSEC
  0
SECTION
  2
TABLES
  0
TABLE
  2
VPORT
  5
8
330
0
100
AcDbSymbolTable
 70
     1
  0
VPORT
  5
220A1
330
8
100
AcDbSymbolTableRecord
100
AcDbViewportTableRecord
  2
*Active
 70
     0
 10
0.0
 20
0.0
 11
1.0
 21
1.0
 12
5370.254467185909
 22
517.7605402738424
 13
0.0
 23
0.0
 14
1.0
 24
1.0
 15
20.0
 25
20.0
 16
0.0
 26
0.0
 36
1.0
 17
0.0
 27
0.0
 37
0.0
 40
87.50036268513826
 41
1.731829573934837
 42
50.0
 43
0.0
 44
0.0
 50
0.0
 51
0.0
 71
    16
 72
  2000
 73
     1
 74
     0
 75
     0
 76
     0
 77
     0
 78
     1
281
     0
 65
     1
110
0.0
120
0.0
130
0.0
111
1.0
121
0.0
131
0.0
112
0.0
122
1.0
132
0.0
 79
     0
146
0.0
  0
ENDTAB
  0
TABLE
  2
LTYPE
  5
5
330
0
100
AcDbSymbolTable
 70
     6
  0
LTYPE
  5
12
330
5
100
AcDbSymbolTableRecord
100
AcDbLinetypeTableRecord
  2
BYBLOCK
 70
     0
  3

 72
    65
 73
     0
 40
0.0
  0
LTYPE
  5
13
330
5
100
AcDbSymbolTableRecord
100
AcDbLinetypeTableRecord
  2
BYLAYER
 70
     0
  3

 72
    65
 73
     0
 40
0.0
  0
LTYPE
  5
14
330
5
100
AcDbSymbolTableRecord
100
AcDbLinetypeTableRecord
  2
CONTINUOUS
 70
     0
  3
Solid line
 72
    65
 73
     0
 40
0.0
  0
LTYPE
  5
3D
330
5
100
AcDbSymbolTableRecord
100
AcDbLinetypeTableRecord
  2
PHANTOM
 70
     0
  3
_____ _ _ _____ _ _ _____ _ _ _____ _ _ ____
 72
    65
 73
     6
 40
2.5
 49
1.25
 74
     0
 49
-0.25
 74
     0
 49
0.25
 74
     0
 49
-0.25
 74
     0
 49
0.25
 74
     0
 49
-0.25
 74
     0
  0
LTYPE
  5
40D2
330
5
100
AcDbSymbolTableRecord
100
AcDbLinetypeTableRecord
  2
CENTER
 70
     0
  3
____ _ ____ _ ____ _ ____ _ ____ _ ____ _ ____ 
 72
    65
 73
     4
 40
2.0
 49
1.25
 74
     0
 49
-0.25
 74
     0
 49
0.25
 74
     0
 49
-0.25
 74
     0
  0
LTYPE
  5
A244
330
5
100
AcDbSymbolTableRecord
100
AcDbLinetypeTableRecord
  2
HIDDEN
 70
     0
  3
_ _ _ _ _ _ _ _ _ _ _ _ _ _ _ _ _ _ _ _ _ _ _
 72
    65
 73
     2
 40
0.375
 49
0.25
 74
     0
 49
-0.125
 74
     0
  0
ENDTAB
  0
TABLE
  2
LAYER
  5
2
102
{ACAD_XDICTIONARY
360
188D2
102
}
330
0
100
AcDbSymbolTable
 70
    24
  0
LAYER
  5
F
102
{ACAD_XDICTIONARY
360
1881E
102
}
330
2
100
AcDbSymbolTableRecord
100
AcDbLayerTableRecord
  2
0
 70
     0
 62
     7
  6
CONTINUOUS
370
    -3
390
40CA
  0
LAYER
  5
4C
102
{ACAD_XDICTIONARY
360
18826
102
}
330
2
100
AcDbSymbolTableRecord
100
AcDbLayerTableRecord
  2
寸法線
 70
     0
 62
     7
  6
CONTINUOUS
370
    -3
390
40CA
  0
LAYER
  5
4D
102
{ACAD_XDICTIONARY
360
18828
102
}
330
2
100
AcDbSymbolTableRecord
100
AcDbLayerTableRecord
  2
姿図
 70
     0
 62
     8
  6
CONTINUOUS
370
    -3
390
40CA
  0
LAYER
  5
40D4
102
{ACAD_XDICTIONARY
360
1882C
102
}
330
2
100
AcDbSymbolTableRecord
100
AcDbLayerTableRecord
  2
文字
 70
     0
 62
     7
  6
CONTINUOUS
370
    -3
390
40CA
  0
ENDTAB
  0
TABLE
  2
STYLE
  5
3
330
0
100
AcDbSymbolTable
 70
     1
  0
STYLE
  5
10
330
3
100
AcDbSymbolTableRecord
100
AcDbTextStyleTableRecord
  2
STANDARD
 70
     0
 40
0.0
 41
1.0
 50
0.0
 71
     0
 42
6.0
  3
MONOTXT
  4
BIGFONT
  0
ENDTAB
  0
TABLE
  2
VIEW
  5
6
330
0
100
AcDbSymbolTable
 70
     1
  0
VIEW
  5
41
330
6
100
AcDbSymbolTableRecord
100
AcDbViewTableRecord
  2
CUT1
 70
     0
 40
612.7795527156796
 10
420.0000000000169
 20
306.3897763578398
 41
840.0000000000338
 11
0.0
 21
0.0
 31
1.0
 12
0.0
 22
0.0
 32
0.0
 42
50.0
 43
0.0
 44
0.0
 50
0.0
 71
     0
281
     0
 72
     0
  0
ENDTAB
  0
TABLE
  2
UCS
  5
7
330
0
100
AcDbSymbolTable
 70
     0
  0
ENDTAB
  0
TABLE
  2
APPID
  5
9
330
0
100
AcDbSymbolTable
 70
     8
  0
APPID
  5
11
330
9
100
AcDbSymbolTableRecord
100
AcDbRegAppTableRecord
  2
ACAD
 70
     0
  0
APPID
  5
13EF0
330
9
100
AcDbSymbolTableRecord
100
AcDbRegAppTableRecord
  2
AUTO_SEKKEIYA
 70
     0
  0
APPID
  5
1881A
330
9
100
AcDbSymbolTableRecord
100
AcDbRegAppTableRecord
  2
ACAD_MLEADERVER
 70
     0
  0
APPID
  5
188D1
330
9
100
AcDbSymbolTableRecord
100
AcDbRegAppTableRecord
  2
ACAD_PSEXT
 70
     0
  0
APPID
  5
1BB8C
330
9
100
AcDbSymbolTableRecord
100
AcDbRegAppTableRecord
  2
ACAD_EXEMPT_FROM_CAD_STANDARDS
 70
     0
  0
APPID
  5
1BC0E
330
9
100
AcDbSymbolTableRecord
100
AcDbRegAppTableRecord
  2
AcAecLayerStandard
 70
     0
  0
APPID
  5
1D795
330
9
100
AcDbSymbolTableRecord
100
AcDbRegAppTableRecord
  2
ACAD_DSTYLE_DIMJAG
 70
     0
  0
APPID
  5
1D796
330
9
100
AcDbSymbolTableRecord
100
AcDbRegAppTableRecord
  2
ACAD_DSTYLE_DIMTALN
 70
     0
  0
ENDTAB
  0
TABLE
  2
DIMSTYLE
  5
A
330
0
100
AcDbSymbolTable
 70
     3
100
AcDbDimStyleTable
  0
DIMSTYLE
105
1B3A
330
A
100
AcDbSymbolTableRecord
100
AcDbDimStyleTableRecord
  2
STANDARD
 70
     0
 41
4.0
 42
3.0
 43
7.149999999999999
 44
2.0
 73
     0
 74
     0
 77
     3
 78
     8
 79
     2
140
5.0
141
0.0
147
2.0
178
     0
179
     2
271
     2
272
     2
288
     1
340
10
341
49C3
342
49C3
  0
ENDTAB
  0
TABLE
  2
BLOCK_RECORD
  5
1
330
0
100
AcDbSymbolTable
 70
    60
  0
BLOCK_RECORD
  5
18
102
{ACAD_XDICTIONARY
360
9FD5
102
}
330
1
100
AcDbSymbolTableRecord
100
AcDbBlockTableRecord
  2
*MODEL_SPACE
340
40CD
  0
BLOCK_RECORD
  5
15
330
1
100
AcDbSymbolTableRecord
100
AcDbBlockTableRecord
  2
*PAPER_SPACE
340
40CE
  0
BLOCK_RECORD
  5
49C3
330
1
100
AcDbSymbolTableRecord
100
AcDbBlockTableRecord
  2
_OPEN
340
0
102
{BLKREFS
331
16C76
331
16C77
331
16C81
331
16C82
331
16C8A
331
16C8B
331
16C93
331
16C94
331
16C9E
331
16C9F
331
16CA7
331
16CA8
331
1726E
331
1726F
331
1760A
331
1760B
331
17EB0
331
17EB1
331
17EB9
331
17EBA
331
17ED4
331
17ED5
331
17EDD
331
17EDE
331
17EE8
331
17EE9
331
17F01
331
17F02
331
18749
331
1874A
331
18752
331
18753
331
1876F
331
18770
331
18785
331
18786
331
1878F
331
18790
331
187B4
331
187B5
102
}
  0
BLOCK_RECORD
  5
FD36
330
1
100
AcDbSymbolTableRecord
100
AcDbBlockTableRecord
  2
_Open30
340
0
102
{BLKREFS
331
19B17
331
19B18
331
19B20
331
19B21
331
19B29
331
19B2A
331
19B34
331
19B35
331
19B3D
331
19B3E
331
19B48
331
19B49
331
1D75D
331
1D75E
331
1D766
331
1D767
331
1D771
331
1D772
331
1D77B
331
1D77C
331
1D786
331
1D787
331
1D78F
331
1D790
331
20D9F
331
20DA0
331
20DA8
331
20DA9
331
20DB3
331
20DB4
331
20DBD
331
20DBE
331
20DC8
331
20DC9
331
20DD1
331
20DD2
331
216CC
331
216CD
331
216D5
331
216D6
331
216DE
331
216DF
331
216E9
331
216EA
331
216F3
331
216F4
331
2170B
331
2170C
331
22046
331
22047
331
2204F
331
22050
331
2205A
331
2205B
331
2206F
331
22070
331
22078
331
22079
331
229A0
331
229A1
331
229A9
331
229AA
331
229B4
331
229B5
331
229BD
331
229BE
331
229C8
331
229C9
331
229E4
331
229E5
102
}
  0
ENDTAB
  0
ENDSEC
  0
SECTION
  2
BLOCKS
  0
BLOCK
  5
52
330
18
100
AcDbEntity
  8
0
100
AcDbBlockBegin
  2
*MODEL_SPACE
 70
     0
 10
0.0
 20
0.0
 30
0.0
  3
*MODEL_SPACE
  1
*MODEL_SPACE
  0
ENDBLK
  5
53
330
18
100
AcDbEntity
  8
0
100
AcDbBlockEnd
  0
BLOCK
  5
50
330
15
100
AcDbEntity
 67
     1
  8
0
100
AcDbBlockBegin
  2
*PAPER_SPACE
 70
     0
 10
0.0
 20
0.0
 30
0.0
  3
*PAPER_SPACE
  1
*PAPER_SPACE
  0
ENDBLK
  5
51
330
15
100
AcDbEntity
 67
     1
  8
0
100
AcDbBlockEnd
  0
BLOCK
  5
49C7
330
49C3
100
AcDbEntity
  8
0
100
AcDbBlockBegin
  2
_OPEN
 70
     0
 10
0.0
 20
0.0
 30
0.0
  3
_OPEN
  1
_OPEN
  0
LINE
  5
49C4
330
49C3
100
AcDbEntity
  8
0
  6
ByBlock
 62
     0
100
AcDbLine
 10
-1.0
 20
0.1666666666666667
 30
0.0
 11
0.0
 21
0.0
 31
0.0
  0
LINE
  5
49C5
330
49C3
100
AcDbEntity
  8
0
  6
ByBlock
 62
     0
100
AcDbLine
 10
0.0
 20
0.0
 30
0.0
 11
-1.0
 21
-0.1666666666666667
 31
0.0
  0
LINE
  5
49C6
330
49C3
100
AcDbEntity
  8
0
  6
ByBlock
 62
     0
100
AcDbLine
 10
0.0
 20
0.0
 30
0.0
 11
-1.0
 21
0.0
 31
0.0
  0
ENDBLK
  5
49C8
330
49C3
100
AcDbEntity
  8
0
100
AcDbBlockEnd
  0
BLOCK
  5
FD3A
330
FD36
100
AcDbEntity
  8
0
100
AcDbBlockBegin
  2
_Open30
 70
     0
 10
0.0
 20
0.0
 30
0.0
  3
_Open30
  1
_Open30
  0
LINE
  5
FD37
330
FD36
100
AcDbEntity
  8
寸法線
 62
     0
370
    -2
100
AcDbLine
 10
-1.0
 20
0.26794919
 30
0.0
 11
0.0
 21
0.0
 31
0.0
  0
LINE
  5
FD38
330
FD36
100
AcDbEntity
  8
寸法線
 62
     0
370
    -2
100
AcDbLine
 10
0.0
 20
0.0
 30
0.0
 11
-1.0
 21
-0.26794919
 31
0.0
  0
LINE
  5
FD39
330
FD36
100
AcDbEntity
  8
寸法線
 62
     0
370
    -2
100
AcDbLine
 10
0.0
 20
0.0
 30
0.0
 11
-1.0
 21
0.0
 31
0.0
  0
ENDBLK
  5
FD3B
330
FD36
100
AcDbEntity
  8
0
100
AcDbBlockEnd
  0
ENDSEC
  0
SECTION
  2
ENTITIES
  0
SPLINE
  5
226C3
330
18
100
AcDbEntity
  8
姿図
100
AcDbSpline
210
0.0
220
0.0
230
1.0
 70
     8
 71
     3
 72
     8
 73
     4
 74
     0
 42
0.000000001
 43
0.0000000001
 40
36.0
 40
36.0
 40
36.0
 40
36.0
 40
37.0
 40
37.0
 40
37.0
 40
37.0
 10
5385.447362305444
 20
529.3961375720023
 30
0.0
 10
5383.194269857528
 20
526.4435184856306
 30
0.0
 10
5381.484985732093
 20
524.4493249634952
 30
0.0
 10
5380.811641819333
 20
523.9055166410126
 30
0.0
  0
SPLINE
  5
226C4
330
18
100
AcDbEntity
  8
姿図
100
AcDbSpline
210
0.0
220
0.0
230
1.0
 70
     8
 71
     3
 72
    12
 73
     8
 74
     6
 42
0.000000001
 43
0.0000000001
 44
0.0000000001
 40
0.0
 40
0.0
 40
0.0
 40
0.0
 40
2.344472056218261
 40
3.485069501827955
 40
4.152524498741347
 40
4.56533782623421
 40
5.186795096790065
 40
5.186795096790065
 40
5.186795096790065
 40
5.186795096790065
 10
5380.359728842747
 20
527.8601136107327
 30
0.0
 10
5380.520925535689
 20
527.0878158256162
 30
0.0
 10
5380.760545230401
 20
525.9397912841848
 30
0.0
 10
5380.581501844622
 20
524.5524891016582
 30
0.0
 10
5380.34404592032
 20
523.8443657632322
 30
0.0
 10
5380.016456244353
 20
523.371886454599
 30
0.0
 10
5379.737564895218
 20
523.1649379580607
 30
0.0
 10
5379.569988772547
 20
523.0405897961318
 30
0.0
 11
5380.359728842747
 21
527.8601136107327
 31
0.0
 11
5380.666876381838
 21
525.5358482189113
 31
0.0
 11
5380.515192305412
 21
524.4053817338308
 31
0.0
 11
5380.281525205338
 21
523.7801650839824
 31
0.0
 11
5380.043909941862
 21
523.4425946025731
 31
0.0
 11
5379.569988772547
 21
523.0405897961318
 31
0.0
  0
LINE
  5
226C5
330
18
100
AcDbEntity
  8
姿図
100
AcDbLine
 10
5382.05111023109
 20
527.1407889020393
 30
0.0
 11
5380.667824995977
 21
525.6633515121189
 31
0.0
  0
LINE
  5
226C6
330
18
100
AcDbEntity
  8
姿図
100
AcDbLine
 10
5382.008556787502
 20
527.7003703367759
 30
0.0
 11
5380.63716205252
 21
526.2415499738458
 31
0.0
  0
LINE
  5
226C7
330
18
100
AcDbEntity
  8
姿図
100
AcDbLine
 10
5381.949452835167
 20
528.1462183278404
 30
0.0
 11
5380.563345698914
 21
526.8039684028249
 31
0.0
  0
SPLINE
  5
226C8
330
18
100
AcDbEntity
  8
姿図
100
AcDbSpline
210
0.0
220
0.0
230
1.0
 70
     8
 71
     3
 72
     8
 73
     4
 74
     0
 42
0.000000001
 43
0.0000000001
 40
0.0
 40
0.0
 40
0.0
 40
0.0
 40
0.9786274959647334
 40
0.9786274959647334
 40
0.9786274959647334
 40
0.9786274959647334
 10
5376.403642144853
 20
521.1425500611517
 30
0.0
 10
5375.367928044958
 20
527.0979061355538
 30
0.0
 10
5374.881235522124
 20
530.0125273216058
 30
0.0
 10
5373.78632972148
 20
531.4156168203931
 30
0.0
  0
SPLINE
  5
226C9
330
18
100
AcDbEntity
  8
姿図
100
AcDbSpline
210
0.0
220
0.0
230
1.0
 70
     8
 71
     3
 72
     8
 73
     4
 74
     0
 42
0.000000001
 43
0.0000000001
 40
0.0
 40
0.0
 40
0.0
 40
0.0
 40
1.0
 40
1.0
 40
1.0
 40
1.0
 10
5381.854154530165
 20
524.9614738219302
 30
0.0
 10
5383.026310374986
 20
530.0005826248125
 30
0.0
 10
5378.864990614905
 20
534.8093299819416
 30
0.0
 10
5377.218751736867
 20
536.5732188708307
 30
0.0
  0
SPLINE
  5
226CA
330
18
100
AcDbEntity
  8
姿図
100
AcDbSpline
210
0.0
220
0.0
230
1.0
 70
     8
 71
     3
 72
     8
 73
     4
 74
     0
 42
0.000000001
 43
0.0000000001
 40
0.0
 40
0.0
 40
0.0
 40
0.0
 40
1.0
 40
1.0
 40
1.0
 40
1.0
 10
5375.411454644853
 20
533.8866472833738
 30
0.0
 10
5377.351732422631
 20
532.2698639717419
 30
0.0
 10
5379.255319933482
 20
528.2347958836344
 30
0.0
 10
5379.175011032882
 20
526.6650016566209
 30
0.0
  0
SPLINE
  5
226CB
330
18
100
AcDbEntity
  8
姿図
100
AcDbSpline
210
0.0
220
0.0
230
1.0
 70
     8
 71
     3
 72
     8
 73
     4
 74
     0
 42
0.000000001
 43
0.0000000001
 40
4.0
 40
4.0
 40
4.0
 40
4.0
 40
5.0
 40
5.0
 40
5.0
 40
5.0
 10
5347.455796685869
 20
522.9319326566379
 30
0.0
 10
5347.009484565643
 20
524.178023693964
 30
0.0
 10
5346.025737549584
 20
526.8305749634956
 30
0.0
 10
5347.202754422414
 20
529.0054637438775
 30
0.0
  0
LINE
  5
226CC
330
18
100
AcDbEntity
  8
姿図
100
AcDbLine
 10
5367.921472548499
 20
525.4585656861518
 30
0.0
 11
5365.844338352535
 21
526.9080896119331
 31
0.0
  0
LINE
  5
226CD
330
18
100
AcDbEntity
  8
姿図
100
AcDbLine
 10
5370.494614367076
 20
514.1751889500406
 30
0.0
 11
5370.318225478187
 21
529.9178972833738
 31
0.0
  0
LINE
  5
226CE
330
18
100
AcDbEntity
  8
姿図
100
AcDbLine
 10
5372.214406033742
 20
529.697411172263
 30
0.0
 11
5372.56718381152
 21
516.644633394485
 31
0.0
  0
LINE
  5
226CF
330
18
100
AcDbEntity
  8
姿図
100
AcDbLine
 10
5362.74814491178
 20
530.6014042278184
 30
0.0
 11
5362.647548123587
 21
522.054983600648
 31
0.0
  0
LINE
  5
226D0
330
18
100
AcDbEntity
  8
姿図
100
AcDbLine
 10
5365.835036594724
 20
531.0129208836343
 30
0.0
 11
5366.001004069767
 21
521.6946266128011
 31
0.0
  0
SPLINE
  5
226D1
330
18
100
AcDbEntity
  8
姿図
100
AcDbSpline
210
0.0
220
0.0
230
1.0
 70
     8
 71
     3
 72
     8
 73
     4
 74
     0
 42
0.000000001
 43
0.0000000001
 40
0.0
 40
0.0
 40
0.0
 40
0.0
 40
1.0
 40
1.0
 40
1.0
 40
1.0
 10
5347.455796685869
 20
522.9319326566379
 30
0.0
 10
5348.064286676103
 20
524.3998878432699
 30
0.0
 10
5349.254481039167
 20
526.7795875503011
 30
0.0
 10
5352.106072700409
 20
531.2187653389296
 30
0.0
  0
SPLINE
  5
226D2
330
18
100
AcDbEntity
  8
姿図
100
AcDbSpline
210
0.0
220
0.0
230
1.0
 70
     8
 71
     3
 72
     8
 73
     4
 74
     0
 42
0.000000001
 43
0.0000000001
 40
0.0
 40
0.0
 40
0.0
 40
0.0
 40
1.0
 40
1.0
 40
1.0
 40
1.0
 10
5352.061975478186
 20
531.3290083944848
 30
0.0
 10
5349.648944472327
 20
531.3290083944848
 30
0.0
 10
5345.888364367075
 20
529.3446333944848
 30
0.0
 10
5347.696350478187
 20
523.744286172263
 30
0.0
  0
LINE
  5
226D3
330
18
100
AcDbEntity
  8
姿図
100
AcDbLine
 10
5363.865303250539
 20
531.0129208836343
 30
0.0
 11
5364.071147705835
 21
518.1365319947454
 31
0.0
  0
LINE
  5
226D4
330
18
100
AcDbEntity
  8
姿図
100
AcDbLine
 10
5364.218081028317
 20
531.3951542278182
 30
0.0
 11
5364.423925483612
 21
518.0777931167072
 31
0.0
  0
LINE
  5
226D5
330
18
100
AcDbEntity
  8
姿図
100
AcDbLine
 10
5370.950228245114
 20
514.3147153172281
 30
0.0
 11
5370.715100478187
 21
530.0501889500406
 31
0.0
  0
LINE
  5
226D6
330
18
100
AcDbEntity
  8
姿図
100
AcDbLine
 10
5372.809718533743
 20
528.7272722833736
 30
0.0
 11
5372.97887272211
 21
519.7633060832873
 31
0.0
  0
SPLINE
  5
227C4
330
18
100
AcDbEntity
  8
姿図
100
AcDbSpline
210
0.0
220
0.0
230
1.0
 70
     8
 71
     3
 72
     8
 73
     4
 74
     0
 42
0.000000001
 43
0.0000000001
 40
0.0
 40
0.0
 40
0.0
 40
0.0
 40
1.0
 40
1.0
 40
1.0
 40
1.0
 10
5346.065356147675
 20
519.3428321792071
 30
0.0
 10
5348.369177626624
 20
520.8638418363253
 30
0.0
 10
5352.57520857823
 20
521.8806617690511
 30
0.0
 10
5357.558625326276
 20
522.0999420967419
 30
0.0
  0
SPLINE
  5
227C5
330
18
100
AcDbEntity
  8
姿図
100
AcDbSpline
210
0.0
220
0.0
230
1.0
 70
     8
 71
     3
 72
     8
 73
     4
 74
     0
 42
0.000000001
 43
0.0000000001
 40
0.0
 40
0.0
 40
0.0
 40
0.0
 40
1.0
 40
1.0
 40
1.0
 40
1.0
 10
5344.563122260955
 20
516.6244795858911
 30
0.0
 10
5345.085829373586
 20
519.0947853042071
 30
0.0
 10
5350.453718777882
 20
521.0865672595023
 30
0.0
 10
5357.405490831919
 20
521.4877486288601
 30
0.0
  0
LINE
  5
227C6
330
18
100
AcDbEntity
  8
姿図
100
AcDbLine
 10
5357.309544922631
 20
516.9018097725229
 30
0.0
 11
5357.162525472761
 21
514.050304238669
 31
0.0
  0
SPLINE
  5
227C7
330
18
100
AcDbEntity
  8
姿図
100
AcDbSpline
210
0.0
220
0.0
230
1.0
 70
     8
 71
     3
 72
    11
 73
     7
 74
     0
 42
0.000000001
 43
0.0000000001
 40
0.0
 40
0.0
 40
0.0
 40
0.0
 40
1.0
 40
1.0
 40
1.0
 40
2.0
 40
2.0
 40
2.0
 40
2.0
 10
5342.254133138777
 20
510.7852149917071
 30
0.0
 10
5345.884230252493
 20
512.8560618884085
 30
0.0
 10
5352.620769966034
 20
514.0472036527317
 30
0.0
 10
5360.325984402883
 20
514.0472036527317
 30
0.0
 10
5368.187261665253
 20
514.0472036527317
 30
0.0
 10
5374.617704644854
 20
512.8412479778185
 30
0.0
 10
5378.196642090599
 20
510.8591122898843
 30
0.0
  0
ELLIPSE
  5
227C8
330
18
100
AcDbEntity
  8
姿図
100
AcDbEllipse
 10
5360.330204644853
 20
506.4361264500408
 30
0.0
 11
17.21996527777777
 21
0.0
 31
0.0
210
0.0
220
0.0
230
1.0
 40
0.3329065300896287
 41
0.0
 42
6.283185307179586
  0
SPLINE
  5
227C9
330
18
100
AcDbEntity
  8
姿図
100
AcDbSpline
210
0.0
220
0.0
230
1.0
 70
    11
 71
     3
 72
    20
 73
    16
 74
     0
 42
0.000000001
 43
0.0000000001
 40
0.0
 40
0.0
 40
0.0
 40
0.0
 40
1.0
 40
1.0
 40
1.0
 40
2.0
 40
2.0
 40
2.0
 40
3.0
 40
3.0
 40
3.0
 40
4.0
 40
4.0
 40
4.0
 40
5.0
 40
5.0
 40
5.0
 40
5.0
 10
5345.036736762909
 20
507.9080434964817
 30
0.0
 10
5346.984679878144
 20
510.0648455255614
 30
0.0
 10
5353.104289117509
 20
511.6395986722628
 30
0.0
 10
5360.352253255964
 20
511.6395986722628
 30
0.0
 10
5369.168424859698
 20
511.6395986722628
 30
0.0
 10
5376.315447700409
 20
509.3096805950058
 30
0.0
 10
5376.315447700409
 20
506.4361264500408
 30
0.0
 10
5376.315447700409
 20
503.5625723050753
 30
0.0
 10
5369.168424859698
 20
501.2326542278183
 30
0.0
 10
5360.352253255964
 20
501.2326542278183
 30
0.0
 10
5351.535995524844
 20
501.2326542278183
 30
0.0
 10
5344.38905881152
 20
503.5625723050753
 30
0.0
 10
5344.38905881152
 20
506.4361264500408
 30
0.0
 10
5344.38905881152
 20
506.9473786201793
 30
0.0
 10
5344.615229330183
 20
507.441405312888
 30
0.0
 10
5345.036736762909
 20
507.9080434964817
 30
0.0
  0
ELLIPSE
  5
227CA
330
18
100
AcDbEntity
  8
姿図
100
AcDbEllipse
 10
5360.220090780378
 20
506.9563358684431
 30
0.0
 11
20.74330749511719
 21
0.0
 31
0.0
210
0.0
220
0.0
230
1.0
 40
0.3248236933025159
 41
0.0
 42
6.283185307179586
  0
SPLINE
  5
227CB
330
18
100
AcDbEntity
  8
姿図
100
AcDbSpline
210
0.0
220
0.0
230
1.0
 70
     8
 71
     3
 72
     8
 73
     4
 74
     0
 42
0.000000001
 43
0.0000000001
 40
0.0
 40
0.0
 40
0.0
 40
0.0
 40
1.0
 40
1.0
 40
1.0
 40
1.0
 10
5356.251211589298
 20
520.1357209053358
 30
0.0
 10
5350.165794922631
 20
519.7240319947455
 30
0.0
 10
5345.079886583872
 20
517.6955597725232
 30
0.0
 10
5345.168081028317
 20
517.3134986831133
 30
0.0
  0
SPLINE
  5
227CC
330
18
100
AcDbEntity
  8
姿図
100
AcDbSpline
210
0.0
220
0.0
230
1.0
 70
     8
 71
     3
 72
     8
 73
     4
 74
     0
 42
0.000000001
 43
0.0000000001
 40
3.0
 40
3.0
 40
3.0
 40
3.0
 40
4.0
 40
4.0
 40
4.0
 40
4.0
 10
5346.079567166555
 20
519.3610911852838
 30
0.0
 10
5346.079567166555
 20
519.3610911852838
 30
0.0
 10
5347.139623047631
 20
522.504051797263
 30
0.0
 10
5347.455796685869
 20
522.9319326566379
 30
0.0
  0
SPLINE
  5
227CD
330
18
100
AcDbEntity
  8
姿図
100
AcDbSpline
210
0.0
220
0.0
230
1.0
 70
     8
 71
     3
 72
     8
 73
     4
 74
     0
 42
0.000000001
 43
0.0000000001
 40
48.0
 40
48.0
 40
48.0
 40
48.0
 40
49.0
 40
49.0
 40
49.0
 40
49.0
 10
5342.285655762475
 20
510.8243168254744
 30
0.0
 10
5342.322948921112
 20
511.8659414457002
 30
0.0
 10
5342.360069824975
 20
513.9860532078533
 30
0.0
 10
5342.3786733406
 20
514.2651059422283
 30
0.0
  0
LINE
  5
227CE
330
18
100
AcDbEntity
  8
姿図
100
AcDbLine
 10
5343.104813341685
 20
515.74546347261
 30
0.0
 11
5342.938329102319
 21
511.1948368450057
 31
0.0
  0
LINE
  5
227CF
330
18
100
AcDbEntity
  8
姿図
100
AcDbLine
 10
5343.568953831052
 20
515.8086809747801
 30
0.0
 11
5343.382315783091
 21
511.4444340129744
 31
0.0
  0
LINE
  5
227D0
330
18
100
AcDbEntity
  8
姿図
100
AcDbLine
 10
5345.158176378794
 20
517.2716407729572
 30
0.0
 11
5344.936226102102
 21
512.0271719144503
 31
0.0
  0
SPLINE
  5
227D1
330
18
100
AcDbEntity
  8
姿図
100
AcDbSpline
210
0.0
220
0.0
230
1.0
 70
    24
 71
     3
 72
     8
 73
     4
 74
     0
 42
0.000000001
 43
0.0000000001
 40
51.0
 40
51.0
 40
51.0
 40
51.0
 40
52.0
 40
52.0
 40
52.0
 40
52.0
 10
5343.568953831052
 20
515.8086809747801
 30
0.0
 10
5343.568953831052
 20
515.8086809747801
 30
0.0
 10
5344.070731988603
 20
516.2041779365859
 30
0.0
 10
5344.070731988603
 20
516.2041779365859
 30
0.0
  0
SPLINE
  5
227D2
330
18
100
AcDbEntity
  8
姿図
100
AcDbSpline
210
0.0
220
0.0
230
1.0
 70
     8
 71
     3
 72
     8
 73
     4
 74
     0
 42
0.000000001
 43
0.0000000001
 40
50.0
 40
50.0
 40
50.0
 40
50.0
 40
51.0
 40
51.0
 40
51.0
 40
51.0
 10
5343.103952067813
 20
515.8086809747801
 30
0.0
 10
5343.420125706051
 20
515.827284490405
 30
0.0
 10
5343.568953831052
 20
515.8086809747801
 30
0.0
 10
5343.568953831052
 20
515.8086809747801
 30
0.0
  0
SPLINE
  5
227D3
330
18
100
AcDbEntity
  8
姿図
100
AcDbSpline
210
0.0
220
0.0
230
1.0
 70
     8
 71
     3
 72
     8
 73
     4
 74
     0
 42
0.000000001
 43
0.0000000001
 40
49.0
 40
49.0
 40
49.0
 40
49.0
 40
50.0
 40
50.0
 40
50.0
 40
50.0
 10
5342.3786733406
 20
514.2651059422283
 30
0.0
 10
5342.397276856225
 20
514.5439864218288
 30
0.0
 10
5342.787864556963
 20
515.7900774591553
 30
0.0
 10
5343.103952067813
 20
515.8086809747801
 30
0.0
  0
SPLINE
  5
227D4
330
18
100
AcDbEntity
  8
姿図
100
AcDbSpline
210
0.0
220
0.0
230
1.0
 70
     8
 71
     3
 72
     8
 73
     4
 74
     0
 42
0.000000001
 43
0.0000000001
 40
2.0
 40
2.0
 40
2.0
 40
2.0
 40
3.0
 40
3.0
 40
3.0
 40
3.0
 10
5344.629009712127
 20
517.910361476082
 30
0.0
 10
5345.205546441728
 20
518.7657786852837
 30
0.0
 10
5346.079567166555
 20
519.3610911852838
 30
0.0
 10
5346.079567166555
 20
519.3610911852838
 30
0.0
  0
SPLINE
  5
227D5
330
18
100
AcDbEntity
  8
姿図
100
AcDbSpline
210
0.0
220
0.0
230
1.0
 70
     8
 71
     3
 72
     8
 73
     4
 74
     0
 42
0.000000001
 43
0.0000000001
 40
1.0
 40
1.0
 40
1.0
 40
1.0
 40
2.0
 40
2.0
 40
2.0
 40
2.0
 10
5344.182697591902
 20
516.29237238103
 30
0.0
 10
5344.182697591902
 20
516.29237238103
 30
0.0
 10
5344.052472982527
 20
517.0547720121067
 30
0.0
 10
5344.629009712127
 20
517.910361476082
 30
0.0
  0
SPLINE
  5
227D6
330
18
100
AcDbEntity
  8
姿図
100
AcDbSpline
210
0.0
220
0.0
230
1.0
 70
    24
 71
     3
 72
     8
 73
     4
 74
     0
 42
0.000000001
 43
0.0000000001
 40
0.0
 40
0.0
 40
0.0
 40
0.0
 40
1.0
 40
1.0
 40
1.0
 40
1.0
 10
5344.107422255531
 20
516.2331167386692
 30
0.0
 10
5344.107422255531
 20
516.2331167386692
 30
0.0
 10
5344.182697591902
 20
516.29237238103
 30
0.0
 10
5344.182697591902
 20
516.29237238103
 30
0.0
  0
LINE
  5
227D7
330
18
100
AcDbEntity
  8
姿図
100
AcDbLine
 10
5344.070731988603
 20
516.2041779365854
 30
0.0
 11
5344.107422255531
 21
516.2331167386692
 31
0.0
  0
LINE
  5
227D8
330
18
100
AcDbEntity
  8
姿図
100
AcDbLine
 10
5344.182697591902
 20
516.29237238103
 30
0.0
 11
5345.102710341468
 21
516.9664053128877
 31
0.0
  0
SPLINE
  5
227D9
330
18
100
AcDbEntity
  8
姿図
100
AcDbSpline
210
0.0
220
0.0
230
1.0
 70
     8
 71
     3
 72
     8
 73
     4
 74
     0
 42
0.000000001
 43
0.0000000001
 40
47.57323863493616
 40
47.57323863493616
 40
47.57323863493616
 40
47.57323863493616
 40
48.0
 40
48.0
 40
48.0
 40
48.0
 10
5339.476783285261
 20
506.9563358684431
 30
0.0
 10
5339.430203927215
 20
508.1840282322296
 30
0.0
 10
5340.132829381066
 20
509.5127213841438
 30
0.0
 10
5342.285655762475
 20
510.8243168254744
 30
0.0
  0
SPLINE
  5
227DA
330
18
100
AcDbEntity
  8
姿図
100
AcDbSpline
210
0.0
220
0.0
230
1.0
 70
     8
 71
     3
 72
     8
 73
     4
 74
     0
 42
0.000000001
 43
0.0000000001
 40
0.0
 40
0.0
 40
0.0
 40
0.0
 40
1.0
 40
1.0
 40
1.0
 40
1.0
 10
5356.427600478186
 20
519.9593320164468
 30
0.0
 10
5356.427600478186
 20
520.0568282187037
 30
0.0
 10
5356.348707791555
 20
520.1357209053358
 30
0.0
 10
5356.251211589298
 20
520.1357209053358
 30
0.0
  0
LINE
  5
227DB
330
18
100
AcDbEntity
  8
姿図
100
AcDbLine
 10
5357.015592150279
 20
516.8430708944848
 30
0.0
 11
5357.103786594724
 21
514.0208486722627
 31
0.0
  0
SPLINE
  5
227DC
330
18
100
AcDbEntity
  8
姿図
100
AcDbSpline
210
0.0
220
0.0
230
1.0
 70
     8
 71
     3
 72
     8
 73
     4
 74
     0
 42
0.000000001
 43
0.0000000001
 40
0.0
 40
0.0
 40
0.0
 40
0.0
 40
1.0
 40
1.0
 40
1.0
 40
1.0
 10
5357.015592150279
 20
516.8430708944852
 30
0.0
 10
5357.079843181094
 20
516.8430708944852
 30
0.0
 10
5356.486339356225
 20
516.8726987156656
 30
0.0
 10
5356.456969917206
 20
520.0475264608913
 30
0.0
  0
LINE
  5
227DD
330
18
100
AcDbEntity
  8
姿図
100
AcDbLine
 10
5381.97194871555
 20
525.579759580562
 30
0.0
 11
5380.033741644713
 21
523.2963318837292
 31
0.0
  0
SPLINE
  5
227DE
330
18
100
AcDbEntity
  8
姿図
100
AcDbSpline
210
0.0
220
0.0
230
1.0
 70
     8
 71
     3
 72
     8
 73
     4
 74
     0
 42
0.000000001
 43
0.0000000001
 40
0.0
 40
0.0
 40
0.0
 40
0.0
 40
1.0
 40
1.0
 40
1.0
 40
1.0
 10
5375.969211637012
 20
523.6309320235264
 30
0.0
 10
5377.335406216419
 20
523.3777537959845
 30
0.0
 10
5379.666768384062
 20
523.6913786398568
 30
0.0
 10
5379.175011032882
 20
526.6650016566209
 30
0.0
  0
SPLINE
  5
227DF
330
18
100
AcDbEntity
  8
姿図
100
AcDbSpline
210
0.0
220
0.0
230
1.0
 70
     8
 71
     3
 72
     8
 73
     4
 74
     0
 42
0.000000001
 43
0.0000000001
 40
0.0
 40
0.0
 40
0.0
 40
0.0
 40
1.0
 40
1.0
 40
1.0
 40
1.0
 10
5376.43671506152
 20
521.0512550307699
 30
0.0
 10
5375.729436958221
 20
522.0165707859783
 30
0.0
 10
5374.710894477752
 20
522.6203237699192
 30
0.0
 10
5373.096350478187
 20
522.9284875611515
 30
0.0
  0
SPLINE
  5
227E0
330
18
100
AcDbEntity
  8
姿図
100
AcDbSpline
210
0.0
220
0.0
230
1.0
 70
     8
 71
     3
 72
     8
 73
     4
 74
     0
 42
0.000000001
 43
0.0000000001
 40
0.0
 40
0.0
 40
0.0
 40
0.0
 40
1.0
 40
1.0
 40
1.0
 40
1.0
 10
5376.691652127492
 20
522.4241255819852
 30
0.0
 10
5376.442227214298
 20
522.6997332208739
 30
0.0
 10
5376.260326172631
 20
522.8650978042074
 30
0.0
 10
5376.103402073239
 20
522.9536367582004
 30
0.0
  0
SPLINE
  5
227E1
330
18
100
AcDbEntity
  8
姿図
100
AcDbSpline
210
0.0
220
0.0
230
1.0
 70
     8
 71
     3
 72
     8
 73
     4
 74
     0
 42
0.000000001
 43
0.0000000001
 40
37.0
 40
37.0
 40
37.0
 40
37.0
 40
38.0
 40
38.0
 40
38.0
 40
38.0
 10
5380.811641819333
 20
523.9055166410126
 30
0.0
 10
5379.267720762488
 20
522.4495313535263
 30
0.0
 10
5377.699114574731
 20
522.5315931144232
 30
0.0
 10
5376.308040745113
 20
522.78878893919
 30
0.0
  0
SPLINE
  5
227E2
330
18
100
AcDbEntity
  8
姿図
100
AcDbSpline
210
0.0
220
0.0
230
1.0
 70
     8
 71
     3
 72
     8
 73
     4
 74
     0
 42
0.000000001
 43
0.0000000001
 40
38.0
 40
38.0
 40
38.0
 40
38.0
 40
39.0
 40
39.0
 40
39.0
 40
39.0
 10
5376.683900662649
 20
522.4461741930963
 30
0.0
 10
5377.201870768985
 20
521.8505171835477
 30
0.0
 10
5377.331234104488
 20
521.3843957642766
 30
0.0
 10
5377.383082791554
 20
520.8404151870195
 30
0.0
  0
LINE
  5
227E3
330
18
100
AcDbEntity
  8
姿図
100
AcDbLine
 10
5382.033435586135
 20
526.1175761254158
 30
0.0
 11
5380.484679761619
 21
524.2929661554381
 31
0.0
  0
LINE
  5
227E4
330
18
100
AcDbEntity
  8
姿図
100
AcDbLine
 10
5382.038110216224
 20
526.6600953709985
 30
0.0
 11
5380.628017951
 21
524.9988467965059
 31
0.0
  0
SPLINE
  5
227E5
330
18
100
AcDbEntity
  8
姿図
100
AcDbSpline
210
0.0
220
0.0
230
1.0
 70
     8
 71
     3
 72
    11
 73
     7
 74
     0
 42
0.000000001
 43
0.0000000001
 40
41.0
 40
41.0
 40
41.0
 40
41.0
 40
42.0
 40
42.0
 40
42.0
 40
43.0
 40
43.0
 40
43.0
 40
43.0
 10
5377.201870768985
 20
516.0233104235649
 30
0.0
 10
5377.875214681746
 20
515.4016429430962
 30
0.0
 10
5378.030588488169
 20
515.0132084270372
 30
0.0
 10
5378.030588488169
 20
514.314026298131
 30
0.0
 10
5378.030588488169
 20
513.6146719144504
 30
0.0
 10
5378.196642090599
 20
510.8591122898843
 30
0.0
 10
5378.196642090599
 20
510.8591122898843
 30
0.0
  0
SPLINE
  5
227E6
330
18
100
AcDbEntity
  8
姿図
100
AcDbSpline
210
0.0
220
0.0
230
1.0
 70
    27
 71
     3
 72
     8
 73
     4
 74
     0
 42
0.000000001
 43
0.0000000001
 40
43.0
 40
43.0
 40
43.0
 40
43.0
 40
44.0
 40
44.0
 40
44.0
 40
44.0
 10
5378.196642090599
 20
510.8591122898843
 30
0.0
 10
5378.196642090599
 20
510.8591122898843
 30
0.0
 10
5378.196642090599
 20
510.8591122898843
 30
0.0
 10
5378.196642090599
 20
510.8591122898843
 30
0.0
  0
SPLINE
  5
227E7
330
18
100
AcDbEntity
  8
姿図
100
AcDbSpline
210
0.0
220
0.0
230
1.0
 70
     8
 71
     3
 72
     8
 73
     4
 74
     0
 42
0.000000001
 43
0.0000000001
 40
1.0
 40
1.0
 40
1.0
 40
1.0
 40
2.0
 40
2.0
 40
2.0
 40
2.0
 10
5374.242878255965
 20
517.8939972725234
 30
0.0
 10
5375.139464356224
 20
517.4383833944848
 30
0.0
 10
5376.374186578447
 20
516.9386722942245
 30
0.0
 10
5377.201870768985
 20
516.0233104235649
 30
0.0
  0
LINE
  5
227E8
330
18
100
AcDbEntity
  8
姿図
100
AcDbLine
 10
5372.97887272211
 20
519.7633060832873
 30
0.0
 11
5372.986107422631
 21
519.3786611722626
 31
0.0
  0
SPLINE
  5
227E9
330
18
100
AcDbEntity
  8
姿図
100
AcDbSpline
210
0.0
220
0.0
230
1.0
 70
     8
 71
     3
 72
     8
 73
     4
 74
     0
 42
0.000000001
 43
0.0000000001
 40
0.0
 40
0.0
 40
0.0
 40
0.0
 40
1.0
 40
1.0
 40
1.0
 40
1.0
 10
5374.242878255965
 20
517.8939972725234
 30
0.0
 10
5373.536116916988
 20
518.2031945924018
 30
0.0
 10
5372.986107422631
 20
518.5499434530789
 30
0.0
 10
5372.986107422631
 20
519.378661172263
 30
0.0
  0
SPLINE
  5
227EA
330
18
100
AcDbEntity
  8
姿図
100
AcDbSpline
210
0.0
220
0.0
230
1.0
 70
     8
 71
     3
 72
     8
 73
     4
 74
     0
 42
0.000000001
 43
0.0000000001
 40
0.0
 40
0.0
 40
0.0
 40
0.0
 40
0.9455772662780577
 40
0.9455772662780577
 40
0.9455772662780577
 40
0.9455772662780577
 10
5372.987829970374
 20
519.7531430516028
 30
0.0
 10
5374.849061999676
 20
518.8851544733106
 30
0.0
 10
5376.078521164402
 20
517.8377374729725
 30
0.0
 10
5376.419018083086
 20
516.7084667309864
 30
0.0
  0
SPLINE
  5
227EB
330
18
100
AcDbEntity
  8
姿図
100
AcDbSpline
210
0.0
220
0.0
230
1.0
 70
     8
 71
     3
 72
     8
 73
     4
 74
     0
 42
0.000000001
 43
0.0000000001
 40
0.0
 40
0.0
 40
0.0
 40
0.0
 40
1.0
 40
1.0
 40
1.0
 40
1.0
 10
5372.997993002058
 20
519.1910757230439
 30
0.0
 10
5374.074068577145
 20
518.649334457853
 30
0.0
 10
5374.872641710826
 20
518.0374854995198
 30
0.0
 10
5375.32291569086
 20
517.3803335355442
 30
0.0
  0
SPLINE
  5
227EC
330
18
100
AcDbEntity
  8
姿図
100
AcDbSpline
210
0.0
220
0.0
230
1.0
 70
     8
 71
     3
 72
    11
 73
     7
 74
     0
 42
0.000000001
 43
0.0000000001
 40
39.0
 40
39.0
 40
39.0
 40
39.0
 40
40.0
 40
40.0
 40
40.0
 40
41.0
 40
41.0
 40
41.0
 40
41.0
 10
5377.383082791554
 20
520.8404151870195
 30
0.0
 10
5377.43493147862
 20
520.2966068645374
 30
0.0
 10
5377.486780165686
 20
517.0334124200926
 30
0.0
 10
5377.486780165686
 20
516.8520281427491
 30
0.0
 10
5377.486780165686
 20
516.6708161201796
 30
0.0
 10
5377.357244575409
 20
516.23036066228
 30
0.0
 10
5377.201870768985
 20
516.0233104235649
 30
0.0
  0
SPLINE
  5
227ED
330
18
100
AcDbEntity
  8
姿図
100
AcDbSpline
210
0.0
220
0.0
230
1.0
 70
     8
 71
     3
 72
     8
 73
     4
 74
     0
 42
0.000000001
 43
0.0000000001
 40
0.0
 40
0.0
 40
0.0
 40
0.0
 40
1.0
 40
1.0
 40
1.0
 40
1.0
 10
5376.756419922631
 20
516.4548086332002
 30
0.0
 10
5376.756419922631
 20
518.8677535116726
 30
0.0
 10
5376.7579702156
 20
521.0958690173147
 30
0.0
 10
5376.337668566294
 20
521.0879452976969
 30
0.0
  0
SPLINE
  5
227EE
330
18
100
AcDbEntity
  8
姿図
100
AcDbSpline
210
0.0
220
0.0
230
1.0
 70
     8
 71
     3
 72
     8
 73
     4
 74
     0
 42
0.000000001
 43
0.0000000001
 40
44.0
 40
44.0
 40
44.0
 40
44.0
 40
44.97482086101027
 40
44.97482086101027
 40
44.97482086101027
 40
44.97482086101027
 10
5378.196642090599
 20
510.8591122898843
 30
0.0
 10
5378.196642090599
 20
510.8591122898843
 30
0.0
 10
5380.984071187992
 20
509.6084299531594
 30
0.0
 10
5380.963398275496
 20
506.9563358684431
 30
0.0
  0
LINE
  5
227EF
330
18
100
AcDbEntity
  8
姿図
100
AcDbLine
 10
5364.365186605574
 20
524.3101431058567
 30
0.0
 11
5365.864492161129
 21
523.9866486397104
 31
0.0
  0
LINE
  5
227F0
330
18
100
AcDbEntity
  8
姿図
100
AcDbLine
 10
5364.394556044593
 20
523.6633264283391
 30
0.0
 11
5365.893861600149
 21
523.3398319621933
 31
0.0
  0
LINE
  5
227F1
330
18
100
AcDbEntity
  8
姿図
100
AcDbLine
 10
5364.394556044593
 20
523.0459653172279
 30
0.0
 11
5365.893861600149
 21
522.7224708510821
 31
0.0
  0
LINE
  5
227F2
330
18
100
AcDbEntity
  8
姿図
100
AcDbLine
 10
5364.365186605574
 20
522.3991486397108
 30
0.0
 11
5365.864492161129
 21
522.075654173565
 31
0.0
  0
LINE
  5
227F3
330
18
100
AcDbEntity
  8
姿図
100
AcDbLine
 10
5364.394556044593
 20
521.8112430950059
 30
0.0
 11
5365.893861600149
 21
521.4877486288601
 31
0.0
  0
LINE
  5
227F4
330
18
100
AcDbEntity
  8
姿図
100
AcDbLine
 10
5364.424011611
 20
520.5177819947453
 30
0.0
 11
5365.923317166555
 21
520.1942875285995
 31
0.0
  0
LINE
  5
227F5
330
18
100
AcDbEntity
  8
姿図
100
AcDbLine
 10
5364.394556044593
 20
521.1938819838947
 30
0.0
 11
5365.893861600149
 21
520.8703875177489
 31
0.0
  0
LINE
  5
227F6
330
18
100
AcDbEntity
  8
姿図
100
AcDbLine
 10
5364.306361600149
 20
526.6913931058566
 30
0.0
 11
5365.805667155704
 21
526.3678986397108
 31
0.0
  0
LINE
  5
227F7
330
18
100
AcDbEntity
  8
姿図
100
AcDbLine
 10
5364.335731039168
 20
526.1033153063772
 30
0.0
 11
5365.835036594724
 21
525.7798208402314
 31
0.0
  0
LINE
  5
227F8
330
18
100
AcDbEntity
  8
姿図
100
AcDbLine
 10
5364.365186605574
 20
525.4566708836342
 30
0.0
 11
5365.864492161129
 21
525.1331764174884
 31
0.0
  0
LINE
  5
227F9
330
18
100
AcDbEntity
  8
姿図
100
AcDbLine
 10
5364.365186605574
 20
524.8980486505611
 30
0.0
 11
5365.864492161129
 21
524.5745541844153
 31
0.0
  0
LINE
  5
227FA
330
18
100
AcDbEntity
  8
姿図
100
AcDbLine
 10
5364.159342150279
 20
518.0777931167072
 30
0.0
 11
5365.893775472761
 21
517.8424930950059
 31
0.0
  0
LINE
  5
227FB
330
18
100
AcDbEntity
  8
姿図
100
AcDbLine
 10
5364.424011611
 20
519.3123430841551
 30
0.0
 11
5365.923317166555
 21
518.9888486180093
 31
0.0
  0
LINE
  5
227FC
330
18
100
AcDbEntity
  8
姿図
100
AcDbLine
 10
5364.424011611
 20
518.6362430950057
 30
0.0
 11
5365.923317166555
 21
518.3127486288599
 31
0.0
  0
LINE
  5
227FD
330
18
100
AcDbEntity
  8
姿図
100
AcDbLine
 10
5364.424011611
 20
519.9591597616723
 30
0.0
 11
5365.923317166555
 21
519.6356652955265
 31
0.0
  0
SPLINE
  5
227FE
330
18
100
AcDbEntity
  8
姿図
100
AcDbSpline
210
0.0
220
0.0
230
1.0
 70
     8
 71
     3
 72
     8
 73
     4
 74
     0
 42
0.000000001
 43
0.0000000001
 40
0.0
 40
0.0
 40
0.0
 40
0.0
 40
1.0
 40
1.0
 40
1.0
 40
1.0
 10
5361.013711589298
 20
521.8996097942245
 30
0.0
 10
5361.013711589298
 20
522.0782379951793
 30
0.0
 10
5360.842834853186
 20
522.2229320055962
 30
0.0
 10
5360.631564372501
 20
522.2229320055962
 30
0.0
  0
SPLINE
  5
227FF
330
18
100
AcDbEntity
  8
姿図
100
AcDbSpline
210
0.0
220
0.0
230
1.0
 70
     8
 71
     3
 72
     8
 73
     4
 74
     0
 42
0.000000001
 43
0.0000000001
 40
0.0
 40
0.0
 40
0.0
 40
0.0
 40
1.0
 40
1.0
 40
1.0
 40
1.0
 10
5360.910875489037
 20
522.1262970772109
 30
0.0
 10
5361.522207683048
 20
522.1094161093288
 30
0.0
 10
5362.124841010956
 20
522.0804773072455
 30
0.0
 10
5362.716966797631
 20
522.0399974352836
 30
0.0
  0
SPLINE
  5
22800
330
18
100
AcDbEntity
  8
姿図
100
AcDbSpline
210
0.0
220
0.0
230
1.0
 70
     8
 71
     3
 72
     8
 73
     4
 74
     0
 42
0.000000001
 43
0.0000000001
 40
0.0
 40
0.0
 40
0.0
 40
0.0
 40
1.0
 40
1.0
 40
1.0
 40
1.0
 10
5360.983911513343
 20
521.5511383858043
 30
0.0
 10
5361.534265517249
 20
521.5392528063776
 30
0.0
 10
5362.076954183698
 20
521.517720959589
 30
0.0
 10
5362.61051334711
 20
521.48654284544
 30
0.0
  0
LINE
  5
22801
330
18
100
AcDbEntity
  8
姿図
100
AcDbLine
 10
5362.042589356225
 20
520.2531986614122
 30
0.0
 11
5362.365997694984
 21
520.3119375394504
 31
0.0
  0
SPLINE
  5
22802
330
18
100
AcDbEntity
  8
姿図
100
AcDbSpline
210
0.0
220
0.0
230
1.0
 70
     8
 71
     3
 72
     8
 73
     4
 74
     0
 42
0.000000001
 43
0.0000000001
 40
0.0
 40
0.0
 40
0.0
 40
0.0
 40
1.0
 40
1.0
 40
1.0
 40
1.0
 10
5362.630581028317
 20
520.6059764391898
 30
0.0
 10
5362.630581028317
 20
520.4597321358046
 30
0.0
 10
5362.495963922197
 20
520.3119375394504
 30
0.0
 10
5362.365997694984
 20
520.3119375394504
 30
0.0
  0
LINE
  5
22803
330
18
100
AcDbEntity
  8
姿図
100
AcDbLine
 10
5362.647548123587
 20
522.054983600648
 30
0.0
 11
5362.630581028317
 21
520.6059764391898
 31
0.0
  0
LINE
  5
22804
330
18
100
AcDbEntity
  8
姿図
100
AcDbLine
 10
5360.896147705835
 20
516.8725264608911
 30
0.0
 11
5360.896147705835
 21
514.0795875503009
 31
0.0
  0
LINE
  5
22805
330
18
100
AcDbEntity
  8
姿図
100
AcDbLine
 10
5361.131275472761
 20
519.4889042278182
 30
0.0
 11
5360.837322700409
 21
516.8725264608911
 31
0.0
  0
LINE
  5
22806
330
18
100
AcDbEntity
  8
姿図
100
AcDbLine
 10
5361.660442139429
 20
519.8709653172282
 30
0.0
 11
5361.45468381152
 21
517.3427819947456
 31
0.0
  0
SPLINE
  5
22807
330
18
100
AcDbEntity
  8
姿図
100
AcDbSpline
210
0.0
220
0.0
230
1.0
 70
     8
 71
     3
 72
     8
 73
     4
 74
     0
 42
0.000000001
 43
0.0000000001
 40
0.0
 40
0.0
 40
0.0
 40
0.0
 40
1.0
 40
1.0
 40
1.0
 40
1.0
 10
5361.45468381152
 20
517.3427819947456
 30
0.0
 10
5361.45468381152
 20
517.1154056926621
 30
0.0
 10
5361.283807075409
 20
516.9312653389293
 30
0.0
 10
5361.072536594723
 20
516.9312653389293
 30
0.0
  0
LINE
  5
22808
330
18
100
AcDbEntity
  8
姿図
100
AcDbLine
 10
5361.072536594724
 20
516.9312653389293
 30
0.0
 11
5360.954886583872
 21
514.138326428339
 31
0.0
  0
CIRCLE
  5
22809
330
18
100
AcDbEntity
  8
姿図
100
AcDbCircle
 10
5359.091176053274
 20
515.0350847833738
 30
0.0
 40
0.7760938856336805
  0
SPLINE
  5
2280A
330
18
100
AcDbEntity
  8
姿図
100
AcDbSpline
210
0.0
220
0.0
230
1.0
 70
     8
 71
     3
 72
     8
 73
     4
 74
     0
 42
0.000000001
 43
0.0000000001
 40
0.0
 40
0.0
 40
0.0
 40
0.0
 40
1.0
 40
1.0
 40
1.0
 40
1.0
 10
5361.660442139428
 20
519.8709653172282
 30
0.0
 10
5361.660442139428
 20
520.0823219253011
 30
0.0
 10
5361.831318875539
 20
520.2531986614122
 30
0.0
 10
5362.042589356225
 20
520.2531986614122
 30
0.0
  0
LINE
  5
2280B
330
18
100
AcDbEntity
  8
姿図
100
AcDbLine
 10
5361.013711589298
 20
521.8996097942245
 30
0.0
 11
5361.131275472761
 21
519.4889042278182
 31
0.0
  0
LINE
  5
2280C
330
18
100
AcDbEntity
  8
姿図
100
AcDbLine
 10
5372.280551867076
 20
523.9206750611515
 30
0.0
 11
5370.825343533743
 21
524.2293556167074
 31
0.0
  0
LINE
  5
2280D
330
18
100
AcDbEntity
  8
姿図
100
AcDbLine
 10
5366.001004069767
 20
521.6946266128011
 30
0.0
 11
5366.010564209741
 21
521.1583975003878
 31
0.0
  0
LINE
  5
2280E
330
18
100
AcDbEntity
  8
姿図
100
AcDbLine
 10
5372.324649089298
 20
521.4953278389294
 30
0.0
 11
5370.869440755965
 21
521.8040083944848
 31
0.0
  0
LINE
  5
2280F
330
18
100
AcDbEntity
  8
姿図
100
AcDbLine
 10
5372.324649089298
 20
522.1567861722629
 30
0.0
 11
5370.869440755965
 21
522.4654667278182
 31
0.0
  0
LINE
  5
22810
330
18
100
AcDbEntity
  8
姿図
100
AcDbLine
 10
5372.36874631152
 20
522.7741472833736
 30
0.0
 11
5370.913537978186
 21
523.0828278389295
 31
0.0
  0
LINE
  5
22811
330
18
100
AcDbEntity
  8
姿図
100
AcDbLine
 10
5372.36874631152
 20
523.3033139500403
 30
0.0
 11
5370.913537978186
 21
523.6119945055962
 31
0.0
  0
LINE
  5
22812
330
18
100
AcDbEntity
  8
姿図
100
AcDbLine
 10
5372.324649089298
 20
520.2606056167074
 30
0.0
 11
5370.869440755965
 21
520.5692861722628
 31
0.0
  0
LINE
  5
22813
330
18
100
AcDbEntity
  8
姿図
100
AcDbLine
 10
5372.324649089298
 20
520.8779667278181
 30
0.0
 11
5370.869440755965
 21
521.186647283374
 31
0.0
  0
SPLINE
  5
22814
330
18
100
AcDbEntity
  8
姿図
100
AcDbSpline
210
0.0
220
0.0
230
1.0
 70
     8
 71
     3
 72
     8
 73
     4
 74
     0
 42
0.000000001
 43
0.0000000001
 40
0.0
 40
0.0
 40
0.0
 40
0.0
 40
1.0
 40
1.0
 40
1.0
 40
1.0
 10
5365.910225803707
 20
521.6994497464816
 30
0.0
 10
5367.551469293291
 20
521.4579485529052
 30
0.0
 10
5369.067483561954
 20
521.125152328947
 30
0.0
 10
5370.409520508569
 20
520.7198368450058
 30
0.0
  0
SPLINE
  5
22815
330
18
100
AcDbEntity
  8
姿図
100
AcDbSpline
210
0.0
220
0.0
230
1.0
 70
     8
 71
     3
 72
     8
 73
     4
 74
     0
 42
0.000000001
 43
0.0000000001
 40
0.0
 40
0.0
 40
0.0
 40
0.0
 40
1.0
 40
1.0
 40
1.0
 40
1.0
 10
5366.009444553708
 20
521.1496125068984
 30
0.0
 10
5367.627605903534
 20
520.9181020902315
 30
0.0
 10
5369.110375000756
 20
520.5959856622803
 30
0.0
 10
5370.404525120113
 20
520.2020389934432
 30
0.0
  0
LINE
  5
22816
330
18
100
AcDbEntity
  8
姿図
100
AcDbLine
 10
5372.280551867076
 20
524.4939389500405
 30
0.0
 11
5370.825343533743
 21
524.8026195055959
 31
0.0
  0
LINE
  5
22817
330
18
100
AcDbEntity
  8
姿図
100
AcDbLine
 10
5372.280551867076
 20
525.0672028389295
 30
0.0
 11
5370.825343533743
 21
525.3758833944848
 31
0.0
  0
LINE
  5
22818
330
18
100
AcDbEntity
  8
姿図
100
AcDbLine
 10
5372.280551867076
 20
525.728661172263
 30
0.0
 11
5370.825343533743
 21
526.0373417278183
 31
0.0
  0
LINE
  5
22819
330
18
100
AcDbEntity
  8
姿図
100
AcDbLine
 10
5372.324649089298
 20
526.2578278389292
 30
0.0
 11
5370.869440755965
 21
526.566508394485
 31
0.0
  0
SPLINE
  5
2281A
330
18
100
AcDbEntity
  8
姿図
100
AcDbSpline
210
0.0
220
0.0
230
1.0
 70
     8
 71
     3
 72
     8
 73
     4
 74
     0
 42
0.000000001
 43
0.0000000001
 40
0.0
 40
0.0
 40
0.0
 40
0.0
 40
1.0
 40
1.0
 40
1.0
 40
1.0
 10
5370.330972331485
 20
526.003235282506
 30
0.0
 10
5370.330972331485
 20
525.5806943211342
 30
0.0
 10
5369.07730208409
 20
524.648623737367
 30
0.0
 10
5367.921472548499
 20
525.4585656861518
 30
0.0
  0
LINE
  5
2281B
330
18
100
AcDbEntity
  8
姿図
100
AcDbLine
 10
5367.95712928678
 20
524.8923642430091
 30
0.0
 11
5365.879995090817
 21
526.3418881687903
 31
0.0
  0
SPLINE
  5
2281C
330
18
100
AcDbEntity
  8
姿図
100
AcDbSpline
210
0.0
220
0.0
230
1.0
 70
     8
 71
     3
 72
     8
 73
     4
 74
     0
 42
0.000000001
 43
0.0000000001
 40
0.0
 40
0.0
 40
0.0
 40
0.0
 40
1.0
 40
1.0
 40
1.0
 40
1.0
 10
5367.85610186165
 20
524.9559262547282
 30
0.0
 10
5369.012017524627
 20
524.1459843059433
 30
0.0
 10
5370.347681044593
 20
525.0709924439643
 30
0.0
 10
5370.347681044593
 20
525.4935334053357
 30
0.0
  0
LINE
  5
2281D
330
18
100
AcDbEntity
  8
姿図
100
AcDbLine
 10
5365.923231039168
 20
517.8719486614123
 30
0.0
 11
5365.981969917206
 21
515.2261153280788
 31
0.0
  0
SPLINE
  5
2281E
330
18
100
AcDbEntity
  8
姿図
100
AcDbSpline
210
0.0
220
0.0
230
1.0
 70
     8
 71
     3
 72
     8
 73
     4
 74
     0
 42
0.000000001
 43
0.0000000001
 40
0.0
 40
0.0
 40
0.0
 40
0.0
 40
1.0
 40
1.0
 40
1.0
 40
1.0
 10
5366.011425483612
 20
515.2555708944851
 30
0.0
 10
5366.011425483612
 20
515.0118303888426
 30
0.0
 10
5366.12976451356
 20
514.814598672263
 30
0.0
 10
5366.276008816945
 20
514.814598672263
 30
0.0
  0
SPLINE
  5
2281F
330
18
100
AcDbEntity
  8
姿図
100
AcDbSpline
210
0.0
220
0.0
230
1.0
 70
     8
 71
     3
 72
     8
 73
     4
 74
     0
 42
0.000000001
 43
0.0000000001
 40
0.0
 40
0.0
 40
0.0
 40
0.0
 40
1.0
 40
1.0
 40
1.0
 40
1.0
 10
5366.276008816945
 20
514.814598672263
 30
0.0
 10
5366.775719917206
 20
514.6969486614121
 30
0.0
 10
5369.333444933482
 20
514.520559772523
 30
0.0
 10
5370.538711589298
 20
514.0795875503009
 30
0.0
  0
SPLINE
  5
22820
330
18
100
AcDbEntity
  8
姿図
100
AcDbSpline
210
0.0
220
0.0
230
1.0
 70
     8
 71
     3
 72
     8
 73
     4
 74
     0
 42
0.000000001
 43
0.0000000001
 40
0.0
 40
0.0
 40
0.0
 40
0.0
 40
1.0
 40
1.0
 40
1.0
 40
1.0
 10
5370.950228245114
 20
514.3147153172281
 30
0.0
 10
5370.950228245114
 20
514.2010271661866
 30
0.0
 10
5370.799333062821
 20
514.0075850546414
 30
0.0
 10
5370.450517144853
 20
514.1090431167072
 30
0.0
  0
LINE
  5
22821
330
18
100
AcDbEntity
  8
姿図
100
AcDbLine
 10
5372.456940755965
 20
516.6887306167073
 30
0.0
 11
5371.001732422631
 21
516.9974111722627
 31
0.0
  0
LINE
  5
22822
330
18
100
AcDbEntity
  8
姿図
100
AcDbLine
 10
5372.456940755965
 20
517.2619945055962
 30
0.0
 11
5371.001732422631
 21
517.5706750611516
 31
0.0
  0
LINE
  5
22823
330
18
100
AcDbEntity
  8
姿図
100
AcDbLine
 10
5372.412843533742
 20
517.879355616707
 30
0.0
 11
5370.957635200409
 21
518.1880361722629
 31
0.0
  0
LINE
  5
22824
330
18
100
AcDbEntity
  8
姿図
100
AcDbLine
 10
5372.412843533742
 20
518.4967167278182
 30
0.0
 11
5370.957635200409
 21
518.8053972833736
 31
0.0
  0
LINE
  5
22825
330
18
100
AcDbEntity
  8
姿図
100
AcDbLine
 10
5372.36874631152
 20
519.0699806167072
 30
0.0
 11
5370.913537978186
 21
519.3786611722626
 31
0.0
  0
LINE
  5
22826
330
18
100
AcDbEntity
  8
姿図
100
AcDbLine
 10
5372.324649089298
 20
519.6432445055962
 30
0.0
 11
5370.869440755965
 21
519.9519250611515
 31
0.0
  0
LINE
  5
22827
330
18
100
AcDbEntity
  8
姿図
100
AcDbLine
 10
5366.010564209741
 20
521.1583975003878
 30
0.0
 11
5366.07016436165
 21
517.8132097833736
 31
0.0
  0
LINE
  5
22828
330
18
100
AcDbEntity
  8
姿図
100
AcDbLine
 10
5357.456564372501
 20
521.8701542278181
 30
0.0
 11
5357.472411811737
 21
521.5039405776447
 31
0.0
  0
SPLINE
  5
22829
330
18
100
AcDbEntity
  8
姿図
100
AcDbSpline
210
0.0
220
0.0
230
1.0
 70
     8
 71
     3
 72
     8
 73
     4
 74
     0
 42
0.000000001
 43
0.0000000001
 40
0.0
 40
0.0
 40
0.0
 40
0.0
 40
1.0
 40
1.0
 40
1.0
 40
1.0
 10
5357.456564372501
 20
521.8701542278181
 30
0.0
 10
5357.456564372501
 20
522.0487824287734
 30
0.0
 10
5357.614349745765
 20
522.1934764391899
 30
0.0
 10
5357.809342150278
 20
522.1934764391899
 30
0.0
  0
LINE
  5
2282A
330
18
100
AcDbEntity
  8
姿図
100
AcDbLine
 10
5357.544758816945
 20
519.9004208836341
 30
0.0
 11
5357.250719917206
 21
516.9312653389293
 31
0.0
  0
LINE
  5
2282B
330
18
100
AcDbEntity
  8
姿図
100
AcDbLine
 10
5357.472411811737
 20
521.5039405776447
 30
0.0
 11
5357.544758816945
 21
519.8416820055959
 31
0.0
  0
LINE
  5
2282C
330
18
100
AcDbEntity
  8
姿図
100
AcDbLine
 10
5357.809342150279
 20
522.1934764391899
 30
0.0
 11
5360.631564372501
 21
522.2229320055962
 31
0.0
  0
LINE
  5
2282D
330
18
100
AcDbEntity
  8
姿図
100
AcDbLine
 10
5357.63295326139
 20
519.8416820055959
 30
0.0
 11
5361.013711589298
 21
519.8709653172282
 31
0.0
  0
LINE
  5
2282E
330
18
100
AcDbEntity
  8
姿図
100
AcDbLine
 10
5357.309544922631
 20
516.9018097725229
 30
0.0
 11
5360.837322700409
 21
516.8725264608911
 31
0.0
  0
SPLINE
  5
22855
330
18
100
AcDbEntity
  8
姿図
100
AcDbSpline
210
0.0
220
0.0
230
1.0
 70
     8
 71
     3
 72
     8
 73
     4
 74
     0
 42
0.000000001
 43
0.0000000001
 40
0.0
 40
0.0
 40
0.0
 40
0.0
 40
1.0
 40
1.0
 40
1.0
 40
1.0
 10
5352.061975478186
 20
531.3290083944848
 30
0.0
 10
5355.986628255965
 20
531.769980616707
 30
0.0
 10
5360.396350478187
 20
529.785605616707
 30
0.0
 10
5362.601211589297
 20
528.4185917278182
 30
0.0
  0
SPLINE
  5
22856
330
18
100
AcDbEntity
  8
姿図
100
AcDbSpline
210
0.0
220
0.0
230
1.0
 70
     8
 71
     3
 72
     8
 73
     4
 74
     0
 42
0.000000001
 43
0.0000000001
 40
0.0
 40
0.0
 40
0.0
 40
0.0
 40
1.0
 40
1.0
 40
1.0
 40
1.0
 10
5362.689406033743
 20
529.0580014500406
 30
0.0
 10
5362.584244494029
 20
529.0580014500406
 30
0.0
 10
5353.000074979055
 20
534.8852943374104
 30
0.0
 10
5347.9315643725
 20
530.0574236505613
 30
0.0
  0
SPLINE
  5
22857
330
18
100
AcDbEntity
  8
姿図
100
AcDbSpline
210
0.0
220
0.0
230
1.0
 70
     8
 71
     3
 72
     8
 73
     4
 74
     0
 42
0.000000001
 43
0.0000000001
 40
7.0
 40
7.0
 40
7.0
 40
7.0
 40
8.0
 40
8.0
 40
8.0
 40
8.0
 10
5355.782075711476
 20
539.728065062237
 30
0.0
 10
5358.25307044889
 20
542.8538863241724
 30
0.0
 10
5360.641210639862
 20
546.1182004246498
 30
0.0
 10
5362.391835911129
 20
546.2397261679225
 30
0.0
  0
SPLINE
  5
22858
330
18
100
AcDbEntity
  8
姿図
100
AcDbSpline
210
0.0
220
0.0
230
1.0
 70
     8
 71
     3
 72
     8
 73
     4
 74
     0
 42
0.000000001
 43
0.0000000001
 40
6.0
 40
6.0
 40
6.0
 40
6.0
 40
7.0
 40
7.0
 40
7.0
 40
7.0
 10
5349.75927365527
 20
532.3718387981307
 30
0.0
 10
5351.263057834957
 20
534.3147003975232
 30
0.0
 10
5353.515891900713
 20
536.8614011082436
 30
0.0
 10
5355.782075711476
 20
539.728065062237
 30
0.0
  0
SPLINE
  5
22859
330
18
100
AcDbEntity
  8
姿図
100
AcDbSpline
210
0.0
220
0.0
230
1.0
 70
     8
 71
     3
 72
     8
 73
     4
 74
     0
 42
0.000000001
 43
0.0000000001
 40
5.0
 40
5.0
 40
5.0
 40
5.0
 40
6.0
 40
6.0
 40
6.0
 40
6.0
 10
5347.202754422414
 20
529.0054637438775
 30
0.0
 10
5348.077033529402
 20
530.555584457853
 30
0.0
 10
5349.345431560001
 20
531.9060618884087
 30
0.0
 10
5349.75927365527
 20
532.3718387981307
 30
0.0
  0
SPLINE
  5
2285A
330
18
100
AcDbEntity
  8
姿図
100
AcDbSpline
210
0.0
220
0.0
230
1.0
 70
     8
 71
     3
 72
     8
 73
     4
 74
     0
 42
0.000000001
 43
0.0000000001
 40
27.0
 40
27.0
 40
27.0
 40
27.0
 40
28.0
 40
28.0
 40
28.0
 40
28.0
 10
5391.671099555878
 20
556.2975101848497
 30
0.0
 10
5391.52795583843
 20
555.9876238458737
 30
0.0
 10
5391.31435991829
 20
555.7035757230442
 30
0.0
 10
5391.31435991829
 20
555.7035757230442
 30
0.0
  0
LINE
  5
2285B
330
18
100
AcDbEntity
  8
姿図
100
AcDbLine
 10
5387.537501736868
 20
557.3723799765162
 30
0.0
 11
5386.465348147991
 21
555.8109213940584
 31
0.0
  0
LINE
  5
2285C
330
18
100
AcDbEntity
  8
姿図
100
AcDbLine
 10
5387.060528266816
 20
555.3694014608914
 30
0.0
 11
5386.149128255965
 21
556.0455014500403
 31
0.0
  0
SPLINE
  5
2285D
330
18
100
AcDbEntity
  8
姿図
100
AcDbSpline
210
0.0
220
0.0
230
1.0
 70
     8
 71
     3
 72
     8
 73
     4
 74
     0
 42
0.000000001
 43
0.0000000001
 40
0.0
 40
0.0
 40
0.0
 40
0.0
 40
1.0
 40
1.0
 40
1.0
 40
1.0
 10
5378.607814236867
 20
557.4826230320718
 30
0.0
 10
5377.439237847978
 20
556.931407754294
 30
0.0
 10
5376.028126736867
 20
555.4100535876273
 30
0.0
 10
5375.388717014645
 20
554.7926924765161
 30
0.0
  0
SPLINE
  5
2285E
330
18
100
AcDbEntity
  8
姿図
100
AcDbSpline
210
0.0
220
0.0
230
1.0
 70
     8
 71
     3
 72
     8
 73
     4
 74
     0
 42
0.000000001
 43
0.0000000001
 40
0.0
 40
0.0
 40
0.0
 40
0.0
 40
1.0
 40
1.0
 40
1.0
 40
1.0
 10
5390.822744792423
 20
554.6163035876275
 30
0.0
 10
5391.881078125756
 20
556.0274146987385
 30
0.0
 10
5389.213196181311
 20
559.2906091431828
 30
0.0
 10
5387.537501736867
 20
557.3723799765162
 30
0.0
  0
LINE
  5
2285F
330
18
100
AcDbEntity
  8
姿図
100
AcDbLine
 10
5385.355378255965
 20
555.8691125611517
 30
0.0
 11
5381.651211589298
 21
550.0189097887992
 31
0.0
  0
LINE
  5
22860
330
18
100
AcDbEntity
  8
姿図
100
AcDbLine
 10
5385.144021647891
 20
556.0786604940945
 30
0.0
 11
5380.993198351451
 21
549.6069624960473
 31
0.0
  0
ELLIPSE
  5
22861
330
18
100
AcDbEntity
  8
姿図
100
AcDbEllipse
 10
5384.164064236867
 20
548.379302719572
 30
0.0
 11
-1.128268771701389
 21
0.946798366970486
 31
0.0
210
0.0
220
0.0
230
1.0
 40
0.7417511887598579
 41
0.0
 42
6.283185307179586
  0
SPLINE
  5
22862
330
18
100
AcDbEntity
  8
姿図
100
AcDbSpline
210
0.0
220
0.0
230
1.0
 70
     8
 71
     3
 72
     8
 73
     4
 74
     0
 42
0.000000001
 43
0.0000000001
 40
0.0
 40
0.0
 40
0.0
 40
0.0
 40
1.0
 40
1.0
 40
1.0
 40
1.0
 10
5383.811975478186
 20
545.7102149917073
 30
0.0
 10
5383.110037272892
 20
545.9472375611517
 30
0.0
 10
5382.698520617076
 20
545.4015344361515
 30
0.0
 10
5382.533156033743
 20
545.1241181221326
 30
0.0
  0
SPLINE
  5
22863
330
18
100
AcDbEntity
  8
姿図
100
AcDbSpline
210
0.0
220
0.0
230
1.0
 70
     8
 71
     3
 72
     8
 73
     4
 74
     0
 42
0.000000001
 43
0.0000000001
 40
0.0
 40
0.0
 40
0.0
 40
0.0
 40
1.0
 40
1.0
 40
1.0
 40
1.0
 10
5383.619323824272
 20
545.3041370714823
 30
0.0
 10
5382.911599772891
 20
545.5062653389296
 30
0.0
 10
5382.500083117076
 20
544.9605622139293
 30
0.0
 10
5382.284850444076
 20
544.7349601146857
 30
0.0
  0
LINE
  5
22864
330
18
100
AcDbEntity
  8
姿図
100
AcDbLine
 10
5382.353278790984
 20
541.6515114583185
 30
0.0
 11
5384.004620874529
 21
545.1861226753499
 31
0.0
  0
SPLINE
  5
22865
330
18
100
AcDbEntity
  8
姿図
100
AcDbSpline
210
0.0
220
0.0
230
1.0
 70
     8
 71
     3
 72
     8
 73
     4
 74
     0
 42
0.000000001
 43
0.0000000001
 40
0.0
 40
0.0
 40
0.0
 40
0.0
 40
1.0
 40
1.0
 40
1.0
 40
1.0
 10
5383.304168403534
 20
552.9332883152751
 30
0.0
 10
5382.42222395909
 20
553.535921643183
 30
0.0
 10
5379.996876736867
 20
554.9249841431829
 30
0.0
 10
5376.483740614905
 20
554.755916082202
 30
0.0
  0
SPLINE
  5
22866
330
18
100
AcDbEntity
  8
姿図
100
AcDbSpline
210
0.0
220
0.0
230
1.0
 70
     8
 71
     3
 72
     8
 73
     4
 74
     0
 42
0.000000001
 43
0.0000000001
 40
0.0
 40
0.0
 40
0.0
 40
0.0
 40
1.0
 40
1.0
 40
1.0
 40
1.0
 10
5380.23941145909
 20
551.9484216431829
 30
0.0
 10
5378.321182292422
 20
550.0081438654051
 30
0.0
 10
5376.910071181312
 20
547.759185532072
 30
0.0
 10
5376.557293403534
 20
547.0756785876274
 30
0.0
  0
SPLINE
  5
22867
330
18
100
AcDbEntity
  8
姿図
100
AcDbSpline
210
0.0
220
0.0
230
1.0
 70
     8
 71
     3
 72
     8
 73
     4
 74
     0
 42
0.000000001
 43
0.0000000001
 40
0.0
 40
0.0
 40
0.0
 40
0.0
 40
1.0
 40
1.0
 40
1.0
 40
1.0
 10
5376.976217014645
 20
546.9433869209606
 30
0.0
 10
5378.277085070201
 20
548.8616160876272
 30
0.0
 10
5378.696008681311
 20
549.3907827542939
 30
0.0
 10
5379.755375543291
 20
550.7577966431832
 30
0.0
  0
LINE
  5
22868
330
18
100
AcDbEntity
  8
姿図
100
AcDbLine
 10
5376.183156033742
 20
543.6541820055959
 30
0.0
 11
5379.710933811521
 21
549.0340431167074
 31
0.0
  0
SPLINE
  5
22869
330
18
100
AcDbEntity
  8
姿図
100
AcDbSpline
210
0.0
220
0.0
230
1.0
 70
     8
 71
     3
 72
     8
 73
     4
 74
     0
 42
0.000000001
 43
0.0000000001
 40
1.0
 40
1.0
 40
1.0
 40
1.0
 40
2.0
 40
2.0
 40
2.0
 40
2.0
 10
5379.755375543291
 20
550.7577966431832
 30
0.0
 10
5380.327605903533
 20
551.6397410876275
 30
0.0
 10
5381.011112847978
 20
552.6760258098498
 30
0.0
 10
5382.664758681311
 20
553.2713383098494
 30
0.0
  0
SPLINE
  5
2286A
330
18
100
AcDbEntity
  8
姿図
100
AcDbSpline
210
0.0
220
0.0
230
1.0
 70
     8
 71
     3
 72
     8
 73
     4
 74
     0
 42
0.000000001
 43
0.0000000001
 40
0.0
 40
0.0
 40
0.0
 40
0.0
 40
1.0
 40
1.0
 40
1.0
 40
1.0
 10
5381.651211589297
 20
550.0189097887992
 30
0.0
 10
5381.563017144853
 20
549.7249570164468
 30
0.0
 10
5381.004567166555
 20
549.4897431221325
 30
0.0
 10
5380.681072700409
 20
549.577937566577
 30
0.0
  0
SPLINE
  5
2286B
330
18
100
AcDbEntity
  8
姿図
100
AcDbSpline
210
0.0
220
0.0
230
1.0
 70
     8
 71
     3
 72
     8
 73
     4
 74
     0
 42
0.000000001
 43
0.0000000001
 40
0.0
 40
0.0
 40
0.0
 40
0.0
 40
1.0
 40
1.0
 40
1.0
 40
1.0
 10
5379.71093381152
 20
549.0781403389296
 30
0.0
 10
5379.975517144853
 20
549.4309181167073
 30
0.0
 10
5380.144843587996
 20
549.577937566577
 30
0.0
 10
5380.681072700409
 20
549.577937566577
 30
0.0
  0
SPLINE
  5
2286C
330
18
100
AcDbEntity
  8
姿図
100
AcDbSpline
210
0.0
220
0.0
230
1.0
 70
     8
 71
     3
 72
     8
 73
     4
 74
     0
 42
0.000000001
 43
0.0000000001
 40
0.0
 40
0.0
 40
0.0
 40
0.0
 40
1.0
 40
1.0
 40
1.0
 40
1.0
 10
5382.554515625756
 20
553.3374841431828
 30
0.0
 10
5381.275696181312
 20
553.1390466431831
 30
0.0
 10
5380.812675347978
 20
552.4775883098496
 30
0.0
 10
5380.23941145909
 20
551.9484216431829
 30
0.0
  0
SPLINE
  5
2286D
330
18
100
AcDbEntity
  8
姿図
100
AcDbSpline
210
0.0
220
0.0
230
1.0
 70
     8
 71
     3
 72
     8
 73
     4
 74
     0
 42
0.000000001
 43
0.0000000001
 40
0.0
 40
0.0
 40
0.0
 40
0.0
 40
1.0
 40
1.0
 40
1.0
 40
1.0
 10
5373.227953125755
 20
548.574984143183
 30
0.0
 10
5374.396529514644
 20
550.2065813654053
 30
0.0
 10
5375.146182292423
 20
551.0003313654051
 30
0.0
 10
5376.006078125756
 20
551.8822758098495
 30
0.0
  0
SPLINE
  5
2286E
330
18
100
AcDbEntity
  8
姿図
100
AcDbSpline
210
0.0
220
0.0
230
1.0
 70
     8
 71
     3
 72
     8
 73
     4
 74
     0
 42
0.000000001
 43
0.0000000001
 40
0.0
 40
0.0
 40
0.0
 40
0.0
 40
1.0
 40
1.0
 40
1.0
 40
1.0
 10
5380.481946181311
 20
554.1091855320719
 30
0.0
 10
5379.577953125756
 20
553.9107480320718
 30
0.0
 10
5376.865973959089
 20
552.7642202542938
 30
0.0
 10
5376.006078125756
 20
551.8822758098495
 30
0.0
  0
SPLINE
  5
2286F
330
18
100
AcDbEntity
  8
姿図
100
AcDbSpline
210
0.0
220
0.0
230
1.0
 70
     8
 71
     3
 72
     8
 73
     4
 74
     0
 42
0.000000001
 43
0.0000000001
 40
0.0
 40
0.0
 40
0.0
 40
0.0
 40
1.0
 40
1.0
 40
1.0
 40
1.0
 10
5380.349654514645
 20
554.2635258098494
 30
0.0
 10
5377.6817725702
 20
553.6461646987386
 30
0.0
 10
5376.380904514645
 20
552.5657827542941
 30
0.0
 10
5375.521008681311
 20
552.0366160876274
 30
0.0
  0
SPLINE
  5
22870
330
18
100
AcDbEntity
  8
姿図
100
AcDbSpline
210
0.0
220
0.0
230
1.0
 70
     8
 71
     3
 72
     8
 73
     4
 74
     0
 42
0.000000001
 43
0.0000000001
 40
0.134000468148693
 40
0.134000468148693
 40
0.134000468148693
 40
0.134000468148693
 40
1.0
 40
1.0
 40
1.0
 40
1.0
 10
5382.353278790984
 20
541.651511458319
 30
0.0
 10
5382.255898783281
 20
541.4990813595091
 30
0.0
 10
5382.206902844398
 20
541.3285875212391
 30
0.0
 10
5382.289932292422
 20
541.2658695598498
 30
0.0
  0
LINE
  5
22871
330
18
100
AcDbEntity
  8
姿図
100
AcDbLine
 10
5391.329862847979
 20
555.7407827542938
 30
0.0
 11
5391.065279514645
 21
555.3880049765162
 31
0.0
  0
LINE
  5
22872
330
18
100
AcDbEntity
  8
姿図
100
AcDbLine
 10
5386.884139377927
 20
555.0753625611515
 30
0.0
 11
5387.031072700409
 21
555.3105764554657
 31
0.0
  0
SPLINE
  5
22873
330
18
100
AcDbEntity
  8
姿図
100
AcDbSpline
210
0.0
220
0.0
230
1.0
 70
     8
 71
     3
 72
     8
 73
     4
 74
     0
 42
0.000000001
 43
0.0000000001
 40
32.0
 40
32.0
 40
32.0
 40
32.0
 40
33.0
 40
33.0
 40
33.0
 40
33.0
 10
5392.864308377492
 20
552.6519101414469
 30
0.0
 10
5392.864308377492
 20
552.6519101414469
 30
0.0
 10
5393.845816081485
 20
552.2206703139727
 30
0.0
 10
5393.750559191294
 20
551.7200118124538
 30
0.0
  0
SPLINE
  5
22874
330
18
100
AcDbEntity
  8
姿図
100
AcDbSpline
210
0.0
220
0.0
230
1.0
 70
    24
 71
     3
 72
     8
 73
     4
 74
     0
 42
0.000000001
 43
0.0000000001
 40
31.0
 40
31.0
 40
31.0
 40
31.0
 40
32.0
 40
32.0
 40
32.0
 40
32.0
 10
5392.268134603621
 20
553.3671119643636
 30
0.0
 10
5392.268134603621
 20
553.3671119643636
 30
0.0
 10
5392.864308377492
 20
552.6519101414469
 30
0.0
 10
5392.864308377492
 20
552.6519101414469
 30
0.0
  0
SPLINE
  5
22875
330
18
100
AcDbEntity
  8
姿図
100
AcDbSpline
210
0.0
220
0.0
230
1.0
 70
     8
 71
     3
 72
     8
 73
     4
 74
     0
 42
0.000000001
 43
0.0000000001
 40
30.0
 40
30.0
 40
30.0
 40
30.0
 40
31.0
 40
31.0
 40
31.0
 40
31.0
 10
5392.69739350119
 20
553.9631134834608
 30
0.0
 10
5392.554249783742
 20
553.7485701620631
 30
0.0
 10
5392.268134603621
 20
553.3671119643636
 30
0.0
 10
5392.268134603621
 20
553.3671119643636
 30
0.0
  0
SPLINE
  5
22876
330
18
100
AcDbEntity
  8
姿図
100
AcDbSpline
210
0.0
220
0.0
230
1.0
 70
     8
 71
     3
 72
     8
 73
     4
 74
     0
 42
0.000000001
 43
0.0000000001
 40
0.0
 40
0.0
 40
0.0
 40
0.0
 40
1.0
 40
1.0
 40
1.0
 40
1.0
 10
5392.829168403534
 20
552.6539771987386
 30
0.0
 10
5392.630730903534
 20
552.7642202542938
 30
0.0
 10
5392.189758681312
 20
553.0067549765163
 30
0.0
 10
5391.770835070201
 20
553.0508521987385
 30
0.0
  0
SPLINE
  5
22877
330
18
100
AcDbEntity
  8
姿図
100
AcDbSpline
210
0.0
220
0.0
230
1.0
 70
     8
 71
     3
 72
     8
 73
     4
 74
     0
 42
0.000000001
 43
0.0000000001
 40
0.0
 40
0.0
 40
0.0
 40
0.0
 40
1.0
 40
1.0
 40
1.0
 40
1.0
 10
5391.770835070201
 20
553.0508521987385
 30
0.0
 10
5391.506251736867
 20
553.8446021987384
 30
0.0
 10
5391.1755225702
 20
554.0430396987385
 30
0.0
 10
5390.734550347978
 20
554.4399146987384
 30
0.0
  0
LINE
  5
22878
330
18
100
AcDbEntity
  8
姿図
100
AcDbLine
 10
5386.560817166555
 20
546.079529227818
 30
0.0
 11
5390.147333822371
 21
551.8416236831135
 31
0.0
  0
SPLINE
  5
22879
330
18
100
AcDbEntity
  8
姿図
100
AcDbSpline
210
0.0
220
0.0
230
1.0
 70
     8
 71
     3
 72
     8
 73
     4
 74
     0
 42
0.000000001
 43
0.0000000001
 40
0.0
 40
0.0
 40
0.0
 40
0.0
 40
1.0
 40
1.0
 40
1.0
 40
1.0
 10
5388.772223959089
 20
546.7890466431832
 30
0.0
 10
5388.772223959089
 20
547.6827905396672
 30
0.0
 10
5388.419446181311
 20
548.1340119209608
 30
0.0
 10
5388.007929525495
 20
548.4060022095891
 30
0.0
  0
SPLINE
  5
2287A
330
18
100
AcDbEntity
  8
姿図
100
AcDbSpline
210
0.0
220
0.0
230
1.0
 70
     8
 71
     3
 72
     8
 73
     4
 74
     0
 42
0.000000001
 43
0.0000000001
 40
0.0
 40
0.0
 40
0.0
 40
0.0
 40
1.0
 40
1.0
 40
1.0
 40
1.0
 10
5387.824133681312
 20
547.9135258098495
 30
0.0
 10
5388.088717014645
 20
547.428456365405
 30
0.0
 10
5387.669793403534
 20
545.8630049765161
 30
0.0
 10
5387.625696181311
 20
545.6645674765164
 30
0.0
  0
SPLINE
  5
2287B
330
18
100
AcDbEntity
  8
姿図
100
AcDbSpline
210
0.0
220
0.0
230
1.0
 70
     8
 71
     3
 72
     8
 73
     4
 74
     0
 42
0.000000001
 43
0.0000000001
 40
0.0
 40
0.0
 40
0.0
 40
0.0
 40
1.0
 40
1.0
 40
1.0
 40
1.0
 10
5387.824133681312
 20
547.9135258098495
 30
0.0
 10
5387.824133681312
 20
547.0536299765163
 30
0.0
 10
5387.449307292423
 20
546.2598799765165
 30
0.0
 10
5387.162675347979
 20
545.5543244209607
 30
0.0
  0
SPLINE
  5
2287C
330
18
100
AcDbEntity
  8
姿図
100
AcDbSpline
210
0.0
220
0.0
230
1.0
 70
     8
 71
     3
 72
     8
 73
     4
 74
     0
 42
0.000000001
 43
0.0000000001
 40
0.0
 40
0.0
 40
0.0
 40
0.0
 40
1.0
 40
1.0
 40
1.0
 40
1.0
 10
5386.560817166554
 20
546.0795292278185
 30
0.0
 10
5386.031650499888
 20
544.9036320110213
 30
0.0
 10
5384.348893609696
 20
545.3373695327227
 30
0.0
 10
5383.811975478186
 20
545.7102149917073
 30
0.0
  0
SPLINE
  5
2287D
330
18
100
AcDbEntity
  8
姿図
100
AcDbSpline
210
0.0
220
0.0
230
1.0
 70
     8
 71
     3
 72
     8
 73
     4
 74
     0
 42
0.000000001
 43
0.0000000001
 40
0.0
 40
0.0
 40
0.0
 40
0.0
 40
0.8940086046754551
 40
0.8940086046754551
 40
0.8940086046754551
 40
0.8940086046754551
 10
5386.298037107068
 20
545.695925633011
 30
0.0
 10
5385.767906401272
 20
544.816594370925
 30
0.0
 10
5384.477874950214
 20
545.0023221039992
 30
0.0
 10
5383.619323824272
 20
545.3041370714823
 30
0.0
  0
SPLINE
  5
2287E
330
18
100
AcDbEntity
  8
姿図
100
AcDbSpline
210
0.0
220
0.0
230
1.0
 70
     8
 71
     3
 72
     8
 73
     4
 74
     0
 42
0.000000001
 43
0.0000000001
 40
1.0
 40
1.0
 40
1.0
 40
1.0
 40
2.0
 40
2.0
 40
2.0
 40
2.0
 10
5386.762480241058
 20
552.3071818717558
 30
0.0
 10
5387.370022830035
 20
551.7973938671985
 30
0.0
 10
5387.566565527517
 20
551.0253479687613
 30
0.0
 10
5387.216543826128
 20
550.5587097851671
 30
0.0
  0
SPLINE
  5
2287F
330
18
100
AcDbEntity
  8
姿図
100
AcDbSpline
210
0.0
220
0.0
230
1.0
 70
     8
 71
     3
 72
     8
 73
     4
 74
     0
 42
0.000000001
 43
0.0000000001
 40
0.0
 40
0.0
 40
0.0
 40
0.0
 40
1.0
 40
1.0
 40
1.0
 40
1.0
 10
5384.981538129514
 20
552.4710822895076
 30
0.0
 10
5385.386164594358
 20
552.8743307161571
 30
0.0
 10
5386.164756174218
 20
552.8087016471463
 30
0.0
 10
5386.762480241058
 20
552.3071818717558
 30
0.0
  0
SPLINE
  5
22880
330
18
100
AcDbEntity
  8
姿図
100
AcDbSpline
210
0.0
220
0.0
230
1.0
 70
     8
 71
     3
 72
     8
 73
     4
 74
     0
 42
0.000000001
 43
0.0000000001
 40
0.0
 40
0.0
 40
0.0
 40
0.0
 40
1.0
 40
1.0
 40
1.0
 40
1.0
 10
5390.117878255964
 20
552.7823070055961
 30
0.0
 10
5390.150434408308
 20
552.7823070055961
 30
0.0
 10
5390.44137272211
 20
552.2825959053357
 30
0.0
 10
5390.14733382237
 20
551.8121681167072
 30
0.0
  0
LINE
  5
22881
330
18
100
AcDbEntity
  8
姿図
100
AcDbLine
 10
5390.117878255965
 20
552.8117625720024
 30
0.0
 11
5389.089000489038
 21
553.6937070164468
 31
0.0
  0
LINE
  5
22882
330
18
100
AcDbEntity
  8
姿図
100
AcDbLine
 10
5388.794961589298
 20
553.3996681167073
 30
0.0
 11
5389.089000489038
 21
553.6937070164468
 31
0.0
  0
ELLIPSE
  5
22883
330
18
100
AcDbEntity
  8
姿図
100
AcDbEllipse
 10
5386.338350125539
 20
551.7750041491508
 30
0.0
 11
-1.159877522786458
 21
0.9731964111328123
 31
0.0
210
0.0
220
0.0
230
1.0
 40
0.7351229721554962
 41
0.0
 42
6.283185307179586
  0
ELLIPSE
  5
22884
330
18
100
AcDbEntity
  8
姿図
100
AcDbEllipse
 10
5384.116052421044
 20
548.4034648542802
 30
0.0
 11
-0.6214952256944444
 21
0.5215874565972224
 31
0.0
210
0.0
220
0.0
230
1.0
 40
0.7351581471724161
 41
0.0
 42
6.283185307179586
  0
LINE
  5
22885
330
18
100
AcDbEntity
  8
姿図
100
AcDbLine
 10
5390.822744792423
 20
554.6163035876275
 30
0.0
 11
5389.808293345673
 21
553.0771358753163
 31
0.0
  0
SPLINE
  5
22886
330
18
100
AcDbEntity
  8
姿図
100
AcDbSpline
210
0.0
220
0.0
230
1.0
 70
     8
 71
     3
 72
     8
 73
     4
 74
     0
 42
0.000000001
 43
0.0000000001
 40
0.0
 40
0.0
 40
0.0
 40
0.0
 40
1.0
 40
1.0
 40
1.0
 40
1.0
 10
5389.16909895909
 20
547.8473799765161
 30
0.0
 10
5390.139237847978
 20
549.4569285876273
 30
0.0
 10
5390.888890625756
 20
550.3829702542939
 30
0.0
 10
5391.616494792423
 20
552.5216855320718
 30
0.0
  0
SPLINE
  5
22887
330
18
100
AcDbEntity
  8
姿図
100
AcDbSpline
210
0.0
220
0.0
230
1.0
 70
     8
 71
     3
 72
     8
 73
     4
 74
     0
 42
0.000000001
 43
0.0000000001
 40
0.0
 40
0.0
 40
0.0
 40
0.0
 40
1.0
 40
1.0
 40
1.0
 40
1.0
 10
5388.772223959089
 20
546.7890466431832
 30
0.0
 10
5388.772223959089
 20
541.780222315926
 30
0.0
 10
5386.148439236867
 20
537.660921643183
 30
0.0
 10
5386.060244792423
 20
537.7270674765164
 30
0.0
  0
SPLINE
  5
22888
330
18
100
AcDbEntity
  8
姿図
100
AcDbSpline
210
0.0
220
0.0
230
1.0
 70
     8
 71
     3
 72
     8
 73
     4
 74
     0
 42
0.000000001
 43
0.0000000001
 40
0.0
 40
0.0
 40
0.0
 40
0.0
 40
1.0
 40
1.0
 40
1.0
 40
1.0
 10
5384.340453125757
 20
540.6154355320718
 30
0.0
 10
5385.376737847979
 20
541.8942549765161
 30
0.0
 10
5386.787848959089
 20
543.3494633098494
 30
0.0
 10
5387.625696181311
 20
545.6645674765164
 30
0.0
  0
SPLINE
  5
22889
330
18
100
AcDbEntity
  8
姿図
100
AcDbSpline
210
0.0
220
0.0
230
1.0
 70
     8
 71
     3
 72
     8
 73
     4
 74
     0
 42
0.000000001
 43
0.0000000001
 40
0.0
 40
0.0
 40
0.0
 40
0.0
 40
1.0
 40
1.0
 40
1.0
 40
1.0
 10
5384.031772570201
 20
541.0123105320718
 30
0.0
 10
5385.288543403533
 20
542.2249841431831
 30
0.0
 10
5387.074480903533
 20
545.0692549765163
 30
0.0
 10
5387.140626736867
 20
545.6204702542941
 30
0.0
  0
LINE
  5
2288A
330
18
100
AcDbEntity
  8
姿図
100
AcDbLine
 10
5388.794961589298
 20
553.3996681167073
 30
0.0
 11
5386.884139377927
 21
555.0753625611515
 31
0.0
  0
SPLINE
  5
2288B
330
18
100
AcDbEntity
  8
姿図
100
AcDbSpline
210
0.0
220
0.0
230
1.0
 70
     8
 71
     3
 72
    11
 73
     7
 74
     0
 42
0.000000001
 43
0.0000000001
 40
28.0
 40
28.0
 40
28.0
 40
28.0
 40
29.0
 40
29.0
 40
29.0
 40
30.0
 40
30.0
 40
30.0
 40
30.0
 10
5391.31435991829
 20
555.7035757230442
 30
0.0
 10
5391.31435991829
 20
555.7035757230442
 30
0.0
 10
5392.268134603621
 20
554.7737444513427
 30
0.0
 10
5392.482764052405
 20
554.6068295750406
 30
0.0
 10
5392.69739350119
 20
554.4399146987384
 30
0.0
 10
5392.840364963864
 20
554.1777429322456
 30
0.0
 10
5392.69739350119
 20
553.9631134834608
 30
0.0
  0
LINE
  5
2288C
330
18
100
AcDbEntity
  8
姿図
100
AcDbLine
 10
5383.050437120982
 20
559.9202864706567
 30
0.0
 11
5381.694619792423
 21
558.3645674765162
 31
0.0
  0
SPLINE
  5
2288D
330
18
100
AcDbEntity
  8
姿図
100
AcDbSpline
210
0.0
220
0.0
230
1.0
 70
     8
 71
     3
 72
     8
 73
     4
 74
     0
 42
0.000000001
 43
0.0000000001
 40
0.0
 40
0.0
 40
0.0
 40
0.0
 40
1.0
 40
1.0
 40
1.0
 40
1.0
 10
5380.680383681311
 20
558.3204702542939
 30
0.0
 10
5384.263282986867
 20
558.3204702542939
 30
0.0
 10
5386.302779514645
 20
557.5708174765164
 30
0.0
 10
5387.245982715464
 20
556.9478187171576
 30
0.0
  0
SPLINE
  5
2288E
330
18
100
AcDbEntity
  8
姿図
100
AcDbSpline
210
0.0
220
0.0
230
1.0
 70
     8
 71
     3
 72
     8
 73
     4
 74
     0
 42
0.000000001
 43
0.0000000001
 40
16.0
 40
16.0
 40
16.0
 40
16.0
 40
17.0
 40
17.0
 40
17.0
 40
17.0
 10
5382.716779623152
 20
560.1586870782958
 30
0.0
 10
5382.859751085825
 20
560.0394867744762
 30
0.0
 10
5383.050437120982
 20
559.9202864706567
 30
0.0
 10
5383.050437120982
 20
559.9202864706567
 30
0.0
  0
SPLINE
  5
2288F
330
18
100
AcDbEntity
  8
姿図
100
AcDbSpline
210
0.0
220
0.0
230
1.0
 70
     8
 71
     3
 72
    11
 73
     7
 74
     0
 42
0.000000001
 43
0.0000000001
 40
14.0
 40
14.0
 40
14.0
 40
14.0
 40
15.0
 40
15.0
 40
15.0
 40
16.0
 40
16.0
 40
16.0
 40
16.0
 10
5380.696231120548
 20
558.2949765476969
 30
0.0
 10
5381.220746908309
 20
558.9148353530354
 30
0.0
 10
5382.162119249888
 20
560.0654111180093
 30
0.0
 10
5382.281319553707
 20
560.1607541355875
 30
0.0
 10
5382.400519857527
 20
560.2560971531657
 30
0.0
 10
5382.573635905704
 20
560.2778873821153
 30
0.0
 10
5382.716779623152
 20
560.1586870782958
 30
0.0
  0
SPLINE
  5
22890
330
18
100
AcDbEntity
  8
姿図
100
AcDbSpline
210
0.0
220
0.0
230
1.0
 70
     8
 71
     3
 72
     8
 73
     4
 74
     0
 42
0.000000001
 43
0.0000000001
 40
13.0
 40
13.0
 40
13.0
 40
13.0
 40
14.0
 40
14.0
 40
14.0
 40
14.0
 10
5378.921662435652
 20
557.9030969361515
 30
0.0
 10
5379.231548774627
 20
557.9508115086342
 30
0.0
 10
5380.290915636607
 20
558.2711192614556
 30
0.0
 10
5380.696231120548
 20
558.2949765476969
 30
0.0
  0
SPLINE
  5
22891
330
18
100
AcDbEntity
  8
姿図
100
AcDbSpline
210
0.0
220
0.0
230
1.0
 70
     8
 71
     3
 72
     8
 73
     4
 74
     0
 42
0.000000001
 43
0.0000000001
 40
11.0
 40
11.0
 40
11.0
 40
11.0
 40
12.0
 40
12.0
 40
12.0
 40
12.0
 10
5376.5407569452
 20
557.8588274591552
 30
0.0
 10
5377.279729926971
 20
558.1448565118894
 30
0.0
 10
5377.347942817596
 20
558.2368405613688
 30
0.0
 10
5377.562572266381
 20
558.1892121162732
 30
0.0
  0
SPLINE
  5
22892
330
18
100
AcDbEntity
  8
姿図
100
AcDbSpline
210
0.0
220
0.0
230
1.0
 70
     8
 71
     3
 72
     8
 73
     4
 74
     0
 42
0.000000001
 43
0.0000000001
 40
12.0
 40
12.0
 40
12.0
 40
12.0
 40
13.0
 40
13.0
 40
13.0
 40
13.0
 10
5377.562572266381
 20
558.1892121162732
 30
0.0
 10
5377.777201715166
 20
558.1414975437906
 30
0.0
 10
5378.611603841902
 20
557.8553823636689
 30
0.0
 10
5378.921662435652
 20
557.9030969361515
 30
0.0
  0
SPLINE
  5
22893
330
18
100
AcDbEntity
  8
姿図
100
AcDbSpline
210
0.0
220
0.0
230
1.0
 70
     8
 71
     3
 72
     8
 73
     4
 74
     0
 42
0.000000001
 43
0.0000000001
 40
25.0
 40
25.0
 40
25.0
 40
25.0
 40
26.0
 40
26.0
 40
26.0
 40
26.0
 10
5388.510396702144
 20
559.3719133966551
 30
0.0
 10
5388.915712186086
 20
559.1812273614987
 30
0.0
 10
5389.71600786751
 20
558.6816023886258
 30
0.0
 10
5390.264294814124
 20
558.228658459589
 30
0.0
  0
LINE
  5
22894
330
18
100
AcDbEntity
  8
姿図
100
AcDbLine
 10
5384.743357042857
 20
559.8964291844154
 30
0.0
 11
5383.348265625757
 21
558.166129976516
 31
0.0
  0
LINE
  5
22895
330
18
100
AcDbEntity
  8
姿図
100
AcDbLine
 10
5387.270506836694
 20
558.9666840401014
 30
0.0
 11
5386.060244792423
 21
557.6149146987386
 31
0.0
  0
SPLINE
  5
22896
330
18
100
AcDbEntity
  8
姿図
100
AcDbSpline
210
0.0
220
0.0
230
1.0
 70
     8
 71
     3
 72
     8
 73
     4
 74
     0
 42
0.000000001
 43
0.0000000001
 40
0.0
 40
0.0
 40
0.0
 40
0.0
 40
1.0
 40
1.0
 40
1.0
 40
1.0
 10
5385.355378255965
 20
555.8691125611517
 30
0.0
 10
5385.737611600149
 20
556.5159292386693
 30
0.0
 10
5386.149128255965
 20
555.9480052477838
 30
0.0
 10
5386.149128255965
 20
556.0455014500408
 30
0.0
  0
SPLINE
  5
22897
330
18
100
AcDbEntity
  8
姿図
100
AcDbSpline
210
0.0
220
0.0
230
1.0
 70
     8
 71
     3
 72
     8
 73
     4
 74
     0
 42
0.000000001
 43
0.0000000001
 40
0.0
 40
0.0
 40
0.0
 40
0.0
 40
1.0
 40
1.0
 40
1.0
 40
1.0
 10
5385.144021647891
 20
556.0786604940945
 30
0.0
 10
5385.5260827373
 20
556.6958493504312
 30
0.0
 10
5385.937599393117
 20
556.1279253595458
 30
0.0
 10
5385.937599393117
 20
556.2254215618027
 30
0.0
  0
SPLINE
  5
22898
330
18
100
AcDbEntity
  8
姿図
100
AcDbSpline
210
0.0
220
0.0
230
1.0
 70
     8
 71
     3
 72
     8
 73
     4
 74
     0
 42
0.000000001
 43
0.0000000001
 40
24.0
 40
24.0
 40
24.0
 40
24.0
 40
25.0
 40
25.0
 40
25.0
 40
25.0
 10
5387.699765734263
 20
559.3719133966551
 30
0.0
 10
5387.938166341902
 20
559.5865428454399
 30
0.0
 10
5388.105081218204
 20
559.5626855591986
 30
0.0
 10
5388.510396702144
 20
559.3719133966551
 30
0.0
  0
SPLINE
  5
22899
330
18
100
AcDbEntity
  8
姿図
100
AcDbSpline
210
0.0
220
0.0
230
1.0
 70
     8
 71
     3
 72
     8
 73
     4
 74
     0
 42
0.000000001
 43
0.0000000001
 40
23.0
 40
23.0
 40
23.0
 40
23.0
 40
24.0
 40
24.0
 40
24.0
 40
24.0
 10
5387.270506836693
 20
558.9666840401014
 30
0.0
 10
5387.270506836693
 20
558.9666840401014
 30
0.0
 10
5387.561272895721
 20
559.2473731948321
 30
0.0
 10
5387.699765734263
 20
559.3719133966551
 30
0.0
  0
SPLINE
  5
2289A
330
18
100
AcDbEntity
  8
姿図
100
AcDbSpline
210
0.0
220
0.0
230
1.0
 70
     8
 71
     3
 72
    14
 73
    10
 74
     0
 42
0.000000001
 43
0.0000000001
 40
20.0
 40
20.0
 40
20.0
 40
20.0
 40
21.0
 40
21.0
 40
21.0
 40
22.0
 40
22.0
 40
22.0
 40
23.0
 40
23.0
 40
23.0
 40
23.0
 10
5384.743357042857
 20
559.8964291844154
 30
0.0
 10
5384.743357042857
 20
559.8964291844154
 30
0.0
 10
5384.88632850553
 20
560.0871152195718
 30
0.0
 10
5385.053243381833
 20
560.2778873821153
 30
0.0
 10
5385.220158258135
 20
560.4686595446587
 30
0.0
 10
5385.3155874031
 20
560.6593455798147
 30
0.0
 10
5385.673188314558
 20
560.4209449721761
 30
0.0
 10
5386.030789226016
 20
560.1825443645371
 30
0.0
 10
5387.270506836693
 20
558.9666840401014
 30
0.0
 10
5387.270506836693
 20
558.9666840401014
 30
0.0
  0
SPLINE
  5
2289B
330
18
100
AcDbEntity
  8
姿図
100
AcDbSpline
210
0.0
220
0.0
230
1.0
 70
     8
 71
     3
 72
     8
 73
     4
 74
     0
 42
0.000000001
 43
0.0000000001
 40
19.0
 40
19.0
 40
19.0
 40
19.0
 40
20.0
 40
20.0
 40
20.0
 40
20.0
 10
5383.908782661346
 20
560.564002562237
 30
0.0
 10
5384.099468696502
 20
560.3733165270805
 30
0.0
 10
5384.743357042857
 20
559.8964291844154
 30
0.0
 10
5384.743357042857
 20
559.8964291844154
 30
0.0
  0
SPLINE
  5
2289C
330
18
100
AcDbEntity
  8
姿図
100
AcDbSpline
210
0.0
220
0.0
230
1.0
 70
     8
 71
     3
 72
     8
 73
     4
 74
     0
 42
0.000000001
 43
0.0000000001
 40
18.0
 40
18.0
 40
18.0
 40
18.0
 40
19.0
 40
19.0
 40
19.0
 40
19.0
 10
5383.479696018551
 20
560.4209449721761
 30
0.0
 10
5383.622667481224
 20
560.6117171347196
 30
0.0
 10
5383.71809662619
 20
560.75477472478
 30
0.0
 10
5383.908782661346
 20
560.564002562237
 30
0.0
  0
SPLINE
  5
2289D
330
18
100
AcDbEntity
  8
姿図
100
AcDbSpline
210
0.0
220
0.0
230
1.0
 70
     8
 71
     3
 72
     8
 73
     4
 74
     0
 42
0.000000001
 43
0.0000000001
 40
17.0
 40
17.0
 40
17.0
 40
17.0
 40
18.0
 40
18.0
 40
18.0
 40
18.0
 10
5383.050437120982
 20
559.9202864706567
 30
0.0
 10
5383.050437120982
 20
559.9202864706567
 30
0.0
 10
5383.336552301103
 20
560.2302589370197
 30
0.0
 10
5383.479696018551
 20
560.4209449721761
 30
0.0
  0
SPLINE
  5
2289E
330
18
100
AcDbEntity
  8
姿図
100
AcDbSpline
210
0.0
220
0.0
230
1.0
 70
     8
 71
     3
 72
     8
 73
     4
 74
     0
 42
0.000000001
 43
0.0000000001
 40
26.0
 40
26.0
 40
26.0
 40
26.0
 40
27.0
 40
27.0
 40
27.0
 40
27.0
 10
5390.264294814124
 20
558.228658459589
 30
0.0
 10
5390.812754015513
 20
557.7756284031657
 30
0.0
 10
5391.814071018551
 20
556.6073965238252
 30
0.0
 10
5391.671099555878
 20
556.2975101848497
 30
0.0
  0
SPLINE
  5
2289F
330
18
100
AcDbEntity
  8
姿図
100
AcDbSpline
210
0.0
220
0.0
230
1.0
 70
     8
 71
     3
 72
     8
 73
     4
 74
     0
 42
0.000000001
 43
0.0000000001
 40
9.0
 40
9.0
 40
9.0
 40
9.0
 40
10.0
 40
10.0
 40
10.0
 40
10.0
 10
5363.123488064992
 20
547.1091821412297
 30
0.0
 10
5363.910261746633
 20
548.0151561266898
 30
0.0
 10
5366.518629666554
 20
550.6830380711344
 30
0.0
 10
5368.660101020721
 20
552.4946415325057
 30
0.0
  0
SPLINE
  5
228A0
330
18
100
AcDbEntity
  8
姿図
100
AcDbSpline
210
0.0
220
0.0
230
1.0
 70
     8
 71
     3
 72
     8
 73
     4
 74
     0
 42
0.000000001
 43
0.0000000001
 40
0.0
 40
0.0
 40
0.0
 40
0.0
 40
1.0
 40
1.0
 40
1.0
 40
1.0
 10
5362.644619792423
 20
546.4803660876273
 30
0.0
 10
5363.284029514645
 20
547.1638730320719
 30
0.0
 10
5364.5848975702
 20
548.3104008098494
 30
0.0
 10
5366.745661459089
 20
548.574984143183
 30
0.0
  0
SPLINE
  5
228A1
330
18
100
AcDbEntity
  8
姿図
100
AcDbSpline
210
0.0
220
0.0
230
1.0
 70
     8
 71
     3
 72
     8
 73
     4
 74
     0
 42
0.000000001
 43
0.0000000001
 40
0.0
 40
0.0
 40
0.0
 40
0.0
 40
1.0
 40
1.0
 40
1.0
 40
1.0
 10
5363.680904514646
 20
547.759185532072
 30
0.0
 10
5364.408508681311
 20
548.3324494209605
 30
0.0
 10
5365.290453125755
 20
548.8616160876272
 30
0.0
 10
5367.076390625756
 20
549.3025883098494
 30
0.0
  0
SPLINE
  5
228A2
330
18
100
AcDbEntity
  8
姿図
100
AcDbSpline
210
0.0
220
0.0
230
1.0
 70
     8
 71
     3
 72
     8
 73
     4
 74
     0
 42
0.000000001
 43
0.0000000001
 40
8.718707976915393
 40
8.718707976915393
 40
8.718707976915393
 40
8.718707976915393
 40
9.0
 40
9.0
 40
9.0
 40
9.0
 10
5362.482001184106
 20
546.2654049172684
 30
0.0
 10
5362.78331187937
 20
546.6899878054801
 30
0.0
 10
5363.022897781151
 20
547.0085918573886
 30
0.0
 10
5363.123488064992
 20
547.1091821412297
 30
0.0
  0
SPLINE
  5
228A3
330
18
100
AcDbEntity
  8
姿図
100
AcDbSpline
210
0.0
220
0.0
230
1.0
 70
     8
 71
     3
 72
     8
 73
     4
 74
     0
 42
0.000000001
 43
0.0000000001
 40
0.0
 40
0.0
 40
0.0
 40
0.0
 40
1.0
 40
1.0
 40
1.0
 40
1.0
 10
5372.742883681311
 20
548.7293244209609
 30
0.0
 10
5372.742883681311
 20
548.7440522041638
 30
0.0
 10
5372.742883681311
 20
548.7587799873668
 30
0.0
 10
5372.743055936086
 20
548.7734216431827
 30
0.0
  0
SPLINE
  5
228A4
330
18
100
AcDbEntity
  8
姿図
100
AcDbSpline
210
0.0
220
0.0
230
1.0
 70
     8
 71
     3
 72
     8
 73
     4
 74
     0
 42
0.000000001
 43
0.0000000001
 40
0.0
 40
0.0
 40
0.0
 40
0.0
 40
1.0
 40
1.0
 40
1.0
 40
1.0
 10
5369.898612847978
 20
549.2364424765165
 30
0.0
 10
5370.648265625756
 20
550.2727271987383
 30
0.0
 10
5371.089237847978
 20
551.1105744209608
 30
0.0
 10
5372.147571181312
 20
551.8602271987384
 30
0.0
  0
SPLINE
  5
228A5
330
18
100
AcDbEntity
  8
姿図
100
AcDbSpline
210
0.0
220
0.0
230
1.0
 70
     8
 71
     3
 72
     8
 73
     4
 74
     0
 42
0.000000001
 43
0.0000000001
 40
0.0
 40
0.0
 40
0.0
 40
0.0
 40
1.0
 40
1.0
 40
1.0
 40
1.0
 10
5369.457640625757
 20
549.3687341431828
 30
0.0
 10
5370.097050347978
 20
550.2286299765165
 30
0.0
 10
5370.758508681311
 20
551.3090119209605
 30
0.0
 10
5371.794793403534
 20
551.9484216431829
 30
0.0
  0
SPLINE
  5
228A6
330
18
100
AcDbEntity
  8
姿図
100
AcDbSpline
210
0.0
220
0.0
230
1.0
 70
     8
 71
     3
 72
     8
 73
     4
 74
     0
 42
0.000000001
 43
0.0000000001
 40
0.0
 40
0.0
 40
0.0
 40
0.0
 40
1.0
 40
1.0
 40
1.0
 40
1.0
 10
5376.183156033742
 20
543.6541820055959
 30
0.0
 10
5371.337112468203
 20
546.4521163046411
 30
0.0
 10
5365.203033827795
 20
547.0655155559434
 30
0.0
 10
5362.391835911129
 20
546.2397261679225
 30
0.0
  0
SPLINE
  5
228A7
330
18
100
AcDbEntity
  8
姿図
100
AcDbSpline
210
0.0
220
0.0
230
1.0
 70
     8
 71
     3
 72
     8
 73
     4
 74
     0
 42
0.000000001
 43
0.0000000001
 40
10.0
 40
10.0
 40
10.0
 40
10.0
 40
11.0
 40
11.0
 40
11.0
 40
11.0
 10
5368.660101020721
 20
552.4946415325057
 30
0.0
 10
5371.984790419593
 20
555.3071313599798
 30
0.0
 10
5375.801611708655
 20
557.5727122790336
 30
0.0
 10
5376.5407569452
 20
557.8588274591552
 30
0.0
  0
SPLINE
  5
228A8
330
18
100
AcDbEntity
  8
姿図
100
AcDbSpline
210
0.0
220
0.0
230
1.0
 70
     8
 71
     3
 72
     8
 73
     4
 74
     0
 42
0.000000001
 43
0.0000000001
 40
1.0
 40
1.0
 40
1.0
 40
1.0
 40
2.0
 40
2.0
 40
2.0
 40
2.0
 10
5372.743055936086
 20
548.7734216431827
 30
0.0
 10
5373.558682292422
 20
549.986095254294
 30
0.0
 10
5374.330383681311
 20
551.0003313654051
 30
0.0
 10
5375.521008681311
 20
552.0366160876274
 30
0.0
  0
SPLINE
  5
228A9
330
18
100
AcDbEntity
  8
姿図
100
AcDbSpline
210
0.0
220
0.0
230
1.0
 70
     8
 71
     3
 72
     8
 73
     4
 74
     0
 42
0.000000001
 43
0.0000000001
 40
0.0
 40
0.0
 40
0.0
 40
0.0
 40
1.0
 40
1.0
 40
1.0
 40
1.0
 10
5367.076390625756
 20
549.3025883098494
 30
0.0
 10
5370.780557292423
 20
552.3673452542939
 30
0.0
 10
5375.057987847978
 20
554.6824494209609
 30
0.0
 10
5376.483740614905
 20
554.755916082202
 30
0.0
  0
SPLINE
  5
228AA
330
18
100
AcDbEntity
  8
姿図
100
AcDbSpline
210
0.0
220
0.0
230
1.0
 70
     8
 71
     3
 72
     8
 73
     4
 74
     0
 42
0.000000001
 43
0.0000000001
 40
0.0106763948050698
 40
0.0106763948050698
 40
0.0106763948050698
 40
0.0106763948050698
 40
1.0
 40
1.0
 40
1.0
 40
1.0
 10
5377.384440951244
 20
545.4861415047862
 30
0.0
 10
5375.657250817929
 20
546.7973245846324
 30
0.0
 10
5370.737479151509
 20
549.2075672747683
 30
0.0
 10
5366.745661459089
 20
548.574984143183
 30
0.0
  0
SPLINE
  5
228AB
330
18
100
AcDbEntity
  8
姿図
100
AcDbSpline
210
0.0
220
0.0
230
1.0
 70
     8
 71
     3
 72
     8
 73
     4
 74
     0
 42
0.000000001
 43
0.0000000001
 40
0.0
 40
0.0
 40
0.0
 40
0.0
 40
0.9548759970193254
 40
0.9548759970193254
 40
0.9548759970193254
 40
0.9548759970193254
 10
5367.076390625756
 20
549.3025883098494
 30
0.0
 10
5372.992477380205
 20
549.5552325840608
 30
0.0
 10
5376.395606288522
 20
547.1340897099867
 30
0.0
 10
5377.880869006645
 20
546.2431942892736
 30
0.0
  0
SPLINE
  5
228AC
330
18
100
AcDbEntity
  8
姿図
100
AcDbSpline
210
0.0
220
0.0
230
1.0
 70
     8
 71
     3
 72
     8
 73
     4
 74
     0
 42
0.000000001
 43
0.0000000001
 40
0.0
 40
0.0
 40
0.0
 40
0.0
 40
1.0
 40
1.0
 40
1.0
 40
1.0
 10
5378.762154514645
 20
554.6163035876275
 30
0.0
 10
5375.102085070201
 20
553.5579702542941
 30
0.0
 10
5372.368057292422
 20
552.0586646987385
 30
0.0
 10
5372.147571181312
 20
551.8602271987384
 30
0.0
  0
SPLINE
  5
228AD
330
18
100
AcDbEntity
  8
姿図
100
AcDbSpline
210
0.0
220
0.0
230
1.0
 70
     8
 71
     3
 72
     8
 73
     4
 74
     0
 42
0.000000001
 43
0.0000000001
 40
0.0
 40
0.0
 40
0.0
 40
0.0
 40
1.0
 40
1.0
 40
1.0
 40
1.0
 10
5378.651911459089
 20
554.6383521987386
 30
0.0
 10
5374.947744792423
 20
553.8005049765161
 30
0.0
 10
5372.059376736867
 20
552.1909563654053
 30
0.0
 10
5371.794793403534
 20
551.9484216431829
 30
0.0
  0
LINE
  5
228AE
330
18
100
AcDbEntity
  8
姿図
100
AcDbLine
 10
5381.847390584219
 20
528.6933803230922
 30
0.0
 11
5380.466000610199
 21
527.34139809718
 31
0.0
  0
LINE
  5
228AF
330
18
100
AcDbEntity
  8
姿図
100
AcDbLine
 10
5381.734293836086
 20
529.1641947134826
 30
0.0
 11
5380.360377278447
 21
527.8758158742412
 31
0.0
  0
LINE
  5
228B0
330
18
100
AcDbEntity
  8
姿図
100
AcDbLine
 10
5381.566835796597
 20
529.7347826990754
 30
0.0
 11
5380.17010445653
 21
528.5382599439995
 31
0.0
  0
LINE
  5
228B1
330
18
100
AcDbEntity
  8
姿図
100
AcDbLine
 10
5381.372453258037
 20
530.2909576402467
 30
0.0
 11
5379.981608599302
 21
529.0616131598085
 31
0.0
  0
LINE
  5
228B2
330
18
100
AcDbEntity
  8
姿図
100
AcDbLine
 10
5381.151336062776
 20
530.8397165149267
 30
0.0
 11
5379.734182412043
 21
529.6408457871557
 31
0.0
  0
SPLINE
  5
228B3
330
18
100
AcDbEntity
  8
姿図
100
AcDbSpline
210
0.0
220
0.0
230
1.0
 70
     8
 71
     3
 72
     8
 73
     4
 74
     0
 42
0.000000001
 43
0.0000000001
 40
35.0
 40
35.0
 40
35.0
 40
35.0
 40
36.0
 40
36.0
 40
36.0
 40
36.0
 10
5386.871737034176
 20
535.2751068916637
 30
0.0
 10
5387.0271108406
 20
534.472313516013
 30
0.0
 10
5387.752303440427
 20
531.9083012004744
 30
0.0
 10
5385.447362305444
 20
529.3961375720023
 30
0.0
  0
SPLINE
  5
228B4
330
18
100
AcDbEntity
  8
姿図
100
AcDbSpline
210
0.0
220
0.0
230
1.0
 70
     8
 71
     3
 72
     8
 73
     4
 74
     0
 42
0.000000001
 43
0.0000000001
 40
0.3748330610719267
 40
0.3748330610719267
 40
0.3748330610719267
 40
0.3748330610719267
 40
0.9335741083362055
 40
0.9335741083362055
 40
0.9335741083362055
 40
0.9335741083362055
 10
5380.359728842747
 20
527.8601136107327
 30
0.0
 10
5379.70602053633
 20
530.6920005045117
 30
0.0
 10
5377.234944295857
 20
533.580852611984
 30
0.0
 10
5376.02714639723
 20
534.9275464300422
 30
0.0
  0
LINE
  5
228B5
330
18
100
AcDbEntity
  8
姿図
100
AcDbLine
 10
5377.609353839389
 20
536.1472171286978
 30
0.0
 11
5376.345690297486
 21
534.568720649358
 31
0.0
  0
LINE
  5
228B6
330
18
100
AcDbEntity
  8
姿図
100
AcDbLine
 10
5379.277014915866
 20
534.0890394915341
 30
0.0
 11
5377.921049264098
 21
532.6259010183235
 31
0.0
  0
LINE
  5
228B7
330
18
100
AcDbEntity
  8
姿図
100
AcDbLine
 10
5378.967982766123
 20
534.5330453547608
 30
0.0
 11
5377.572821497712
 21
533.0862139466126
 31
0.0
  0
LINE
  5
228B8
330
18
100
AcDbEntity
  8
姿図
100
AcDbLine
 10
5378.561252192366
 20
535.0289085177496
 30
0.0
 11
5377.200162695246
 21
533.5568408908525
 31
0.0
  0
LINE
  5
228B9
330
18
100
AcDbEntity
  8
姿図
100
AcDbLine
 10
5378.107873057897
 20
535.5775208286859
 30
0.0
 11
5376.786055668072
 21
534.057541266684
 31
0.0
  0
LINE
  5
228BA
330
18
100
AcDbEntity
  8
姿図
100
AcDbLine
 10
5380.019131827044
 20
532.9854606473264
 30
0.0
 11
5378.610075578546
 21
531.6390815143109
 31
0.0
  0
LINE
  5
228BB
330
18
100
AcDbEntity
  8
姿図
100
AcDbLine
 10
5379.631776040597
 20
533.5811634010715
 30
0.0
 11
5378.251480230607
 21
532.1670360092126
 31
0.0
  0
LINE
  5
228BC
330
18
100
AcDbEntity
  8
姿図
100
AcDbLine
 10
5380.953646429914
 20
531.279361776421
 30
0.0
 11
5379.517293930308
 21
530.0881905765496
 31
0.0
  0
LINE
  5
228BD
330
18
100
AcDbEntity
  8
姿図
100
AcDbLine
 10
5380.654338861406
 20
531.8805934269876
 30
0.0
 11
5379.229074081486
 21
530.6256388964971
 31
0.0
  0
LINE
  5
228BE
330
18
100
AcDbEntity
  8
姿図
100
AcDbLine
 10
5380.356773358381
 20
532.4218841595543
 30
0.0
 11
5378.964798394601
 21
531.0775033389223
 31
0.0
  0
SPLINE
  5
228BF
330
18
100
AcDbEntity
  8
姿図
100
AcDbSpline
210
0.0
220
0.0
230
1.0
 70
     8
 71
     3
 72
     8
 73
     4
 74
     0
 42
0.000000001
 43
0.0000000001
 40
34.0
 40
34.0
 40
34.0
 40
34.0
 40
35.0
 40
35.0
 40
35.0
 40
35.0
 10
5387.189202583221
 20
536.3717669122802
 30
0.0
 10
5386.951146485131
 20
536.1025327000407
 30
0.0
 10
5386.716363227752
 20
536.0780725220893
 30
0.0
 10
5386.871737034176
 20
535.2751068916637
 30
0.0
  0
LINE
  5
228C0
330
18
100
AcDbEntity
  8
姿図
100
AcDbLine
 10
5364.247536594723
 20
529.6900042169677
 30
0.0
 11
5365.746842150279
 21
529.3665097508219
 31
0.0
  0
LINE
  5
228C1
330
18
100
AcDbEntity
  8
姿図
100
AcDbLine
 10
5364.247536594723
 20
529.160837550301
 30
0.0
 11
5365.746842150279
 21
528.8373430841552
 31
0.0
  0
LINE
  5
228C2
330
18
100
AcDbEntity
  8
姿図
100
AcDbLine
 10
5364.247536594723
 20
528.5434764391898
 30
0.0
 11
5365.746842150279
 21
528.219981973044
 31
0.0
  0
LINE
  5
228C3
330
18
100
AcDbEntity
  8
姿図
100
AcDbLine
 10
5364.365186605574
 20
527.8966597616723
 30
0.0
 11
5365.864492161129
 21
527.5731652955265
 31
0.0
  0
LINE
  5
228C4
330
18
100
AcDbEntity
  8
姿図
100
AcDbLine
 10
5364.365186605574
 20
527.3087542169674
 30
0.0
 11
5365.864492161129
 21
526.9852597508216
 31
0.0
  0
LINE
  5
228C5
330
18
100
AcDbEntity
  8
姿図
100
AcDbLine
 10
5372.324649089298
 20
526.9192861722627
 30
0.0
 11
5370.869440755965
 21
527.227966727818
 31
0.0
  0
LINE
  5
228C6
330
18
100
AcDbEntity
  8
姿図
100
AcDbLine
 10
5372.236454644853
 20
527.5807445055962
 30
0.0
 11
5370.781246311521
 21
527.8894250611515
 31
0.0
  0
LINE
  5
228C7
330
18
100
AcDbEntity
  8
姿図
100
AcDbLine
 10
5372.192357422631
 20
528.1981056167074
 30
0.0
 11
5370.737149089298
 21
528.5067861722628
 31
0.0
  0
LINE
  5
228C8
330
18
100
AcDbEntity
  8
姿図
100
AcDbLine
 10
5372.192357422631
 20
528.7713695055959
 30
0.0
 11
5370.737149089298
 21
529.0800500611517
 31
0.0
  0
LINE
  5
228C9
330
18
100
AcDbEntity
  8
姿図
100
AcDbLine
 10
5372.186651426711
 20
529.2828651929385
 30
0.0
 11
5370.731443093377
 21
529.5915457484939
 31
0.0
  0
SPLINE
  5
228CA
330
18
100
AcDbEntity
  8
姿図
100
AcDbSpline
210
0.0
220
0.0
230
1.0
 70
     8
 71
     3
 72
     8
 73
     4
 74
     0
 42
0.000000001
 43
0.0000000001
 40
0.0
 40
0.0
 40
0.0
 40
0.0
 40
1.0
 40
1.0
 40
1.0
 40
1.0
 10
5372.809718533742
 20
528.7272722833741
 30
0.0
 10
5372.809718533742
 20
529.0442210680962
 30
0.0
 10
5372.582858995982
 20
529.300536172263
 30
0.0
 10
5372.302600478187
 20
529.300536172263
 30
0.0
  0
LINE
  5
228CB
330
18
100
AcDbEntity
  8
姿図
100
AcDbLine
 10
5370.731292426972
 20
530.0679311917938
 30
0.0
 11
5372.142403538082
 21
529.7592506362384
 31
0.0
  0
SPLINE
  5
228CC
330
18
100
AcDbEntity
  8
姿図
100
AcDbSpline
210
0.0
220
0.0
230
1.0
 70
     8
 71
     3
 72
     8
 73
     4
 74
     0
 42
0.000000001
 43
0.0000000001
 40
0.0
 40
0.0
 40
0.0
 40
0.0
 40
1.0
 40
1.0
 40
1.0
 40
1.0
 10
5370.320658563295
 20
529.9180791662598
 30
0.0
 10
5370.360793925709
 20
530.1192727426487
 30
0.0
 10
5370.652593513383
 20
530.1695711367461
 30
0.0
 10
5370.723045716074
 20
530.0991189340548
 30
0.0
  0
LINE
  5
228CD
330
18
100
AcDbEntity
  8
姿図
100
AcDbLine
 10
5364.276906033742
 20
531.3656986614119
 30
0.0
 11
5365.776211589298
 21
531.0423764500406
 31
0.0
  0
LINE
  5
228CE
330
18
100
AcDbEntity
  8
姿図
100
AcDbLine
 10
5364.247536594723
 20
530.3073653280785
 30
0.0
 11
5365.746842150279
 21
529.9838708619327
 31
0.0
  0
LINE
  5
228CF
330
18
100
AcDbEntity
  8
姿図
100
AcDbLine
 10
5364.247536594723
 20
530.8952708727834
 30
0.0
 11
5365.746842150279
 21
530.5717764066376
 31
0.0
  0
SPLINE
  5
228D0
330
18
100
AcDbEntity
  8
姿図
100
AcDbSpline
210
0.0
220
0.0
230
1.0
 70
     8
 71
     3
 72
     8
 73
     4
 74
     0
 42
0.000000001
 43
0.0000000001
 40
0.0
 40
0.0
 40
0.0
 40
0.0
 40
1.0
 40
1.0
 40
1.0
 40
1.0
 10
5362.74814491178
 20
530.6014042278184
 30
0.0
 10
5362.74814491178
 20
530.8451447334605
 30
0.0
 10
5362.971731608829
 20
531.0423764500406
 30
0.0
 10
5363.247942139427
 20
531.0423764500406
 30
0.0
  0
LINE
  5
228D1
330
18
100
AcDbEntity
  8
姿図
100
AcDbLine
 10
5363.247942139428
 20
531.0423764500406
 30
0.0
 11
5363.777108806094
 21
531.0423764500406
 31
0.0
  0
SPLINE
  5
228D2
330
18
100
AcDbEntity
  8
姿図
100
AcDbSpline
210
0.0
220
0.0
230
1.0
 70
     8
 71
     3
 72
     8
 73
     4
 74
     0
 42
0.000000001
 43
0.0000000001
 40
0.0
 40
0.0
 40
0.0
 40
0.0
 40
1.0
 40
1.0
 40
1.0
 40
1.0
 10
5363.777108806094
 20
531.0423764500406
 30
0.0
 10
5363.777108806094
 20
531.1886207534258
 30
0.0
 10
5363.974340522675
 20
531.3069597833737
 30
0.0
 10
5364.218081028317
 20
531.3069597833737
 30
0.0
  0
LINE
  5
228D3
330
18
100
AcDbEntity
  8
姿図
100
AcDbLine
 10
5382.533156033743
 20
545.1241181221326
 30
0.0
 11
5372.478989367076
 21
529.366682005596
 31
0.0
  0
SPLINE
  5
228D4
330
18
100
AcDbEntity
  8
姿図
100
AcDbSpline
210
0.0
220
0.0
230
1.0
 70
     8
 71
     3
 72
     8
 73
     4
 74
     0
 42
0.000000001
 43
0.0000000001
 40
0.0
 40
0.0
 40
0.0
 40
0.0
 40
0.9866995420590119
 40
0.9866995420590119
 40
0.9866995420590119
 40
0.9866995420590119
 10
5386.787848959089
 20
535.5737105429225
 30
0.0
 10
5386.381805663246
 20
537.2560962959174
 30
0.0
 10
5385.059767970809
 20
539.9116632066257
 30
0.0
 10
5382.648774622363
 20
542.2840048045396
 30
0.0
  0
SPLINE
  5
228D5
330
18
100
AcDbEntity
  8
姿図
100
AcDbSpline
210
0.0
220
0.0
230
1.0
 70
     8
 71
     3
 72
     8
 73
     4
 74
     0
 42
0.000000001
 43
0.0000000001
 40
0.0
 40
0.0
 40
0.0
 40
0.0
 40
1.0
 40
1.0
 40
1.0
 40
1.0
 10
5386.082293403534
 20
530.219515393183
 30
0.0
 10
5387.746963542423
 20
534.0559737265162
 30
0.0
 10
5384.7263038202
 20
539.4137862265161
 30
0.0
 10
5382.289932292422
 20
541.2658695598498
 30
0.0
  0
SPLINE
  5
228D6
330
18
100
AcDbEntity
  8
姿図
100
AcDbSpline
210
0.0
220
0.0
230
1.0
 70
     8
 71
     3
 72
     8
 73
     4
 74
     0
 42
0.000000001
 43
0.0000000001
 40
33.0
 40
33.0
 40
33.0
 40
33.0
 40
34.0
 40
34.0
 40
34.0
 40
34.0
 10
5393.750559191294
 20
551.7200118124538
 30
0.0
 10
5393.784665636606
 20
550.7273075481307
 30
0.0
 10
5391.682985135305
 20
543.1195893135387
 30
0.0
 10
5387.189202583221
 20
536.3717669122802
 30
0.0
  0
TEXT
  5
22945
330
18
100
AcDbEntity
  8
文字
100
AcDbText
 10
5315.654467185908
 20
475.9515389575981
 30
0.0
 40
6.5
  1
SX-B1050D/E11/WC,NC
 41
0.9000000000000001
100
AcDbText
  0
ENDSEC
  0
SECTION
  2
OBJECTS
  0
DICTIONARY
  5
C
330
0
100
AcDbDictionary
281
     1
  3
ACAD_GROUP
350
D
  3
ACAD_IMAGE_VARS
350
22A28
  3
ACAD_LAYOUT
350
40CB
  3
ACAD_MLINESTYLE
350
E
  3
ACAD_PLOTSETTINGS
350
40CC
  3
ACAD_PLOTSTYLENAME
350
40C9
  3
ACAD_SCALELIST
350
187F6
  3
AcDbVariableDictionary
350
6377
  3
APPDATA
350
22A27
  3
DWGPROPS
350
22A4C
  0
DICTIONARY
  5
188D2
330
2
100
AcDbDictionary
280
     1
281
     1
  3
ACAD_LAYERFILTERS
360
19B4E
  3
ACAD_LAYERSTATES
360
188D3
  0
DICTIONARY
  5
1881E
330
F
100
AcDbDictionary
280
     1
281
     1
  3
ADSK_XREC_LAYER_RECONCILED
360
1881F
  0
DICTIONARY
  5
18826
330
4C
100
AcDbDictionary
280
     1
281
     1
  3
ADSK_XREC_LAYER_RECONCILED
360
18827
  0
DICTIONARY
  5
18828
330
4D
100
AcDbDictionary
280
     1
281
     1
  3
ADSK_XREC_LAYER_RECONCILED
360
18829
  0
DICTIONARY
  5
1882C
330
40D4
100
AcDbDictionary
280
     1
281
     1
  3
ADSK_XREC_LAYER_RECONCILED
360
1882D
  0
DICTIONARY
  5
9FD5
330
18
100
AcDbDictionary
280
     1
281
     1
  3
ACAD_SORTENTS
360
22083
  0
DICTIONARY
  5
D
102
{ACAD_REACTORS
330
C
102
}
330
C
100
AcDbDictionary
281
     1
  0
RASTERVARIABLES
  5
22A28
102
{ACAD_REACTORS
330
C
102
}
330
C
100
AcDbRasterVariables
 90
        0
 70
     1
 71
     1
 72
     0
  0
DICTIONARY
  5
40CB
102
{ACAD_REACTORS
330
C
102
}
330
C
100
AcDbDictionary
281
     1
  3
Model
350
40CD
  3
ﾚｲｱｳﾄ1
350
40CE
  0
DICTIONARY
  5
E
102
{ACAD_REACTORS
330
C
102
}
330
C
100
AcDbDictionary
281
     1
  3
STANDARD
350
1B
  0
DICTIONARY
  5
40CC
102
{ACAD_REACTORS
330
C
102
}
330
C
100
AcDbDictionary
281
     1
  0
ACDBDICTIONARYWDFLT
  5
40C9
102
{ACAD_REACTORS
330
C
102
}
330
C
100
AcDbDictionary
281
     1
  3
Normal
350
40CA
100
AcDbDictionaryWithDefault
340
40CA
  0
DICTIONARY
  5
187F6
102
{ACAD_REACTORS
330
C
102
}
330
C
100
AcDbDictionary
281
     1
  3
A0
350
187F7
  3
A1
350
187F8
  3
A2
350
187F9
  3
A3
350
187FA
  3
A4
350
187FB
  3
A5
350
187FC
  3
A6
350
187FD
  3
A7
350
187FE
  3
A8
350
187FF
  3
A9
350
18800
  3
B0
350
18801
  3
B1
350
18802
  3
B2
350
18803
  3
B3
350
18804
  3
B4
350
18805
  3
B5
350
18806
  3
B6
350
18807
  3
B7
350
18808
  3
B8
350
18809
  3
B9
350
1880A
  3
C0
350
1880B
  3
C1
350
1880C
  3
C2
350
1880D
  3
C3
350
1880E
  3
C4
350
1880F
  3
C5
350
18810
  3
C6
350
18811
  3
C7
350
18812
  3
C8
350
18813
  3
C9
350
18814
  3
D0
350
18815
  3
D1
350
18816
  3
D2
350
18817
  0
DICTIONARY
  5
6377
102
{ACAD_REACTORS
330
C
102
}
330
C
100
AcDbDictionary
281
     1
  3
DIMASSOC
350
73F2
  3
INDEXCTL
350
1887B
  3
PROJECTNAME
350
13E53
  3
SORTENTS
350
6378
  0
DICTIONARY
  5
22A27
102
{ACAD_REACTORS
330
C
102
}
330
C
100
AcDbDictionary
281
     1
  0
XRECORD
  5
22A4C
102
{ACAD_REACTORS
330
C
102
}
330
C
100
AcDbXrecord
280
     1
  1
DWGPROPS COOKIE
  2

  3

  4

  6

  7

  8
SPAX
  9

300
=
301
=
302
=
303
=
304
=
305
=
306
=
307
=
308
=
309
=
 40
0.0
 41
2449505.547222222
 42
2456821.226006528
  1

 90
        0
  0
DICTIONARY
  5
19B4E
102
{ACAD_REACTORS
330
188D2
102
}
330
188D2
100
AcDbDictionary
281
     1
  0
DICTIONARY
  5
188D3
102
{ACAD_REACTORS
330
188D2
102
}
330
188D2
100
AcDbDictionary
281
     1
  0
XRECORD
  5
1881F
102
{ACAD_REACTORS
330
1881E
102
}
330
1881E
100
AcDbXrecord
280
     1
290
     1
  0
XRECORD
  5
18827
102
{ACAD_REACTORS
330
18826
102
}
330
18826
100
AcDbXrecord
280
     1
290
     1
  0
XRECORD
  5
18829
102
{ACAD_REACTORS
330
18828
102
}
330
18828
100
AcDbXrecord
280
     1
290
     1
  0
XRECORD
  5
1882D
102
{ACAD_REACTORS
330
1882C
102
}
330
1882C
100
AcDbXrecord
280
     1
290
     1
  0
SORTENTSTABLE
  5
22083
102
{ACAD_REACTORS
330
9FD5
102
}
330
9FD5
100
AcDbSortentsTable
330
18
331
0
  5
14E96
  0
LAYOUT
  5
40CD
102
{ACAD_REACTORS
330
40CB
102
}
330
40CB
100
AcDbPlotSettings
  1

  2
JUST PDF 2
  4
A4
  6
CUT1
 40
3.174999952316284
 41
3.174999952316284
 42
3.175003051757812
 43
3.17498779296875
 44
209.8886566162109
 45
297.0530090332031
 46
14.27171755861536
 47
9.855173074625839
 48
5326.798166696063
 49
73.60157307428858
140
5676.788603685875
141
615.5869233516214
142
1.0
143
2.0
 70
 11956
 72
     1
 73
     0
 74
     4
  7
spax form.ctb
 75
    17
147
0.5
148
-5326.798166696063
149
-73.60157307428858
100
AcDbLayout
  1
Model
 70
     1
 71
     0
 10
0.0
 20
0.0
 11
12.0
 21
9.0
 12
0.0
 22
0.0
 32
0.0
 14
5315.654467185908
 24
474.8682056242648
 34
0.0
 15
5424.854467185908
 25
560.65287492342
 35
0.0
146
0.0
 13
0.0
 23
0.0
 33
0.0
 16
1.0
 26
0.0
 36
0.0
 17
0.0
 27
1.0
 37
0.0
 76
     0
330
18
331
220A1
1001
ACAD_PSEXT
1000
JUST PDF 2
1000
JUST PDF 2
1000
JUST PDF 2 Port:
1000

1070
     0
  0
LAYOUT
  5
40CE
102
{ACAD_REACTORS
330
40CB
102
}
330
40CB
100
AcDbPlotSettings
  1

  2
なし
  4

  6

 40
0.0
 41
0.0
 42
0.0
 43
0.0
 44
0.0
 45
0.0
 46
0.0
 47
0.0
 48
0.0
 49
0.0
140
0.0
141
0.0
142
1.0
143
1.0
 70
   688
 72
     0
 73
     0
 74
     5
  7
spax form.ctb
 75
    16
147
1.0
148
0.0
149
0.0
100
AcDbLayout
  1
ﾚｲｱｳﾄ1
 70
     0
 71
     1
 10
0.0
 20
0.0
 11
12.0
 21
9.0
 12
0.0
 22
0.0
 32
0.0
 14
1.000000000000000E+20
 24
1.000000000000000E+20
 34
1.000000000000000E+20
 15
-1.000000000000000E+20
 25
-1.000000000000000E+20
 35
-1.000000000000000E+20
146
0.0
 13
0.0
 23
0.0
 33
0.0
 16
1.0
 26
0.0
 36
0.0
 17
0.0
 27
1.0
 37
0.0
 76
     0
330
15
  0
MLINESTYLE
  5
1B
102
{ACAD_REACTORS
330
E
102
}
330
E
100
AcDbMlineStyle
  2
STANDARD
 70
     0
  3

 62
     0
 51
90.0
 52
90.0
 71
     2
 49
0.5
 62
   256
  6
BYLAYER
 49
-0.5
 62
   256
  6
BYLAYER
  0
ACDBPLACEHOLDER
  5
40CA
102
{ACAD_REACTORS
330
40C9
102
}
330
40C9
  0
SCALE
  5
187F7
102
{ACAD_REACTORS
330
187F6
102
}
330
187F6
100
AcDbScale
 70
     0
300
1:1
140
1.0
141
1.0
290
     1
1001
ACAD
1000
AcRTDxfName
1000
SCALE
1000
AcRTDxfName
1000
SCALE
1000
AcRTDxfName
1000
SCALE
1000
AcRTDxfName
1000
SCALE
1000
AcRTDxfName
1000
SCALE
1000
AcRTDxfName
1000
SCALE
1000
AcRTDxfName
1000
SCALE
  0
SCALE
  5
187F8
102
{ACAD_REACTORS
330
187F6
102
}
330
187F6
100
AcDbScale
 70
     0
300
1:2
140
1.0
141
2.0
290
     0
1001
ACAD
1000
AcRTDxfName
1000
SCALE
1000
AcRTDxfName
1000
SCALE
1000
AcRTDxfName
1000
SCALE
1000
AcRTDxfName
1000
SCALE
1000
AcRTDxfName
1000
SCALE
1000
AcRTDxfName
1000
SCALE
1000
AcRTDxfName
1000
SCALE
  0
SCALE
  5
187F9
102
{ACAD_REACTORS
330
187F6
102
}
330
187F6
100
AcDbScale
 70
     0
300
1:4
140
1.0
141
4.0
290
     0
1001
ACAD
1000
AcRTDxfName
1000
SCALE
1000
AcRTDxfName
1000
SCALE
1000
AcRTDxfName
1000
SCALE
1000
AcRTDxfName
1000
SCALE
1000
AcRTDxfName
1000
SCALE
1000
AcRTDxfName
1000
SCALE
1000
AcRTDxfName
1000
SCALE
  0
SCALE
  5
187FA
102
{ACAD_REACTORS
330
187F6
102
}
330
187F6
100
AcDbScale
 70
     0
300
1:5
140
1.0
141
5.0
290
     0
1001
ACAD
1000
AcRTDxfName
1000
SCALE
1000
AcRTDxfName
1000
SCALE
1000
AcRTDxfName
1000
SCALE
1000
AcRTDxfName
1000
SCALE
1000
AcRTDxfName
1000
SCALE
1000
AcRTDxfName
1000
SCALE
1000
AcRTDxfName
1000
SCALE
  0
SCALE
  5
187FB
102
{ACAD_REACTORS
330
187F6
102
}
330
187F6
100
AcDbScale
 70
     0
300
1:8
140
1.0
141
8.0
290
     0
1001
ACAD
1000
AcRTDxfName
1000
SCALE
1000
AcRTDxfName
1000
SCALE
1000
AcRTDxfName
1000
SCALE
1000
AcRTDxfName
1000
SCALE
1000
AcRTDxfName
1000
SCALE
1000
AcRTDxfName
1000
SCALE
1000
AcRTDxfName
1000
SCALE
  0
SCALE
  5
187FC
102
{ACAD_REACTORS
330
187F6
102
}
330
187F6
100
AcDbScale
 70
     0
300
1:10
140
1.0
141
10.0
290
     0
1001
ACAD
1000
AcRTDxfName
1000
SCALE
1000
AcRTDxfName
1000
SCALE
1000
AcRTDxfName
1000
SCALE
1000
AcRTDxfName
1000
SCALE
1000
AcRTDxfName
1000
SCALE
1000
AcRTDxfName
1000
SCALE
1000
AcRTDxfName
1000
SCALE
  0
SCALE
  5
187FD
102
{ACAD_REACTORS
330
187F6
102
}
330
187F6
100
AcDbScale
 70
     0
300
1:16
140
1.0
141
16.0
290
     0
1001
ACAD
1000
AcRTDxfName
1000
SCALE
1000
AcRTDxfName
1000
SCALE
1000
AcRTDxfName
1000
SCALE
1000
AcRTDxfName
1000
SCALE
1000
AcRTDxfName
1000
SCALE
1000
AcRTDxfName
1000
SCALE
1000
AcRTDxfName
1000
SCALE
  0
SCALE
  5
187FE
102
{ACAD_REACTORS
330
187F6
102
}
330
187F6
100
AcDbScale
 70
     0
300
1:20
140
1.0
141
20.0
290
     0
1001
ACAD
1000
AcRTDxfName
1000
SCALE
1000
AcRTDxfName
1000
SCALE
1000
AcRTDxfName
1000
SCALE
1000
AcRTDxfName
1000
SCALE
1000
AcRTDxfName
1000
SCALE
1000
AcRTDxfName
1000
SCALE
1000
AcRTDxfName
1000
SCALE
  0
SCALE
  5
187FF
102
{ACAD_REACTORS
330
187F6
102
}
330
187F6
100
AcDbScale
 70
     0
300
1:30
140
1.0
141
30.0
290
     0
1001
ACAD
1000
AcRTDxfName
1000
SCALE
1000
AcRTDxfName
1000
SCALE
1000
AcRTDxfName
1000
SCALE
1000
AcRTDxfName
1000
SCALE
1000
AcRTDxfName
1000
SCALE
1000
AcRTDxfName
1000
SCALE
1000
AcRTDxfName
1000
SCALE
  0
SCALE
  5
18800
102
{ACAD_REACTORS
330
187F6
102
}
330
187F6
100
AcDbScale
 70
     0
300
1:40
140
1.0
141
40.0
290
     0
1001
ACAD
1000
AcRTDxfName
1000
SCALE
1000
AcRTDxfName
1000
SCALE
1000
AcRTDxfName
1000
SCALE
1000
AcRTDxfName
1000
SCALE
1000
AcRTDxfName
1000
SCALE
1000
AcRTDxfName
1000
SCALE
1000
AcRTDxfName
1000
SCALE
  0
SCALE
  5
18801
102
{ACAD_REACTORS
330
187F6
102
}
330
187F6
100
AcDbScale
 70
     0
300
1:50
140
1.0
141
50.0
290
     0
1001
ACAD
1000
AcRTDxfName
1000
SCALE
1000
AcRTDxfName
1000
SCALE
1000
AcRTDxfName
1000
SCALE
1000
AcRTDxfName
1000
SCALE
1000
AcRTDxfName
1000
SCALE
1000
AcRTDxfName
1000
SCALE
1000
AcRTDxfName
1000
SCALE
  0
SCALE
  5
18802
102
{ACAD_REACTORS
330
187F6
102
}
330
187F6
100
AcDbScale
 70
     0
300
1:100
140
1.0
141
100.0
290
     0
1001
ACAD
1000
AcRTDxfName
1000
SCALE
1000
AcRTDxfName
1000
SCALE
1000
AcRTDxfName
1000
SCALE
1000
AcRTDxfName
1000
SCALE
1000
AcRTDxfName
1000
SCALE
1000
AcRTDxfName
1000
SCALE
1000
AcRTDxfName
1000
SCALE
  0
SCALE
  5
18803
102
{ACAD_REACTORS
330
187F6
102
}
330
187F6
100
AcDbScale
 70
     0
300
2:1
140
2.0
141
1.0
290
     0
1001
ACAD
1000
AcRTDxfName
1000
SCALE
1000
AcRTDxfName
1000
SCALE
1000
AcRTDxfName
1000
SCALE
1000
AcRTDxfName
1000
SCALE
1000
AcRTDxfName
1000
SCALE
1000
AcRTDxfName
1000
SCALE
1000
AcRTDxfName
1000
SCALE
  0
SCALE
  5
18804
102
{ACAD_REACTORS
330
187F6
102
}
330
187F6
100
AcDbScale
 70
     0
300
4:1
140
4.0
141
1.0
290
     0
1001
ACAD
1000
AcRTDxfName
1000
SCALE
1000
AcRTDxfName
1000
SCALE
1000
AcRTDxfName
1000
SCALE
1000
AcRTDxfName
1000
SCALE
1000
AcRTDxfName
1000
SCALE
1000
AcRTDxfName
1000
SCALE
1000
AcRTDxfName
1000
SCALE
  0
SCALE
  5
18805
102
{ACAD_REACTORS
330
187F6
102
}
330
187F6
100
AcDbScale
 70
     0
300
8:1
140
8.0
141
1.0
290
     0
1001
ACAD
1000
AcRTDxfName
1000
SCALE
1000
AcRTDxfName
1000
SCALE
1000
AcRTDxfName
1000
SCALE
1000
AcRTDxfName
1000
SCALE
1000
AcRTDxfName
1000
SCALE
1000
AcRTDxfName
1000
SCALE
1000
AcRTDxfName
1000
SCALE
  0
SCALE
  5
18806
102
{ACAD_REACTORS
330
187F6
102
}
330
187F6
100
AcDbScale
 70
     0
300
10:1
140
10.0
141
1.0
290
     0
1001
ACAD
1000
AcRTDxfName
1000
SCALE
1000
AcRTDxfName
1000
SCALE
1000
AcRTDxfName
1000
SCALE
1000
AcRTDxfName
1000
SCALE
1000
AcRTDxfName
1000
SCALE
1000
AcRTDxfName
1000
SCALE
1000
AcRTDxfName
1000
SCALE
  0
SCALE
  5
18807
102
{ACAD_REACTORS
330
187F6
102
}
330
187F6
100
AcDbScale
 70
     0
300
100:1
140
100.0
141
1.0
290
     0
1001
ACAD
1000
AcRTDxfName
1000
SCALE
1000
AcRTDxfName
1000
SCALE
1000
AcRTDxfName
1000
SCALE
1000
AcRTDxfName
1000
SCALE
1000
AcRTDxfName
1000
SCALE
1000
AcRTDxfName
1000
SCALE
1000
AcRTDxfName
1000
SCALE
  0
SCALE
  5
18808
102
{ACAD_REACTORS
330
187F6
102
}
330
187F6
100
AcDbScale
 70
     0
300
1/128" = 1'-0"
140
0.0078125
141
12.0
290
     0
1001
ACAD
1000
AcRTDxfName
1000
SCALE
1000
AcRTDxfName
1000
SCALE
1000
AcRTDxfName
1000
SCALE
1000
AcRTDxfName
1000
SCALE
1000
AcRTDxfName
1000
SCALE
1000
AcRTDxfName
1000
SCALE
1000
AcRTDxfName
1000
SCALE
  0
SCALE
  5
18809
102
{ACAD_REACTORS
330
187F6
102
}
330
187F6
100
AcDbScale
 70
     0
300
1/64" = 1'-0"
140
0.015625
141
12.0
290
     0
1001
ACAD
1000
AcRTDxfName
1000
SCALE
1000
AcRTDxfName
1000
SCALE
1000
AcRTDxfName
1000
SCALE
1000
AcRTDxfName
1000
SCALE
1000
AcRTDxfName
1000
SCALE
1000
AcRTDxfName
1000
SCALE
1000
AcRTDxfName
1000
SCALE
  0
SCALE
  5
1880A
102
{ACAD_REACTORS
330
187F6
102
}
330
187F6
100
AcDbScale
 70
     0
300
1/32" = 1'-0"
140
0.03125
141
12.0
290
     0
1001
ACAD
1000
AcRTDxfName
1000
SCALE
1000
AcRTDxfName
1000
SCALE
1000
AcRTDxfName
1000
SCALE
1000
AcRTDxfName
1000
SCALE
1000
AcRTDxfName
1000
SCALE
1000
AcRTDxfName
1000
SCALE
1000
AcRTDxfName
1000
SCALE
  0
SCALE
  5
1880B
102
{ACAD_REACTORS
330
187F6
102
}
330
187F6
100
AcDbScale
 70
     0
300
1/16" = 1'-0"
140
0.0625
141
12.0
290
     0
1001
ACAD
1000
AcRTDxfName
1000
SCALE
1000
AcRTDxfName
1000
SCALE
1000
AcRTDxfName
1000
SCALE
1000
AcRTDxfName
1000
SCALE
1000
AcRTDxfName
1000
SCALE
1000
AcRTDxfName
1000
SCALE
1000
AcRTDxfName
1000
SCALE
  0
SCALE
  5
1880C
102
{ACAD_REACTORS
330
187F6
102
}
330
187F6
100
AcDbScale
 70
     0
300
3/32" = 1'-0"
140
0.09375
141
12.0
290
     0
1001
ACAD
1000
AcRTDxfName
1000
SCALE
1000
AcRTDxfName
1000
SCALE
1000
AcRTDxfName
1000
SCALE
1000
AcRTDxfName
1000
SCALE
1000
AcRTDxfName
1000
SCALE
1000
AcRTDxfName
1000
SCALE
1000
AcRTDxfName
1000
SCALE
  0
SCALE
  5
1880D
102
{ACAD_REACTORS
330
187F6
102
}
330
187F6
100
AcDbScale
 70
     0
300
1/8" = 1'-0"
140
0.125
141
12.0
290
     0
1001
ACAD
1000
AcRTDxfName
1000
SCALE
1000
AcRTDxfName
1000
SCALE
1000
AcRTDxfName
1000
SCALE
1000
AcRTDxfName
1000
SCALE
1000
AcRTDxfName
1000
SCALE
1000
AcRTDxfName
1000
SCALE
1000
AcRTDxfName
1000
SCALE
  0
SCALE
  5
1880E
102
{ACAD_REACTORS
330
187F6
102
}
330
187F6
100
AcDbScale
 70
     0
300
3/16" = 1'-0"
140
0.1875
141
12.0
290
     0
1001
ACAD
1000
AcRTDxfName
1000
SCALE
1000
AcRTDxfName
1000
SCALE
1000
AcRTDxfName
1000
SCALE
1000
AcRTDxfName
1000
SCALE
1000
AcRTDxfName
1000
SCALE
1000
AcRTDxfName
1000
SCALE
1000
AcRTDxfName
1000
SCALE
  0
SCALE
  5
1880F
102
{ACAD_REACTORS
330
187F6
102
}
330
187F6
100
AcDbScale
 70
     0
300
1/4" = 1'-0"
140
0.25
141
12.0
290
     0
1001
ACAD
1000
AcRTDxfName
1000
SCALE
1000
AcRTDxfName
1000
SCALE
1000
AcRTDxfName
1000
SCALE
1000
AcRTDxfName
1000
SCALE
1000
AcRTDxfName
1000
SCALE
1000
AcRTDxfName
1000
SCALE
1000
AcRTDxfName
1000
SCALE
  0
SCALE
  5
18810
102
{ACAD_REACTORS
330
187F6
102
}
330
187F6
100
AcDbScale
 70
     0
300
3/8" = 1'-0"
140
0.375
141
12.0
290
     0
1001
ACAD
1000
AcRTDxfName
1000
SCALE
1000
AcRTDxfName
1000
SCALE
1000
AcRTDxfName
1000
SCALE
1000
AcRTDxfName
1000
SCALE
1000
AcRTDxfName
1000
SCALE
1000
AcRTDxfName
1000
SCALE
1000
AcRTDxfName
1000
SCALE
  0
SCALE
  5
18811
102
{ACAD_REACTORS
330
187F6
102
}
330
187F6
100
AcDbScale
 70
     0
300
1/2" = 1'-0"
140
0.5
141
12.0
290
     0
1001
ACAD
1000
AcRTDxfName
1000
SCALE
1000
AcRTDxfName
1000
SCALE
1000
AcRTDxfName
1000
SCALE
1000
AcRTDxfName
1000
SCALE
1000
AcRTDxfName
1000
SCALE
1000
AcRTDxfName
1000
SCALE
1000
AcRTDxfName
1000
SCALE
  0
SCALE
  5
18812
102
{ACAD_REACTORS
330
187F6
102
}
330
187F6
100
AcDbScale
 70
     0
300
3/4" = 1'-0"
140
0.75
141
12.0
290
     0
1001
ACAD
1000
AcRTDxfName
1000
SCALE
1000
AcRTDxfName
1000
SCALE
1000
AcRTDxfName
1000
SCALE
1000
AcRTDxfName
1000
SCALE
1000
AcRTDxfName
1000
SCALE
1000
AcRTDxfName
1000
SCALE
1000
AcRTDxfName
1000
SCALE
  0
SCALE
  5
18813
102
{ACAD_REACTORS
330
187F6
102
}
330
187F6
100
AcDbScale
 70
     0
300
1" = 1'-0"
140
1.0
141
12.0
290
     0
1001
ACAD
1000
AcRTDxfName
1000
SCALE
1000
AcRTDxfName
1000
SCALE
1000
AcRTDxfName
1000
SCALE
1000
AcRTDxfName
1000
SCALE
1000
AcRTDxfName
1000
SCALE
1000
AcRTDxfName
1000
SCALE
1000
AcRTDxfName
1000
SCALE
  0
SCALE
  5
18814
102
{ACAD_REACTORS
330
187F6
102
}
330
187F6
100
AcDbScale
 70
     0
300
1-1/2" = 1'-0"
140
1.5
141
12.0
290
     0
1001
ACAD
1000
AcRTDxfName
1000
SCALE
1000
AcRTDxfName
1000
SCALE
1000
AcRTDxfName
1000
SCALE
1000
AcRTDxfName
1000
SCALE
1000
AcRTDxfName
1000
SCALE
1000
AcRTDxfName
1000
SCALE
1000
AcRTDxfName
1000
SCALE
  0
SCALE
  5
18815
102
{ACAD_REACTORS
330
187F6
102
}
330
187F6
100
AcDbScale
 70
     0
300
3" = 1'-0"
140
3.0
141
12.0
290
     0
1001
ACAD
1000
AcRTDxfName
1000
SCALE
1000
AcRTDxfName
1000
SCALE
1000
AcRTDxfName
1000
SCALE
1000
AcRTDxfName
1000
SCALE
1000
AcRTDxfName
1000
SCALE
1000
AcRTDxfName
1000
SCALE
1000
AcRTDxfName
1000
SCALE
  0
SCALE
  5
18816
102
{ACAD_REACTORS
330
187F6
102
}
330
187F6
100
AcDbScale
 70
     0
300
6" = 1'-0"
140
6.0
141
12.0
290
     0
1001
ACAD
1000
AcRTDxfName
1000
SCALE
1000
AcRTDxfName
1000
SCALE
1000
AcRTDxfName
1000
SCALE
1000
AcRTDxfName
1000
SCALE
1000
AcRTDxfName
1000
SCALE
1000
AcRTDxfName
1000
SCALE
1000
AcRTDxfName
1000
SCALE
  0
SCALE
  5
18817
102
{ACAD_REACTORS
330
187F6
102
}
330
187F6
100
AcDbScale
 70
     0
300
1'-0" = 1'-0"
140
12.0
141
12.0
290
     0
1001
ACAD
1000
AcRTDxfName
1000
SCALE
1000
AcRTDxfName
1000
SCALE
1000
AcRTDxfName
1000
SCALE
1000
AcRTDxfName
1000
SCALE
1000
AcRTDxfName
1000
SCALE
1000
AcRTDxfName
1000
SCALE
1000
AcRTDxfName
1000
SCALE
  0
DICTIONARYVAR
  5
73F2
102
{ACAD_REACTORS
330
6377
102
}
330
6377
100
DictionaryVariables
280
     0
  1
1
  0
DICTIONARYVAR
  5
1887B
102
{ACAD_REACTORS
330
6377
102
}
330
6377
100
DictionaryVariables
280
     0
  1
0
  0
DICTIONARYVAR
  5
13E53
102
{ACAD_REACTORS
330
6377
102
}
330
6377
100
DictionaryVariables
280
     0
  1

  0
DICTIONARYVAR
  5
6378
102
{ACAD_REACTORS
330
6377
102
}
330
6377
100
DictionaryVariables
280
     0
  1
96
  0
ENDSEC
  0
EOF
