  0
SECTION
  2
HEADER
  9
$ACADVER
  1
AC1015
  9
$ACADMAINTVER
 70
     6
  9
$DWGCODEPAGE
  3
ANSI_932
  9
$INSBASE
 10
0.0
 20
0.0
 30
0.0
  9
$EXTMIN
 10
3808.74624414223
 20
-121.9496093524891
 30
0.0
  9
$EXTMAX
 10
3915.78624414223
 20
-36.97779812934803
 30
0.0
  9
$LIMMIN
 10
0.0
 20
0.0
  9
$LIMMAX
 10
420.0
 20
297.0
  9
$ORTHOMODE
 70
     1
  9
$REGENMODE
 70
     1
  9
$FILLMODE
 70
     1
  9
$QTEXTMODE
 70
     0
  9
$MIRRTEXT
 70
     1
  9
$LTSCALE
 40
5.0
  9
$ATTMODE
 70
     0
  9
$TEXTSIZE
 40
3.5
  9
$TRACEWID
 40
1.0
  9
$TEXTSTYLE
  7
STANDARD
  9
$CLAYER
  8
寸法線
  9
$CELTYPE
  6
BYLAYER
  9
$CECOLOR
 62
   256
  9
$CELTSCALE
 40
1.0
  9
$DISPSILH
 70
     0
  9
$DIMSCALE
 40
1.0
  9
$DIMASZ
 40
1.5
  9
$DIMEXO
 40
1.5
  9
$DIMDLI
 40
0.38
  9
$DIMRND
 40
0.0
  9
$DIMDLE
 40
0.0
  9
$DIMEXE
 40
1.0
  9
$DIMTP
 40
0.0
  9
$DIMTM
 40
0.0
  9
$DIMTXT
 40
2.500000000000003
  9
$DIMCEN
 40
0.0
  9
$DIMTSZ
 40
0.0
  9
$DIMTOL
 70
     0
  9
$DIMLIM
 70
     0
  9
$DIMTIH
 70
     0
  9
$DIMTOH
 70
     0
  9
$DIMSE1
 70
     0
  9
$DIMSE2
 70
     0
  9
$DIMTAD
 70
     3
  9
$DIMZIN
 70
     8
  9
$DIMBLK
  1

  9
$DIMASO
 70
     1
  9
$DIMSHO
 70
     0
  9
$DIMPOST
  1

  9
$DIMAPOST
  1

  9
$DIMALT
 70
     0
  9
$DIMALTD
 70
     0
  9
$DIMALTF
 40
25.4
  9
$DIMLFAC
 40
1.0
  9
$DIMTOFL
 70
     0
  9
$DIMTVP
 40
0.0
  9
$DIMTIX
 70
     0
  9
$DIMSOXD
 70
     0
  9
$DIMSAH
 70
     1
  9
$DIMBLK1
  1
OPEN
  9
$DIMBLK2
  1
OPEN
  9
$DIMSTYLE
  2
STANDARD
  9
$DIMCLRD
 70
     8
  9
$DIMCLRE
 70
     8
  9
$DIMCLRT
 70
   256
  9
$DIMTFAC
 40
1.0
  9
$DIMGAP
 40
1.0
  9
$DIMJUST
 70
     0
  9
$DIMSD1
 70
     0
  9
$DIMSD2
 70
     0
  9
$DIMTOLJ
 70
     1
  9
$DIMTZIN
 70
     0
  9
$DIMALTZ
 70
     0
  9
$DIMALTTZ
 70
     0
  9
$DIMUPT
 70
     0
  9
$DIMDEC
 70
     2
  9
$DIMTDEC
 70
     2
  9
$DIMALTU
 70
     2
  9
$DIMALTTD
 70
     0
  9
$DIMTXSTY
  7
STANDARD
  9
$DIMAUNIT
 70
     0
  9
$DIMADEC
 70
     2
  9
$DIMALTRND
 40
0.0
  9
$DIMAZIN
 70
     2
  9
$DIMDSEP
 70
    46
  9
$DIMATFIT
 70
     3
  9
$DIMFRAC
 70
     0
  9
$DIMLDRBLK
  1

  9
$DIMLUNIT
 70
     2
  9
$DIMLWD
 70
    -2
  9
$DIMLWE
 70
    -2
  9
$DIMTMOVE
 70
     0
  9
$LUNITS
 70
     2
  9
$LUPREC
 70
     2
  9
$SKETCHINC
 40
0.1
  9
$FILLETRAD
 40
0.0
  9
$AUNITS
 70
     0
  9
$AUPREC
 70
     1
  9
$MENU
  1
FM
  9
$ELEVATION
 40
0.0
  9
$PELEVATION
 40
0.0
  9
$THICKNESS
 40
0.0
  9
$LIMCHECK
 70
     0
  9
$CHAMFERA
 40
0.0
  9
$CHAMFERB
 40
0.0
  9
$CHAMFERC
 40
0.0
  9
$CHAMFERD
 40
0.0
  9
$SKPOLY
 70
     0
  9
$TDCREATE
 40
2448636.619629629
  9
$TDUCREATE
 40
2448636.244629629
  9
$TDUPDATE
 40
2456821.576546609
  9
$TDUUPDATE
 40
2456821.201546609
  9
$TDINDWG
 40
1.927592662
  9
$TDUSRTIMER
 40
2456821.20130066
  9
$USRTIMER
 70
     1
  9
$ANGBASE
 50
0.0
  9
$ANGDIR
 70
     0
  9
$PDMODE
 70
     3
  9
$PDSIZE
 40
0.0
  9
$PLINEWID
 40
0.0
  9
$SPLFRAME
 70
     0
  9
$SPLINETYPE
 70
     6
  9
$SPLINESEGS
 70
     8
  9
$HANDSEED
  5
168D9
  9
$SURFTAB1
 70
     6
  9
$SURFTAB2
 70
     6
  9
$SURFTYPE
 70
     6
  9
$SURFU
 70
     6
  9
$SURFV
 70
     6
  9
$UCSBASE
  2

  9
$UCSNAME
  2

  9
$UCSORG
 10
0.0
 20
0.0
 30
0.0
  9
$UCSXDIR
 10
1.0
 20
0.0
 30
0.0
  9
$UCSYDIR
 10
0.0
 20
1.0
 30
0.0
  9
$UCSORTHOREF
  2

  9
$UCSORTHOVIEW
 70
     0
  9
$UCSORGTOP
 10
0.0
 20
0.0
 30
0.0
  9
$UCSORGBOTTOM
 10
0.0
 20
0.0
 30
0.0
  9
$UCSORGLEFT
 10
0.0
 20
0.0
 30
0.0
  9
$UCSORGRIGHT
 10
0.0
 20
0.0
 30
0.0
  9
$UCSORGFRONT
 10
0.0
 20
0.0
 30
0.0
  9
$UCSORGBACK
 10
0.0
 20
0.0
 30
0.0
  9
$PUCSBASE
  2

  9
$PUCSNAME
  2

  9
$PUCSORG
 10
0.0
 20
0.0
 30
0.0
  9
$PUCSXDIR
 10
1.0
 20
0.0
 30
0.0
  9
$PUCSYDIR
 10
0.0
 20
1.0
 30
0.0
  9
$PUCSORTHOREF
  2

  9
$PUCSORTHOVIEW
 70
     0
  9
$PUCSORGTOP
 10
0.0
 20
0.0
 30
0.0
  9
$PUCSORGBOTTOM
 10
0.0
 20
0.0
 30
0.0
  9
$PUCSORGLEFT
 10
0.0
 20
0.0
 30
0.0
  9
$PUCSORGRIGHT
 10
0.0
 20
0.0
 30
0.0
  9
$PUCSORGFRONT
 10
0.0
 20
0.0
 30
0.0
  9
$PUCSORGBACK
 10
0.0
 20
0.0
 30
0.0
  9
$USERI1
 70
     0
  9
$USERI2
 70
     0
  9
$USERI3
 70
     0
  9
$USERI4
 70
     0
  9
$USERI5
 70
     0
  9
$USERR1
 40
0.0
  9
$USERR2
 40
0.0
  9
$USERR3
 40
0.0
  9
$USERR4
 40
0.0
  9
$USERR5
 40
0.0
  9
$WORLDVIEW
 70
     0
  9
$SHADEDGE
 70
     3
  9
$SHADEDIF
 70
    70
  9
$TILEMODE
 70
     1
  9
$MAXACTVP
 70
    16
  9
$PINSBASE
 10
0.0
 20
0.0
 30
0.0
  9
$PLIMCHECK
 70
     0
  9
$PEXTMIN
 10
1.000000000000000E+20
 20
1.000000000000000E+20
 30
1.000000000000000E+20
  9
$PEXTMAX
 10
-1.000000000000000E+20
 20
-1.000000000000000E+20
 30
-1.000000000000000E+20
  9
$PLIMMIN
 10
0.0
 20
0.0
  9
$PLIMMAX
 10
0.0
 20
0.0
  9
$UNITMODE
 70
     0
  9
$VISRETAIN
 70
     0
  9
$PLINEGEN
 70
     0
  9
$PSLTSCALE
 70
     0
  9
$TREEDEPTH
 70
  3020
  9
$CMLSTYLE
  2
STANDARD
  9
$CMLJUST
 70
     0
  9
$CMLSCALE
 40
1.0
  9
$PROXYGRAPHICS
 70
     1
  9
$MEASUREMENT
 70
     0
  9
$CELWEIGHT
370
    -1
  9
$ENDCAPS
280
     0
  9
$JOINSTYLE
280
     0
  9
$LWDISPLAY
290
     0
  9
$INSUNITS
 70
     0
  9
$HYPERLINKBASE
  1

  9
$STYLESHEET
  1
spax form.ctb
  9
$XEDIT
290
     1
  9
$CEPSNTYPE
380
     0
  9
$PSTYLEMODE
290
     1
  9
$FINGERPRINTGUID
  2
{BBAEEBA6-8B94-11D3-9160-00E0294F7E09}
  9
$VERSIONGUID
  2
{9C37864C-2E63-435B-B6A5-555580D13511}
  9
$EXTNAMES
290
     1
  9
$PSVPSCALE
 40
0.0
  9
$OLESTARTUP
290
     0
  0
ENDSEC
  0
SECTION
  2
CLASSES
  0
CLASS
  1
LWPOLYLINE
  2
AcDbPolyline
  3
ObjectDBX Classes
 90
        0
280
     0
281
     1
  0
CLASS
  1
ACDBDICTIONARYWDFLT
  2
AcDbDictionaryWithDefault
  3
ObjectDBX Classes
 90
        0
280
     0
281
     0
  0
CLASS
  1
ACDBPLACEHOLDER
  2
AcDbPlaceHolder
  3
ObjectDBX Classes
 90
        0
280
     0
281
     0
  0
CLASS
  1
LAYOUT
  2
AcDbLayout
  3
ObjectDBX Classes
 90
        0
280
     0
281
     0
  0
CLASS
  1
DICTIONARYVAR
  2
AcDbDictionaryVar
  3
ObjectDBX Classes
 90
        0
280
     0
281
     0
  0
CLASS
  1
MATERIAL
  2
AcDbMaterial
  3
ObjectDBX Classes
 90
     1153
280
     0
281
     0
  0
CLASS
  1
VISUALSTYLE
  2
AcDbVisualStyle
  3
ObjectDBX Classes
 90
     4095
280
     0
281
     0
  0
CLASS
  1
TABLESTYLE
  2
AcDbTableStyle
  3
ObjectDBX Classes
 90
     4095
280
     0
281
     0
  0
CLASS
  1
SCALE
  2
AcDbScale
  3
ObjectDBX Classes
 90
     1153
280
     0
281
     0
  0
CLASS
  1
MLEADERSTYLE
  2
AcDbMLeaderStyle
  3
ACDB_MLEADERSTYLE_CLASS
 90
     4095
280
     0
281
     0
  0
CLASS
  1
CELLSTYLEMAP
  2
AcDbCellStyleMap
  3
ObjectDBX Classes
 90
     1152
280
     0
281
     0
  0
CLASS
  1
SORTENTSTABLE
  2
AcDbSortentsTable
  3
ObjectDBX Classes
 90
        0
280
     0
281
     0
  0
CLASS
  1
RASTERVARIABLES
  2
AcDbRasterVariables
  3
ISM
 90
        0
280
     0
281
     0
  0
CLASS
  1
SUN
  2
AcDbSun
  3
SCENEOE
 90
     1153
280
     0
281
     0
  0
ENDSEC
  0
SECTION
  2
TABLES
  0
TABLE
  2
VPORT
  5
8
330
0
100
AcDbSymbolTable
 70
     1
  0
VPORT
  5
15E3F
330
8
100
AcDbSymbolTableRecord
100
AcDbViewportTableRecord
  2
*Active
 70
     0
 10
0.0
 20
0.0
 11
1.0
 21
1.0
 12
3862.26624414223
 22
-79.46370374091855
 13
0.0
 23
0.0
 14
1.0
 24
1.0
 15
20.0
 25
20.0
 16
0.0
 26
0.0
 36
1.0
 17
0.0
 27
0.0
 37
0.0
 40
86.67124744760386
 41
1.731829573934837
 42
50.0
 43
0.0
 44
0.0
 50
0.0
 51
0.0
 71
    16
 72
   100
 73
     1
 74
     0
 75
     0
 76
     0
 77
     0
 78
     0
281
     0
 65
     1
110
0.0
120
0.0
130
0.0
111
1.0
121
0.0
131
0.0
112
0.0
122
1.0
132
0.0
 79
     0
146
0.0
  0
ENDTAB
  0
TABLE
  2
LTYPE
  5
5
330
0
100
AcDbSymbolTable
 70
     5
  0
LTYPE
  5
12
330
5
100
AcDbSymbolTableRecord
100
AcDbLinetypeTableRecord
  2
BYBLOCK
 70
     0
  3

 72
    65
 73
     0
 40
0.0
  0
LTYPE
  5
13
330
5
100
AcDbSymbolTableRecord
100
AcDbLinetypeTableRecord
  2
BYLAYER
 70
     0
  3

 72
    65
 73
     0
 40
0.0
  0
LTYPE
  5
14
330
5
100
AcDbSymbolTableRecord
100
AcDbLinetypeTableRecord
  2
CONTINUOUS
 70
     0
  3
Solid line
 72
    65
 73
     0
 40
0.0
  0
LTYPE
  5
26
330
5
100
AcDbSymbolTableRecord
100
AcDbLinetypeTableRecord
  2
PHANTOM
 70
     0
  3
_____ _ _ _____ _ _ _____ _ _ _____ _ _ ____
 72
    65
 73
     6
 40
2.5
 49
1.25
 74
     0
 49
-0.25
 74
     0
 49
0.25
 74
     0
 49
-0.25
 74
     0
 49
0.25
 74
     0
 49
-0.25
 74
     0
  0
LTYPE
  5
514
330
5
100
AcDbSymbolTableRecord
100
AcDbLinetypeTableRecord
  2
CENTER
 70
     0
  3
Center ____ _ ____ _ ____ _ ____ _ ____ _ ____
 72
    65
 73
     4
 40
2.0
 49
1.25
 74
     0
 49
-0.25
 74
     0
 49
0.25
 74
     0
 49
-0.25
 74
     0
  0
ENDTAB
  0
TABLE
  2
LAYER
  5
2
102
{ACAD_XDICTIONARY
360
11537
102
}
330
0
100
AcDbSymbolTable
 70
    10
  0
LAYER
  5
F
102
{ACAD_XDICTIONARY
360
10AD6
102
}
330
2
100
AcDbSymbolTableRecord
100
AcDbLayerTableRecord
  2
0
 70
     0
 62
     7
  6
CONTINUOUS
370
    -3
390
616
  0
LAYER
  5
34
102
{ACAD_XDICTIONARY
360
10ADA
102
}
330
2
100
AcDbSymbolTableRecord
100
AcDbLayerTableRecord
  2
寸法線
 70
     0
 62
     7
  6
CONTINUOUS
370
    -3
390
616
  0
LAYER
  5
2F4
102
{ACAD_XDICTIONARY
360
10AE2
102
}
330
2
100
AcDbSymbolTableRecord
100
AcDbLayerTableRecord
  2
文字
 70
     0
 62
     7
  6
CONTINUOUS
370
    -3
390
616
  0
LAYER
  5
305
102
{ACAD_XDICTIONARY
360
10AE6
102
}
330
2
100
AcDbSymbolTableRecord
100
AcDbLayerTableRecord
  2
姿図
 70
     0
 62
     8
  6
CONTINUOUS
370
    -3
390
616
  0
ENDTAB
  0
TABLE
  2
STYLE
  5
3
330
0
100
AcDbSymbolTable
 70
     1
  0
STYLE
  5
10
330
3
100
AcDbSymbolTableRecord
100
AcDbTextStyleTableRecord
  2
STANDARD
 70
     0
 40
0.0
 41
1.0
 50
0.0
 71
     0
 42
3.5
  3
MONOTXT
  4
BIGFONT
  0
ENDTAB
  0
TABLE
  2
VIEW
  5
6
330
0
100
AcDbSymbolTable
 70
     0
  0
ENDTAB
  0
TABLE
  2
UCS
  5
7
330
0
100
AcDbSymbolTable
 70
     0
  0
ENDTAB
  0
TABLE
  2
APPID
  5
9
330
0
100
AcDbSymbolTable
 70
     8
  0
APPID
  5
11
330
9
100
AcDbSymbolTableRecord
100
AcDbRegAppTableRecord
  2
ACAD
 70
     0
  0
APPID
  5
E61B
330
9
100
AcDbSymbolTableRecord
100
AcDbRegAppTableRecord
  2
DCO15
 70
     0
  0
APPID
  5
10AD2
330
9
100
AcDbSymbolTableRecord
100
AcDbRegAppTableRecord
  2
ACAD_MLEADERVER
 70
     0
  0
APPID
  5
11534
330
9
100
AcDbSymbolTableRecord
100
AcDbRegAppTableRecord
  2
ACAD_PSEXT
 70
     0
  0
APPID
  5
11535
330
9
100
AcDbSymbolTableRecord
100
AcDbRegAppTableRecord
  2
ACAD_DSTYLE_DIMJAG
 70
     0
  0
APPID
  5
11536
330
9
100
AcDbSymbolTableRecord
100
AcDbRegAppTableRecord
  2
ACAD_DSTYLE_DIMTALN
 70
     0
  0
APPID
  5
11F54
330
9
100
AcDbSymbolTableRecord
100
AcDbRegAppTableRecord
  2
AcadAnnotative
 70
     0
  0
APPID
  5
12971
330
9
100
AcDbSymbolTableRecord
100
AcDbRegAppTableRecord
  2
ACAD_EXEMPT_FROM_CAD_STANDARDS
 70
     0
  0
ENDTAB
  0
TABLE
  2
DIMSTYLE
  5
A
330
0
100
AcDbSymbolTable
 70
     2
100
AcDbDimStyleTable
  0
DIMSTYLE
105
1CC
330
A
100
AcDbSymbolTableRecord
100
AcDbDimStyleTableRecord
  2
STANDARD
 70
     0
 41
1.5
 42
1.5
 44
1.0
 73
     0
 74
     0
 77
     3
 78
     8
 79
     2
140
2.500000000000003
141
0.0
147
1.0
171
     0
173
     1
176
     8
177
     8
271
     2
178
   256
179
     2
271
     2
272
     2
274
     0
340
10
341
608
343
608
344
608
  0
ENDTAB
  0
TABLE
  2
BLOCK_RECORD
  5
1
330
0
100
AcDbSymbolTable
 70
    51
  0
BLOCK_RECORD
  5
18
102
{ACAD_XDICTIONARY
360
13480
102
}
330
1
100
AcDbSymbolTableRecord
100
AcDbBlockTableRecord
  2
*MODEL_SPACE
340
619
  0
BLOCK_RECORD
  5
15
330
1
100
AcDbSymbolTableRecord
100
AcDbBlockTableRecord
  2
*PAPER_SPACE
340
61A
  0
BLOCK_RECORD
  5
608
330
1
100
AcDbSymbolTableRecord
100
AcDbBlockTableRecord
  2
_OPEN
340
0
102
{BLKREFS
331
507B
331
507C
331
5085
331
5086
331
508E
331
508F
331
5098
331
5099
331
FE67
331
FE68
331
10986
331
10987
331
10990
331
10991
331
10999
331
1099A
331
109BA
331
109BB
331
10A4B
331
10A4C
331
114E6
331
114E7
331
114EF
331
114F0
331
114F9
331
114FA
331
11502
331
11503
331
1150C
331
1150D
331
11F1F
331
11F20
331
11F28
331
11F29
331
11F32
331
11F33
331
11F3B
331
11F3C
331
11F45
331
11F46
331
12931
331
12932
331
1293A
331
1293B
331
12944
331
12945
331
1294D
331
1294E
331
12956
331
12957
331
133D8
331
133D9
331
133E1
331
133E2
331
133EB
331
133EC
331
133F4
331
133F5
331
133FD
331
133FE
331
148AF
331
148B0
331
148B8
331
148B9
331
148C1
331
148C2
331
148CA
331
148CB
331
15349
331
1534A
331
1535B
331
1535C
331
15366
331
15367
331
153D6
331
153D7
331
15DF9
331
15DFA
331
15E02
331
15E03
331
15E17
331
15E18
331
16848
331
16849
331
16851
331
16852
331
1685A
331
1685B
331
1688A
331
1688B
102
}
  0
ENDTAB
  0
ENDSEC
  0
SECTION
  2
BLOCKS
  0
BLOCK
  5
39
330
18
100
AcDbEntity
  8
0
100
AcDbBlockBegin
  2
*MODEL_SPACE
 70
     0
 10
0.0
 20
0.0
 30
0.0
  3
*MODEL_SPACE
  1
*MODEL_SPACE
  0
ENDBLK
  5
3A
330
18
100
AcDbEntity
  8
0
100
AcDbBlockEnd
  0
BLOCK
  5
37
330
15
100
AcDbEntity
 67
     1
  8
0
100
AcDbBlockBegin
  2
*PAPER_SPACE
 70
     0
 10
0.0
 20
0.0
 30
0.0
  3
*PAPER_SPACE
  1
*PAPER_SPACE
  0
ENDBLK
  5
38
330
15
100
AcDbEntity
 67
     1
  8
0
100
AcDbBlockEnd
  0
BLOCK
  5
609
330
608
100
AcDbEntity
  8
0
100
AcDbBlockBegin
  2
_OPEN
 70
     0
 10
0.0
 20
0.0
 30
0.0
  3
_OPEN
  1
_OPEN
  0
LINE
  5
60A
330
608
100
AcDbEntity
  8
0
  6
ByBlock
 62
     0
100
AcDbLine
 10
-1.0
 20
0.1666666666666667
 30
0.0
 11
0.0
 21
0.0
 31
0.0
  0
LINE
  5
60B
330
608
100
AcDbEntity
  8
0
  6
ByBlock
 62
     0
100
AcDbLine
 10
0.0
 20
0.0
 30
0.0
 11
-1.0
 21
-0.1666666666666667
 31
0.0
  0
LINE
  5
60C
330
608
100
AcDbEntity
  8
0
  6
ByBlock
 62
     0
100
AcDbLine
 10
0.0
 20
0.0
 30
0.0
 11
-1.0
 21
0.0
 31
0.0
  0
ENDBLK
  5
60D
330
608
100
AcDbEntity
  8
0
100
AcDbBlockEnd
  0
ENDSEC
  0
SECTION
  2
ENTITIES
  0
TEXT
  5
32B5
330
18
100
AcDbEntity
  8
文字
100
AcDbText
 10
1374.596143903034
 20
555.4379644620986
 30
0.0
 40
3.44
  1

100
AcDbText
  0
TEXT
  5
3E99
330
18
100
AcDbEntity
  8
文字
100
AcDbText
 10
1374.596143903034
 20
1131.857473480285
 30
0.0
 40
3.44
  1

100
AcDbText
  0
TEXT
  5
5BEB
330
18
100
AcDbEntity
  8
文字
100
AcDbText
 10
1374.596143903034
 20
-20.9815445560879
 30
0.0
 40
3.44
  1

100
AcDbText
  0
TEXT
  5
ABCE
330
18
100
AcDbEntity
  8
文字
100
AcDbText
 10
1374.596143903034
 20
1714.758882494316
 30
0.0
 40
3.44
  1

100
AcDbText
  0
TEXT
  5
15F3B
330
18
100
AcDbEntity
  8
文字
100
AcDbText
 10
3808.74624414223
 20
-121.9496093524891
 30
0.0
 40
7.199999999999999
  1
SX-B1316D/WC、NC
100
AcDbText
  0
SPLINE
  5
163EA
330
18
100
AcDbEntity
  8
姿図
100
AcDbSpline
210
0.0
220
0.0
230
1.0
 70
     8
 71
     3
 72
     8
 73
     4
 74
     0
 42
0.000000001
 43
0.0000000001
 40
0.0
 40
0.0
 40
0.0
 40
0.0
 40
1.0
 40
1.0
 40
1.0
 40
1.0
 10
3868.423354853368
 20
-54.06132126167233
 30
0.0
 10
3868.224917353368
 20
-54.25988278510988
 30
0.0
 10
3867.550105829931
 20
-54.87503903510981
 30
0.0
 10
3865.863263056493
 20
-55.47035153510967
 30
0.0
  0
SPLINE
  5
163EB
330
18
100
AcDbEntity
  8
姿図
100
AcDbSpline
210
0.0
220
0.0
230
1.0
 70
     8
 71
     3
 72
     8
 73
     4
 74
     0
 42
0.000000001
 43
0.0000000001
 40
1.0
 40
1.0
 40
1.0
 40
1.0
 40
2.0
 40
2.0
 40
2.0
 40
2.0
 10
3865.863263056493
 20
-55.47035153510967
 30
0.0
 10
3865.843419306493
 20
-55.72844430854741
 30
0.0
 10
3865.863263056493
 20
-56.89934958198489
 30
0.0
 10
3865.863263056493
 20
-56.95888083198486
 30
0.0
  0
SPLINE
  5
163EC
330
18
100
AcDbEntity
  8
姿図
100
AcDbSpline
210
0.0
220
0.0
230
1.0
 70
     8
 71
     3
 72
     8
 73
     4
 74
     0
 42
0.000000001
 43
0.0000000001
 40
2.0
 40
2.0
 40
2.0
 40
2.0
 40
3.0
 40
3.0
 40
3.0
 40
3.0
 10
3865.863263056493
 20
-56.95888083198486
 30
0.0
 10
3866.101388056493
 20
-56.97872458198469
 30
0.0
 10
3868.621792353368
 20
-57.8320058319847
 30
0.0
 10
3868.879761103368
 20
-58.01059958198482
 30
0.0
  0
SPLINE
  5
163ED
330
18
100
AcDbEntity
  8
姿図
100
AcDbSpline
210
0.0
220
0.0
230
1.0
 70
     8
 71
     3
 72
    11
 73
     7
 74
     0
 42
0.000000001
 43
0.0000000001
 40
3.0
 40
3.0
 40
3.0
 40
3.0
 40
4.0
 40
4.0
 40
4.0
 40
5.0
 40
5.0
 40
5.0
 40
5.0
 10
3868.879761103368
 20
-58.01059958198482
 30
0.0
 10
3868.959260126805
 20
-57.81216208198487
 30
0.0
 10
3868.939292353368
 20
-57.11763083198491
 30
0.0
 10
3868.721011103368
 20
-55.86735055854717
 30
0.0
 10
3868.502729853368
 20
-54.61707028510989
 30
0.0
 10
3868.522573603368
 20
-54.51772751167221
 30
0.0
 10
3868.423354853368
 20
-54.06132126167233
 30
0.0
  0
SPLINE
  5
163EE
330
18
100
AcDbEntity
  8
姿図
100
AcDbSpline
210
0.0
220
0.0
230
1.0
 70
     8
 71
     3
 72
     8
 73
     4
 74
     0
 42
0.000000001
 43
0.0000000001
 40
0.0
 40
0.0
 40
0.0
 40
0.0
 40
1.0
 40
1.0
 40
1.0
 40
1.0
 10
3851.673369501806
 20
-53.50557223823455
 30
0.0
 10
3851.514557490087
 20
-53.96210251167224
 30
0.0
 10
3850.939026728368
 20
-56.87950583198483
 30
0.0
 10
3850.958870478368
 20
-57.7923183319848
 30
0.0
  0
SPLINE
  5
163EF
330
18
100
AcDbEntity
  8
姿図
100
AcDbSpline
210
0.0
220
0.0
230
1.0
 70
     8
 71
     3
 72
     8
 73
     4
 74
     0
 42
0.000000001
 43
0.0000000001
 40
1.0
 40
1.0
 40
1.0
 40
1.0
 40
2.0
 40
2.0
 40
2.0
 40
2.0
 10
3850.958870478368
 20
-57.7923183319848
 30
0.0
 10
3851.375651240087
 20
-57.65341208198458
 30
0.0
 10
3852.764837763524
 20
-57.15731833198481
 30
0.0
 10
3854.650242060399
 20
-56.72075583198477
 30
0.0
  0
SPLINE
  5
163F0
330
18
100
AcDbEntity
  8
姿図
100
AcDbSpline
210
0.0
220
0.0
230
1.0
 70
     8
 71
     3
 72
     8
 73
     4
 74
     0
 42
0.000000001
 43
0.0000000001
 40
2.0
 40
2.0
 40
2.0
 40
2.0
 40
3.0
 40
3.0
 40
3.0
 40
3.0
 10
3854.650242060399
 20
-56.72075583198477
 30
0.0
 10
3854.6105545604
 20
-56.28419333198474
 30
0.0
 10
3854.6105545604
 20
-55.33144528510968
 30
0.0
 10
3854.6105545604
 20
-55.33144528510968
 30
0.0
  0
SPLINE
  5
163F1
330
18
100
AcDbEntity
  8
姿図
100
AcDbSpline
210
0.0
220
0.0
230
1.0
 70
     8
 71
     3
 72
     8
 73
     4
 74
     0
 42
0.000000001
 43
0.0000000001
 40
3.0
 40
3.0
 40
3.0
 40
3.0
 40
4.0
 40
4.0
 40
4.0
 40
4.0
 10
3854.6105545604
 20
-55.33144528510968
 30
0.0
 10
3854.6105545604
 20
-55.33144528510968
 30
0.0
 10
3854.015118036962
 20
-55.21238278510975
 30
0.0
 10
3853.082399775243
 20
-54.63691403510995
 30
0.0
  0
SPLINE
  5
163F2
330
18
100
AcDbEntity
  8
姿図
100
AcDbSpline
210
0.0
220
0.0
230
1.0
 70
     8
 71
     3
 72
     8
 73
     4
 74
     0
 42
0.000000001
 43
0.0000000001
 40
4.0
 40
4.0
 40
4.0
 40
4.0
 40
5.0
 40
5.0
 40
5.0
 40
5.0
 10
3853.082399775243
 20
-54.63691403510995
 30
0.0
 10
3852.348057001806
 20
-54.14069626167236
 30
0.0
 10
3851.911494501805
 20
-53.78350876167235
 30
0.0
 10
3851.673369501806
 20
-53.50557223823455
 30
0.0
  0
SPLINE
  5
163F3
330
18
100
AcDbEntity
  8
姿図
100
AcDbSpline
210
0.0
220
0.0
230
1.0
 70
    24
 71
     3
 72
     8
 73
     4
 74
     0
 42
0.000000001
 43
0.0000000001
 40
4.0
 40
4.0
 40
4.0
 40
4.0
 40
5.0
 40
5.0
 40
5.0
 40
5.0
 10
3841.359084345555
 20
-73.74297262885977
 30
0.0
 10
3841.359084345555
 20
-73.74297262885977
 30
0.0
 10
3841.36975036118
 20
-72.37028122260983
 30
0.0
 10
3841.36975036118
 20
-72.37028122260983
 30
0.0
  0
SPLINE
  5
163F4
330
18
100
AcDbEntity
  8
姿図
100
AcDbSpline
210
0.0
220
0.0
230
1.0
 70
     8
 71
     3
 72
    14
 73
    10
 74
     0
 42
0.000000001
 43
0.0000000001
 40
14.0
 40
14.0
 40
14.0
 40
14.0
 40
15.0
 40
15.0
 40
15.0
 40
16.0
 40
16.0
 40
16.0
 40
17.0
 40
17.0
 40
17.0
 40
17.0
 10
3841.435358759618
 20
-70.27106051948465
 30
0.0
 10
3841.435358759618
 20
-69.90357907417217
 30
0.0
 10
3841.540344599462
 20
-69.22107809760985
 30
0.0
 10
3841.540344599462
 20
-69.03739938667229
 30
0.0
 10
3841.540344599462
 20
-68.85372067573473
 30
0.0
 10
3841.697854365087
 20
-68.6436249726097
 30
0.0
 10
3841.907826044774
 20
-68.6436249726097
 30
0.0
 10
3842.117797724462
 20
-68.6436249726097
 30
0.0
 10
3842.38029332993
 20
-68.6436249726097
 30
0.0
 10
3842.38029332993
 20
-68.6436249726097
 30
0.0
  0
SPLINE
  5
163F5
330
18
100
AcDbEntity
  8
姿図
100
AcDbSpline
210
0.0
220
0.0
230
1.0
 70
     8
 71
     3
 72
     8
 73
     4
 74
     0
 42
0.000000001
 43
0.0000000001
 40
17.0
 40
17.0
 40
17.0
 40
17.0
 40
18.0
 40
18.0
 40
18.0
 40
18.0
 10
3842.38029332993
 20
-68.6436249726097
 30
0.0
 10
3842.380231318211
 20
-68.6436249726097
 30
0.0
 10
3842.537803095555
 20
-68.40748434760997
 30
0.0
 10
3842.800236689305
 20
-68.38119137885985
 30
0.0
  0
SPLINE
  5
163F6
330
18
100
AcDbEntity
  8
姿図
100
AcDbSpline
210
0.0
220
0.0
230
1.0
 70
     8
 71
     3
 72
    11
 73
     7
 74
     0
 42
0.000000001
 43
0.0000000001
 40
18.0
 40
18.0
 40
18.0
 40
18.0
 40
19.0
 40
19.0
 40
19.0
 40
20.0
 40
20.0
 40
20.0
 40
20.0
 10
3842.800236689305
 20
-68.38119137885985
 30
0.0
 10
3843.062732294774
 20
-68.35489841010997
 30
0.0
 10
3843.088963251806
 20
-68.61745602729741
 30
0.0
 10
3843.088963251806
 20
-68.74867282417233
 30
0.0
 10
3843.088963251806
 20
-68.87988962104725
 30
0.0
 10
3843.010270380712
 20
-72.6596279022973
 30
0.0
 10
3843.010270380712
 20
-72.6596279022973
 30
0.0
  0
SPLINE
  5
163F7
330
18
100
AcDbEntity
  8
姿図
100
AcDbSpline
210
0.0
220
0.0
230
1.0
 70
     8
 71
     3
 72
     8
 73
     4
 74
     0
 42
0.000000001
 43
0.0000000001
 40
20.0
 40
20.0
 40
20.0
 40
20.0
 40
21.0
 40
21.0
 40
21.0
 40
21.0
 10
3843.010270380712
 20
-72.6596279022973
 30
0.0
 10
3843.010270380712
 20
-72.6596279022973
 30
0.0
 10
3843.482675654149
 20
-73.13203317573459
 30
0.0
 10
3843.535137568212
 20
-73.39459079292226
 30
0.0
  0
SPLINE
  5
163F8
330
18
100
AcDbEntity
  8
姿図
100
AcDbSpline
210
0.0
220
0.0
230
1.0
 70
     8
 71
     3
 72
     8
 73
     4
 74
     0
 42
0.000000001
 43
0.0000000001
 40
21.0
 40
21.0
 40
21.0
 40
21.0
 40
22.0
 40
22.0
 40
22.0
 40
22.0
 10
3843.535137568212
 20
-73.39459079292226
 30
0.0
 10
3843.587723505711
 20
-73.6570243866721
 30
0.0
 10
3843.561779351629
 20
-75.70679104132148
 30
0.0
 10
3843.561779351629
 20
-75.70679104132148
 30
0.0
  0
SPLINE
  5
163F9
330
18
100
AcDbEntity
  8
姿図
100
AcDbSpline
210
0.0
220
0.0
230
1.0
 70
     8
 71
     3
 72
     8
 73
     4
 74
     0
 42
0.000000001
 43
0.0000000001
 40
22.0
 40
22.0
 40
22.0
 40
22.0
 40
23.0
 40
23.0
 40
23.0
 40
23.0
 10
3843.561779351629
 20
-75.70679104132148
 30
0.0
 10
3843.561779351629
 20
-75.70679104132148
 30
0.0
 10
3844.08635973618
 20
-75.23199801948465
 30
0.0
 10
3844.453903193212
 20
-74.99573337104732
 30
0.0
  0
SPLINE
  5
163FA
330
18
100
AcDbEntity
  8
姿図
100
AcDbSpline
210
0.0
220
0.0
230
1.0
 70
     8
 71
     3
 72
     8
 73
     4
 74
     0
 42
0.000000001
 43
0.0000000001
 40
23.0
 40
23.0
 40
23.0
 40
23.0
 40
24.0
 40
24.0
 40
24.0
 40
24.0
 10
3844.453903193212
 20
-74.99573337104732
 30
0.0
 10
3844.821322626805
 20
-74.75946872260977
 30
0.0
 10
3844.873846552587
 20
-74.73317575385988
 30
0.0
 10
3844.97883239243
 20
-74.91685446479721
 30
0.0
  0
SPLINE
  5
163FB
330
18
100
AcDbEntity
  8
姿図
100
AcDbSpline
210
0.0
220
0.0
230
1.0
 70
     8
 71
     3
 72
     8
 73
     4
 74
     0
 42
0.000000001
 43
0.0000000001
 40
24.0
 40
24.0
 40
24.0
 40
24.0
 40
25.0
 40
25.0
 40
25.0
 40
25.0
 10
3844.97883239243
 20
-74.91685446479721
 30
0.0
 10
3845.083818232274
 20
-75.10065719917236
 30
0.0
 10
3845.55628551743
 20
-75.99312985542235
 30
0.0
 10
3845.55628551743
 20
-75.99312985542235
 30
0.0
  0
SPLINE
  5
163FC
330
18
100
AcDbEntity
  8
姿図
100
AcDbSpline
210
0.0
220
0.0
230
1.0
 70
     8
 71
     3
 72
     8
 73
     4
 74
     0
 42
0.000000001
 43
0.0000000001
 40
25.0
 40
25.0
 40
25.0
 40
25.0
 40
26.0
 40
26.0
 40
26.0
 40
26.0
 10
3845.55628551743
 20
-75.99312985542235
 30
0.0
 10
3845.55628551743
 20
-75.99312985542235
 30
0.0
 10
3845.372544794775
 20
-74.99573337104732
 30
0.0
 10
3845.503761591649
 20
-73.6045624726097
 30
0.0
  0
SPLINE
  5
163FD
330
18
100
AcDbEntity
  8
姿図
100
AcDbSpline
210
0.0
220
0.0
230
1.0
 70
     8
 71
     3
 72
     8
 73
     4
 74
     0
 42
0.000000001
 43
0.0000000001
 40
26.0
 40
26.0
 40
26.0
 40
26.0
 40
27.0
 40
27.0
 40
27.0
 40
27.0
 10
3845.503761591649
 20
-73.6045624726097
 30
0.0
 10
3845.5300545604
 20
-72.37090133979734
 30
0.0
 10
3845.5300545604
 20
-72.23968454292242
 30
0.0
 10
3845.503761591649
 20
-71.92466501167235
 30
0.0
  0
SPLINE
  5
163FE
330
18
100
AcDbEntity
  8
姿図
100
AcDbSpline
210
0.0
220
0.0
230
1.0
 70
     8
 71
     3
 72
     8
 73
     4
 74
     0
 42
0.000000001
 43
0.0000000001
 40
27.0
 40
27.0
 40
27.0
 40
27.0
 40
28.0
 40
28.0
 40
28.0
 40
28.0
 10
3845.503761591649
 20
-71.92466501167235
 30
0.0
 10
3845.484289911962
 20
-71.69063278510964
 30
0.0
 10
3845.083818232274
 20
-68.45994626167214
 30
0.0
 10
3845.057587275243
 20
-65.9401620819848
 30
0.0
  0
SPLINE
  5
163FF
330
18
100
AcDbEntity
  8
姿図
100
AcDbSpline
210
0.0
220
0.0
230
1.0
 70
     8
 71
     3
 72
     8
 73
     4
 74
     0
 42
0.000000001
 43
0.0000000001
 40
28.0
 40
28.0
 40
28.0
 40
28.0
 40
29.0
 40
29.0
 40
29.0
 40
29.0
 10
3845.057587275243
 20
-65.9401620819848
 30
0.0
 10
3845.031356318212
 20
-63.42025387885985
 30
0.0
 10
3845.083818232274
 20
-61.60926364448471
 30
0.0
 10
3845.083818232274
 20
-61.60926364448471
 30
0.0
  0
SPLINE
  5
16400
330
18
100
AcDbEntity
  8
姿図
100
AcDbSpline
210
0.0
220
0.0
230
1.0
 70
    24
 71
     3
 72
     8
 73
     4
 74
     0
 42
0.000000001
 43
0.0000000001
 40
29.0
 40
29.0
 40
29.0
 40
29.0
 40
30.0
 40
30.0
 40
30.0
 40
30.0
 10
3845.083818232274
 20
-61.60926364448471
 30
0.0
 10
3845.083818232274
 20
-61.60926364448471
 30
0.0
 10
3844.926308466649
 20
-61.60926364448471
 30
0.0
 10
3844.926308466649
 20
-61.60926364448471
 30
0.0
  0
SPLINE
  5
16401
330
18
100
AcDbEntity
  8
姿図
100
AcDbSpline
210
0.0
220
0.0
230
1.0
 70
    24
 71
     3
 72
     8
 73
     4
 74
     0
 42
0.000000001
 43
0.0000000001
 40
30.0
 40
30.0
 40
30.0
 40
30.0
 40
31.0
 40
31.0
 40
31.0
 40
31.0
 10
3844.926308466649
 20
-61.60926364448471
 30
0.0
 10
3844.926308466649
 20
-61.60926364448471
 30
0.0
 10
3844.926308466649
 20
-60.71679098823495
 30
0.0
 10
3844.926308466649
 20
-60.71679098823495
 30
0.0
  0
SPLINE
  5
16402
330
18
100
AcDbEntity
  8
姿図
100
AcDbSpline
210
0.0
220
0.0
230
1.0
 70
    24
 71
     3
 72
     8
 73
     4
 74
     0
 42
0.000000001
 43
0.0000000001
 40
31.0
 40
31.0
 40
31.0
 40
31.0
 40
32.0
 40
32.0
 40
32.0
 40
32.0
 10
3844.926308466649
 20
-60.71679098823495
 30
0.0
 10
3844.926308466649
 20
-60.71679098823495
 30
0.0
 10
3844.11265270493
 20
-60.61186716010991
 30
0.0
 10
3844.11265270493
 20
-60.61186716010991
 30
0.0
  0
SPLINE
  5
16403
330
18
100
AcDbEntity
  8
姿図
100
AcDbSpline
210
0.0
220
0.0
230
1.0
 70
     8
 71
     3
 72
    14
 73
    10
 74
     0
 42
0.000000001
 43
0.0000000001
 40
32.0
 40
32.0
 40
32.0
 40
32.0
 40
33.0
 40
33.0
 40
33.0
 40
34.0
 40
34.0
 40
34.0
 40
35.0
 40
35.0
 40
35.0
 40
35.0
 10
3844.11265270493
 20
-60.61186716010991
 30
0.0
 10
3844.11265270493
 20
-60.61186716010991
 30
0.0
 10
3844.191407587743
 20
-60.82171481635976
 30
0.0
 10
3843.902681025243
 20
-60.79554587104724
 30
0.0
 10
3843.613954462743
 20
-60.76937692573472
 30
0.0
 10
3843.640185419774
 20
-59.7456874726098
 30
0.0
 10
3843.640185419774
 20
-59.45696091010961
 30
0.0
 10
3843.640185419774
 20
-59.16823434760988
 30
0.0
 10
3843.640185419774
 20
-58.35439255073481
 30
0.0
 10
3843.823864130712
 20
-58.11825192573485
 30
0.0
  0
SPLINE
  5
16404
330
18
100
AcDbEntity
  8
姿図
100
AcDbSpline
210
0.0
220
0.0
230
1.0
 70
     8
 71
     3
 72
     8
 73
     4
 74
     0
 42
0.000000001
 43
0.0000000001
 40
35.0
 40
35.0
 40
35.0
 40
35.0
 40
36.0
 40
36.0
 40
36.0
 40
36.0
 10
3843.823864130712
 20
-58.11825192573485
 30
0.0
 10
3844.007666865086
 20
-57.88211130073466
 30
0.0
 10
3844.165176630711
 20
-57.85581833198478
 30
0.0
 10
3844.165176630711
 20
-58.14454489448474
 30
0.0
  0
SPLINE
  5
16405
330
18
100
AcDbEntity
  8
姿図
100
AcDbSpline
210
0.0
220
0.0
230
1.0
 70
     8
 71
     3
 72
     8
 73
     4
 74
     0
 42
0.000000001
 43
0.0000000001
 40
36.0
 40
36.0
 40
36.0
 40
36.0
 40
37.0
 40
37.0
 40
37.0
 40
37.0
 10
3844.165176630711
 20
-58.14454489448474
 30
0.0
 10
3844.453903193212
 20
-58.11825192573485
 30
0.0
 10
3844.952601435399
 20
-58.11825192573485
 30
0.0
 10
3844.952601435399
 20
-58.11825192573485
 30
0.0
  0
SPLINE
  5
16406
330
18
100
AcDbEntity
  8
姿図
100
AcDbSpline
210
0.0
220
0.0
230
1.0
 70
    24
 71
     3
 72
     8
 73
     4
 74
     0
 42
0.000000001
 43
0.0000000001
 40
37.0
 40
37.0
 40
37.0
 40
37.0
 40
38.0
 40
38.0
 40
38.0
 40
38.0
 10
3844.952601435399
 20
-58.11825192573485
 30
0.0
 10
3844.952601435399
 20
-58.11825192573485
 30
0.0
 10
3845.057587275243
 20
-57.12085544135982
 30
0.0
 10
3845.057587275243
 20
-57.12085544135982
 30
0.0
  0
SPLINE
  5
16407
330
18
100
AcDbEntity
  8
姿図
100
AcDbSpline
210
0.0
220
0.0
230
1.0
 70
     8
 71
     3
 72
     8
 73
     4
 74
     0
 42
0.000000001
 43
0.0000000001
 40
38.0
 40
38.0
 40
38.0
 40
38.0
 40
39.0
 40
39.0
 40
39.0
 40
39.0
 10
3845.057587275243
 20
-57.12085544135982
 30
0.0
 10
3845.057587275243
 20
-57.12085544135982
 30
0.0
 10
3845.55628551743
 20
-57.14714841010971
 30
0.0
 10
3845.661271357274
 20
-57.30453415229715
 30
0.0
  0
SPLINE
  5
16408
330
18
100
AcDbEntity
  8
姿図
100
AcDbSpline
210
0.0
220
0.0
230
1.0
 70
     8
 71
     3
 72
     8
 73
     4
 74
     0
 42
0.000000001
 43
0.0000000001
 40
39.0
 40
39.0
 40
39.0
 40
39.0
 40
40.0
 40
40.0
 40
40.0
 40
40.0
 10
3845.661271357274
 20
-57.30453415229715
 30
0.0
 10
3845.766257197118
 20
-57.46204391792219
 30
0.0
 10
3845.766257197118
 20
-57.12085544135982
 30
0.0
 10
3845.766257197118
 20
-57.12085544135982
 30
0.0
  0
SPLINE
  5
16409
330
18
100
AcDbEntity
  8
姿図
100
AcDbSpline
210
0.0
220
0.0
230
1.0
 70
     8
 71
     3
 72
    11
 73
     7
 74
     0
 42
0.000000001
 43
0.0000000001
 40
40.0
 40
40.0
 40
40.0
 40
40.0
 40
41.0
 40
41.0
 40
41.0
 40
42.0
 40
42.0
 40
42.0
 40
42.0
 10
3845.766257197118
 20
-57.12085544135982
 30
0.0
 10
3845.766257197118
 20
-57.12085544135982
 30
0.0
 10
3845.949997919774
 20
-57.06826950385982
 30
0.0
 10
3845.949997919774
 20
-57.22577926948463
 30
0.0
 10
3845.949997919774
 20
-57.3832890351099
 30
0.0
 10
3845.949997919774
 20
-58.53819528510974
 30
0.0
 10
3845.949997919774
 20
-58.53819528510974
 30
0.0
  0
SPLINE
  5
1640A
330
18
100
AcDbEntity
  8
姿図
100
AcDbSpline
210
0.0
220
0.0
230
1.0
 70
     8
 71
     3
 72
     8
 73
     4
 74
     0
 42
0.000000001
 43
0.0000000001
 40
42.0
 40
42.0
 40
42.0
 40
42.0
 40
43.0
 40
43.0
 40
43.0
 40
43.0
 10
3845.949997919774
 20
-58.53819528510974
 30
0.0
 10
3845.990305536961
 20
-58.52814938667223
 30
0.0
 10
3846.090454462743
 20
-58.39159958198468
 30
0.0
 10
3846.322192255711
 20
-58.49230661323475
 30
0.0
  0
SPLINE
  5
1640B
330
18
100
AcDbEntity
  8
姿図
100
AcDbSpline
210
0.0
220
0.0
230
1.0
 70
     8
 71
     3
 72
     8
 73
     4
 74
     0
 42
0.000000001
 43
0.0000000001
 40
43.0
 40
43.0
 40
43.0
 40
43.0
 40
44.0
 40
44.0
 40
44.0
 40
44.0
 10
3846.322192255711
 20
-58.49230661323475
 30
0.0
 10
3846.554054072118
 20
-58.59326169135977
 30
0.0
 10
3846.64471520493
 20
-58.91572262885973
 30
0.0
 10
3846.765700068212
 20
-59.07695309760982
 30
0.0
  0
SPLINE
  5
1640C
330
18
100
AcDbEntity
  8
姿図
100
AcDbSpline
210
0.0
220
0.0
230
1.0
 70
     8
 71
     3
 72
     8
 73
     4
 74
     0
 42
0.000000001
 43
0.0000000001
 40
44.0
 40
44.0
 40
44.0
 40
44.0
 40
45.0
 40
45.0
 40
45.0
 40
45.0
 10
3846.765700068212
 20
-59.07695309760982
 30
0.0
 10
3846.886622919774
 20
-59.23818356635968
 30
0.0
 10
3846.896730829931
 20
-59.24835348823478
 30
0.0
 10
3846.886622919774
 20
-59.33901462104711
 30
0.0
  0
SPLINE
  5
1640D
330
18
100
AcDbEntity
  8
姿図
100
AcDbSpline
210
0.0
220
0.0
230
1.0
 70
     8
 71
     3
 72
     8
 73
     4
 74
     0
 42
0.000000001
 43
0.0000000001
 40
45.0
 40
45.0
 40
45.0
 40
45.0
 40
46.0
 40
46.0
 40
46.0
 40
46.0
 10
3846.886622919774
 20
-59.33901462104711
 30
0.0
 10
3846.876577021337
 20
-59.4296757538599
 30
0.0
 10
3846.73550036118
 20
-59.51029098823471
 30
0.0
 10
3846.745546259618
 20
-59.58098434760961
 30
0.0
  0
SPLINE
  5
1640E
330
18
100
AcDbEntity
  8
姿図
100
AcDbSpline
210
0.0
220
0.0
230
1.0
 70
     8
 71
     3
 72
     8
 73
     4
 74
     0
 42
0.000000001
 43
0.0000000001
 40
46.0
 40
46.0
 40
46.0
 40
46.0
 40
47.0
 40
47.0
 40
47.0
 40
47.0
 10
3846.745546259618
 20
-59.58098434760961
 30
0.0
 10
3846.755654169774
 20
-59.65142966010978
 30
0.0
 10
3846.70523864243
 20
-60.08476755073468
 30
0.0
 10
3846.70523864243
 20
-60.08476755073468
 30
0.0
  0
SPLINE
  5
1640F
330
18
100
AcDbEntity
  8
姿図
100
AcDbSpline
210
0.0
220
0.0
230
1.0
 70
     8
 71
     3
 72
     8
 73
     4
 74
     0
 42
0.000000001
 43
0.0000000001
 40
47.0
 40
47.0
 40
47.0
 40
47.0
 40
48.0
 40
48.0
 40
48.0
 40
48.0
 10
3846.70523864243
 20
-60.08476755073468
 30
0.0
 10
3846.70523864243
 20
-60.08476755073468
 30
0.0
 10
3846.594361689306
 20
-60.27638376167226
 30
0.0
 10
3846.302038447118
 20
-60.23607614448463
 30
0.0
  0
SPLINE
  5
16410
330
18
100
AcDbEntity
  8
姿図
100
AcDbSpline
210
0.0
220
0.0
230
1.0
 70
    24
 71
     3
 72
     8
 73
     4
 74
     0
 42
0.000000001
 43
0.0000000001
 40
48.0
 40
48.0
 40
48.0
 40
48.0
 40
49.0
 40
49.0
 40
49.0
 40
49.0
 10
3846.302038447118
 20
-60.23607614448463
 30
0.0
 10
3845.880277378288
 20
-60.20303132584843
 30
0.0
 10
3845.880277378288
 20
-60.20303132584843
 30
0.0
 10
3845.880277378288
 20
-60.20303132584843
 30
0.0
  0
SPLINE
  5
16411
330
18
100
AcDbEntity
  8
姿図
100
AcDbSpline
210
0.0
220
0.0
230
1.0
 70
    24
 71
     3
 72
     8
 73
     4
 74
     0
 42
0.000000001
 43
0.0000000001
 40
49.0
 40
49.0
 40
49.0
 40
49.0
 40
50.0
 40
50.0
 40
50.0
 40
50.0
 10
3845.880277378288
 20
-60.20303132584843
 30
0.0
 10
3845.880277378288
 20
-60.20303132584843
 30
0.0
 10
3845.935505808696
 20
-61.17461047179302
 30
0.0
 10
3845.935505808696
 20
-61.17461047179302
 30
0.0
  0
SPLINE
  5
16412
330
18
100
AcDbEntity
  8
姿図
100
AcDbSpline
210
0.0
220
0.0
230
1.0
 70
     8
 71
     3
 72
     8
 73
     4
 74
     0
 42
0.000000001
 43
0.0000000001
 40
50.0
 40
50.0
 40
50.0
 40
50.0
 40
51.0
 40
51.0
 40
51.0
 40
51.0
 10
3845.935505808696
 20
-61.17461047179302
 30
0.0
 10
3845.935505808696
 20
-61.17461047179302
 30
0.0
 10
3846.856423212743
 20
-60.07484567573476
 30
0.0
 10
3847.370376337743
 20
-59.72199899604709
 30
0.0
  0
SPLINE
  5
16413
330
18
100
AcDbEntity
  8
姿図
100
AcDbSpline
210
0.0
220
0.0
230
1.0
 70
     8
 71
     3
 72
     8
 73
     4
 74
     0
 42
0.000000001
 43
0.0000000001
 40
51.0
 40
51.0
 40
51.0
 40
51.0
 40
52.0
 40
52.0
 40
52.0
 40
52.0
 10
3847.370376337743
 20
-59.72199899604709
 30
0.0
 10
3847.229299677587
 20
-59.56076852729723
 30
0.0
 10
3847.219253779149
 20
-59.54055270698461
 30
0.0
 10
3847.219253779149
 20
-59.54055270698461
 30
0.0
  0
SPLINE
  5
16414
330
18
100
AcDbEntity
  8
姿図
100
AcDbSpline
210
0.0
220
0.0
230
1.0
 70
    24
 71
     3
 72
     8
 73
     4
 74
     0
 42
0.000000001
 43
0.0000000001
 40
52.0
 40
52.0
 40
52.0
 40
52.0
 40
53.0
 40
53.0
 40
53.0
 40
53.0
 10
3847.219253779149
 20
-59.54055270698461
 30
0.0
 10
3847.219253779149
 20
-59.54055270698461
 30
0.0
 10
3847.209145868993
 20
-59.08712301948492
 30
0.0
 10
3847.209145868993
 20
-59.08712301948492
 30
0.0
  0
SPLINE
  5
16415
330
18
100
AcDbEntity
  8
姿図
100
AcDbSpline
210
0.0
220
0.0
230
1.0
 70
     8
 71
     3
 72
     8
 73
     4
 74
     0
 42
0.000000001
 43
0.0000000001
 40
53.0
 40
53.0
 40
53.0
 40
53.0
 40
54.0
 40
54.0
 40
54.0
 40
54.0
 10
3847.209145868993
 20
-59.08712301948492
 30
0.0
 10
3847.209145868993
 20
-59.08712301948492
 30
0.0
 10
3847.269607294774
 20
-58.996337863235
 30
0.0
 10
3847.330068720556
 20
-59.05686130073479
 30
0.0
  0
SPLINE
  5
16416
330
18
100
AcDbEntity
  8
姿図
100
AcDbSpline
210
0.0
220
0.0
230
1.0
 70
     8
 71
     3
 72
     8
 73
     4
 74
     0
 42
0.000000001
 43
0.0000000001
 40
54.0
 40
54.0
 40
54.0
 40
54.0
 40
55.0
 40
55.0
 40
55.0
 40
55.0
 10
3847.330068720556
 20
-59.05686130073479
 30
0.0
 10
3847.390592158055
 20
-59.11726071479723
 30
0.0
 10
3847.692899286962
 20
-59.44989157417251
 30
0.0
 10
3847.692899286962
 20
-59.44989157417251
 30
0.0
  0
SPLINE
  5
16417
330
18
100
AcDbEntity
  8
姿図
100
AcDbSpline
210
0.0
220
0.0
230
1.0
 70
    24
 71
     3
 72
     8
 73
     4
 74
     0
 42
0.000000001
 43
0.0000000001
 40
55.0
 40
55.0
 40
55.0
 40
55.0
 40
56.0
 40
56.0
 40
56.0
 40
56.0
 10
3847.692899286962
 20
-59.44989157417251
 30
0.0
 10
3847.692899286962
 20
-59.44989157417251
 30
0.0
 10
3847.803838251805
 20
-59.31879880073473
 30
0.0
 10
3847.803838251805
 20
-59.31879880073473
 30
0.0
  0
SPLINE
  5
16418
330
18
100
AcDbEntity
  8
姿図
100
AcDbSpline
210
0.0
220
0.0
230
1.0
 70
     8
 71
     3
 72
     8
 73
     4
 74
     0
 42
0.000000001
 43
0.0000000001
 40
60.0
 40
60.0
 40
60.0
 40
60.0
 40
61.0
 40
61.0
 40
61.0
 40
61.0
 10
3849.772896357274
 20
-52.38514450385981
 30
0.0
 10
3849.871060908055
 20
-51.36641598823496
 30
0.0
 10
3850.375154169774
 20
-47.86759079292221
 30
0.0
 10
3851.054554560399
 20
-45.28064792182852
 30
0.0
  0
SPLINE
  5
16419
330
18
100
AcDbEntity
  8
姿図
100
AcDbSpline
210
0.0
220
0.0
230
1.0
 70
     8
 71
     3
 72
     8
 73
     4
 74
     0
 42
0.000000001
 43
0.0000000001
 40
61.0
 40
61.0
 40
61.0
 40
61.0
 40
62.0
 40
62.0
 40
62.0
 40
62.0
 10
3851.054554560399
 20
-45.28064792182852
 30
0.0
 10
3851.733954951024
 20
-42.69382907417219
 30
0.0
 10
3852.726948603368
 20
-40.1329931366721
 30
0.0
 10
3852.857545283056
 20
-39.7671860077661
 30
0.0
  0
SPLINE
  5
1641A
330
18
100
AcDbEntity
  8
姿図
100
AcDbSpline
210
0.0
220
0.0
230
1.0
 70
     8
 71
     3
 72
     8
 73
     4
 74
     0
 42
0.000000001
 43
0.0000000001
 40
62.0
 40
62.0
 40
62.0
 40
62.0
 40
63.0
 40
63.0
 40
63.0
 40
63.0
 10
3852.857545283056
 20
-39.7671860077661
 30
0.0
 10
3852.988203974462
 20
-39.40137887885965
 30
0.0
 10
3853.326415888524
 20
-39.36373776557855
 30
0.0
 10
3853.693711298681
 20
-39.32299606635968
 30
0.0
  0
SPLINE
  5
1641B
330
18
100
AcDbEntity
  8
姿図
100
AcDbSpline
210
0.0
220
0.0
230
1.0
 70
     8
 71
     3
 72
     8
 73
     4
 74
     0
 42
0.000000001
 43
0.0000000001
 40
63.0
 40
63.0
 40
63.0
 40
63.0
 40
64.0
 40
64.0
 40
64.0
 40
64.0
 10
3853.693711298681
 20
-39.32299606635968
 30
0.0
 10
3854.16400817368
 20
-39.27065817573464
 30
0.0
 10
3855.052450068211
 20
-39.55814450385981
 30
0.0
 10
3855.20927770493
 20
-39.50586862495345
 30
0.0
  0
SPLINE
  5
1641C
330
18
100
AcDbEntity
  8
姿図
100
AcDbSpline
210
0.0
220
0.0
230
1.0
 70
     8
 71
     3
 72
    14
 73
    10
 74
     0
 42
0.000000001
 43
0.0000000001
 40
64.0
 40
64.0
 40
64.0
 40
64.0
 40
65.0
 40
65.0
 40
65.0
 40
66.0
 40
66.0
 40
66.0
 40
67.0
 40
67.0
 40
67.0
 40
67.0
 10
3855.20927770493
 20
-39.50586862495345
 30
0.0
 10
3855.235384638524
 20
-38.90491305854732
 30
0.0
 10
3855.130894892431
 20
-37.78132272651612
 30
0.0
 10
3855.444426142431
 20
-37.78132272651612
 30
0.0
 10
3855.75795739243
 20
-37.78132272651612
 30
0.0
 10
3855.67957457993
 20
-37.93802633979737
 30
0.0
 10
3855.67957457993
 20
-38.09485397651622
 30
0.0
 10
3855.67957457993
 20
-38.25161960151615
 30
0.0
 10
3855.75795739243
 20
-39.24461325385971
 30
0.0
 10
3855.75795739243
 20
-39.24461325385971
 30
0.0
  0
SPLINE
  5
1641D
330
18
100
AcDbEntity
  8
姿図
100
AcDbSpline
210
0.0
220
0.0
230
1.0
 70
     8
 71
     3
 72
     8
 73
     4
 74
     0
 42
0.000000001
 43
0.0000000001
 40
67.0
 40
67.0
 40
67.0
 40
67.0
 40
68.0
 40
68.0
 40
68.0
 40
68.0
 10
3855.75795739243
 20
-39.24461325385971
 30
0.0
 10
3855.75795739243
 20
-39.24461325385971
 30
0.0
 10
3856.176102411961
 20
-38.8787441132348
 30
0.0
 10
3857.064544306493
 20
-38.51287497260967
 30
0.0
  0
SPLINE
  5
1641E
330
18
100
AcDbEntity
  8
姿図
100
AcDbSpline
210
0.0
220
0.0
230
1.0
 70
     8
 71
     3
 72
    14
 73
    10
 74
     0
 42
0.000000001
 43
0.0000000001
 40
68.0
 40
68.0
 40
68.0
 40
68.0
 40
69.0
 40
69.0
 40
69.0
 40
70.0
 40
70.0
 40
70.0
 40
71.0
 40
71.0
 40
71.0
 40
71.0
 10
3857.064544306493
 20
-38.51287497260967
 30
0.0
 10
3857.090713251805
 20
-38.09485397651622
 30
0.0
 10
3857.038437372899
 20
-37.10186032417221
 30
0.0
 10
3857.325799677586
 20
-37.10186032417221
 30
0.0
 10
3857.613286005711
 20
-37.10186032417221
 30
0.0
 10
3857.561010126806
 20
-37.25868796089105
 30
0.0
 10
3857.561010126806
 20
-37.49383639839118
 30
0.0
 10
3857.561010126806
 20
-37.72904684760977
 30
0.0
 10
3857.5871170604
 20
-38.43455417182838
 30
0.0
 10
3857.5871170604
 20
-38.43455417182838
 30
0.0
  0
SPLINE
  5
1641F
330
18
100
AcDbEntity
  8
姿図
100
AcDbSpline
210
0.0
220
0.0
230
1.0
 70
     8
 71
     3
 72
     8
 73
     4
 74
     0
 42
0.000000001
 43
0.0000000001
 40
71.0
 40
71.0
 40
71.0
 40
71.0
 40
72.0
 40
72.0
 40
72.0
 40
72.0
 10
3857.5871170604
 20
-38.43455417182838
 30
0.0
 10
3857.5871170604
 20
-38.43455417182838
 30
0.0
 10
3858.449452021337
 20
-38.22551266792232
 30
0.0
 10
3859.02430065415
 20
-38.17323678901596
 30
0.0
  0
SPLINE
  5
16420
330
18
100
AcDbEntity
  8
姿図
100
AcDbSpline
210
0.0
220
0.0
230
1.0
 70
     8
 71
     3
 72
     8
 73
     4
 74
     0
 42
0.000000001
 43
0.0000000001
 40
72.0
 40
72.0
 40
72.0
 40
72.0
 40
73.0
 40
73.0
 40
73.0
 40
73.0
 10
3859.02430065415
 20
-38.17323678901596
 30
0.0
 10
3859.02430065415
 20
-37.62449508979728
 30
0.0
 10
3859.050469599461
 20
-37.12802926948473
 30
0.0
 10
3859.050469599461
 20
-37.12802926948473
 30
0.0
  0
SPLINE
  5
16421
330
18
100
AcDbEntity
  8
姿図
100
AcDbSpline
210
0.0
220
0.0
230
1.0
 70
     8
 71
     3
 72
    14
 73
    10
 74
     0
 42
0.000000001
 43
0.0000000001
 40
73.0
 40
73.0
 40
73.0
 40
73.0
 40
74.0
 40
74.0
 40
74.0
 40
75.0
 40
75.0
 40
75.0
 40
76.0
 40
76.0
 40
76.0
 40
76.0
 10
3859.050469599461
 20
-37.12802926948473
 30
0.0
 10
3859.050469599461
 20
-37.12809128120364
 30
0.0
 10
3858.998193720556
 20
-36.8928808319846
 30
0.0
 10
3859.233342158055
 20
-36.8928808319846
 30
0.0
 10
3859.468490595556
 20
-36.8928808319846
 30
0.0
 10
3859.468490595556
 20
-37.02353952339115
 30
0.0
 10
3859.468490595556
 20
-37.1802431366724
 30
0.0
 10
3859.468490595556
 20
-37.33707077339102
 30
0.0
 10
3859.494659540868
 20
-38.17323678901596
 30
0.0
 10
3859.494659540868
 20
-38.17323678901596
 30
0.0
  0
SPLINE
  5
16422
330
18
100
AcDbEntity
  8
姿図
100
AcDbSpline
210
0.0
220
0.0
230
1.0
 70
     8
 71
     3
 72
     8
 73
     4
 74
     0
 42
0.000000001
 43
0.0000000001
 40
76.0
 40
76.0
 40
76.0
 40
76.0
 40
77.0
 40
77.0
 40
77.0
 40
77.0
 10
3859.494659540868
 20
-38.17323678901596
 30
0.0
 10
3859.494659540868
 20
-38.17323678901596
 30
0.0
 10
3860.278611689306
 20
-38.1209609101096
 30
0.0
 10
3860.891584568197
 20
-38.22043544845963
 30
0.0
  0
SPLINE
  5
16423
330
18
100
AcDbEntity
  8
姿図
100
AcDbSpline
210
0.0
220
0.0
230
1.0
 70
     8
 71
     3
 72
     8
 73
     4
 74
     0
 42
0.000000001
 43
0.0000000001
 40
77.0
 40
77.0
 40
77.0
 40
77.0
 40
78.0
 40
78.0
 40
78.0
 40
78.0
 10
3860.891584568197
 20
-38.22043544845963
 30
0.0
 10
3860.879505243993
 20
-37.78132272651612
 30
0.0
 10
3860.905674189306
 20
-37.15413620307856
 30
0.0
 10
3860.905674189306
 20
-37.15413620307856
 30
0.0
  0
SPLINE
  5
16424
330
18
100
AcDbEntity
  8
姿図
100
AcDbSpline
210
0.0
220
0.0
230
1.0
 70
     8
 71
     3
 72
    14
 73
    10
 74
     0
 42
0.000000001
 43
0.0000000001
 40
78.0
 40
78.0
 40
78.0
 40
78.0
 40
79.0
 40
79.0
 40
79.0
 40
80.0
 40
80.0
 40
80.0
 40
81.0
 40
81.0
 40
81.0
 40
81.0
 10
3860.905674189306
 20
-37.15413620307856
 30
0.0
 10
3860.905674189306
 20
-37.15413620307856
 30
0.0
 10
3860.931843134618
 20
-36.91898776557844
 30
0.0
 10
3861.114653681493
 20
-36.91898776557844
 30
0.0
 10
3861.297588251806
 20
-36.91898776557844
 30
0.0
 10
3861.375971064305
 20
-37.10186032417221
 30
0.0
 10
3861.375971064305
 20
-37.25868796089105
 30
0.0
 10
3861.375971064305
 20
-37.41545358589099
 30
0.0
 10
3861.375971064305
 20
-38.25161960151615
 30
0.0
 10
3861.375971064305
 20
-38.25161960151615
 30
0.0
  0
SPLINE
  5
16425
330
18
100
AcDbEntity
  8
姿図
100
AcDbSpline
210
0.0
220
0.0
230
1.0
 70
     8
 71
     3
 72
     8
 73
     4
 74
     0
 42
0.000000001
 43
0.0000000001
 40
81.0
 40
81.0
 40
81.0
 40
81.0
 40
82.0
 40
82.0
 40
82.0
 40
82.0
 10
3861.375971064305
 20
-38.25161960151615
 30
0.0
 10
3861.375971064305
 20
-38.25161960151615
 30
0.0
 10
3862.369026728368
 20
-38.40844723823477
 30
0.0
 10
3862.682557978368
 20
-38.51287497260967
 30
0.0
  0
SPLINE
  5
16426
330
18
100
AcDbEntity
  8
姿図
100
AcDbSpline
210
0.0
220
0.0
230
1.0
 70
     8
 71
     3
 72
    17
 73
    13
 74
     0
 42
0.000000001
 43
0.0000000001
 40
82.0
 40
82.0
 40
82.0
 40
82.0
 40
83.0
 40
83.0
 40
83.0
 40
84.0
 40
84.0
 40
84.0
 40
85.0
 40
85.0
 40
85.0
 40
86.0
 40
86.0
 40
86.0
 40
86.0
 10
3862.682557978368
 20
-38.51287497260967
 30
0.0
 10
3862.760940790868
 20
-37.93802633979737
 30
0.0
 10
3862.760940790868
 20
-37.75521579292229
 30
0.0
 10
3862.760940790868
 20
-37.6506640351098
 30
0.0
 10
3862.760940790868
 20
-37.54611227729708
 30
0.0
 10
3862.682557978368
 20
-37.28479489448489
 30
0.0
 10
3862.996089228368
 20
-37.28479489448489
 30
0.0
 10
3863.309620478368
 20
-37.28479489448489
 30
0.0
 10
3863.205192743993
 20
-37.5200053437037
 30
0.0
 10
3863.205192743993
 20
-37.6506640351098
 30
0.0
 10
3863.205192743993
 20
-37.78132272651612
 30
0.0
 10
3863.231361689305
 20
-38.69580954292212
 30
0.0
 10
3863.231361689305
 20
-38.69580954292212
 30
0.0
  0
SPLINE
  5
16427
330
18
100
AcDbEntity
  8
姿図
100
AcDbSpline
210
0.0
220
0.0
230
1.0
 70
     8
 71
     3
 72
     8
 73
     4
 74
     0
 42
0.000000001
 43
0.0000000001
 40
86.0
 40
86.0
 40
86.0
 40
86.0
 40
87.0
 40
87.0
 40
87.0
 40
87.0
 10
3863.231361689305
 20
-38.69580954292212
 30
0.0
 10
3863.231361689305
 20
-38.69580954292212
 30
0.0
 10
3864.276507197118
 20
-39.11395456245339
 30
0.0
 10
3864.485486689306
 20
-39.37520993354735
 30
0.0
  0
SPLINE
  5
16428
330
18
100
AcDbEntity
  8
姿図
100
AcDbSpline
210
0.0
220
0.0
230
1.0
 70
     8
 71
     3
 72
     8
 73
     4
 74
     0
 42
0.000000001
 43
0.0000000001
 40
87.0
 40
87.0
 40
87.0
 40
87.0
 40
88.0
 40
88.0
 40
88.0
 40
88.0
 10
3864.485486689306
 20
-39.37520993354735
 30
0.0
 10
3864.590038447118
 20
-38.85263717964096
 30
0.0
 10
3864.616207392431
 20
-38.17323678901596
 30
0.0
 10
3864.616207392431
 20
-38.17323678901596
 30
0.0
  0
SPLINE
  5
16429
330
18
100
AcDbEntity
  8
姿図
100
AcDbSpline
210
0.0
220
0.0
230
1.0
 70
     8
 71
     3
 72
    11
 73
     7
 74
     0
 42
0.000000001
 43
0.0000000001
 40
88.0
 40
88.0
 40
88.0
 40
88.0
 40
89.0
 40
89.0
 40
89.0
 40
90.0
 40
90.0
 40
90.0
 40
90.0
 10
3864.616207392431
 20
-38.17323678901596
 30
0.0
 10
3864.616207392431
 20
-38.17323678901596
 30
0.0
 10
3864.642376337743
 20
-37.96419528510989
 30
0.0
 10
3864.799017939305
 20
-37.96419528510989
 30
0.0
 10
3864.955907587743
 20
-37.96419528510989
 30
0.0
 10
3864.981952509618
 20
-38.06868503120347
 30
0.0
 10
3865.00812145493
 20
-38.22551266792232
 30
0.0
  0
SPLINE
  5
1642A
330
18
100
AcDbEntity
  8
姿図
100
AcDbSpline
210
0.0
220
0.0
230
1.0
 70
     8
 71
     3
 72
     8
 73
     4
 74
     0
 42
0.000000001
 43
0.0000000001
 40
90.0
 40
90.0
 40
90.0
 40
90.0
 40
91.0
 40
91.0
 40
91.0
 40
91.0
 10
3865.00812145493
 20
-38.22551266792232
 30
0.0
 10
3865.034290400243
 20
-38.38227829292225
 30
0.0
 10
3865.08650426743
 20
-39.6888031952659
 30
0.0
 10
3865.08650426743
 20
-39.6888031952659
 30
0.0
  0
SPLINE
  5
1642B
330
18
100
AcDbEntity
  8
姿図
100
AcDbSpline
210
0.0
220
0.0
230
1.0
 70
     8
 71
     3
 72
     8
 73
     4
 74
     0
 42
0.000000001
 43
0.0000000001
 40
91.0
 40
91.0
 40
91.0
 40
91.0
 40
92.0
 40
92.0
 40
92.0
 40
92.0
 10
3865.08650426743
 20
-39.6888031952659
 30
0.0
 10
3865.08650426743
 20
-39.6888031952659
 30
0.0
 10
3866.157942743993
 20
-39.50586862495345
 30
0.0
 10
3866.52368786118
 20
-39.47976169135961
 30
0.0
  0
SPLINE
  5
1642C
330
18
100
AcDbEntity
  8
姿図
100
AcDbSpline
210
0.0
220
0.0
230
1.0
 70
     8
 71
     3
 72
     8
 73
     4
 74
     0
 42
0.000000001
 43
0.0000000001
 40
92.0
 40
92.0
 40
92.0
 40
92.0
 40
93.0
 40
93.0
 40
93.0
 40
93.0
 10
3866.52368786118
 20
-39.47976169135961
 30
0.0
 10
3866.889432978368
 20
-39.45359274604732
 30
0.0
 10
3867.386022822118
 20
-39.50586862495345
 30
0.0
 10
3867.56895739243
 20
-40.08071725776597
 30
0.0
  0
SPLINE
  5
1642D
330
18
100
AcDbEntity
  8
姿図
100
AcDbSpline
210
0.0
220
0.0
230
1.0
 70
     8
 71
     3
 72
     8
 73
     4
 74
     0
 42
0.000000001
 43
0.0000000001
 40
93.0
 40
93.0
 40
93.0
 40
93.0
 40
94.0
 40
94.0
 40
94.0
 40
94.0
 10
3867.56895739243
 20
-40.08071725776597
 30
0.0
 10
3867.751767939305
 20
-40.6556279022974
 30
0.0
 10
3869.00614098618
 20
-44.39220602729745
 30
0.0
 10
3869.55482067368
 20
-47.68465622260976
 30
0.0
  0
SPLINE
  5
1642E
330
18
100
AcDbEntity
  8
姿図
100
AcDbSpline
210
0.0
220
0.0
230
1.0
 70
     8
 71
     3
 72
     8
 73
     4
 74
     0
 42
0.000000001
 43
0.0000000001
 40
94.0
 40
94.0
 40
94.0
 40
94.0
 40
95.0
 40
95.0
 40
95.0
 40
95.0
 10
3869.55482067368
 20
-47.68465622260976
 30
0.0
 10
3870.103500361181
 20
-50.97698239448471
 30
0.0
 10
3870.390986689305
 20
-52.83237301948463
 30
0.0
 10
3870.390986689305
 20
-53.04147653510961
 30
0.0
  0
SPLINE
  5
1642F
330
18
100
AcDbEntity
  8
姿図
100
AcDbSpline
210
0.0
220
0.0
230
1.0
 70
    24
 71
     3
 72
     8
 73
     4
 74
     0
 42
0.000000001
 43
0.0000000001
 40
98.0
 40
98.0
 40
98.0
 40
98.0
 40
99.0
 40
99.0
 40
99.0
 40
99.0
 10
3871.840696650243
 20
-59.60430075385977
 30
0.0
 10
3871.840696650243
 20
-59.60430075385977
 30
0.0
 10
3872.152615595555
 20
-59.81948141792225
 30
0.0
 10
3872.152615595555
 20
-59.81948141792225
 30
0.0
  0
SPLINE
  5
16430
330
18
100
AcDbEntity
  8
姿図
100
AcDbSpline
210
0.0
220
0.0
230
1.0
 70
    24
 71
     3
 72
     8
 73
     4
 74
     0
 42
0.000000001
 43
0.0000000001
 40
99.0
 40
99.0
 40
99.0
 40
99.0
 40
100.0
 40
100.0
 40
100.0
 40
100.0
 10
3872.152615595555
 20
-59.81948141792225
 30
0.0
 10
3872.152615595555
 20
-59.81948141792225
 30
0.0
 10
3872.478921259618
 20
-59.50681833198485
 30
0.0
 10
3872.478921259618
 20
-59.50681833198485
 30
0.0
  0
SPLINE
  5
16431
330
18
100
AcDbEntity
  8
姿図
100
AcDbSpline
210
0.0
220
0.0
230
1.0
 70
     8
 71
     3
 72
    11
 73
     7
 74
     0
 42
0.000000001
 43
0.0000000001
 40
100.0
 40
100.0
 40
100.0
 40
100.0
 40
101.0
 40
101.0
 40
101.0
 40
102.0
 40
102.0
 40
102.0
 40
102.0
 10
3872.478921259618
 20
-59.50681833198485
 30
0.0
 10
3872.478921259618
 20
-59.50681833198485
 30
0.0
 10
3872.601332392431
 20
-59.4795331757349
 30
0.0
 10
3872.601332392431
 20
-59.57478317573475
 30
0.0
 10
3872.601332392431
 20
-59.67003317573483
 30
0.0
 10
3872.560528681493
 20
-59.99621481635984
 30
0.0
 10
3872.560528681493
 20
-59.99621481635984
 30
0.0
  0
SPLINE
  5
16432
330
18
100
AcDbEntity
  8
姿図
100
AcDbSpline
210
0.0
220
0.0
230
1.0
 70
    24
 71
     3
 72
     8
 73
     4
 74
     0
 42
0.000000001
 43
0.0000000001
 40
102.0
 40
102.0
 40
102.0
 40
102.0
 40
103.0
 40
103.0
 40
103.0
 40
103.0
 10
3872.560528681493
 20
-59.99621481635984
 30
0.0
 10
3872.560528681493
 20
-59.99621481635984
 30
0.0
 10
3872.438241572118
 20
-60.06417966010974
 30
0.0
 10
3872.438241572118
 20
-60.06417966010974
 30
0.0
  0
SPLINE
  5
16433
330
18
100
AcDbEntity
  8
姿図
100
AcDbSpline
210
0.0
220
0.0
230
1.0
 70
    24
 71
     3
 72
     8
 73
     4
 74
     0
 42
0.000000001
 43
0.0000000001
 40
103.0
 40
103.0
 40
103.0
 40
103.0
 40
104.0
 40
104.0
 40
104.0
 40
104.0
 10
3872.438241572118
 20
-60.06417966010974
 30
0.0
 10
3872.438241572118
 20
-60.06417966010974
 30
0.0
 10
3872.927638056493
 20
-60.54005758979713
 30
0.0
 10
3872.927638056493
 20
-60.54005758979713
 30
0.0
  0
SPLINE
  5
16434
330
18
100
AcDbEntity
  8
姿図
100
AcDbSpline
210
0.0
220
0.0
230
1.0
 70
     8
 71
     3
 72
     8
 73
     4
 74
     0
 42
0.000000001
 43
0.0000000001
 40
104.0
 40
104.0
 40
104.0
 40
104.0
 40
105.0
 40
105.0
 40
105.0
 40
105.0
 10
3872.927638056493
 20
-60.54005758979713
 30
0.0
 10
3872.927638056493
 20
-60.54005758979713
 30
0.0
 10
3872.87319176743
 20
-60.1865907929224
 30
0.0
 10
3872.968441767431
 20
-60.07782223823472
 30
0.0
  0
SPLINE
  5
16435
330
18
100
AcDbEntity
  8
姿図
100
AcDbSpline
210
0.0
220
0.0
230
1.0
 70
     8
 71
     3
 72
    11
 73
     7
 74
     0
 42
0.000000001
 43
0.0000000001
 40
105.0
 40
105.0
 40
105.0
 40
105.0
 40
106.0
 40
106.0
 40
106.0
 40
107.0
 40
107.0
 40
107.0
 40
107.0
 10
3872.968441767431
 20
-60.07782223823472
 30
0.0
 10
3872.846030634618
 20
-60.02349997260978
 30
0.0
 10
3872.818869501805
 20
-59.95553512885965
 30
0.0
 10
3872.818869501805
 20
-59.8602851288598
 30
0.0
 10
3872.818869501805
 20
-59.76515915229709
 30
0.0
 10
3873.063567743993
 20
-59.49317575385965
 30
0.0
 10
3873.063567743993
 20
-59.49317575385965
 30
0.0
  0
SPLINE
  5
16436
330
18
100
AcDbEntity
  8
姿図
100
AcDbSpline
210
0.0
220
0.0
230
1.0
 70
     8
 71
     3
 72
     8
 73
     4
 74
     0
 42
0.000000001
 43
0.0000000001
 40
107.0
 40
107.0
 40
107.0
 40
107.0
 40
108.0
 40
108.0
 40
108.0
 40
108.0
 10
3873.063567743993
 20
-59.49317575385965
 30
0.0
 10
3873.063567743993
 20
-59.49317575385965
 30
0.0
 10
3873.036282587743
 20
-59.26199606635976
 30
0.0
 10
3873.104371454931
 20
-59.15335153510966
 30
0.0
  0
SPLINE
  5
16437
330
18
100
AcDbEntity
  8
姿図
100
AcDbSpline
210
0.0
220
0.0
230
1.0
 70
     8
 71
     3
 72
    11
 73
     7
 74
     0
 42
0.000000001
 43
0.0000000001
 40
108.0
 40
108.0
 40
108.0
 40
108.0
 40
109.0
 40
109.0
 40
109.0
 40
110.0
 40
110.0
 40
110.0
 40
110.0
 10
3873.104371454931
 20
-59.15335153510966
 30
0.0
 10
3873.17233629868
 20
-59.04445895698484
 30
0.0
 10
3873.281104853368
 20
-58.97649411323471
 30
0.0
 10
3873.47148082993
 20
-58.97649411323471
 30
0.0
 10
3873.661856806493
 20
-58.97649411323471
 30
0.0
 10
3873.770501337743
 20
-59.08538669135976
 30
0.0
 10
3873.770501337743
 20
-59.08538669135976
 30
0.0
  0
SPLINE
  5
16438
330
18
100
AcDbEntity
  8
姿図
100
AcDbSpline
210
0.0
220
0.0
230
1.0
 70
    24
 71
     3
 72
     8
 73
     4
 74
     0
 42
0.000000001
 43
0.0000000001
 40
110.0
 40
110.0
 40
110.0
 40
110.0
 40
111.0
 40
111.0
 40
111.0
 40
111.0
 10
3873.770501337743
 20
-59.08538669135976
 30
0.0
 10
3873.770501337743
 20
-59.08538669135976
 30
0.0
 10
3873.770501337743
 20
-57.73936032417225
 30
0.0
 10
3873.770501337743
 20
-57.73936032417225
 30
0.0
  0
SPLINE
  5
16439
330
18
100
AcDbEntity
  8
姿図
100
AcDbSpline
210
0.0
220
0.0
230
1.0
 70
     8
 71
     3
 72
    11
 73
     7
 74
     0
 42
0.000000001
 43
0.0000000001
 40
111.0
 40
111.0
 40
111.0
 40
111.0
 40
112.0
 40
112.0
 40
112.0
 40
113.0
 40
113.0
 40
113.0
 40
113.0
 10
3873.770501337743
 20
-57.73936032417225
 30
0.0
 10
3873.770501337743
 20
-57.73936032417225
 30
0.0
 10
3873.81130504868
 20
-57.63059176948479
 30
0.0
 10
3873.892912470556
 20
-57.63059176948479
 30
0.0
 10
3873.974395868993
 20
-57.63059176948479
 30
0.0
 10
3874.04248473618
 20
-57.80732516792216
 30
0.0
 10
3874.04248473618
 20
-57.80732516792216
 30
0.0
  0
SPLINE
  5
1643A
330
18
100
AcDbEntity
  8
姿図
100
AcDbSpline
210
0.0
220
0.0
230
1.0
 70
     8
 71
     3
 72
    14
 73
    10
 74
     0
 42
0.000000001
 43
0.0000000001
 40
113.0
 40
113.0
 40
113.0
 40
113.0
 40
114.0
 40
114.0
 40
114.0
 40
115.0
 40
115.0
 40
115.0
 40
116.0
 40
116.0
 40
116.0
 40
116.0
 10
3874.04248473618
 20
-57.80732516792216
 30
0.0
 10
3874.04248473618
 20
-57.80732516792216
 30
0.0
 10
3874.069645868993
 20
-57.67127145698498
 30
0.0
 10
3874.27366442368
 20
-57.67127145698498
 30
0.0
 10
3874.477558954931
 20
-57.67127145698498
 30
0.0
 10
3874.722257197118
 20
-57.67127145698498
 30
0.0
 10
3874.722257197118
 20
-57.87541403510988
 30
0.0
 10
3874.722257197118
 20
-58.0793085663596
 30
0.0
 10
3874.74941832993
 20
-58.63666989448473
 30
0.0
 10
3874.74941832993
 20
-58.63666989448473
 30
0.0
  0
SPLINE
  5
1643B
330
18
100
AcDbEntity
  8
姿図
100
AcDbSpline
210
0.0
220
0.0
230
1.0
 70
     8
 71
     3
 72
     8
 73
     4
 74
     0
 42
0.000000001
 43
0.0000000001
 40
116.0
 40
116.0
 40
116.0
 40
116.0
 40
117.0
 40
117.0
 40
117.0
 40
117.0
 10
3874.74941832993
 20
-58.63666989448473
 30
0.0
 10
3874.74941832993
 20
-58.63666989448473
 30
0.0
 10
3875.442833368993
 20
-58.60938473823478
 30
0.0
 10
3875.537959345555
 20
-58.7319198944848
 30
0.0
  0
SPLINE
  5
1643C
330
18
100
AcDbEntity
  8
姿図
100
AcDbSpline
210
0.0
220
0.0
230
1.0
 70
     8
 71
     3
 72
    11
 73
     7
 74
     0
 42
0.000000001
 43
0.0000000001
 40
117.0
 40
117.0
 40
117.0
 40
117.0
 40
118.0
 40
118.0
 40
118.0
 40
119.0
 40
119.0
 40
119.0
 40
119.0
 10
3875.537959345555
 20
-58.7319198944848
 30
0.0
 10
3875.55160192368
 20
-58.56870505073482
 30
0.0
 10
3875.510798212743
 20
-58.50074020698469
 30
0.0
 10
3875.646727900243
 20
-58.50074020698469
 30
0.0
 10
3875.78278161118
 20
-58.50074020698469
 30
0.0
 10
3875.98667614243
 20
-58.71827731635983
 30
0.0
 10
3876.000194697118
 20
-59.01742184760985
 30
0.0
  0
SPLINE
  5
1643D
330
18
100
AcDbEntity
  8
姿図
100
AcDbSpline
210
0.0
220
0.0
230
1.0
 70
     8
 71
     3
 72
     8
 73
     4
 74
     0
 42
0.000000001
 43
0.0000000001
 40
119.0
 40
119.0
 40
119.0
 40
119.0
 40
120.0
 40
120.0
 40
120.0
 40
120.0
 10
3876.000194697118
 20
-59.01742184760985
 30
0.0
 10
3876.013837275243
 20
-59.31644235542228
 30
0.0
 10
3876.013837275243
 20
-60.59450387885988
 30
0.0
 10
3875.959390986181
 20
-60.78475583198485
 30
0.0
  0
SPLINE
  5
1643E
330
18
100
AcDbEntity
  8
姿図
100
AcDbSpline
210
0.0
220
0.0
230
1.0
 70
     8
 71
     3
 72
     8
 73
     4
 74
     0
 42
0.000000001
 43
0.0000000001
 40
120.0
 40
120.0
 40
120.0
 40
120.0
 40
121.0
 40
121.0
 40
121.0
 40
121.0
 10
3875.959390986181
 20
-60.78475583198485
 30
0.0
 10
3875.905068720555
 20
-60.97513180854719
 30
0.0
 10
3875.796300165868
 20
-61.31495602729717
 30
0.0
 10
3875.68753161118
 20
-61.34211716010975
 30
0.0
  0
SPLINE
  5
1643F
330
18
100
AcDbEntity
  8
姿図
100
AcDbSpline
210
0.0
220
0.0
230
1.0
 70
     8
 71
     3
 72
     8
 73
     4
 74
     0
 42
0.000000001
 43
0.0000000001
 40
121.0
 40
121.0
 40
121.0
 40
121.0
 40
122.0
 40
122.0
 40
122.0
 40
122.0
 10
3875.68753161118
 20
-61.34211716010975
 30
0.0
 10
3875.578763056493
 20
-61.36940231635992
 30
0.0
 10
3875.48363707993
 20
-61.34211716010975
 30
0.0
 10
3875.469994501806
 20
-61.15186520698478
 30
0.0
  0
SPLINE
  5
16440
330
18
100
AcDbEntity
  8
姿図
100
AcDbSpline
210
0.0
220
0.0
230
1.0
 70
     8
 71
     3
 72
     8
 73
     4
 74
     0
 42
0.000000001
 43
0.0000000001
 40
122.0
 40
122.0
 40
122.0
 40
122.0
 40
123.0
 40
123.0
 40
123.0
 40
123.0
 10
3875.469994501806
 20
-61.15186520698478
 30
0.0
 10
3875.334064814306
 20
-61.15186520698478
 30
0.0
 10
3874.681453486181
 20
-61.20618747260971
 30
0.0
 10
3874.681453486181
 20
-61.20618747260971
 30
0.0
  0
SPLINE
  5
16441
330
18
100
AcDbEntity
  8
姿図
100
AcDbSpline
210
0.0
220
0.0
230
1.0
 70
     8
 71
     3
 72
     8
 73
     4
 74
     0
 42
0.000000001
 43
0.0000000001
 40
123.0
 40
123.0
 40
123.0
 40
123.0
 40
124.0
 40
124.0
 40
124.0
 40
124.0
 10
3874.681453486181
 20
-61.20618747260971
 30
0.0
 10
3874.681453486181
 20
-61.20618747260971
 30
0.0
 10
3874.708614618993
 20
-62.02201364448467
 30
0.0
 10
3874.627007197118
 20
-62.10362106635978
 30
0.0
  0
SPLINE
  5
16442
330
18
100
AcDbEntity
  8
姿図
100
AcDbSpline
210
0.0
220
0.0
230
1.0
 70
     8
 71
     3
 72
     8
 73
     4
 74
     0
 42
0.000000001
 43
0.0000000001
 40
124.0
 40
124.0
 40
124.0
 40
124.0
 40
125.0
 40
125.0
 40
125.0
 40
125.0
 10
3874.627007197118
 20
-62.10362106635978
 30
0.0
 10
3874.545523798681
 20
-62.18522848823466
 30
0.0
 10
3874.463916376805
 20
-62.13078219917236
 30
0.0
 10
3874.463916376805
 20
-62.13078219917236
 30
0.0
  0
SPLINE
  5
16443
330
18
100
AcDbEntity
  8
姿図
100
AcDbSpline
210
0.0
220
0.0
230
1.0
 70
     8
 71
     3
 72
     8
 73
     4
 74
     0
 42
0.000000001
 43
0.0000000001
 40
125.0
 40
125.0
 40
125.0
 40
125.0
 40
126.0
 40
126.0
 40
126.0
 40
126.0
 10
3874.463916376805
 20
-62.13078219917236
 30
0.0
 10
3874.463916376805
 20
-62.13078219917236
 30
0.0
 10
3874.545523798681
 20
-64.71381833198473
 30
0.0
 10
3874.45027379868
 20
-66.35898923042225
 30
0.0
  0
SPLINE
  5
16444
330
18
100
AcDbEntity
  8
姿図
100
AcDbSpline
210
0.0
220
0.0
230
1.0
 70
     8
 71
     3
 72
     8
 73
     4
 74
     0
 42
0.000000001
 43
0.0000000001
 40
126.0
 40
126.0
 40
126.0
 40
126.0
 40
127.0
 40
127.0
 40
127.0
 40
127.0
 10
3874.45027379868
 20
-66.35898923042225
 30
0.0
 10
3874.355147822118
 20
-68.00416012885978
 30
0.0
 10
3874.001681025243
 20
-72.19156344917212
 30
0.0
 10
3873.933716181493
 20
-72.38193942573469
 30
0.0
  0
SPLINE
  5
16445
330
18
100
AcDbEntity
  8
姿図
100
AcDbSpline
210
0.0
220
0.0
230
1.0
 70
     8
 71
     3
 72
     8
 73
     4
 74
     0
 42
0.000000001
 43
0.0000000001
 40
127.0
 40
127.0
 40
127.0
 40
127.0
 40
128.0
 40
128.0
 40
128.0
 40
128.0
 10
3873.933716181493
 20
-72.38193942573469
 30
0.0
 10
3873.933716181493
 20
-72.7762099335472
 30
0.0
 10
3873.947358759618
 20
-74.81552731635963
 30
0.0
 10
3873.947358759618
 20
-74.81552731635963
 30
0.0
  0
SPLINE
  5
16446
330
18
100
AcDbEntity
  8
姿図
100
AcDbSpline
210
0.0
220
0.0
230
1.0
 70
     8
 71
     3
 72
     8
 73
     4
 74
     0
 42
0.000000001
 43
0.0000000001
 40
128.0
 40
128.0
 40
128.0
 40
128.0
 40
129.0
 40
129.0
 40
129.0
 40
129.0
 10
3873.947358759618
 20
-74.81552731635963
 30
0.0
 10
3873.947358759618
 20
-74.81552731635963
 30
0.0
 10
3874.04248473618
 20
-74.72027731635978
 30
0.0
 10
3874.178414423681
 20
-74.78836618354728
 30
0.0
  0
SPLINE
  5
16447
330
18
100
AcDbEntity
  8
姿図
100
AcDbSpline
210
0.0
220
0.0
230
1.0
 70
     8
 71
     3
 72
     8
 73
     4
 74
     0
 42
0.000000001
 43
0.0000000001
 40
129.0
 40
129.0
 40
129.0
 40
129.0
 40
130.0
 40
130.0
 40
130.0
 40
130.0
 10
3874.178414423681
 20
-74.78836618354728
 30
0.0
 10
3874.314468134618
 20
-74.85633102729719
 30
0.0
 10
3875.361225947118
 20
-75.56326462104732
 30
0.0
 10
3875.537959345555
 20
-75.69919430854713
 30
0.0
  0
SPLINE
  5
16448
330
18
100
AcDbEntity
  8
姿図
100
AcDbSpline
210
0.0
220
0.0
230
1.0
 70
     8
 71
     3
 72
     8
 73
     4
 74
     0
 42
0.000000001
 43
0.0000000001
 40
130.0
 40
130.0
 40
130.0
 40
130.0
 40
131.0
 40
131.0
 40
131.0
 40
131.0
 10
3875.537959345555
 20
-75.69919430854713
 30
0.0
 10
3875.714692743993
 20
-75.83524801948477
 30
0.0
 10
3875.823585322118
 20
-75.94389255073486
 30
0.0
 10
3875.660370478368
 20
-76.33828708198473
 30
0.0
  0
SPLINE
  5
16449
330
18
100
AcDbEntity
  8
姿図
100
AcDbSpline
210
0.0
220
0.0
230
1.0
 70
     8
 71
     3
 72
     8
 73
     4
 74
     0
 42
0.000000001
 43
0.0000000001
 40
131.0
 40
131.0
 40
131.0
 40
131.0
 40
132.0
 40
132.0
 40
132.0
 40
132.0
 10
3875.660370478368
 20
-76.33828708198473
 30
0.0
 10
3875.497279658055
 20
-76.73255758979724
 30
0.0
 10
3875.007759150243
 20
-77.61622458198474
 30
0.0
 10
3875.007759150243
 20
-77.61622458198474
 30
0.0
  0
SPLINE
  5
1644A
330
18
100
AcDbEntity
  8
姿図
100
AcDbSpline
210
0.0
220
0.0
230
1.0
 70
     8
 71
     3
 72
     8
 73
     4
 74
     0
 42
0.000000001
 43
0.0000000001
 40
132.0
 40
132.0
 40
132.0
 40
132.0
 40
133.0
 40
133.0
 40
133.0
 40
133.0
 10
3875.007759150243
 20
-77.61622458198474
 30
0.0
 10
3875.007759150243
 20
-77.61622458198474
 30
0.0
 10
3875.565120478368
 20
-78.10562106635973
 30
0.0
 10
3875.91871129868
 20
-79.05737692573473
 30
0.0
  0
SPLINE
  5
1644B
330
18
100
AcDbEntity
  8
姿図
100
AcDbSpline
210
0.0
220
0.0
230
1.0
 70
     8
 71
     3
 72
     8
 73
     4
 74
     0
 42
0.000000001
 43
0.0000000001
 40
133.0
 40
133.0
 40
133.0
 40
133.0
 40
134.0
 40
134.0
 40
134.0
 40
134.0
 10
3875.91871129868
 20
-79.05737692573473
 30
0.0
 10
3875.973033564305
 20
-79.12534176948463
 30
0.0
 10
3876.013837275243
 20
-79.0710195038597
 30
0.0
 10
3876.013837275243
 20
-79.0710195038597
 30
0.0
  0
SPLINE
  5
1644C
330
18
100
AcDbEntity
  8
姿図
100
AcDbSpline
210
0.0
220
0.0
230
1.0
 70
     8
 71
     3
 72
    14
 73
    10
 74
     0
 42
0.000000001
 43
0.0000000001
 40
136.0
 40
136.0
 40
136.0
 40
136.0
 40
137.0
 40
137.0
 40
137.0
 40
138.0
 40
138.0
 40
138.0
 40
139.0
 40
139.0
 40
139.0
 40
139.0
 10
3876.217731806493
 20
-73.30641012885974
 30
0.0
 10
3876.244892939306
 20
-72.73540622260987
 30
0.0
 10
3876.312981806493
 20
-69.13252536323455
 30
0.0
 10
3876.312981806493
 20
-68.95579196479719
 30
0.0
 10
3876.312981806493
 20
-68.77905856636005
 30
0.0
 10
3876.299339228368
 20
-68.49355661323477
 30
0.0
 10
3876.544037470555
 20
-68.49355661323477
 30
0.0
 10
3876.788735712743
 20
-68.49355661323477
 30
0.0
 10
3876.938307978368
 20
-68.73825485542227
 30
0.0
 10
3876.938307978368
 20
-68.73825485542227
 30
0.0
  0
SPLINE
  5
1644D
330
18
100
AcDbEntity
  8
姿図
100
AcDbSpline
210
0.0
220
0.0
230
1.0
 70
     8
 71
     3
 72
    11
 73
     7
 74
     0
 42
0.000000001
 43
0.0000000001
 40
139.0
 40
139.0
 40
139.0
 40
139.0
 40
140.0
 40
140.0
 40
140.0
 40
141.0
 40
141.0
 40
141.0
 40
141.0
 10
3876.938307978368
 20
-68.73825485542227
 30
0.0
 10
3876.938307978368
 20
-68.73825485542227
 30
0.0
 10
3877.468508173681
 20
-68.7246122772973
 30
0.0
 10
3877.590919306493
 20
-68.76541598823462
 30
0.0
 10
3877.713330439306
 20
-68.80621969917217
 30
0.0
 10
3877.86290270493
 20
-68.94214938667244
 30
0.0
 10
3877.876421259618
 20
-69.17332907417233
 30
0.0
  0
SPLINE
  5
1644E
330
18
100
AcDbEntity
  8
姿図
100
AcDbSpline
210
0.0
220
0.0
230
1.0
 70
     8
 71
     3
 72
     8
 73
     4
 74
     0
 42
0.000000001
 43
0.0000000001
 40
141.0
 40
141.0
 40
141.0
 40
141.0
 40
142.0
 40
142.0
 40
142.0
 40
142.0
 10
3877.876421259618
 20
-69.17332907417233
 30
0.0
 10
3877.890063837743
 20
-69.40450876167222
 30
0.0
 10
3877.971671259618
 20
-69.9890312226097
 30
0.0
 10
3877.971671259618
 20
-69.9890312226097
 30
0.0
  0
SPLINE
  5
1644F
330
18
100
AcDbEntity
  8
姿図
100
AcDbSpline
210
0.0
220
0.0
230
1.0
 70
     8
 71
     3
 72
     8
 73
     4
 74
     0
 42
0.000000001
 43
0.0000000001
 40
168.0
 40
168.0
 40
168.0
 40
168.0
 40
169.0
 40
169.0
 40
169.0
 40
169.0
 10
3877.93086754868
 20
-84.03344528510968
 30
0.0
 10
3877.93086754868
 20
-84.03344528510968
 30
0.0
 10
3879.820612665868
 20
-85.43379391792234
 30
0.0
 10
3880.595635126805
 20
-86.9837148163598
 30
0.0
  0
SPLINE
  5
16450
330
18
100
AcDbEntity
  8
姿図
100
AcDbSpline
210
0.0
220
0.0
230
1.0
 70
     8
 71
     3
 72
     8
 73
     4
 74
     0
 42
0.000000001
 43
0.0000000001
 40
169.0
 40
169.0
 40
169.0
 40
169.0
 40
170.0
 40
170.0
 40
170.0
 40
170.0
 10
3880.595635126805
 20
-86.9837148163598
 30
0.0
 10
3881.370533564305
 20
-88.53363571479736
 30
0.0
 10
3882.493813837743
 20
-93.52086618354718
 30
0.0
 10
3873.247122431493
 20
-96.61611911323473
 30
0.0
  0
SPLINE
  5
16451
330
18
100
AcDbEntity
  8
姿図
100
AcDbSpline
210
0.0
220
0.0
230
1.0
 70
     8
 71
     3
 72
     8
 73
     4
 74
     0
 42
0.000000001
 43
0.0000000001
 40
170.0
 40
170.0
 40
170.0
 40
170.0
 40
171.0
 40
171.0
 40
171.0
 40
171.0
 10
3873.247122431493
 20
-96.61611911323473
 30
0.0
 10
3864.846270868993
 20
-99.42835055854704
 30
0.0
 10
3852.79478942368
 20
-99.16294040229718
 30
0.0
 10
3845.507110224462
 20
-96.30258786323469
 30
0.0
  0
SPLINE
  5
16452
330
18
100
AcDbEntity
  8
姿図
100
AcDbSpline
210
0.0
220
0.0
230
1.0
 70
     8
 71
     3
 72
    11
 73
     7
 74
     0
 42
0.000000001
 43
0.0000000001
 40
171.0
 40
171.0
 40
171.0
 40
171.0
 40
172.0
 40
172.0
 40
172.0
 40
173.0
 40
173.0
 40
173.0
 40
173.0
 10
3845.507110224462
 20
-96.30258786323469
 30
0.0
 10
3838.219493036961
 20
-93.4424833710471
 30
0.0
 10
3838.101918818212
 20
-89.95531637885983
 30
0.0
 10
3838.101918818212
 20
-88.89752048042214
 30
0.0
 10
3838.101918818212
 20
-87.8396005585472
 30
0.0
 10
3838.337067255712
 20
-85.95890915229722
 30
0.0
 10
3841.275616572118
 20
-83.68642770698477
 30
0.0
  0
SPLINE
  5
16453
330
18
100
AcDbEntity
  8
姿図
100
AcDbSpline
210
0.0
220
0.0
230
1.0
 70
     8
 71
     3
 72
     8
 73
     4
 74
     0
 42
0.000000001
 43
0.0000000001
 40
173.0
 40
173.0
 40
173.0
 40
173.0
 40
174.0
 40
174.0
 40
174.0
 40
174.0
 10
3841.275616572118
 20
-83.68642770698477
 30
0.0
 10
3841.277911005712
 20
-83.32886813667221
 30
0.0
 10
3841.331923212743
 20
-82.69151169135978
 30
0.0
 10
3841.331923212743
 20
-82.69151169135978
 30
0.0
  0
SPLINE
  5
16454
330
18
100
AcDbEntity
  8
姿図
100
AcDbSpline
210
0.0
220
0.0
230
1.0
 70
    24
 71
     3
 72
     8
 73
     4
 74
     0
 42
0.000000001
 43
0.0000000001
 40
174.0
 40
174.0
 40
174.0
 40
174.0
 40
175.0
 40
175.0
 40
175.0
 40
175.0
 10
3841.331923212743
 20
-82.69151169135978
 30
0.0
 10
3841.331923212743
 20
-82.69151169135978
 30
0.0
 10
3841.131315302587
 20
-82.18090719917234
 30
0.0
 10
3841.131315302587
 20
-82.18090719917234
 30
0.0
  0
SPLINE
  5
16455
330
18
100
AcDbEntity
  8
姿図
100
AcDbSpline
210
0.0
220
0.0
230
1.0
 70
    24
 71
     3
 72
     8
 73
     4
 74
     0
 42
0.000000001
 43
0.0000000001
 40
175.0
 40
175.0
 40
175.0
 40
175.0
 40
176.0
 40
176.0
 40
176.0
 40
176.0
 10
3841.131315302587
 20
-82.18090719917234
 30
0.0
 10
3841.131315302587
 20
-82.18090719917234
 30
0.0
 10
3841.149546747899
 20
-81.72499704292227
 30
0.0
 10
3841.149546747899
 20
-81.72499704292227
 30
0.0
  0
ELLIPSE
  5
16456
330
18
100
AcDbEntity
  8
姿図
100
AcDbEllipse
 10
3859.537002090827
 20
-90.07612811588331
 30
0.0
 11
-17.9280599133497
 21
0.5020642418964099
 31
0.0
210
0.0
220
0.0
230
1.0
 40
0.4417103177870492
 41
0.0
 42
6.283185307179586
  0
ARC
  5
16457
330
18
100
AcDbEntity
  8
姿図
100
AcDbCircle
 10
3857.948649164621
 20
-112.9301688633947
 30
0.0
 40
33.66283429323502
100
AcDbArc
 50
87.32358175998458
 51
119.6892030509171
  0
ARC
  5
16458
330
18
100
AcDbEntity
  8
姿図
100
AcDbCircle
 10
3860.616624535596
 20
-114.7503956331886
 30
0.0
 40
35.46328343830577
100
AcDbArc
 50
64.67277808723583
 51
91.7711464803476
  0
ARC
  5
16459
330
18
100
AcDbEntity
  8
姿図
100
AcDbCircle
 10
3870.212307577483
 20
-94.01629255832927
 30
0.0
 40
12.6187720365096
100
AcDbArc
 50
52.28944218343059
 51
63.78077132058334
  0
LINE
  5
1645A
330
18
100
AcDbEntity
  8
姿図
100
AcDbLine
 10
3844.149793546541
 20
-82.09638477665283
 30
0.0
 11
3844.249260463152
 21
-80.19888602404546
 31
0.0
  0
LINE
  5
1645B
330
18
100
AcDbEntity
  8
姿図
100
AcDbLine
 10
3844.249260463152
 20
-80.19888602404546
 30
0.0
 11
3844.433515071008
 21
-79.80220986579286
 31
0.0
  0
LINE
  5
1645C
330
18
100
AcDbEntity
  8
姿図
100
AcDbLine
 10
3844.433515071008
 20
-79.80220986579286
 30
0.0
 11
3844.856884065374
 21
-76.5627131356988
 31
0.0
  0
LINE
  5
1645D
330
18
100
AcDbEntity
  8
姿図
100
AcDbLine
 10
3874.766585896527
 20
-82.14067360351407
 30
0.0
 11
3874.66473098193
 21
-80.25406905194916
 31
0.0
  0
LINE
  5
1645E
330
18
100
AcDbEntity
  8
姿図
100
AcDbLine
 10
3874.66473098193
 20
-80.25406905194916
 30
0.0
 11
3874.459080707275
 21
-79.808695210839
 31
0.0
  0
LINE
  5
1645F
330
18
100
AcDbEntity
  8
姿図
100
AcDbLine
 10
3874.459080707275
 20
-79.808695210839
 30
0.0
 11
3874.160299103357
 21
-76.71066665566138
 31
0.0
  0
ARC
  5
16460
330
18
100
AcDbEntity
  8
姿図
100
AcDbCircle
 10
3858.817732209555
 20
-324.991123960561
 30
0.0
 40
251.3740940691706
100
AcDbArc
 50
89.31576581817518
 51
90.4017689997036
  0
LINE
  5
16461
330
18
100
AcDbEntity
  8
姿図
100
AcDbLine
 10
3856.843567033883
 20
-73.4294261660981
 30
0.0
 11
3857.055063274325
 21
-73.62321000310897
 31
0.0
  0
LINE
  5
16462
330
18
100
AcDbEntity
  8
姿図
100
AcDbLine
 10
3861.819605311164
 20
-73.63495449782829
 30
0.0
 11
3862.007602081033
 21
-73.42355391873855
 31
0.0
  0
ARC
  5
16463
330
18
100
AcDbEntity
  8
姿図
100
AcDbCircle
 10
3857.378198419859
 20
-99.9694416980958
 30
0.0
 40
26.54539988693985
100
AcDbArc
 50
91.15403020508364
 51
118.1443348443558
  0
ARC
  5
16464
330
18
100
AcDbEntity
  8
姿図
100
AcDbCircle
 10
3861.730275365808
 20
-98.55711388130044
 30
0.0
 40
25.13508994411331
100
AcDbArc
 50
60.36132191100526
 51
89.36781715225317
  0
LINE
  5
16465
330
18
100
AcDbEntity
  8
姿図
100
AcDbLine
 10
3857.055063274325
 20
-73.62321000310897
 30
0.0
 11
3857.106733560074
 21
-79.27786447322535
 31
0.0
  0
LINE
  5
16466
330
18
100
AcDbEntity
  8
姿図
100
AcDbLine
 10
3856.848776577328
 20
-79.28530754780138
 30
0.0
 11
3856.843567033883
 21
-73.4294261660981
 31
0.0
  0
LINE
  5
16467
330
18
100
AcDbEntity
  8
姿図
100
AcDbLine
 10
3861.819605311164
 20
-73.63495449782829
 30
0.0
 11
3861.697319780664
 21
-79.30358237708754
 31
0.0
  0
LINE
  5
16468
330
18
100
AcDbEntity
  8
姿図
100
AcDbLine
 10
3861.992834156492
 20
-79.31382526718164
 30
0.0
 11
3862.007602081033
 21
-73.42355391873855
 31
0.0
  0
ELLIPSE
  5
16469
330
18
100
AcDbEntity
  8
姿図
100
AcDbEllipse
 10
3859.29660525128
 20
-78.72762224359815
 30
0.0
 11
-0.5161332283555157
 21
0.0
 31
0.0
210
0.0
220
0.0
230
1.0
 40
0.8782894644009034
 41
0.0
 42
6.283185307179586
  0
ELLIPSE
  5
1646A
330
18
100
AcDbEntity
  8
姿図
100
AcDbEllipse
 10
3859.292877540196
 20
-78.9079196422507
 30
0.0
 11
0.4335286067598152
 21
-0.008685463249465578
 31
0.0
210
0.0
220
0.0
230
1.0
 40
0.6207444020835624
 41
0.0
 42
6.283185307179586
  0
ARC
  5
1646B
330
18
100
AcDbEntity
  8
姿図
100
AcDbCircle
 10
3845.172186738204
 20
-79.95198657990693
 30
0.0
 40
1.093139033588491
100
AcDbArc
 50
168.2703751251378
 51
210.7658796790912
  0
ARC
  5
1646C
330
18
100
AcDbEntity
  8
姿図
100
AcDbCircle
 10
3845.37800841155
 20
-79.91290644363278
 30
0.0
 40
1.289209111054253
100
AcDbArc
 50
130.0785474406309
 51
171.8327998775876
  0
ARC
  5
1646D
330
18
100
AcDbEntity
  8
姿図
100
AcDbCircle
 10
3845.851409476238
 20
-79.84536481045518
 30
0.0
 40
1.932737988582935
100
AcDbArc
 50
179.0322273053239
 51
212.0901701310446
  0
ARC
  5
1646E
330
18
100
AcDbEntity
  8
姿図
100
AcDbCircle
 10
3845.579017259954
 20
-80.0828192453979
 30
0.0
 40
1.681899462714203
100
AcDbArc
 50
126.7373714880058
 51
170.7587812734881
  0
ARC
  5
1646F
330
18
100
AcDbEntity
  8
姿図
100
AcDbCircle
 10
3845.251016040427
 20
-81.07450452471528
 30
0.0
 40
2.992184822990797
100
AcDbArc
 50
182.2432068658968
 51
215.2678058197684
  0
ARC
  5
16470
330
18
100
AcDbEntity
  8
姿図
100
AcDbCircle
 10
3843.067005873059
 20
-81.19920568080875
 30
0.0
 40
0.8059173721818391
100
AcDbArc
 50
130.316294996619
 51
179.4608858840927
  0
ARC
  5
16471
330
18
100
AcDbEntity
  8
姿図
100
AcDbCircle
 10
3839.846450125455
 20
-77.42292486841382
 30
0.0
 40
4.157176989167163
100
AcDbArc
 50
310.4864322614225
 51
328.479122477351
  0
LINE
  5
16472
330
18
100
AcDbEntity
  8
姿図
100
AcDbLine
 10
3843.390234481447
 20
-79.59633531227621
 30
0.0
 11
3844.073960906795
 21
-78.48291292909346
 31
0.0
  0
ARC
  5
16473
330
18
100
AcDbEntity
  8
姿図
100
AcDbCircle
 10
3843.535905507865
 20
-78.21175915857987
 30
0.0
 40
0.6025180325782685
100
AcDbArc
 50
333.2541164958415
 51
25.0016759041946
  0
LINE
  5
16474
330
18
100
AcDbEntity
  8
姿図
100
AcDbLine
 10
3843.220341582672
 20
-76.46925247646334
 30
0.0
 11
3844.081964844298
 21
-77.95710806261457
 31
0.0
  0
ARC
  5
16475
330
18
100
AcDbEntity
  8
姿図
100
AcDbCircle
 10
3843.72936073571
 20
-76.20360322535464
 30
0.0
 40
0.5741689845109768
100
AcDbArc
 50
156.7941273154077
 51
207.5593620771012
  0
LINE
  5
16476
330
18
100
AcDbEntity
  8
姿図
100
AcDbLine
 10
3843.201644917985
 20
-75.977359908332
 30
0.0
 11
3843.561779351629
 21
-75.70679104132125
 31
0.0
  0
LINE
  5
16477
330
18
100
AcDbEntity
  8
姿図
100
AcDbLine
 10
3843.010270380712
 20
-72.6596279022973
 30
0.0
 11
3843.046355553718
 21
-78.91602986243299
 31
0.0
  0
LINE
  5
16478
330
18
100
AcDbEntity
  8
姿図
100
AcDbLine
 10
3843.046355553718
 20
-78.91602986243299
 30
0.0
 11
3843.299208966522
 21
-78.99431216104608
 31
0.0
  0
LINE
  5
16479
330
18
100
AcDbEntity
  8
姿図
100
AcDbLine
 10
3843.299208966522
 20
-78.99431216104608
 30
0.0
 11
3843.295329834846
 21
-79.68860561797976
 31
0.0
  0
LINE
  5
1647A
330
18
100
AcDbEntity
  8
姿図
100
AcDbLine
 10
3842.034951573886
 20
-78.98527015139848
 30
0.0
 11
3842.227848841881
 21
-78.82953893999309
 31
0.0
  0
LINE
  5
1647B
330
18
100
AcDbEntity
  8
姿図
100
AcDbLine
 10
3842.227848841881
 20
-78.82953893999309
 30
0.0
 11
3842.413327129175
 21
-78.81099953721844
 31
0.0
  0
LINE
  5
1647C
330
18
100
AcDbEntity
  8
姿図
100
AcDbLine
 10
3842.413327129175
 20
-78.81099953721844
 30
0.0
 11
3843.046355553718
 21
-78.91602986243299
 31
0.0
  0
LINE
  5
1647D
330
18
100
AcDbEntity
  8
姿図
100
AcDbLine
 10
3842.034951573886
 20
-78.98527015139848
 30
0.0
 11
3842.329219964545
 21
-68.88758156055371
 31
0.0
  0
LINE
  5
1647E
330
18
100
AcDbEntity
  8
姿図
100
AcDbLine
 10
3842.031931958266
 20
-69.27537277165368
 30
0.0
 11
3842.329219964545
 21
-68.88758156055371
 31
0.0
  0
LINE
  5
1647F
330
18
100
AcDbEntity
  8
姿図
100
AcDbLine
 10
3842.329219964545
 20
-68.88758156055371
 30
0.0
 11
3843.088919511913
 21
-68.75608326753274
 31
0.0
  0
LINE
  5
16480
330
18
100
AcDbEntity
  8
姿図
100
AcDbLine
 10
3841.521836804108
 20
-69.27620734251707
 30
0.0
 11
3842.031931958266
 21
-69.27537277165368
 31
0.0
  0
LINE
  5
16481
330
18
100
AcDbEntity
  8
姿図
100
AcDbLine
 10
3842.413327129175
 20
-78.81099953721844
 30
0.0
 11
3842.412417086596
 21
-80.72908194026661
 31
0.0
  0
LINE
  5
16482
330
18
100
AcDbEntity
  8
姿図
100
AcDbLine
 10
3842.411805084495
 20
-82.0189891263093
 30
0.0
 11
3842.411393469368
 21
-82.88654384222025
 31
0.0
  0
LINE
  5
16483
330
18
100
AcDbEntity
  8
姿図
100
AcDbLine
 10
3841.198651749624
 20
-80.78196815522836
 30
0.0
 11
3841.143390396232
 21
-80.34489158033637
 31
0.0
  0
LINE
  5
16484
330
18
100
AcDbEntity
  8
姿図
100
AcDbLine
 10
3841.143390396232
 20
-80.34489158033637
 30
0.0
 11
3841.149702812839
 21
-80.23772999045946
 31
0.0
  0
LINE
  5
16485
330
18
100
AcDbEntity
  8
姿図
100
AcDbLine
 10
3841.149702812839
 20
-80.23772999045946
 30
0.0
 11
3841.197345134426
 21
-80.16676609205035
 31
0.0
  0
LINE
  5
16486
330
18
100
AcDbEntity
  8
姿図
100
AcDbLine
 10
3841.008700209028
 20
-81.37385491010866
 30
0.0
 11
3841.198651749624
 21
-80.78196815522836
 31
0.0
  0
LINE
  5
16487
330
18
100
AcDbEntity
  8
姿図
100
AcDbLine
 10
3841.435358759618
 20
-70.27106051948442
 30
0.0
 11
3841.36975036118
 21
-72.37028122260983
 31
0.0
  0
LINE
  5
16488
330
18
100
AcDbEntity
  8
姿図
100
AcDbLine
 10
3877.971671259618
 20
-69.9890312226097
 30
0.0
 11
3878.016567743993
 21
-73.74371676948465
 31
0.0
  0
LINE
  5
16489
330
18
100
AcDbEntity
  8
姿図
100
AcDbLine
 10
3841.359084345555
 20
-73.74297262885977
 30
0.0
 11
3841.197345134426
 21
-80.16676609205035
 31
0.0
  0
LINE
  5
1648A
330
18
100
AcDbEntity
  8
姿図
100
AcDbLine
 10
3878.016567743993
 20
-73.74371676948465
 30
0.0
 11
3878.102797470411
 21
-82.70385262540219
 31
0.0
  0
LINE
  5
1648B
330
18
100
AcDbEntity
  8
姿図
100
AcDbLine
 10
3878.102797470411
 20
-82.70385262540219
 30
0.0
 11
3877.862367959202
 21
-82.15111548967548
 31
0.0
  0
LINE
  5
1648C
330
18
100
AcDbEntity
  8
姿図
100
AcDbLine
 10
3877.862367959202
 20
-82.15111548967548
 30
0.0
 11
3877.62964669857
 21
-69.3297333395202
 31
0.0
  0
LINE
  5
1648D
330
18
100
AcDbEntity
  8
姿図
100
AcDbLine
 10
3877.862367959202
 20
-82.15111548967548
 30
0.0
 11
3877.60494013571
 21
-82.15113829958148
 31
0.0
  0
LINE
  5
1648E
330
18
100
AcDbEntity
  8
姿図
100
AcDbLine
 10
3877.60494013571
 20
-82.15113829958148
 30
0.0
 11
3877.42791551555
 21
-69.33566228578877
 31
0.0
  0
LINE
  5
1648F
330
18
100
AcDbEntity
  8
姿図
100
AcDbLine
 10
3877.62964669857
 20
-69.3297333395202
 30
0.0
 11
3877.62964669857
 21
-69.3297333395202
 31
0.0
  0
LINE
  5
16490
330
18
100
AcDbEntity
  8
姿図
100
AcDbLine
 10
3877.42791551555
 20
-69.33566228578877
 30
0.0
 11
3877.62964669857
 21
-69.3297333395202
 31
0.0
  0
LINE
  5
16491
330
18
100
AcDbEntity
  8
姿図
100
AcDbLine
 10
3877.62964669857
 20
-69.3297333395202
 30
0.0
 11
3877.876421259618
 21
-69.17332907417233
 31
0.0
  0
LINE
  5
16492
330
18
100
AcDbEntity
  8
姿図
100
AcDbLine
 10
3876.312991395435
 20
-68.8690443683455
 30
0.0
 11
3877.043758332517
 21
-68.89012030308629
 31
0.0
  0
ARC
  5
16493
330
18
100
AcDbEntity
  8
姿図
100
AcDbCircle
 10
3877.011385347225
 20
-69.26262737771424
 30
0.0
 40
0.3739111269068246
100
AcDbArc
 50
26.41722648468574
 51
85.03314972789963
  0
ARC
  5
16494
330
18
100
AcDbEntity
  8
姿図
100
AcDbCircle
 10
3877.451283645483
 20
-69.24056649381271
 30
0.0
 40
0.0979248648104742
100
AcDbArc
 50
177.5198076457987
 51
256.194111574417
  0
LINE
  5
16495
330
18
100
AcDbEntity
  8
姿図
100
AcDbLine
 10
3877.346251939989
 20
-69.0962726486722
 30
0.0
 11
3877.353450512624
 21
-69.23632889270687
 31
0.0
  0
LINE
  5
16496
330
18
100
AcDbEntity
  8
姿図
100
AcDbLine
 10
3876.013837275243
 20
-79.0710195038597
 30
0.0
 11
3876.789320971469
 21
-78.98610434224463
 31
0.0
  0
LINE
  5
16497
330
18
100
AcDbEntity
  8
姿図
100
AcDbLine
 10
3876.789320971469
 20
-78.98610434224463
 30
0.0
 11
3877.137590594612
 21
-79.21422425654202
 31
0.0
  0
ARC
  5
16498
330
18
100
AcDbEntity
  8
姿図
100
AcDbCircle
 10
3877.187839314428
 20
-79.13800866526037
 30
0.0
 40
0.0912893761486698
100
AcDbArc
 50
236.6032503128488
 51
1.861606254971561
  0
LINE
  5
16499
330
18
100
AcDbEntity
  8
姿図
100
AcDbLine
 10
3877.279128690577
 20
-79.13800866526037
 30
0.0
 11
3877.099408107686
 21
-68.89922467482745
 31
0.0
  0
LINE
  5
1649A
330
18
100
AcDbEntity
  8
姿図
100
AcDbLine
 10
3876.789320971469
 20
-78.98610434224463
 30
0.0
 11
3876.73333099149
 21
-83.21306797752129
 31
0.0
  0
LINE
  5
1649B
330
18
100
AcDbEntity
  8
姿図
100
AcDbLine
 10
3877.60494013571
 20
-82.15113829958148
 30
0.0
 11
3877.925348621273
 21
-83.02047676700238
 31
0.0
  0
LINE
  5
1649C
330
18
100
AcDbEntity
  8
姿図
100
AcDbLine
 10
3878.102797470411
 20
-82.70385262540219
 30
0.0
 11
3877.925348621273
 21
-83.02047676700238
 31
0.0
  0
LINE
  5
1649D
330
18
100
AcDbEntity
  8
姿図
100
AcDbLine
 10
3877.925348621273
 20
-83.02047676700238
 30
0.0
 11
3877.93086754868
 21
-84.03344528510968
 31
0.0
  0
LINE
  5
1649E
330
18
100
AcDbEntity
  8
姿図
100
AcDbLine
 10
3876.217731806493
 20
-73.30641012885951
 30
0.0
 11
3876.151919972664
 21
-79.0558995024661
 31
0.0
  0
ARC
  5
1649F
330
18
100
AcDbEntity
  8
姿図
100
AcDbCircle
 10
3874.142383587231
 20
-75.16673205772497
 30
0.0
 40
0.401720616527179
100
AcDbArc
 50
119.0435180761533
 51
159.4188376883629
  0
LINE
  5
164A0
330
18
100
AcDbEntity
  8
姿図
100
AcDbLine
 10
3873.76630272336
 20
-75.02551365392117
 30
0.0
 11
3873.153234095273
 21
-76.16763509407508
 31
0.0
  0
LINE
  5
164A1
330
18
100
AcDbEntity
  8
姿図
100
AcDbLine
 10
3874.178414423681
 20
-74.78836618354728
 30
0.0
 11
3873.36024733777
 21
-76.27446371508279
 31
0.0
  0
LINE
  5
164A2
330
18
100
AcDbEntity
  8
姿図
100
AcDbLine
 10
3875.007759150243
 20
-77.61622458198474
 30
0.0
 11
3874.781630694684
 21
-78.10208379007406
 31
0.0
  0
LINE
  5
164A3
330
18
100
AcDbEntity
  8
姿図
100
AcDbLine
 10
3874.781630694684
 20
-78.10208379007406
 30
0.0
 11
3874.255547946856
 21
-77.69828983305263
 31
0.0
  0
ARC
  5
164A4
330
18
100
AcDbEntity
  8
姿図
100
AcDbCircle
 10
3875.144763020599
 20
-78.24663043855514
 30
0.0
 40
0.3908437279925873
100
AcDbArc
 50
158.2947226871586
 51
211.3256838175388
  0
LINE
  5
164A5
330
18
100
AcDbEntity
  8
姿図
100
AcDbLine
 10
3874.810894200567
 20
-78.44983090785092
 30
0.0
 11
3876.492699467114
 21
-80.59761328162642
 31
0.0
  0
ARC
  5
164A6
330
18
100
AcDbEntity
  8
姿図
100
AcDbCircle
 10
3876.135742794714
 20
-81.02330931971233
 30
0.0
 40
0.5555494422758752
100
AcDbArc
 50
2.983045740790949
 51
50.01933376895926
  0
ARC
  5
164A7
330
18
100
AcDbEntity
  8
姿図
100
AcDbCircle
 10
3875.24084847768
 20
-81.19475041880582
 30
0.0
 40
1.46347016067377
100
AcDbArc
 50
339.9809974842998
 51
7.868623721159468
  0
LINE
  5
164A8
330
18
100
AcDbEntity
  8
姿図
100
AcDbLine
 10
3876.615894506684
 20
-81.69574276336323
 30
0.0
 11
3876.318625259828
 21
-82.3497133007121
 31
0.0
  0
LINE
  5
164A9
330
18
100
AcDbEntity
  8
姿図
100
AcDbLine
 10
3876.318625259828
 20
-82.3497133007121
 30
0.0
 11
3876.340175276627
 21
-82.9853068738496
 31
0.0
  0
ARC
  5
164AA
330
18
100
AcDbEntity
  8
姿図
100
AcDbCircle
 10
3873.472997117916
 20
-80.04585818154362
 30
0.0
 40
1.477832762554764
100
AcDbArc
 50
8.373754848851878
 51
52.6983635327323
  0
ARC
  5
164AB
330
18
100
AcDbEntity
  8
姿図
100
AcDbCircle
 10
3873.969307207709
 20
-80.15023746140685
 30
0.0
 40
1.017275177931906
100
AcDbArc
 50
315.7091229369755
 51
18.31062691736776
  0
ARC
  5
164AC
330
18
100
AcDbEntity
  8
姿図
100
AcDbCircle
 10
3873.448404286924
 20
-79.98335637760499
 30
0.0
 40
1.34971308750572
100
AcDbArc
 50
0.0
 51
46.24047802661564
  0
ARC
  5
164AD
330
18
100
AcDbEntity
  8
姿図
100
AcDbCircle
 10
3873.499271127834
 20
-80.04534638986809
 30
0.0
 40
1.300324703262524
100
AcDbArc
 50
335.5055713375696
 51
2.732481191940487
  0
LINE
  5
164AE
330
18
100
AcDbEntity
  8
姿図
100
AcDbLine
 10
3874.779244947758
 20
-78.38503332197263
 30
0.0
 11
3874.295988783055
 21
-78.11761573429715
 31
0.0
  0
LINE
  5
164AF
330
18
100
AcDbEntity
  8
姿図
100
AcDbLine
 10
3844.073960906795
 20
-78.48291292909346
 30
0.0
 11
3844.657187042996
 21
-78.0907368209763
 31
0.0
  0
LINE
  5
164B0
330
18
100
AcDbEntity
  8
姿図
100
AcDbLine
 10
3844.125625188328
 20
-78.08823313679943
 30
0.0
 11
3844.710328806213
 21
-77.68411146469987
 31
0.0
  0
ARC
  5
164B1
330
18
100
AcDbEntity
  8
姿図
100
AcDbCircle
 10
3848.425628934094
 20
-74.97613624712938
 30
0.0
 40
2.170359004562714
100
AcDbArc
 50
143.5969539955275
 51
199.2391027668002
  0
ARC
  5
164B2
330
18
100
AcDbEntity
  8
姿図
100
AcDbCircle
 10
3851.587785815528
 20
-76.76731312950903
 30
0.0
 40
5.794802346187666
100
AcDbArc
 50
119.0156920924246
 51
147.9017269467019
  0
ARC
  5
164B3
330
18
100
AcDbEntity
  8
姿図
100
AcDbCircle
 10
3857.209975881545
 20
-85.19987241452225
 30
0.0
 40
15.91746646332639
100
AcDbArc
 50
93.63344175986113
 51
121.9914343462325
  0
ARC
  5
164B4
330
18
100
AcDbEntity
  8
姿図
100
AcDbCircle
 10
3859.374875175221
 20
-97.49301703731982
 30
0.0
 40
28.35676898832303
100
AcDbArc
 50
80.20625711297684
 51
96.4259007215808
  0
ARC
  5
164B5
330
18
100
AcDbEntity
  8
姿図
100
AcDbCircle
 10
3862.113799675852
 20
-84.57574223855306
 30
0.0
 40
15.1701482379715
100
AcDbArc
 50
59.84827434686326
 51
82.10167315234378
  0
ARC
  5
164B6
330
18
100
AcDbEntity
  8
姿図
100
AcDbCircle
 10
3865.048616157787
 20
-79.39237366432303
 30
0.0
 40
9.214199751715508
100
AcDbArc
 50
35.705790809451
 51
59.4389170434013
  0
ARC
  5
164B7
330
18
100
AcDbEntity
  8
姿図
100
AcDbCircle
 10
3870.711400076887
 20
-75.52761705919977
 30
0.0
 40
2.366194485834573
100
AcDbArc
 50
354.6911406082323
 51
39.744579322714
  0
LINE
  5
164B8
330
18
100
AcDbEntity
  8
姿図
100
AcDbLine
 10
3873.067444542966
 20
-75.74654814117036
 30
0.0
 11
3873.072980379276
 21
-76.04435427328747
 31
0.0
  0
ARC
  5
164B9
330
18
100
AcDbEntity
  8
姿図
100
AcDbCircle
 10
3849.736109714172
 20
-75.52991531353325
 30
0.0
 40
4.205412943753292
100
AcDbArc
 50
137.1536766609873
 51
186.3238021850764
  0
ARC
  5
164BA
330
18
100
AcDbEntity
  8
姿図
100
AcDbCircle
 10
3854.182303393501
 20
-80.20355821586793
 30
0.0
 40
10.65114100617826
100
AcDbArc
 50
108.8291533387851
 51
134.9849815097626
  0
ARC
  5
164BB
330
18
100
AcDbEntity
  8
姿図
100
AcDbCircle
 10
3858.080282342932
 20
-88.16591324800572
 30
0.0
 40
19.47765596462921
100
AcDbArc
 50
90.7183767634397
 51
112.124256567402
  0
ARC
  5
164BC
330
18
100
AcDbEntity
  8
姿図
100
AcDbCircle
 10
3859.812558388711
 20
-92.47624540454524
 30
0.0
 40
23.86843151733634
100
AcDbArc
 50
78.12404047176967
 51
94.74995000107518
  0
ARC
  5
164BD
330
18
100
AcDbEntity
  8
姿図
100
AcDbCircle
 10
3862.718733244865
 20
-83.09779510366968
 30
0.0
 40
14.12225554600108
100
AcDbArc
 50
43.82683793536588
 51
81.83462171419774
  0
ARC
  5
164BE
330
18
100
AcDbEntity
  8
姿図
100
AcDbCircle
 10
3870.11389964643
 20
-75.49578782331821
 30
0.0
 40
3.541557972086268
100
AcDbArc
 50
4.00940975551952
 51
37.93819005737743
  0
ARC
  5
164BF
330
18
100
AcDbEntity
  8
姿図
100
AcDbCircle
 10
3853.936446255995
 20
-88.26146260447933
 30
0.0
 40
14.78199121542972
100
AcDbArc
 50
107.3347820979761
 51
120.9193392715552
  0
ARC
  5
164C0
330
18
100
AcDbEntity
  8
姿図
100
AcDbCircle
 10
3857.98724704458
 20
-100.4745162479185
 30
0.0
 40
27.64822228658136
100
AcDbArc
 50
93.98074746307971
 51
107.8070272858377
  0
ARC
  5
164C1
330
18
100
AcDbEntity
  8
姿図
100
AcDbCircle
 10
3859.461120021421
 20
-110.5367492405127
 30
0.0
 40
37.7963781601366
100
AcDbArc
 50
82.26642964453974
 51
95.15078153009281
  0
ARC
  5
164C2
330
18
100
AcDbEntity
  8
姿図
100
AcDbCircle
 10
3861.04684070969
 20
-98.88123447049514
 30
0.0
 40
26.03349063872002
100
AcDbArc
 50
67.11157932918796
 51
82.27270771509374
  0
ARC
  5
164C3
330
18
100
AcDbEntity
  8
姿図
100
AcDbCircle
 10
3867.475382560001
 20
-84.23237979278213
 30
0.0
 40
10.04024401412024
100
AcDbArc
 50
56.13483083249884
 51
68.39505492549313
  0
ARC
  5
164C4
330
18
100
AcDbEntity
  8
姿図
100
AcDbCircle
 10
3859.467315846578
 20
-110.1248486737057
 30
0.0
 40
36.78910288174948
100
AcDbArc
 50
86.04057786561219
 51
94.08972909081169
  0
ARC
  5
164C5
330
18
100
AcDbEntity
  8
姿図
100
AcDbCircle
 10
3850.263222928374
 20
-72.52034169327283
 30
0.0
 40
4.83971780337326
100
AcDbArc
 50
133.9639200721297
 51
170.8405462653717
  0
ARC
  5
164C6
330
18
100
AcDbEntity
  8
姿図
100
AcDbCircle
 10
3856.001166512675
 20
-79.34045853364739
 30
0.0
 40
13.74529216795379
100
AcDbArc
 50
99.96213688778852
 51
131.4432276129799
  0
ARC
  5
164C7
330
18
100
AcDbEntity
  8
姿図
100
AcDbCircle
 10
3859.71418767958
 20
-90.9787362853964
 30
0.0
 40
25.90263536002879
100
AcDbArc
 50
74.89723041579192
 51
103.6002725992903
  0
ARC
  5
164C8
330
18
100
AcDbEntity
  8
姿図
100
AcDbCircle
 10
3864.196538353528
 20
-77.87948851935391
 30
0.0
 40
12.12249718714882
100
AcDbArc
 50
44.34359490364465
 51
79.22366257854154
  0
ARC
  5
164C9
330
18
100
AcDbEntity
  8
姿図
100
AcDbCircle
 10
3870.711825113875
 20
-71.86757678541505
 30
0.0
 40
3.270845033596017
100
AcDbArc
 50
355.347082042647
 51
48.80510402841277
  0
LINE
  5
164CA
330
18
100
AcDbEntity
  8
姿図
100
AcDbLine
 10
3857.698144391693
 20
-66.72155272836733
 30
0.0
 11
3857.665197532791
 21
-68.01688036418011
 31
0.0
  0
LINE
  5
164CB
330
18
100
AcDbEntity
  8
姿図
100
AcDbLine
 10
3861.77258676702
 20
-66.820348948164
 30
0.0
 11
3861.794551423394
 21
-68.09372188656937
 31
0.0
  0
LINE
  5
164CC
330
18
100
AcDbEntity
  8
姿図
100
AcDbLine
 10
3851.318268340586
 20
-67.89299829860022
 30
0.0
 11
3851.292807816273
 21
-69.20362633054276
 31
0.0
  0
LINE
  5
164CD
330
18
100
AcDbEntity
  8
姿図
100
AcDbLine
 10
3851.454561628653
 20
-67.84646835796423
 30
0.0
 11
3851.428597530597
 21
-69.15272814347225
 31
0.0
  0
ARC
  5
164CE
330
18
100
AcDbEntity
  8
姿図
100
AcDbCircle
 10
3855.668574427461
 20
-82.11136570618135
 30
0.0
 40
13.62927251268403
100
AcDbArc
 50
101.6191646447263
 51
108.7268299157164
  0
ARC
  5
164CF
330
18
100
AcDbEntity
  8
姿図
100
AcDbCircle
 10
3859.19675793705
 20
-93.86654036764963
 30
0.0
 40
25.87705149707777
100
AcDbArc
 50
98.03653202735242
 51
104.0295974476214
  0
ARC
  5
164D0
330
18
100
AcDbEntity
  8
姿図
100
AcDbCircle
 10
3852.286862121968
 20
-28.24353722523426
 30
0.0
 40
40.13533750000914
100
AcDbArc
 50
274.7050686475696
 51
277.7010870989286
  0
ARC
  5
164D1
330
18
100
AcDbEntity
  8
姿図
100
AcDbCircle
 10
3856.132712194041
 20
-81.77236127000481
 30
0.0
 40
14.69066322907383
100
AcDbArc
 50
101.6513119512676
 51
109.1305283859198
  0
ARC
  5
164D2
330
18
100
AcDbEntity
  8
姿図
100
AcDbCircle
 10
3858.522695781852
 20
-90.11739503391834
 30
0.0
 40
23.35561321167296
100
AcDbArc
 50
97.8834796779995
 51
103.259381772706
  0
ARC
  5
164D3
330
18
100
AcDbEntity
  8
姿図
100
AcDbCircle
 10
3858.684221349125
 20
-86.68364725933884
 30
0.0
 40
19.98643454519643
100
AcDbArc
 50
92.82796783640627
 51
99.69259792309356
  0
ARC
  5
164D4
330
18
100
AcDbEntity
  8
姿図
100
AcDbCircle
 10
3861.826277167766
 20
-66.79969894983049
 30
0.0
 40
0.05752461702122
100
AcDbArc
 50
64.78605873795833
 51
201.0373661889552
  0
ARC
  5
164D5
330
18
100
AcDbEntity
  8
姿図
100
AcDbCircle
 10
3860.571570339856
 20
-88.28071084384976
 30
0.0
 40
21.57101932075856
100
AcDbArc
 50
69.37373870163034
 51
86.60023055440318
  0
ARC
  5
164D6
330
18
100
AcDbEntity
  8
姿図
100
AcDbCircle
 10
3860.671923280303
 20
-89.21565454624181
 30
0.0
 40
21.15174539434977
100
AcDbArc
 50
69.16539260965737
 51
86.95759899233144
  0
LINE
  5
164D7
330
18
100
AcDbEntity
  8
姿図
100
AcDbLine
 10
3868.170407352033
 20
-68.09243328981108
 30
0.0
 11
3868.194997230854
 21
-69.44700027838792
 31
0.0
  0
LINE
  5
164D8
330
18
100
AcDbEntity
  8
姿図
100
AcDbLine
 10
3868.042935705436
 20
-68.04491152406638
 30
0.0
 11
3868.037037222737
 21
-69.38760799993895
 31
0.0
  0
LINE
  5
164D9
330
18
100
AcDbEntity
  8
姿図
100
AcDbLine
 10
3849.693092906492
 20
-68.56788581398303
 30
0.0
 11
3849.674639660901
 21
-69.90512722897358
 31
0.0
  0
LINE
  5
164DA
330
18
100
AcDbEntity
  8
姿図
100
AcDbLine
 10
3845.697626697763
 20
-72.30399420450351
 30
0.0
 11
3845.697626697763
 21
-73.5066297142804
 31
0.0
  0
LINE
  5
164DB
330
18
100
AcDbEntity
  8
姿図
100
AcDbLine
 10
3845.946842848102
 20
-72.3266399627397
 30
0.0
 11
3845.958153478746
 21
-73.06197447564762
 31
0.0
  0
ARC
  5
164DC
330
18
100
AcDbEntity
  8
姿図
100
AcDbCircle
 10
3851.778398578813
 20
-75.06015126115233
 30
0.0
 40
6.440429043078867
100
AcDbArc
 50
108.9438959803135
 51
154.8854103977396
  0
ARC
  5
164DD
330
18
100
AcDbEntity
  8
姿図
100
AcDbCircle
 10
3851.528742306199
 20
-74.5354330269007
 30
0.0
 40
6.243494891248547
100
AcDbArc
 50
107.0981770184415
 51
159.0592581893388
  0
LINE
  5
164DE
330
18
100
AcDbEntity
  8
姿図
100
AcDbLine
 10
3845.697626697763
 20
-72.30399420450351
 30
0.0
 11
3845.946842848102
 21
-72.3266399627397
 31
0.0
  0
ARC
  5
164DF
330
18
100
AcDbEntity
  8
姿図
100
AcDbCircle
 10
3853.004285260873
 20
-77.4890049095153
 30
0.0
 40
8.321452490610396
100
AcDbArc
 50
129.840116389201
 51
151.408127004903
  0
ARC
  5
164E0
330
18
100
AcDbEntity
  8
姿図
100
AcDbCircle
 10
3851.528095084658
 20
-75.28522474905992
 30
0.0
 40
5.690408274763003
100
AcDbArc
 50
109.0089422507594
 51
132.6441520738894
  0
LINE
  5
164E1
330
18
100
AcDbEntity
  8
姿図
100
AcDbLine
 10
3869.740709259267
 20
-68.70883694624911
 30
0.0
 11
3869.740690379192
 21
-70.16936798913605
 31
0.0
  0
ARC
  5
164E2
330
18
100
AcDbEntity
  8
姿図
100
AcDbCircle
 10
3867.202435623658
 20
-76.79176230776272
 30
0.0
 40
7.092167772646583
100
AcDbArc
 50
24.05434525454766
 51
69.02899391903587
  0
ARC
  5
164E3
330
18
100
AcDbEntity
  8
姿図
100
AcDbCircle
 10
3867.67009618091
 20
-75.13977096217457
 30
0.0
 40
6.445804968387948
100
AcDbArc
 50
30.95011755230421
 51
71.26245843854812
  0
ARC
  5
164E4
330
18
100
AcDbEntity
  8
姿図
100
AcDbCircle
 10
3871.547989906835
 20
-72.97590516348112
 30
0.0
 40
2.011985454815605
100
AcDbArc
 50
11.64621484542445
 51
34.90029506552769
  0
LINE
  5
164E5
330
18
100
AcDbEntity
  8
姿図
100
AcDbLine
 10
3873.518554096517
 20
-72.56974971942793
 30
0.0
 11
3873.497749050784
 21
-73.52559137383662
 31
0.0
  0
LINE
  5
164E6
330
18
100
AcDbEntity
  8
姿図
100
AcDbLine
 10
3873.67871426738
 20
-73.90097372257708
 30
0.0
 11
3873.70671488783
 21
-72.57934984961469
 31
0.0
  0
LINE
  5
164E7
330
18
100
AcDbEntity
  8
姿図
100
AcDbLine
 10
3873.518554096517
 20
-72.56974971942793
 30
0.0
 11
3873.70671488783
 21
-72.57934984961469
 31
0.0
  0
ARC
  5
164E8
330
18
100
AcDbEntity
  8
姿図
100
AcDbCircle
 10
3869.839659731902
 20
-68.74799518948168
 30
0.0
 40
0.1064169349669472
100
AcDbArc
 50
98.89207980329883
 51
158.4095215871708
  0
ARC
  5
164E9
330
18
100
AcDbEntity
  8
姿図
100
AcDbCircle
 10
3866.497548881837
 20
-76.2541411237404
 30
0.0
 40
8.306122265047806
100
AcDbArc
 50
39.85466092805929
 51
66.39763958291684
  0
ARC
  5
164EA
330
18
100
AcDbEntity
  8
姿図
100
AcDbCircle
 10
3870.650277420819
 20
-73.08928274356242
 30
0.0
 40
3.098683840935339
100
AcDbArc
 50
9.471927650755303
 51
44.14231619188507
  0
ARC
  5
164EB
330
18
100
AcDbEntity
  8
姿図
100
AcDbCircle
 10
3852.19973675863
 20
-66.68649159204313
 30
0.0
 40
7.684584313784696
100
AcDbArc
 50
113.1060635940838
 51
142.4422239073918
  0
ARC
  5
164EC
330
18
100
AcDbEntity
  8
姿図
100
AcDbCircle
 10
3857.721436640719
 20
-76.55712438874832
 30
0.0
 40
18.96862403315867
100
AcDbArc
 50
101.2911751080621
 51
116.7488075270905
  0
ARC
  5
164ED
330
18
100
AcDbEntity
  8
姿図
100
AcDbCircle
 10
3859.587355323921
 20
-84.3717378849235
 30
0.0
 40
26.99898597568909
100
AcDbArc
 50
80.53548983358122
 51
101.9272810341566
  0
ARC
  5
164EE
330
18
100
AcDbEntity
  8
姿図
100
AcDbCircle
 10
3861.582082707359
 20
-75.70399147419323
 30
0.0
 40
18.12933376856992
100
AcDbArc
 50
65.97414726763853
 51
82.24955976118801
  0
ARC
  5
164EF
330
18
100
AcDbEntity
  8
姿図
100
AcDbCircle
 10
3861.869743670012
 20
-75.58568926668079
 30
0.0
 40
17.90544594868594
100
AcDbArc
 50
54.50611444873778
 51
66.66077417707015
  0
ARC
  5
164F0
330
18
100
AcDbEntity
  8
姿図
100
AcDbCircle
 10
3869.176199478537
 20
-65.39925872360652
 30
0.0
 40
5.369747723572417
100
AcDbArc
 50
23.51302691709758
 51
54.87259797793406
  0
LINE
  5
164F1
330
18
100
AcDbEntity
  8
姿図
100
AcDbLine
 10
3844.952601435399
 20
-58.11825192573463
 30
0.0
 11
3844.926308466649
 21
-60.71679098823472
 31
0.0
  0
LINE
  5
164F2
330
18
100
AcDbEntity
  8
姿図
100
AcDbLine
 10
3844.165176630711
 20
-58.14454489448474
 30
0.0
 11
3844.11265270493
 21
-60.61186716010991
 31
0.0
  0
LINE
  5
164F3
330
18
100
AcDbEntity
  8
姿図
100
AcDbLine
 10
3844.142017550559
 20
-59.23244746957346
 30
0.0
 11
3844.80969282866
 21
-59.25571149245218
 31
0.0
  0
LINE
  5
164F4
330
18
100
AcDbEntity
  8
姿図
100
AcDbLine
 10
3844.80969282866
 20
-59.25571149245218
 30
0.0
 11
3844.832772037877
 21
-58.54165832746696
 31
0.0
  0
LINE
  5
164F5
330
18
100
AcDbEntity
  8
姿図
100
AcDbLine
 10
3844.832772037877
 20
-58.54165832746696
 30
0.0
 11
3844.157366408219
 21
-58.51143170975786
 31
0.0
  0
LINE
  5
164F6
330
18
100
AcDbEntity
  8
姿図
100
AcDbLine
 10
3845.949997919774
 20
-58.53819528510974
 30
0.0
 11
3845.880277378288
 21
-60.20303132584843
 31
0.0
  0
ARC
  5
164F7
330
18
100
AcDbEntity
  8
姿図
100
AcDbCircle
 10
3848.92695361663
 20
-61.23978245421847
 30
0.0
 40
2.174074389492293
100
AcDbArc
 50
124.5846265695671
 51
135.7229484199964
  0
ARC
  5
164F8
330
18
100
AcDbEntity
  8
姿図
100
AcDbCircle
 10
3855.090020440083
 20
-69.06235867999806
 30
0.0
 40
12.16656936040578
100
AcDbArc
 50
120.062018806845
 51
126.7889442656237
  0
ARC
  5
164F9
330
18
100
AcDbEntity
  8
姿図
100
AcDbCircle
 10
3848.067738826499
 20
-57.56098007308731
 30
0.0
 40
1.343157947365103
100
AcDbArc
 50
313.6782427030277
 51
344.9611396808115
  0
ARC
  5
164FA
330
18
100
AcDbEntity
  8
姿図
100
AcDbCircle
 10
3850.179974305416
 20
-60.6729811829556
 30
0.0
 40
2.446527445037582
100
AcDbArc
 50
108.3841773672833
 51
118.9609150739969
  0
ARC
  5
164FB
330
18
100
AcDbEntity
  8
姿図
100
AcDbCircle
 10
3853.098000134003
 20
-66.15545733971987
 30
0.0
 40
8.632379147507207
100
AcDbArc
 50
104.3475444510762
 51
115.3037709219267
  0
ARC
  5
164FC
330
18
100
AcDbEntity
  8
姿図
100
AcDbCircle
 10
3851.18502874595
 20
-57.95343382929298
 30
0.0
 40
1.820665326432491
100
AcDbArc
 50
178.6171177586085
 51
192.6231261899929
  0
ARC
  5
164FD
330
18
100
AcDbEntity
  8
姿図
100
AcDbCircle
 10
3908.689586501962
 20
-59.51369724286303
 30
0.0
 40
59.34637850583563
100
AcDbArc
 50
173.1011023855524
 51
178.4510389818608
  0
ARC
  5
164FE
330
18
100
AcDbEntity
  8
姿図
100
AcDbCircle
 10
3859.705016166695
 20
-82.82042408532914
 30
0.0
 40
26.58464639976069
100
AcDbArc
 50
76.60595789988105
 51
100.9608874613386
  0
ARC
  5
164FF
330
18
100
AcDbEntity
  8
姿図
100
AcDbCircle
 10
3865.370327717358
 20
-68.07818170727194
 30
0.0
 40
10.66172277543556
100
AcDbArc
 50
52.63587060394072
 51
70.78208324591264
  0
ARC
  5
16500
330
18
100
AcDbEntity
  8
姿図
100
AcDbCircle
 10
3870.481042214824
 20
-59.10446625372663
 30
0.0
 40
0.5054145232443293
100
AcDbArc
 50
10.76860951313713
 51
59.99080121585621
  0
ARC
  5
16501
330
18
100
AcDbEntity
  8
姿図
100
AcDbCircle
 10
3809.271058952362
 20
-59.58951355675174
 30
0.0
 40
61.46968647557878
100
AcDbArc
 50
0.8600872037795718
 51
6.115015456986683
  0
ARC
  5
16502
330
18
100
AcDbEntity
  8
姿図
100
AcDbCircle
 10
3872.625642922389
 20
-58.83433371692342
 30
0.0
 40
1.89922636815973
100
AcDbArc
 50
174.9394242146408
 51
180.7612721143542
  0
ARC
  5
16503
330
18
100
AcDbEntity
  8
姿図
100
AcDbCircle
 10
3848.637732608849
 20
-57.01948664873646
 30
0.0
 40
20.0055389844919
100
AcDbArc
 50
8.503354659732954
 51
23.34607013286041
  0
ARC
  5
16504
330
18
100
AcDbEntity
  8
姿図
100
AcDbCircle
 10
3858.868566733615
 20
-53.46821407455388
 30
0.0
 40
9.239174097593345
100
AcDbArc
 50
28.27476313282215
 51
42.95884801494007
  0
ARC
  5
16505
330
18
100
AcDbEntity
  8
姿図
100
AcDbCircle
 10
3879.192853672427
 20
-60.84540200912772
 30
0.0
 40
28.48148714661508
100
AcDbArc
 50
155.6660590133418
 51
165.0660546530706
  0
ARC
  5
16506
330
18
100
AcDbEntity
  8
姿図
100
AcDbCircle
 10
3862.981992442226
 20
-53.47507566585489
 30
0.0
 40
10.67389565927747
100
AcDbArc
 50
144.3463591481295
 51
155.8581663282402
  0
ARC
  5
16507
330
18
100
AcDbEntity
  8
姿図
100
AcDbCircle
 10
3860.087426882742
 20
-63.59716282425791
 30
0.0
 40
17.33520475928148
100
AcDbArc
 50
71.35276458398913
 51
109.4717975942663
  0
ARC
  5
16508
330
18
100
AcDbEntity
  8
姿図
100
AcDbCircle
 10
3838.997160271483
 20
-49.25092288757662
 30
0.0
 40
27.58178528774918
100
AcDbArc
 50
4.590443487710459
 51
18.65099996680024
  0
ARC
  5
16509
330
18
100
AcDbEntity
  8
姿図
100
AcDbCircle
 10
3861.761831762341
 20
-46.06772462901438
 30
0.0
 40
7.013397636878466
100
AcDbArc
 50
65.64773604258193
 51
77.78217439901394
  0
ARC
  5
1650A
330
18
100
AcDbEntity
  8
姿図
100
AcDbCircle
 10
3858.024997948992
 20
-39.10270745841115
 30
0.0
 40
5.222239874812963
100
AcDbArc
 50
358.7878634453281
 51
4.468807970965622
  0
ARC
  5
1650B
330
18
100
AcDbEntity
  8
姿図
100
AcDbCircle
 10
3861.176226362089
 20
-43.68198295278319
 30
0.0
 40
4.842904449114553
100
AcDbArc
 50
70.79771794573928
 51
87.85007887216375
  0
ARC
  5
1650C
330
18
100
AcDbEntity
  8
姿図
100
AcDbCircle
 10
3860.023024138232
 20
-54.08611937273884
 30
0.0
 40
15.34999435262498
100
AcDbArc
 50
86.82667943648595
 51
91.93617680841405
  0
ARC
  5
1650D
330
18
100
AcDbEntity
  8
姿図
100
AcDbCircle
 10
3859.141325056125
 20
-44.23553328326454
 30
0.0
 40
5.471879688903019
100
AcDbArc
 50
91.34825162537344
 51
106.1526956119195
  0
ARC
  5
1650E
330
18
100
AcDbEntity
  8
姿図
100
AcDbCircle
 10
3859.369690729547
 20
-49.84107233158204
 30
0.0
 40
10.96282618659023
100
AcDbArc
 50
102.1351952757638
 51
109.2685643810331
  0
ARC
  5
1650F
330
18
100
AcDbEntity
  8
姿図
100
AcDbCircle
 10
3860.348397302959
 20
-38.81508540682478
 30
0.0
 40
3.297729771971056
100
AcDbArc
 50
174.7419248563001
 51
185.3614170438373
  0
ARC
  5
16510
330
18
100
AcDbEntity
  8
姿図
100
AcDbCircle
 10
3849.749927717924
 20
-39.16727012844137
 30
0.0
 40
7.871366429208836
100
AcDbArc
 50
1.365722849775119
 51
5.341181684552129
  0
ARC
  5
16511
330
18
100
AcDbEntity
  8
姿図
100
AcDbCircle
 10
3923.966275595752
 20
-39.7556768935068
 30
0.0
 40
64.961251727473
100
AcDbArc
 50
178.6041508399601
 51
179.1263384126918
  0
ARC
  5
16512
330
18
100
AcDbEntity
  8
姿図
100
AcDbCircle
 10
3863.549917326956
 20
-38.39000711344318
 30
0.0
 40
4.061047289207732
100
AcDbArc
 50
176.9402153515003
 51
185.0132830992029
  0
ARC
  5
16513
330
18
100
AcDbEntity
  8
姿図
100
AcDbCircle
 10
3864.878082674107
 20
-38.62964120681306
 30
0.0
 40
4.007445133883937
100
AcDbArc
 50
174.1392337818267
 51
181.8592762369348
  0
ARC
  5
16514
330
18
100
AcDbEntity
  8
姿図
100
AcDbCircle
 10
3803.018860099943
 20
-36.76303402873975
 30
0.0
 40
58.37609345540698
100
AcDbArc
 50
357.958597241784
 51
358.5388039584512
  0
ARC
  5
16515
330
18
100
AcDbEntity
  8
姿図
100
AcDbCircle
 10
3883.373820613761
 20
-38.23913544567483
 30
0.0
 40
20.62307542250036
100
AcDbArc
 50
178.95190729556
 51
182.4160770027973
  0
ARC
  5
16516
330
18
100
AcDbEntity
  8
姿図
100
AcDbCircle
 10
3862.593207415967
 20
-38.81704833153265
 30
0.0
 40
0.3170251650578048
100
AcDbArc
 50
59.73516729332584
 51
73.62991183405478
  0
ARC
  5
16517
330
18
100
AcDbEntity
  8
姿図
100
AcDbCircle
 10
3874.904297820319
 20
-45.80847030365305
 30
0.0
 40
20.64606372466649
100
AcDbArc
 50
164.9003244817298
 51
183.4293730746027
  0
ARC
  5
16518
330
18
100
AcDbEntity
  8
姿図
100
AcDbCircle
 10
3856.067576747131
 20
-39.37600832678993
 30
0.0
 40
0.3363462650242364
100
AcDbArc
 50
157.0047897508129
 51
200.2384915194994
  0
ARC
  5
16519
330
18
100
AcDbEntity
  8
姿図
100
AcDbCircle
 10
3862.517858536266
 20
-40.66589955462348
 30
0.0
 40
2.353176628855195
100
AcDbArc
 50
24.81417256257985
 51
33.26335909419251
  0
ARC
  5
1651A
330
18
100
AcDbEntity
  8
姿図
100
AcDbCircle
 10
3856.062658059235
 20
-49.62661881599809
 30
0.0
 40
5.354064230733493
100
AcDbArc
 50
217.8962279342373
 51
254.2401560289716
  0
ARC
  5
1651B
330
18
100
AcDbEntity
  8
姿図
100
AcDbCircle
 10
3864.230342965681
 20
-49.06823971933443
 30
0.0
 40
6.23813699003056
100
AcDbArc
 50
285.7123076237768
 51
311.5945141074826
  0
LINE
  5
1651C
330
18
100
AcDbEntity
  8
姿図
100
AcDbLine
 10
3854.6105545604
 20
-55.33144528510968
 30
0.0
 11
3854.546071064281
 21
-54.06655971817361
 31
0.0
  0
LINE
  5
1651D
330
18
100
AcDbEntity
  8
姿図
100
AcDbLine
 10
3865.907830396273
 20
-53.9315176988631
 30
0.0
 11
3865.863263056493
 21
-55.47035153510967
 31
0.0
  0
ARC
  5
1651E
330
18
100
AcDbEntity
  8
姿図
100
AcDbCircle
 10
3856.753413667221
 20
-54.29095693620809
 30
0.0
 40
2.218719332907516
100
AcDbArc
 50
121.1251399641457
 51
174.1952847466578
  0
ARC
  5
1651F
330
18
100
AcDbEntity
  8
姿図
100
AcDbCircle
 10
3859.72840824817
 20
-58.41860124535322
 30
0.0
 40
7.301646032248016
100
AcDbArc
 50
90.4325434324148
 51
124.3684461405218
  0
ARC
  5
16520
330
18
100
AcDbEntity
  8
姿図
100
AcDbCircle
 10
3860.178360527904
 20
-61.85807927737153
 30
0.0
 40
10.75278458513335
100
AcDbArc
 50
71.04295375031788
 51
92.69225774055056
  0
ARC
  5
16521
330
18
100
AcDbEntity
  8
姿図
100
AcDbCircle
 10
3862.279874997219
 20
-55.38982463798027
 30
0.0
 40
3.954292400972742
100
AcDbArc
 50
33.59578748635615
 51
69.39470577445334
  0
ARC
  5
16522
330
18
100
AcDbEntity
  8
姿図
100
AcDbCircle
 10
3863.762612964852
 20
-54.47254988322459
 30
0.0
 40
2.21239093574927
100
AcDbArc
 50
14.15502751961655
 51
35.0562873404177
  0
LINE
  5
16523
330
18
100
AcDbEntity
  8
姿図
100
AcDbLine
 10
3855.781058163978
 20
-47.10284930223099
 30
0.0
 11
3855.736686528579
 21
-48.67733215725514
 31
0.0
  0
LINE
  5
16524
330
18
100
AcDbEntity
  8
姿図
100
AcDbLine
 10
3855.736686528579
 20
-48.67733215725514
 30
0.0
 11
3855.572414915077
 21
-48.99356396847281
 31
0.0
  0
LINE
  5
16525
330
18
100
AcDbEntity
  8
姿図
100
AcDbLine
 10
3855.572414915077
 20
-48.99356396847281
 30
0.0
 11
3855.586172198394
 21
-50.75140301652175
 31
0.0
  0
LINE
  5
16526
330
18
100
AcDbEntity
  8
姿図
100
AcDbLine
 10
3864.627657256251
 20
-47.16568394193143
 30
0.0
 11
3864.689488710398
 21
-50.77707084076212
 31
0.0
  0
ARC
  5
16527
330
18
100
AcDbEntity
  8
姿図
100
AcDbCircle
 10
3871.208802476269
 20
-49.3137728458338
 30
0.0
 40
15.68863784102488
100
AcDbArc
 50
185.2576811854621
 51
190.5437002023272
  0
ARC
  5
16528
330
18
100
AcDbEntity
  8
姿図
100
AcDbCircle
 10
3859.654601406162
 20
-51.49050710603672
 30
0.0
 40
5.085182540573665
100
AcDbArc
 50
351.4172257850249
 51
8.065037385838558
  0
ARC
  5
16529
330
18
100
AcDbEntity
  8
姿図
100
AcDbCircle
 10
3859.105253684255
 20
-51.75507100693437
 30
0.0
 40
4.56286325777215
100
AcDbArc
 50
89.48926165255462
 51
137.5831759731709
  0
ARC
  5
1652A
330
18
100
AcDbEntity
  8
姿図
100
AcDbCircle
 10
3861.32250142367
 20
-51.24834005808964
 30
0.0
 40
4.06357599290132
100
AcDbArc
 50
36.95215183162548
 51
92.85797582241632
  0
LINE
  5
1652B
330
18
100
AcDbEntity
  8
姿図
100
AcDbLine
 10
3859.14592680882
 20
-47.19238903181633
 30
0.0
 11
3859.16521397732
 21
-46.57492109580301
 31
0.0
  0
LINE
  5
1652C
330
18
100
AcDbEntity
  8
姿図
100
AcDbLine
 10
3861.104925949451
 20
-46.58035096791662
 30
0.0
 11
3861.119889876598
 21
-47.18981835541547
 31
0.0
  0
ARC
  5
1652D
330
18
100
AcDbEntity
  8
姿図
100
AcDbCircle
 10
3860.068786026025
 20
-49.15817522035957
 30
0.0
 40
2.442594144222008
100
AcDbArc
 50
64.66453895353716
 51
111.9618139013409
  0
ARC
  5
1652E
330
18
100
AcDbEntity
  8
姿図
100
AcDbCircle
 10
3860.203202190359
 20
-58.32139479643058
 30
0.0
 40
9.055480311453088
100
AcDbArc
 50
60.34291278487569
 51
106.7829454507888
  0
LINE
  5
1652F
330
18
100
AcDbEntity
  8
姿図
100
AcDbLine
 10
3857.584891339167
 20
-49.44468215854124
 30
0.0
 11
3857.593504594808
 21
-49.94403010253939
 31
0.0
  0
LINE
  5
16530
330
18
100
AcDbEntity
  8
姿図
100
AcDbLine
 10
3857.593504594808
 20
-49.94403010253939
 30
0.0
 11
3857.998331882402
 21
-50.53808200627861
 31
0.0
  0
LINE
  5
16531
330
18
100
AcDbEntity
  8
姿図
100
AcDbLine
 10
3856.6546499284
 20
-49.76323161913172
 30
0.0
 11
3856.595237403098
 21
-50.01571518757294
 31
0.0
  0
LINE
  5
16532
330
18
100
AcDbEntity
  8
姿図
100
AcDbLine
 10
3856.595237403098
 20
-50.01571518757294
 30
0.0
 11
3857.04225045339
 21
-50.83941259472124
 31
0.0
  0
ARC
  5
16533
330
18
100
AcDbEntity
  8
姿図
100
AcDbCircle
 10
3857.413858723929
 20
-50.46276518617049
 30
0.0
 40
1.032349362678307
100
AcDbArc
 50
80.46365615661644
 51
137.3425886584271
  0
ARC
  5
16534
330
18
100
AcDbEntity
  8
姿図
100
AcDbCircle
 10
3857.37817094189
 20
-50.23781893815533
 30
0.0
 40
0.6890264887612664
100
AcDbArc
 50
240.8216921979882
 51
334.1651458234118
  0
LINE
  5
16535
330
18
100
AcDbEntity
  8
姿図
100
AcDbLine
 10
3857.04225045339
 20
-50.83941259472124
 30
0.0
 11
3857.145610777688
 21
-50.57251975057432
 31
0.0
  0
ARC
  5
16536
330
18
100
AcDbEntity
  8
姿図
100
AcDbCircle
 10
3857.430295696262
 20
-49.70562298110815
 30
0.0
 40
0.9127834094668069
100
AcDbArc
 50
232.8158063709225
 51
301.7080059436912
  0
ARC
  5
16537
330
18
100
AcDbEntity
  8
姿図
100
AcDbCircle
 10
3860.203202190359
 20
-58.32139479643058
 30
0.0
 40
9.055480311453088
100
AcDbArc
 50
113.4799962304749
 51
120.6671343438618
  0
ARC
  5
16538
330
18
100
AcDbEntity
  8
姿図
100
AcDbCircle
 10
3860.02172066718
 20
-54.16566511966028
 30
0.0
 40
3.512155935847192
100
AcDbArc
 50
84.05510899897504
 51
126.4514804045786
  0
ARC
  5
16539
330
18
100
AcDbEntity
  8
姿図
100
AcDbCircle
 10
3860.546245559305
 20
-54.24506630019653
 30
0.0
 40
3.576283893433354
100
AcDbArc
 50
54.80213643770136
 51
92.576480809209
  0
LINE
  5
1653A
330
18
100
AcDbEntity
  8
姿図
100
AcDbLine
 10
3862.366850388215
 20
-51.22669204928854
 30
0.0
 11
3862.580348977368
 21
-51.37700930227231
 31
0.0
  0
LINE
  5
1653B
330
18
100
AcDbEntity
  8
姿図
100
AcDbLine
 10
3858.1086858606
 20
-51.2988727275341
 30
0.0
 11
3858.589448818582
 21
-50.95882295494096
 31
0.0
  0
LINE
  5
1653C
330
18
100
AcDbEntity
  8
姿図
100
AcDbLine
 10
3874.74941832993
 20
-58.63666989448473
 30
0.0
 11
3874.681453486181
 21
-61.20618747260971
 31
0.0
  0
LINE
  5
1653D
330
18
100
AcDbEntity
  8
姿図
100
AcDbLine
 10
3873.770501337743
 20
-59.08538669135953
 30
0.0
 11
3873.835003690976
 21
-60.71967960594441
 31
0.0
  0
LINE
  5
1653E
330
18
100
AcDbEntity
  8
姿図
100
AcDbLine
 10
3873.108722963071
 20
-60.74656359334824
 30
0.0
 11
3873.403042084644
 21
-60.78136036141439
 31
0.0
  0
LINE
  5
1653F
330
18
100
AcDbEntity
  8
姿図
100
AcDbLine
 10
3873.403042084644
 20
-60.78136036141439
 30
0.0
 11
3873.639592464176
 21
-60.68883914674541
 31
0.0
  0
LINE
  5
16540
330
18
100
AcDbEntity
  8
姿図
100
AcDbLine
 10
3873.639592464176
 20
-60.68883914674541
 30
0.0
 11
3873.835003690976
 21
-60.71967960594441
 31
0.0
  0
ARC
  5
16541
330
18
100
AcDbEntity
  8
姿図
100
AcDbCircle
 10
3858.156312449702
 20
-74.0143281010254
 30
0.0
 40
19.99369965743132
100
AcDbArc
 50
38.37310906748025
 51
42.37078970394052
  0
LINE
  5
16542
330
18
100
AcDbEntity
  8
姿図
100
AcDbLine
 10
3873.835003690976
 20
-60.71967960594441
 30
0.0
 11
3873.831071028036
 21
-61.6026412896955
 31
0.0
  0
LINE
  5
16543
330
18
100
AcDbEntity
  8
姿図
100
AcDbLine
 10
3875.537959345555
 20
-58.7319198944848
 30
0.0
 11
3875.469994501806
 21
-61.15186520698455
 31
0.0
  0
LINE
  5
16544
330
18
100
AcDbEntity
  8
姿図
100
AcDbLine
 10
3875.528400318316
 20
-59.07227708333369
 30
0.0
 11
3874.871315414824
 21
-59.06203209222497
 31
0.0
  0
LINE
  5
16545
330
18
100
AcDbEntity
  8
姿図
100
AcDbLine
 10
3874.871315414824
 20
-59.06203209222497
 30
0.0
 11
3874.871315414824
 21
-59.70479080278426
 31
0.0
  0
LINE
  5
16546
330
18
100
AcDbEntity
  8
姿図
100
AcDbLine
 10
3874.871315414824
 20
-59.70479080278426
 30
0.0
 11
3875.508380473214
 21
-59.78510047319412
 31
0.0
  0
LINE
  5
16547
330
18
100
AcDbEntity
  8
姿図
100
AcDbLine
 10
3874.937511722493
 20
-59.468482458106
 30
0.0
 11
3875.448169060784
 21
-59.48738714523131
 31
0.0
  0
LINE
  5
16548
330
18
100
AcDbEntity
  8
姿図
100
AcDbLine
 10
3844.216490043304
 20
-58.90960265571573
 30
0.0
 11
3844.735606314384
 21
-58.92721479480372
 31
0.0
  0
LINE
  5
16549
330
18
100
AcDbEntity
  8
姿図
100
AcDbLine
 10
3855.20927770493
 20
-39.50586862495345
 30
0.0
 11
3855.751996218526
 21
-39.49236012076506
 31
0.0
  0
LINE
  5
1654A
330
18
100
AcDbEntity
  8
姿図
100
AcDbLine
 10
3864.653775064282
 20
-39.67832635129423
 30
0.0
 11
3865.08650426743
 21
-39.6888031952659
 31
0.0
  0
ARC
  5
1654B
330
18
100
AcDbEntity
  8
姿図
100
AcDbCircle
 10
3857.853875416215
 20
-41.02641660382517
 30
0.0
 40
2.060179311386563
100
AcDbArc
 50
96.54474250752902
 51
112.5115656931259
  0
ARC
  5
1654C
330
18
100
AcDbEntity
  8
姿図
100
AcDbCircle
 10
3859.712868571015
 20
-49.77464548052387
 30
0.0
 40
11.03172668071826
100
AcDbArc
 50
91.08276367019977
 51
93.63957692303383
  0
ARC
  5
1654D
330
18
100
AcDbEntity
  8
姿図
100
AcDbCircle
 10
3860.605759499359
 20
-41.78590514119639
 30
0.0
 40
3.037997754302832
100
AcDbArc
 50
75.66568337680155
 51
84.95818041632184
  0
ARC
  5
1654E
330
18
100
AcDbEntity
  8
姿図
100
AcDbCircle
 10
3862.516566321033
 20
-41.39867659392064
 30
0.0
 40
2.304033628122458
100
AcDbArc
 50
71.54136661978956
 51
83.70799580803134
  0
SPLINE
  5
1654F
330
18
100
AcDbEntity
  8
姿図
100
AcDbSpline
210
0.0
220
0.0
230
1.0
 70
    11
 71
     3
 72
    70
 73
    66
 74
     0
 42
0.000000001
 43
0.0000000001
 40
0.0
 40
0.0
 40
0.0
 40
0.0
 40
0.1325511003420694
 40
0.1325511003420694
 40
0.2651022006841388
 40
0.2651022006841388
 40
0.3976533010262082
 40
0.3976533010262082
 40
0.5302044013682776
 40
0.5302044013682776
 40
0.7397248520178367
 40
0.7397248520178367
 40
0.9492453026673957
 40
0.9492453026673957
 40
1.158765753316955
 40
1.158765753316955
 40
1.368286203966514
 40
1.368286203966514
 40
1.660455600340546
 40
1.660455600340546
 40
1.952624996714579
 40
1.952624996714579
 40
2.244794393088612
 40
2.244794393088612
 40
2.469780447170401
 40
2.469780447170401
 40
2.69476650125219
 40
2.69476650125219
 40
2.851074505126578
 40
2.851074505126578
 40
3.007382509000966
 40
3.007382509000966
 40
3.163690512875355
 40
3.163690512875355
 40
3.319998516749743
 40
3.319998516749743
 40
3.476306520624131
 40
3.476306520624131
 40
3.632614524498519
 40
3.632614524498519
 40
3.788922528372907
 40
3.788922528372907
 40
3.945230532247295
 40
3.945230532247295
 40
4.1996485318078
 40
4.1996485318078
 40
4.454066531368306
 40
4.454066531368306
 40
4.708484530928811
 40
4.708484530928811
 40
4.962902530489317
 40
4.962902530489317
 40
5.217320530049823
 40
5.217320530049823
 40
5.471738529610328
 40
5.471738529610328
 40
5.726156529170834
 40
5.726156529170834
 40
5.897880152543986
 40
5.897880152543986
 40
6.069603775917138
 40
6.069603775917138
 40
6.20406405414118
 40
6.20406405414118
 40
6.283185307179586
 40
6.283185307179586
 40
6.283185307179586
 40
6.283185307179586
 10
3842.868448393278
 20
-89.60933556743589
 30
0.0
 10
3842.862178089549
 20
-89.8332399436755
 30
0.0
 10
3842.888693521167
 20
-90.05857026724391
 30
0.0
 10
3843.017029756561
 20
-90.53116603616752
 30
0.0
 10
3843.11961826333
 20
-90.77857695227488
 30
0.0
 10
3843.417655233557
 20
-91.295367244447
 30
0.0
 10
3843.613309021509
 20
-91.56428241738763
 30
0.0
 10
3844.104642652203
 20
-92.1108323831628
 30
0.0
 10
3844.400184837065
 20
-92.38823623059591
 30
0.0
 10
3845.288465680136
 20
-93.09741942684599
 30
0.0
 10
3845.954289194956
 20
-93.5248057834695
 30
0.0
 10
3847.496422581135
 20
-94.32526717121584
 30
0.0
 10
3848.372396110991
 20
-94.69853471752435
 30
0.0
 10
3850.289214402878
 20
-95.3645509522874
 30
0.0
 10
3851.329961614696
 20
-95.65740935035359
 30
0.0
 10
3853.525039727229
 20
-96.14527494999317
 30
0.0
 10
3854.679308465581
 20
-96.34032174854713
 30
0.0
 10
3857.513159926388
 20
-96.67755187160407
 30
0.0
 10
3859.220278731942
 20
-96.76808742067425
 30
0.0
 10
3862.593038143259
 20
-96.72865141491314
 30
0.0
 10
3864.258339473167
 20
-96.59864444119142
 30
0.0
 10
3867.394258005261
 20
-96.13258596760903
 30
0.0
 10
3868.864556444704
 20
-95.79633073321531
 30
0.0
 10
3871.170102671933
 20
-95.05475660672312
 30
0.0
 10
3872.073633315596
 20
-94.68319604151822
 30
0.0
 10
3873.6271996139
 20
-93.87630248653443
 30
0.0
 10
3874.276488368995
 20
-93.44071773795736
 30
0.0
 10
3875.132105626327
 20
-92.69515949913114
 30
0.0
 10
3875.413153278502
 20
-92.38798217370663
 30
0.0
 10
3875.840856298102
 20
-91.79269836751098
 30
0.0
 10
3875.987696311518
 20
-91.50560077388661
 30
0.0
 10
3876.172280922418
 20
-90.95716410539433
 30
0.0
 10
3876.211715487847
 20
-90.69559330824018
 30
0.0
 10
3876.200064348985
 20
-90.16601724123291
 30
0.0
 10
3876.148556973892
 20
-89.89586312183098
 30
0.0
 10
3875.932340120039
 20
-89.32072051063653
 30
0.0
 10
3875.766199805054
 20
-89.01615641545106
 30
0.0
 10
3875.296995903308
 20
-88.38466282441425
 30
0.0
 10
3874.994011476667
 20
-88.05857473570927
 30
0.0
 10
3874.250203930586
 20
-87.40824990869748
 30
0.0
 10
3873.809687479425
 20
-87.0841865310075
 30
0.0
 10
3872.802417520312
 20
-86.45719887849907
 30
0.0
 10
3872.235802016417
 20
-86.15424100769837
 30
0.0
 10
3870.603007322595
 20
-85.40418906210982
 30
0.0
 10
3869.446268813669
 20
-84.98639083821979
 30
0.0
 10
3866.927726308669
 20
-84.28469784962988
 30
0.0
 10
3865.566110253222
 20
-84.00062397904946
 30
0.0
 10
3862.73439756602
 20
-83.58948673664077
 30
0.0
 10
3861.264465633677
 20
-83.46238045219786
 30
0.0
 10
3858.318179454577
 20
-83.37478600148677
 30
0.0
 10
3856.841996961732
 20
-83.41430211806517
 30
0.0
 10
3853.985732498431
 20
-83.65638813179487
 30
0.0
 10
3852.605812990237
 20
-83.85900789422533
 30
0.0
 10
3850.039987811562
 20
-84.4098172477494
 30
0.0
 10
3848.854257202546
 20
-84.75818935024347
 30
0.0
 10
3846.765255838976
 20
-85.56607397435266
 30
0.0
 10
3845.862538215672
 20
-86.02607517073295
 30
0.0
 10
3844.645981616841
 20
-86.83866438209645
 30
0.0
 10
3844.236183033386
 20
-87.17715831180465
 30
0.0
 10
3843.585008708181
 20
-87.8476603457242
 30
0.0
 10
3843.344103252865
 20
-88.17874141652817
 30
0.0
 10
3843.048529051561
 20
-88.74038864791703
 30
0.0
 10
3842.963991632523
 20
-88.97693961499192
 30
0.0
 10
3842.887789958405
 20
-89.3423237835865
 30
0.0
 10
3842.872191208589
 20
-89.4756845093674
 30
0.0
 10
3842.868448393278
 20
-89.60933556743589
 30
0.0
  0
ARC
  5
16550
330
18
100
AcDbEntity
  8
姿図
100
AcDbCircle
 10
3858.130886708644
 20
-114.8508966955567
 30
0.0
 40
35.03401110430546
100
AcDbArc
 50
87.76797878116228
 51
118.2602568684018
  0
ARC
  5
16551
330
18
100
AcDbEntity
  8
姿図
100
AcDbCircle
 10
3860.387372001731
 20
-117.3689503743685
 30
0.0
 40
37.53478236001548
100
AcDbArc
 50
66.16327990533665
 51
91.29781924384537
  0
ARC
  5
16552
330
18
100
AcDbEntity
  8
姿図
100
AcDbCircle
 10
3849.742508666339
 20
-96.14347914650682
 30
0.0
 40
14.65849270865605
100
AcDbArc
 50
124.0118240638611
 51
138.6946390210372
  0
ARC
  5
16553
330
18
100
AcDbEntity
  8
姿図
100
AcDbCircle
 10
3871.638533230009
 20
-92.62352552680125
 30
0.0
 40
10.35726125910092
100
AcDbArc
 50
30.10092971952029
 51
67.77350120349921
  0
ARC
  5
16554
330
18
100
AcDbEntity
  8
姿図
100
AcDbCircle
 10
3871.350488616165
 20
-91.29868939422624
 30
0.0
 40
10.0254455530582
100
AcDbArc
 50
13.7004604663171
 51
22.70437974690803
  0
LINE
  5
16555
330
18
100
AcDbEntity
  8
姿図
100
AcDbLine
 10
3842.031931958266
 20
-69.27537277165368
 30
0.0
 11
3841.55799002954
 21
-81.98161296047908
 31
0.0
  0
LINE
  5
16556
330
18
100
AcDbEntity
  8
姿図
100
AcDbLine
 10
3841.55799002954
 20
-81.98161296047908
 30
0.0
 11
3841.331923212743
 21
-82.69151169135978
 31
0.0
  0
ARC
  5
16557
330
18
100
AcDbEntity
  8
姿図
100
AcDbCircle
 10
3859.452622689413
 20
-94.34859975466247
 30
0.0
 40
27.31411363335211
100
AcDbArc
 50
71.67295501632029
 51
85.11625161579612
  0
ARC
  5
16558
330
18
100
AcDbEntity
  8
姿図
100
AcDbCircle
 10
3859.945589769311
 20
-97.0134668641
 30
0.0
 40
30.00706843485315
100
AcDbArc
 50
94.3133279251343
 51
106.4527785740573
  0
LINE
  5
16559
330
18
100
AcDbEntity
  8
姿図
100
AcDbLine
 10
3845.55628551743
 20
-75.99312985542213
 30
0.0
 11
3845.627483657793
 21
-76.16652259689874
 31
0.0
  0
ARC
  5
1655A
330
18
100
AcDbEntity
  8
姿図
100
AcDbCircle
 10
3852.586411503884
 20
-67.27505937604371
 30
0.0
 40
8.01865105716256
100
AcDbArc
 50
113.9969872917348
 51
151.6481519903319
  0
ARC
  5
1655B
330
18
100
AcDbEntity
  8
姿図
100
AcDbCircle
 10
3857.721436640719
 20
-76.55712438874832
 30
0.0
 40
18.60862403315867
100
AcDbArc
 50
101.2911751080621
 51
116.7488075270905
  0
ARC
  5
1655C
330
18
100
AcDbEntity
  8
姿図
100
AcDbCircle
 10
3859.587355323921
 20
-84.3717378849235
 30
0.0
 40
26.6389859756891
100
AcDbArc
 50
80.53548983358122
 51
101.9272810341566
  0
ARC
  5
1655D
330
18
100
AcDbEntity
  8
姿図
100
AcDbCircle
 10
3861.582082707359
 20
-75.70399147419323
 30
0.0
 40
17.76933376856992
100
AcDbArc
 50
65.97414726763853
 51
82.24955976118801
  0
ARC
  5
1655E
330
18
100
AcDbEntity
  8
姿図
100
AcDbCircle
 10
3861.869743670012
 20
-75.58568926668079
 30
0.0
 40
17.54544594868594
100
AcDbArc
 50
54.50611444873778
 51
66.66077417707015
  0
ARC
  5
1655F
330
18
100
AcDbEntity
  8
姿図
100
AcDbCircle
 10
3867.948032940589
 20
-66.79186043528932
 30
0.0
 40
6.858264372298297
100
AcDbArc
 50
34.58216941684862
 51
53.25955639036478
  0
LINE
  5
16560
330
18
100
AcDbEntity
  8
姿図
100
AcDbLine
 10
3873.59453145064
 20
-62.89919492482943
 30
0.0
 11
3873.58185219276
 21
-63.13853854309707
 31
0.0
  0
ARC
  5
16561
330
18
100
AcDbEntity
  8
姿図
100
AcDbCircle
 10
3867.690916740601
 20
-67.30240411129114
 30
0.0
 40
7.215052215152664
100
AcDbArc
 50
27.20189775311786
 51
35.00004946461258
  0
LINE
  5
16562
330
18
100
AcDbEntity
  8
姿図
100
AcDbLine
 10
3845.935505808696
 20
-61.17461047179279
 30
0.0
 11
3845.864369545587
 21
-61.64586084778273
 31
0.0
  0
LINE
  5
16563
330
18
100
AcDbEntity
  8
姿図
100
AcDbLine
 10
3873.831071028036
 20
-61.6026412896955
 30
0.0
 11
3873.868275337251
 21
-62.28155945810988
 31
0.0
  0
ARC
  5
16564
330
18
100
AcDbEntity
  8
姿図
100
AcDbCircle
 10
3850.263222928374
 20
-72.52034169327283
 30
0.0
 40
5.019717803373259
100
AcDbArc
 50
133.9639200721297
 51
164.614713917064
  0
ARC
  5
16565
330
18
100
AcDbEntity
  8
姿図
100
AcDbCircle
 10
3856.001166512675
 20
-79.34045853364739
 30
0.0
 40
13.92529216795379
100
AcDbArc
 50
99.96213688778852
 51
131.4432276129799
  0
ARC
  5
16566
330
18
100
AcDbEntity
  8
姿図
100
AcDbCircle
 10
3859.71418767958
 20
-90.9787362853964
 30
0.0
 40
26.08263536002879
100
AcDbArc
 50
74.89723041579192
 51
103.6002725992903
  0
ARC
  5
16567
330
18
100
AcDbEntity
  8
姿図
100
AcDbCircle
 10
3864.196538353528
 20
-77.87948851935391
 30
0.0
 40
12.30249718714882
100
AcDbArc
 50
44.34359490364465
 51
79.22366257854154
  0
ARC
  5
16568
330
18
100
AcDbEntity
  8
姿図
100
AcDbCircle
 10
3870.711825113875
 20
-71.86757678541505
 30
0.0
 40
3.450845033596016
100
AcDbArc
 50
12.81913927439293
 51
48.80510402841277
  0
LINE
  5
16569
330
18
100
AcDbEntity
  8
姿図
100
AcDbLine
 10
3874.04248473618
 20
-57.80732516792216
 30
0.0
 11
3874.107993075384
 21
-64.00420615165524
 31
0.0
  0
ARC
  5
1656A
330
18
100
AcDbEntity
  8
姿図
100
AcDbCircle
 10
3860.087426882742
 20
-63.59716282425791
 30
0.0
 40
17.04720475928148
100
AcDbArc
 50
69.6467830627408
 51
110.8157935129272
  0
ARC
  5
1656B
330
18
100
AcDbEntity
  8
姿図
100
AcDbCircle
 10
3871.256530859612
 20
-61.15449220089624
 30
0.0
 40
1.607862445810594
100
AcDbArc
 50
42.69636713775296
 51
56.12973347159893
  0
LINE
  5
1656C
330
18
100
AcDbEntity
  8
姿図
100
AcDbLine
 10
3845.661271357274
 20
-57.30453415229715
 30
0.0
 11
3845.529613823588
 21
-63.46712407250845
 31
0.0
  0
LINE
  5
1656D
330
18
100
AcDbEntity
  8
姿図
100
AcDbLine
 10
3845.545801228612
 20
-62.70942843416412
 30
0.0
 11
3846.107866518429
 21
-62.00226774467899
 31
0.0
  0
ARC
  5
1656E
330
18
100
AcDbEntity
  8
姿図
100
AcDbCircle
 10
3857.922278360068
 20
-42.49748121125265
 30
0.0
 40
3.805988655204647
100
AcDbArc
 50
103.2376313139145
 51
125.1451841017959
  0
ARC
  5
1656F
330
18
100
AcDbEntity
  8
姿図
100
AcDbCircle
 10
3859.365961800309
 20
-44.56542272868398
 30
0.0
 40
6.141332273846576
100
AcDbArc
 50
93.2436521284612
 51
106.6502285820087
  0
ARC
  5
16570
330
18
100
AcDbEntity
  8
姿図
100
AcDbCircle
 10
3859.664503759508
 20
-50.94960122017176
 30
0.0
 40
12.5183471768788
100
AcDbArc
 50
84.45978160155543
 51
90.80287533105246
  0
ARC
  5
16571
330
18
100
AcDbEntity
  8
姿図
100
AcDbCircle
 10
3860.502767059095
 20
-45.96942582531676
 30
0.0
 40
7.49820056416878
100
AcDbArc
 50
72.48901557824543
 51
83.37017240572861
  0
ARC
  5
16572
330
18
100
AcDbEntity
  8
姿図
100
AcDbCircle
 10
3859.897408951935
 20
-48.61340771244556
 30
0.0
 40
10.22278598436362
100
AcDbArc
 50
62.76850285568206
 51
70.88433192246656
  0
LINE
  5
16573
330
18
100
AcDbEntity
  8
姿図
100
AcDbLine
 10
3841.008700209028
 20
-81.37385491010866
 30
0.0
 11
3841.149546747899
 21
-81.72499704292227
 31
0.0
  0
ENDSEC
  0
SECTION
  2
OBJECTS
  0
DICTIONARY
  5
C
330
0
100
AcDbDictionary
281
     1
  3
ACAD_GROUP
350
D
  3
ACAD_IMAGE_VARS
350
168B4
  3
ACAD_LAYOUT
350
617
  3
ACAD_MLINESTYLE
350
E
  3
ACAD_PLOTSETTINGS
350
618
  3
ACAD_PLOTSTYLENAME
350
615
  3
ACAD_SCALELIST
350
10AAE
  3
AcadDim
350
50AA
  3
AcDbVariableDictionary
350
6DE
  3
APPDATA
350
168B3
  3
ASE_INDEX_DICTIONARY
350
E61A
  3
DWGPROPS
350
168D8
  0
DICTIONARY
  5
11537
330
2
100
AcDbDictionary
280
     1
281
     1
  3
ACAD_LAYERSTATES
360
11538
  0
DICTIONARY
  5
10AD6
330
F
100
AcDbDictionary
280
     1
281
     1
  3
ADSK_XREC_LAYER_RECONCILED
360
10AD7
  0
DICTIONARY
  5
10ADA
330
34
100
AcDbDictionary
280
     1
281
     1
  3
ADSK_XREC_LAYER_RECONCILED
360
10ADB
  0
DICTIONARY
  5
10AE2
330
2F4
100
AcDbDictionary
280
     1
281
     1
  3
ADSK_XREC_LAYER_RECONCILED
360
10AE3
  0
DICTIONARY
  5
10AE6
330
305
100
AcDbDictionary
280
     1
281
     1
  3
ADSK_XREC_LAYER_RECONCILED
360
10AE7
  0
DICTIONARY
  5
13480
330
18
100
AcDbDictionary
280
     1
281
     1
  3
ACAD_SORTENTS
360
13481
  0
DICTIONARY
  5
D
102
{ACAD_REACTORS
330
C
102
}
330
C
100
AcDbDictionary
281
     1
  0
RASTERVARIABLES
  5
168B4
102
{ACAD_REACTORS
330
C
102
}
330
C
100
AcDbRasterVariables
 90
        0
 70
     1
 71
     1
 72
     0
  0
DICTIONARY
  5
617
102
{ACAD_REACTORS
330
C
102
}
330
C
100
AcDbDictionary
281
     1
  3
Model
350
619
  3
ﾚｲｱｳﾄ1
350
61A
  0
DICTIONARY
  5
E
102
{ACAD_REACTORS
330
C
102
}
330
C
100
AcDbDictionary
281
     1
  3
STANDARD
350
1B
  0
DICTIONARY
  5
618
102
{ACAD_REACTORS
330
C
102
}
330
C
100
AcDbDictionary
281
     1
  0
ACDBDICTIONARYWDFLT
  5
615
102
{ACAD_REACTORS
330
C
102
}
330
C
100
AcDbDictionary
281
     1
  3
Normal
350
616
100
AcDbDictionaryWithDefault
340
616
  0
DICTIONARY
  5
10AAE
102
{ACAD_REACTORS
330
C
102
}
330
C
100
AcDbDictionary
281
     1
  3
A0
350
10AAF
  3
A1
350
10AB0
  3
A2
350
10AB1
  3
A3
350
10AB2
  3
A4
350
10AB3
  3
A5
350
10AB4
  3
A6
350
10AB5
  3
A7
350
10AB6
  3
A8
350
10AB7
  3
A9
350
10AB8
  3
B0
350
10AB9
  3
B1
350
10ABA
  3
B2
350
10ABB
  3
B3
350
10ABC
  3
B4
350
10ABD
  3
B5
350
10ABE
  3
B6
350
10ABF
  3
B7
350
10AC0
  3
B8
350
10AC1
  3
B9
350
10AC2
  3
C0
350
10AC3
  3
C1
350
10AC4
  3
C2
350
10AC5
  3
C3
350
10AC6
  3
C4
350
10AC7
  3
C5
350
10AC8
  3
C6
350
10AC9
  3
C7
350
10ACA
  3
C8
350
10ACB
  3
C9
350
10ACC
  3
D0
350
10ACD
  3
D1
350
10ACE
  3
D2
350
10ACF
  0
XRECORD
  5
50AA
102
{ACAD_REACTORS
330
C
102
}
330
C
100
AcDbXrecord
280
     1
 90
   990106
  3
OPEN
 60
     0
 61
     0
 62
     1
 63
     3
 64
     1
 65
     0
 66
     0
 67
     3
 68
     1
 69
     0
 70
     0
 71
     0
 72
     0
 40
0.0
170
     2
340
0
  0
DICTIONARY
  5
6DE
102
{ACAD_REACTORS
330
C
102
}
330
C
100
AcDbDictionary
281
     1
  3
DIMASSOC
350
6DF
  3
INDEXCTL
350
10B12
  3
PROJECTNAME
350
6E0
  3
SORTENTS
350
10B11
  0
DICTIONARY
  5
168B3
102
{ACAD_REACTORS
330
C
102
}
330
C
100
AcDbDictionary
281
     1
  0
DICTIONARY
  5
E61A
102
{ACAD_REACTORS
330
C
102
}
330
C
100
AcDbDictionary
281
     1
  3
ASEBlockHierarchyIndexRecord
350
E61C
1001
DCO15
1040
1543850671.093
  0
XRECORD
  5
168D8
102
{ACAD_REACTORS
330
C
102
}
330
C
100
AcDbXrecord
280
     1
  1
DWGPROPS COOKIE
  2

  3

  4

  6

  7

  8
SPAX
  9

300
=
301
=
302
=
303
=
304
=
305
=
306
=
307
=
308
=
309
=
 40
0.0
 41
2448636.244629629
 42
2456821.201546609
  1

 90
        0
  0
DICTIONARY
  5
11538
102
{ACAD_REACTORS
330
11537
102
}
330
11537
100
AcDbDictionary
281
     1
  0
XRECORD
  5
10AD7
102
{ACAD_REACTORS
330
10AD6
102
}
330
10AD6
100
AcDbXrecord
280
     1
290
     1
  0
XRECORD
  5
10ADB
102
{ACAD_REACTORS
330
10ADA
102
}
330
10ADA
100
AcDbXrecord
280
     1
290
     1
  0
XRECORD
  5
10AE3
102
{ACAD_REACTORS
330
10AE2
102
}
330
10AE2
100
AcDbXrecord
280
     1
290
     1
  0
XRECORD
  5
10AE7
102
{ACAD_REACTORS
330
10AE6
102
}
330
10AE6
100
AcDbXrecord
280
     1
290
     1
  0
SORTENTSTABLE
  5
13481
102
{ACAD_REACTORS
330
13480
102
}
330
13480
100
AcDbSortentsTable
330
18
331
0
  5
348B
331
32B5
  5
32B5
331
3E99
  5
3E99
331
5BEB
  5
5BEB
331
ABCE
  5
ABCE
  0
LAYOUT
  5
619
102
{ACAD_REACTORS
330
617
102
}
330
617
100
AcDbPlotSettings
  1

  2
JUST PDF 2
  4
A4
  6

 40
3.174999952316284
 41
3.174999952316284
 42
3.175003051757812
 43
3.17498779296875
 44
209.8886566162109
 45
297.0530090332031
 46
14.27171755861536
 47
9.855173074625782
 48
3816.189586719188
 49
-535.3269810951695
140
4166.180023709
141
6.658369182163597
142
1.0
143
2.0
 70
 11940
 72
     1
 73
     0
 74
     4
  7
spax form.ctb
 75
     0
147
0.5
148
-3816.189586719188
149
535.3269810951695
100
AcDbLayout
  1
Model
 70
     1
 71
     0
 10
0.0
 20
0.0
 11
12.0
 21
9.0
 12
0.0
 22
0.0
 32
0.0
 14
3808.74624414223
 24
-121.9496093524891
 34
0.0
 15
3915.78624414223
 25
-36.97779812934803
 35
0.0
146
0.0
 13
0.0
 23
0.0
 33
0.0
 16
1.0
 26
0.0
 36
0.0
 17
0.0
 27
1.0
 37
0.0
 76
     0
330
18
331
15E3F
1001
ACAD_PSEXT
1000
JUST PDF 2
1000
JUST PDF 2
1000
JUST PDF 2 Port:
1000

1070
     0
  0
LAYOUT
  5
61A
102
{ACAD_REACTORS
330
617
102
}
330
617
100
AcDbPlotSettings
  1

  2
Canon LASER SHOT LBP-750
  4

  6

 40
0.0
 41
0.0
 42
0.0
 43
0.0
 44
0.0
 45
0.0
 46
0.0
 47
0.0
 48
0.0
 49
0.0
140
0.0
141
0.0
142
1.0
143
1.0
 70
   688
 72
     0
 73
     0
 74
     5
  7
spax form.ctb
 75
    16
147
1.0
148
0.0
149
0.0
100
AcDbLayout
  1
ﾚｲｱｳﾄ1
 70
     0
 71
     1
 10
0.0
 20
0.0
 11
12.0
 21
9.0
 12
0.0
 22
0.0
 32
0.0
 14
1.000000000000000E+20
 24
1.000000000000000E+20
 34
1.000000000000000E+20
 15
-1.000000000000000E+20
 25
-1.000000000000000E+20
 35
-1.000000000000000E+20
146
0.0
 13
0.0
 23
0.0
 33
0.0
 16
1.0
 26
0.0
 36
0.0
 17
0.0
 27
1.0
 37
0.0
 76
     0
330
15
  0
MLINESTYLE
  5
1B
102
{ACAD_REACTORS
330
E
102
}
330
E
100
AcDbMlineStyle
  2
STANDARD
 70
     0
  3

 62
     0
 51
90.0
 52
90.0
 71
     2
 49
0.5
 62
   256
  6
BYLAYER
 49
-0.5
 62
   256
  6
BYLAYER
  0
ACDBPLACEHOLDER
  5
616
102
{ACAD_REACTORS
330
615
102
}
330
615
  0
SCALE
  5
10AAF
102
{ACAD_REACTORS
330
10AAE
102
}
330
10AAE
100
AcDbScale
 70
     0
300
1:1
140
1.0
141
1.0
290
     1
  0
SCALE
  5
10AB0
102
{ACAD_REACTORS
330
10AAE
102
}
330
10AAE
100
AcDbScale
 70
     0
300
1:2
140
1.0
141
2.0
290
     0
  0
SCALE
  5
10AB1
102
{ACAD_REACTORS
330
10AAE
102
}
330
10AAE
100
AcDbScale
 70
     0
300
1:4
140
1.0
141
4.0
290
     0
  0
SCALE
  5
10AB2
102
{ACAD_REACTORS
330
10AAE
102
}
330
10AAE
100
AcDbScale
 70
     0
300
1:5
140
1.0
141
5.0
290
     0
  0
SCALE
  5
10AB3
102
{ACAD_REACTORS
330
10AAE
102
}
330
10AAE
100
AcDbScale
 70
     0
300
1:8
140
1.0
141
8.0
290
     0
  0
SCALE
  5
10AB4
102
{ACAD_REACTORS
330
10AAE
102
}
330
10AAE
100
AcDbScale
 70
     0
300
1:10
140
1.0
141
10.0
290
     0
  0
SCALE
  5
10AB5
102
{ACAD_REACTORS
330
10AAE
102
}
330
10AAE
100
AcDbScale
 70
     0
300
1:16
140
1.0
141
16.0
290
     0
  0
SCALE
  5
10AB6
102
{ACAD_REACTORS
330
10AAE
102
}
330
10AAE
100
AcDbScale
 70
     0
300
1:20
140
1.0
141
20.0
290
     0
  0
SCALE
  5
10AB7
102
{ACAD_REACTORS
330
10AAE
102
}
330
10AAE
100
AcDbScale
 70
     0
300
1:30
140
1.0
141
30.0
290
     0
  0
SCALE
  5
10AB8
102
{ACAD_REACTORS
330
10AAE
102
}
330
10AAE
100
AcDbScale
 70
     0
300
1:40
140
1.0
141
40.0
290
     0
  0
SCALE
  5
10AB9
102
{ACAD_REACTORS
330
10AAE
102
}
330
10AAE
100
AcDbScale
 70
     0
300
1:50
140
1.0
141
50.0
290
     0
  0
SCALE
  5
10ABA
102
{ACAD_REACTORS
330
10AAE
102
}
330
10AAE
100
AcDbScale
 70
     0
300
1:100
140
1.0
141
100.0
290
     0
  0
SCALE
  5
10ABB
102
{ACAD_REACTORS
330
10AAE
102
}
330
10AAE
100
AcDbScale
 70
     0
300
2:1
140
2.0
141
1.0
290
     0
  0
SCALE
  5
10ABC
102
{ACAD_REACTORS
330
10AAE
102
}
330
10AAE
100
AcDbScale
 70
     0
300
4:1
140
4.0
141
1.0
290
     0
  0
SCALE
  5
10ABD
102
{ACAD_REACTORS
330
10AAE
102
}
330
10AAE
100
AcDbScale
 70
     0
300
8:1
140
8.0
141
1.0
290
     0
  0
SCALE
  5
10ABE
102
{ACAD_REACTORS
330
10AAE
102
}
330
10AAE
100
AcDbScale
 70
     0
300
10:1
140
10.0
141
1.0
290
     0
  0
SCALE
  5
10ABF
102
{ACAD_REACTORS
330
10AAE
102
}
330
10AAE
100
AcDbScale
 70
     0
300
100:1
140
100.0
141
1.0
290
     0
  0
SCALE
  5
10AC0
102
{ACAD_REACTORS
330
10AAE
102
}
330
10AAE
100
AcDbScale
 70
     0
300
1/128" = 1'-0"
140
0.0078125
141
12.0
290
     0
  0
SCALE
  5
10AC1
102
{ACAD_REACTORS
330
10AAE
102
}
330
10AAE
100
AcDbScale
 70
     0
300
1/64" = 1'-0"
140
0.015625
141
12.0
290
     0
  0
SCALE
  5
10AC2
102
{ACAD_REACTORS
330
10AAE
102
}
330
10AAE
100
AcDbScale
 70
     0
300
1/32" = 1'-0"
140
0.03125
141
12.0
290
     0
  0
SCALE
  5
10AC3
102
{ACAD_REACTORS
330
10AAE
102
}
330
10AAE
100
AcDbScale
 70
     0
300
1/16" = 1'-0"
140
0.0625
141
12.0
290
     0
  0
SCALE
  5
10AC4
102
{ACAD_REACTORS
330
10AAE
102
}
330
10AAE
100
AcDbScale
 70
     0
300
3/32" = 1'-0"
140
0.09375
141
12.0
290
     0
  0
SCALE
  5
10AC5
102
{ACAD_REACTORS
330
10AAE
102
}
330
10AAE
100
AcDbScale
 70
     0
300
1/8" = 1'-0"
140
0.125
141
12.0
290
     0
  0
SCALE
  5
10AC6
102
{ACAD_REACTORS
330
10AAE
102
}
330
10AAE
100
AcDbScale
 70
     0
300
3/16" = 1'-0"
140
0.1875
141
12.0
290
     0
  0
SCALE
  5
10AC7
102
{ACAD_REACTORS
330
10AAE
102
}
330
10AAE
100
AcDbScale
 70
     0
300
1/4" = 1'-0"
140
0.25
141
12.0
290
     0
  0
SCALE
  5
10AC8
102
{ACAD_REACTORS
330
10AAE
102
}
330
10AAE
100
AcDbScale
 70
     0
300
3/8" = 1'-0"
140
0.375
141
12.0
290
     0
  0
SCALE
  5
10AC9
102
{ACAD_REACTORS
330
10AAE
102
}
330
10AAE
100
AcDbScale
 70
     0
300
1/2" = 1'-0"
140
0.5
141
12.0
290
     0
  0
SCALE
  5
10ACA
102
{ACAD_REACTORS
330
10AAE
102
}
330
10AAE
100
AcDbScale
 70
     0
300
3/4" = 1'-0"
140
0.75
141
12.0
290
     0
  0
SCALE
  5
10ACB
102
{ACAD_REACTORS
330
10AAE
102
}
330
10AAE
100
AcDbScale
 70
     0
300
1" = 1'-0"
140
1.0
141
12.0
290
     0
  0
SCALE
  5
10ACC
102
{ACAD_REACTORS
330
10AAE
102
}
330
10AAE
100
AcDbScale
 70
     0
300
1-1/2" = 1'-0"
140
1.5
141
12.0
290
     0
  0
SCALE
  5
10ACD
102
{ACAD_REACTORS
330
10AAE
102
}
330
10AAE
100
AcDbScale
 70
     0
300
3" = 1'-0"
140
3.0
141
12.0
290
     0
  0
SCALE
  5
10ACE
102
{ACAD_REACTORS
330
10AAE
102
}
330
10AAE
100
AcDbScale
 70
     0
300
6" = 1'-0"
140
6.0
141
12.0
290
     0
  0
SCALE
  5
10ACF
102
{ACAD_REACTORS
330
10AAE
102
}
330
10AAE
100
AcDbScale
 70
     0
300
1'-0" = 1'-0"
140
12.0
141
12.0
290
     0
  0
DICTIONARYVAR
  5
6DF
102
{ACAD_REACTORS
330
6DE
102
}
330
6DE
100
DictionaryVariables
280
     0
  1
1
  0
DICTIONARYVAR
  5
10B12
102
{ACAD_REACTORS
330
6DE
102
}
330
6DE
100
DictionaryVariables
280
     0
  1
0
  0
DICTIONARYVAR
  5
6E0
102
{ACAD_REACTORS
330
6DE
102
}
330
6DE
100
DictionaryVariables
280
     0
  1

  0
DICTIONARYVAR
  5
10B11
102
{ACAD_REACTORS
330
6DE
102
}
330
6DE
100
DictionaryVariables
280
     0
  1
127
  0
XRECORD
  5
E61C
102
{ACAD_REACTORS
330
E61A
102
}
330
E61A
100
AcDbXrecord
280
     1
330
0
330
0
330
0
330
0
330
0
330
0
330
0
330
0
330
0
330
0
330
0
330
0
330
0
330
0
330
0
330
0
330
0
330
0
330
0
330
0
330
0
330
0
330
0
330
0
330
0
330
0
330
0
330
0
330
0
330
0
330
0
330
0
330
0
330
0
330
0
330
0
330
0
330
0
330
0
330
0
330
0
330
0
330
0
330
0
330
0
330
0
330
0
330
0
330
0
330
0
330
0
330
0
330
0
330
0
330
0
330
0
330
0
330
0
330
0
330
0
330
0
330
0
330
0
330
0
330
0
330
0
330
0
330
0
330
0
330
0
330
0
330
0
330
0
330
0
330
0
330
0
330
0
330
0
330
0
330
0
330
507B
330
507C
330
5085
330
5086
330
508E
330
508F
330
5098
330
5099
330
0
330
0
330
0
330
0
330
0
330
0
330
0
330
0
330
0
330
0
330
0
330
0
330
0
330
0
330
0
330
0
330
0
330
0
330
0
330
0
330
0
330
0
330
0
330
0
330
0
330
0
330
0
330
0
330
0
330
0
330
0
330
0
330
0
330
0
330
0
330
0
330
0
330
0
330
0
330
0
330
0
330
0
330
0
330
0
  0
ENDSEC
  0
EOF
