  0
SECTION
  2
HEADER
  9
$ACADVER
  1
AC1015
  9
$ACADMAINTVER
 70
     6
  9
$DWGCODEPAGE
  3
ANSI_932
  9
$INSBASE
 10
0.0
 20
0.0
 30
0.0
  9
$EXTMIN
 10
12102.96215372968
 20
-3371.742910766036
 30
0.0
  9
$EXTMAX
 10
12178.79548706301
 20
-3283.982029925431
 30
0.0
  9
$LIMMIN
 10
0.0
 20
0.0
  9
$LIMMAX
 10
420.0
 20
297.0
  9
$ORTHOMODE
 70
     1
  9
$REGENMODE
 70
     1
  9
$FILLMODE
 70
     1
  9
$QTEXTMODE
 70
     0
  9
$MIRRTEXT
 70
     1
  9
$LTSCALE
 40
5.0
  9
$ATTMODE
 70
     0
  9
$TEXTSIZE
 40
3.5
  9
$TRACEWID
 40
1.0
  9
$TEXTSTYLE
  7
STANDARD
  9
$CLAYER
  8
寸法線
  9
$CELTYPE
  6
BYLAYER
  9
$CECOLOR
 62
   256
  9
$CELTSCALE
 40
1.0
  9
$DISPSILH
 70
     0
  9
$DIMSCALE
 40
1.0
  9
$DIMASZ
 40
2.5
  9
$DIMEXO
 40
1.5
  9
$DIMDLI
 40
7.0
  9
$DIMRND
 40
0.0
  9
$DIMDLE
 40
0.0
  9
$DIMEXE
 40
1.0
  9
$DIMTP
 40
0.0
  9
$DIMTM
 40
0.0
  9
$DIMTXT
 40
3.0
  9
$DIMCEN
 40
0.0
  9
$DIMTSZ
 40
0.0
  9
$DIMTOL
 70
     0
  9
$DIMLIM
 70
     0
  9
$DIMTIH
 70
     0
  9
$DIMTOH
 70
     0
  9
$DIMSE1
 70
     0
  9
$DIMSE2
 70
     0
  9
$DIMTAD
 70
     3
  9
$DIMZIN
 70
     9
  9
$DIMBLK
  1
OPEN30
  9
$DIMASO
 70
     1
  9
$DIMSHO
 70
     0
  9
$DIMPOST
  1

  9
$DIMAPOST
  1

  9
$DIMALT
 70
     0
  9
$DIMALTD
 70
     0
  9
$DIMALTF
 40
25.4
  9
$DIMLFAC
 40
1.0
  9
$DIMTOFL
 70
     1
  9
$DIMTVP
 40
0.0
  9
$DIMTIX
 70
     0
  9
$DIMSOXD
 70
     0
  9
$DIMSAH
 70
     0
  9
$DIMBLK1
  1

  9
$DIMBLK2
  1

  9
$DIMSTYLE
  2
STANDARD
  9
$DIMCLRD
 70
     8
  9
$DIMCLRE
 70
     8
  9
$DIMCLRT
 70
   256
  9
$DIMTFAC
 40
0.6
  9
$DIMGAP
 40
1.0
  9
$DIMJUST
 70
     0
  9
$DIMSD1
 70
     0
  9
$DIMSD2
 70
     0
  9
$DIMTOLJ
 70
     1
  9
$DIMTZIN
 70
     9
  9
$DIMALTZ
 70
     9
  9
$DIMALTTZ
 70
     9
  9
$DIMUPT
 70
     0
  9
$DIMDEC
 70
     3
  9
$DIMTDEC
 70
     3
  9
$DIMALTU
 70
     2
  9
$DIMALTTD
 70
     0
  9
$DIMTXSTY
  7
STANDARD
  9
$DIMAUNIT
 70
     0
  9
$DIMADEC
 70
     3
  9
$DIMALTRND
 40
0.0
  9
$DIMAZIN
 70
     2
  9
$DIMDSEP
 70
    46
  9
$DIMATFIT
 70
     0
  9
$DIMFRAC
 70
     0
  9
$DIMLDRBLK
  1
OPEN30
  9
$DIMLUNIT
 70
     2
  9
$DIMLWD
 70
    -2
  9
$DIMLWE
 70
    -2
  9
$DIMTMOVE
 70
     0
  9
$LUNITS
 70
     2
  9
$LUPREC
 70
     2
  9
$SKETCHINC
 40
0.1
  9
$FILLETRAD
 40
1.0
  9
$AUNITS
 70
     0
  9
$AUPREC
 70
     1
  9
$MENU
  1
FM
  9
$ELEVATION
 40
0.0
  9
$PELEVATION
 40
0.0
  9
$THICKNESS
 40
0.0
  9
$LIMCHECK
 70
     0
  9
$CHAMFERA
 40
0.0
  9
$CHAMFERB
 40
0.0
  9
$CHAMFERC
 40
0.0
  9
$CHAMFERD
 40
0.0
  9
$SKPOLY
 70
     0
  9
$TDCREATE
 40
2448636.619629629
  9
$TDUCREATE
 40
2448636.244629629
  9
$TDUPDATE
 40
2456821.578702014
  9
$TDUUPDATE
 40
2456821.203702014
  9
$TDINDWG
 40
100.6309970486
  9
$TDUSRTIMER
 40
2456821.203548044
  9
$USRTIMER
 70
     1
  9
$ANGBASE
 50
0.0
  9
$ANGDIR
 70
     0
  9
$PDMODE
 70
     3
  9
$PDSIZE
 40
0.0
  9
$PLINEWID
 40
0.0
  9
$SPLFRAME
 70
     0
  9
$SPLINETYPE
 70
     6
  9
$SPLINESEGS
 70
     8
  9
$HANDSEED
  5
3534CD
  9
$SURFTAB1
 70
     6
  9
$SURFTAB2
 70
     6
  9
$SURFTYPE
 70
     6
  9
$SURFU
 70
     6
  9
$SURFV
 70
     6
  9
$UCSBASE
  2

  9
$UCSNAME
  2

  9
$UCSORG
 10
0.0
 20
0.0
 30
0.0
  9
$UCSXDIR
 10
1.0
 20
0.0
 30
0.0
  9
$UCSYDIR
 10
0.0
 20
1.0
 30
0.0
  9
$UCSORTHOREF
  2

  9
$UCSORTHOVIEW
 70
     0
  9
$UCSORGTOP
 10
0.0
 20
0.0
 30
0.0
  9
$UCSORGBOTTOM
 10
0.0
 20
0.0
 30
0.0
  9
$UCSORGLEFT
 10
0.0
 20
0.0
 30
0.0
  9
$UCSORGRIGHT
 10
0.0
 20
0.0
 30
0.0
  9
$UCSORGFRONT
 10
0.0
 20
0.0
 30
0.0
  9
$UCSORGBACK
 10
0.0
 20
0.0
 30
0.0
  9
$PUCSBASE
  2

  9
$PUCSNAME
  2

  9
$PUCSORG
 10
0.0
 20
0.0
 30
0.0
  9
$PUCSXDIR
 10
1.0
 20
0.0
 30
0.0
  9
$PUCSYDIR
 10
0.0
 20
1.0
 30
0.0
  9
$PUCSORTHOREF
  2

  9
$PUCSORTHOVIEW
 70
     0
  9
$PUCSORGTOP
 10
0.0
 20
0.0
 30
0.0
  9
$PUCSORGBOTTOM
 10
0.0
 20
0.0
 30
0.0
  9
$PUCSORGLEFT
 10
0.0
 20
0.0
 30
0.0
  9
$PUCSORGRIGHT
 10
0.0
 20
0.0
 30
0.0
  9
$PUCSORGFRONT
 10
0.0
 20
0.0
 30
0.0
  9
$PUCSORGBACK
 10
0.0
 20
0.0
 30
0.0
  9
$USERI1
 70
     0
  9
$USERI2
 70
     0
  9
$USERI3
 70
     0
  9
$USERI4
 70
     0
  9
$USERI5
 70
     0
  9
$USERR1
 40
0.0
  9
$USERR2
 40
0.0
  9
$USERR3
 40
0.0
  9
$USERR4
 40
0.0
  9
$USERR5
 40
0.0
  9
$WORLDVIEW
 70
     0
  9
$SHADEDGE
 70
     3
  9
$SHADEDIF
 70
    70
  9
$TILEMODE
 70
     1
  9
$MAXACTVP
 70
    16
  9
$PINSBASE
 10
0.0
 20
0.0
 30
0.0
  9
$PLIMCHECK
 70
     0
  9
$PEXTMIN
 10
1.000000000000000E+20
 20
1.000000000000000E+20
 30
1.000000000000000E+20
  9
$PEXTMAX
 10
-1.000000000000000E+20
 20
-1.000000000000000E+20
 30
-1.000000000000000E+20
  9
$PLIMMIN
 10
0.0
 20
0.0
  9
$PLIMMAX
 10
0.0
 20
0.0
  9
$UNITMODE
 70
     0
  9
$VISRETAIN
 70
     0
  9
$PLINEGEN
 70
     0
  9
$PSLTSCALE
 70
     0
  9
$TREEDEPTH
 70
  3020
  9
$CMLSTYLE
  2
STANDARD
  9
$CMLJUST
 70
     0
  9
$CMLSCALE
 40
1.0
  9
$PROXYGRAPHICS
 70
     1
  9
$MEASUREMENT
 70
     0
  9
$CELWEIGHT
370
    -1
  9
$ENDCAPS
280
     0
  9
$JOINSTYLE
280
     0
  9
$LWDISPLAY
290
     1
  9
$INSUNITS
 70
     0
  9
$HYPERLINKBASE
  1

  9
$STYLESHEET
  1
spax form.ctb
  9
$XEDIT
290
     1
  9
$CEPSNTYPE
380
     0
  9
$PSTYLEMODE
290
     1
  9
$FINGERPRINTGUID
  2
{E5B35D22-A717-11D3-9160-00E0294F7E09}
  9
$VERSIONGUID
  2
{B0E9F622-A381-4203-B073-782D10056CCE}
  9
$EXTNAMES
290
     1
  9
$PSVPSCALE
 40
0.0
  9
$OLESTARTUP
290
     0
  0
ENDSEC
  0
SECTION
  2
CLASSES
  0
CLASS
  1
LWPOLYLINE
  2
AcDbPolyline
  3
ObjectDBX Classes
 90
        0
280
     0
281
     1
  0
CLASS
  1
ACDBDICTIONARYWDFLT
  2
AcDbDictionaryWithDefault
  3
ObjectDBX Classes
 90
        0
280
     0
281
     0
  0
CLASS
  1
ACDBPLACEHOLDER
  2
AcDbPlaceHolder
  3
ObjectDBX Classes
 90
        0
280
     0
281
     0
  0
CLASS
  1
LAYOUT
  2
AcDbLayout
  3
ObjectDBX Classes
 90
        0
280
     0
281
     0
  0
CLASS
  1
DICTIONARYVAR
  2
AcDbDictionaryVar
  3
ObjectDBX Classes
 90
        0
280
     0
281
     0
  0
CLASS
  1
MATERIAL
  2
AcDbMaterial
  3
ObjectDBX Classes
 90
     1153
280
     0
281
     0
  0
CLASS
  1
SORTENTSTABLE
  2
AcDbSortentsTable
  3
ObjectDBX Classes
 90
        0
280
     0
281
     0
  0
CLASS
  1
VISUALSTYLE
  2
AcDbVisualStyle
  3
ObjectDBX Classes
 90
     4095
280
     0
281
     0
  0
CLASS
  1
TABLESTYLE
  2
AcDbTableStyle
  3
ObjectDBX Classes
 90
     4095
280
     0
281
     0
  0
CLASS
  1
SCALE
  2
AcDbScale
  3
ObjectDBX Classes
 90
     1153
280
     0
281
     0
  0
CLASS
  1
MLEADERSTYLE
  2
AcDbMLeaderStyle
  3
ACDB_MLEADERSTYLE_CLASS
 90
     4095
280
     0
281
     0
  0
CLASS
  1
CELLSTYLEMAP
  2
AcDbCellStyleMap
  3
ObjectDBX Classes
 90
     1152
280
     0
281
     0
  0
CLASS
  1
MULTILEADER
  2
AcDbMLeader
  3
ACDB_MLEADER_CLASS
 90
     1025
280
     0
281
     1
  0
CLASS
  1
DIMASSOC
  2
AcDbDimAssoc
  3
"AcDbDimAssoc|Product Desc:     AcDim ARX App For Dimension|Company:          Autodesk, Inc.|WEB Address:      www.autodesk.com"
 90
        0
280
     0
281
     0
  0
CLASS
  1
LARGE_RADIAL_DIMENSION
  2
AcDbRadialDimensionLarge
  3
ObjectDBX Classes
 90
     1025
280
     0
281
     1
  0
CLASS
  1
RASTERVARIABLES
  2
AcDbRasterVariables
  3
ISM
 90
        0
280
     0
281
     0
  0
CLASS
  1
SUN
  2
AcDbSun
  3
SCENEOE
 90
     1153
280
     0
281
     0
  0
ENDSEC
  0
SECTION
  2
TABLES
  0
TABLE
  2
VPORT
  5
8
330
0
100
AcDbSymbolTable
 70
     1
  0
VPORT
  5
3523F0
330
8
100
AcDbSymbolTableRecord
100
AcDbViewportTableRecord
  2
*Active
 70
     0
 10
0.0
 20
0.0
 11
1.0
 21
1.0
 12
12140.87882039634
 22
-3327.862470345734
 13
0.0
 23
0.0
 14
1.0
 24
1.0
 15
20.0
 25
20.0
 16
0.0
 26
0.0
 36
1.0
 17
0.0
 27
0.0
 37
0.0
 40
89.5160984574174
 41
1.731829573934837
 42
50.0
 43
0.0
 44
0.0
 50
0.0
 51
0.0
 71
    16
 72
   100
 73
     1
 74
     0
 75
     0
 76
     0
 77
     0
 78
     0
281
     0
 65
     1
110
0.0
120
0.0
130
0.0
111
1.0
121
0.0
131
0.0
112
0.0
122
1.0
132
0.0
 79
     0
146
0.0
  0
ENDTAB
  0
TABLE
  2
LTYPE
  5
5
330
0
100
AcDbSymbolTable
 70
     4
  0
LTYPE
  5
12
330
5
100
AcDbSymbolTableRecord
100
AcDbLinetypeTableRecord
  2
BYBLOCK
 70
     0
  3

 72
    65
 73
     0
 40
0.0
  0
LTYPE
  5
13
330
5
100
AcDbSymbolTableRecord
100
AcDbLinetypeTableRecord
  2
BYLAYER
 70
     0
  3

 72
    65
 73
     0
 40
0.0
  0
LTYPE
  5
14
330
5
100
AcDbSymbolTableRecord
100
AcDbLinetypeTableRecord
  2
CONTINUOUS
 70
     0
  3
Solid line
 72
    65
 73
     0
 40
0.0
  0
LTYPE
  5
25
330
5
100
AcDbSymbolTableRecord
100
AcDbLinetypeTableRecord
  2
CENTER
 70
     0
  3
____ _ ____ _ ____ _ ____ _ ____ _ ____ _ ____
 72
    65
 73
     4
 40
2.0
 49
1.25
 74
     0
 49
-0.25
 74
     0
 49
0.25
 74
     0
 49
-0.25
 74
     0
  0
LTYPE
  5
26
330
5
100
AcDbSymbolTableRecord
100
AcDbLinetypeTableRecord
  2
PHANTOM
 70
     0
  3
_____ _ _ _____ _ _ _____ _ _ _____ _ _ ____
 72
    65
 73
     6
 40
2.5
 49
1.25
 74
     0
 49
-0.25
 74
     0
 49
0.25
 74
     0
 49
-0.25
 74
     0
 49
0.25
 74
     0
 49
-0.25
 74
     0
  0
LTYPE
  5
27
330
5
100
AcDbSymbolTableRecord
100
AcDbLinetypeTableRecord
  2
HIDDEN
 70
     0
  3
_ _ _ _ _ _ _ _ _ _ _ _ _ _ _ _ _ _ _ _ _ _ _
 72
    65
 73
     2
 40
0.375
 49
0.25
 74
     0
 49
-0.125
 74
     0
  0
ENDTAB
  0
TABLE
  2
LAYER
  5
2
102
{ACAD_XDICTIONARY
360
559E
102
}
330
0
100
AcDbSymbolTable
 70
    17
  0
LAYER
  5
F
102
{ACAD_XDICTIONARY
360
CD7F
102
}
330
2
100
AcDbSymbolTableRecord
100
AcDbLayerTableRecord
  2
0
 70
     0
 62
     7
  6
CONTINUOUS
370
    -3
390
352
  0
LAYER
  5
34
102
{ACAD_XDICTIONARY
360
CD85
102
}
330
2
100
AcDbSymbolTableRecord
100
AcDbLayerTableRecord
  2
寸法線
 70
     0
 62
     7
  6
CONTINUOUS
370
    -3
390
352
  0
LAYER
  5
2F4
102
{ACAD_XDICTIONARY
360
CD8D
102
}
330
2
100
AcDbSymbolTableRecord
100
AcDbLayerTableRecord
  2
文字
 70
     0
 62
     7
  6
CONTINUOUS
370
    -3
390
352
  0
LAYER
  5
306B15
330
2
100
AcDbSymbolTableRecord
100
AcDbLayerTableRecord
  2
C-SUNPO
 70
     0
 62
     7
  6
CONTINUOUS
370
    -3
390
352
  0
LAYER
  5
31D3CB
330
2
100
AcDbSymbolTableRecord
100
AcDbLayerTableRecord
  2
姿図
 70
     0
 62
     8
  6
CONTINUOUS
370
    -3
390
352
  0
ENDTAB
  0
TABLE
  2
STYLE
  5
3
330
0
100
AcDbSymbolTable
 70
     1
  0
STYLE
  5
10
330
3
100
AcDbSymbolTableRecord
100
AcDbTextStyleTableRecord
  2
STANDARD
 70
     0
 40
0.0
 41
1.0
 50
0.0
 71
     0
 42
3.5
  3
MONOTXT
  4
BIGFONT
  0
ENDTAB
  0
TABLE
  2
VIEW
  5
6
330
0
100
AcDbSymbolTable
 70
     0
  0
ENDTAB
  0
TABLE
  2
UCS
  5
7
330
0
100
AcDbSymbolTable
 70
     0
  0
ENDTAB
  0
TABLE
  2
APPID
  5
9
330
0
100
AcDbSymbolTable
 70
    18
  0
APPID
  5
11
330
9
100
AcDbSymbolTableRecord
100
AcDbRegAppTableRecord
  2
ACAD
 70
     0
  0
APPID
  5
C058
330
9
100
AcDbSymbolTableRecord
100
AcDbRegAppTableRecord
  2
AcAecLayerStandard
 70
     0
  0
APPID
  5
CD77
330
9
100
AcDbSymbolTableRecord
100
AcDbRegAppTableRecord
  2
ACAD_MLEADERVER
 70
     0
  0
APPID
  5
D036
330
9
100
AcDbSymbolTableRecord
100
AcDbRegAppTableRecord
  2
ACAD_PSEXT
 70
     0
  0
APPID
  5
D28E
330
9
100
AcDbSymbolTableRecord
100
AcDbRegAppTableRecord
  2
ACAD_DSTYLE_DIMJAG
 70
     0
  0
APPID
  5
D28F
330
9
100
AcDbSymbolTableRecord
100
AcDbRegAppTableRecord
  2
ACAD_DSTYLE_DIMTALN
 70
     0
  0
APPID
  5
10E35
330
9
100
AcDbSymbolTableRecord
100
AcDbRegAppTableRecord
  2
ACAD_EXEMPT_FROM_CAD_STANDARDS
 70
     0
  0
APPID
  5
36B90
330
9
100
AcDbSymbolTableRecord
100
AcDbRegAppTableRecord
  2
ACAD_DSTYLE_DIMRADIAL_EXTENSION
 70
     0
  0
APPID
  5
4CBB9
330
9
100
AcDbSymbolTableRecord
100
AcDbRegAppTableRecord
  2
WACOM_STRING
 70
     0
  0
APPID
  5
4CBBA
330
9
100
AcDbSymbolTableRecord
100
AcDbRegAppTableRecord
  2
WACOM_DRSYM_ARROW
 70
     0
  0
APPID
  5
83B4C
330
9
100
AcDbSymbolTableRecord
100
AcDbRegAppTableRecord
  2
ACAD_DSTYLE_DIMRADIAL_EXTE
 70
     0
  0
APPID
  5
83B4D
330
9
100
AcDbSymbolTableRecord
100
AcDbRegAppTableRecord
  2
ACAD_DSTYLE_DIMBREAK
 70
     0
  0
APPID
  5
83B4E
330
9
100
AcDbSymbolTableRecord
100
AcDbRegAppTableRecord
  2
ACAD_DSTYLE_DIMARC_LENGTH_
 70
     0
  0
APPID
  5
8B472
330
9
100
AcDbSymbolTableRecord
100
AcDbRegAppTableRecord
  2
LAYER_SCALE
 70
     0
  0
APPID
  5
8B473
330
9
100
AcDbSymbolTableRecord
100
AcDbRegAppTableRecord
  2
KCAD_DIM_EXT
 70
     0
  0
APPID
  5
16ECBA
330
9
100
AcDbSymbolTableRecord
100
AcDbRegAppTableRecord
  2
GENIUS_GENDTOL_13
 70
     0
  0
APPID
  5
23CCFB
330
9
100
AcDbSymbolTableRecord
100
AcDbRegAppTableRecord
  2
AcadAnnotative
 70
     0
  0
APPID
  5
31A28D
330
9
100
AcDbSymbolTableRecord
100
AcDbRegAppTableRecord
  2
ACAD_DSTYLE_DIMFLIPARROW_WHICH_SYMBOL
 70
     0
  0
ENDTAB
  0
TABLE
  2
DIMSTYLE
  5
A
330
0
100
AcDbSymbolTable
 70
     3
100
AcDbDimStyleTable
  0
DIMSTYLE
105
1CC
330
A
100
AcDbSymbolTableRecord
100
AcDbDimStyleTableRecord
  2
STANDARD
 70
     0
 41
2.5
 42
1.5
 43
7.0
 44
1.0
 45
0.0
 73
     0
 74
     0
 77
     3
 78
     8
 79
     2
140
3.0
141
0.0
146
0.6
147
1.0
171
     0
172
     1
176
     8
177
     8
271
     3
178
   256
179
     3
271
     3
272
     3
274
     0
289
     0
340
10
341
265D
342
265D
1001
ACAD_DSTYLE_DIMJAG
1070
   388
1040
1.5
1001
ACAD_DSTYLE_DIMTALN
1070
   392
1070
     0
  0
ENDTAB
  0
TABLE
  2
BLOCK_RECORD
  5
1
330
0
100
AcDbSymbolTable
 70
    13
  0
BLOCK_RECORD
  5
18
102
{ACAD_XDICTIONARY
360
D25F
102
}
330
1
100
AcDbSymbolTableRecord
100
AcDbBlockTableRecord
  2
*MODEL_SPACE
340
355
  0
BLOCK_RECORD
  5
15
330
1
100
AcDbSymbolTableRecord
100
AcDbBlockTableRecord
  2
*PAPER_SPACE
340
356
  0
BLOCK_RECORD
  5
33F
330
1
100
AcDbSymbolTableRecord
100
AcDbBlockTableRecord
  2
_OPEN
340
0
102
{BLKREFS
331
323389
331
32338A
331
323392
331
323393
331
32343A
331
32343B
331
35344A
331
35344B
331
353453
331
353454
331
353469
331
35346A
331
35348F
331
353490
102
}
  0
BLOCK_RECORD
  5
416
330
1
100
AcDbSymbolTableRecord
100
AcDbBlockTableRecord
  2
SUN
340
0
  0
BLOCK_RECORD
  5
265D
330
1
100
AcDbSymbolTableRecord
100
AcDbBlockTableRecord
  2
_OPEN30
340
0
102
{BLKREFS
331
34F05F
331
34F060
102
}
  0
ENDTAB
  0
ENDSEC
  0
SECTION
  2
BLOCKS
  0
BLOCK
  5
39
330
18
100
AcDbEntity
  8
0
100
AcDbBlockBegin
  2
*MODEL_SPACE
 70
     0
 10
0.0
 20
0.0
 30
0.0
  3
*MODEL_SPACE
  1
*MODEL_SPACE
  0
ENDBLK
  5
3A
330
18
100
AcDbEntity
  8
0
100
AcDbBlockEnd
  0
BLOCK
  5
37
330
15
100
AcDbEntity
 67
     1
  8
0
100
AcDbBlockBegin
  2
*PAPER_SPACE
 70
     0
 10
0.0
 20
0.0
 30
0.0
  3
*PAPER_SPACE
  1
*PAPER_SPACE
  0
ENDBLK
  5
38
330
15
100
AcDbEntity
 67
     1
  8
0
100
AcDbBlockEnd
  0
BLOCK
  5
340
330
33F
100
AcDbEntity
  8
0
100
AcDbBlockBegin
  2
_OPEN
 70
     0
 10
0.0
 20
0.0
 30
0.0
  3
_OPEN
  1
_OPEN
  0
LINE
  5
341
330
33F
100
AcDbEntity
  8
0
  6
ByBlock
 62
     0
100
AcDbLine
 10
-1.0
 20
0.1666666666666667
 30
0.0
 11
0.0
 21
0.0
 31
0.0
  0
LINE
  5
342
330
33F
100
AcDbEntity
  8
0
  6
ByBlock
 62
     0
100
AcDbLine
 10
0.0
 20
0.0
 30
0.0
 11
-1.0
 21
-0.1666666666666667
 31
0.0
  0
LINE
  5
343
330
33F
100
AcDbEntity
  8
0
  6
ByBlock
 62
     0
100
AcDbLine
 10
0.0
 20
0.0
 30
0.0
 11
-1.0
 21
0.0
 31
0.0
  0
ENDBLK
  5
344
330
33F
100
AcDbEntity
  8
0
100
AcDbBlockEnd
  0
BLOCK
  5
41A
330
416
100
AcDbEntity
  8
0
100
AcDbBlockBegin
  2
SUN
 70
     0
 10
0.0
 20
0.0
 30
0.0
  3
SUN
  1
SUN
  0
LINE
  5
417
330
416
100
AcDbEntity
  8
0
100
AcDbLine
 10
-0.0000000000000568
 20
0.0
 30
0.0
 11
-1.500000000000057
 21
0.0
 31
0.0
  0
LINE
  5
418
330
416
100
AcDbEntity
  8
0
100
AcDbLine
 10
-0.0000000000000568
 20
0.0000000000000284
 30
0.0
 11
-1.500000000000057
 21
0.401923788646684
 31
0.0
  0
LINE
  5
419
330
416
100
AcDbEntity
  8
0
100
AcDbLine
 10
-0.0000000000000568
 20
0.0000000000000284
 30
0.0
 11
-1.500000000000057
 21
-0.4019237886466556
 31
0.0
  0
ENDBLK
  5
41B
330
416
100
AcDbEntity
  8
0
100
AcDbBlockEnd
  0
BLOCK
  5
265E
330
265D
100
AcDbEntity
  8
0
100
AcDbBlockBegin
  2
_OPEN30
 70
     0
 10
0.0
 20
0.0
 30
0.0
  3
_OPEN30
  1
_OPEN30
  0
LINE
  5
265F
330
265D
100
AcDbEntity
  8
0
  6
ByBlock
 62
     0
100
AcDbLine
 10
-1.0
 20
0.26794919
 30
0.0
 11
0.0
 21
0.0
 31
0.0
  0
LINE
  5
2660
330
265D
100
AcDbEntity
  8
0
  6
ByBlock
 62
     0
100
AcDbLine
 10
0.0
 20
0.0
 30
0.0
 11
-1.0
 21
-0.26794919
 31
0.0
  0
LINE
  5
2661
330
265D
100
AcDbEntity
  8
0
  6
ByBlock
 62
     0
100
AcDbLine
 10
0.0
 20
0.0
 30
0.0
 11
-1.0
 21
0.0
 31
0.0
  0
ENDBLK
  5
2662
330
265D
100
AcDbEntity
  8
0
100
AcDbBlockEnd
  0
ENDSEC
  0
SECTION
  2
ENTITIES
  0
MTEXT
  5
8182F
330
18
100
AcDbEntity
  8
0
100
AcDbMText
 10
5598.734167156057
 20
-2635.335630549191
 30
0.0
 40
3.0
 41
0.0
 71
     7
 72
     1
  1
\A1;
 73
     1
 44
1.0
  0
MTEXT
  5
3073B9
330
18
100
AcDbEntity
  8
C-SUNPO
 62
     7
100
AcDbMText
 10
8897.245354628265
 20
-2466.345110988794
 30
0.0
 40
2.0
 41
0.0
 71
     5
 72
     1
  1
\A1;\P\P 
 11
0.999998667560571
 21
0.001632445123950444
 31
0.0
 73
     1
 44
1.0
  0
TEXT
  5
352A1A
330
18
100
AcDbEntity
  8
文字
100
AcDbText
 10
12102.96215372968
 20
-3371.742910766036
 30
0.0
 40
6.5
  1
SX-B1351D/WC
100
AcDbText
  0
SPLINE
  5
353351
330
18
100
AcDbEntity
  8
姿図
100
AcDbSpline
210
0.0
220
0.0
230
1.0
 70
    11
 71
     3
 72
    17
 73
    13
 74
     0
 42
0.000000001
 43
0.0000000001
 40
0.0
 40
0.0
 40
0.0
 40
0.0
 40
1.0
 40
1.0
 40
1.0
 40
2.0
 40
2.0
 40
2.0
 40
3.0
 40
3.0
 40
3.0
 40
4.0
 40
4.0
 40
4.0
 40
4.0
 10
12169.14421880978
 20
-3347.856784045679
 30
0.0
 10
12169.14421880978
 20
-3350.794295982804
 30
0.0
 10
12160.27828343194
 20
-3353.175577318752
 30
0.0
 10
12149.34155215727
 20
-3353.175577318752
 30
0.0
 10
12138.40486553107
 20
-3353.175577318752
 30
0.0
 10
12129.53888550476
 20
-3350.794295982804
 30
0.0
 10
12129.53888550476
 20
-3347.856784045679
 30
0.0
 10
12129.53888550476
 20
-3344.919361405487
 30
0.0
 10
12138.40486553107
 20
-3342.537990772606
 30
0.0
 10
12149.34155215727
 20
-3342.537990772606
 30
0.0
 10
12160.27828343194
 20
-3342.537990772606
 30
0.0
 10
12169.14421880978
 20
-3344.919361405487
 30
0.0
 10
12169.14421880978
 20
-3347.856784045679
 30
0.0
  0
SPLINE
  5
353352
330
18
100
AcDbEntity
  8
姿図
100
AcDbSpline
210
0.0
220
0.0
230
1.0
 70
     8
 71
     3
 72
    11
 73
     7
 74
     0
 42
0.000000001
 43
0.0000000001
 40
0.0
 40
0.0
 40
0.0
 40
0.0
 40
1.0
 40
1.0
 40
1.0
 40
2.0
 40
2.0
 40
2.0
 40
2.0
 10
12129.53888550476
 20
-3347.342880191162
 30
0.0
 10
12129.53888550476
 20
-3344.40545755097
 30
0.0
 10
12138.40486553107
 20
-3342.024176215023
 30
0.0
 10
12149.34155215727
 20
-3342.024176215023
 30
0.0
 10
12160.27828343194
 20
-3342.024176215023
 30
0.0
 10
12169.14421880978
 20
-3344.40545755097
 30
0.0
 10
12169.14421880978
 20
-3347.342880191162
 30
0.0
  0
POLYLINE
  5
353353
330
18
100
AcDbEntity
  8
姿図
100
AcDb2dPolyline
 66
     1
 10
0.0
 20
0.0
 30
0.0
  0
VERTEX
  5
353354
330
353353
100
AcDbEntity
  8
姿図
100
AcDbVertex
100
AcDb2dVertex
 10
12129.53888550476
 20
-3347.856784045679
 30
0.0
  0
VERTEX
  5
353355
330
353353
100
AcDbEntity
  8
姿図
100
AcDbVertex
100
AcDb2dVertex
 10
12129.53888550476
 20
-3347.342880191162
 30
0.0
  0
SEQEND
  5
353356
330
353353
100
AcDbEntity
  8
姿図
  0
POLYLINE
  5
353357
330
18
100
AcDbEntity
  8
姿図
100
AcDb2dPolyline
 66
     1
 10
0.0
 20
0.0
 30
0.0
  0
VERTEX
  5
353358
330
353357
100
AcDbEntity
  8
姿図
100
AcDbVertex
100
AcDb2dVertex
 10
12169.14421880978
 20
-3347.856784045679
 30
0.0
  0
VERTEX
  5
353359
330
353357
100
AcDbEntity
  8
姿図
100
AcDbVertex
100
AcDb2dVertex
 10
12169.14421880978
 20
-3347.342880191162
 30
0.0
  0
SEQEND
  5
35335A
330
353357
100
AcDbEntity
  8
姿図
  0
SPLINE
  5
35335B
330
18
100
AcDbEntity
  8
姿図
100
AcDbSpline
210
0.0
220
0.0
230
1.0
 70
     8
 71
     3
 72
    23
 73
    19
 74
     0
 42
0.000000001
 43
0.0000000001
 40
0.0
 40
0.0
 40
0.0
 40
0.0
 40
1.0
 40
1.0
 40
1.0
 40
2.0
 40
2.0
 40
2.0
 40
3.0
 40
3.0
 40
3.0
 40
4.0
 40
4.0
 40
4.0
 40
5.0
 40
5.0
 40
5.0
 40
6.0
 40
6.0
 40
6.0
 40
6.0
 10
12151.48682169696
 20
-3338.577493160877
 30
0.0
 10
12151.48682169696
 20
-3338.577493160877
 30
0.0
 10
12151.71792216185
 20
-3338.577493160877
 30
0.0
 10
12151.71792216185
 20
-3338.577493160877
 30
0.0
 10
12151.71792216185
 20
-3338.577493160877
 30
0.0
 10
12152.08350380918
 20
-3338.379521858451
 30
0.0
 10
12152.08350380918
 20
-3338.379521858451
 30
0.0
 10
12152.08350380918
 20
-3338.379521858451
 30
0.0
 10
12152.24763157367
 20
-3335.341818761504
 30
0.0
 10
12152.24763157367
 20
-3335.341818761504
 30
0.0
 10
12159.17635926778
 20
-3335.680968516404
 30
0.0
 10
12164.62374012565
 20
-3337.21848312406
 30
0.0
 10
12165.734861874
 20
-3339.158905497411
 30
0.0
 10
12165.734861874
 20
-3339.158905497411
 30
0.0
 10
12166.10785516684
 20
-3344.511542308428
 30
0.0
 10
12166.10785516684
 20
-3344.511542308428
 30
0.0
 10
12166.10785516684
 20
-3344.511542308428
 30
0.0
 10
12165.734861874
 20
-3328.214851874166
 30
0.0
 10
12165.734861874
 20
-3328.214851874166
 30
0.0
  0
SPLINE
  5
35335C
330
18
100
AcDbEntity
  8
姿図
100
AcDbSpline
210
0.0
220
0.0
230
1.0
 70
     8
 71
     3
 72
    26
 73
    22
 74
     0
 42
0.000000001
 43
0.0000000001
 40
0.0
 40
0.0
 40
0.0
 40
0.0
 40
1.0
 40
1.0
 40
1.0
 40
2.0
 40
2.0
 40
2.0
 40
3.0
 40
3.0
 40
3.0
 40
4.0
 40
4.0
 40
4.0
 40
5.0
 40
5.0
 40
5.0
 40
6.0
 40
6.0
 40
6.0
 40
7.0
 40
7.0
 40
7.0
 40
7.0
 10
12133.00155271007
 20
-3327.83721514076
 30
0.0
 10
12133.00155271007
 20
-3327.83721514076
 30
0.0
 10
12133.00155271007
 20
-3328.115107199015
 30
0.0
 10
12133.00155271007
 20
-3328.115107199015
 30
0.0
 10
12133.00155271007
 20
-3328.115107199015
 30
0.0
 10
12132.77335439553
 20
-3344.428674753781
 30
0.0
 10
12132.77335439553
 20
-3344.428674753781
 30
0.0
 10
12132.77335439553
 20
-3344.428674753781
 30
0.0
 10
12133.00155271007
 20
-3339.124258287063
 30
0.0
 10
12133.00155271007
 20
-3339.124258287063
 30
0.0
 10
12134.19424720753
 20
-3337.138740962099
 30
0.0
 10
12139.93179845206
 20
-3335.58229540446
 30
0.0
 10
12147.13279249759
 20
-3335.313154445727
 30
0.0
 10
12147.13279249759
 20
-3335.313154445727
 30
0.0
 10
12147.3613033514
 20
-3338.412472427055
 30
0.0
 10
12147.3613033514
 20
-3338.412472427055
 30
0.0
 10
12147.3613033514
 20
-3338.412472427055
 30
0.0
 10
12147.62535438491
 20
-3338.577493160877
 30
0.0
 10
12147.62535438491
 20
-3338.577493160877
 30
0.0
 10
12147.62535438491
 20
-3338.577493160877
 30
0.0
 10
12147.92235598701
 20
-3338.577493160877
 30
0.0
 10
12147.92235598701
 20
-3338.577493160877
 30
0.0
  0
POLYLINE
  5
35335D
330
18
100
AcDbEntity
  8
姿図
100
AcDb2dPolyline
 66
     1
 10
0.0
 20
0.0
 30
0.0
  0
VERTEX
  5
35335E
330
35335D
100
AcDbEntity
  8
姿図
100
AcDbVertex
100
AcDb2dVertex
 10
12132.11840603394
 20
-3344.716389474764
 30
0.0
  0
VERTEX
  5
35335F
330
35335D
100
AcDbEntity
  8
姿図
100
AcDbVertex
100
AcDb2dVertex
 10
12132.11840603394
 20
-3344.716389474764
 30
0.0
  0
VERTEX
  5
353360
330
35335D
100
AcDbEntity
  8
姿図
100
AcDbVertex
100
AcDb2dVertex
 10
12132.6083336617
 20
-3328.32316905497
 30
0.0
  0
VERTEX
  5
353361
330
35335D
100
AcDbEntity
  8
姿図
100
AcDbVertex
100
AcDb2dVertex
 10
12133.00155271007
 20
-3327.83721514076
 30
0.0
  0
VERTEX
  5
353362
330
35335D
100
AcDbEntity
  8
姿図
100
AcDbVertex
100
AcDb2dVertex
 10
12133.5448799043
 20
-3327.882845873976
 30
0.0
  0
VERTEX
  5
353363
330
35335D
100
AcDbEntity
  8
姿図
100
AcDbVertex
100
AcDb2dVertex
 10
12133.76347879846
 20
-3328.046348559922
 30
0.0
  0
VERTEX
  5
353364
330
35335D
100
AcDbEntity
  8
姿図
100
AcDbVertex
100
AcDb2dVertex
 10
12134.00989368752
 20
-3338.138688027759
 30
0.0
  0
SEQEND
  5
353365
330
35335D
100
AcDbEntity
  8
姿図
  0
POLYLINE
  5
353366
330
18
100
AcDbEntity
  8
姿図
100
AcDb2dPolyline
 66
     1
 10
0.0
 20
0.0
 30
0.0
  0
VERTEX
  5
353367
330
353366
100
AcDbEntity
  8
姿図
100
AcDbVertex
100
AcDb2dVertex
 10
12133.00155271007
 20
-3328.115107199015
 30
0.0
  0
VERTEX
  5
353368
330
353366
100
AcDbEntity
  8
姿図
100
AcDbVertex
100
AcDb2dVertex
 10
12133.76347879846
 20
-3328.046348559922
 30
0.0
  0
SEQEND
  5
353369
330
353366
100
AcDbEntity
  8
姿図
  0
POLYLINE
  5
35336A
330
18
100
AcDbEntity
  8
姿図
100
AcDb2dPolyline
 66
     1
 10
0.0
 20
0.0
 30
0.0
  0
VERTEX
  5
35336B
330
35336A
100
AcDbEntity
  8
姿図
100
AcDbVertex
100
AcDb2dVertex
 10
12164.79706547432
 20
-3338.201642366149
 30
0.0
  0
VERTEX
  5
35336C
330
35336A
100
AcDbEntity
  8
姿図
100
AcDbVertex
100
AcDb2dVertex
 10
12164.95271003009
 20
-3328.32316905497
 30
0.0
  0
VERTEX
  5
35336D
330
35336A
100
AcDbEntity
  8
姿図
100
AcDbVertex
100
AcDb2dVertex
 10
12165.28641267202
 20
-3328.214851874166
 30
0.0
  0
VERTEX
  5
35336E
330
35336A
100
AcDbEntity
  8
姿図
100
AcDbVertex
100
AcDb2dVertex
 10
12165.734861874
 20
-3328.214851874166
 30
0.0
  0
VERTEX
  5
35336F
330
35336A
100
AcDbEntity
  8
姿図
100
AcDbVertex
100
AcDb2dVertex
 10
12166.27287590066
 20
-3328.851271121974
 30
0.0
  0
VERTEX
  5
353370
330
35336A
100
AcDbEntity
  8
姿図
100
AcDbVertex
100
AcDb2dVertex
 10
12166.49477878137
 20
-3344.683617500027
 30
0.0
  0
SEQEND
  5
353371
330
35336A
100
AcDbEntity
  8
姿図
  0
POLYLINE
  5
353372
330
18
100
AcDbEntity
  8
姿図
100
AcDb2dPolyline
 66
     1
 10
0.0
 20
0.0
 30
0.0
  0
VERTEX
  5
353373
330
353372
100
AcDbEntity
  8
姿図
100
AcDbVertex
100
AcDb2dVertex
 10
12156.47762733187
 20
-3335.718294634769
 30
0.0
  0
VERTEX
  5
353374
330
353372
100
AcDbEntity
  8
姿図
100
AcDbVertex
100
AcDb2dVertex
 10
12157.16369567491
 20
-3342.537990772606
 30
0.0
  0
SEQEND
  5
353375
330
353372
100
AcDbEntity
  8
姿図
  0
SPLINE
  5
353376
330
18
100
AcDbEntity
  8
姿図
100
AcDbSpline
210
0.0
220
0.0
230
1.0
 70
     8
 71
     3
 72
     8
 73
     4
 74
     0
 42
0.000000001
 43
0.0000000001
 40
0.0
 40
0.0
 40
0.0
 40
0.0
 40
1.0
 40
1.0
 40
1.0
 40
1.0
 10
12160.62091576726
 20
-3336.501071557217
 30
0.0
 10
12160.61028943212
 20
-3336.498124758399
 30
0.0
 10
12160.15782186812
 20
-3342.887141784101
 30
0.0
 10
12160.15782186812
 20
-3342.887141784101
 30
0.0
  0
POLYLINE
  5
353377
330
18
100
AcDbEntity
  8
姿図
100
AcDb2dPolyline
 66
     1
 10
0.0
 20
0.0
 30
0.0
  0
VERTEX
  5
353378
330
353377
100
AcDbEntity
  8
姿図
100
AcDbVertex
100
AcDb2dVertex
 10
12152.24763157367
 20
-3335.341818761504
 30
0.0
  0
VERTEX
  5
353379
330
353377
100
AcDbEntity
  8
姿図
100
AcDbVertex
100
AcDb2dVertex
 10
12152.08350380918
 20
-3335.574080086542
 30
0.0
  0
VERTEX
  5
35337A
330
353377
100
AcDbEntity
  8
姿図
100
AcDbVertex
100
AcDb2dVertex
 10
12151.98161600762
 20
-3338.434796660527
 30
0.0
  0
SEQEND
  5
35337B
330
353377
100
AcDbEntity
  8
姿図
  0
POLYLINE
  5
35337C
330
18
100
AcDbEntity
  8
姿図
100
AcDb2dPolyline
 66
     1
 10
0.0
 20
0.0
 30
0.0
  0
VERTEX
  5
35337D
330
35337C
100
AcDbEntity
  8
姿図
100
AcDbVertex
100
AcDb2dVertex
 10
12147.13279249759
 20
-3335.313154445727
 30
0.0
  0
VERTEX
  5
35337E
330
35337C
100
AcDbEntity
  8
姿図
100
AcDbVertex
100
AcDb2dVertex
 10
12147.29531291726
 20
-3335.718294634769
 30
0.0
  0
VERTEX
  5
35337F
330
35337C
100
AcDbEntity
  8
姿図
100
AcDbVertex
100
AcDb2dVertex
 10
12147.50958091012
 20
-3338.505162644428
 30
0.0
  0
SEQEND
  5
353380
330
35337C
100
AcDbEntity
  8
姿図
  0
POLYLINE
  5
353381
330
18
100
AcDbEntity
  8
姿図
100
AcDb2dPolyline
 66
     1
 10
0.0
 20
0.0
 30
0.0
  0
VERTEX
  5
353382
330
353381
100
AcDbEntity
  8
姿図
100
AcDbVertex
100
AcDb2dVertex
 10
12151.48682169696
 20
-3342.024176215023
 30
0.0
  0
VERTEX
  5
353383
330
353381
100
AcDbEntity
  8
姿図
100
AcDbVertex
100
AcDb2dVertex
 10
12147.92235598701
 20
-3342.024176215023
 30
0.0
  0
VERTEX
  5
353384
330
353381
100
AcDbEntity
  8
姿図
100
AcDbVertex
100
AcDb2dVertex
 10
12147.92235598701
 20
-3339.128098055221
 30
0.0
  0
VERTEX
  5
353385
330
353381
100
AcDbEntity
  8
姿図
100
AcDbVertex
100
AcDb2dVertex
 10
12147.92235598701
 20
-3337.950360794192
 30
0.0
  0
VERTEX
  5
353386
330
353381
100
AcDbEntity
  8
姿図
100
AcDbVertex
100
AcDb2dVertex
 10
12147.92235598701
 20
-3336.174334076127
 30
0.0
  0
VERTEX
  5
353387
330
353381
100
AcDbEntity
  8
姿図
100
AcDbVertex
100
AcDb2dVertex
 10
12148.08737672084
 20
-3333.527840846537
 30
0.0
  0
VERTEX
  5
353388
330
353381
100
AcDbEntity
  8
姿図
100
AcDbVertex
100
AcDb2dVertex
 10
12148.35142775434
 20
-3333.296740381638
 30
0.0
  0
VERTEX
  5
353389
330
353381
100
AcDbEntity
  8
姿図
100
AcDbVertex
100
AcDb2dVertex
 10
12151.22285996039
 20
-3333.296740381638
 30
0.0
  0
VERTEX
  5
35338A
330
353381
100
AcDbEntity
  8
姿図
100
AcDbVertex
100
AcDb2dVertex
 10
12151.48682169696
 20
-3333.494800980999
 30
0.0
  0
VERTEX
  5
35338B
330
353381
100
AcDbEntity
  8
姿図
100
AcDbVertex
100
AcDb2dVertex
 10
12151.48682169696
 20
-3335.718294634769
 30
0.0
  0
VERTEX
  5
35338C
330
353381
100
AcDbEntity
  8
姿図
100
AcDbVertex
100
AcDb2dVertex
 10
12151.48682169696
 20
-3338.115470824949
 30
0.0
  0
VERTEX
  5
35338D
330
353381
100
AcDbEntity
  8
姿図
100
AcDbVertex
100
AcDb2dVertex
 10
12151.48682169696
 20
-3339.402686126921
 30
0.0
  0
VERTEX
  5
35338E
330
353381
100
AcDbEntity
  8
姿図
100
AcDbVertex
100
AcDb2dVertex
 10
12151.48682169696
 20
-3342.024176215023
 30
0.0
  0
SEQEND
  5
35338F
330
353381
100
AcDbEntity
  8
姿図
  0
POLYLINE
  5
353390
330
18
100
AcDbEntity
  8
姿図
100
AcDb2dPolyline
 66
     1
 10
0.0
 20
0.0
 30
0.0
  0
VERTEX
  5
353391
330
353390
100
AcDbEntity
  8
姿図
100
AcDbVertex
100
AcDb2dVertex
 10
12147.92235598701
 20
-3336.174334076127
 30
0.0
  0
VERTEX
  5
353392
330
353390
100
AcDbEntity
  8
姿図
100
AcDbVertex
100
AcDb2dVertex
 10
12151.48682169696
 20
-3336.174334076127
 30
0.0
  0
SEQEND
  5
353393
330
353390
100
AcDbEntity
  8
姿図
  0
POLYLINE
  5
353394
330
18
100
AcDbEntity
  8
姿図
100
AcDb2dPolyline
 66
     1
 10
0.0
 20
0.0
 30
0.0
  0
VERTEX
  5
353395
330
353394
100
AcDbEntity
  8
姿図
100
AcDbVertex
100
AcDb2dVertex
 10
12147.92235598701
 20
-3338.841544194378
 30
0.0
  0
VERTEX
  5
353396
330
353394
100
AcDbEntity
  8
姿図
100
AcDbVertex
100
AcDb2dVertex
 10
12151.48682169696
 20
-3338.841544194378
 30
0.0
  0
SEQEND
  5
353397
330
353394
100
AcDbEntity
  8
姿図
  0
SPLINE
  5
353398
330
18
100
AcDbEntity
  8
姿図
100
AcDbSpline
210
0.0
220
0.0
230
1.0
 70
    11
 71
     3
 72
    17
 73
    13
 74
     0
 42
0.000000001
 43
0.0000000001
 40
0.0
 40
0.0
 40
0.0
 40
0.0
 40
1.0
 40
1.0
 40
1.0
 40
2.0
 40
2.0
 40
2.0
 40
3.0
 40
3.0
 40
3.0
 40
4.0
 40
4.0
 40
4.0
 40
4.0
 10
12150.46365742849
 20
-3340.590692535346
 30
0.0
 10
12150.46365742849
 20
-3340.991814362363
 30
0.0
 10
12150.13852729221
 20
-3341.316944498642
 30
0.0
 10
12149.73767335599
 20
-3341.316944498642
 30
0.0
 10
12149.3366408259
 20
-3341.316944498642
 30
0.0
 10
12149.01151068963
 20
-3340.991814362363
 30
0.0
 10
12149.01151068963
 20
-3340.590692535346
 30
0.0
 10
12149.01151068963
 20
-3340.189749302195
 30
0.0
 10
12149.3366408259
 20
-3339.864708462849
 30
0.0
 10
12149.73767335599
 20
-3339.864708462849
 30
0.0
 10
12150.13852729221
 20
-3339.864708462849
 30
0.0
 10
12150.46365742849
 20
-3340.189749302195
 30
0.0
 10
12150.46365742849
 20
-3340.590692535346
 30
0.0
  0
SPLINE
  5
353399
330
18
100
AcDbEntity
  8
姿図
100
AcDbSpline
210
0.0
220
0.0
230
1.0
 70
    11
 71
     3
 72
    17
 73
    13
 74
     0
 42
0.000000001
 43
0.0000000001
 40
0.0
 40
0.0
 40
0.0
 40
0.0
 40
1.0
 40
1.0
 40
1.0
 40
2.0
 40
2.0
 40
2.0
 40
3.0
 40
3.0
 40
3.0
 40
4.0
 40
4.0
 40
4.0
 40
4.0
 10
12158.59039278762
 20
-3341.411242060827
 30
0.0
 10
12158.62780820291
 20
-3341.637163303559
 30
0.0
 10
12158.56512175533
 20
-3341.835581090655
 30
0.0
 10
12158.45055378915
 20
-3341.854601337573
 30
0.0
 10
12158.33589652604
 20
-3341.87362158449
 30
0.0
 10
12158.21257746034
 20
-3341.705921942651
 30
0.0
 10
12158.17516204504
 20
-3341.480000699919
 30
0.0
 10
12158.13774662975
 20
-3341.254168754121
 30
0.0
 10
12158.20043307733
 20
-3341.055750967025
 30
0.0
 10
12158.31500104351
 20
-3341.036730720108
 30
0.0
 10
12158.42965830662
 20
-3341.017799770124
 30
0.0
 10
12158.55297737232
 20
-3341.185410115028
 30
0.0
 10
12158.59039278762
 20
-3341.411242060827
 30
0.0
  0
SPLINE
  5
35339A
330
18
100
AcDbEntity
  8
姿図
100
AcDbSpline
210
0.0
220
0.0
230
1.0
 70
    11
 71
     3
 72
    17
 73
    13
 74
     0
 42
0.000000001
 43
0.0000000001
 40
0.0
 40
0.0
 40
0.0
 40
0.0
 40
1.0
 40
1.0
 40
1.0
 40
2.0
 40
2.0
 40
2.0
 40
3.0
 40
3.0
 40
3.0
 40
4.0
 40
4.0
 40
4.0
 40
4.0
 10
12133.76347879846
 20
-3348.544906218207
 30
0.0
 10
12133.76347879846
 20
-3350.659279018769
 30
0.0
 10
12140.78235174733
 20
-3352.373422961651
 30
0.0
 10
12149.44058245695
 20
-3352.373422961651
 30
0.0
 10
12158.09881316657
 20
-3352.373422961651
 30
0.0
 10
12165.11773076391
 20
-3350.659279018769
 30
0.0
 10
12165.11773076391
 20
-3348.544906218207
 30
0.0
 10
12165.11773076391
 20
-3346.430444120712
 30
0.0
 10
12158.09881316657
 20
-3344.716389474764
 30
0.0
 10
12149.44058245695
 20
-3344.716389474764
 30
0.0
 10
12140.78235174733
 20
-3344.716389474764
 30
0.0
 10
12133.76347879846
 20
-3346.430444120712
 30
0.0
 10
12133.76347879846
 20
-3348.544906218207
 30
0.0
  0
SPLINE
  5
35339B
330
18
100
AcDbEntity
  8
姿図
100
AcDbSpline
210
0.0
220
0.0
230
1.0
 70
    11
 71
     3
 72
    17
 73
    13
 74
     0
 42
0.000000001
 43
0.0000000001
 40
0.0
 40
0.0
 40
0.0
 40
0.0
 40
1.0
 40
1.0
 40
1.0
 40
2.0
 40
2.0
 40
2.0
 40
3.0
 40
3.0
 40
3.0
 40
4.0
 40
4.0
 40
4.0
 40
4.0
 10
12132.77335439553
 20
-3348.511866352669
 30
0.0
 10
12132.77335439553
 20
-3350.863233215765
 30
0.0
 10
12140.23554197267
 20
-3352.769454863438
 30
0.0
 10
12149.44058245695
 20
-3352.769454863438
 30
0.0
 10
12158.64566758969
 20
-3352.769454863438
 30
0.0
 10
12166.10785516684
 20
-3350.863233215765
 30
0.0
 10
12166.10785516684
 20
-3348.511866352669
 30
0.0
 10
12166.10785516684
 20
-3346.160499489573
 30
0.0
 10
12158.64566758969
 20
-3344.254277841901
 30
0.0
 10
12149.44058245695
 20
-3344.254277841901
 30
0.0
 10
12140.23554197267
 20
-3344.254277841901
 30
0.0
 10
12132.77335439553
 20
-3346.160499489573
 30
0.0
 10
12132.77335439553
 20
-3348.511866352669
 30
0.0
  0
SPLINE
  5
35339C
330
18
100
AcDbEntity
  8
姿図
100
AcDbSpline
210
0.0
220
0.0
230
1.0
 70
     8
 71
     3
 72
     8
 73
     4
 74
     0
 42
0.000000001
 43
0.0000000001
 40
0.0
 40
0.0
 40
0.0
 40
0.0
 40
1.0
 40
1.0
 40
1.0
 40
1.0
 10
12151.48682169696
 20
-3334.193995973329
 30
0.0
 10
12158.09506269535
 20
-3334.452599893864
 30
0.0
 10
12163.33857865316
 20
-3335.966272220171
 30
0.0
 10
12164.29968155257
 20
-3337.884995438588
 30
0.0
  0
SPLINE
  5
35339D
330
18
100
AcDbEntity
  8
姿図
100
AcDbSpline
210
0.0
220
0.0
230
1.0
 70
     8
 71
     3
 72
     8
 73
     4
 74
     0
 42
0.000000001
 43
0.0000000001
 40
0.0
 40
0.0
 40
0.0
 40
0.0
 40
1.0
 40
1.0
 40
1.0
 40
1.0
 10
12134.75315671672
 20
-3337.701490239451
 30
0.0
 10
12135.98290944174
 20
-3335.814735323366
 30
0.0
 10
12141.37898921109
 20
-3334.35785584701
 30
0.0
 10
12148.04705915519
 20
-3334.174350647874
 30
0.0
  0
SPLINE
  5
35339E
330
18
100
AcDbEntity
  8
姿図
100
AcDbSpline
210
0.0
220
0.0
230
1.0
 70
     8
 71
     3
 72
     8
 73
     4
 74
     0
 42
0.000000001
 43
0.0000000001
 40
0.0
 40
0.0
 40
0.0
 40
0.0
 40
1.0
 40
1.0
 40
1.0
 40
1.0
 10
12135.809278826
 20
-3336.72715418202
 30
0.0
 10
12134.1356684189
 20
-3335.702935562141
 30
0.0
 10
12133.94573384052
 20
-3335.252521827618
 30
0.0
 10
12133.94573384052
 20
-3334.787552692872
 30
0.0
  0
SPLINE
  5
35339F
330
18
100
AcDbEntity
  8
姿図
100
AcDbSpline
210
0.0
220
0.0
230
1.0
 70
     8
 71
     3
 72
     8
 73
     4
 74
     0
 42
0.000000001
 43
0.0000000001
 40
0.0
 40
0.0
 40
0.0
 40
0.0
 40
1.0
 40
1.0
 40
1.0
 40
1.0
 10
12164.79706547432
 20
-3334.787552692872
 30
0.0
 10
12164.79706547432
 20
-3335.313243742661
 30
0.0
 10
12164.63347349144
 20
-3335.799912032342
 30
0.0
 10
12163.02278823742
 20
-3336.628256457941
 30
0.0
  0
SPLINE
  5
3533A0
330
18
100
AcDbEntity
  8
姿図
100
AcDbSpline
210
0.0
220
0.0
230
1.0
 70
     8
 71
     3
 72
    11
 73
     7
 74
     0
 42
0.000000001
 43
0.0000000001
 40
0.0
 40
0.0
 40
0.0
 40
0.0
 40
1.0
 40
1.0
 40
1.0
 40
2.0
 40
2.0
 40
2.0
 40
2.0
 10
12133.94573384052
 20
-3334.787552692872
 30
0.0
 10
12133.94573384052
 20
-3331.983539671906
 30
0.0
 10
12140.85204800423
 20
-3329.71030762596
 30
0.0
 10
12149.37128803625
 20
-3329.71030762596
 30
0.0
 10
12157.89075131062
 20
-3329.71030762596
 30
0.0
 10
12164.79706547432
 20
-3331.983539671906
 30
0.0
 10
12164.79706547432
 20
-3334.787552692872
 30
0.0
  0
SPLINE
  5
3533A1
330
18
100
AcDbEntity
  8
姿図
100
AcDbSpline
210
0.0
220
0.0
230
1.0
 70
     8
 71
     3
 72
    11
 73
     7
 74
     0
 42
0.000000001
 43
0.0000000001
 40
0.0
 40
0.0
 40
0.0
 40
0.0
 40
1.0
 40
1.0
 40
1.0
 40
2.0
 40
2.0
 40
2.0
 40
2.0
 10
12134.01493896428
 20
-3334.368392885209
 30
0.0
 10
12134.01493896428
 20
-3331.564379864244
 30
0.0
 10
12140.92129777645
 20
-3329.291237115232
 30
0.0
 10
12149.44058245695
 20
-3329.291237115232
 30
0.0
 10
12157.96004573131
 20
-3329.291237115232
 30
0.0
 10
12164.86627059808
 20
-3331.564379864244
 30
0.0
 10
12164.86627059808
 20
-3334.368392885209
 30
0.0
  0
SPLINE
  5
3533A2
330
18
100
AcDbEntity
  8
姿図
100
AcDbSpline
210
0.0
220
0.0
230
1.0
 70
     8
 71
     3
 72
     8
 73
     4
 74
     0
 42
0.000000001
 43
0.0000000001
 40
0.0
 40
0.0
 40
0.0
 40
0.0
 40
1.0
 40
1.0
 40
1.0
 40
1.0
 10
12138.29887007055
 20
-3336.44919003863
 30
0.0
 10
12138.29887007055
 20
-3336.44919003863
 30
0.0
 10
12142.19243963033
 20
-3335.013206044802
 30
0.0
 10
12148.0003122103
 20
-3334.925069971056
 30
0.0
  0
SPLINE
  5
3533A3
330
18
100
AcDbEntity
  8
姿図
100
AcDbSpline
210
0.0
220
0.0
230
1.0
 70
     8
 71
     3
 72
     8
 73
     4
 74
     0
 42
0.000000001
 43
0.0000000001
 40
0.0
 40
0.0
 40
0.0
 40
0.0
 40
1.0
 40
1.0
 40
1.0
 40
1.0
 10
12151.48682169696
 20
-3334.925069971056
 30
0.0
 10
12151.48682169696
 20
-3334.925069971056
 30
0.0
 10
12157.36934651365
 20
-3335.0450850502
 30
0.0
 10
12161.95858383688
 20
-3336.888352359482
 30
0.0
  0
SPLINE
  5
3533A4
330
18
100
AcDbEntity
  8
姿図
100
AcDbSpline
210
0.0
220
0.0
230
1.0
 70
     8
 71
     3
 72
     8
 73
     4
 74
     0
 42
0.000000001
 43
0.0000000001
 40
0.0
 40
0.0
 40
0.0
 40
0.0
 40
1.0
 40
1.0
 40
1.0
 40
1.0
 10
12151.48682169696
 20
-3335.889566153964
 30
0.0
 10
12151.68604315646
 20
-3335.894120297592
 30
0.0
 10
12151.8819606294
 20
-3335.89983530136
 30
0.0
 10
12152.07162731698
 20
-3335.90671116527
 30
0.0
  0
SPLINE
  5
3533A5
330
18
100
AcDbEntity
  8
姿図
100
AcDbSpline
210
0.0
220
0.0
230
1.0
 70
     8
 71
     3
 72
     8
 73
     4
 74
     0
 42
0.000000001
 43
0.0000000001
 40
0.0
 40
0.0
 40
0.0
 40
0.0
 40
1.0
 40
1.0
 40
1.0
 40
1.0
 10
12147.32120902809
 20
-3335.90671116527
 30
0.0
 10
12147.32120902809
 20
-3335.90671116527
 30
0.0
 10
12147.55641715195
 20
-3335.90028178603
 30
0.0
 10
12147.93999213146
 20
-3335.893138031318
 30
0.0
  0
SPLINE
  5
3533A6
330
18
100
AcDbEntity
  8
姿図
100
AcDbSpline
210
0.0
220
0.0
230
1.0
 70
     8
 71
     3
 72
    23
 73
    19
 74
     0
 42
0.000000001
 43
0.0000000001
 40
0.0
 40
0.0
 40
0.0
 40
0.0
 40
1.0
 40
1.0
 40
1.0
 40
2.0
 40
2.0
 40
2.0
 40
3.0
 40
3.0
 40
3.0
 40
4.0
 40
4.0
 40
4.0
 40
5.0
 40
5.0
 40
5.0
 40
6.0
 40
6.0
 40
6.0
 40
6.0
 10
12133.91354229586
 20
-3334.193995973329
 30
0.0
 10
12133.91354229586
 20
-3334.193995973329
 30
0.0
 10
12135.34765105407
 20
-3316.012515155528
 30
0.0
 10
12135.34765105407
 20
-3316.012515155528
 30
0.0
 10
12135.34765105407
 20
-3316.012515155528
 30
0.0
 10
12134.95157450382
 20
-3316.012515155528
 30
0.0
 10
12134.95157450382
 20
-3316.012515155528
 30
0.0
 10
12134.95157450382
 20
-3316.012515155528
 30
0.0
 10
12134.95157450382
 20
-3312.810996833367
 30
0.0
 10
12134.95157450382
 20
-3312.810996833367
 30
0.0
 10
12134.95157450382
 20
-3312.810996833367
 30
0.0
 10
12135.71068773879
 20
-3312.810996833367
 30
0.0
 10
12135.71068773879
 20
-3312.810996833367
 30
0.0
 10
12135.71068773879
 20
-3312.810996833367
 30
0.0
 10
12136.20579458872
 20
-3314.186660748353
 30
0.0
 10
12135.71068773879
 20
-3315.936434167857
 30
0.0
 10
12135.71068773879
 20
-3315.936434167857
 30
0.0
 10
12135.71068773879
 20
-3319.698960477158
 30
0.0
 10
12135.71068773879
 20
-3319.698960477158
 30
0.0
  0
SPLINE
  5
3533A7
330
18
100
AcDbEntity
  8
姿図
100
AcDbSpline
210
0.0
220
0.0
230
1.0
 70
     8
 71
     3
 72
    29
 73
    25
 74
     0
 42
0.000000001
 43
0.0000000001
 40
0.0
 40
0.0
 40
0.0
 40
0.0
 40
1.0
 40
1.0
 40
1.0
 40
2.0
 40
2.0
 40
2.0
 40
3.0
 40
3.0
 40
3.0
 40
4.0
 40
4.0
 40
4.0
 40
5.0
 40
5.0
 40
5.0
 40
6.0
 40
6.0
 40
6.0
 40
7.0
 40
7.0
 40
7.0
 40
8.0
 40
8.0
 40
8.0
 40
8.0
 10
12134.41650727597
 20
-3327.664068385955
 30
0.0
 10
12137.32990904095
 20
-3323.076438407542
 30
0.0
 10
12148.0003122103
 20
-3322.867394285314
 30
0.0
 10
12148.0003122103
 20
-3322.867394285314
 30
0.0
 10
12148.0003122103
 20
-3322.867394285314
 30
0.0
 10
12147.26222840326
 20
-3315.606392700213
 30
0.0
 10
12147.26222840326
 20
-3315.606392700213
 30
0.0
 10
12147.26222840326
 20
-3315.606392700213
 30
0.0
 10
12147.29531291726
 20
-3315.210316149959
 30
0.0
 10
12146.63522998198
 20
-3315.309391098107
 30
0.0
 10
12146.63522998198
 20
-3315.309391098107
 30
0.0
 10
12138.15304817751
 20
-3316.563521886073
 30
0.0
 10
12136.73389665572
 20
-3319.203898275693
 30
0.0
 10
12136.73389665572
 20
-3319.203898275693
 30
0.0
 10
12136.93191260661
 20
-3319.46786001226
 30
0.0
 10
12136.93191260661
 20
-3319.46786001226
 30
0.0
 10
12136.93191260661
 20
-3319.46786001226
 30
0.0
 10
12136.83288230693
 20
-3319.797901479904
 30
0.0
 10
12136.83288230693
 20
-3319.797901479904
 30
0.0
 10
12136.83288230693
 20
-3319.797901479904
 30
0.0
 10
12136.53583605636
 20
-3320.061952513407
 30
0.0
 10
12136.53583605636
 20
-3320.061952513407
 30
0.0
 10
12136.53583605636
 20
-3320.061952513407
 30
0.0
 10
12135.63545507198
 20
-3326.248444093054
 30
0.0
 10
12135.63545507198
 20
-3326.248444093054
 30
0.0
  0
SPLINE
  5
3533A8
330
18
100
AcDbEntity
  8
姿図
100
AcDbSpline
210
0.0
220
0.0
230
1.0
 70
     8
 71
     3
 72
     8
 73
     4
 74
     0
 42
0.000000001
 43
0.0000000001
 40
0.0
 40
0.0
 40
0.0
 40
0.0
 40
1.0
 40
1.0
 40
1.0
 40
1.0
 10
12136.09631654777
 20
-3325.867324779227
 30
0.0
 10
12136.09631654777
 20
-3325.867324779227
 30
0.0
 10
12137.10287158654
 20
-3318.600876081158
 30
0.0
 10
12137.57717225088
 20
-3318.270566722712
 30
0.0
  0
SPLINE
  5
3533A9
330
18
100
AcDbEntity
  8
姿図
100
AcDbSpline
210
0.0
220
0.0
230
1.0
 70
     8
 71
     3
 72
     8
 73
     4
 74
     0
 42
0.000000001
 43
0.0000000001
 40
0.0
 40
0.0
 40
0.0
 40
0.0
 40
1.0
 40
1.0
 40
1.0
 40
1.0
 10
12140.34783286704
 20
-3316.863157747729
 30
0.0
 10
12140.34783286704
 20
-3316.863157747729
 30
0.0
 10
12138.62837575659
 20
-3322.686032212591
 30
0.0
 10
12138.21854747852
 20
-3324.776830622607
 30
0.0
  0
SPLINE
  5
3533AA
330
18
100
AcDbEntity
  8
姿図
100
AcDbSpline
210
0.0
220
0.0
230
1.0
 70
     8
 71
     3
 72
     8
 73
     4
 74
     0
 42
0.000000001
 43
0.0000000001
 40
0.0
 40
0.0
 40
0.0
 40
0.0
 40
1.0
 40
1.0
 40
1.0
 40
1.0
 10
12136.67969341685
 20
-3322.068901102502
 30
0.0
 10
12136.67969341685
 20
-3322.068901102502
 30
0.0
 10
12136.85159001458
 20
-3322.352865352261
 30
0.0
 10
12138.54198097305
 20
-3323.484703989271
 30
0.0
  0
SPLINE
  5
3533AB
330
18
100
AcDbEntity
  8
姿図
100
AcDbSpline
210
0.0
220
0.0
230
1.0
 70
     8
 71
     3
 72
    14
 73
    10
 74
     0
 42
0.000000001
 43
0.0000000001
 40
0.0
 40
0.0
 40
0.0
 40
0.0
 40
1.0
 40
1.0
 40
1.0
 40
2.0
 40
2.0
 40
2.0
 40
3.0
 40
3.0
 40
3.0
 40
3.0
 10
12136.83672207509
 20
-3321.166287694779
 30
0.0
 10
12136.83672207509
 20
-3321.166287694779
 30
0.0
 10
12137.42697480808
 20
-3321.646258714418
 30
0.0
 10
12137.42697480808
 20
-3321.646258714418
 30
0.0
 10
12137.42697480808
 20
-3321.646258714418
 30
0.0
 10
12137.29494929133
 20
-3322.068901102502
 30
0.0
 10
12137.29494929133
 20
-3322.068901102502
 30
0.0
 10
12137.29494929133
 20
-3322.068901102502
 30
0.0
 10
12138.21881536932
 20
-3322.677459706939
 30
0.0
 10
12138.66449636634
 20
-3322.986962879788
 30
0.0
  0
SPLINE
  5
3533AC
330
18
100
AcDbEntity
  8
姿図
100
AcDbSpline
210
0.0
220
0.0
230
1.0
 70
     8
 71
     3
 72
    26
 73
    22
 74
     0
 42
0.000000001
 43
0.0000000001
 40
0.0
 40
0.0
 40
0.0
 40
0.0
 40
1.0
 40
1.0
 40
1.0
 40
2.0
 40
2.0
 40
2.0
 40
3.0
 40
3.0
 40
3.0
 40
4.0
 40
4.0
 40
4.0
 40
5.0
 40
5.0
 40
5.0
 40
6.0
 40
6.0
 40
6.0
 40
7.0
 40
7.0
 40
7.0
 40
7.0
 10
12164.12760636098
 20
-3327.058903065007
 30
0.0
 10
12163.89650589608
 20
-3324.649582491819
 30
0.0
 10
12162.840391059
 20
-3319.897021076518
 30
0.0
 10
12162.840391059
 20
-3319.897021076518
 30
0.0
 10
12162.840391059
 20
-3319.897021076518
 30
0.0
 10
12162.2793384234
 20
-3319.764950911301
 30
0.0
 10
12162.2793384234
 20
-3319.764950911301
 30
0.0
 10
12162.2793384234
 20
-3319.764950911301
 30
0.0
 10
12162.08136712097
 20
-3319.335879143976
 30
0.0
 10
12162.08136712097
 20
-3319.335879143976
 30
0.0
 10
12162.08136712097
 20
-3319.335879143976
 30
0.0
 10
12162.2793384234
 20
-3319.170947707088
 30
0.0
 10
12162.2793384234
 20
-3319.170947707088
 30
0.0
 10
12158.81390301313
 20
-3315.243356015498
 30
0.0
 10
12151.28885039453
 20
-3315.293496243875
 30
0.0
 10
12151.28885039453
 20
-3315.293496243875
 30
0.0
 10
12151.28885039453
 20
-3315.293496243875
 30
0.0
 10
12150.46365742849
 20
-3322.776936491287
 30
0.0
 10
12150.46365742849
 20
-3322.776936491287
 30
0.0
 10
12150.46365742849
 20
-3322.776936491287
 30
0.0
 10
12162.06118601391
 20
-3322.60879036478
 30
0.0
 10
12164.51363700617
 20
-3327.83721514076
 30
0.0
  0
SPLINE
  5
3533AD
330
18
100
AcDbEntity
  8
姿図
100
AcDbSpline
210
0.0
220
0.0
230
1.0
 70
     8
 71
     3
 72
     8
 73
     4
 74
     0
 42
0.000000001
 43
0.0000000001
 40
0.0
 40
0.0
 40
0.0
 40
0.0
 40
1.0
 40
1.0
 40
1.0
 40
1.0
 10
12163.14248258634
 20
-3326.063063658306
 30
0.0
 10
12163.14248258634
 20
-3326.063063658306
 30
0.0
 10
12162.08851087568
 20
-3318.916897930182
 30
0.0
 10
12161.69774749299
 20
-3318.581766537306
 30
0.0
  0
SPLINE
  5
3533AE
330
18
100
AcDbEntity
  8
姿図
100
AcDbSpline
210
0.0
220
0.0
230
1.0
 70
     8
 71
     3
 72
     8
 73
     4
 74
     0
 42
0.000000001
 43
0.0000000001
 40
0.0
 40
0.0
 40
0.0
 40
0.0
 40
1.0
 40
1.0
 40
1.0
 40
1.0
 10
12160.41928329054
 20
-3324.447682124301
 30
0.0
 10
12160.41928329054
 20
-3324.447682124301
 30
0.0
 10
12158.82185044025
 20
-3317.104973844694
 30
0.0
 10
12158.58682091026
 20
-3316.685769388564
 30
0.0
  0
SPLINE
  5
3533AF
330
18
100
AcDbEntity
  8
姿図
100
AcDbSpline
210
0.0
220
0.0
230
1.0
 70
     8
 71
     3
 72
     8
 73
     4
 74
     0
 42
0.000000001
 43
0.0000000001
 40
0.0
 40
0.0
 40
0.0
 40
0.0
 40
1.0
 40
1.0
 40
1.0
 40
1.0
 10
12162.5012413041
 20
-3322.068901102502
 30
0.0
 10
12162.5012413041
 20
-3322.068901102502
 30
0.0
 10
12161.50316947406
 20
-3323.276999321052
 30
0.0
 10
12160.2080960419
 20
-3323.484703989271
 30
0.0
  0
SPLINE
  5
3533B0
330
18
100
AcDbEntity
  8
姿図
100
AcDbSpline
210
0.0
220
0.0
230
1.0
 70
     8
 71
     3
 72
    17
 73
    13
 74
     0
 42
0.000000001
 43
0.0000000001
 40
0.0
 40
0.0
 40
0.0
 40
0.0
 40
1.0
 40
1.0
 40
1.0
 40
2.0
 40
2.0
 40
2.0
 40
3.0
 40
3.0
 40
3.0
 40
4.0
 40
4.0
 40
4.0
 40
4.0
 10
12160.1271930198
 20
-3323.118318669535
 30
0.0
 10
12160.1271930198
 20
-3323.118318669535
 30
0.0
 10
12161.58621562257
 20
-3322.207311350026
 30
0.0
 10
12161.88330652161
 20
-3321.712249148561
 30
0.0
 10
12161.88330652161
 20
-3321.712249148561
 30
0.0
 10
12161.88330652161
 20
-3321.565444989251
 30
0.0
 10
12161.88330652161
 20
-3321.565444989251
 30
0.0
 10
12161.88330652161
 20
-3321.565444989251
 30
0.0
 10
12162.08136712097
 20
-3321.166287694779
 30
0.0
 10
12162.08136712097
 20
-3321.166287694779
 30
0.0
 10
12162.08136712097
 20
-3321.166287694779
 30
0.0
 10
12162.33952455683
 20
-3321.166287694779
 30
0.0
 10
12162.33952455683
 20
-3321.166287694779
 30
0.0
  0
SPLINE
  5
3533B1
330
18
100
AcDbEntity
  8
姿図
100
AcDbSpline
210
0.0
220
0.0
230
1.0
 70
     8
 71
     3
 72
    14
 73
    10
 74
     0
 42
0.000000001
 43
0.0000000001
 40
0.0
 40
0.0
 40
0.0
 40
0.0
 40
1.0
 40
1.0
 40
1.0
 40
2.0
 40
2.0
 40
2.0
 40
3.0
 40
3.0
 40
3.0
 40
3.0
 10
12136.53583605636
 20
-3320.061952513407
 30
0.0
 10
12136.53583605636
 20
-3320.061952513407
 30
0.0
 10
12135.71068773879
 20
-3319.698960477158
 30
0.0
 10
12135.71068773879
 20
-3319.698960477158
 30
0.0
 10
12135.71068773879
 20
-3319.698960477158
 30
0.0
 10
12136.00309054879
 20
-3316.465205961865
 30
0.0
 10
12146.63522998198
 20
-3314.946309764925
 30
0.0
 10
12147.0972523179
 20
-3314.880274682315
 30
0.0
 10
12147.21878544492
 20
-3315.178392496095
 30
0.0
 10
12147.26222840326
 20
-3315.606392700213
 30
0.0
  0
SPLINE
  5
3533B2
330
18
100
AcDbEntity
  8
姿図
100
AcDbSpline
210
0.0
220
0.0
230
1.0
 70
     8
 71
     3
 72
    14
 73
    10
 74
     0
 42
0.000000001
 43
0.0000000001
 40
0.0
 40
0.0
 40
0.0
 40
0.0
 40
1.0
 40
1.0
 40
1.0
 40
2.0
 40
2.0
 40
2.0
 40
3.0
 40
3.0
 40
3.0
 40
3.0
 10
12162.840391059
 20
-3319.897021076518
 30
0.0
 10
12162.840391059
 20
-3319.897021076518
 30
0.0
 10
12163.30241339493
 20
-3319.566979608874
 30
0.0
 10
12163.30241339493
 20
-3319.566979608874
 30
0.0
 10
12163.30241339493
 20
-3319.566979608874
 30
0.0
 10
12160.99212312142
 20
-3315.357075660801
 30
0.0
 10
12151.91589346428
 20
-3314.937156829201
 30
0.0
 10
12151.91589346428
 20
-3314.937156829201
 30
0.0
 10
12151.33849948977
 20
-3314.843082509351
 30
0.0
 10
12151.28885039453
 20
-3315.293496243875
 30
0.0
  0
SPLINE
  5
3533B3
330
18
100
AcDbEntity
  8
姿図
100
AcDbSpline
210
0.0
220
0.0
230
1.0
 70
     8
 71
     3
 72
    17
 73
    13
 74
     0
 42
0.000000001
 43
0.0000000001
 40
0.0
 40
0.0
 40
0.0
 40
0.0
 40
1.0
 40
1.0
 40
1.0
 40
2.0
 40
2.0
 40
2.0
 40
3.0
 40
3.0
 40
3.0
 40
4.0
 40
4.0
 40
4.0
 40
4.0
 10
12164.02848676436
 20
-3312.612980882474
 30
0.0
 10
12164.02848676436
 20
-3312.612980882474
 30
0.0
 10
12163.14248258634
 20
-3312.612980882474
 30
0.0
 10
12163.14248258634
 20
-3312.612980882474
 30
0.0
 10
12163.14248258634
 20
-3312.612980882474
 30
0.0
 10
12163.17043252665
 20
-3312.503993974666
 30
0.0
 10
12162.87343092454
 20
-3312.669059356955
 30
0.0
 10
12162.5763400255
 20
-3312.83403544231
 30
0.0
 10
12163.14248258634
 20
-3315.573397483141
 30
0.0
 10
12163.14248258634
 20
-3315.573397483141
 30
0.0
 10
12163.14248258634
 20
-3315.573397483141
 30
0.0
 10
12163.30241339493
 20
-3319.566979608874
 30
0.0
 10
12163.30241339493
 20
-3319.566979608874
 30
0.0
  0
POLYLINE
  5
3533B4
330
18
100
AcDbEntity
  8
姿図
100
AcDb2dPolyline
 66
     1
 10
0.0
 20
0.0
 30
0.0
  0
VERTEX
  5
3533B5
330
3533B4
100
AcDbEntity
  8
姿図
100
AcDbVertex
100
AcDb2dVertex
 10
12163.14248258634
 20
-3315.573397483141
 30
0.0
  0
VERTEX
  5
3533B6
330
3533B4
100
AcDbEntity
  8
姿図
100
AcDbVertex
100
AcDb2dVertex
 10
12163.14248258634
 20
-3315.573397483141
 30
0.0
  0
SEQEND
  5
3533B7
330
3533B4
100
AcDbEntity
  8
姿図
  0
SPLINE
  5
3533B8
330
18
100
AcDbEntity
  8
姿図
100
AcDbSpline
210
0.0
220
0.0
230
1.0
 70
     8
 71
     3
 72
    14
 73
    10
 74
     0
 42
0.000000001
 43
0.0000000001
 40
0.0
 40
0.0
 40
0.0
 40
0.0
 40
1.0
 40
1.0
 40
1.0
 40
2.0
 40
2.0
 40
2.0
 40
3.0
 40
3.0
 40
3.0
 40
3.0
 10
12135.71068773879
 20
-3312.810996833367
 30
0.0
 10
12135.71068773879
 20
-3312.810996833367
 30
0.0
 10
12136.67969341685
 20
-3304.582909454276
 30
0.0
 10
12136.67969341685
 20
-3304.582909454276
 30
0.0
 10
12136.67969341685
 20
-3304.582909454276
 30
0.0
 10
12137.42697480808
 20
-3300.490341677329
 30
0.0
 10
12146.70122041612
 20
-3299.764223659432
 30
0.0
 10
12146.70122041612
 20
-3299.764223659432
 30
0.0
 10
12146.89923636701
 20
-3314.92898615975
 30
0.0
 10
12146.89923636701
 20
-3314.92898615975
 30
0.0
  0
SPLINE
  5
3533B9
330
18
100
AcDbEntity
  8
姿図
100
AcDbSpline
210
0.0
220
0.0
230
1.0
 70
     8
 71
     3
 72
    14
 73
    10
 74
     0
 42
0.000000001
 43
0.0000000001
 40
0.0
 40
0.0
 40
0.0
 40
0.0
 40
1.0
 40
1.0
 40
1.0
 40
2.0
 40
2.0
 40
2.0
 40
3.0
 40
3.0
 40
3.0
 40
3.0
 10
12135.55392697135
 20
-3312.696250273323
 30
0.0
 10
12135.55392697135
 20
-3312.696250273323
 30
0.0
 10
12135.61630087967
 20
-3312.07536869201
 30
0.0
 10
12135.61630087967
 20
-3312.07536869201
 30
0.0
 10
12135.61630087967
 20
-3312.07536869201
 30
0.0
 10
12136.17936269629
 20
-3305.689566355929
 30
0.0
 10
12136.17936269629
 20
-3305.689566355929
 30
0.0
 10
12136.17936269629
 20
-3305.689566355929
 30
0.0
 10
12136.46395202458
 20
-3304.916210260006
 30
0.0
 10
12136.64843948999
 20
-3304.84852318412
 30
0.0
  0
SPLINE
  5
3533BA
330
18
100
AcDbEntity
  8
姿図
100
AcDbSpline
210
0.0
220
0.0
230
1.0
 70
     8
 71
     3
 72
    14
 73
    10
 74
     0
 42
0.000000001
 43
0.0000000001
 40
0.0
 40
0.0
 40
0.0
 40
0.0
 40
1.0
 40
1.0
 40
1.0
 40
2.0
 40
2.0
 40
2.0
 40
3.0
 40
3.0
 40
3.0
 40
3.0
 10
12146.70595315361
 20
-3300.127260344148
 30
0.0
 10
12146.70595315361
 20
-3300.127260344148
 30
0.0
 10
12148.91256968688
 20
-3299.170175806753
 30
0.0
 10
12148.91256968688
 20
-3299.170175806753
 30
0.0
 10
12148.91256968688
 20
-3299.170175806753
 30
0.0
 10
12149.07750112377
 20
-3298.906124773251
 30
0.0
 10
12149.86974352121
 20
-3299.170175806753
 30
0.0
 10
12149.86974352121
 20
-3299.170175806753
 30
0.0
 10
12151.68488229632
 20
-3300.127260344148
 30
0.0
 10
12151.68488229632
 20
-3300.127260344148
 30
0.0
  0
SPLINE
  5
3533BB
330
18
100
AcDbEntity
  8
姿図
100
AcDbSpline
210
0.0
220
0.0
230
1.0
 70
     8
 71
     3
 72
    14
 73
    10
 74
     0
 42
0.000000001
 43
0.0000000001
 40
0.0
 40
0.0
 40
0.0
 40
0.0
 40
1.0
 40
1.0
 40
1.0
 40
2.0
 40
2.0
 40
2.0
 40
3.0
 40
3.0
 40
3.0
 40
3.0
 10
12151.68488229632
 20
-3314.92898615975
 30
0.0
 10
12151.68488229632
 20
-3314.92898615975
 30
0.0
 10
12151.68488229632
 20
-3299.764223659432
 30
0.0
 10
12151.68488229632
 20
-3299.764223659432
 30
0.0
 10
12151.68488229632
 20
-3299.764223659432
 30
0.0
 10
12159.89144911434
 20
-3299.434182191788
 30
0.0
 10
12162.33952455683
 20
-3304.615904671346
 30
0.0
 10
12162.33952455683
 20
-3304.615904671346
 30
0.0
 10
12162.95638777612
 20
-3312.138635569669
 30
0.0
 10
12162.87343092454
 20
-3312.669059356955
 30
0.0
  0
SPLINE
  5
3533BC
330
18
100
AcDbEntity
  8
姿図
100
AcDbSpline
210
0.0
220
0.0
230
1.0
 70
     8
 71
     3
 72
    11
 73
     7
 74
     0
 42
0.000000001
 43
0.0000000001
 40
0.0
 40
0.0
 40
0.0
 40
0.0
 40
1.0
 40
1.0
 40
1.0
 40
2.0
 40
2.0
 40
2.0
 40
2.0
 10
12163.40787307385
 20
-3312.577708593589
 30
0.0
 10
12163.40787307385
 20
-3312.577708593589
 30
0.0
 10
12162.64233045964
 20
-3305.286033511697
 30
0.0
 10
12162.64233045964
 20
-3305.286033511697
 30
0.0
 10
12162.64233045964
 20
-3305.286033511697
 30
0.0
 10
12162.53178085549
 20
-3304.784184743255
 30
0.0
 10
12162.33952455683
 20
-3304.84852318412
 30
0.0
  0
POLYLINE
  5
3533BD
330
18
100
AcDbEntity
  8
姿図
100
AcDb2dPolyline
 66
     1
 10
0.0
 20
0.0
 30
0.0
  0
VERTEX
  5
3533BE
330
3533BD
100
AcDbEntity
  8
姿図
100
AcDbVertex
100
AcDb2dVertex
 10
12135.34765105407
 20
-3316.012515155528
 30
0.0
  0
VERTEX
  5
3533BF
330
3533BD
100
AcDbEntity
  8
姿図
100
AcDbVertex
100
AcDb2dVertex
 10
12135.71068773879
 20
-3315.936434167857
 30
0.0
  0
SEQEND
  5
3533C0
330
3533BD
100
AcDbEntity
  8
姿図
  0
POLYLINE
  5
3533C1
330
18
100
AcDbEntity
  8
姿図
100
AcDb2dPolyline
 66
     1
 10
0.0
 20
0.0
 30
0.0
  0
VERTEX
  5
3533C2
330
3533C1
100
AcDbEntity
  8
姿図
100
AcDbVertex
100
AcDb2dVertex
 10
12163.66549472811
 20
-3315.847449773239
 30
0.0
  0
VERTEX
  5
3533C3
330
3533C1
100
AcDbEntity
  8
姿図
100
AcDbVertex
100
AcDb2dVertex
 10
12163.14248258634
 20
-3315.573397483141
 30
0.0
  0
SEQEND
  5
3533C4
330
3533C1
100
AcDbEntity
  8
姿図
  0
SPLINE
  5
3533C5
330
18
100
AcDbEntity
  8
姿図
100
AcDbSpline
210
0.0
220
0.0
230
1.0
 70
     8
 71
     3
 72
    14
 73
    10
 74
     0
 42
0.000000001
 43
0.0000000001
 40
0.0
 40
0.0
 40
0.0
 40
0.0
 40
1.0
 40
1.0
 40
1.0
 40
2.0
 40
2.0
 40
2.0
 40
3.0
 40
3.0
 40
3.0
 40
3.0
 10
12164.86627059808
 20
-3333.296740381638
 30
0.0
 10
12164.86627059808
 20
-3333.296740381638
 30
0.0
 10
12163.89650589608
 20
-3318.035894380459
 30
0.0
 10
12163.66549472811
 20
-3315.847449773239
 30
0.0
 10
12163.66549472811
 20
-3315.847449773239
 30
0.0
 10
12163.99553619576
 20
-3315.847449773239
 30
0.0
 10
12163.99553619576
 20
-3315.847449773239
 30
0.0
 10
12163.99553619576
 20
-3315.847449773239
 30
0.0
 10
12164.02848676436
 20
-3312.612980882474
 30
0.0
 10
12164.02848676436
 20
-3312.612980882474
 30
0.0
  0
POLYLINE
  5
3533C6
330
18
100
AcDbEntity
  8
姿図
100
AcDb2dPolyline
 66
     1
 10
0.0
 20
0.0
 30
0.0
  0
VERTEX
  5
3533C7
330
3533C6
100
AcDbEntity
  8
姿図
100
AcDbVertex
100
AcDb2dVertex
 10
12148.21940223759
 20
-3323.2634261871
 30
0.0
  0
VERTEX
  5
3533C8
330
3533C6
100
AcDbEntity
  8
姿図
100
AcDbVertex
100
AcDb2dVertex
 10
12148.21940223759
 20
-3323.2634261871
 30
0.0
  0
SEQEND
  5
3533C9
330
3533C6
100
AcDbEntity
  8
姿図
  0
POLYLINE
  5
3533CA
330
18
100
AcDbEntity
  8
姿図
100
AcDb2dPolyline
 66
     1
 10
0.0
 20
0.0
 30
0.0
  0
VERTEX
  5
3533CB
330
3533CA
100
AcDbEntity
  8
姿図
100
AcDbVertex
100
AcDb2dVertex
 10
12149.19546237343
 20
-3299.055875731378
 30
0.0
  0
VERTEX
  5
3533CC
330
3533CA
100
AcDbEntity
  8
姿図
100
AcDbVertex
100
AcDb2dVertex
 10
12149.23162763165
 20
-3323.28548252977
 30
0.0
  0
SEQEND
  5
3533CD
330
3533CA
100
AcDbEntity
  8
姿図
  0
SPLINE
  5
3533CE
330
18
100
AcDbEntity
  8
姿図
100
AcDbSpline
210
0.0
220
0.0
230
1.0
 70
     8
 71
     3
 72
     8
 73
     4
 74
     0
 42
0.000000001
 43
0.0000000001
 40
0.0
 40
0.0
 40
0.0
 40
0.0
 40
1.0
 40
1.0
 40
1.0
 40
1.0
 10
12138.0547322533
 20
-3301.466089273905
 30
0.0
 10
12137.54507000315
 20
-3302.182518574476
 30
0.0
 10
12137.2151624809
 20
-3302.91466413541
 30
0.0
 10
12136.96294329114
 20
-3303.893581773139
 30
0.0
  0
SPLINE
  5
3533CF
330
18
100
AcDbEntity
  8
姿図
100
AcDbSpline
210
0.0
220
0.0
230
1.0
 70
     8
 71
     3
 72
     8
 73
     4
 74
     0
 42
0.000000001
 43
0.0000000001
 40
0.0
 40
0.0
 40
0.0
 40
0.0
 40
1.0
 40
1.0
 40
1.0
 40
1.0
 10
12140.9602758881
 20
-3298.901838520424
 30
0.0
 10
12139.96765117101
 20
-3299.432887386246
 30
0.0
 10
12139.54255311725
 20
-3299.787842698444
 30
0.0
 10
12138.67869457883
 20
-3300.673802227998
 30
0.0
  0
SPLINE
  5
3533D0
330
18
100
AcDbEntity
  8
姿図
100
AcDbSpline
210
0.0
220
0.0
230
1.0
 70
     8
 71
     3
 72
     8
 73
     4
 74
     0
 42
0.000000001
 43
0.0000000001
 40
0.0
 40
0.0
 40
0.0
 40
0.0
 40
1.0
 40
1.0
 40
1.0
 40
1.0
 10
12145.85365856813
 20
-3297.360975277748
 30
0.0
 10
12144.73985791177
 20
-3297.51563756724
 30
0.0
 10
12143.71812239424
 20
-3297.723074344658
 30
0.0
 10
12142.48015435131
 20
-3298.205501029979
 30
0.0
  0
SPLINE
  5
3533D1
330
18
100
AcDbEntity
  8
姿図
100
AcDbSpline
210
0.0
220
0.0
230
1.0
 70
     8
 71
     3
 72
     8
 73
     4
 74
     0
 42
0.000000001
 43
0.0000000001
 40
0.0
 40
0.0
 40
0.0
 40
0.0
 40
1.0
 40
1.0
 40
1.0
 40
1.0
 10
12149.34155215727
 20
-3297.167915306686
 30
0.0
 10
12149.34155215727
 20
-3297.167915306686
 30
0.0
 10
12148.5065365285
 20
-3297.110943862867
 30
0.0
 10
12147.12502366434
 20
-3297.230065972671
 30
0.0
  0
SPLINE
  5
3533D2
330
18
100
AcDbEntity
  8
姿図
100
AcDbSpline
210
0.0
220
0.0
230
1.0
 70
     8
 71
     3
 72
    11
 73
     7
 74
     0
 42
0.000000001
 43
0.0000000001
 40
0.0
 40
0.0
 40
0.0
 40
0.0
 40
1.0
 40
1.0
 40
1.0
 40
2.0
 40
2.0
 40
2.0
 40
2.0
 10
12149.34155215727
 20
-3289.507711778645
 30
0.0
 10
12149.34155215727
 20
-3289.507711778645
 30
0.0
 10
12148.17528955225
 20
-3289.532938162468
 30
0.0
 10
12147.91128316721
 20
-3289.708942419157
 30
0.0
 10
12147.91128316721
 20
-3289.708942419157
 30
0.0
 10
12147.91128316721
 20
-3297.170013784632
 30
0.0
 10
12147.91128316721
 20
-3297.170013784632
 30
0.0
  0
POLYLINE
  5
3533D3
330
18
100
AcDbEntity
  8
姿図
100
AcDb2dPolyline
 66
     1
 10
0.0
 20
0.0
 30
0.0
  0
VERTEX
  5
3533D4
330
3533D3
100
AcDbEntity
  8
姿図
100
AcDbVertex
100
AcDb2dVertex
 10
12146.89923636701
 20
-3298.378067354714
 30
0.0
  0
VERTEX
  5
3533D5
330
3533D3
100
AcDbEntity
  8
姿図
100
AcDbVertex
100
AcDb2dVertex
 10
12147.16319810358
 20
-3297.035889789935
 30
0.0
  0
VERTEX
  5
3533D6
330
3533D3
100
AcDbEntity
  8
姿図
100
AcDbVertex
100
AcDb2dVertex
 10
12147.63321251509
 20
-3297.192159424236
 30
0.0
  0
SEQEND
  5
3533D7
330
3533D3
100
AcDbEntity
  8
姿図
  0
SPLINE
  5
3533D8
330
18
100
AcDbEntity
  8
姿図
100
AcDbSpline
210
0.0
220
0.0
230
1.0
 70
     8
 71
     3
 72
    26
 73
    22
 74
     0
 42
0.000000001
 43
0.0000000001
 40
0.0
 40
0.0
 40
0.0
 40
0.0
 40
1.0
 40
1.0
 40
1.0
 40
2.0
 40
2.0
 40
2.0
 40
3.0
 40
3.0
 40
3.0
 40
4.0
 40
4.0
 40
4.0
 40
5.0
 40
5.0
 40
5.0
 40
6.0
 40
6.0
 40
6.0
 40
7.0
 40
7.0
 40
7.0
 40
7.0
 10
12148.93337587248
 20
-3289.526598080161
 30
0.0
 10
12148.93337587248
 20
-3289.526598080161
 30
0.0
 10
12146.52918987299
 20
-3284.182667720199
 30
0.0
 10
12146.52918987299
 20
-3284.182667720199
 30
0.0
 10
12146.11110162853
 20
-3283.720600735804
 30
0.0
 10
12145.99421194207
 20
-3284.200393161575
 30
0.0
 10
12145.99421194207
 20
-3284.200393161575
 30
0.0
 10
12145.99421194207
 20
-3284.200393161575
 30
0.0
 10
12145.8210205388
 20
-3297.299940823437
 30
0.0
 10
12145.8210205388
 20
-3297.299940823437
 30
0.0
 10
12145.8210205388
 20
-3297.299940823437
 30
0.0
 10
12146.44761712388
 20
-3298.472230971497
 30
0.0
 10
12146.44761712388
 20
-3298.472230971497
 30
0.0
 10
12146.44761712388
 20
-3298.472230971497
 30
0.0
 10
12146.94334905235
 20
-3298.554071611404
 30
0.0
 10
12146.89923636701
 20
-3298.378067354714
 30
0.0
 10
12146.85512368167
 20
-3298.202063098023
 30
0.0
 10
12146.39305669728
 20
-3297.233905740827
 30
0.0
 10
12146.39305669728
 20
-3297.233905740827
 30
0.0
 10
12146.39305669728
 20
-3297.233905740827
 30
0.0
 10
12146.52918987299
 20
-3284.182667720199
 30
0.0
 10
12146.52918987299
 20
-3284.182667720199
 30
0.0
  0
SPLINE
  5
3533D9
330
18
100
AcDbEntity
  8
姿図
100
AcDbSpline
210
0.0
220
0.0
230
1.0
 70
     8
 71
     3
 72
     8
 73
     4
 74
     0
 42
0.000000001
 43
0.0000000001
 40
0.0
 40
0.0
 40
0.0
 40
0.0
 40
1.0
 40
1.0
 40
1.0
 40
1.0
 10
12145.8210205388
 20
-3297.299940823437
 30
0.0
 10
12145.8210205388
 20
-3297.299940823437
 30
0.0
 10
12145.90897801868
 20
-3297.035845141468
 30
0.0
 10
12146.39305669728
 20
-3297.233905740827
 30
0.0
  0
SPLINE
  5
3533DA
330
18
100
AcDbEntity
  8
姿図
100
AcDbSpline
210
0.0
220
0.0
230
1.0
 70
     8
 71
     3
 72
    11
 73
     7
 74
     0
 42
0.000000001
 43
0.0000000001
 40
0.0
 40
0.0
 40
0.0
 40
0.0
 40
1.0
 40
1.0
 40
1.0
 40
2.0
 40
2.0
 40
2.0
 40
2.0
 10
12145.917327282
 20
-3290.016748950264
 30
0.0
 10
12145.917327282
 20
-3290.016748950264
 30
0.0
 10
12145.13892590931
 20
-3290.170964755085
 30
0.0
 10
12145.00690039256
 20
-3290.390992400181
 30
0.0
 10
12145.00690039256
 20
-3290.390992400181
 30
0.0
 10
12145.00690039256
 20
-3297.503582481164
 30
0.0
 10
12145.00690039256
 20
-3297.503582481164
 30
0.0
  0
SPLINE
  5
3533DB
330
18
100
AcDbEntity
  8
姿図
100
AcDbSpline
210
0.0
220
0.0
230
1.0
 70
     8
 71
     3
 72
    17
 73
    13
 74
     0
 42
0.000000001
 43
0.0000000001
 40
0.0
 40
0.0
 40
0.0
 40
0.0
 40
1.0
 40
1.0
 40
1.0
 40
2.0
 40
2.0
 40
2.0
 40
3.0
 40
3.0
 40
3.0
 40
4.0
 40
4.0
 40
4.0
 40
4.0
 10
12145.917327282
 20
-3288.520712768399
 30
0.0
 10
12145.917327282
 20
-3288.520712768399
 30
0.0
 10
12141.67572292239
 20
-3285.431172801332
 30
0.0
 10
12141.67572292239
 20
-3285.431172801332
 30
0.0
 10
12141.67572292239
 20
-3285.431172801332
 30
0.0
 10
12141.09556074293
 20
-3285.002234979408
 30
0.0
 10
12141.04332203661
 20
-3285.75121301238
 30
0.0
 10
12141.04332203661
 20
-3285.75121301238
 30
0.0
 10
12140.73832835892
 20
-3297.299940823437
 30
0.0
 10
12140.73832835892
 20
-3297.299940823437
 30
0.0
 10
12140.73832835892
 20
-3297.299940823437
 30
0.0
 10
12140.9602758881
 20
-3298.901838520424
 30
0.0
 10
12140.9602758881
 20
-3298.901838520424
 30
0.0
  0
SPLINE
  5
3533DC
330
18
100
AcDbEntity
  8
姿図
100
AcDbSpline
210
0.0
220
0.0
230
1.0
 70
     8
 71
     3
 72
    17
 73
    13
 74
     0
 42
0.000000001
 43
0.0000000001
 40
0.0
 40
0.0
 40
0.0
 40
0.0
 40
1.0
 40
1.0
 40
1.0
 40
2.0
 40
2.0
 40
2.0
 40
3.0
 40
3.0
 40
3.0
 40
4.0
 40
4.0
 40
4.0
 40
4.0
 10
12143.45349093067
 20
-3297.879701166695
 30
0.0
 10
12143.45349093067
 20
-3297.879701166695
 30
0.0
 10
12142.65258673064
 20
-3297.706956248091
 30
0.0
 10
12142.65258673064
 20
-3297.706956248091
 30
0.0
 10
12142.65258673064
 20
-3297.706956248091
 30
0.0
 10
12142.14654100631
 20
-3299.170175806753
 30
0.0
 10
12142.14654100631
 20
-3299.170175806753
 30
0.0
 10
12142.14654100631
 20
-3299.170175806753
 30
0.0
 10
12141.88248997281
 20
-3299.412215146052
 30
0.0
 10
12141.66246232771
 20
-3299.324213017707
 30
0.0
 10
12141.44239003415
 20
-3299.236166240894
 30
0.0
 10
12140.98318055164
 20
-3299.064626830899
 30
0.0
 10
12140.96045448196
 20
-3298.901838520424
 30
0.0
  0
SPLINE
  5
3533DD
330
18
100
AcDbEntity
  8
姿図
100
AcDbSpline
210
0.0
220
0.0
230
1.0
 70
     8
 71
     3
 72
    11
 73
     7
 74
     0
 42
0.000000001
 43
0.0000000001
 40
0.0
 40
0.0
 40
0.0
 40
0.0
 40
1.0
 40
1.0
 40
1.0
 40
2.0
 40
2.0
 40
2.0
 40
2.0
 10
12140.9602758881
 20
-3298.901838520424
 30
0.0
 10
12140.9602758881
 20
-3298.901838520424
 30
0.0
 10
12141.00849623239
 20
-3298.576083305607
 30
0.0
 10
12141.46752712104
 20
-3298.79615559917
 30
0.0
 10
12141.92646871275
 20
-3299.016183244266
 30
0.0
 10
12142.23574864326
 20
-3299.135662541806
 30
0.0
 10
12142.08028268137
 20
-3299.222414513076
 30
0.0
  0
SPLINE
  5
3533DE
330
18
100
AcDbEntity
  8
姿図
100
AcDbSpline
210
0.0
220
0.0
230
1.0
 70
     8
 71
     3
 72
    14
 73
    10
 74
     0
 42
0.000000001
 43
0.0000000001
 40
0.0
 40
0.0
 40
0.0
 40
0.0
 40
1.0
 40
1.0
 40
1.0
 40
2.0
 40
2.0
 40
2.0
 40
3.0
 40
3.0
 40
3.0
 40
3.0
 10
12141.57575500491
 20
-3285.371611746429
 30
0.0
 10
12141.57575500491
 20
-3285.371611746429
 30
0.0
 10
12141.44855152259
 20
-3285.572351253805
 30
0.0
 10
12141.46752712104
 20
-3286.2764575775
 30
0.0
 10
12141.48645807102
 20
-3286.980519252727
 30
0.0
 10
12141.3049620529
 20
-3297.153136664128
 30
0.0
 10
12141.3049620529
 20
-3297.153136664128
 30
0.0
 10
12141.3049620529
 20
-3297.153136664128
 30
0.0
 10
12141.3049620529
 20
-3298.73538903566
 30
0.0
 10
12141.3049620529
 20
-3298.73538903566
 30
0.0
  0
SPLINE
  5
3533DF
330
18
100
AcDbEntity
  8
姿図
100
AcDbSpline
210
0.0
220
0.0
230
1.0
 70
     8
 71
     3
 72
    32
 73
    28
 74
     0
 42
0.000000001
 43
0.0000000001
 40
0.0
 40
0.0
 40
0.0
 40
0.0
 40
1.0
 40
1.0
 40
1.0
 40
2.0
 40
2.0
 40
2.0
 40
3.0
 40
3.0
 40
3.0
 40
4.0
 40
4.0
 40
4.0
 40
5.0
 40
5.0
 40
5.0
 40
6.0
 40
6.0
 40
6.0
 40
7.0
 40
7.0
 40
7.0
 40
8.0
 40
8.0
 40
8.0
 40
9.0
 40
9.0
 40
9.0
 40
9.0
 10
12140.97246491957
 20
-3288.432844585454
 30
0.0
 10
12140.97246491957
 20
-3288.432844585454
 30
0.0
 10
12138.02097801229
 20
-3287.430620447981
 30
0.0
 10
12138.02097801229
 20
-3287.430620447981
 30
0.0
 10
12138.02097801229
 20
-3287.430620447981
 30
0.0
 10
12137.58766464061
 20
-3287.236578210646
 30
0.0
 10
12137.54221250126
 20
-3287.909207365145
 30
0.0
 10
12137.54221250126
 20
-3287.909207365145
 30
0.0
 10
12136.96294329114
 20
-3298.73538903566
 30
0.0
 10
12136.96294329114
 20
-3298.73538903566
 30
0.0
 10
12136.96294329114
 20
-3298.73538903566
 30
0.0
 10
12137.28383182306
 20
-3301.062422484272
 30
0.0
 10
12137.28383182306
 20
-3301.062422484272
 30
0.0
 10
12137.28383182306
 20
-3301.062422484272
 30
0.0
 10
12137.30588816573
 20
-3301.260438435165
 30
0.0
 10
12137.59190624497
 20
-3301.348440563509
 30
0.0
 10
12137.59190624497
 20
-3301.348440563509
 30
0.0
 10
12138.0547322533
 20
-3301.466089273905
 30
0.0
 10
12138.0547322533
 20
-3301.466089273905
 30
0.0
 10
12138.0547322533
 20
-3301.466089273905
 30
0.0
 10
12138.2959679202
 20
-3301.458499034525
 30
0.0
 10
12138.40602639121
 20
-3301.282450129368
 30
0.0
 10
12138.40602639121
 20
-3301.282450129368
 30
0.0
 10
12139.0881210207
 20
-3299.760026703539
 30
0.0
 10
12139.0881210207
 20
-3299.760026703539
 30
0.0
 10
12139.0881210207
 20
-3299.760026703539
 30
0.0
 10
12139.52491697281
 20
-3299.870308416889
 30
0.0
 10
12139.52491697281
 20
-3299.870308416889
 30
0.0
  0
SPLINE
  5
3533E0
330
18
100
AcDbEntity
  8
姿図
100
AcDbSpline
210
0.0
220
0.0
230
1.0
 70
     8
 71
     3
 72
    14
 73
    10
 74
     0
 42
0.000000001
 43
0.0000000001
 40
0.0
 40
0.0
 40
0.0
 40
0.0
 40
1.0
 40
1.0
 40
1.0
 40
2.0
 40
2.0
 40
2.0
 40
3.0
 40
3.0
 40
3.0
 40
3.0
 10
12138.21912790859
 20
-3287.497459202994
 30
0.0
 10
12138.21912790859
 20
-3287.497459202994
 30
0.0
 10
12137.81193389007
 20
-3287.332572414573
 30
0.0
 10
12137.78992219586
 20
-3287.92666491572
 30
0.0
 10
12137.76791050166
 20
-3288.520712768399
 30
0.0
 10
12137.50385946816
 20
-3298.491251218416
 30
0.0
 10
12137.50385946816
 20
-3298.491251218416
 30
0.0
 10
12137.50385946816
 20
-3298.491251218416
 30
0.0
 10
12137.61449836924
 20
-3300.911957150674
 30
0.0
 10
12137.61449836924
 20
-3300.911957150674
 30
0.0
  0
SPLINE
  5
3533E1
330
18
100
AcDbEntity
  8
姿図
100
AcDbSpline
210
0.0
220
0.0
230
1.0
 70
     8
 71
     3
 72
    26
 73
    22
 74
     0
 42
0.000000001
 43
0.0000000001
 40
0.0
 40
0.0
 40
0.0
 40
0.0
 40
1.0
 40
1.0
 40
1.0
 40
2.0
 40
2.0
 40
2.0
 40
3.0
 40
3.0
 40
3.0
 40
4.0
 40
4.0
 40
4.0
 40
5.0
 40
5.0
 40
5.0
 40
6.0
 40
6.0
 40
6.0
 40
7.0
 40
7.0
 40
7.0
 40
7.0
 10
12137.41880413863
 20
-3290.214988143492
 30
0.0
 10
12137.41880413863
 20
-3290.214988143492
 30
0.0
 10
12136.20574994025
 20
-3290.214988143492
 30
0.0
 10
12136.20574994025
 20
-3290.214988143492
 30
0.0
 10
12136.20574994025
 20
-3290.214988143492
 30
0.0
 10
12135.90035442636
 20
-3290.21677408217
 30
0.0
 10
12135.88334336045
 20
-3290.654463003614
 30
0.0
 10
12135.86633229455
 20
-3291.092151925058
 30
0.0
 10
12135.51352010876
 20
-3301.466089273905
 30
0.0
 10
12135.51352010876
 20
-3301.466089273905
 30
0.0
 10
12135.51352010876
 20
-3301.466089273905
 30
0.0
 10
12135.75667565974
 20
-3303.410931845483
 30
0.0
 10
12135.78315220063
 20
-3303.435934986971
 30
0.0
 10
12135.8095394446
 20
-3303.46093812846
 30
0.0
 10
12136.51904823279
 20
-3303.636808439749
 30
0.0
 10
12136.64843948999
 20
-3303.636808439749
 30
0.0
 10
12136.77778609873
 20
-3303.636808439749
 30
0.0
 10
12137.36312750035
 20
-3302.030579841468
 30
0.0
 10
12137.36312750035
 20
-3302.030579841468
 30
0.0
 10
12137.36312750035
 20
-3302.030579841468
 30
0.0
 10
12137.66946063205
 20
-3302.093176992122
 30
0.0
 10
12137.66946063205
 20
-3302.093176992122
 30
0.0
  0
SPLINE
  5
3533E2
330
18
100
AcDbEntity
  8
姿図
100
AcDbSpline
210
0.0
220
0.0
230
1.0
 70
     8
 71
     3
 72
    14
 73
    10
 74
     0
 42
0.000000001
 43
0.0000000001
 40
0.0
 40
0.0
 40
0.0
 40
0.0
 40
1.0
 40
1.0
 40
1.0
 40
2.0
 40
2.0
 40
2.0
 40
3.0
 40
3.0
 40
3.0
 40
3.0
 10
12135.78315220063
 20
-3303.435934986971
 30
0.0
 10
12135.78315220063
 20
-3303.435934986971
 30
0.0
 10
12135.62255166504
 20
-3302.954669161792
 30
0.0
 10
12136.10118323067
 20
-3303.064727632806
 30
0.0
 10
12136.57977014784
 20
-3303.174741455354
 30
0.0
 10
12136.57977014784
 20
-3303.174741455354
 30
0.0
 10
12136.57977014784
 20
-3303.174741455354
 30
0.0
 10
12136.57977014784
 20
-3303.174741455354
 30
0.0
 10
12136.98111521719
 20
-3303.35079036051
 30
0.0
 10
12136.64843948999
 20
-3303.636808439749
 30
0.0
  0
POLYLINE
  5
3533E3
330
18
100
AcDbEntity
  8
姿図
100
AcDb2dPolyline
 66
     1
 10
0.0
 20
0.0
 30
0.0
  0
VERTEX
  5
3533E4
330
3533E3
100
AcDbEntity
  8
姿図
100
AcDbVertex
100
AcDb2dVertex
 10
12136.20574994025
 20
-3290.214988143492
 30
0.0
  0
VERTEX
  5
3533E5
330
3533E3
100
AcDbEntity
  8
姿図
100
AcDbVertex
100
AcDb2dVertex
 10
12135.71068773879
 20
-3301.466089273905
 30
0.0
  0
VERTEX
  5
3533E6
330
3533E3
100
AcDbEntity
  8
姿図
100
AcDbVertex
100
AcDb2dVertex
 10
12135.83753403337
 20
-3303.084149715926
 30
0.0
  0
SEQEND
  5
3533E7
330
3533E3
100
AcDbEntity
  8
姿図
  0
SPLINE
  5
3533E8
330
18
100
AcDbEntity
  8
姿図
100
AcDbSpline
210
0.0
220
0.0
230
1.0
 70
     8
 71
     3
 72
    11
 73
     7
 74
     0
 42
0.000000001
 43
0.0000000001
 40
0.0
 40
0.0
 40
0.0
 40
0.0
 40
1.0
 40
1.0
 40
1.0
 40
2.0
 40
2.0
 40
2.0
 40
2.0
 10
12137.36611894764
 20
-3301.216325749826
 30
0.0
 10
12137.36611894764
 20
-3301.216325749826
 30
0.0
 10
12137.30588816573
 20
-3300.820427793439
 30
0.0
 10
12137.72393176172
 20
-3300.930441615988
 30
0.0
 10
12138.14193070924
 20
-3301.040410790069
 30
0.0
 10
12138.5597510629
 20
-3301.149933479481
 30
0.0
 10
12138.40602639121
 20
-3301.282450129368
 30
0.0
  0
POLYLINE
  5
3533E9
330
18
100
AcDbEntity
  8
姿図
100
AcDb2dPolyline
 66
     1
 10
0.0
 20
0.0
 30
0.0
  0
VERTEX
  5
3533EA
330
3533E9
100
AcDbEntity
  8
姿図
100
AcDbVertex
100
AcDb2dVertex
 10
12137.86149368837
 20
-3301.762644391342
 30
0.0
  0
VERTEX
  5
3533EB
330
3533E9
100
AcDbEntity
  8
姿図
100
AcDbVertex
100
AcDb2dVertex
 10
12137.50385946816
 20
-3301.678526679621
 30
0.0
  0
VERTEX
  5
3533EC
330
3533E9
100
AcDbEntity
  8
姿図
100
AcDbVertex
100
AcDb2dVertex
 10
12137.36312750035
 20
-3302.030579841468
 30
0.0
  0
SEQEND
  5
3533ED
330
3533E9
100
AcDbEntity
  8
姿図
  0
SPLINE
  5
3533EE
330
18
100
AcDbEntity
  8
姿図
100
AcDbSpline
210
0.0
220
0.0
230
1.0
 70
     8
 71
     3
 72
     8
 73
     4
 74
     0
 42
0.000000001
 43
0.0000000001
 40
0.0
 40
0.0
 40
0.0
 40
0.0
 40
1.0
 40
1.0
 40
1.0
 40
1.0
 10
12160.62832741277
 20
-3301.466089273905
 30
0.0
 10
12161.0690077815
 20
-3302.029865465997
 30
0.0
 10
12161.3541328914
 20
-3302.606009283432
 30
0.0
 10
12161.57219600395
 20
-3303.376284635136
 30
0.0
  0
SPLINE
  5
3533EF
330
18
100
AcDbEntity
  8
姿図
100
AcDbSpline
210
0.0
220
0.0
230
1.0
 70
     8
 71
     3
 72
     8
 73
     4
 74
     0
 42
0.000000001
 43
0.0000000001
 40
0.0
 40
0.0
 40
0.0
 40
0.0
 40
1.0
 40
1.0
 40
1.0
 40
1.0
 10
12157.72278377798
 20
-3298.901838520424
 30
0.0
 10
12158.71549779199
 20
-3299.432887386246
 30
0.0
 10
12159.14055119729
 20
-3299.787842698444
 30
0.0
 10
12160.00432043877
 20
-3300.673802227998
 30
0.0
  0
SPLINE
  5
3533F0
330
18
100
AcDbEntity
  8
姿図
100
AcDbSpline
210
0.0
220
0.0
230
1.0
 70
     8
 71
     3
 72
     8
 73
     4
 74
     0
 42
0.000000001
 43
0.0000000001
 40
0.0
 40
0.0
 40
0.0
 40
0.0
 40
1.0
 40
1.0
 40
1.0
 40
1.0
 10
12152.82949039487
 20
-3297.360975277748
 30
0.0
 10
12153.94329105124
 20
-3297.51563756724
 30
0.0
 10
12154.96493727183
 20
-3297.723074344658
 30
0.0
 10
12156.2028606663
 20
-3298.205501029979
 30
0.0
  0
SPLINE
  5
3533F1
330
18
100
AcDbEntity
  8
姿図
100
AcDbSpline
210
0.0
220
0.0
230
1.0
 70
     8
 71
     3
 72
     8
 73
     4
 74
     0
 42
0.000000001
 43
0.0000000001
 40
0.0
 40
0.0
 40
0.0
 40
0.0
 40
1.0
 40
1.0
 40
1.0
 40
1.0
 10
12149.34155215727
 20
-3297.167915306686
 30
0.0
 10
12149.34155215727
 20
-3297.167915306686
 30
0.0
 10
12150.17656778604
 20
-3297.110943862867
 30
0.0
 10
12151.55816994713
 20
-3297.230065972671
 30
0.0
  0
SPLINE
  5
3533F2
330
18
100
AcDbEntity
  8
姿図
100
AcDbSpline
210
0.0
220
0.0
230
1.0
 70
     8
 71
     3
 72
    11
 73
     7
 74
     0
 42
0.000000001
 43
0.0000000001
 40
0.0
 40
0.0
 40
0.0
 40
0.0
 40
1.0
 40
1.0
 40
1.0
 40
2.0
 40
2.0
 40
2.0
 40
2.0
 10
12149.34155215727
 20
-3289.507711778645
 30
0.0
 10
12149.34155215727
 20
-3289.507711778645
 30
0.0
 10
12150.50777011383
 20
-3289.532938162468
 30
0.0
 10
12150.77182114733
 20
-3289.708942419157
 30
0.0
 10
12150.77182114733
 20
-3289.708942419157
 30
0.0
 10
12150.77182114733
 20
-3297.170013784632
 30
0.0
 10
12150.77182114733
 20
-3297.170013784632
 30
0.0
  0
POLYLINE
  5
3533F3
330
18
100
AcDbEntity
  8
姿図
100
AcDb2dPolyline
 66
     1
 10
0.0
 20
0.0
 30
0.0
  0
VERTEX
  5
3533F4
330
3533F3
100
AcDbEntity
  8
姿図
100
AcDbVertex
100
AcDb2dVertex
 10
12151.78382329906
 20
-3298.378067354714
 30
0.0
  0
VERTEX
  5
3533F5
330
3533F3
100
AcDbEntity
  8
姿図
100
AcDbVertex
100
AcDb2dVertex
 10
12151.51986156249
 20
-3297.035889789935
 30
0.0
  0
VERTEX
  5
3533F6
330
3533F3
100
AcDbEntity
  8
姿図
100
AcDbVertex
100
AcDb2dVertex
 10
12151.04998109638
 20
-3297.192159424236
 30
0.0
  0
SEQEND
  5
3533F7
330
3533F3
100
AcDbEntity
  8
姿図
  0
SPLINE
  5
3533F8
330
18
100
AcDbEntity
  8
姿図
100
AcDbSpline
210
0.0
220
0.0
230
1.0
 70
     8
 71
     3
 72
    26
 73
    22
 74
     0
 42
0.000000001
 43
0.0000000001
 40
0.0
 40
0.0
 40
0.0
 40
0.0
 40
1.0
 40
1.0
 40
1.0
 40
2.0
 40
2.0
 40
2.0
 40
3.0
 40
3.0
 40
3.0
 40
4.0
 40
4.0
 40
4.0
 40
5.0
 40
5.0
 40
5.0
 40
6.0
 40
6.0
 40
6.0
 40
7.0
 40
7.0
 40
7.0
 40
7.0
 10
12149.74972844206
 20
-3289.526598080161
 30
0.0
 10
12149.74972844206
 20
-3289.526598080161
 30
0.0
 10
12152.15395909002
 20
-3284.182667720199
 30
0.0
 10
12152.15395909002
 20
-3284.182667720199
 30
0.0
 10
12152.57204733448
 20
-3283.720600735804
 30
0.0
 10
12152.68893702093
 20
-3284.200393161575
 30
0.0
 10
12152.68893702093
 20
-3284.200393161575
 30
0.0
 10
12152.68893702093
 20
-3284.200393161575
 30
0.0
 10
12152.86217307267
 20
-3297.299940823437
 30
0.0
 10
12152.86217307267
 20
-3297.299940823437
 30
0.0
 10
12152.86217307267
 20
-3297.299940823437
 30
0.0
 10
12152.23557648759
 20
-3298.472230971497
 30
0.0
 10
12152.23557648759
 20
-3298.472230971497
 30
0.0
 10
12152.23557648759
 20
-3298.472230971497
 30
0.0
 10
12151.73979991066
 20
-3298.554071611404
 30
0.0
 10
12151.78382329906
 20
-3298.378067354714
 30
0.0
 10
12151.8279359844
 20
-3298.202063098023
 30
0.0
 10
12152.2901369142
 20
-3297.233905740827
 30
0.0
 10
12152.2901369142
 20
-3297.233905740827
 30
0.0
 10
12152.2901369142
 20
-3297.233905740827
 30
0.0
 10
12152.15395909002
 20
-3284.182667720199
 30
0.0
 10
12152.15395909002
 20
-3284.182667720199
 30
0.0
  0
SPLINE
  5
3533F9
330
18
100
AcDbEntity
  8
姿図
100
AcDbSpline
210
0.0
220
0.0
230
1.0
 70
     8
 71
     3
 72
     8
 73
     4
 74
     0
 42
0.000000001
 43
0.0000000001
 40
0.0
 40
0.0
 40
0.0
 40
0.0
 40
1.0
 40
1.0
 40
1.0
 40
1.0
 10
12152.86217307267
 20
-3297.299940823437
 30
0.0
 10
12152.86217307267
 20
-3297.299940823437
 30
0.0
 10
12152.77412629586
 20
-3297.035845141468
 30
0.0
 10
12152.2901369142
 20
-3297.233905740827
 30
0.0
  0
SPLINE
  5
3533FA
330
18
100
AcDbEntity
  8
姿図
100
AcDbSpline
210
0.0
220
0.0
230
1.0
 70
     8
 71
     3
 72
    11
 73
     7
 74
     0
 42
0.000000001
 43
0.0000000001
 40
0.0
 40
0.0
 40
0.0
 40
0.0
 40
1.0
 40
1.0
 40
1.0
 40
2.0
 40
2.0
 40
2.0
 40
2.0
 10
12152.76582168101
 20
-3290.016748950264
 30
0.0
 10
12152.76582168101
 20
-3290.016748950264
 30
0.0
 10
12153.5442230537
 20
-3290.170964755085
 30
0.0
 10
12153.67620392198
 20
-3290.390992400181
 30
0.0
 10
12153.67620392198
 20
-3290.390992400181
 30
0.0
 10
12153.67620392198
 20
-3297.503582481164
 30
0.0
 10
12153.67620392198
 20
-3297.503582481164
 30
0.0
  0
SPLINE
  5
3533FB
330
18
100
AcDbEntity
  8
姿図
100
AcDbSpline
210
0.0
220
0.0
230
1.0
 70
     8
 71
     3
 72
    17
 73
    13
 74
     0
 42
0.000000001
 43
0.0000000001
 40
0.0
 40
0.0
 40
0.0
 40
0.0
 40
1.0
 40
1.0
 40
1.0
 40
2.0
 40
2.0
 40
2.0
 40
3.0
 40
3.0
 40
3.0
 40
4.0
 40
4.0
 40
4.0
 40
4.0
 10
12152.76582168101
 20
-3288.520712768399
 30
0.0
 10
12152.76582168101
 20
-3288.520712768399
 30
0.0
 10
12157.00733674368
 20
-3285.431172801332
 30
0.0
 10
12157.00733674368
 20
-3285.431172801332
 30
0.0
 10
12157.00733674368
 20
-3285.431172801332
 30
0.0
 10
12157.58749892314
 20
-3285.002234979408
 30
0.0
 10
12157.63973762946
 20
-3285.75121301238
 30
0.0
 10
12157.63973762946
 20
-3285.75121301238
 30
0.0
 10
12157.94477595562
 20
-3297.299940823437
 30
0.0
 10
12157.94477595562
 20
-3297.299940823437
 30
0.0
 10
12157.94477595562
 20
-3297.299940823437
 30
0.0
 10
12157.72278377798
 20
-3298.901838520424
 30
0.0
 10
12157.72278377798
 20
-3298.901838520424
 30
0.0
  0
SPLINE
  5
3533FC
330
18
100
AcDbEntity
  8
姿図
100
AcDbSpline
210
0.0
220
0.0
230
1.0
 70
     8
 71
     3
 72
    17
 73
    13
 74
     0
 42
0.000000001
 43
0.0000000001
 40
0.0
 40
0.0
 40
0.0
 40
0.0
 40
1.0
 40
1.0
 40
1.0
 40
2.0
 40
2.0
 40
2.0
 40
3.0
 40
3.0
 40
3.0
 40
4.0
 40
4.0
 40
4.0
 40
4.0
 10
12155.2297026808
 20
-3297.879701166695
 30
0.0
 10
12155.2297026808
 20
-3297.879701166695
 30
0.0
 10
12156.0305175839
 20
-3297.706956248091
 30
0.0
 10
12156.0305175839
 20
-3297.706956248091
 30
0.0
 10
12156.0305175839
 20
-3297.706956248091
 30
0.0
 10
12156.53656330823
 20
-3299.170175806753
 30
0.0
 10
12156.53656330823
 20
-3299.170175806753
 30
0.0
 10
12156.53656330823
 20
-3299.170175806753
 30
0.0
 10
12156.80061434173
 20
-3299.412215146052
 30
0.0
 10
12157.02064198683
 20
-3299.324213017707
 30
0.0
 10
12157.24075892886
 20
-3299.236166240894
 30
0.0
 10
12157.70001305984
 20
-3299.064626830899
 30
0.0
 10
12157.72260518411
 20
-3298.901838520424
 30
0.0
  0
SPLINE
  5
3533FD
330
18
100
AcDbEntity
  8
姿図
100
AcDbSpline
210
0.0
220
0.0
230
1.0
 70
     8
 71
     3
 72
    11
 73
     7
 74
     0
 42
0.000000001
 43
0.0000000001
 40
0.0
 40
0.0
 40
0.0
 40
0.0
 40
1.0
 40
1.0
 40
1.0
 40
2.0
 40
2.0
 40
2.0
 40
2.0
 10
12157.72278377798
 20
-3298.901838520424
 30
0.0
 10
12157.72278377798
 20
-3298.901838520424
 30
0.0
 10
12157.67456343368
 20
-3298.576083305607
 30
0.0
 10
12157.2155771935
 20
-3298.79615559917
 30
0.0
 10
12156.75659095332
 20
-3299.016183244266
 30
0.0
 10
12156.44735567128
 20
-3299.135662541806
 30
0.0
 10
12156.60282163317
 20
-3299.222414513076
 30
0.0
  0
SPLINE
  5
3533FE
330
18
100
AcDbEntity
  8
姿図
100
AcDbSpline
210
0.0
220
0.0
230
1.0
 70
     8
 71
     3
 72
    14
 73
    10
 74
     0
 42
0.000000001
 43
0.0000000001
 40
0.0
 40
0.0
 40
0.0
 40
0.0
 40
1.0
 40
1.0
 40
1.0
 40
2.0
 40
2.0
 40
2.0
 40
3.0
 40
3.0
 40
3.0
 40
3.0
 10
12157.10734930963
 20
-3285.371611746429
 30
0.0
 10
12157.10734930963
 20
-3285.371611746429
 30
0.0
 10
12157.23459744042
 20
-3285.572351253805
 30
0.0
 10
12157.2155771935
 20
-3286.2764575775
 30
0.0
 10
12157.19664624352
 20
-3286.980519252727
 30
0.0
 10
12157.37809761318
 20
-3297.153136664128
 30
0.0
 10
12157.37809761318
 20
-3297.153136664128
 30
0.0
 10
12157.37809761318
 20
-3297.153136664128
 30
0.0
 10
12157.37809761318
 20
-3298.73538903566
 30
0.0
 10
12157.37809761318
 20
-3298.73538903566
 30
0.0
  0
SPLINE
  5
3533FF
330
18
100
AcDbEntity
  8
姿図
100
AcDbSpline
210
0.0
220
0.0
230
1.0
 70
     8
 71
     3
 72
    32
 73
    28
 74
     0
 42
0.000000001
 43
0.0000000001
 40
0.0
 40
0.0
 40
0.0
 40
0.0
 40
1.0
 40
1.0
 40
1.0
 40
2.0
 40
2.0
 40
2.0
 40
3.0
 40
3.0
 40
3.0
 40
4.0
 40
4.0
 40
4.0
 40
5.0
 40
5.0
 40
5.0
 40
6.0
 40
6.0
 40
6.0
 40
7.0
 40
7.0
 40
7.0
 40
8.0
 40
8.0
 40
8.0
 40
9.0
 40
9.0
 40
9.0
 40
9.0
 10
12157.71063939497
 20
-3288.432844585454
 30
0.0
 10
12157.71063939497
 20
-3288.432844585454
 30
0.0
 10
12160.66208165378
 20
-3287.430620447981
 30
0.0
 10
12160.66208165378
 20
-3287.430620447981
 30
0.0
 10
12160.66208165378
 20
-3287.430620447981
 30
0.0
 10
12161.09543967393
 20
-3287.236578210646
 30
0.0
 10
12161.14089181328
 20
-3287.909207365145
 30
0.0
 10
12161.14089181328
 20
-3287.909207365145
 30
0.0
 10
12161.7201610234
 20
-3298.73538903566
 30
0.0
 10
12161.7201610234
 20
-3298.73538903566
 30
0.0
 10
12161.7201610234
 20
-3298.73538903566
 30
0.0
 10
12161.39922784301
 20
-3301.062422484272
 30
0.0
 10
12161.39922784301
 20
-3301.062422484272
 30
0.0
 10
12161.39922784301
 20
-3301.062422484272
 30
0.0
 10
12161.37717150034
 20
-3301.260438435165
 30
0.0
 10
12161.0911534211
 20
-3301.348440563509
 30
0.0
 10
12161.0911534211
 20
-3301.348440563509
 30
0.0
 10
12160.62832741277
 20
-3301.466089273905
 30
0.0
 10
12160.62832741277
 20
-3301.466089273905
 30
0.0
 10
12160.62832741277
 20
-3301.466089273905
 30
0.0
 10
12160.38704709741
 20
-3301.458499034525
 30
0.0
 10
12160.2771225718
 20
-3301.282450129368
 30
0.0
 10
12160.2771225718
 20
-3301.282450129368
 30
0.0
 10
12159.59498329384
 20
-3299.760026703539
 30
0.0
 10
12159.59498329384
 20
-3299.760026703539
 30
0.0
 10
12159.59498329384
 20
-3299.760026703539
 30
0.0
 10
12159.1582319902
 20
-3299.870308416889
 30
0.0
 10
12159.1582319902
 20
-3299.870308416889
 30
0.0
  0
SPLINE
  5
353400
330
18
100
AcDbEntity
  8
姿図
100
AcDbSpline
210
0.0
220
0.0
230
1.0
 70
     8
 71
     3
 72
    14
 73
    10
 74
     0
 42
0.000000001
 43
0.0000000001
 40
0.0
 40
0.0
 40
0.0
 40
0.0
 40
1.0
 40
1.0
 40
1.0
 40
2.0
 40
2.0
 40
2.0
 40
3.0
 40
3.0
 40
3.0
 40
3.0
 10
12160.46393175749
 20
-3287.497459202994
 30
0.0
 10
12160.46393175749
 20
-3287.497459202994
 30
0.0
 10
12160.87112577601
 20
-3287.332572414573
 30
0.0
 10
12160.89318211868
 20
-3287.92666491572
 30
0.0
 10
12160.91514916442
 20
-3288.520712768399
 30
0.0
 10
12161.17920019792
 20
-3298.491251218416
 30
0.0
 10
12161.17920019792
 20
-3298.491251218416
 30
0.0
 10
12161.17920019792
 20
-3298.491251218416
 30
0.0
 10
12161.06856129683
 20
-3300.911957150674
 30
0.0
 10
12161.06856129683
 20
-3300.911957150674
 30
0.0
  0
SPLINE
  5
353401
330
18
100
AcDbEntity
  8
姿図
100
AcDbSpline
210
0.0
220
0.0
230
1.0
 70
     8
 71
     3
 72
    26
 73
    22
 74
     0
 42
0.000000001
 43
0.0000000001
 40
0.0
 40
0.0
 40
0.0
 40
0.0
 40
1.0
 40
1.0
 40
1.0
 40
2.0
 40
2.0
 40
2.0
 40
3.0
 40
3.0
 40
3.0
 40
4.0
 40
4.0
 40
4.0
 40
5.0
 40
5.0
 40
5.0
 40
6.0
 40
6.0
 40
6.0
 40
7.0
 40
7.0
 40
7.0
 40
7.0
 10
12161.26430017591
 20
-3290.214988143492
 30
0.0
 10
12161.26430017591
 20
-3290.214988143492
 30
0.0
 10
12162.47739902275
 20
-3290.214988143492
 30
0.0
 10
12162.47739902275
 20
-3290.214988143492
 30
0.0
 10
12162.47739902275
 20
-3290.214988143492
 30
0.0
 10
12162.78279453665
 20
-3290.21677408217
 30
0.0
 10
12162.79976095409
 20
-3290.654463003614
 30
0.0
 10
12162.81681666846
 20
-3291.092151925058
 30
0.0
 10
12163.16953955731
 20
-3301.466089273905
 30
0.0
 10
12163.16953955731
 20
-3301.466089273905
 30
0.0
 10
12163.16953955731
 20
-3301.466089273905
 30
0.0
 10
12162.92638400634
 20
-3303.410931845483
 30
0.0
 10
12162.89995211391
 20
-3303.435934986971
 30
0.0
 10
12162.87352022148
 20
-3303.46093812846
 30
0.0
 10
12162.16405608175
 20
-3303.636808439749
 30
0.0
 10
12162.03466482455
 20
-3303.636808439749
 30
0.0
 10
12161.90536286428
 20
-3303.636808439749
 30
0.0
 10
12161.32002146266
 20
-3302.030579841468
 30
0.0
 10
12161.32002146266
 20
-3302.030579841468
 30
0.0
 10
12161.32002146266
 20
-3302.030579841468
 30
0.0
 10
12161.01373297943
 20
-3302.093176992122
 30
0.0
 10
12161.01373297943
 20
-3302.093176992122
 30
0.0
  0
SPLINE
  5
353402
330
18
100
AcDbEntity
  8
姿図
100
AcDbSpline
210
0.0
220
0.0
230
1.0
 70
     8
 71
     3
 72
    14
 73
    10
 74
     0
 42
0.000000001
 43
0.0000000001
 40
0.0
 40
0.0
 40
0.0
 40
0.0
 40
1.0
 40
1.0
 40
1.0
 40
2.0
 40
2.0
 40
2.0
 40
3.0
 40
3.0
 40
3.0
 40
3.0
 10
12162.89995211391
 20
-3303.435934986971
 30
0.0
 10
12162.89995211391
 20
-3303.435934986971
 30
0.0
 10
12163.06050800103
 20
-3302.954669161792
 30
0.0
 10
12162.5818764354
 20
-3303.064727632806
 30
0.0
 10
12162.10342346364
 20
-3303.174741455354
 30
0.0
 10
12162.10342346364
 20
-3303.174741455354
 30
0.0
 10
12162.10342346364
 20
-3303.174741455354
 30
0.0
 10
12162.10342346364
 20
-3303.174741455354
 30
0.0
 10
12161.70203374582
 20
-3303.35079036051
 30
0.0
 10
12162.03466482455
 20
-3303.636808439749
 30
0.0
  0
POLYLINE
  5
353403
330
18
100
AcDbEntity
  8
姿図
100
AcDb2dPolyline
 66
     1
 10
0.0
 20
0.0
 30
0.0
  0
VERTEX
  5
353404
330
353403
100
AcDbEntity
  8
姿図
100
AcDbVertex
100
AcDb2dVertex
 10
12162.47739902275
 20
-3290.214988143492
 30
0.0
  0
VERTEX
  5
353405
330
353403
100
AcDbEntity
  8
姿図
100
AcDbVertex
100
AcDb2dVertex
 10
12162.97237192729
 20
-3301.466089273905
 30
0.0
  0
VERTEX
  5
353406
330
353403
100
AcDbEntity
  8
姿図
100
AcDbVertex
100
AcDb2dVertex
 10
12162.84557028117
 20
-3303.084149715926
 30
0.0
  0
SEQEND
  5
353407
330
353403
100
AcDbEntity
  8
姿図
  0
SPLINE
  5
353408
330
18
100
AcDbEntity
  8
姿図
100
AcDbSpline
210
0.0
220
0.0
230
1.0
 70
     8
 71
     3
 72
    11
 73
     7
 74
     0
 42
0.000000001
 43
0.0000000001
 40
0.0
 40
0.0
 40
0.0
 40
0.0
 40
1.0
 40
1.0
 40
1.0
 40
2.0
 40
2.0
 40
2.0
 40
2.0
 10
12161.31689606997
 20
-3301.216325749826
 30
0.0
 10
12161.31689606997
 20
-3301.216325749826
 30
0.0
 10
12161.37717150034
 20
-3300.820427793439
 30
0.0
 10
12160.95917255282
 20
-3300.930441615988
 30
0.0
 10
12160.5411736053
 20
-3301.040410790069
 30
0.0
 10
12160.12335325164
 20
-3301.149933479481
 30
0.0
 10
12160.2771225718
 20
-3301.282450129368
 30
0.0
  0
POLYLINE
  5
353409
330
18
100
AcDbEntity
  8
姿図
100
AcDb2dPolyline
 66
     1
 10
0.0
 20
0.0
 30
0.0
  0
VERTEX
  5
35340A
330
353409
100
AcDbEntity
  8
姿図
100
AcDbVertex
100
AcDb2dVertex
 10
12160.8215659777
 20
-3301.762644391342
 30
0.0
  0
VERTEX
  5
35340B
330
353409
100
AcDbEntity
  8
姿図
100
AcDbVertex
100
AcDb2dVertex
 10
12161.17920019792
 20
-3301.678526679621
 30
0.0
  0
VERTEX
  5
35340C
330
353409
100
AcDbEntity
  8
姿図
100
AcDbVertex
100
AcDb2dVertex
 10
12161.32002146266
 20
-3302.030579841468
 30
0.0
  0
SEQEND
  5
35340D
330
353409
100
AcDbEntity
  8
姿図
  0
SPLINE
  5
35340E
330
18
100
AcDbEntity
  8
姿図
100
AcDbSpline
210
0.0
220
0.0
230
1.0
 70
     8
 71
     3
 72
    11
 73
     7
 74
     0
 42
0.000000001
 43
0.0000000001
 40
0.0
 40
0.0
 40
0.0
 40
0.0
 40
1.0
 40
1.0
 40
1.0
 40
2.0
 40
2.0
 40
2.0
 40
2.0
 10
12164.55658883136
 20
-3328.092157887006
 30
0.0
 10
12164.55658883136
 20
-3328.092157887006
 30
0.0
 10
12160.88925305359
 20
-3323.0642047276
 30
0.0
 10
12149.23162763165
 20
-3323.28548252977
 30
0.0
 10
12149.23162763165
 20
-3323.28548252977
 30
0.0
 10
12150.46365742849
 20
-3322.776936491287
 30
0.0
 10
12150.46365742849
 20
-3322.776936491287
 30
0.0
  0
SPLINE
  5
35340F
330
18
100
AcDbEntity
  8
姿図
100
AcDbSpline
210
0.0
220
0.0
230
1.0
 70
     8
 71
     3
 72
    11
 73
     7
 74
     0
 42
0.000000001
 43
0.0000000001
 40
0.0
 40
0.0
 40
0.0
 40
0.0
 40
1.0
 40
1.0
 40
1.0
 40
2.0
 40
2.0
 40
2.0
 40
2.0
 10
12148.0003122103
 20
-3322.867394285314
 30
0.0
 10
12148.0003122103
 20
-3322.867394285314
 30
0.0
 10
12149.23162763165
 20
-3323.28548252977
 30
0.0
 10
12149.23162763165
 20
-3323.28548252977
 30
0.0
 10
12149.23162763165
 20
-3323.28548252977
 30
0.0
 10
12137.84189301138
 20
-3323.323880211341
 30
0.0
 10
12134.41650727597
 20
-3328.046348559922
 30
0.0
  0
SPLINE
  5
353410
330
18
100
AcDbEntity
  8
姿図
100
AcDbSpline
210
0.0
220
0.0
230
1.0
 70
     8
 71
     3
 72
    11
 73
     7
 74
     0
 42
0.000000001
 43
0.0000000001
 40
1.001401759486589
 40
1.001401759486589
 40
1.001401759486589
 40
1.001401759486589
 40
2.0
 40
2.0
 40
2.0
 40
2.325448533580545
 40
2.325448533580545
 40
2.325448533580545
 40
2.325448533580545
 10
12149.2707516543
 20
-3331.482234433132
 30
0.0
 10
12142.32585231956
 20
-3331.698205032802
 30
0.0
 10
12137.53522145189
 20
-3333.228925174638
 30
0.0
 10
12136.76917148124
 20
-3334.840374058688
 30
0.0
 10
12136.76917148124
 20
-3334.840374058688
 30
0.0
 10
12136.52689848328
 20
-3335.229432625667
 30
0.0
 10
12136.3548630579
 20
-3336.531948753174
 30
0.0
  0
SPLINE
  5
353411
330
18
100
AcDbEntity
  8
姿図
100
AcDbSpline
210
0.0
220
0.0
230
1.0
 70
     8
 71
     3
 72
    11
 73
     7
 74
     0
 42
0.000000001
 43
0.0000000001
 40
1.001401759486589
 40
1.001401759486589
 40
1.001401759486589
 40
1.001401759486589
 40
2.0
 40
2.0
 40
2.0
 40
2.325448533580545
 40
2.325448533580545
 40
2.325448533580545
 40
2.325448533580545
 10
12149.2707516543
 20
-3331.482234433132
 30
0.0
 10
12156.2178141548
 20
-3331.611047024653
 30
0.0
 10
12161.02727457574
 20
-3333.081536304594
 30
0.0
 10
12161.81348386829
 20
-3334.68324633195
 30
0.0
 10
12161.81348386829
 20
-3334.68324633195
 30
0.0
 10
12162.06061949961
 20
-3335.06923435484
 30
0.0
 10
12162.47152519287
 20
-3336.482646744028
 30
0.0
  0
ENDSEC
  0
SECTION
  2
OBJECTS
  0
DICTIONARY
  5
C
330
0
100
AcDbDictionary
281
     1
  3
ACAD_GROUP
350
D
  3
ACAD_IMAGE_VARS
350
2F1759
  3
ACAD_LAYOUT
350
353
  3
ACAD_MLINESTYLE
350
E
  3
ACAD_PLOTSETTINGS
350
354
  3
ACAD_PLOTSTYLENAME
350
351
  3
ACAD_SCALELIST
350
CD53
  3
AcadDim
350
5182D
  3
AcDbVariableDictionary
350
E0D
  3
APPDATA
350
2F1758
  3
DWGPROPS
350
3534CC
  0
DICTIONARY
  5
559E
330
2
100
AcDbDictionary
280
     1
281
     1
  3
ACAD_LAYERFILTERS
360
29A509
  3
ACAD_LAYERSTATES
360
559F
  3
ACLYDICTIONARY
360
29A508
  0
DICTIONARY
  5
CD7F
330
F
100
AcDbDictionary
280
     1
281
     1
  3
ADSK_XREC_LAYER_RECONCILED
360
CD80
  0
DICTIONARY
  5
CD85
330
34
100
AcDbDictionary
280
     1
281
     1
  3
ADSK_XREC_LAYER_RECONCILED
360
CD86
  0
DICTIONARY
  5
CD8D
330
2F4
100
AcDbDictionary
280
     1
281
     1
  3
ADSK_XREC_LAYER_RECONCILED
360
CD8E
  0
DICTIONARY
  5
D25F
330
18
100
AcDbDictionary
280
     1
281
     1
  3
ACAD_SORTENTS
360
D260
  0
DICTIONARY
  5
D
102
{ACAD_REACTORS
330
C
102
}
330
C
100
AcDbDictionary
281
     1
  0
RASTERVARIABLES
  5
2F1759
102
{ACAD_REACTORS
330
C
102
}
330
C
100
AcDbRasterVariables
 90
        0
 70
     1
 71
     1
 72
     0
  0
DICTIONARY
  5
353
102
{ACAD_REACTORS
330
C
102
}
330
C
100
AcDbDictionary
281
     1
  3
Model
350
355
  3
ﾚｲｱｳﾄ1
350
356
  0
DICTIONARY
  5
E
102
{ACAD_REACTORS
330
C
102
}
330
C
100
AcDbDictionary
281
     1
  3
STANDARD
350
1B
  0
DICTIONARY
  5
354
102
{ACAD_REACTORS
330
C
102
}
330
C
100
AcDbDictionary
281
     1
  0
ACDBDICTIONARYWDFLT
  5
351
102
{ACAD_REACTORS
330
C
102
}
330
C
100
AcDbDictionary
281
     1
  3
Normal
350
352
100
AcDbDictionaryWithDefault
340
352
  0
DICTIONARY
  5
CD53
102
{ACAD_REACTORS
330
C
102
}
330
C
100
AcDbDictionary
281
     1
  3
A0
350
CD54
  3
A1
350
35DF8
  3
A2
350
35DF9
  3
A3
350
35DFA
  3
A4
350
35DFB
  3
A5
350
35DFC
  3
A6
350
35DFD
  3
A7
350
35DFE
  3
A8
350
35DFF
  3
A9
350
35E00
  3
B0
350
35E01
  3
B1
350
35E02
  3
B2
350
35E03
  3
B3
350
35E04
  3
B4
350
35E05
  3
B5
350
35E06
  3
B6
350
35E07
  3
B7
350
35E08
  3
B8
350
35E09
  3
B9
350
35E0A
  3
C0
350
35E0B
  3
C1
350
35E0C
  3
C2
350
35E0D
  3
C3
350
35E0E
  3
C4
350
35E0F
  3
C5
350
35E10
  3
C6
350
35E11
  3
C7
350
35E12
  3
C8
350
35E13
  3
C9
350
35E14
  3
D0
350
35E15
  3
D1
350
35E16
  3
D2
350
35E17
  0
XRECORD
  5
5182D
102
{ACAD_REACTORS
330
C
102
}
330
C
100
AcDbXrecord
280
     1
 90
   990106
  3
OPEN30
 60
     0
 61
     0
 62
     4
 63
     4
 64
     1
 65
     0
 66
     0
 67
     3
 68
     1
 69
     0
 70
     0
 71
     0
 72
     0
 40
0.0
170
     0
340
0
  0
DICTIONARY
  5
E0D
102
{ACAD_REACTORS
330
C
102
}
330
C
100
AcDbDictionary
281
     1
  3
DIMASSOC
350
E0E
  3
INDEXCTL
350
D04A
  3
PROJECTNAME
350
E0F
  3
SORTENTS
350
D049
  0
DICTIONARY
  5
2F1758
102
{ACAD_REACTORS
330
C
102
}
330
C
100
AcDbDictionary
281
     1
  0
XRECORD
  5
3534CC
102
{ACAD_REACTORS
330
C
102
}
330
C
100
AcDbXrecord
280
     1
  1
DWGPROPS COOKIE
  2

  3

  4

  6

  7

  8
SPAX
  9

300
=
301
=
302
=
303
=
304
=
305
=
306
=
307
=
308
=
309
=
 40
0.0
 41
2448636.244629629
 42
2456821.203702014
  1

 90
        0
  0
DICTIONARY
  5
29A509
102
{ACAD_REACTORS
330
559E
102
}
330
559E
100
AcDbDictionary
281
     1
  0
DICTIONARY
  5
559F
102
{ACAD_REACTORS
330
559E
102
}
330
559E
100
AcDbDictionary
281
     1
  0
DICTIONARY
  5
29A508
102
{ACAD_REACTORS
330
559E
102
}
330
559E
100
AcDbDictionary
281
     1
1001
ACAD
1000
<All
  0
XRECORD
  5
CD80
102
{ACAD_REACTORS
330
CD7F
102
}
330
CD7F
100
AcDbXrecord
280
     1
290
     1
  0
XRECORD
  5
CD86
102
{ACAD_REACTORS
330
CD85
102
}
330
CD85
100
AcDbXrecord
280
     1
290
     1
  0
XRECORD
  5
CD8E
102
{ACAD_REACTORS
330
CD8D
102
}
330
CD8D
100
AcDbXrecord
280
     1
290
     1
  0
SORTENTSTABLE
  5
D260
102
{ACAD_REACTORS
330
D25F
102
}
330
D25F
100
AcDbSortentsTable
330
18
331
0
  5
31EA49
331
8182F
  5
2FEC53
331
3073B9
  5
307455
  0
LAYOUT
  5
355
102
{ACAD_REACTORS
330
353
102
}
330
353
100
AcDbPlotSettings
  1

  2
JUST PDF 2
  4
A4
  6

 40
3.174999952316284
 41
3.174999952316284
 42
3.175003051757812
 43
3.17498779296875
 44
209.8886566162109
 45
297.0530090332031
 46
14.27171755861491
 47
9.855173074625782
 48
12098.87369101991
 49
-3775.814013617565
140
12448.86412800973
141
-3233.828663340232
142
1.0
143
2.0
 70
  3748
 72
     1
 73
     0
 74
     4
  7
spax form.ctb
 75
     0
147
0.547045008312821
148
-12098.87369101991
149
3775.814013617565
100
AcDbLayout
  1
Model
 70
     1
 71
     0
 10
0.0
 20
0.0
 11
12.0
 21
9.0
 12
0.0
 22
0.0
 32
0.0
 14
12102.96215372968
 24
-3371.742910766036
 34
0.0
 15
12178.79548706301
 25
-3283.982029925431
 35
0.0
146
0.0
 13
0.0
 23
0.0
 33
0.0
 16
1.0
 26
0.0
 36
0.0
 17
0.0
 27
1.0
 37
0.0
 76
     0
330
18
331
3523F0
1001
ACAD_PSEXT
1000
JUST PDF 2
1000
JUST PDF 2
1000
JUST PDF 2 Port:
1000

1070
     0
  0
LAYOUT
  5
356
102
{ACAD_REACTORS
330
353
102
}
330
353
100
AcDbPlotSettings
  1

  2
Canon LASER SHOT LBP-750
  4

  6

 40
0.0
 41
0.0
 42
0.0
 43
0.0
 44
0.0
 45
0.0
 46
0.0
 47
0.0
 48
0.0
 49
0.0
140
0.0
141
0.0
142
1.0
143
1.0
 70
   688
 72
     0
 73
     0
 74
     5
  7
spax form.ctb
 75
    16
147
1.0
148
0.0
149
0.0
100
AcDbLayout
  1
ﾚｲｱｳﾄ1
 70
     0
 71
     1
 10
0.0
 20
0.0
 11
12.0
 21
9.0
 12
0.0
 22
0.0
 32
0.0
 14
1.000000000000000E+20
 24
1.000000000000000E+20
 34
1.000000000000000E+20
 15
-1.000000000000000E+20
 25
-1.000000000000000E+20
 35
-1.000000000000000E+20
146
0.0
 13
0.0
 23
0.0
 33
0.0
 16
1.0
 26
0.0
 36
0.0
 17
0.0
 27
1.0
 37
0.0
 76
     0
330
15
  0
MLINESTYLE
  5
1B
102
{ACAD_REACTORS
330
E
102
}
330
E
100
AcDbMlineStyle
  2
STANDARD
 70
     0
  3

 62
     0
 51
90.0
 52
90.0
 71
     2
 49
0.5
 62
   256
  6
BYLAYER
 49
-0.5
 62
   256
  6
BYLAYER
  0
ACDBPLACEHOLDER
  5
352
102
{ACAD_REACTORS
330
351
102
}
330
351
  0
SCALE
  5
CD54
102
{ACAD_REACTORS
330
CD53
102
}
330
CD53
100
AcDbScale
 70
     0
300
1:1
140
1.0
141
1.0
290
     1
1001
ACAD
1000
AcRTDxfName
1000
SCALE
1000
AcRTDxfName
1000
SCALE
  0
SCALE
  5
35DF8
102
{ACAD_REACTORS
330
CD53
102
}
330
CD53
100
AcDbScale
 70
     0
300
1:2
140
1.0
141
2.0
290
     0
1001
ACAD
1000
AcRTDxfName
1000
SCALE
1000
AcRTDxfName
1000
SCALE
  0
SCALE
  5
35DF9
102
{ACAD_REACTORS
330
CD53
102
}
330
CD53
100
AcDbScale
 70
     0
300
1:4
140
1.0
141
4.0
290
     0
1001
ACAD
1000
AcRTDxfName
1000
SCALE
1000
AcRTDxfName
1000
SCALE
  0
SCALE
  5
35DFA
102
{ACAD_REACTORS
330
CD53
102
}
330
CD53
100
AcDbScale
 70
     0
300
1:5
140
1.0
141
5.0
290
     0
1001
ACAD
1000
AcRTDxfName
1000
SCALE
1000
AcRTDxfName
1000
SCALE
  0
SCALE
  5
35DFB
102
{ACAD_REACTORS
330
CD53
102
}
330
CD53
100
AcDbScale
 70
     0
300
1:8
140
1.0
141
8.0
290
     0
1001
ACAD
1000
AcRTDxfName
1000
SCALE
1000
AcRTDxfName
1000
SCALE
  0
SCALE
  5
35DFC
102
{ACAD_REACTORS
330
CD53
102
}
330
CD53
100
AcDbScale
 70
     0
300
1:10
140
1.0
141
10.0
290
     0
1001
ACAD
1000
AcRTDxfName
1000
SCALE
1000
AcRTDxfName
1000
SCALE
  0
SCALE
  5
35DFD
102
{ACAD_REACTORS
330
CD53
102
}
330
CD53
100
AcDbScale
 70
     0
300
1:16
140
1.0
141
16.0
290
     0
1001
ACAD
1000
AcRTDxfName
1000
SCALE
1000
AcRTDxfName
1000
SCALE
  0
SCALE
  5
35DFE
102
{ACAD_REACTORS
330
CD53
102
}
330
CD53
100
AcDbScale
 70
     0
300
1:20
140
1.0
141
20.0
290
     0
1001
ACAD
1000
AcRTDxfName
1000
SCALE
1000
AcRTDxfName
1000
SCALE
  0
SCALE
  5
35DFF
102
{ACAD_REACTORS
330
CD53
102
}
330
CD53
100
AcDbScale
 70
     0
300
1:30
140
1.0
141
30.0
290
     0
1001
ACAD
1000
AcRTDxfName
1000
SCALE
1000
AcRTDxfName
1000
SCALE
  0
SCALE
  5
35E00
102
{ACAD_REACTORS
330
CD53
102
}
330
CD53
100
AcDbScale
 70
     0
300
1:40
140
1.0
141
40.0
290
     0
1001
ACAD
1000
AcRTDxfName
1000
SCALE
1000
AcRTDxfName
1000
SCALE
  0
SCALE
  5
35E01
102
{ACAD_REACTORS
330
CD53
102
}
330
CD53
100
AcDbScale
 70
     0
300
1:50
140
1.0
141
50.0
290
     0
1001
ACAD
1000
AcRTDxfName
1000
SCALE
1000
AcRTDxfName
1000
SCALE
  0
SCALE
  5
35E02
102
{ACAD_REACTORS
330
CD53
102
}
330
CD53
100
AcDbScale
 70
     0
300
1:100
140
1.0
141
100.0
290
     0
1001
ACAD
1000
AcRTDxfName
1000
SCALE
1000
AcRTDxfName
1000
SCALE
  0
SCALE
  5
35E03
102
{ACAD_REACTORS
330
CD53
102
}
330
CD53
100
AcDbScale
 70
     0
300
2:1
140
2.0
141
1.0
290
     0
1001
ACAD
1000
AcRTDxfName
1000
SCALE
1000
AcRTDxfName
1000
SCALE
  0
SCALE
  5
35E04
102
{ACAD_REACTORS
330
CD53
102
}
330
CD53
100
AcDbScale
 70
     0
300
4:1
140
4.0
141
1.0
290
     0
1001
ACAD
1000
AcRTDxfName
1000
SCALE
1000
AcRTDxfName
1000
SCALE
  0
SCALE
  5
35E05
102
{ACAD_REACTORS
330
CD53
102
}
330
CD53
100
AcDbScale
 70
     0
300
8:1
140
8.0
141
1.0
290
     0
1001
ACAD
1000
AcRTDxfName
1000
SCALE
1000
AcRTDxfName
1000
SCALE
  0
SCALE
  5
35E06
102
{ACAD_REACTORS
330
CD53
102
}
330
CD53
100
AcDbScale
 70
     0
300
10:1
140
10.0
141
1.0
290
     0
1001
ACAD
1000
AcRTDxfName
1000
SCALE
1000
AcRTDxfName
1000
SCALE
  0
SCALE
  5
35E07
102
{ACAD_REACTORS
330
CD53
102
}
330
CD53
100
AcDbScale
 70
     0
300
100:1
140
100.0
141
1.0
290
     0
1001
ACAD
1000
AcRTDxfName
1000
SCALE
1000
AcRTDxfName
1000
SCALE
  0
SCALE
  5
35E08
102
{ACAD_REACTORS
330
CD53
102
}
330
CD53
100
AcDbScale
 70
     0
300
1/128" = 1'-0"
140
0.0078125
141
12.0
290
     0
1001
ACAD
1000
AcRTDxfName
1000
SCALE
1000
AcRTDxfName
1000
SCALE
  0
SCALE
  5
35E09
102
{ACAD_REACTORS
330
CD53
102
}
330
CD53
100
AcDbScale
 70
     0
300
1/64" = 1'-0"
140
0.015625
141
12.0
290
     0
1001
ACAD
1000
AcRTDxfName
1000
SCALE
1000
AcRTDxfName
1000
SCALE
  0
SCALE
  5
35E0A
102
{ACAD_REACTORS
330
CD53
102
}
330
CD53
100
AcDbScale
 70
     0
300
1/32" = 1'-0"
140
0.03125
141
12.0
290
     0
1001
ACAD
1000
AcRTDxfName
1000
SCALE
1000
AcRTDxfName
1000
SCALE
  0
SCALE
  5
35E0B
102
{ACAD_REACTORS
330
CD53
102
}
330
CD53
100
AcDbScale
 70
     0
300
1/16" = 1'-0"
140
0.0625
141
12.0
290
     0
1001
ACAD
1000
AcRTDxfName
1000
SCALE
1000
AcRTDxfName
1000
SCALE
  0
SCALE
  5
35E0C
102
{ACAD_REACTORS
330
CD53
102
}
330
CD53
100
AcDbScale
 70
     0
300
3/32" = 1'-0"
140
0.09375
141
12.0
290
     0
1001
ACAD
1000
AcRTDxfName
1000
SCALE
1000
AcRTDxfName
1000
SCALE
  0
SCALE
  5
35E0D
102
{ACAD_REACTORS
330
CD53
102
}
330
CD53
100
AcDbScale
 70
     0
300
1/8" = 1'-0"
140
0.125
141
12.0
290
     0
1001
ACAD
1000
AcRTDxfName
1000
SCALE
1000
AcRTDxfName
1000
SCALE
  0
SCALE
  5
35E0E
102
{ACAD_REACTORS
330
CD53
102
}
330
CD53
100
AcDbScale
 70
     0
300
3/16" = 1'-0"
140
0.1875
141
12.0
290
     0
1001
ACAD
1000
AcRTDxfName
1000
SCALE
1000
AcRTDxfName
1000
SCALE
  0
SCALE
  5
35E0F
102
{ACAD_REACTORS
330
CD53
102
}
330
CD53
100
AcDbScale
 70
     0
300
1/4" = 1'-0"
140
0.25
141
12.0
290
     0
1001
ACAD
1000
AcRTDxfName
1000
SCALE
1000
AcRTDxfName
1000
SCALE
  0
SCALE
  5
35E10
102
{ACAD_REACTORS
330
CD53
102
}
330
CD53
100
AcDbScale
 70
     0
300
3/8" = 1'-0"
140
0.375
141
12.0
290
     0
1001
ACAD
1000
AcRTDxfName
1000
SCALE
1000
AcRTDxfName
1000
SCALE
  0
SCALE
  5
35E11
102
{ACAD_REACTORS
330
CD53
102
}
330
CD53
100
AcDbScale
 70
     0
300
1/2" = 1'-0"
140
0.5
141
12.0
290
     0
1001
ACAD
1000
AcRTDxfName
1000
SCALE
1000
AcRTDxfName
1000
SCALE
  0
SCALE
  5
35E12
102
{ACAD_REACTORS
330
CD53
102
}
330
CD53
100
AcDbScale
 70
     0
300
3/4" = 1'-0"
140
0.75
141
12.0
290
     0
1001
ACAD
1000
AcRTDxfName
1000
SCALE
1000
AcRTDxfName
1000
SCALE
  0
SCALE
  5
35E13
102
{ACAD_REACTORS
330
CD53
102
}
330
CD53
100
AcDbScale
 70
     0
300
1" = 1'-0"
140
1.0
141
12.0
290
     0
1001
ACAD
1000
AcRTDxfName
1000
SCALE
1000
AcRTDxfName
1000
SCALE
  0
SCALE
  5
35E14
102
{ACAD_REACTORS
330
CD53
102
}
330
CD53
100
AcDbScale
 70
     0
300
1-1/2" = 1'-0"
140
1.5
141
12.0
290
     0
1001
ACAD
1000
AcRTDxfName
1000
SCALE
1000
AcRTDxfName
1000
SCALE
  0
SCALE
  5
35E15
102
{ACAD_REACTORS
330
CD53
102
}
330
CD53
100
AcDbScale
 70
     0
300
3" = 1'-0"
140
3.0
141
12.0
290
     0
1001
ACAD
1000
AcRTDxfName
1000
SCALE
1000
AcRTDxfName
1000
SCALE
  0
SCALE
  5
35E16
102
{ACAD_REACTORS
330
CD53
102
}
330
CD53
100
AcDbScale
 70
     0
300
6" = 1'-0"
140
6.0
141
12.0
290
     0
1001
ACAD
1000
AcRTDxfName
1000
SCALE
1000
AcRTDxfName
1000
SCALE
  0
SCALE
  5
35E17
102
{ACAD_REACTORS
330
CD53
102
}
330
CD53
100
AcDbScale
 70
     0
300
1'-0" = 1'-0"
140
12.0
141
12.0
290
     0
1001
ACAD
1000
AcRTDxfName
1000
SCALE
1000
AcRTDxfName
1000
SCALE
  0
DICTIONARYVAR
  5
E0E
102
{ACAD_REACTORS
330
E0D
102
}
330
E0D
100
DictionaryVariables
280
     0
  1
1
  0
DICTIONARYVAR
  5
D04A
102
{ACAD_REACTORS
330
E0D
102
}
330
E0D
100
DictionaryVariables
280
     0
  1
0
  0
DICTIONARYVAR
  5
E0F
102
{ACAD_REACTORS
330
E0D
102
}
330
E0D
100
DictionaryVariables
280
     0
  1

  0
DICTIONARYVAR
  5
D049
102
{ACAD_REACTORS
330
E0D
102
}
330
E0D
100
DictionaryVariables
280
     0
  1
127
  0
ENDSEC
  0
EOF
