  0
SECTION
  2
HEADER
  9
$ACADVER
  1
AC1015
  9
$ACADMAINTVER
 70
     6
  9
$DWGCODEPAGE
  3
ANSI_932
  9
$INSBASE
 10
0.0
 20
0.0
 30
0.0
  9
$EXTMIN
 10
13547.25949819992
 20
-4332.393744351092
 30
0.0
  9
$EXTMAX
 10
13643.44593082213
 20
-4195.827028172563
 30
0.0
  9
$LIMMIN
 10
0.0
 20
0.0
  9
$LIMMAX
 10
420.0
 20
297.0
  9
$ORTHOMODE
 70
     1
  9
$REGENMODE
 70
     1
  9
$FILLMODE
 70
     1
  9
$QTEXTMODE
 70
     0
  9
$MIRRTEXT
 70
     1
  9
$LTSCALE
 40
5.0
  9
$ATTMODE
 70
     0
  9
$TEXTSIZE
 40
3.5
  9
$TRACEWID
 40
1.0
  9
$TEXTSTYLE
  7
STANDARD
  9
$CLAYER
  8
寸法線
  9
$CELTYPE
  6
BYLAYER
  9
$CECOLOR
 62
   256
  9
$CELTSCALE
 40
1.0
  9
$DISPSILH
 70
     0
  9
$DIMSCALE
 40
1.0
  9
$DIMASZ
 40
2.5
  9
$DIMEXO
 40
1.5
  9
$DIMDLI
 40
7.0
  9
$DIMRND
 40
0.0
  9
$DIMDLE
 40
0.0
  9
$DIMEXE
 40
1.0
  9
$DIMTP
 40
0.0
  9
$DIMTM
 40
0.0
  9
$DIMTXT
 40
3.0
  9
$DIMCEN
 40
0.0
  9
$DIMTSZ
 40
0.0
  9
$DIMTOL
 70
     0
  9
$DIMLIM
 70
     0
  9
$DIMTIH
 70
     0
  9
$DIMTOH
 70
     0
  9
$DIMSE1
 70
     0
  9
$DIMSE2
 70
     0
  9
$DIMTAD
 70
     3
  9
$DIMZIN
 70
     9
  9
$DIMBLK
  1
OPEN30
  9
$DIMASO
 70
     1
  9
$DIMSHO
 70
     0
  9
$DIMPOST
  1

  9
$DIMAPOST
  1

  9
$DIMALT
 70
     0
  9
$DIMALTD
 70
     0
  9
$DIMALTF
 40
25.4
  9
$DIMLFAC
 40
1.0
  9
$DIMTOFL
 70
     1
  9
$DIMTVP
 40
0.0
  9
$DIMTIX
 70
     0
  9
$DIMSOXD
 70
     0
  9
$DIMSAH
 70
     0
  9
$DIMBLK1
  1

  9
$DIMBLK2
  1

  9
$DIMSTYLE
  2
STANDARD
  9
$DIMCLRD
 70
     8
  9
$DIMCLRE
 70
     8
  9
$DIMCLRT
 70
   256
  9
$DIMTFAC
 40
0.6
  9
$DIMGAP
 40
1.0
  9
$DIMJUST
 70
     0
  9
$DIMSD1
 70
     0
  9
$DIMSD2
 70
     0
  9
$DIMTOLJ
 70
     1
  9
$DIMTZIN
 70
     9
  9
$DIMALTZ
 70
     9
  9
$DIMALTTZ
 70
     9
  9
$DIMUPT
 70
     0
  9
$DIMDEC
 70
     3
  9
$DIMTDEC
 70
     3
  9
$DIMALTU
 70
     2
  9
$DIMALTTD
 70
     0
  9
$DIMTXSTY
  7
STANDARD
  9
$DIMAUNIT
 70
     0
  9
$DIMADEC
 70
     3
  9
$DIMALTRND
 40
0.0
  9
$DIMAZIN
 70
     2
  9
$DIMDSEP
 70
    46
  9
$DIMATFIT
 70
     0
  9
$DIMFRAC
 70
     0
  9
$DIMLDRBLK
  1
OPEN30
  9
$DIMLUNIT
 70
     2
  9
$DIMLWD
 70
    -2
  9
$DIMLWE
 70
    -2
  9
$DIMTMOVE
 70
     0
  9
$LUNITS
 70
     2
  9
$LUPREC
 70
     2
  9
$SKETCHINC
 40
0.1
  9
$FILLETRAD
 40
1.0
  9
$AUNITS
 70
     0
  9
$AUPREC
 70
     1
  9
$MENU
  1
FM
  9
$ELEVATION
 40
0.0
  9
$PELEVATION
 40
0.0
  9
$THICKNESS
 40
0.0
  9
$LIMCHECK
 70
     0
  9
$CHAMFERA
 40
0.0
  9
$CHAMFERB
 40
0.0
  9
$CHAMFERC
 40
0.0
  9
$CHAMFERD
 40
0.0
  9
$SKPOLY
 70
     0
  9
$TDCREATE
 40
2448636.619629629
  9
$TDUCREATE
 40
2448636.244629629
  9
$TDUPDATE
 40
2456825.763177176
  9
$TDUUPDATE
 40
2456825.388177176
  9
$TDINDWG
 40
100.6392803819
  9
$TDUSRTIMER
 40
2456825.387851655
  9
$USRTIMER
 70
     1
  9
$ANGBASE
 50
0.0
  9
$ANGDIR
 70
     0
  9
$PDMODE
 70
     3
  9
$PDSIZE
 40
0.0
  9
$PLINEWID
 40
0.0
  9
$SPLFRAME
 70
     0
  9
$SPLINETYPE
 70
     6
  9
$SPLINESEGS
 70
     8
  9
$HANDSEED
  5
357692
  9
$SURFTAB1
 70
     6
  9
$SURFTAB2
 70
     6
  9
$SURFTYPE
 70
     6
  9
$SURFU
 70
     6
  9
$SURFV
 70
     6
  9
$UCSBASE
  2

  9
$UCSNAME
  2

  9
$UCSORG
 10
0.0
 20
0.0
 30
0.0
  9
$UCSXDIR
 10
1.0
 20
0.0
 30
0.0
  9
$UCSYDIR
 10
0.0
 20
1.0
 30
0.0
  9
$UCSORTHOREF
  2

  9
$UCSORTHOVIEW
 70
     0
  9
$UCSORGTOP
 10
0.0
 20
0.0
 30
0.0
  9
$UCSORGBOTTOM
 10
0.0
 20
0.0
 30
0.0
  9
$UCSORGLEFT
 10
0.0
 20
0.0
 30
0.0
  9
$UCSORGRIGHT
 10
0.0
 20
0.0
 30
0.0
  9
$UCSORGFRONT
 10
0.0
 20
0.0
 30
0.0
  9
$UCSORGBACK
 10
0.0
 20
0.0
 30
0.0
  9
$PUCSBASE
  2

  9
$PUCSNAME
  2

  9
$PUCSORG
 10
0.0
 20
0.0
 30
0.0
  9
$PUCSXDIR
 10
1.0
 20
0.0
 30
0.0
  9
$PUCSYDIR
 10
0.0
 20
1.0
 30
0.0
  9
$PUCSORTHOREF
  2

  9
$PUCSORTHOVIEW
 70
     0
  9
$PUCSORGTOP
 10
0.0
 20
0.0
 30
0.0
  9
$PUCSORGBOTTOM
 10
0.0
 20
0.0
 30
0.0
  9
$PUCSORGLEFT
 10
0.0
 20
0.0
 30
0.0
  9
$PUCSORGRIGHT
 10
0.0
 20
0.0
 30
0.0
  9
$PUCSORGFRONT
 10
0.0
 20
0.0
 30
0.0
  9
$PUCSORGBACK
 10
0.0
 20
0.0
 30
0.0
  9
$USERI1
 70
     0
  9
$USERI2
 70
     0
  9
$USERI3
 70
     0
  9
$USERI4
 70
     0
  9
$USERI5
 70
     0
  9
$USERR1
 40
0.0
  9
$USERR2
 40
0.0
  9
$USERR3
 40
0.0
  9
$USERR4
 40
0.0
  9
$USERR5
 40
0.0
  9
$WORLDVIEW
 70
     0
  9
$SHADEDGE
 70
     3
  9
$SHADEDIF
 70
    70
  9
$TILEMODE
 70
     1
  9
$MAXACTVP
 70
    16
  9
$PINSBASE
 10
0.0
 20
0.0
 30
0.0
  9
$PLIMCHECK
 70
     0
  9
$PEXTMIN
 10
1.000000000000000E+20
 20
1.000000000000000E+20
 30
1.000000000000000E+20
  9
$PEXTMAX
 10
-1.000000000000000E+20
 20
-1.000000000000000E+20
 30
-1.000000000000000E+20
  9
$PLIMMIN
 10
0.0
 20
0.0
  9
$PLIMMAX
 10
0.0
 20
0.0
  9
$UNITMODE
 70
     0
  9
$VISRETAIN
 70
     0
  9
$PLINEGEN
 70
     0
  9
$PSLTSCALE
 70
     0
  9
$TREEDEPTH
 70
  3020
  9
$CMLSTYLE
  2
STANDARD
  9
$CMLJUST
 70
     0
  9
$CMLSCALE
 40
1.0
  9
$PROXYGRAPHICS
 70
     1
  9
$MEASUREMENT
 70
     0
  9
$CELWEIGHT
370
    -1
  9
$ENDCAPS
280
     0
  9
$JOINSTYLE
280
     0
  9
$LWDISPLAY
290
     1
  9
$INSUNITS
 70
     0
  9
$HYPERLINKBASE
  1

  9
$STYLESHEET
  1
spax form.ctb
  9
$XEDIT
290
     1
  9
$CEPSNTYPE
380
     0
  9
$PSTYLEMODE
290
     1
  9
$FINGERPRINTGUID
  2
{E5B35D22-A717-11D3-9160-00E0294F7E09}
  9
$VERSIONGUID
  2
{2CDC1470-AE54-4006-ACCD-3F779CE870C4}
  9
$EXTNAMES
290
     1
  9
$PSVPSCALE
 40
0.0
  9
$OLESTARTUP
290
     0
  0
ENDSEC
  0
SECTION
  2
CLASSES
  0
CLASS
  1
LWPOLYLINE
  2
AcDbPolyline
  3
ObjectDBX Classes
 90
        0
280
     0
281
     1
  0
CLASS
  1
ACDBDICTIONARYWDFLT
  2
AcDbDictionaryWithDefault
  3
ObjectDBX Classes
 90
        0
280
     0
281
     0
  0
CLASS
  1
ACDBPLACEHOLDER
  2
AcDbPlaceHolder
  3
ObjectDBX Classes
 90
        0
280
     0
281
     0
  0
CLASS
  1
LAYOUT
  2
AcDbLayout
  3
ObjectDBX Classes
 90
        0
280
     0
281
     0
  0
CLASS
  1
DICTIONARYVAR
  2
AcDbDictionaryVar
  3
ObjectDBX Classes
 90
        0
280
     0
281
     0
  0
CLASS
  1
MATERIAL
  2
AcDbMaterial
  3
ObjectDBX Classes
 90
     1153
280
     0
281
     0
  0
CLASS
  1
SORTENTSTABLE
  2
AcDbSortentsTable
  3
ObjectDBX Classes
 90
        0
280
     0
281
     0
  0
CLASS
  1
VISUALSTYLE
  2
AcDbVisualStyle
  3
ObjectDBX Classes
 90
     4095
280
     0
281
     0
  0
CLASS
  1
TABLESTYLE
  2
AcDbTableStyle
  3
ObjectDBX Classes
 90
     4095
280
     0
281
     0
  0
CLASS
  1
SCALE
  2
AcDbScale
  3
ObjectDBX Classes
 90
     1153
280
     0
281
     0
  0
CLASS
  1
MLEADERSTYLE
  2
AcDbMLeaderStyle
  3
ACDB_MLEADERSTYLE_CLASS
 90
     4095
280
     0
281
     0
  0
CLASS
  1
CELLSTYLEMAP
  2
AcDbCellStyleMap
  3
ObjectDBX Classes
 90
     1152
280
     0
281
     0
  0
CLASS
  1
MULTILEADER
  2
AcDbMLeader
  3
ACDB_MLEADER_CLASS
 90
     1025
280
     0
281
     1
  0
CLASS
  1
DIMASSOC
  2
AcDbDimAssoc
  3
"AcDbDimAssoc|Product Desc:     AcDim ARX App For Dimension|Company:          Autodesk, Inc.|WEB Address:      www.autodesk.com"
 90
        0
280
     0
281
     0
  0
CLASS
  1
LARGE_RADIAL_DIMENSION
  2
AcDbRadialDimensionLarge
  3
ObjectDBX Classes
 90
     1025
280
     0
281
     1
  0
CLASS
  1
RASTERVARIABLES
  2
AcDbRasterVariables
  3
ISM
 90
        0
280
     0
281
     0
  0
CLASS
  1
AEC_VARS_DWG_SETUP
  2
AecDbVarsDwgSetup
  3
AecBase60
 90
      129
280
     0
281
     0
  0
CLASS
  1
AEC_DISP_REP_2D_SECTION
  2
AecDbDispRep2dSection
  3
AecBase60
 90
      129
280
     0
281
     0
  0
CLASS
  1
AEC_DISP_PROPS_2D_SECTION
  2
AecDbDispProps2dSection
  3
AecBase60
 90
      129
280
     0
281
     0
  0
CLASS
  1
AEC_DISP_REP_CLIP_VOLUME_MODEL
  2
AecDbDispRepClipVolModel
  3
AecBase60
 90
      129
280
     0
281
     0
  0
CLASS
  1
AEC_DISP_PROPS_CLIP_VOLUME
  2
AecDbDispPropsClipVol
  3
AecBase60
 90
      129
280
     0
281
     0
  0
CLASS
  1
AEC_DISP_REP_CLIP_VOLUME_PLAN
  2
AecDbDispRepClipVolPlan
  3
AecBase60
 90
      129
280
     0
281
     0
  0
CLASS
  1
AEC_DISP_REP_CLIP_VOLUME_RESULT
  2
AecDbDispRepClipVolResult
  3
AecBase60
 90
      129
280
     0
281
     0
  0
CLASS
  1
AEC_DISP_REP_CLIP_VOLUME_RESULT_SUBDIV
  2
AecDbDispRepClipVolResSubDiv
  3
AecBase60
 90
      129
280
     0
281
     0
  0
CLASS
  1
AEC_DISP_PROPS_CLIP_VOLUME_RESULT
  2
AecDbDispPropsClipVolResSubDiv
  3
AecBase60
 90
      129
280
     0
281
     0
  0
CLASS
  1
AEC_DISP_REP_DISPLAYTHEME
  2
AecDbDispRepDisplayTheme
  3
AecBase60
 90
      129
280
     0
281
     0
  0
CLASS
  1
AEC_DISP_PROPS_DISPLAYTHEME
  2
AecDbDispPropsDisplayTheme
  3
AecBase60
 90
      129
280
     0
281
     0
  0
CLASS
  1
AEC_DISP_REP_ENT_REF
  2
AecDbDispRepEntRef
  3
AecBase60
 90
      129
280
     0
281
     0
  0
CLASS
  1
AEC_DISP_PROPS_ENT_REF
  2
AecDbDispPropsEntRef
  3
AecBase60
 90
      129
280
     0
281
     0
  0
CLASS
  1
AEC_DISP_REP_LAYOUT_CURVE
  2
AecDbDispRepLayoutCurve
  3
AecBase60
 90
      129
280
     0
281
     0
  0
CLASS
  1
AEC_DISP_PROPS_LAYOUT_CURVE
  2
AecDbDispPropsLayoutCurve
  3
AecBase60
 90
      129
280
     0
281
     0
  0
CLASS
  1
AEC_DISP_REP_LAYOUT_GRID2D
  2
AecDbDispRepLayoutGrid2d
  3
AecBase60
 90
      129
280
     0
281
     0
  0
CLASS
  1
AEC_DISP_PROPS_LAYOUT_GRID2D
  2
AecDbDispPropsLayoutGrid2d
  3
AecBase60
 90
      129
280
     0
281
     0
  0
CLASS
  1
AEC_DISP_REP_LAYOUT_GRID3D
  2
AecDbDispRepLayoutGrid3d
  3
AecBase60
 90
      129
280
     0
281
     0
  0
CLASS
  1
AEC_DISP_PROPS_LAYOUT_GRID3D
  2
AecDbDispPropsLayoutGrid3d
  3
AecBase60
 90
      129
280
     0
281
     0
  0
CLASS
  1
AEC_DISP_REP_MASKBLOCK_REF
  2
AecDbDispRepMaskBlockRef
  3
AecBase60
 90
      129
280
     0
281
     0
  0
CLASS
  1
AEC_DISP_PROPS_MASKBLOCK
  2
AecDbDispPropsMaskBlock
  3
AecBase60
 90
      129
280
     0
281
     0
  0
CLASS
  1
AEC_DISP_REP_MASKBLOCK_REF_RCP
  2
AecDbDispRepMaskBlockRefRcp
  3
AecArchBase60
 90
      129
280
     0
281
     0
  0
CLASS
  1
AEC_DISP_REP_MASS_ELEM_MODEL
  2
AecDbDispRepMassElemModel
  3
AecBase60
 90
      129
280
     0
281
     0
  0
CLASS
  1
AEC_DISP_PROPS_MASS_ELEM_MODEL
  2
AecDbDispPropsMassElem
  3
AecBase60
 90
      129
280
     0
281
     0
  0
CLASS
  1
AEC_DISP_REP_MASS_ELEM_SCHEM
  2
AecDbDispRepMassElemSchem
  3
AecBase60
 90
      129
280
     0
281
     0
  0
CLASS
  1
AEC_DISPREPAECDBDISPREPMASSELEMPLAN50
  2
AecDbDispRepMassElemPlan50
  3
AecArchDACHBase60
 90
      129
280
     0
281
     0
  0
CLASS
  1
AEC_DISPROPSMASSELEMPLANCOMMON
  2
AecDbDispPropsMassElemPlanCommon
  3
AecArchDACHBase60
 90
      129
280
     0
281
     0
  0
CLASS
  1
AEC_DISPREPAECDBDISPREPMASSELEMPLAN100
  2
AecDbDispRepMassElemPlan100
  3
AecArchDACHBase60
 90
      129
280
     0
281
     0
  0
CLASS
  1
AEC_DISP_REP_MASS_ELEM_RCP
  2
AecDbDispRepMassElemRcp
  3
AecArchBase60
 90
      129
280
     0
281
     0
  0
CLASS
  1
AEC_DISP_REP_MASS_GROUP_MODEL
  2
AecDbDispRepMassGroupModel
  3
AecBase60
 90
      129
280
     0
281
     0
  0
CLASS
  1
AEC_DISP_PROPS_MASS_GROUP
  2
AecDbDispPropsMassGroup
  3
AecBase60
 90
      129
280
     0
281
     0
  0
CLASS
  1
AEC_DISP_REP_MASS_GROUP_PLAN
  2
AecDbDispRepMassGroupPlan
  3
AecBase60
 90
      129
280
     0
281
     0
  0
CLASS
  1
AEC_DISPREPAECDBDISPREPMASSGROUPPLAN50
  2
AecDbDispRepMassGroupPlan50
  3
AecArchDACHBase60
 90
      129
280
     0
281
     0
  0
CLASS
  1
AEC_DISPROPSMASSGROUPPLANCOMMON
  2
AecDbDispPropsMassGroupPlanCommon
  3
AecArchDACHBase60
 90
      129
280
     0
281
     0
  0
CLASS
  1
AEC_DISPREPAECDBDISPREPMASSGROUPPLAN100
  2
AecDbDispRepMassGroupPlan100
  3
AecArchDACHBase60
 90
      129
280
     0
281
     0
  0
CLASS
  1
AEC_DISP_REP_MASS_GROUP_RCP
  2
AecDbDispRepMassGroupRcp
  3
AecArchBase60
 90
      129
280
     0
281
     0
  0
CLASS
  1
AEC_DISP_REP_MVBLOCK_REF
  2
AecDbDispRepMvBlockRef
  3
AecBase60
 90
      129
280
     0
281
     0
  0
CLASS
  1
AEC_DISP_REP_MVBLOCK_REF_MODEL
  2
AecDbDispRepMvBlockRefModel
  3
AecBase60
 90
      129
280
     0
281
     0
  0
CLASS
  1
AEC_AECDBDISPREPMVBLOCKREFPLAN100
  2
AecDbDispRepMvBlockRefPlan100
  3
AecBase60
 90
      129
280
     0
281
     0
  0
CLASS
  1
AEC_AECDBDISPREPMVBLOCKREFPLAN50
  2
AecDbDispRepMvBlockRefPlan50
  3
AecBase60
 90
      129
280
     0
281
     0
  0
CLASS
  1
AEC_DISP_REP_POLYGON_MODEL
  2
AecDbDispRepPolygonModel
  3
AecBase60
 90
      129
280
     0
281
     0
  0
CLASS
  1
AEC_DISP_PROPS_POLYGON_MODEL
  2
AecDbDispPropsPolygonModel
  3
AecBase60
 90
      129
280
     0
281
     0
  0
CLASS
  1
AEC_DISP_REP_POLYGON_TRUECOLOUR
  2
AecDbDispRepPolygonTrueColour
  3
AecBase60
 90
      129
280
     0
281
     0
  0
CLASS
  1
AEC_DISP_PROPS_POLYGON_TRUECOLOUR
  2
AecDbDispPropsPolygonTrueColour
  3
AecBase60
 90
      129
280
     0
281
     0
  0
CLASS
  1
AEC_DISP_REP_SLICE
  2
AecDbDispRepSlice
  3
AecBase60
 90
      129
280
     0
281
     0
  0
CLASS
  1
AEC_DISP_PROPS_SLICE
  2
AecDbDispPropsSlice
  3
AecBase60
 90
      129
280
     0
281
     0
  0
CLASS
  1
AEC_DISP_REP_ANCHOR
  2
AecDbDispRepAnchor
  3
AecBase60
 90
      129
280
     0
281
     0
  0
CLASS
  1
AEC_DISP_REP_ANCHOR_ENT_TO_NODE
  2
AecDbDispRepAnchorEntToNode
  3
AecBase60
 90
      129
280
     0
281
     0
  0
CLASS
  1
AEC_DISP_PROPS_ENT
  2
AecDbDispPropsEnt
  3
AecBase60
 90
      129
280
     0
281
     0
  0
CLASS
  1
AEC_DISP_REP_MATERIAL
  2
AecDbDispRepMaterial
  3
AecBase60
 90
      129
280
     0
281
     0
  0
CLASS
  1
AEC_DISP_PROPS_MATERIAL
  2
AecDbDispPropsMaterial
  3
AecBase60
 90
      129
280
     0
281
     0
  0
CLASS
  1
AEC_DISP_REP_EDITINPLACEPROFILE
  2
AecDbDispRepEditInPlaceProfile
  3
AecBase60
 90
      129
280
     0
281
     0
  0
CLASS
  1
AEC_DISP_PROPS_EDITINPLACEPROFILE_MODEL
  2
AecDbDispPropsEditInPlaceProfile
  3
AecBase60
 90
      129
280
     0
281
     0
  0
CLASS
  1
SUN
  2
AcDbSun
  3
SCENEOE
 90
     1153
280
     0
281
     0
  0
ENDSEC
  0
SECTION
  2
TABLES
  0
TABLE
  2
VPORT
  5
8
330
0
100
AcDbSymbolTable
 70
     1
  0
VPORT
  5
3523F0
330
8
100
AcDbSymbolTableRecord
100
AcDbViewportTableRecord
  2
*Active
 70
     0
 10
0.0
 20
0.0
 11
1.0
 21
1.0
 12
13595.35271451102
 22
-4264.110386261827
 13
0.0
 23
0.0
 14
1.0
 24
1.0
 15
20.0
 25
20.0
 16
0.0
 26
0.0
 36
1.0
 17
0.0
 27
0.0
 37
0.0
 40
139.2980505021001
 41
2.027568922305764
 42
50.0
 43
0.0
 44
0.0
 50
0.0
 51
0.0
 71
    16
 72
   100
 73
     1
 74
     0
 75
     0
 76
     0
 77
     0
 78
     0
281
     0
 65
     1
110
0.0
120
0.0
130
0.0
111
1.0
121
0.0
131
0.0
112
0.0
122
1.0
132
0.0
 79
     0
146
0.0
  0
ENDTAB
  0
TABLE
  2
LTYPE
  5
5
330
0
100
AcDbSymbolTable
 70
     5
  0
LTYPE
  5
12
330
5
100
AcDbSymbolTableRecord
100
AcDbLinetypeTableRecord
  2
BYBLOCK
 70
     0
  3

 72
    65
 73
     0
 40
0.0
  0
LTYPE
  5
13
330
5
100
AcDbSymbolTableRecord
100
AcDbLinetypeTableRecord
  2
BYLAYER
 70
     0
  3

 72
    65
 73
     0
 40
0.0
  0
LTYPE
  5
14
330
5
100
AcDbSymbolTableRecord
100
AcDbLinetypeTableRecord
  2
CONTINUOUS
 70
     0
  3
Solid line
 72
    65
 73
     0
 40
0.0
  0
LTYPE
  5
25
330
5
100
AcDbSymbolTableRecord
100
AcDbLinetypeTableRecord
  2
CENTER
 70
     0
  3
____ _ ____ _ ____ _ ____ _ ____ _ ____ _ ____
 72
    65
 73
     4
 40
2.0
 49
1.25
 74
     0
 49
-0.25
 74
     0
 49
0.25
 74
     0
 49
-0.25
 74
     0
  0
LTYPE
  5
26
330
5
100
AcDbSymbolTableRecord
100
AcDbLinetypeTableRecord
  2
PHANTOM
 70
     0
  3
_____ _ _ _____ _ _ _____ _ _ _____ _ _ ____
 72
    65
 73
     6
 40
2.5
 49
1.25
 74
     0
 49
-0.25
 74
     0
 49
0.25
 74
     0
 49
-0.25
 74
     0
 49
0.25
 74
     0
 49
-0.25
 74
     0
  0
LTYPE
  5
27
330
5
100
AcDbSymbolTableRecord
100
AcDbLinetypeTableRecord
  2
HIDDEN
 70
     0
  3
_ _ _ _ _ _ _ _ _ _ _ _ _ _ _ _ _ _ _ _ _ _ _
 72
    65
 73
     2
 40
0.375
 49
0.25
 74
     0
 49
-0.125
 74
     0
  0
ENDTAB
  0
TABLE
  2
LAYER
  5
2
102
{ACAD_XDICTIONARY
360
559E
102
}
330
0
100
AcDbSymbolTable
 70
    23
  0
LAYER
  5
F
102
{ACAD_XDICTIONARY
360
CD7F
102
}
330
2
100
AcDbSymbolTableRecord
100
AcDbLayerTableRecord
  2
0
 70
     0
 62
     7
  6
CONTINUOUS
370
    -3
390
352
  0
LAYER
  5
34
102
{ACAD_XDICTIONARY
360
CD85
102
}
330
2
100
AcDbSymbolTableRecord
100
AcDbLayerTableRecord
  2
寸法線
 70
     0
 62
     7
  6
CONTINUOUS
370
    -3
390
352
  0
LAYER
  5
36
330
2
100
AcDbSymbolTableRecord
100
AcDbLayerTableRecord
  2
DEFPOINTS
 70
     0
 62
     7
  6
CONTINUOUS
290
     0
370
    -3
390
352
  0
LAYER
  5
2A3
102
{ACAD_XDICTIONARY
360
CD89
102
}
330
2
100
AcDbSymbolTableRecord
100
AcDbLayerTableRecord
  2
ﾊｯﾁﾝｸﾞ
 70
     0
 62
     8
  6
CONTINUOUS
370
    -3
390
352
  0
LAYER
  5
2F4
102
{ACAD_XDICTIONARY
360
CD8D
102
}
330
2
100
AcDbSymbolTableRecord
100
AcDbLayerTableRecord
  2
文字
 70
     0
 62
     7
  6
CONTINUOUS
370
    -3
390
352
  0
LAYER
  5
306B15
330
2
100
AcDbSymbolTableRecord
100
AcDbLayerTableRecord
  2
C-SUNPO
 70
     0
 62
     7
  6
CONTINUOUS
370
    -3
390
352
  0
LAYER
  5
31D3CB
330
2
100
AcDbSymbolTableRecord
100
AcDbLayerTableRecord
  2
姿図
 70
     0
 62
     8
  6
CONTINUOUS
370
    -3
390
352
  0
ENDTAB
  0
TABLE
  2
STYLE
  5
3
330
0
100
AcDbSymbolTable
 70
     1
  0
STYLE
  5
10
330
3
100
AcDbSymbolTableRecord
100
AcDbTextStyleTableRecord
  2
STANDARD
 70
     0
 40
0.0
 41
1.0
 50
0.0
 71
     0
 42
3.5
  3
MONOTXT
  4
BIGFONT
  0
ENDTAB
  0
TABLE
  2
VIEW
  5
6
330
0
100
AcDbSymbolTable
 70
     0
  0
ENDTAB
  0
TABLE
  2
UCS
  5
7
330
0
100
AcDbSymbolTable
 70
     0
  0
ENDTAB
  0
TABLE
  2
APPID
  5
9
330
0
100
AcDbSymbolTable
 70
    23
  0
APPID
  5
11
330
9
100
AcDbSymbolTableRecord
100
AcDbRegAppTableRecord
  2
ACAD
 70
     0
  0
APPID
  5
C058
330
9
100
AcDbSymbolTableRecord
100
AcDbRegAppTableRecord
  2
AcAecLayerStandard
 70
     0
  0
APPID
  5
CD77
330
9
100
AcDbSymbolTableRecord
100
AcDbRegAppTableRecord
  2
ACAD_MLEADERVER
 70
     0
  0
APPID
  5
D036
330
9
100
AcDbSymbolTableRecord
100
AcDbRegAppTableRecord
  2
ACAD_PSEXT
 70
     0
  0
APPID
  5
D28E
330
9
100
AcDbSymbolTableRecord
100
AcDbRegAppTableRecord
  2
ACAD_DSTYLE_DIMJAG
 70
     0
  0
APPID
  5
D28F
330
9
100
AcDbSymbolTableRecord
100
AcDbRegAppTableRecord
  2
ACAD_DSTYLE_DIMTALN
 70
     0
  0
APPID
  5
10E35
330
9
100
AcDbSymbolTableRecord
100
AcDbRegAppTableRecord
  2
ACAD_EXEMPT_FROM_CAD_STANDARDS
 70
     0
  0
APPID
  5
36B90
330
9
100
AcDbSymbolTableRecord
100
AcDbRegAppTableRecord
  2
ACAD_DSTYLE_DIMRADIAL_EXTENSION
 70
     0
  0
APPID
  5
4CBB9
330
9
100
AcDbSymbolTableRecord
100
AcDbRegAppTableRecord
  2
WACOM_STRING
 70
     0
  0
APPID
  5
4CBBA
330
9
100
AcDbSymbolTableRecord
100
AcDbRegAppTableRecord
  2
WACOM_DRSYM_ARROW
 70
     0
  0
APPID
  5
83B4C
330
9
100
AcDbSymbolTableRecord
100
AcDbRegAppTableRecord
  2
ACAD_DSTYLE_DIMRADIAL_EXTE
 70
     0
  0
APPID
  5
83B4D
330
9
100
AcDbSymbolTableRecord
100
AcDbRegAppTableRecord
  2
ACAD_DSTYLE_DIMBREAK
 70
     0
  0
APPID
  5
83B4E
330
9
100
AcDbSymbolTableRecord
100
AcDbRegAppTableRecord
  2
ACAD_DSTYLE_DIMARC_LENGTH_
 70
     0
  0
APPID
  5
8B472
330
9
100
AcDbSymbolTableRecord
100
AcDbRegAppTableRecord
  2
LAYER_SCALE
 70
     0
  0
APPID
  5
8B473
330
9
100
AcDbSymbolTableRecord
100
AcDbRegAppTableRecord
  2
KCAD_DIM_EXT
 70
     0
  0
APPID
  5
16ECBA
330
9
100
AcDbSymbolTableRecord
100
AcDbRegAppTableRecord
  2
GENIUS_GENDTOL_13
 70
     0
  0
APPID
  5
23CCFB
330
9
100
AcDbSymbolTableRecord
100
AcDbRegAppTableRecord
  2
AcadAnnotative
 70
     0
  0
APPID
  5
31A28D
330
9
100
AcDbSymbolTableRecord
100
AcDbRegAppTableRecord
  2
ACAD_DSTYLE_DIMFLIPARROW_WHICH_SYMBOL
 70
     0
  0
APPID
  5
355D3D
330
9
100
AcDbSymbolTableRecord
100
AcDbRegAppTableRecord
  2
AECBASE
 70
     0
  0
APPID
  5
355D3E
330
9
100
AcDbSymbolTableRecord
100
AcDbRegAppTableRecord
  2
AEC_2DSECTION_XDATA
 70
     0
  0
APPID
  5
355D3F
330
9
100
AcDbSymbolTableRecord
100
AcDbRegAppTableRecord
  2
AEC_MASSGROUP_XDADA
 70
     0
  0
APPID
  5
356897
330
9
100
AcDbSymbolTableRecord
100
AcDbRegAppTableRecord
  2
ACAD_SPLINE_DATA
 70
     0
  0
APPID
  5
356898
330
9
100
AcDbSymbolTableRecord
100
AcDbRegAppTableRecord
  2
ACAD_SPLINE_DATA2
 70
     0
  0
ENDTAB
  0
TABLE
  2
DIMSTYLE
  5
A
330
0
100
AcDbSymbolTable
 70
     4
100
AcDbDimStyleTable
  0
DIMSTYLE
105
1CC
330
A
100
AcDbSymbolTableRecord
100
AcDbDimStyleTableRecord
  2
STANDARD
 70
     0
 41
2.5
 42
1.5
 43
7.0
 44
1.0
 45
0.0
 73
     0
 74
     0
 77
     3
 78
     8
 79
     2
140
3.0
141
0.0
146
0.6
147
1.0
171
     0
172
     1
176
     8
177
     8
271
     3
178
   256
179
     3
271
     3
272
     3
274
     0
289
     0
340
10
341
265D
342
265D
1001
ACAD_DSTYLE_DIMJAG
1070
   388
1040
1.5
1001
ACAD_DSTYLE_DIMTALN
1070
   392
1070
     0
  0
ENDTAB
  0
TABLE
  2
BLOCK_RECORD
  5
1
330
0
100
AcDbSymbolTable
 70
    48
  0
BLOCK_RECORD
  5
18
102
{ACAD_XDICTIONARY
360
D25F
102
}
330
1
100
AcDbSymbolTableRecord
100
AcDbBlockTableRecord
  2
*MODEL_SPACE
340
355
  0
BLOCK_RECORD
  5
15
330
1
100
AcDbSymbolTableRecord
100
AcDbBlockTableRecord
  2
*PAPER_SPACE
340
356
  0
BLOCK_RECORD
  5
33F
330
1
100
AcDbSymbolTableRecord
100
AcDbBlockTableRecord
  2
_OPEN
340
0
102
{BLKREFS
331
0
331
0
331
352562
331
352563
331
35256D
331
35256E
331
352578
331
352579
331
352581
331
352582
331
35258A
331
35258B
331
352592
331
352593
331
0
331
0
331
355B06
331
355B07
331
355B11
331
355B12
331
355B1C
331
355B1D
331
355B25
331
355B26
331
355B2E
331
355B2F
331
355B36
331
355B37
331
0
331
0
331
0
331
0
331
3575C3
331
3575C4
331
3575D2
331
3575D3
331
3575E1
331
3575E2
331
3575ED
331
3575EE
331
3575F9
331
3575FA
331
357604
331
357605
102
}
  0
BLOCK_RECORD
  5
416
330
1
100
AcDbSymbolTableRecord
100
AcDbBlockTableRecord
  2
SUN
340
0
  0
BLOCK_RECORD
  5
265D
330
1
100
AcDbSymbolTableRecord
100
AcDbBlockTableRecord
  2
_OPEN30
340
0
  0
ENDTAB
  0
ENDSEC
  0
SECTION
  2
BLOCKS
  0
BLOCK
  5
39
330
18
100
AcDbEntity
  8
0
100
AcDbBlockBegin
  2
*MODEL_SPACE
 70
     0
 10
0.0
 20
0.0
 30
0.0
  3
*MODEL_SPACE
  1
*MODEL_SPACE
  0
ENDBLK
  5
3A
330
18
100
AcDbEntity
  8
0
100
AcDbBlockEnd
  0
BLOCK
  5
37
330
15
100
AcDbEntity
 67
     1
  8
0
100
AcDbBlockBegin
  2
*PAPER_SPACE
 70
     0
 10
0.0
 20
0.0
 30
0.0
  3
*PAPER_SPACE
  1
*PAPER_SPACE
  0
ENDBLK
  5
38
330
15
100
AcDbEntity
 67
     1
  8
0
100
AcDbBlockEnd
  0
BLOCK
  5
340
330
33F
100
AcDbEntity
  8
0
100
AcDbBlockBegin
  2
_OPEN
 70
     0
 10
0.0
 20
0.0
 30
0.0
  3
_OPEN
  1
_OPEN
  0
LINE
  5
341
330
33F
100
AcDbEntity
  8
0
  6
ByBlock
 62
     0
100
AcDbLine
 10
-1.0
 20
0.1666666666666667
 30
0.0
 11
0.0
 21
0.0
 31
0.0
  0
LINE
  5
342
330
33F
100
AcDbEntity
  8
0
  6
ByBlock
 62
     0
100
AcDbLine
 10
0.0
 20
0.0
 30
0.0
 11
-1.0
 21
-0.1666666666666667
 31
0.0
  0
LINE
  5
343
330
33F
100
AcDbEntity
  8
0
  6
ByBlock
 62
     0
100
AcDbLine
 10
0.0
 20
0.0
 30
0.0
 11
-1.0
 21
0.0
 31
0.0
  0
ENDBLK
  5
344
330
33F
100
AcDbEntity
  8
0
100
AcDbBlockEnd
  0
BLOCK
  5
41A
330
416
100
AcDbEntity
  8
0
100
AcDbBlockBegin
  2
SUN
 70
     0
 10
0.0
 20
0.0
 30
0.0
  3
SUN
  1
SUN
  0
LINE
  5
417
330
416
100
AcDbEntity
  8
0
100
AcDbLine
 10
-0.0000000000000568
 20
0.0
 30
0.0
 11
-1.500000000000057
 21
0.0
 31
0.0
  0
LINE
  5
418
330
416
100
AcDbEntity
  8
0
100
AcDbLine
 10
-0.0000000000000568
 20
0.0000000000000284
 30
0.0
 11
-1.500000000000057
 21
0.401923788646684
 31
0.0
  0
LINE
  5
419
330
416
100
AcDbEntity
  8
0
100
AcDbLine
 10
-0.0000000000000568
 20
0.0000000000000284
 30
0.0
 11
-1.500000000000057
 21
-0.4019237886466556
 31
0.0
  0
ENDBLK
  5
41B
330
416
100
AcDbEntity
  8
0
100
AcDbBlockEnd
  0
BLOCK
  5
265E
330
265D
100
AcDbEntity
  8
0
100
AcDbBlockBegin
  2
_OPEN30
 70
     0
 10
0.0
 20
0.0
 30
0.0
  3
_OPEN30
  1
_OPEN30
  0
LINE
  5
265F
330
265D
100
AcDbEntity
  8
0
  6
ByBlock
 62
     0
100
AcDbLine
 10
-1.0
 20
0.26794919
 30
0.0
 11
0.0
 21
0.0
 31
0.0
  0
LINE
  5
2660
330
265D
100
AcDbEntity
  8
0
  6
ByBlock
 62
     0
100
AcDbLine
 10
0.0
 20
0.0
 30
0.0
 11
-1.0
 21
-0.26794919
 31
0.0
  0
LINE
  5
2661
330
265D
100
AcDbEntity
  8
0
  6
ByBlock
 62
     0
100
AcDbLine
 10
0.0
 20
0.0
 30
0.0
 11
-1.0
 21
0.0
 31
0.0
  0
ENDBLK
  5
2662
330
265D
100
AcDbEntity
  8
0
100
AcDbBlockEnd
  0
ENDSEC
  0
SECTION
  2
ENTITIES
  0
MTEXT
  5
8182F
330
18
100
AcDbEntity
  8
0
100
AcDbMText
 10
5598.734167156057
 20
-2635.335630549191
 30
0.0
 40
3.0
 41
0.0
 71
     7
 72
     1
  1
\A1;
 73
     1
 44
1.0
  0
MTEXT
  5
3073B9
330
18
100
AcDbEntity
  8
C-SUNPO
 62
     7
100
AcDbMText
 10
8897.245354628265
 20
-2466.345110988794
 30
0.0
 40
2.0
 41
0.0
 71
     5
 72
     1
  1
\A1;\P\P 
 11
0.999998667560571
 21
0.001632445123950444
 31
0.0
 73
     1
 44
1.0
  0
SPLINE
  5
3569E8
330
18
100
AcDbEntity
  8
姿図
100
AcDbSpline
210
0.0
220
0.0
230
1.0
 70
    11
 71
     3
 72
    17
 73
    13
 74
     0
 42
0.000000001
 43
0.0000000001
 40
0.0
 40
0.0
 40
0.0
 40
0.0
 40
1.0
 40
1.0
 40
1.0
 40
2.0
 40
2.0
 40
2.0
 40
3.0
 40
3.0
 40
3.0
 40
4.0
 40
4.0
 40
4.0
 40
4.0
 10
13604.23417265078
 20
-4289.349891223733
 30
0.0
 10
13604.23417265078
 20
-4292.110103547412
 30
0.0
 10
13592.98093307929
 20
-4294.347694541207
 30
0.0
 10
13579.0987394087
 20
-4294.347694541207
 30
0.0
 10
13565.21671799298
 20
-4294.347694541207
 30
0.0
 10
13553.96313391171
 20
-4292.110103547412
 30
0.0
 10
13553.96313391171
 20
-4289.349891223733
 30
0.0
 10
13553.96313391171
 20
-4286.589678900057
 30
0.0
 10
13565.21671799298
 20
-4284.352432416034
 30
0.0
 10
13579.0987394087
 20
-4284.352432416034
 30
0.0
 10
13592.98093307929
 20
-4284.352432416034
 30
0.0
 10
13604.23417265078
 20
-4286.589678900057
 30
0.0
 10
13604.23417265078
 20
-4289.349891223733
 30
0.0
  0
SPLINE
  5
3569E9
330
18
100
AcDbEntity
  8
姿図
100
AcDbSpline
210
0.0
220
0.0
230
1.0
 70
    11
 71
     3
 72
    17
 73
    13
 74
     0
 42
0.000000001
 43
0.0000000001
 40
0.0
 40
0.0
 40
0.0
 40
0.0
 40
1.0
 40
1.0
 40
1.0
 40
2.0
 40
2.0
 40
2.0
 40
3.0
 40
3.0
 40
3.0
 40
4.0
 40
4.0
 40
4.0
 40
4.0
 10
13605.20431217942
 20
-4289.290635542299
 30
0.0
 10
13605.20431217942
 20
-4292.213111970376
 30
0.0
 10
13593.51681803554
 20
-4294.582305698527
 30
0.0
 10
13579.0987394087
 20
-4294.582305698527
 30
0.0
 10
13564.68083303673
 20
-4294.582305698527
 30
0.0
 10
13552.99299438308
 20
-4292.213111970376
 30
0.0
 10
13552.99299438308
 20
-4289.290635542299
 30
0.0
 10
13552.99299438308
 20
-4286.368503623994
 30
0.0
 10
13564.68083303673
 20
-4283.999654405618
 30
0.0
 10
13579.0987394087
 20
-4283.999654405618
 30
0.0
 10
13593.51681803554
 20
-4283.999654405618
 30
0.0
 10
13605.20431217942
 20
-4286.368503623994
 30
0.0
 10
13605.20431217942
 20
-4289.290635542299
 30
0.0
  0
SPLINE
  5
3569EA
330
18
100
AcDbEntity
  8
姿図
100
AcDbSpline
210
0.0
220
0.0
230
1.0
 70
    11
 71
     3
 72
    17
 73
    13
 74
     0
 42
0.000000001
 43
0.0000000001
 40
0.0
 40
0.0
 40
0.0
 40
0.0
 40
1.0
 40
1.0
 40
1.0
 40
2.0
 40
2.0
 40
2.0
 40
3.0
 40
3.0
 40
3.0
 40
4.0
 40
4.0
 40
4.0
 40
4.0
 10
13610.40399822552
 20
-4288.904440083631
 30
0.0
 10
13610.40399822552
 20
-4292.360562154415
 30
0.0
 10
13596.38865152657
 20
-4295.162115651193
 30
0.0
 10
13579.09891166358
 20
-4295.162115651193
 30
0.0
 10
13561.80934405548
 20
-4295.162115651193
 30
0.0
 10
13547.79365284675
 20
-4292.360562154415
 30
0.0
 10
13547.79365284675
 20
-4288.904440083631
 30
0.0
 10
13547.79365284675
 20
-4285.448662522615
 30
0.0
 10
13561.80934405548
 20
-4282.64745353562
 30
0.0
 10
13579.09891166358
 20
-4282.64745353562
 30
0.0
 10
13596.38865152657
 20
-4282.64745353562
 30
0.0
 10
13610.40399822552
 20
-4285.448662522615
 30
0.0
 10
13610.40399822552
 20
-4288.904440083631
 30
0.0
  0
SPLINE
  5
3569EB
330
18
100
AcDbEntity
  8
姿図
100
AcDbSpline
210
0.0
220
0.0
230
1.0
 70
     8
 71
     3
 72
    11
 73
     7
 74
     0
 42
0.000000001
 43
0.0000000001
 40
0.0
 40
0.0
 40
0.0
 40
0.0
 40
1.0
 40
1.0
 40
1.0
 40
2.0
 40
2.0
 40
2.0
 40
2.0
 10
13547.80674421823
 20
-4287.907084282701
 30
0.0
 10
13548.29078045323
 20
-4284.536056126536
 30
0.0
 10
13562.11544099127
 20
-4281.833032425638
 30
0.0
 10
13579.09891166358
 20
-4281.833032425638
 30
0.0
 10
13596.38865152657
 20
-4281.833032425638
 30
0.0
 10
13610.40399822552
 20
-4284.634241412637
 30
0.0
 10
13610.40399822552
 20
-4288.090018973645
 30
0.0
  0
POLYLINE
  5
3569EC
330
18
100
AcDbEntity
  8
姿図
100
AcDb2dPolyline
 66
     1
 10
0.0
 20
0.0
 30
0.0
  0
VERTEX
  5
3569ED
330
3569EC
100
AcDbEntity
  8
姿図
100
AcDbVertex
100
AcDb2dVertex
 10
13547.80674421824
 20
-4287.907084282701
 30
0.0
  0
VERTEX
  5
3569EE
330
3569EC
100
AcDbEntity
  8
姿図
100
AcDbVertex
100
AcDb2dVertex
 10
13547.79365284676
 20
-4289.290980052075
 30
0.0
  0
SEQEND
  5
3569EF
330
3569EC
100
AcDbEntity
  8
姿図
  0
POLYLINE
  5
3569F0
330
18
100
AcDbEntity
  8
姿図
100
AcDb2dPolyline
 66
     1
 10
0.0
 20
0.0
 30
0.0
  0
VERTEX
  5
3569F1
330
3569F0
100
AcDbEntity
  8
姿図
100
AcDbVertex
100
AcDb2dVertex
 10
13610.40399822552
 20
-4287.797530173996
 30
0.0
  0
VERTEX
  5
3569F2
330
3569F0
100
AcDbEntity
  8
姿図
100
AcDbVertex
100
AcDb2dVertex
 10
13610.40399822552
 20
-4288.904440083631
 30
0.0
  0
SEQEND
  5
3569F3
330
3569F0
100
AcDbEntity
  8
姿図
  0
SPLINE
  5
3569F4
330
18
100
AcDbEntity
  8
姿図
100
AcDbSpline
210
0.0
220
0.0
230
1.0
 70
     8
 71
     3
 72
     8
 73
     4
 74
     0
 42
0.000000001
 43
0.0000000001
 40
0.0
 40
0.0
 40
0.0
 40
0.0
 40
1.0
 40
1.0
 40
1.0
 40
1.0
 10
13598.99762405868
 20
-4274.291368923684
 30
0.0
 10
13603.55238780448
 20
-4275.445821182376
 30
0.0
 10
13606.34050541999
 20
-4276.996804193011
 30
0.0
 10
13606.34050541999
 20
-4278.702127583204
 30
0.0
  0
SPLINE
  5
3569F5
330
18
100
AcDbEntity
  8
姿図
100
AcDbSpline
210
0.0
220
0.0
230
1.0
 70
     8
 71
     3
 72
     8
 73
     4
 74
     0
 42
0.000000001
 43
0.0000000001
 40
0.0
 40
0.0
 40
0.0
 40
0.0
 40
1.0
 40
1.0
 40
1.0
 40
1.0
 10
13581.21540747118
 20
-4272.263928893123
 30
0.0
 10
13582.34850012378
 20
-4272.284599479669
 30
0.0
 10
13583.46212797403
 20
-4272.321462025679
 30
0.0
 10
13584.55215690466
 20
-4272.3738275116
 30
0.0
  0
SPLINE
  5
3569F6
330
18
100
AcDbEntity
  8
姿図
100
AcDbSpline
210
0.0
220
0.0
230
1.0
 70
     8
 71
     3
 72
     8
 73
     4
 74
     0
 42
0.000000001
 43
0.0000000001
 40
0.0
 40
0.0
 40
0.0
 40
0.0
 40
1.0
 40
1.0
 40
1.0
 40
1.0
 10
13555.51153309903
 20
-4275.473381964442
 30
0.0
 10
13559.57984904141
 20
-4273.732918577119
 30
0.0
 10
13566.7082730673
 20
-4272.510597892592
 30
0.0
 10
13575.36511471351
 20
-4272.244636345679
 30
0.0
  0
SPLINE
  5
3569F7
330
18
100
AcDbEntity
  8
姿図
100
AcDbSpline
210
0.0
220
0.0
230
1.0
 70
     8
 71
     3
 72
     8
 73
     4
 74
     0
 42
0.000000001
 43
0.0000000001
 40
0.0
 40
0.0
 40
0.0
 40
0.0
 40
1.0
 40
1.0
 40
1.0
 40
1.0
 10
13551.87023702376
 20
-4278.702127583204
 30
0.0
 10
13551.87023702376
 20
-4277.904931962009
 30
0.0
 10
13552.07745965389
 20
-4277.40987141419
 30
0.0
 10
13553.17265623115
 20
-4276.700181276049
 30
0.0
  0
POLYLINE
  5
3569F8
330
18
100
AcDbEntity
  8
姿図
100
AcDb2dPolyline
 66
     1
 10
0.0
 20
0.0
 30
0.0
  0
VERTEX
  5
3569F9
330
3569F8
100
AcDbEntity
  8
姿図
100
AcDbVertex
100
AcDb2dVertex
 10
13551.87023702376
 20
-4278.702127583204
 30
0.0
  0
VERTEX
  5
3569FA
330
3569F8
100
AcDbEntity
  8
姿図
100
AcDbVertex
100
AcDb2dVertex
 10
13551.87023702376
 20
-4284.961525699643
 30
0.0
  0
SEQEND
  5
3569FB
330
3569F8
100
AcDbEntity
  8
姿図
  0
POLYLINE
  5
3569FC
330
18
100
AcDbEntity
  8
姿図
100
AcDb2dPolyline
 66
     1
 10
0.0
 20
0.0
 30
0.0
  0
VERTEX
  5
3569FD
330
3569FC
100
AcDbEntity
  8
姿図
100
AcDbVertex
100
AcDb2dVertex
 10
13606.34050542
 20
-4278.702127583204
 30
0.0
  0
VERTEX
  5
3569FE
330
3569FC
100
AcDbEntity
  8
姿図
100
AcDbVertex
100
AcDb2dVertex
 10
13606.34050542
 20
-4285.005622950946
 30
0.0
  0
SEQEND
  5
3569FF
330
3569FC
100
AcDbEntity
  8
姿図
  0
SPLINE
  5
356A00
330
18
100
AcDbEntity
  8
姿図
100
AcDbSpline
210
0.0
220
0.0
230
1.0
 70
     8
 71
     3
 72
    11
 73
     7
 74
     0
 42
0.000000001
 43
0.0000000001
 40
0.0
 40
0.0
 40
0.0
 40
0.0
 40
1.0
 40
1.0
 40
1.0
 40
2.0
 40
2.0
 40
2.0
 40
2.0
 10
13575.36511471351
 20
-4275.052735528191
 30
0.0
 10
13576.6988843105
 20
-4275.005193179134
 30
0.0
 10
13577.70864246336
 20
-4275.052735528191
 30
0.0
 10
13579.0985671538
 20
-4275.052735528191
 30
0.0
 10
13579.81084111526
 20
-4275.052735528191
 30
0.0
 10
13580.51674164587
 20
-4275.059281213932
 30
0.0
 10
13581.21523521629
 20
-4275.072028075639
 30
0.0
  0
SPLINE
  5
356A01
330
18
100
AcDbEntity
  8
姿図
100
AcDbSpline
210
0.0
220
0.0
230
1.0
 70
     8
 71
     3
 72
     8
 73
     4
 74
     0
 42
0.000000001
 43
0.0000000001
 40
0.0
 40
0.0
 40
0.0
 40
0.0
 40
1.0
 40
1.0
 40
1.0
 40
1.0
 10
13589.70653991523
 20
-4277.3058294619
 30
0.0
 10
13591.93258983154
 20
-4277.50151101455
 30
0.0
 10
13594.00739995627
 20
-4277.757137268195
 30
0.0
 10
13595.8844614697
 20
-4278.062717439326
 30
0.0
  0
SPLINE
  5
356A02
330
18
100
AcDbEntity
  8
姿図
100
AcDbSpline
210
0.0
220
0.0
230
1.0
 70
     8
 71
     3
 72
     8
 73
     4
 74
     0
 42
0.000000001
 43
0.0000000001
 40
0.0
 40
0.0
 40
0.0
 40
0.0
 40
1.0
 40
1.0
 40
1.0
 40
1.0
 10
13553.17265623115
 20
-4282.94648802101
 30
0.0
 10
13553.82205715852
 20
-4282.475198647723
 30
0.0
 10
13554.34864035084
 20
-4282.245066117491
 30
0.0
 10
13555.51153309903
 20
-4281.831998896308
 30
0.0
  0
POLYLINE
  5
356A03
330
18
100
AcDbEntity
  8
姿図
100
AcDb2dPolyline
 66
     1
 10
0.0
 20
0.0
 30
0.0
  0
VERTEX
  5
356A04
330
356A03
100
AcDbEntity
  8
姿図
100
AcDbVertex
100
AcDb2dVertex
 10
13595.18906848726
 20
-4277.953507840396
 30
0.0
  0
VERTEX
  5
356A05
330
356A03
100
AcDbEntity
  8
姿図
100
AcDbVertex
100
AcDb2dVertex
 10
13595.18906848726
 20
-4256.629730757714
 30
0.0
  0
VERTEX
  5
356A06
330
356A03
100
AcDbEntity
  8
姿図
100
AcDbVertex
100
AcDb2dVertex
 10
13595.72788177661
 20
-4256.453341752512
 30
0.0
  0
VERTEX
  5
356A07
330
356A03
100
AcDbEntity
  8
姿図
100
AcDbVertex
100
AcDb2dVertex
 10
13597.73706278905
 20
-4256.717925260319
 30
0.0
  0
VERTEX
  5
356A08
330
356A03
100
AcDbEntity
  8
姿図
100
AcDbVertex
100
AcDb2dVertex
 10
13597.73706278905
 20
-4256.982508768134
 30
0.0
  0
VERTEX
  5
356A09
330
356A03
100
AcDbEntity
  8
姿図
100
AcDbVertex
100
AcDb2dVertex
 10
13598.35442430727
 20
-4257.070703270735
 30
0.0
  0
VERTEX
  5
356A0A
330
356A03
100
AcDbEntity
  8
姿図
100
AcDbVertex
100
AcDb2dVertex
 10
13598.57491056378
 20
-4257.482392452813
 30
0.0
  0
VERTEX
  5
356A0B
330
356A03
100
AcDbEntity
  8
姿図
100
AcDbVertex
100
AcDb2dVertex
 10
13598.57491056378
 20
-4273.827658765461
 30
0.0
  0
VERTEX
  5
356A0C
330
356A03
100
AcDbEntity
  8
姿図
100
AcDbVertex
100
AcDb2dVertex
 10
13598.99865758801
 20
-4274.292057943235
 30
0.0
  0
SEQEND
  5
356A0D
330
356A03
100
AcDbEntity
  8
姿図
  0
POLYLINE
  5
356A0E
330
18
100
AcDbEntity
  8
姿図
100
AcDb2dPolyline
 66
     1
 10
0.0
 20
0.0
 30
0.0
  0
VERTEX
  5
356A0F
330
356A0E
100
AcDbEntity
  8
姿図
100
AcDbVertex
100
AcDb2dVertex
 10
13585.12834950468
 20
-4272.403110842543
 30
0.0
  0
VERTEX
  5
356A10
330
356A0E
100
AcDbEntity
  8
姿図
100
AcDbVertex
100
AcDb2dVertex
 10
13585.12834950468
 20
-4272.403110842543
 30
0.0
  0
SEQEND
  5
356A11
330
356A0E
100
AcDbEntity
  8
姿図
  0
SPLINE
  5
356A12
330
18
100
AcDbEntity
  8
姿図
100
AcDbSpline
210
0.0
220
0.0
230
1.0
 70
     8
 71
     3
 72
    23
 73
    19
 74
     0
 42
0.000000001
 43
0.0000000001
 40
0.0
 40
0.0
 40
0.0
 40
0.0
 40
1.0
 40
1.0
 40
1.0
 40
2.0
 40
2.0
 40
2.0
 40
3.0
 40
3.0
 40
3.0
 40
4.0
 40
4.0
 40
4.0
 40
5.0
 40
5.0
 40
5.0
 40
6.0
 40
6.0
 40
6.0
 40
6.0
 10
13584.55198464977
 20
-4272.3738275116
 30
0.0
 10
13584.55198464977
 20
-4272.3738275116
 30
0.0
 10
13584.8248363922
 20
-4272.403799862094
 30
0.0
 10
13585.14419695436
 20
-4272.363836728105
 30
0.0
 10
13585.26443086612
 20
-4272.34867829797
 30
0.0
 10
13585.39121046361
 20
-4272.323529084336
 30
0.0
 10
13585.51265015958
 20
-4272.283221440567
 30
0.0
 10
13585.84665238722
 20
-4272.171944782985
 30
0.0
 10
13586.13948569664
 20
-4271.944912840735
 30
0.0
 10
13586.13948569664
 20
-4271.49050444646
 30
0.0
 10
13586.13948569664
 20
-4271.49050444646
 30
0.0
 10
13586.44816645575
 20
-4255.130424213453
 30
0.0
 10
13586.44816645575
 20
-4255.130424213453
 30
0.0
 10
13586.44816645575
 20
-4255.130424213453
 30
0.0
 10
13585.78670768623
 20
-4255.659591229075
 30
0.0
 10
13585.78670768623
 20
-4255.659591229075
 30
0.0
 10
13585.78670768623
 20
-4255.659591229075
 30
0.0
 10
13585.39121046361
 20
-4272.323529084336
 30
0.0
 10
13585.39121046361
 20
-4272.323529084336
 30
0.0
  0
POLYLINE
  5
356A13
330
18
100
AcDbEntity
  8
姿図
100
AcDb2dPolyline
 66
     1
 10
0.0
 20
0.0
 30
0.0
  0
VERTEX
  5
356A14
330
356A13
100
AcDbEntity
  8
姿図
100
AcDbVertex
100
AcDb2dVertex
 10
13586.44816645575
 20
-4255.130424213453
 30
0.0
  0
VERTEX
  5
356A15
330
356A13
100
AcDbEntity
  8
姿図
100
AcDbVertex
100
AcDb2dVertex
 10
13587.64051478979
 20
-4255.297855964486
 30
0.0
  0
SEQEND
  5
356A16
330
356A13
100
AcDbEntity
  8
姿図
  0
POLYLINE
  5
356A17
330
18
100
AcDbEntity
  8
姿図
100
AcDb2dPolyline
 66
     1
 10
0.0
 20
0.0
 30
0.0
  0
VERTEX
  5
356A18
330
356A17
100
AcDbEntity
  8
姿図
100
AcDbVertex
100
AcDb2dVertex
 10
13595.88497823436
 20
-4257.17922385011
 30
0.0
  0
VERTEX
  5
356A19
330
356A17
100
AcDbEntity
  8
姿図
100
AcDbVertex
100
AcDb2dVertex
 10
13597.73706278905
 20
-4257.439673240612
 30
0.0
  0
SEQEND
  5
356A1A
330
356A17
100
AcDbEntity
  8
姿図
  0
POLYLINE
  5
356A1B
330
18
100
AcDbEntity
  8
姿図
100
AcDb2dPolyline
 66
     1
 10
0.0
 20
0.0
 30
0.0
  0
VERTEX
  5
356A1C
330
356A1B
100
AcDbEntity
  8
姿図
100
AcDbVertex
100
AcDb2dVertex
 10
13595.88497823436
 20
-4257.17922385011
 30
0.0
  0
VERTEX
  5
356A1D
330
356A1B
100
AcDbEntity
  8
姿図
100
AcDbVertex
100
AcDb2dVertex
 10
13595.88497823436
 20
-4257.17922385011
 30
0.0
  0
SEQEND
  5
356A1E
330
356A1B
100
AcDbEntity
  8
姿図
  0
POLYLINE
  5
356A1F
330
18
100
AcDbEntity
  8
姿図
100
AcDb2dPolyline
 66
     1
 10
0.0
 20
0.0
 30
0.0
  0
VERTEX
  5
356A20
330
356A1F
100
AcDbEntity
  8
姿図
100
AcDbVertex
100
AcDb2dVertex
 10
13587.6403425349
 20
-4256.019948454558
 30
0.0
  0
VERTEX
  5
356A21
330
356A1F
100
AcDbEntity
  8
姿図
100
AcDbVertex
100
AcDb2dVertex
 10
13589.7554603034
 20
-4256.317260391067
 30
0.0
  0
SEQEND
  5
356A22
330
356A1F
100
AcDbEntity
  8
姿図
  0
POLYLINE
  5
356A23
330
18
100
AcDbEntity
  8
姿図
100
AcDb2dPolyline
 66
     1
 10
0.0
 20
0.0
 30
0.0
  0
VERTEX
  5
356A24
330
356A23
100
AcDbEntity
  8
姿図
100
AcDbVertex
100
AcDb2dVertex
 10
13595.88532274414
 20
-4278.063061949101
 30
0.0
  0
VERTEX
  5
356A25
330
356A23
100
AcDbEntity
  8
姿図
100
AcDbVertex
100
AcDb2dVertex
 10
13595.88497823436
 20
-4273.615785253346
 30
0.0
  0
VERTEX
  5
356A26
330
356A23
100
AcDbEntity
  8
姿図
100
AcDbVertex
100
AcDb2dVertex
 10
13595.88497823436
 20
-4256.474012339057
 30
0.0
  0
SEQEND
  5
356A27
330
356A23
100
AcDbEntity
  8
姿図
  0
POLYLINE
  5
356A28
330
18
100
AcDbEntity
  8
姿図
100
AcDb2dPolyline
 66
     1
 10
0.0
 20
0.0
 30
0.0
  0
VERTEX
  5
356A29
330
356A28
100
AcDbEntity
  8
姿図
100
AcDbVertex
100
AcDb2dVertex
 10
13597.73706278905
 20
-4273.992334438294
 30
0.0
  0
VERTEX
  5
356A2A
330
356A28
100
AcDbEntity
  8
姿図
100
AcDbVertex
100
AcDb2dVertex
 10
13597.73706278905
 20
-4256.982508768134
 30
0.0
  0
SEQEND
  5
356A2B
330
356A28
100
AcDbEntity
  8
姿図
  0
POLYLINE
  5
356A2C
330
18
100
AcDbEntity
  8
姿図
100
AcDb2dPolyline
 66
     1
 10
0.0
 20
0.0
 30
0.0
  0
VERTEX
  5
356A2D
330
356A2C
100
AcDbEntity
  8
姿図
100
AcDbVertex
100
AcDb2dVertex
 10
13587.64068704467
 20
-4272.568131025148
 30
0.0
  0
VERTEX
  5
356A2E
330
356A2C
100
AcDbEntity
  8
姿図
100
AcDbVertex
100
AcDb2dVertex
 10
13587.64068704467
 20
-4255.130424213453
 30
0.0
  0
VERTEX
  5
356A2F
330
356A2C
100
AcDbEntity
  8
姿図
100
AcDbVertex
100
AcDb2dVertex
 10
13589.75563255828
 20
-4255.395007721264
 30
0.0
  0
VERTEX
  5
356A30
330
356A2C
100
AcDbEntity
  8
姿図
100
AcDbVertex
100
AcDb2dVertex
 10
13589.75563255828
 20
-4277.310308088984
 30
0.0
  0
SEQEND
  5
356A31
330
356A2C
100
AcDbEntity
  8
姿図
  0
POLYLINE
  5
356A32
330
18
100
AcDbEntity
  8
姿図
100
AcDb2dPolyline
 66
     1
 10
0.0
 20
0.0
 30
0.0
  0
VERTEX
  5
356A33
330
356A32
100
AcDbEntity
  8
姿図
100
AcDbVertex
100
AcDb2dVertex
 10
13587.64068704467
 20
-4255.130424213453
 30
0.0
  0
VERTEX
  5
356A34
330
356A32
100
AcDbEntity
  8
姿図
100
AcDbVertex
100
AcDb2dVertex
 10
13587.44052686494
 20
-4255.269950672649
 30
0.0
  0
SEQEND
  5
356A35
330
356A32
100
AcDbEntity
  8
姿図
  0
POLYLINE
  5
356A36
330
18
100
AcDbEntity
  8
姿図
100
AcDb2dPolyline
 66
     1
 10
0.0
 20
0.0
 30
0.0
  0
VERTEX
  5
356A37
330
356A36
100
AcDbEntity
  8
姿図
100
AcDbVertex
100
AcDb2dVertex
 10
13595.88497823436
 20
-4258.245826115976
 30
0.0
  0
VERTEX
  5
356A38
330
356A36
100
AcDbEntity
  8
姿図
100
AcDbVertex
100
AcDb2dVertex
 10
13597.73706278905
 20
-4258.506275506478
 30
0.0
  0
SEQEND
  5
356A39
330
356A36
100
AcDbEntity
  8
姿図
  0
POLYLINE
  5
356A3A
330
18
100
AcDbEntity
  8
姿図
100
AcDb2dPolyline
 66
     1
 10
0.0
 20
0.0
 30
0.0
  0
VERTEX
  5
356A3B
330
356A3A
100
AcDbEntity
  8
姿図
100
AcDbVertex
100
AcDb2dVertex
 10
13587.6403425349
 20
-4257.086550720424
 30
0.0
  0
VERTEX
  5
356A3C
330
356A3A
100
AcDbEntity
  8
姿図
100
AcDbVertex
100
AcDb2dVertex
 10
13589.7554603034
 20
-4257.383862656937
 30
0.0
  0
SEQEND
  5
356A3D
330
356A3A
100
AcDbEntity
  8
姿図
  0
POLYLINE
  5
356A3E
330
18
100
AcDbEntity
  8
姿図
100
AcDb2dPolyline
 66
     1
 10
0.0
 20
0.0
 30
0.0
  0
VERTEX
  5
356A3F
330
356A3E
100
AcDbEntity
  8
姿図
100
AcDbVertex
100
AcDb2dVertex
 10
13595.88497823436
 20
-4259.200807214484
 30
0.0
  0
VERTEX
  5
356A40
330
356A3E
100
AcDbEntity
  8
姿図
100
AcDbVertex
100
AcDb2dVertex
 10
13597.73706278905
 20
-4259.461256604986
 30
0.0
  0
SEQEND
  5
356A41
330
356A3E
100
AcDbEntity
  8
姿図
  0
POLYLINE
  5
356A42
330
18
100
AcDbEntity
  8
姿図
100
AcDb2dPolyline
 66
     1
 10
0.0
 20
0.0
 30
0.0
  0
VERTEX
  5
356A43
330
356A42
100
AcDbEntity
  8
姿図
100
AcDbVertex
100
AcDb2dVertex
 10
13587.6403425349
 20
-4258.041531818929
 30
0.0
  0
VERTEX
  5
356A44
330
356A42
100
AcDbEntity
  8
姿図
100
AcDbVertex
100
AcDb2dVertex
 10
13589.7554603034
 20
-4258.338843755441
 30
0.0
  0
SEQEND
  5
356A45
330
356A42
100
AcDbEntity
  8
姿図
  0
POLYLINE
  5
356A46
330
18
100
AcDbEntity
  8
姿図
100
AcDb2dPolyline
 66
     1
 10
0.0
 20
0.0
 30
0.0
  0
VERTEX
  5
356A47
330
356A46
100
AcDbEntity
  8
姿図
100
AcDbVertex
100
AcDb2dVertex
 10
13595.88497823436
 20
-4260.267409480347
 30
0.0
  0
VERTEX
  5
356A48
330
356A46
100
AcDbEntity
  8
姿図
100
AcDbVertex
100
AcDb2dVertex
 10
13597.73706278905
 20
-4260.527858870849
 30
0.0
  0
SEQEND
  5
356A49
330
356A46
100
AcDbEntity
  8
姿図
  0
POLYLINE
  5
356A4A
330
18
100
AcDbEntity
  8
姿図
100
AcDb2dPolyline
 66
     1
 10
0.0
 20
0.0
 30
0.0
  0
VERTEX
  5
356A4B
330
356A4A
100
AcDbEntity
  8
姿図
100
AcDbVertex
100
AcDb2dVertex
 10
13587.6403425349
 20
-4259.108134084795
 30
0.0
  0
VERTEX
  5
356A4C
330
356A4A
100
AcDbEntity
  8
姿図
100
AcDbVertex
100
AcDb2dVertex
 10
13589.7554603034
 20
-4259.405446021304
 30
0.0
  0
SEQEND
  5
356A4D
330
356A4A
100
AcDbEntity
  8
姿図
  0
POLYLINE
  5
356A4E
330
18
100
AcDbEntity
  8
姿図
100
AcDb2dPolyline
 66
     1
 10
0.0
 20
0.0
 30
0.0
  0
VERTEX
  5
356A4F
330
356A4E
100
AcDbEntity
  8
姿図
100
AcDbVertex
100
AcDb2dVertex
 10
13595.88532274414
 20
-4261.270966457242
 30
0.0
  0
VERTEX
  5
356A50
330
356A4E
100
AcDbEntity
  8
姿図
100
AcDbVertex
100
AcDb2dVertex
 10
13597.73740729882
 20
-4261.531415847744
 30
0.0
  0
SEQEND
  5
356A51
330
356A4E
100
AcDbEntity
  8
姿図
  0
POLYLINE
  5
356A52
330
18
100
AcDbEntity
  8
姿図
100
AcDb2dPolyline
 66
     1
 10
0.0
 20
0.0
 30
0.0
  0
VERTEX
  5
356A53
330
356A52
100
AcDbEntity
  8
姿図
100
AcDbVertex
100
AcDb2dVertex
 10
13587.64068704467
 20
-4260.111691061687
 30
0.0
  0
VERTEX
  5
356A54
330
356A52
100
AcDbEntity
  8
姿図
100
AcDbVertex
100
AcDb2dVertex
 10
13589.75580481318
 20
-4260.409002998199
 30
0.0
  0
SEQEND
  5
356A55
330
356A52
100
AcDbEntity
  8
姿図
  0
POLYLINE
  5
356A56
330
18
100
AcDbEntity
  8
姿図
100
AcDb2dPolyline
 66
     1
 10
0.0
 20
0.0
 30
0.0
  0
VERTEX
  5
356A57
330
356A56
100
AcDbEntity
  8
姿図
100
AcDbVertex
100
AcDb2dVertex
 10
13595.88532274414
 20
-4262.337568723108
 30
0.0
  0
VERTEX
  5
356A58
330
356A56
100
AcDbEntity
  8
姿図
100
AcDbVertex
100
AcDb2dVertex
 10
13597.73740729882
 20
-4262.59801811361
 30
0.0
  0
SEQEND
  5
356A59
330
356A56
100
AcDbEntity
  8
姿図
  0
POLYLINE
  5
356A5A
330
18
100
AcDbEntity
  8
姿図
100
AcDb2dPolyline
 66
     1
 10
0.0
 20
0.0
 30
0.0
  0
VERTEX
  5
356A5B
330
356A5A
100
AcDbEntity
  8
姿図
100
AcDbVertex
100
AcDb2dVertex
 10
13587.64068704467
 20
-4261.178293327556
 30
0.0
  0
VERTEX
  5
356A5C
330
356A5A
100
AcDbEntity
  8
姿図
100
AcDbVertex
100
AcDb2dVertex
 10
13589.75580481318
 20
-4261.475605264065
 30
0.0
  0
SEQEND
  5
356A5D
330
356A5A
100
AcDbEntity
  8
姿図
  0
POLYLINE
  5
356A5E
330
18
100
AcDbEntity
  8
姿図
100
AcDb2dPolyline
 66
     1
 10
0.0
 20
0.0
 30
0.0
  0
VERTEX
  5
356A5F
330
356A5E
100
AcDbEntity
  8
姿図
100
AcDbVertex
100
AcDb2dVertex
 10
13595.88532274414
 20
-4263.292549821616
 30
0.0
  0
VERTEX
  5
356A60
330
356A5E
100
AcDbEntity
  8
姿図
100
AcDbVertex
100
AcDb2dVertex
 10
13597.73740729882
 20
-4263.552999212118
 30
0.0
  0
SEQEND
  5
356A61
330
356A5E
100
AcDbEntity
  8
姿図
  0
POLYLINE
  5
356A62
330
18
100
AcDbEntity
  8
姿図
100
AcDb2dPolyline
 66
     1
 10
0.0
 20
0.0
 30
0.0
  0
VERTEX
  5
356A63
330
356A62
100
AcDbEntity
  8
姿図
100
AcDbVertex
100
AcDb2dVertex
 10
13587.64068704467
 20
-4262.133274426061
 30
0.0
  0
VERTEX
  5
356A64
330
356A62
100
AcDbEntity
  8
姿図
100
AcDbVertex
100
AcDb2dVertex
 10
13589.75580481318
 20
-4262.430586362573
 30
0.0
  0
SEQEND
  5
356A65
330
356A62
100
AcDbEntity
  8
姿図
  0
POLYLINE
  5
356A66
330
18
100
AcDbEntity
  8
姿図
100
AcDb2dPolyline
 66
     1
 10
0.0
 20
0.0
 30
0.0
  0
VERTEX
  5
356A67
330
356A66
100
AcDbEntity
  8
姿図
100
AcDbVertex
100
AcDb2dVertex
 10
13595.88532274414
 20
-4264.359152087479
 30
0.0
  0
VERTEX
  5
356A68
330
356A66
100
AcDbEntity
  8
姿図
100
AcDbVertex
100
AcDb2dVertex
 10
13597.73740729882
 20
-4264.619601477981
 30
0.0
  0
SEQEND
  5
356A69
330
356A66
100
AcDbEntity
  8
姿図
  0
POLYLINE
  5
356A6A
330
18
100
AcDbEntity
  8
姿図
100
AcDb2dPolyline
 66
     1
 10
0.0
 20
0.0
 30
0.0
  0
VERTEX
  5
356A6B
330
356A6A
100
AcDbEntity
  8
姿図
100
AcDbVertex
100
AcDb2dVertex
 10
13587.64068704467
 20
-4263.199876691923
 30
0.0
  0
VERTEX
  5
356A6C
330
356A6A
100
AcDbEntity
  8
姿図
100
AcDbVertex
100
AcDb2dVertex
 10
13589.75580481318
 20
-4263.497188628436
 30
0.0
  0
SEQEND
  5
356A6D
330
356A6A
100
AcDbEntity
  8
姿図
  0
POLYLINE
  5
356A6E
330
18
100
AcDbEntity
  8
姿図
100
AcDb2dPolyline
 66
     1
 10
0.0
 20
0.0
 30
0.0
  0
VERTEX
  5
356A6F
330
356A6E
100
AcDbEntity
  8
姿図
100
AcDbVertex
100
AcDb2dVertex
 10
13595.88497823436
 20
-4265.433678078188
 30
0.0
  0
VERTEX
  5
356A70
330
356A6E
100
AcDbEntity
  8
姿図
100
AcDbVertex
100
AcDb2dVertex
 10
13597.73706278905
 20
-4265.69412746869
 30
0.0
  0
SEQEND
  5
356A71
330
356A6E
100
AcDbEntity
  8
姿図
  0
POLYLINE
  5
356A72
330
18
100
AcDbEntity
  8
姿図
100
AcDb2dPolyline
 66
     1
 10
0.0
 20
0.0
 30
0.0
  0
VERTEX
  5
356A73
330
356A72
100
AcDbEntity
  8
姿図
100
AcDbVertex
100
AcDb2dVertex
 10
13587.6403425349
 20
-4264.274402682636
 30
0.0
  0
VERTEX
  5
356A74
330
356A72
100
AcDbEntity
  8
姿図
100
AcDbVertex
100
AcDb2dVertex
 10
13589.7554603034
 20
-4264.571714619148
 30
0.0
  0
SEQEND
  5
356A75
330
356A72
100
AcDbEntity
  8
姿図
  0
POLYLINE
  5
356A76
330
18
100
AcDbEntity
  8
姿図
100
AcDb2dPolyline
 66
     1
 10
0.0
 20
0.0
 30
0.0
  0
VERTEX
  5
356A77
330
356A76
100
AcDbEntity
  8
姿図
100
AcDbVertex
100
AcDb2dVertex
 10
13595.88497823436
 20
-4266.500280344054
 30
0.0
  0
VERTEX
  5
356A78
330
356A76
100
AcDbEntity
  8
姿図
100
AcDbVertex
100
AcDb2dVertex
 10
13597.73706278905
 20
-4266.760729734556
 30
0.0
  0
SEQEND
  5
356A79
330
356A76
100
AcDbEntity
  8
姿図
  0
POLYLINE
  5
356A7A
330
18
100
AcDbEntity
  8
姿図
100
AcDb2dPolyline
 66
     1
 10
0.0
 20
0.0
 30
0.0
  0
VERTEX
  5
356A7B
330
356A7A
100
AcDbEntity
  8
姿図
100
AcDbVertex
100
AcDb2dVertex
 10
13587.6403425349
 20
-4265.341004948498
 30
0.0
  0
VERTEX
  5
356A7C
330
356A7A
100
AcDbEntity
  8
姿図
100
AcDbVertex
100
AcDb2dVertex
 10
13589.7554603034
 20
-4265.638316885011
 30
0.0
  0
SEQEND
  5
356A7D
330
356A7A
100
AcDbEntity
  8
姿図
  0
POLYLINE
  5
356A7E
330
18
100
AcDbEntity
  8
姿図
100
AcDb2dPolyline
 66
     1
 10
0.0
 20
0.0
 30
0.0
  0
VERTEX
  5
356A7F
330
356A7E
100
AcDbEntity
  8
姿図
100
AcDbVertex
100
AcDb2dVertex
 10
13595.88497823436
 20
-4267.455261442558
 30
0.0
  0
VERTEX
  5
356A80
330
356A7E
100
AcDbEntity
  8
姿図
100
AcDbVertex
100
AcDb2dVertex
 10
13597.73706278905
 20
-4267.71571083306
 30
0.0
  0
SEQEND
  5
356A81
330
356A7E
100
AcDbEntity
  8
姿図
  0
POLYLINE
  5
356A82
330
18
100
AcDbEntity
  8
姿図
100
AcDb2dPolyline
 66
     1
 10
0.0
 20
0.0
 30
0.0
  0
VERTEX
  5
356A83
330
356A82
100
AcDbEntity
  8
姿図
100
AcDbVertex
100
AcDb2dVertex
 10
13587.6403425349
 20
-4266.295986047006
 30
0.0
  0
VERTEX
  5
356A84
330
356A82
100
AcDbEntity
  8
姿図
100
AcDbVertex
100
AcDb2dVertex
 10
13589.7554603034
 20
-4266.593297983515
 30
0.0
  0
SEQEND
  5
356A85
330
356A82
100
AcDbEntity
  8
姿図
  0
POLYLINE
  5
356A86
330
18
100
AcDbEntity
  8
姿図
100
AcDb2dPolyline
 66
     1
 10
0.0
 20
0.0
 30
0.0
  0
VERTEX
  5
356A87
330
356A86
100
AcDbEntity
  8
姿図
100
AcDbVertex
100
AcDb2dVertex
 10
13595.88497823436
 20
-4268.521863708424
 30
0.0
  0
VERTEX
  5
356A88
330
356A86
100
AcDbEntity
  8
姿図
100
AcDbVertex
100
AcDb2dVertex
 10
13597.73706278905
 20
-4268.782313098926
 30
0.0
  0
SEQEND
  5
356A89
330
356A86
100
AcDbEntity
  8
姿図
  0
POLYLINE
  5
356A8A
330
18
100
AcDbEntity
  8
姿図
100
AcDb2dPolyline
 66
     1
 10
0.0
 20
0.0
 30
0.0
  0
VERTEX
  5
356A8B
330
356A8A
100
AcDbEntity
  8
姿図
100
AcDbVertex
100
AcDb2dVertex
 10
13587.6403425349
 20
-4267.362588312873
 30
0.0
  0
VERTEX
  5
356A8C
330
356A8A
100
AcDbEntity
  8
姿図
100
AcDbVertex
100
AcDb2dVertex
 10
13589.7554603034
 20
-4267.659900249385
 30
0.0
  0
SEQEND
  5
356A8D
330
356A8A
100
AcDbEntity
  8
姿図
  0
POLYLINE
  5
356A8E
330
18
100
AcDbEntity
  8
姿図
100
AcDb2dPolyline
 66
     1
 10
0.0
 20
0.0
 30
0.0
  0
VERTEX
  5
356A8F
330
356A8E
100
AcDbEntity
  8
姿図
100
AcDbVertex
100
AcDb2dVertex
 10
13595.88532274414
 20
-4269.503372059668
 30
0.0
  0
VERTEX
  5
356A90
330
356A8E
100
AcDbEntity
  8
姿図
100
AcDbVertex
100
AcDb2dVertex
 10
13597.73706278905
 20
-4269.76382145017
 30
0.0
  0
SEQEND
  5
356A91
330
356A8E
100
AcDbEntity
  8
姿図
  0
POLYLINE
  5
356A92
330
18
100
AcDbEntity
  8
姿図
100
AcDb2dPolyline
 66
     1
 10
0.0
 20
0.0
 30
0.0
  0
VERTEX
  5
356A93
330
356A92
100
AcDbEntity
  8
姿図
100
AcDbVertex
100
AcDb2dVertex
 10
13587.64068704467
 20
-4268.344096664116
 30
0.0
  0
VERTEX
  5
356A94
330
356A92
100
AcDbEntity
  8
姿図
100
AcDbVertex
100
AcDb2dVertex
 10
13589.75580481318
 20
-4268.641408600625
 30
0.0
  0
SEQEND
  5
356A95
330
356A92
100
AcDbEntity
  8
姿図
  0
POLYLINE
  5
356A96
330
18
100
AcDbEntity
  8
姿図
100
AcDb2dPolyline
 66
     1
 10
0.0
 20
0.0
 30
0.0
  0
VERTEX
  5
356A97
330
356A96
100
AcDbEntity
  8
姿図
100
AcDbVertex
100
AcDb2dVertex
 10
13595.88532274414
 20
-4270.569974325535
 30
0.0
  0
VERTEX
  5
356A98
330
356A96
100
AcDbEntity
  8
姿図
100
AcDbVertex
100
AcDb2dVertex
 10
13597.73706278905
 20
-4270.830423716036
 30
0.0
  0
SEQEND
  5
356A99
330
356A96
100
AcDbEntity
  8
姿図
  0
POLYLINE
  5
356A9A
330
18
100
AcDbEntity
  8
姿図
100
AcDb2dPolyline
 66
     1
 10
0.0
 20
0.0
 30
0.0
  0
VERTEX
  5
356A9B
330
356A9A
100
AcDbEntity
  8
姿図
100
AcDbVertex
100
AcDb2dVertex
 10
13587.64068704467
 20
-4269.410698929979
 30
0.0
  0
VERTEX
  5
356A9C
330
356A9A
100
AcDbEntity
  8
姿図
100
AcDbVertex
100
AcDb2dVertex
 10
13589.75580481318
 20
-4269.708010866491
 30
0.0
  0
SEQEND
  5
356A9D
330
356A9A
100
AcDbEntity
  8
姿図
  0
POLYLINE
  5
356A9E
330
18
100
AcDbEntity
  8
姿図
100
AcDb2dPolyline
 66
     1
 10
0.0
 20
0.0
 30
0.0
  0
VERTEX
  5
356A9F
330
356A9E
100
AcDbEntity
  8
姿図
100
AcDbVertex
100
AcDb2dVertex
 10
13595.88532274414
 20
-4271.524955424039
 30
0.0
  0
VERTEX
  5
356AA0
330
356A9E
100
AcDbEntity
  8
姿図
100
AcDbVertex
100
AcDb2dVertex
 10
13597.73706278905
 20
-4271.785404814541
 30
0.0
  0
SEQEND
  5
356AA1
330
356A9E
100
AcDbEntity
  8
姿図
  0
POLYLINE
  5
356AA2
330
18
100
AcDbEntity
  8
姿図
100
AcDb2dPolyline
 66
     1
 10
0.0
 20
0.0
 30
0.0
  0
VERTEX
  5
356AA3
330
356AA2
100
AcDbEntity
  8
姿図
100
AcDbVertex
100
AcDb2dVertex
 10
13587.64068704467
 20
-4270.365680028483
 30
0.0
  0
VERTEX
  5
356AA4
330
356AA2
100
AcDbEntity
  8
姿図
100
AcDbVertex
100
AcDb2dVertex
 10
13589.75580481318
 20
-4270.662991964996
 30
0.0
  0
SEQEND
  5
356AA5
330
356AA2
100
AcDbEntity
  8
姿図
  0
POLYLINE
  5
356AA6
330
18
100
AcDbEntity
  8
姿図
100
AcDb2dPolyline
 66
     1
 10
0.0
 20
0.0
 30
0.0
  0
VERTEX
  5
356AA7
330
356AA6
100
AcDbEntity
  8
姿図
100
AcDbVertex
100
AcDb2dVertex
 10
13595.88532274414
 20
-4272.591557689905
 30
0.0
  0
VERTEX
  5
356AA8
330
356AA6
100
AcDbEntity
  8
姿図
100
AcDbVertex
100
AcDb2dVertex
 10
13597.73706278905
 20
-4272.852007080407
 30
0.0
  0
SEQEND
  5
356AA9
330
356AA6
100
AcDbEntity
  8
姿図
  0
POLYLINE
  5
356AAA
330
18
100
AcDbEntity
  8
姿図
100
AcDb2dPolyline
 66
     1
 10
0.0
 20
0.0
 30
0.0
  0
VERTEX
  5
356AAB
330
356AAA
100
AcDbEntity
  8
姿図
100
AcDbVertex
100
AcDb2dVertex
 10
13587.64068704467
 20
-4271.432282294353
 30
0.0
  0
VERTEX
  5
356AAC
330
356AAA
100
AcDbEntity
  8
姿図
100
AcDbVertex
100
AcDb2dVertex
 10
13589.75580481318
 20
-4271.729594230862
 30
0.0
  0
SEQEND
  5
356AAD
330
356AAA
100
AcDbEntity
  8
姿図
  0
POLYLINE
  5
356AAE
330
18
100
AcDbEntity
  8
姿図
100
AcDb2dPolyline
 66
     1
 10
0.0
 20
0.0
 30
0.0
  0
VERTEX
  5
356AAF
330
356AAE
100
AcDbEntity
  8
姿図
100
AcDbVertex
100
AcDb2dVertex
 10
13595.88497823436
 20
-4273.5424046711
 30
0.0
  0
VERTEX
  5
356AB0
330
356AAE
100
AcDbEntity
  8
姿図
100
AcDbVertex
100
AcDb2dVertex
 10
13597.73671827927
 20
-4273.802854061602
 30
0.0
  0
SEQEND
  5
356AB1
330
356AAE
100
AcDbEntity
  8
姿図
  0
POLYLINE
  5
356AB2
330
18
100
AcDbEntity
  8
姿図
100
AcDb2dPolyline
 66
     1
 10
0.0
 20
0.0
 30
0.0
  0
VERTEX
  5
356AB3
330
356AB2
100
AcDbEntity
  8
姿図
100
AcDbVertex
100
AcDb2dVertex
 10
13587.64068704467
 20
-4272.383129275549
 30
0.0
  0
VERTEX
  5
356AB4
330
356AB2
100
AcDbEntity
  8
姿図
100
AcDbVertex
100
AcDb2dVertex
 10
13589.75580481318
 20
-4272.680441212061
 30
0.0
  0
SEQEND
  5
356AB5
330
356AB2
100
AcDbEntity
  8
姿図
  0
POLYLINE
  5
356AB6
330
18
100
AcDbEntity
  8
姿図
100
AcDb2dPolyline
 66
     1
 10
0.0
 20
0.0
 30
0.0
  0
VERTEX
  5
356AB7
330
356AB6
100
AcDbEntity
  8
姿図
100
AcDbVertex
100
AcDb2dVertex
 10
13575.36511471351
 20
-4272.244636345679
 30
0.0
  0
VERTEX
  5
356AB8
330
356AB6
100
AcDbEntity
  8
姿図
100
AcDbVertex
100
AcDb2dVertex
 10
13575.57078704966
 20
-4272.591557689905
 30
0.0
  0
VERTEX
  5
356AB9
330
356AB6
100
AcDbEntity
  8
姿図
100
AcDbVertex
100
AcDb2dVertex
 10
13575.57078704966
 20
-4275.1095796412
 30
0.0
  0
SEQEND
  5
356ABA
330
356AB6
100
AcDbEntity
  8
姿図
  0
POLYLINE
  5
356ABB
330
18
100
AcDbEntity
  8
姿図
100
AcDb2dPolyline
 66
     1
 10
0.0
 20
0.0
 30
0.0
  0
VERTEX
  5
356ABC
330
356ABB
100
AcDbEntity
  8
姿図
100
AcDbVertex
100
AcDb2dVertex
 10
13575.36511471351
 20
-4275.052735528191
 30
0.0
  0
VERTEX
  5
356ABD
330
356ABB
100
AcDbEntity
  8
姿図
100
AcDbVertex
100
AcDb2dVertex
 10
13575.36511471351
 20
-4272.244636345679
 30
0.0
  0
SEQEND
  5
356ABE
330
356ABB
100
AcDbEntity
  8
姿図
  0
POLYLINE
  5
356ABF
330
18
100
AcDbEntity
  8
姿図
100
AcDb2dPolyline
 66
     1
 10
0.0
 20
0.0
 30
0.0
  0
VERTEX
  5
356AC0
330
356ABF
100
AcDbEntity
  8
姿図
100
AcDbVertex
100
AcDb2dVertex
 10
13581.2152352163
 20
-4272.244636345679
 30
0.0
  0
VERTEX
  5
356AC1
330
356ABF
100
AcDbEntity
  8
姿図
100
AcDbVertex
100
AcDb2dVertex
 10
13581.2152352163
 20
-4275.052735528191
 30
0.0
  0
SEQEND
  5
356AC2
330
356ABF
100
AcDbEntity
  8
姿図
  0
POLYLINE
  5
356AC3
330
18
100
AcDbEntity
  8
姿図
100
AcDb2dPolyline
 66
     1
 10
0.0
 20
0.0
 30
0.0
  0
VERTEX
  5
356AC4
330
356AC3
100
AcDbEntity
  8
姿図
100
AcDbVertex
100
AcDb2dVertex
 10
13580.86245720588
 20
-4275.066171409449
 30
0.0
  0
VERTEX
  5
356AC5
330
356AC3
100
AcDbEntity
  8
姿図
100
AcDbVertex
100
AcDb2dVertex
 10
13580.86245720588
 20
-4272.531612988917
 30
0.0
  0
VERTEX
  5
356AC6
330
356AC3
100
AcDbEntity
  8
姿図
100
AcDbVertex
100
AcDb2dVertex
 10
13581.2152352163
 20
-4272.244636345679
 30
0.0
  0
SEQEND
  5
356AC7
330
356AC3
100
AcDbEntity
  8
姿図
  0
POLYLINE
  5
356AC8
330
18
100
AcDbEntity
  8
姿図
100
AcDb2dPolyline
 66
     1
 10
0.0
 20
0.0
 30
0.0
  0
VERTEX
  5
356AC9
330
356AC8
100
AcDbEntity
  8
姿図
100
AcDbVertex
100
AcDb2dVertex
 10
13575.80608722652
 20
-4275.052735528191
 30
0.0
  0
VERTEX
  5
356ACA
330
356AC8
100
AcDbEntity
  8
姿図
100
AcDbVertex
100
AcDb2dVertex
 10
13575.80608722652
 20
-4273.181013916294
 30
0.0
  0
VERTEX
  5
356ACB
330
356AC8
100
AcDbEntity
  8
姿図
100
AcDbVertex
100
AcDb2dVertex
 10
13576.09995406528
 20
-4269.959503002824
 30
0.0
  0
VERTEX
  5
356ACC
330
356AC8
100
AcDbEntity
  8
姿図
100
AcDbVertex
100
AcDb2dVertex
 10
13576.21760415372
 20
-4269.094783465574
 30
0.0
  0
VERTEX
  5
356ACD
330
356AC8
100
AcDbEntity
  8
姿図
100
AcDbVertex
100
AcDb2dVertex
 10
13576.21760415372
 20
-4266.44481427015
 30
0.0
  0
VERTEX
  5
356ACE
330
356AC8
100
AcDbEntity
  8
姿図
100
AcDbVertex
100
AcDb2dVertex
 10
13576.51164324736
 20
-4265.978692543499
 30
0.0
  0
VERTEX
  5
356ACF
330
356AC8
100
AcDbEntity
  8
姿図
100
AcDbVertex
100
AcDb2dVertex
 10
13580.6273292839
 20
-4266.112706846284
 30
0.0
  0
VERTEX
  5
356AD0
330
356AC8
100
AcDbEntity
  8
姿図
100
AcDbVertex
100
AcDb2dVertex
 10
13581.03884621109
 20
-4266.295986047006
 30
0.0
  0
VERTEX
  5
356AD1
330
356AC8
100
AcDbEntity
  8
姿図
100
AcDbVertex
100
AcDb2dVertex
 10
13580.86245720588
 20
-4269.124066796517
 30
0.0
  0
VERTEX
  5
356AD2
330
356AC8
100
AcDbEntity
  8
姿図
100
AcDbVertex
100
AcDb2dVertex
 10
13580.6273292839
 20
-4273.210641757013
 30
0.0
  0
VERTEX
  5
356AD3
330
356AC8
100
AcDbEntity
  8
姿図
100
AcDbVertex
100
AcDb2dVertex
 10
13580.68606820068
 20
-4275.052735528191
 30
0.0
  0
SEQEND
  5
356AD4
330
356AC8
100
AcDbEntity
  8
姿図
  0
POLYLINE
  5
356AD5
330
18
100
AcDbEntity
  8
姿図
100
AcDb2dPolyline
 66
     1
 10
0.0
 20
0.0
 30
0.0
  0
VERTEX
  5
356AD6
330
356AD5
100
AcDbEntity
  8
姿図
100
AcDbVertex
100
AcDb2dVertex
 10
13576.21760415372
 20
-4269.094783465574
 30
0.0
  0
VERTEX
  5
356AD7
330
356AD5
100
AcDbEntity
  8
姿図
100
AcDbVertex
100
AcDb2dVertex
 10
13580.86245720588
 20
-4269.124066796517
 30
0.0
  0
SEQEND
  5
356AD8
330
356AD5
100
AcDbEntity
  8
姿図
  0
POLYLINE
  5
356AD9
330
18
100
AcDbEntity
  8
姿図
100
AcDb2dPolyline
 66
     1
 10
0.0
 20
0.0
 30
0.0
  0
VERTEX
  5
356ADA
330
356AD9
100
AcDbEntity
  8
姿図
100
AcDbVertex
100
AcDb2dVertex
 10
13575.80608722652
 20
-4273.992334438294
 30
0.0
  0
VERTEX
  5
356ADB
330
356AD9
100
AcDbEntity
  8
姿図
100
AcDbVertex
100
AcDb2dVertex
 10
13580.65230624265
 20
-4273.992334438294
 30
0.0
  0
SEQEND
  5
356ADC
330
356AD9
100
AcDbEntity
  8
姿図
  0
POLYLINE
  5
356ADD
330
18
100
AcDbEntity
  8
姿図
100
AcDb2dPolyline
 66
     1
 10
0.0
 20
0.0
 30
0.0
  0
VERTEX
  5
356ADE
330
356ADD
100
AcDbEntity
  8
姿図
100
AcDbVertex
100
AcDb2dVertex
 10
13595.88463372459
 20
-4273.750833085457
 30
0.0
  0
VERTEX
  5
356ADF
330
356ADD
100
AcDbEntity
  8
姿図
100
AcDbVertex
100
AcDb2dVertex
 10
13597.7363737695
 20
-4274.011282475959
 30
0.0
  0
SEQEND
  5
356AE0
330
356ADD
100
AcDbEntity
  8
姿図
  0
POLYLINE
  5
356AE1
330
18
100
AcDbEntity
  8
姿図
100
AcDb2dPolyline
 66
     1
 10
0.0
 20
0.0
 30
0.0
  0
VERTEX
  5
356AE2
330
356AE1
100
AcDbEntity
  8
姿図
100
AcDbVertex
100
AcDb2dVertex
 10
13587.6403425349
 20
-4272.591557689905
 30
0.0
  0
VERTEX
  5
356AE3
330
356AE1
100
AcDbEntity
  8
姿図
100
AcDbVertex
100
AcDb2dVertex
 10
13589.7554603034
 20
-4272.888869626418
 30
0.0
  0
SEQEND
  5
356AE4
330
356AE1
100
AcDbEntity
  8
姿図
  0
SPLINE
  5
356AE5
330
18
100
AcDbEntity
  8
姿図
100
AcDbSpline
210
0.0
220
0.0
230
1.0
 70
     8
 71
     3
 72
    14
 73
    10
 74
     0
 42
0.000000001
 43
0.0000000001
 40
0.0
 40
0.0
 40
0.0
 40
0.0
 40
1.0
 40
1.0
 40
1.0
 40
2.0
 40
2.0
 40
2.0
 40
3.0
 40
3.0
 40
3.0
 40
3.0
 10
13553.17265623115
 20
-4282.94648802101
 30
0.0
 10
13553.17265623115
 20
-4282.94648802101
 30
0.0
 10
13553.17265623115
 20
-4276.700181276049
 30
0.0
 10
13553.17265623115
 20
-4276.700181276049
 30
0.0
 10
13553.17265623115
 20
-4276.700181276049
 30
0.0
 10
13553.34525562882
 20
-4276.862100870675
 30
0.0
 10
13553.34525562882
 20
-4276.862100870675
 30
0.0
 10
13553.91662509199
 20
-4276.463158550304
 30
0.0
 10
13554.64440199335
 20
-4276.081097208945
 30
0.0
 10
13555.51153309903
 20
-4275.720739983461
 30
0.0
  0
POLYLINE
  5
356AE6
330
18
100
AcDbEntity
  8
姿図
100
AcDb2dPolyline
 66
     1
 10
0.0
 20
0.0
 30
0.0
  0
VERTEX
  5
356AE7
330
356AE6
100
AcDbEntity
  8
姿図
100
AcDbVertex
100
AcDb2dVertex
 10
13555.51153309904
 20
-4281.831998896308
 30
0.0
  0
VERTEX
  5
356AE8
330
356AE6
100
AcDbEntity
  8
姿図
100
AcDbVertex
100
AcDb2dVertex
 10
13555.51153309904
 20
-4275.473381964442
 30
0.0
  0
SEQEND
  5
356AE9
330
356AE6
100
AcDbEntity
  8
姿図
  0
POLYLINE
  5
356AEA
330
18
100
AcDbEntity
  8
姿図
100
AcDb2dPolyline
 66
     1
 10
0.0
 20
0.0
 30
0.0
  0
VERTEX
  5
356AEB
330
356AEA
100
AcDbEntity
  8
姿図
100
AcDbVertex
100
AcDb2dVertex
 10
13553.34577239349
 20
-4282.823842540826
 30
0.0
  0
VERTEX
  5
356AEC
330
356AEA
100
AcDbEntity
  8
姿図
100
AcDbVertex
100
AcDb2dVertex
 10
13553.34525562882
 20
-4276.862100870675
 30
0.0
  0
SEQEND
  5
356AED
330
356AEA
100
AcDbEntity
  8
姿図
  0
SPLINE
  5
356AEE
330
18
100
AcDbEntity
  8
姿図
100
AcDbSpline
210
0.0
220
0.0
230
1.0
 70
    11
 71
     3
 72
    17
 73
    13
 74
     0
 42
0.000000001
 43
0.0000000001
 40
0.0
 40
0.0
 40
0.0
 40
0.0
 40
1.0
 40
1.0
 40
1.0
 40
2.0
 40
2.0
 40
2.0
 40
3.0
 40
3.0
 40
3.0
 40
4.0
 40
4.0
 40
4.0
 40
4.0
 10
13579.0987394087
 20
-4276.578913834967
 30
0.0
 10
13579.0987394087
 20
-4277.189385157678
 30
0.0
 10
13578.61832052635
 20
-4277.684101195725
 30
0.0
 10
13578.02559145708
 20
-4277.684101195725
 30
0.0
 10
13577.43303464271
 20
-4277.684101195725
 30
0.0
 10
13576.95261576037
 20
-4277.189385157678
 30
0.0
 10
13576.95261576037
 20
-4276.578913834967
 30
0.0
 10
13576.95261576037
 20
-4275.968442512257
 30
0.0
 10
13577.43303464271
 20
-4275.473381964442
 30
0.0
 10
13578.02559145708
 20
-4275.473381964442
 30
0.0
 10
13578.61832052635
 20
-4275.473381964442
 30
0.0
 10
13579.0987394087
 20
-4275.968442512257
 30
0.0
 10
13579.0987394087
 20
-4276.578913834967
 30
0.0
  0
SPLINE
  5
356AEF
330
18
100
AcDbEntity
  8
姿図
100
AcDbSpline
210
0.0
220
0.0
230
1.0
 70
    11
 71
     3
 72
    17
 73
    13
 74
     0
 42
0.000000001
 43
0.0000000001
 40
0.0
 40
0.0
 40
0.0
 40
0.0
 40
1.0
 40
1.0
 40
1.0
 40
2.0
 40
2.0
 40
2.0
 40
3.0
 40
3.0
 40
3.0
 40
4.0
 40
4.0
 40
4.0
 40
4.0
 10
13554.84197834977
 20
-4279.394936742329
 30
0.0
 10
13554.84197834977
 20
-4279.862781017861
 30
0.0
 10
13554.61305160376
 20
-4280.241397261459
 30
0.0
 10
13554.3305535876
 20
-4280.241397261459
 30
0.0
 10
13554.04822782633
 20
-4280.241397261459
 30
0.0
 10
13553.81930108032
 20
-4279.862781017861
 30
0.0
 10
13553.81930108032
 20
-4279.394936742329
 30
0.0
 10
13553.81930108032
 20
-4278.927092466797
 30
0.0
 10
13554.04822782633
 20
-4278.54744269387
 30
0.0
 10
13554.3305535876
 20
-4278.54744269387
 30
0.0
 10
13554.61305160376
 20
-4278.54744269387
 30
0.0
 10
13554.84197834977
 20
-4278.927092466797
 30
0.0
 10
13554.84197834977
 20
-4279.394936742329
 30
0.0
  0
SPLINE
  5
356AF0
330
18
100
AcDbEntity
  8
姿図
100
AcDbSpline
210
0.0
220
0.0
230
1.0
 70
     8
 71
     3
 72
    11
 73
     7
 74
     0
 42
0.000000001
 43
0.0000000001
 40
0.0177841538141521
 40
0.0177841538141521
 40
0.0177841538141521
 40
0.0177841538141521
 40
1.0
 40
1.0
 40
1.0
 40
2.0
 40
2.0
 40
2.0
 40
2.0
 10
13598.57491056378
 20
-4270.376224341532
 30
0.0
 10
13601.75453177538
 20
-4271.501457717563
 30
0.0
 10
13603.64402740484
 20
-4272.908596216962
 30
0.0
 10
13603.64402740484
 20
-4274.43571851974
 30
0.0
 10
13603.64402740484
 20
-4274.43571851974
 30
0.0
 10
13603.75633759175
 20
-4275.472692944891
 30
0.0
 10
13603.75633759175
 20
-4275.472692944891
 30
0.0
  0
SPLINE
  5
356AF1
330
18
100
AcDbEntity
  8
姿図
100
AcDbSpline
210
0.0
220
0.0
230
1.0
 70
     8
 71
     3
 72
     8
 73
     4
 74
     0
 42
0.000000001
 43
0.0000000001
 40
0.0429338572720254
 40
0.0429338572720254
 40
0.0429338572720254
 40
0.0429338572720254
 40
0.9627820851313001
 40
0.9627820851313001
 40
0.9627820851313001
 40
0.9627820851313001
 10
13589.75563255828
 20
-4268.422768721145
 30
0.0
 10
13591.72815134322
 20
-4268.682763860178
 30
0.0
 10
13593.55364176213
 20
-4269.011876088381
 30
0.0
 10
13595.18906848725
 20
-4269.39830755889
 30
0.0
  0
SPLINE
  5
356AF2
330
18
100
AcDbEntity
  8
姿図
100
AcDbSpline
210
0.0
220
0.0
230
1.0
 70
     8
 71
     3
 72
     8
 73
     4
 74
     0
 42
0.000000001
 43
0.0000000001
 40
0.0337209777340356
 40
0.0337209777340356
 40
0.0337209777340356
 40
0.0337209777340356
 40
0.9482096915739546
 40
0.9482096915739546
 40
0.9482096915739546
 40
0.9482096915739546
 10
13580.9466190099
 20
-4267.774683497303
 30
0.0
 10
13582.50785046428
 20
-4267.807834591443
 30
0.0
 10
13584.02824132818
 20
-4267.880330448544
 30
0.0
 10
13585.49409099033
 20
-4267.988745915797
 30
0.0
  0
SPLINE
  5
356AF3
330
18
100
AcDbEntity
  8
姿図
100
AcDbSpline
210
0.0
220
0.0
230
1.0
 70
     8
 71
     3
 72
     8
 73
     4
 74
     0
 42
0.000000001
 43
0.0000000001
 40
0.0
 40
0.0
 40
0.0
 40
0.0
 40
0.9939977676181887
 40
0.9939977676181887
 40
0.9939977676181887
 40
0.9939977676181887
 10
13554.46939102724
 20
-4273.752555634338
 30
0.0
 10
13555.63883027988
 20
-4270.630512393839
 30
0.0
 10
13564.73587186081
 20
-4268.144311194955
 30
0.0
 10
13576.21760415371
 20
-4267.795858624889
 30
0.0
  0
SPLINE
  5
356AF4
330
18
100
AcDbEntity
  8
姿図
100
AcDbSpline
210
0.0
220
0.0
230
1.0
 70
     8
 71
     3
 72
    11
 73
     7
 74
     0
 42
0.000000001
 43
0.0000000001
 40
0.0168150952309215
 40
0.0168150952309215
 40
0.0168150952309215
 40
0.0168150952309215
 40
1.0
 40
1.0
 40
1.0
 40
1.738580224607456
 40
1.738580224607456
 40
1.738580224607456
 40
1.738580224607456
 10
13598.57491056378
 20
-4271.37365349966
 30
0.0
 10
13601.82248316005
 20
-4272.505470016046
 30
0.0
 10
13603.75633759175
 20
-4273.927805569426
 30
0.0
 10
13603.75633759175
 20
-4275.472692944891
 30
0.0
 10
13603.75633759175
 20
-4275.624852913224
 30
0.0
 10
13603.7375445577
 20
-4275.775697369178
 30
0.0
 10
13603.70065249778
 20
-4275.925226312752
 30
0.0
  0
SPLINE
  5
356AF5
330
18
100
AcDbEntity
  8
姿図
100
AcDbSpline
210
0.0
220
0.0
230
1.0
 70
     8
 71
     3
 72
     8
 73
     4
 74
     0
 42
0.000000001
 43
0.0000000001
 40
0.0201650784242251
 40
0.0201650784242251
 40
0.0201650784242251
 40
0.0201650784242251
 40
0.9670042286756176
 40
0.9670042286756176
 40
0.9670042286756176
 40
0.9670042286756176
 10
13589.75563255828
 20
-4269.444880238537
 30
0.0
 10
13591.72605038562
 20
-4269.700949486089
 30
0.0
 10
13593.55133008032
 20
-4270.02595925156
 30
0.0
 10
13595.18906848725
 20
-4270.408504548387
 30
0.0
  0
SPLINE
  5
356AF6
330
18
100
AcDbEntity
  8
姿図
100
AcDbSpline
210
0.0
220
0.0
230
1.0
 70
     8
 71
     3
 72
     8
 73
     4
 74
     0
 42
0.000000001
 43
0.0000000001
 40
0.0328157894195067
 40
0.0328157894195067
 40
0.0328157894195067
 40
0.0328157894195067
 40
0.9610832932124469
 40
0.9610832932124469
 40
0.9610832932124469
 40
0.9610832932124469
 10
13580.88216306777
 20
-4268.808118710141
 30
0.0
 10
13582.45685093374
 20
-4268.838470582562
 30
0.0
 10
13583.99067424531
 20
-4268.90904893399
 30
0.0
 10
13585.46971706818
 20
-4269.015720318591
 30
0.0
  0
SPLINE
  5
356AF7
330
18
100
AcDbEntity
  8
姿図
100
AcDbSpline
210
0.0
220
0.0
230
1.0
 70
     8
 71
     3
 72
    11
 73
     7
 74
     0
 42
0.000000001
 43
0.0000000001
 40
0.0
 40
0.0
 40
0.0
 40
0.0
 40
1.0
 40
1.0
 40
1.0
 40
1.99362122935854
 40
1.99362122935854
 40
1.99362122935854
 40
1.99362122935854
 10
13554.58170121416
 20
-4276.156200340068
 30
0.0
 10
13554.49746857398
 20
-4275.931579966246
 30
0.0
 10
13554.454404852
 20
-4275.703514494674
 30
0.0
 10
13554.454404852
 20
-4275.472692944891
 30
0.0
 10
13554.454404852
 20
-4272.047174489776
 30
0.0
 10
13563.96389299266
 20
-4269.22368382617
 30
0.0
 10
13576.21760415371
 20
-4268.836324950865
 30
0.0
  0
SPLINE
  5
356AF8
330
18
100
AcDbEntity
  8
姿図
100
AcDbSpline
210
0.0
220
0.0
230
1.0
 70
     8
 71
     3
 72
     8
 73
     4
 74
     0
 42
0.000000001
 43
0.0000000001
 40
0.0217309703158566
 40
0.0217309703158566
 40
0.0217309703158566
 40
0.0217309703158566
 40
0.9545608380401536
 40
0.9545608380401536
 40
0.9545608380401536
 40
0.9545608380401536
 10
13598.57491056378
 20
-4272.23693497397
 30
0.0
 10
13601.0821369787
 20
-4273.191065726965
 30
0.0
 10
13602.65888041108
 20
-4274.336908302869
 30
0.0
 10
13602.94663446814
 20
-4275.577984772269
 30
0.0
  0
SPLINE
  5
356AF9
330
18
100
AcDbEntity
  8
姿図
100
AcDbSpline
210
0.0
220
0.0
230
1.0
 70
     8
 71
     3
 72
     8
 73
     4
 74
     0
 42
0.000000001
 43
0.0000000001
 40
0.0283790395874805
 40
0.0283790395874805
 40
0.0283790395874805
 40
0.0283790395874805
 40
0.9627154383661437
 40
0.9627154383661437
 40
0.9627154383661437
 40
0.9627154383661437
 10
13589.75563255828
 20
-4270.19284489447
 30
0.0
 10
13591.73958694069
 20
-4270.460916560055
 30
0.0
 10
13593.56646843275
 20
-4270.801961957451
 30
0.0
 10
13595.18906848725
 20
-4271.202492930322
 30
0.0
  0
SPLINE
  5
356AFA
330
18
100
AcDbEntity
  8
姿図
100
AcDbSpline
210
0.0
220
0.0
230
1.0
 70
     8
 71
     3
 72
     8
 73
     4
 74
     0
 42
0.000000001
 43
0.0000000001
 40
0.0461490716095607
 40
0.0461490716095607
 40
0.0461490716095607
 40
0.0461490716095607
 40
0.9584772266904018
 40
0.9584772266904018
 40
0.9584772266904018
 40
0.9584772266904018
 10
13580.83899385646
 20
-4269.531864966203
 30
0.0
 10
13582.42462182774
 20
-4269.562834712287
 30
0.0
 10
13583.96747336829
 20
-4269.635745003357
 30
0.0
 10
13585.45237508263
 20
-4269.746410075141
 30
0.0
  0
SPLINE
  5
356AFB
330
18
100
AcDbEntity
  8
姿図
100
AcDbSpline
210
0.0
220
0.0
230
1.0
 70
     8
 71
     3
 72
     8
 73
     4
 74
     0
 42
0.000000001
 43
0.0000000001
 40
0.0
 40
0.0
 40
0.0
 40
0.0
 40
0.995728884850181
 40
0.995728884850181
 40
0.995728884850181
 40
0.995728884850181
 10
13555.21628822117
 20
-4275.990491137908
 30
0.0
 10
13555.21628822117
 20
-4272.68497374307
 30
0.0
 10
13564.35285839015
 20
-4269.958081312851
 30
0.0
 10
13576.15379403176
 20
-4269.563783190591
 30
0.0
  0
POLYLINE
  5
356AFC
330
18
100
AcDbEntity
  8
姿図
100
AcDb2dPolyline
 66
     1
 10
0.0
 20
0.0
 30
0.0
  0
VERTEX
  5
356AFD
330
356AFC
100
AcDbEntity
  8
姿図
100
AcDbVertex
100
AcDb2dVertex
 10
13554.454404852
 20
-4275.472692944891
 30
0.0
  0
VERTEX
  5
356AFE
330
356AFC
100
AcDbEntity
  8
姿図
100
AcDbVertex
100
AcDb2dVertex
 10
13554.454404852
 20
-4273.796997395416
 30
0.0
  0
SEQEND
  5
356AFF
330
356AFC
100
AcDbEntity
  8
姿図
  0
SPLINE
  5
356B00
330
18
100
AcDbEntity
  8
姿図
100
AcDbSpline
210
0.0
220
0.0
230
1.0
 70
     8
 71
     3
 72
     8
 73
     4
 74
     0
 42
0.000000001
 43
0.0000000001
 40
0.0499479031751321
 40
0.0499479031751321
 40
0.0499479031751321
 40
0.0499479031751321
 40
0.865976923597193
 40
0.865976923597193
 40
0.865976923597193
 40
0.865976923597193
 10
13585.57419638341
 20
-4264.61357356069
 30
0.0
 10
13584.61391376417
 20
-4266.154650158674
 30
0.0
 10
13582.75563639128
 20
-4266.858365880954
 30
0.0
 10
13581.03245723969
 20
-4266.398421723216
 30
0.0
  0
SPLINE
  5
356B01
330
18
100
AcDbEntity
  8
姿図
100
AcDbSpline
210
0.0
220
0.0
230
1.0
 70
     8
 71
     3
 72
    11
 73
     7
 74
     0
 42
0.000000001
 43
0.0000000001
 40
0.9921845560470695
 40
0.9921845560470695
 40
0.9921845560470695
 40
0.9921845560470695
 40
1.0
 40
1.0
 40
1.0
 40
2.0
 40
2.0
 40
2.0
 40
2.0
 10
13580.24644940038
 20
-4266.100304697141
 30
0.0
 10
13580.23058270883
 20
-4266.092377531476
 30
0.0
 10
13580.21474306541
 20
-4266.084338997995
 30
0.0
 10
13580.1989313777
 20
-4266.076188810049
 30
0.0
 10
13578.17596997422
 20
-4265.033357718715
 30
0.0
 10
13577.37653503949
 20
-4262.557365960066
 30
0.0
 10
13578.41368171952
 20
-4260.54508435964
 30
0.0
  0
SPLINE
  5
356B02
330
18
100
AcDbEntity
  8
姿図
100
AcDbSpline
210
0.0
220
0.0
230
1.0
 70
     8
 71
     3
 72
    11
 73
     7
 74
     0
 42
0.000000001
 43
0.0000000001
 40
0.3022029280564161
 40
0.3022029280564161
 40
0.3022029280564161
 40
0.3022029280564161
 40
1.0
 40
1.0
 40
1.0
 40
2.0
 40
2.0
 40
2.0
 40
2.0
 10
13617.11016251963
 20
-4218.207345244547
 30
0.0
 10
13617.3674179114
 20
-4218.353699055809
 30
0.0
 10
13617.52191470324
 20
-4218.441683385153
 30
0.0
 10
13617.52191470324
 20
-4218.441683385153
 30
0.0
 10
13617.52191470324
 20
-4218.441683385153
 30
0.0
 10
13618.16098033734
 20
-4218.841486979963
 30
0.0
 10
13617.3417360905
 20
-4219.992666395784
 30
0.0
  0
SPLINE
  5
356B03
330
18
100
AcDbEntity
  8
姿図
100
AcDbSpline
210
0.0
220
0.0
230
1.0
 70
     8
 71
     3
 72
    14
 73
    10
 74
     0
 42
0.000000001
 43
0.0000000001
 40
0.0
 40
0.0
 40
0.0
 40
0.0
 40
1.0
 40
1.0
 40
1.0
 40
2.0
 40
2.0
 40
2.0
 40
2.842101734482696
 40
2.842101734482696
 40
2.842101734482696
 40
2.842101734482696
 10
13578.41368171952
 20
-4260.54508435964
 30
0.0
 10
13578.41368171952
 20
-4260.54508435964
 30
0.0
 10
13611.05443268221
 20
-4215.384331379845
 30
0.0
 10
13611.05443268221
 20
-4215.384331379845
 30
0.0
 10
13611.05443268221
 20
-4215.384331379845
 30
0.0
 10
13611.34829952097
 20
-4214.972814452659
 30
0.0
 10
13612.11276671347
 20
-4215.384331379845
 30
0.0
 10
13612.19341792723
 20
-4215.42784822181
 30
0.0
 10
13612.31755526261
 20
-4215.496284077274
 30
0.0
 10
13612.4748922762
 20
-4215.583878537956
 30
0.0
  0
POLYLINE
  5
356B04
330
18
100
AcDbEntity
  8
姿図
100
AcDb2dPolyline
 66
     1
 10
0.0
 20
0.0
 30
0.0
  0
VERTEX
  5
356B05
330
356B04
100
AcDbEntity
  8
姿図
100
AcDbVertex
100
AcDb2dVertex
 10
13589.75563255828
 20
-4258.746505075304
 30
0.0
  0
VERTEX
  5
356B06
330
356B04
100
AcDbEntity
  8
姿図
100
AcDbVertex
100
AcDb2dVertex
 10
13617.3417360905
 20
-4219.992666395784
 30
0.0
  0
SEQEND
  5
356B07
330
356B04
100
AcDbEntity
  8
姿図
  0
POLYLINE
  5
356B08
330
18
100
AcDbEntity
  8
姿図
100
AcDb2dPolyline
 66
     1
 10
0.0
 20
0.0
 30
0.0
  0
VERTEX
  5
356B09
330
356B08
100
AcDbEntity
  8
姿図
100
AcDbVertex
100
AcDb2dVertex
 10
13585.36209938756
 20
-4264.918980473146
 30
0.0
  0
VERTEX
  5
356B0A
330
356B08
100
AcDbEntity
  8
姿図
100
AcDbVertex
100
AcDb2dVertex
 10
13585.5740168989
 20
-4264.62113598773
 30
0.0
  0
SEQEND
  5
356B0B
330
356B08
100
AcDbEntity
  8
姿図
  0
SPLINE
  5
356B0C
330
18
100
AcDbEntity
  8
姿図
100
AcDbSpline
210
0.0
220
0.0
230
1.0
 70
    11
 71
     3
 72
    17
 73
    13
 74
     0
 42
0.000000001
 43
0.0000000001
 40
0.0
 40
0.0
 40
0.0
 40
0.0
 40
1.0
 40
1.0
 40
1.0
 40
2.0
 40
2.0
 40
2.0
 40
3.0
 40
3.0
 40
3.0
 40
4.0
 40
4.0
 40
4.0
 40
4.0
 10
13584.90682971884
 20
-4264.426331493759
 30
0.0
 10
13583.71224207127
 20
-4265.968357250221
 30
0.0
 10
13581.53717960178
 20
-4266.282550165749
 30
0.0
 10
13580.04786384101
 20
-4265.128786926608
 30
0.0
 10
13578.55872033513
 20
-4263.975023687467
 30
0.0
 10
13578.31911378607
 20
-4261.790142689369
 30
0.0
 10
13579.51335692386
 20
-4260.248805952458
 30
0.0
 10
13580.70794457143
 20
-4258.707124705767
 30
0.0
 10
13582.88317929582
 20
-4258.392931790239
 30
0.0
 10
13584.37249505658
 20
-4259.54669502938
 30
0.0
 10
13585.86163856246
 20
-4260.700458268525
 30
0.0
 10
13586.10090060175
 20
-4262.885339266623
 30
0.0
 10
13584.90682971884
 20
-4264.426331493759
 30
0.0
  0
SPLINE
  5
356B0D
330
18
100
AcDbEntity
  8
姿図
100
AcDbSpline
210
0.0
220
0.0
230
1.0
 70
    11
 71
     3
 72
    17
 73
    13
 74
     0
 42
0.000000001
 43
0.0000000001
 40
0.0
 40
0.0
 40
0.0
 40
0.0
 40
1.0
 40
1.0
 40
1.0
 40
2.0
 40
2.0
 40
2.0
 40
3.0
 40
3.0
 40
3.0
 40
4.0
 40
4.0
 40
4.0
 40
4.0
 10
13584.34390074519
 20
-4263.946429376078
 30
0.0
 10
13583.39615435198
 20
-4265.170128099703
 30
0.0
 10
13581.67102164968
 20
-4265.419208667604
 30
0.0
 10
13580.48969762847
 20
-4264.503501683538
 30
0.0
 10
13579.30854586216
 20
-4263.588483719023
 30
0.0
 10
13579.11872097569
 20
-4261.855599546771
 30
0.0
 10
13580.06577834935
 20
-4260.633278862245
 30
0.0
 10
13581.01335248768
 20
-4259.410269158167
 30
0.0
 10
13582.73865744487
 20
-4259.161188590267
 30
0.0
 10
13583.91980921119
 20
-4260.076206554781
 30
0.0
 10
13585.10113323239
 20
-4260.991224519296
 30
0.0
 10
13585.29078586396
 20
-4262.724108691548
 30
0.0
 10
13584.34390074519
 20
-4263.946429376078
 30
0.0
  0
SPLINE
  5
356B0E
330
18
100
AcDbEntity
  8
姿図
100
AcDbSpline
210
0.0
220
0.0
230
1.0
 70
    11
 71
     3
 72
    17
 73
    13
 74
     0
 42
0.000000001
 43
0.0000000001
 40
0.0
 40
0.0
 40
0.0
 40
0.0
 40
1.0
 40
1.0
 40
1.0
 40
2.0
 40
2.0
 40
2.0
 40
3.0
 40
3.0
 40
3.0
 40
4.0
 40
4.0
 40
4.0
 40
4.0
 10
13610.30202333188
 20
-4225.090205293355
 30
0.0
 10
13609.76389906209
 20
-4225.785770530684
 30
0.0
 10
13608.83372266743
 20
-4225.966293653203
 30
0.0
 10
13608.22531840338
 20
-4225.494659770137
 30
0.0
 10
13607.61691413932
 20
-4225.023025887075
 30
0.0
 10
13607.55972551654
 20
-4224.077691062291
 30
0.0
 10
13608.09750527655
 20
-4223.383331609172
 30
0.0
 10
13608.63631856591
 20
-4222.688283136503
 30
0.0
 10
13609.565805941
 20
-4222.507760013988
 30
0.0
 10
13610.17421020506
 20
-4222.979049387274
 30
0.0
 10
13610.78295897889
 20
-4223.450338760561
 30
0.0
 10
13610.8398030919
 20
-4224.395845840237
 30
0.0
 10
13610.30202333188
 20
-4225.090205293355
 30
0.0
  0
SPLINE
  5
356B0F
330
18
100
AcDbEntity
  8
姿図
100
AcDbSpline
210
0.0
220
0.0
230
1.0
 70
     8
 71
     3
 72
    26
 73
    22
 74
     0
 42
0.000000001
 43
0.0000000001
 40
0.0
 40
0.0
 40
0.0
 40
0.0
 40
1.0
 40
1.0
 40
1.0
 40
2.0
 40
2.0
 40
2.0
 40
3.0
 40
3.0
 40
3.0
 40
4.0
 40
4.0
 40
4.0
 40
5.0
 40
5.0
 40
5.0
 40
6.0
 40
6.0
 40
6.0
 40
7.0
 40
7.0
 40
7.0
 40
7.0
 10
13612.03421848458
 20
-4216.551702755135
 30
0.0
 10
13612.03421848458
 20
-4216.551702755135
 30
0.0
 10
13613.28857857825
 20
-4213.796830332979
 30
0.0
 10
13613.28857857825
 20
-4213.796830332979
 30
0.0
 10
13613.28857857825
 20
-4213.796830332979
 30
0.0
 10
13614.72380630423
 20
-4211.756815695599
 30
0.0
 10
13617.11022552116
 20
-4213.208924400583
 30
0.0
 10
13618.46277090093
 20
-4214.031958254959
 30
0.0
 10
13617.99251505697
 20
-4216.359121790464
 30
0.0
 10
13617.99251505697
 20
-4216.359121790464
 30
0.0
 10
13617.99251505697
 20
-4216.359121790464
 30
0.0
 10
13617.11022552116
 20
-4218.207244482724
 30
0.0
 10
13617.11022552116
 20
-4218.207244482724
 30
0.0
 10
13617.11022552116
 20
-4218.207244482724
 30
0.0
 10
13616.52249184365
 20
-4219.147239405981
 30
0.0
 10
13616.52249184365
 20
-4219.147239405981
 30
0.0
 10
13616.52249184365
 20
-4219.147239405981
 30
0.0
 10
13611.70107753139
 20
-4216.359121790464
 30
0.0
 10
13611.70107753139
 20
-4216.359121790464
 30
0.0
 10
13611.70107753139
 20
-4216.359121790464
 30
0.0
 10
13612.3229176767
 20
-4215.499569899849
 30
0.0
 10
13612.3229176767
 20
-4215.499569899849
 30
0.0
  0
SPLINE
  5
356B10
330
18
100
AcDbEntity
  8
姿図
100
AcDbSpline
210
0.0
220
0.0
230
1.0
 70
     8
 71
     3
 72
    20
 73
    16
 74
     0
 42
0.000000001
 43
0.0000000001
 40
0.0
 40
0.0
 40
0.0
 40
0.0
 40
1.0
 40
1.0
 40
1.0
 40
2.0
 40
2.0
 40
2.0
 40
3.0
 40
3.0
 40
3.0
 40
4.0
 40
4.0
 40
4.0
 40
4.817545376845749
 40
4.817545376845749
 40
4.817545376845749
 40
4.817545376845749
 10
13570.24621620983
 20
-4268.187000206351
 30
0.0
 10
13570.24621620983
 20
-4268.187000206351
 30
0.0
 10
13570.07154975351
 20
-4264.366731302546
 30
0.0
 10
13570.07154975351
 20
-4264.366731302546
 30
0.0
 10
13570.07154975351
 20
-4264.366731302546
 30
0.0
 10
13570.19316170436
 20
-4262.566323214235
 30
0.0
 10
13572.30759045331
 20
-4262.686901635762
 30
0.0
 10
13572.30759045331
 20
-4262.686901635762
 30
0.0
 10
13576.0313966199
 20
-4262.770273001507
 30
0.0
 10
13576.0313966199
 20
-4262.770273001507
 30
0.0
 10
13576.0313966199
 20
-4262.770273001507
 30
0.0
 10
13576.64806911857
 20
-4263.044847292817
 30
0.0
 10
13576.94727585885
 20
-4261.292670573118
 30
0.0
 10
13576.94727585885
 20
-4261.292670573118
 30
0.0
 10
13577.80408670192
 20
-4261.292670573118
 30
0.0
 10
13578.11674490089
 20
-4261.292670573118
 30
0.0
  0
SPLINE
  5
356B11
330
18
100
AcDbEntity
  8
姿図
100
AcDbSpline
210
0.0
220
0.0
230
1.0
 70
     8
 71
     3
 72
     8
 73
     4
 74
     0
 42
0.000000001
 43
0.0000000001
 40
0.0
 40
0.0
 40
0.0
 40
0.0
 40
1.0
 40
1.0
 40
1.0
 40
1.0
 10
13589.75563255828
 20
-4266.267394805272
 30
0.0
 10
13589.75563255828
 20
-4266.267394805272
 30
0.0
 10
13593.19952453202
 20
-4267.534498690994
 30
0.0
 10
13595.18906848725
 20
-4268.829166428436
 30
0.0
  0
SPLINE
  5
356B12
330
18
100
AcDbEntity
  8
姿図
100
AcDbSpline
210
0.0
220
0.0
230
1.0
 70
    11
 71
     3
 72
    17
 73
    13
 74
     0
 42
0.000000001
 43
0.0000000001
 40
0.0
 40
0.0
 40
0.0
 40
0.0
 40
1.0
 40
1.0
 40
1.0
 40
2.0
 40
2.0
 40
2.0
 40
3.0
 40
3.0
 40
3.0
 40
4.0
 40
4.0
 40
4.0
 40
4.0
 10
13574.15037324404
 20
-4265.324123969486
 30
0.0
 10
13574.15037324404
 20
-4266.00969842332
 30
0.0
 10
13573.59485123057
 20
-4266.565392691678
 30
0.0
 10
13572.90910452185
 20
-4266.565392691678
 30
0.0
 10
13572.22353006801
 20
-4266.565392691678
 30
0.0
 10
13571.66800805454
 20
-4266.00969842332
 30
0.0
 10
13571.66800805454
 20
-4265.324123969486
 30
0.0
 10
13571.66800805454
 20
-4264.638205005874
 30
0.0
 10
13572.22353006801
 20
-4264.082855247291
 30
0.0
 10
13572.90910452185
 20
-4264.082855247291
 30
0.0
 10
13573.59485123057
 20
-4264.082855247291
 30
0.0
 10
13574.15037324404
 20
-4264.638205005874
 30
0.0
 10
13574.15037324404
 20
-4265.324123969486
 30
0.0
  0
SPLINE
  5
356B13
330
18
100
AcDbEntity
  8
姿図
100
AcDbSpline
210
0.0
220
0.0
230
1.0
 70
     8
 71
     3
 72
     8
 73
     4
 74
     0
 42
0.000000001
 43
0.0000000001
 40
0.0
 40
0.0
 40
0.0
 40
0.0
 40
1.0
 40
1.0
 40
1.0
 40
1.0
 10
13588.71607430982
 20
-4236.164299781433
 30
0.0
 10
13588.71607430982
 20
-4236.164299781433
 30
0.0
 10
13595.70858922916
 20
-4231.047468336418
 30
0.0
 10
13597.73706278905
 20
-4229.617236002202
 30
0.0
  0
SPLINE
  5
356B14
330
18
100
AcDbEntity
  8
姿図
100
AcDbSpline
210
0.0
220
0.0
230
1.0
 70
     8
 71
     3
 72
     8
 73
     4
 74
     0
 42
0.000000001
 43
0.0000000001
 40
0.0
 40
0.0
 40
0.0
 40
0.0
 40
1.0
 40
1.0
 40
1.0
 40
1.0
 10
13612.34599983168
 20
-4254.63639719496
 30
0.0
 10
13612.34599983168
 20
-4254.63639719496
 30
0.0
 10
13615.73011935933
 20
-4245.793520269824
 30
0.0
 10
13616.25859735539
 20
-4243.869433172003
 30
0.0
  0
SPLINE
  5
356B15
330
18
100
AcDbEntity
  8
姿図
100
AcDbSpline
210
0.0
220
0.0
230
1.0
 70
     8
 71
     3
 72
     8
 73
     4
 74
     0
 42
0.000000001
 43
0.0000000001
 40
0.0
 40
0.0
 40
0.0
 40
0.0
 40
1.0
 40
1.0
 40
1.0
 40
1.0
 10
13587.08568179587
 20
-4235.597753455138
 30
0.0
 10
13587.08568179587
 20
-4235.597753455138
 30
0.0
 10
13590.87890668226
 20
-4232.186073145424
 30
0.0
 10
13591.22117714451
 20
-4232.038622961386
 30
0.0
  0
SPLINE
  5
356B16
330
18
100
AcDbEntity
  8
姿図
100
AcDbSpline
210
0.0
220
0.0
230
1.0
 70
     8
 71
     3
 72
     8
 73
     4
 74
     0
 42
0.000000001
 43
0.0000000001
 40
0.028447613912007
 40
0.028447613912007
 40
0.028447613912007
 40
0.028447613912007
 40
0.9472915164874596
 40
0.9472915164874596
 40
0.9472915164874596
 40
0.9472915164874596
 10
13589.75563255828
 20
-4263.143687619758
 30
0.0
 10
13591.84394813202
 20
-4264.781454486691
 30
0.0
 10
13593.69326644539
 20
-4266.37541706725
 30
0.0
 10
13595.18906848725
 20
-4267.807181144536
 30
0.0
  0
SPLINE
  5
356B17
330
18
100
AcDbEntity
  8
姿図
100
AcDbSpline
210
0.0
220
0.0
230
1.0
 70
     8
 71
     3
 72
    11
 73
     7
 74
     0
 42
0.000000001
 43
0.0000000001
 40
0.029364960634089
 40
0.029364960634089
 40
0.029364960634089
 40
0.029364960634089
 40
1.0
 40
1.0
 40
1.0
 40
1.953691365426775
 40
1.953691365426775
 40
1.953691365426775
 40
1.953691365426775
 10
13578.20290577605
 20
-4261.027137978507
 30
0.0
 10
13574.29460657377
 20
-4257.565617386058
 30
0.0
 10
13571.99119888711
 20
-4254.723680217739
 30
0.0
 10
13572.61885503574
 20
-4253.873652551348
 30
0.0
 10
13573.24031870687
 20
-4253.031892083239
 30
0.0
 10
13576.57124216766
 20
-4254.359078147339
 30
0.0
 10
13580.96237920384
 20
-4257.018783826868
 30
0.0
  0
SPLINE
  5
356B18
330
18
100
AcDbEntity
  8
姿図
100
AcDbSpline
210
0.0
220
0.0
230
1.0
 70
     8
 71
     3
 72
     8
 73
     4
 74
     0
 42
0.000000001
 43
0.0000000001
 40
0.0275263166885738
 40
0.0275263166885738
 40
0.0275263166885738
 40
0.0275263166885738
 40
0.9015086939785388
 40
0.9015086939785388
 40
0.9015086939785388
 40
0.9015086939785388
 10
13578.4980262292
 20
-4260.42838785436
 30
0.0
 10
13575.03901673645
 20
-4257.352888682001
 30
0.0
 10
13572.86348834581
 20
-4254.778502535562
 30
0.0
 10
13572.91003159574
 20
-4253.676708570721
 30
0.0
  0
SPLINE
  5
356B19
330
18
100
AcDbEntity
  8
姿図
100
AcDbSpline
210
0.0
220
0.0
230
1.0
 70
     8
 71
     3
 72
     8
 73
     4
 74
     0
 42
0.000000001
 43
0.0000000001
 40
0.0346587174175036
 40
0.0346587174175036
 40
0.0346587174175036
 40
0.0346587174175036
 40
0.958948598425565
 40
0.958948598425565
 40
0.958948598425565
 40
0.958948598425565
 10
13579.04402126937
 20
-4259.672965677792
 30
0.0
 10
13576.20232618942
 20
-4257.151059836814
 30
0.0
 10
13574.21878012656
 20
-4254.962322952309
 30
0.0
 10
13573.60916305766
 20
-4253.640489367422
 30
0.0
  0
SPLINE
  5
356B1A
330
18
100
AcDbEntity
  8
姿図
100
AcDbSpline
210
0.0
220
0.0
230
1.0
 70
     8
 71
     3
 72
     8
 73
     4
 74
     0
 42
0.000000001
 43
0.0000000001
 40
0.0387882726230586
 40
0.0387882726230586
 40
0.0387882726230586
 40
0.0387882726230586
 40
0.9563249846866817
 40
0.9563249846866817
 40
0.9563249846866817
 40
0.9563249846866817
 10
13579.49373241589
 20
-4259.050758976012
 30
0.0
 10
13577.18147355478
 20
-4256.999344807146
 30
0.0
 10
13575.43605595595
 20
-4255.168012193552
 30
0.0
 10
13574.53464001622
 20
-4253.843634786458
 30
0.0
  0
SPLINE
  5
356B1B
330
18
100
AcDbEntity
  8
姿図
100
AcDbSpline
210
0.0
220
0.0
230
1.0
 70
     8
 71
     3
 72
     8
 73
     4
 74
     0
 42
0.000000001
 43
0.0000000001
 40
0.0392519203567341
 40
0.0392519203567341
 40
0.0392519203567341
 40
0.0392519203567341
 40
0.9071278346791862
 40
0.9071278346791862
 40
0.9071278346791862
 40
0.9071278346791862
 10
13580.03759569999
 20
-4258.298286232467
 30
0.0
 10
13578.42649540948
 20
-4256.874104021527
 30
0.0
 10
13577.08539593487
 20
-4255.553603845207
 30
0.0
 10
13576.10618016062
 20
-4254.431821432055
 30
0.0
  0
SPLINE
  5
356B1C
330
18
100
AcDbEntity
  8
姿図
100
AcDbSpline
210
0.0
220
0.0
230
1.0
 70
     8
 71
     3
 72
     8
 73
     4
 74
     0
 42
0.000000001
 43
0.0000000001
 40
0.3300790450554858
 40
0.3300790450554858
 40
0.3300790450554858
 40
0.3300790450554858
 40
0.8666117228219373
 40
0.8666117228219373
 40
0.8666117228219373
 40
0.8666117228219373
 10
13592.06510410396
 20
-4267.210658621031
 30
0.0
 10
13591.32061595973
 20
-4266.751625245171
 30
0.0
 10
13590.54824691811
 20
-4266.256336746078
 30
0.0
 10
13589.75563255828
 20
-4265.728730634971
 30
0.0
  0
SPLINE
  5
356B1D
330
18
100
AcDbEntity
  8
姿図
100
AcDbSpline
210
0.0
220
0.0
230
1.0
 70
     8
 71
     3
 72
     8
 73
     4
 74
     0
 42
0.000000001
 43
0.0000000001
 40
0.0490527056913894
 40
0.0490527056913894
 40
0.0490527056913894
 40
0.0490527056913894
 40
0.8427268083557965
 40
0.8427268083557965
 40
0.8427268083557965
 40
0.8427268083557965
 10
13580.4927335631
 20
-4257.668571290206
 30
0.0
 10
13579.57619590815
 20
-4256.857573115248
 30
0.0
 10
13578.7475173598
 20
-4256.080233995005
 30
0.0
 10
13578.02374944886
 20
-4255.354466648688
 30
0.0
  0
SPLINE
  5
356B1E
330
18
100
AcDbEntity
  8
姿図
100
AcDbSpline
210
0.0
220
0.0
230
1.0
 70
     8
 71
     3
 72
     8
 73
     4
 74
     0
 42
0.000000001
 43
0.0000000001
 40
0.0
 40
0.0
 40
0.0
 40
0.0
 40
0.859364899809905
 40
0.859364899809905
 40
0.859364899809905
 40
0.859364899809905
 10
13595.18906848725
 20
-4268.154571287919
 30
0.0
 10
13593.19694490512
 20
-4267.032089543102
 30
0.0
 10
13591.52175146683
 20
-4265.992964248539
 30
0.0
 10
13589.75563255829
 20
-4264.800166825934
 30
0.0
  0
SPLINE
  5
356B1F
330
18
100
AcDbEntity
  8
姿図
100
AcDbSpline
210
0.0
220
0.0
230
1.0
 70
     8
 71
     3
 72
     8
 73
     4
 74
     0
 42
0.000000001
 43
0.0000000001
 40
0.1737562324427284
 40
0.1737562324427284
 40
0.1737562324427284
 40
0.1737562324427284
 40
0.9339742566048507
 40
0.9339742566048507
 40
0.9339742566048507
 40
0.9339742566048507
 10
13593.74896820551
 20
-4266.476636045371
 30
0.0
 10
13592.4997197773
 20
-4265.736637172561
 30
0.0
 10
13591.15516192933
 20
-4264.881249549299
 30
0.0
 10
13589.7556325583
 20
-4263.930907006957
 30
0.0
  0
SPLINE
  5
356B20
330
18
100
AcDbEntity
  8
姿図
100
AcDbSpline
210
0.0
220
0.0
230
1.0
 70
     8
 71
     3
 72
    11
 73
     7
 74
     0
 42
0.000000001
 43
0.0000000001
 40
0.0
 40
0.0
 40
0.0
 40
0.0
 40
1.0
 40
1.0
 40
1.0
 40
1.697556563027247
 40
1.697556563027247
 40
1.697556563027247
 40
1.697556563027247
 10
13575.06625248299
 20
-4248.755615322119
 30
0.0
 10
13575.09450228461
 20
-4248.619878470457
 30
0.0
 10
13575.1473845352
 20
-4248.500678088031
 30
0.0
 10
13575.22593276407
 20
-4248.399392213944
 30
0.0
 10
13576.10164082498
 20
-4247.270872715041
 30
0.0
 10
13579.93549068908
 20
-4248.676466475909
 30
0.0
 10
13584.81947453346
 20
-4251.682223721396
 30
0.0
  0
SPLINE
  5
356B21
330
18
100
AcDbEntity
  8
姿図
100
AcDbSpline
210
0.0
220
0.0
230
1.0
 70
     8
 71
     3
 72
    11
 73
     7
 74
     0
 42
0.000000001
 43
0.0000000001
 40
1.994595758181033
 40
1.994595758181033
 40
1.994595758181033
 40
1.994595758181033
 40
2.0
 40
2.0
 40
2.0
 40
2.162316169353594
 40
2.162316169353594
 40
2.162316169353594
 40
2.162316169353594
 10
13591.48262120814
 20
-4256.320387309533
 30
0.0
 10
13591.52470780263
 20
-4256.352920095403
 30
0.0
 10
13591.5668086614
 20
-4256.385525055451
 30
0.0
 10
13591.60892289718
 20
-4256.418201755379
 30
0.0
 10
13592.87376622854
 20
-4257.399645024702
 30
0.0
 10
13594.07294006817
 20
-4258.385481387878
 30
0.0
 10
13595.18906848725
 20
-4259.355345619911
 30
0.0
  0
SPLINE
  5
356B22
330
18
100
AcDbEntity
  8
姿図
100
AcDbSpline
210
0.0
220
0.0
230
1.0
 70
     8
 71
     3
 72
     8
 73
     4
 74
     0
 42
0.000000001
 43
0.0000000001
 40
2.342478742539746
 40
2.342478742539746
 40
2.342478742539746
 40
2.342478742539746
 40
3.0
 40
3.0
 40
3.0
 40
3.0
 10
13598.57491056378
 20
-4262.497962861154
 30
0.0
 10
13602.26269561459
 20
-4266.181489739766
 30
0.0
 10
13604.27126429008
 20
-4269.231994879355
 30
0.0
 10
13603.45881649595
 20
-4270.157960780477
 30
0.0
  0
SPLINE
  5
356B23
330
18
100
AcDbEntity
  8
姿図
100
AcDbSpline
210
0.0
220
0.0
230
1.0
 70
     8
 71
     3
 72
    14
 73
    10
 74
     0
 42
0.000000001
 43
0.0000000001
 40
0.0
 40
0.0
 40
0.0
 40
0.0
 40
1.0
 40
1.0
 40
1.0
 40
2.0
 40
2.0
 40
2.0
 40
2.729267294268183
 40
2.729267294268183
 40
2.729267294268183
 40
2.729267294268183
 10
13572.61885503574
 20
-4253.873652551348
 30
0.0
 10
13572.61885503574
 20
-4253.873652551348
 30
0.0
 10
13575.16667708264
 20
-4248.431087113319
 30
0.0
 10
13575.16667708264
 20
-4248.431087113319
 30
0.0
 10
13574.62321291132
 20
-4247.360006220369
 30
0.0
 10
13574.49471076495
 20
-4246.540072953975
 30
0.0
 10
13574.86178593106
 20
-4246.067061031807
 30
0.0
 10
13575.87528692945
 20
-4244.760614529178
 30
0.0
 10
13580.38656661502
 20
-4246.457158659744
 30
0.0
 10
13586.0275306548
 20
-4250.01079391441
 30
0.0
  0
SPLINE
  5
356B24
330
18
100
AcDbEntity
  8
姿図
100
AcDbSpline
210
0.0
220
0.0
230
1.0
 70
     8
 71
     3
 72
    11
 73
     7
 74
     0
 42
0.000000001
 43
0.0000000001
 40
2.999898799229995
 40
2.999898799229995
 40
2.999898799229995
 40
2.999898799229995
 40
3.0
 40
3.0
 40
3.0
 40
3.103753479307108
 40
3.103753479307108
 40
3.103753479307108
 40
3.103753479307108
 10
13592.65332640495
 20
-4254.675750747082
 30
0.0
 10
13592.6541803004
 20
-4254.676413259835
 30
0.0
 10
13592.65503420071
 20
-4254.677075800161
 30
0.0
 10
13592.65588810583
 20
-4254.677738368056
 30
0.0
 10
13593.53122507427
 20
-4255.35698327031
 30
0.0
 10
13594.37724947789
 20
-4256.038512653827
 30
0.0
 10
13595.18906848725
 20
-4256.71654139037
 30
0.0
  0
SPLINE
  5
356B25
330
18
100
AcDbEntity
  8
姿図
100
AcDbSpline
210
0.0
220
0.0
230
1.0
 70
     8
 71
     3
 72
    14
 73
    10
 74
     0
 42
0.000000001
 43
0.0000000001
 40
3.258396358790403
 40
3.258396358790403
 40
3.258396358790403
 40
3.258396358790403
 40
4.0
 40
4.0
 40
4.0
 40
5.0
 40
5.0
 40
5.0
 40
6.0
 40
6.0
 40
6.0
 40
6.0
 10
13598.57491056378
 20
-4259.705827863133
 30
0.0
 10
13603.57107300732
 20
-4264.385754703358
 30
0.0
 10
13606.44708664783
 20
-4268.446299301347
 30
0.0
 10
13605.41618569154
 20
-4269.774845762996
 30
0.0
 10
13605.09441356094
 20
-4270.189635533056
 30
0.0
 10
13604.42055243949
 20
-4270.301945719965
 30
0.0
 10
13603.46970545829
 20
-4270.148294359958
 30
0.0
 10
13603.46970545829
 20
-4270.148294359958
 30
0.0
 10
13601.62554462846
 20
-4271.785404814541
 30
0.0
 10
13601.62554462846
 20
-4271.785404814541
 30
0.0
  0
SPLINE
  5
356B26
330
18
100
AcDbEntity
  8
姿図
100
AcDbSpline
210
0.0
220
0.0
230
1.0
 70
     8
 71
     3
 72
    20
 73
    16
 74
     0
 42
0.000000001
 43
0.0000000001
 40
0.3932891864423215
 40
0.3932891864423215
 40
0.3932891864423215
 40
0.3932891864423215
 40
1.0
 40
1.0
 40
1.0
 40
2.0
 40
2.0
 40
2.0
 40
3.0
 40
3.0
 40
3.0
 40
4.0
 40
4.0
 40
4.0
 40
4.416192945883802
 40
4.416192945883802
 40
4.416192945883802
 40
4.416192945883802
 10
13600.30492771951
 20
-4243.926585784403
 30
0.0
 10
13600.47380182823
 20
-4244.055566326252
 30
0.0
 10
13600.64285262466
 20
-4244.185688188375
 30
0.0
 10
13600.81215704779
 20
-4244.316951370761
 30
0.0
 10
13609.30673458961
 20
-4250.907767891516
 30
0.0
 10
13614.93464628701
 20
-4257.874789087447
 30
0.0
 10
13613.38125170795
 20
-4259.876390884822
 30
0.0
 10
13613.38125170795
 20
-4259.876390884822
 30
0.0
 10
13608.94155422726
 20
-4266.025545873005
 30
0.0
 10
13608.94155422726
 20
-4266.025545873005
 30
0.0
 10
13610.30994705672
 20
-4264.26234484048
 30
0.0
 10
13604.4815306698
 20
-4257.449664024111
 30
0.0
 10
13595.9242523488
 20
-4250.80992711519
 30
0.0
 10
13595.81255735132
 20
-4250.723180679414
 30
0.0
 10
13595.70092202866
 20
-4250.636911642049
 30
0.0
 10
13595.58937121702
 20
-4250.551120003084
 30
0.0
  0
SPLINE
  5
356B27
330
18
100
AcDbEntity
  8
姿図
100
AcDbSpline
210
0.0
220
0.0
230
1.0
 70
     8
 71
     3
 72
    11
 73
     7
 74
     0
 42
0.000000001
 43
0.0000000001
 40
0.0146822071107908
 40
0.0146822071107908
 40
0.0146822071107908
 40
0.0146822071107908
 40
1.0
 40
1.0
 40
1.0
 40
2.0
 40
2.0
 40
2.0
 40
2.0
 10
13593.69807006999
 20
-4239.398068240694
 30
0.0
 10
13588.16623617046
 20
-4236.054818431402
 30
0.0
 10
13583.72315868777
 20
-4234.581830830742
 30
0.0
 10
13582.61773451356
 20
-4236.006169794341
 30
0.0
 10
13582.61773451356
 20
-4236.006169794341
 30
0.0
 10
13577.9515218553
 20
-4241.97979705176
 30
0.0
 10
13577.9515218553
 20
-4241.97979705176
 30
0.0
  0
SPLINE
  5
356B28
330
18
100
AcDbEntity
  8
姿図
100
AcDbSpline
210
0.0
220
0.0
230
1.0
 70
     8
 71
     3
 72
    11
 73
     7
 74
     0
 42
0.000000001
 43
0.0000000001
 40
0.0
 40
0.0
 40
0.0
 40
0.0
 40
1.0
 40
1.0
 40
1.0
 40
1.976744433187731
 40
1.976744433187731
 40
1.976744433187731
 40
1.976744433187731
 10
13574.86178593106
 20
-4246.067061031807
 30
0.0
 10
13574.86178593106
 20
-4246.067061031807
 30
0.0
 10
13577.9515218553
 20
-4241.97979705176
 30
0.0
 10
13577.9515218553
 20
-4241.97979705176
 30
0.0
 10
13578.93611501994
 20
-4240.710863072311
 30
0.0
 10
13583.37850778718
 20
-4242.401954112694
 30
0.0
 10
13588.98109497926
 20
-4245.924331901965
 30
0.0
  0
POLYLINE
  5
356B29
330
18
100
AcDbEntity
  8
姿図
100
AcDb2dPolyline
 66
     1
 10
0.0
 20
0.0
 30
0.0
  0
VERTEX
  5
356B2A
330
356B29
100
AcDbEntity
  8
姿図
100
AcDbVertex
100
AcDb2dVertex
 10
13608.94155422726
 20
-4266.025545873005
 30
0.0
  0
VERTEX
  5
356B2B
330
356B29
100
AcDbEntity
  8
姿図
100
AcDbVertex
100
AcDb2dVertex
 10
13605.34272346753
 20
-4269.862906195717
 30
0.0
  0
SEQEND
  5
356B2C
330
356B29
100
AcDbEntity
  8
姿図
  0
SPLINE
  5
356B2D
330
18
100
AcDbEntity
  8
姿図
100
AcDbSpline
210
0.0
220
0.0
230
1.0
 70
     8
 71
     3
 72
    14
 73
    10
 74
     0
 42
0.000000001
 43
0.0000000001
 40
0.3345497143224812
 40
0.3345497143224812
 40
0.3345497143224812
 40
0.3345497143224812
 40
1.0
 40
1.0
 40
1.0
 40
2.0
 40
2.0
 40
2.0
 40
3.0
 40
3.0
 40
3.0
 40
3.0
 10
13600.73562475342
 20
-4243.321531590368
 30
0.0
 10
13600.98225255123
 20
-4243.508217520978
 30
0.0
 10
13601.22923594477
 20
-4243.697471405433
 30
0.0
 10
13601.47637189553
 20
-4243.889242484113
 30
0.0
 10
13607.43053435061
 20
-4248.509290832425
 30
0.0
 10
13611.93810025714
 20
-4253.374802395995
 30
0.0
 10
13613.56108581091
 20
-4256.640066050993
 30
0.0
 10
13613.56108581091
 20
-4256.640066050993
 30
0.0
 10
13613.89663833253
 20
-4258.934501157793
 30
0.0
 10
13613.63894502024
 20
-4259.405446021304
 30
0.0
  0
SPLINE
  5
356B2E
330
18
100
AcDbEntity
  8
姿図
100
AcDbSpline
210
0.0
220
0.0
230
1.0
 70
     8
 71
     3
 72
    11
 73
     7
 74
     0
 42
0.000000001
 43
0.0000000001
 40
0.0
 40
0.0
 40
0.0
 40
0.0
 40
1.0
 40
1.0
 40
1.0
 40
1.982369506795397
 40
1.982369506795397
 40
1.982369506795397
 40
1.982369506795397
 10
13583.12623094263
 20
-4235.63013737406
 30
0.0
 10
13583.12623094263
 20
-4235.63013737406
 30
0.0
 10
13584.71614355793
 20
-4235.173489666241
 30
0.0
 10
13584.71614355793
 20
-4235.173489666241
 30
0.0
 10
13586.77400303898
 20
-4235.20445655096
 30
0.0
 10
13590.16589481076
 20
-4236.545850419835
 30
0.0
 10
13594.09408002424
 20
-4238.850160879675
 30
0.0
  0
SPLINE
  5
356B2F
330
18
100
AcDbEntity
  8
姿図
100
AcDbSpline
210
0.0
220
0.0
230
1.0
 70
     8
 71
     3
 72
    14
 73
    10
 74
     0
 42
0.000000001
 43
0.0000000001
 40
0.4146882556565951
 40
0.4146882556565951
 40
0.4146882556565951
 40
0.4146882556565951
 40
1.0
 40
1.0
 40
1.0
 40
2.0
 40
2.0
 40
2.0
 40
3.0
 40
3.0
 40
3.0
 40
3.0
 10
13606.74775962694
 20
-4234.875530959044
 30
0.0
 10
13606.93102108806
 20
-4235.009025592636
 30
0.0
 10
13607.11440057473
 20
-4235.144231596684
 30
0.0
 10
13607.29789808693
 20
-4235.281148971178
 30
0.0
 10
13613.65996011656
 20
-4240.026598877884
 30
0.0
 10
13618.05728289483
 20
-4245.255912764692
 30
0.0
 10
13618.2099007255
 20
-4247.990114600299
 30
0.0
 10
13618.2099007255
 20
-4247.990114600299
 30
0.0
 10
13618.78833263907
 20
-4248.066251260751
 30
0.0
 10
13618.78833263907
 20
-4248.066251260751
 30
0.0
  0
SPLINE
  5
356B30
330
18
100
AcDbEntity
  8
姿図
100
AcDbSpline
210
0.0
220
0.0
230
1.0
 70
     8
 71
     3
 72
     8
 73
     4
 74
     0
 42
0.000000001
 43
0.0000000001
 40
0.0
 40
0.0
 40
0.0
 40
0.0
 40
1.0
 40
1.0
 40
1.0
 40
1.0
 10
13592.14790844141
 20
-4233.658852436954
 30
0.0
 10
13591.48955025986
 20
-4232.74555702132
 30
0.0
 10
13591.53381976606
 20
-4232.789998782398
 30
0.0
 10
13591.22117714451
 20
-4232.038622961386
 30
0.0
  0
SPLINE
  5
356B31
330
18
100
AcDbEntity
  8
姿図
100
AcDbSpline
210
0.0
220
0.0
230
1.0
 70
     8
 71
     3
 72
     8
 73
     4
 74
     0
 42
0.000000001
 43
0.0000000001
 40
0.0
 40
0.0
 40
0.0
 40
0.0
 40
0.7954256245461779
 40
0.7954256245461779
 40
0.7954256245461779
 40
0.7954256245461779
 10
13617.33519040476
 20
-4249.608966036768
 30
0.0
 10
13616.64134162491
 20
-4249.938352384862
 30
0.0
 10
13615.57192709242
 20
-4249.928792276
 30
0.0
 10
13614.23513624721
 20
-4249.621897033215
 30
0.0
  0
SPLINE
  5
356B32
330
18
100
AcDbEntity
  8
姿図
100
AcDbSpline
210
0.0
220
0.0
230
1.0
 70
     8
 71
     3
 72
     8
 73
     4
 74
     0
 42
0.000000001
 43
0.0000000001
 40
0.0
 40
0.0
 40
0.0
 40
0.0
 40
0.9686652152163083
 40
0.9686652152163083
 40
0.9686652152163083
 40
0.9686652152163083
 10
13590.39624848637
 20
-4228.728056270872
 30
0.0
 10
13591.62848978024
 20
-4227.076168822098
 30
0.0
 10
13595.56251943062
 20
-4227.768223389739
 30
0.0
 10
13600.36919702742
 20
-4230.168099329577
 30
0.0
  0
SPLINE
  5
356B33
330
18
100
AcDbEntity
  8
姿図
100
AcDbSpline
210
0.0
220
0.0
230
1.0
 70
     8
 71
     3
 72
     8
 73
     4
 74
     0
 42
0.000000001
 43
0.0000000001
 40
0.0
 40
0.0
 40
0.0
 40
0.0
 40
1.0
 40
1.0
 40
1.0
 40
1.0
 10
13591.58187887977
 20
-4234.07140289347
 30
0.0
 10
13590.92300393356
 20
-4233.128479637117
 30
0.0
 10
13590.99896833913
 20
-4233.269039625643
 30
0.0
 10
13590.66272679796
 20
-4232.463059005167
 30
0.0
  0
SPLINE
  5
356B34
330
18
100
AcDbEntity
  8
姿図
100
AcDbSpline
210
0.0
220
0.0
230
1.0
 70
     8
 71
     3
 72
     8
 73
     4
 74
     0
 42
0.000000001
 43
0.0000000001
 40
0.1096984810107319
 40
0.1096984810107319
 40
0.1096984810107319
 40
0.1096984810107319
 40
0.8363070257356491
 40
0.8363070257356491
 40
0.8363070257356491
 40
0.8363070257356491
 10
13616.88313178256
 20
-4250.458805471763
 30
0.0
 10
13616.10760722907
 20
-4250.595326089263
 30
0.0
 10
13615.12616654436
 20
-4250.529573213472
 30
0.0
 10
13613.99048464802
 20
-4250.279520729468
 30
0.0
  0
SPLINE
  5
356B35
330
18
100
AcDbEntity
  8
姿図
100
AcDbSpline
210
0.0
220
0.0
230
1.0
 70
     8
 71
     3
 72
    20
 73
    16
 74
     0
 42
0.000000001
 43
0.0000000001
 40
0.0
 40
0.0
 40
0.0
 40
0.0
 40
1.0
 40
1.0
 40
1.0
 40
2.0
 40
2.0
 40
2.0
 40
3.0
 40
3.0
 40
3.0
 40
4.0
 40
4.0
 40
4.0
 40
4.968635693650649
 40
4.968635693650649
 40
4.968635693650649
 40
4.968635693650649
 10
13613.55729620337
 20
-4213.493833985168
 30
0.0
 10
13607.50529297196
 20
-4210.795116656466
 30
0.0
 10
13604.61623399214
 20
-4212.267895947995
 30
0.0
 10
13603.83523033041
 20
-4212.945718931874
 30
0.0
 10
13603.05422666868
 20
-4213.623541915756
 30
0.0
 10
13590.39624848637
 20
-4228.728056270872
 30
0.0
 10
13590.39624848637
 20
-4228.728056270872
 30
0.0
 10
13590.39624848637
 20
-4228.728056270872
 30
0.0
 10
13590.80277002182
 20
-4229.372978571165
 30
0.0
 10
13590.80277002182
 20
-4229.372978571165
 30
0.0
 10
13590.84876207688
 20
-4229.259634854926
 30
0.0
 10
13590.90767324854
 20
-4229.154387118421
 30
0.0
 10
13590.97967579169
 20
-4229.05775212631
 30
0.0
 10
13592.02083372451
 20
-4227.662033198739
 30
0.0
 10
13595.56789469078
 20
-4228.4074431578
 30
0.0
 10
13600.00181900871
 20
-4230.676392413016
 30
0.0
  0
POLYLINE
  5
356B36
330
18
100
AcDbEntity
  8
姿図
100
AcDb2dPolyline
 66
     1
 10
0.0
 20
0.0
 30
0.0
  0
VERTEX
  5
356B37
330
356B36
100
AcDbEntity
  8
姿図
100
AcDbVertex
100
AcDb2dVertex
 10
13618.07175230541
 20
-4215.917288003005
 30
0.0
  0
VERTEX
  5
356B38
330
356B36
100
AcDbEntity
  8
姿図
100
AcDbVertex
100
AcDb2dVertex
 10
13619.53695238187
 20
-4218.207588992499
 30
0.0
  0
SEQEND
  5
356B39
330
356B36
100
AcDbEntity
  8
姿図
  0
SPLINE
  5
356B3A
330
18
100
AcDbEntity
  8
姿図
100
AcDbSpline
210
0.0
220
0.0
230
1.0
 70
     8
 71
     3
 72
    23
 73
    19
 74
     0
 42
0.000000001
 43
0.0000000001
 40
0.0
 40
0.0
 40
0.0
 40
0.0
 40
1.0
 40
1.0
 40
1.0
 40
2.0
 40
2.0
 40
2.0
 40
3.0
 40
3.0
 40
3.0
 40
4.0
 40
4.0
 40
4.0
 40
5.0
 40
5.0
 40
5.0
 40
5.546528711462035
 40
5.546528711462035
 40
5.546528711462035
 40
5.546528711462035
 10
13613.0501778134
 20
-4226.021587472219
 30
0.0
 10
13613.0501778134
 20
-4226.021587472219
 30
0.0
 10
13619.92831548718
 20
-4217.735955109433
 30
0.0
 10
13619.92831548718
 20
-4217.735955109433
 30
0.0
 10
13619.92831548718
 20
-4217.735955109433
 30
0.0
 10
13628.20826343866
 20
-4222.659688825111
 30
0.0
 10
13630.85409851677
 20
-4230.406335643663
 30
0.0
 10
13630.85409851677
 20
-4230.406335643663
 30
0.0
 10
13619.25652142438
 20
-4248.011474206399
 30
0.0
 10
13619.25652142438
 20
-4248.011474206399
 30
0.0
 10
13619.25652142438
 20
-4248.011474206399
 30
0.0
 10
13618.78833263907
 20
-4248.066251260751
 30
0.0
 10
13618.78833263907
 20
-4248.066251260751
 30
0.0
 10
13618.54958736444
 20
-4244.97358700343
 30
0.0
 10
13614.14950850797
 20
-4239.551519897063
 30
0.0
 10
13607.70855373969
 20
-4234.746986563808
 30
0.0
 10
13607.518386411
 20
-4234.605114205227
 30
0.0
 10
13607.3282190823
 20
-4234.465145549856
 30
0.0
 10
13607.13816423236
 20
-4234.327080597696
 30
0.0
  0
POLYLINE
  5
356B3B
330
18
100
AcDbEntity
  8
姿図
100
AcDb2dPolyline
 66
     1
 10
0.0
 20
0.0
 30
0.0
  0
VERTEX
  5
356B3C
330
356B3B
100
AcDbEntity
  8
姿図
100
AcDbVertex
100
AcDb2dVertex
 10
13618.20990072551
 20
-4247.990114600299
 30
0.0
  0
VERTEX
  5
356B3D
330
356B3B
100
AcDbEntity
  8
姿図
100
AcDbVertex
100
AcDb2dVertex
 10
13613.56108581091
 20
-4256.640066050993
 30
0.0
  0
SEQEND
  5
356B3E
330
356B3B
100
AcDbEntity
  8
姿図
  0
SPLINE
  5
356B3F
330
18
100
AcDbEntity
  8
姿図
100
AcDbSpline
210
0.0
220
0.0
230
1.0
 70
     8
 71
     3
 72
    14
 73
    10
 74
     0
 42
0.000000001
 43
0.0000000001
 40
0.0
 40
0.0
 40
0.0
 40
0.0
 40
1.0
 40
1.0
 40
1.0
 40
2.0
 40
2.0
 40
2.0
 40
3.0
 40
3.0
 40
3.0
 40
3.0
 10
13613.73540775747
 20
-4258.674051767291
 30
0.0
 10
13613.73540775747
 20
-4258.674051767291
 30
0.0
 10
13631.22548005508
 20
-4232.252908041929
 30
0.0
 10
13631.22548005508
 20
-4232.252908041929
 30
0.0
 10
13631.22548005508
 20
-4232.252908041929
 30
0.0
 10
13631.28818083428
 20
-4232.134741188834
 30
0.0
 10
13631.22548005508
 20
-4231.682227598324
 30
0.0
 10
13631.16277927589
 20
-4231.229714007818
 30
0.0
 10
13630.71250499892
 20
-4230.62130974376
 30
0.0
 10
13630.71250499892
 20
-4230.62130974376
 30
0.0
  0
POLYLINE
  5
356B40
330
18
100
AcDbEntity
  8
姿図
100
AcDb2dPolyline
 66
     1
 10
0.0
 20
0.0
 30
0.0
  0
VERTEX
  5
356B41
330
356B40
100
AcDbEntity
  8
姿図
100
AcDbVertex
100
AcDb2dVertex
 10
13590.39624848638
 20
-4228.728056270872
 30
0.0
  0
VERTEX
  5
356B42
330
356B40
100
AcDbEntity
  8
姿図
100
AcDbVertex
100
AcDb2dVertex
 10
13584.71614355794
 20
-4235.173489666241
 30
0.0
  0
VERTEX
  5
356B43
330
356B40
100
AcDbEntity
  8
姿図
100
AcDbVertex
100
AcDb2dVertex
 10
13597.51919007684
 20
-4220.267428524548
 30
0.0
  0
SEQEND
  5
356B44
330
356B40
100
AcDbEntity
  8
姿図
  0
SPLINE
  5
356B45
330
18
100
AcDbEntity
  8
姿図
100
AcDbSpline
210
0.0
220
0.0
230
1.0
 70
     8
 71
     3
 72
    11
 73
     7
 74
     0
 42
0.000000001
 43
0.0000000001
 40
0.0
 40
0.0
 40
0.0
 40
0.0
 40
1.0
 40
1.0
 40
1.0
 40
2.0
 40
2.0
 40
2.0
 40
2.0
 10
13631.47701887002
 20
-4225.774486850084
 30
0.0
 10
13631.61408708218
 20
-4226.082565702533
 30
0.0
 10
13631.83698490712
 20
-4226.654968695019
 30
0.0
 10
13632.0450688117
 20
-4227.260961390645
 30
0.0
 10
13632.08537645547
 20
-4227.378611479081
 30
0.0
 10
13632.11431527664
 20
-4227.512453526974
 30
0.0
 10
13632.17014551804
 20
-4227.91567114293
 30
0.0
  0
SPLINE
  5
356B46
330
18
100
AcDbEntity
  8
姿図
100
AcDbSpline
210
0.0
220
0.0
230
1.0
 70
     8
 71
     3
 72
     8
 73
     4
 74
     0
 42
0.000000001
 43
0.0000000001
 40
0.0
 40
0.0
 40
0.0
 40
0.0
 40
0.9594666342081114
 40
0.9594666342081114
 40
0.9594666342081114
 40
0.9594666342081114
 10
13627.99811247542
 20
-4220.377139305575
 30
0.0
 10
13628.97388319004
 20
-4221.448933527175
 30
0.0
 10
13629.80471749356
 20
-4222.564969826129
 30
0.0
 10
13630.51678453683
 20
-4223.822469640832
 30
0.0
  0
SPLINE
  5
356B47
330
18
100
AcDbEntity
  8
姿図
100
AcDbSpline
210
0.0
220
0.0
230
1.0
 70
     8
 71
     3
 72
     8
 73
     4
 74
     0
 42
0.000000001
 43
0.0000000001
 40
0.0
 40
0.0
 40
0.0
 40
0.0
 40
1.0
 40
1.0
 40
1.0
 40
1.0
 10
13622.55707267017
 20
-4215.536365780735
 30
0.0
 10
13624.15786200463
 20
-4216.793893127516
 30
0.0
 10
13625.66474776396
 20
-4218.042913319669
 30
0.0
 10
13626.79818492633
 20
-4219.147239405981
 30
0.0
  0
SPLINE
  5
356B48
330
18
100
AcDbEntity
  8
姿図
100
AcDbSpline
210
0.0
220
0.0
230
1.0
 70
     8
 71
     3
 72
     8
 73
     4
 74
     0
 42
0.000000001
 43
0.0000000001
 40
0.0746784443437735
 40
0.0746784443437735
 40
0.0746784443437735
 40
0.0746784443437735
 40
0.9664739066473473
 40
0.9664739066473473
 40
0.9664739066473473
 40
0.9664739066473473
 10
13611.77248332834
 20
-4210.14195381071
 30
0.0
 10
13612.81586971096
 20
-4210.361768762642
 30
0.0
 10
13614.04604907099
 20
-4210.693049126548
 30
0.0
 10
13615.36406308067
 20
-4211.192482142035
 30
0.0
  0
SPLINE
  5
356B49
330
18
100
AcDbEntity
  8
姿図
100
AcDbSpline
210
0.0
220
0.0
230
1.0
 70
     8
 71
     3
 72
    29
 73
    25
 74
     0
 42
0.000000001
 43
0.0000000001
 40
0.0
 40
0.0
 40
0.0
 40
0.0
 40
1.0
 40
1.0
 40
1.0
 40
2.0
 40
2.0
 40
2.0
 40
3.0
 40
3.0
 40
3.0
 40
4.0
 40
4.0
 40
4.0
 40
5.0
 40
5.0
 40
5.0
 40
6.0
 40
6.0
 40
6.0
 40
7.0
 40
7.0
 40
7.0
 40
8.0
 40
8.0
 40
8.0
 40
8.0
 10
13618.93027066669
 20
-4197.873760750567
 30
0.0
 10
13618.93027066669
 20
-4197.873760750567
 30
0.0
 10
13617.24079472619
 20
-4196.206161180827
 30
0.0
 10
13617.24079472619
 20
-4196.206161180827
 30
0.0
 10
13616.75090182501
 20
-4195.668381420811
 30
0.0
 10
13616.59104928904
 20
-4195.827028172563
 30
0.0
 10
13616.59104928904
 20
-4195.827028172563
 30
0.0
 10
13616.59104928904
 20
-4195.827028172563
 30
0.0
 10
13614.42683887749
 20
-4197.871521437027
 30
0.0
 10
13614.42683887749
 20
-4197.871521437027
 30
0.0
 10
13614.42683887749
 20
-4197.871521437027
 30
0.0
 10
13604.66618790963
 20
-4209.3712577531
 30
0.0
 10
13604.66618790963
 20
-4209.3712577531
 30
0.0
 10
13604.88185102927
 20
-4209.044662485644
 30
0.0
 10
13605.64528469244
 20
-4209.15163277103
 30
0.0
 10
13605.64528469244
 20
-4209.15163277103
 30
0.0
 10
13605.64528469244
 20
-4209.15163277103
 30
0.0
 10
13606.88000772889
 20
-4210.680394901126
 30
0.0
 10
13606.88000772889
 20
-4210.680394901126
 30
0.0
 10
13606.88000772889
 20
-4210.680394901126
 30
0.0
 10
13608.52641994743
 20
-4209.710255372486
 30
0.0
 10
13608.52641994743
 20
-4209.710255372486
 30
0.0
 10
13608.52641994743
 20
-4209.710255372486
 30
0.0
 10
13609.04938578709
 20
-4209.718695861992
 30
0.0
 10
13609.75560752665
 20
-4209.797154059334
 30
0.0
  0
SPLINE
  5
356B4A
330
18
100
AcDbEntity
  8
姿図
100
AcDbSpline
210
0.0
220
0.0
230
1.0
 70
     8
 71
     3
 72
    23
 73
    19
 74
     0
 42
0.000000001
 43
0.0000000001
 40
0.0
 40
0.0
 40
0.0
 40
0.0
 40
1.0
 40
1.0
 40
1.0
 40
2.0
 40
2.0
 40
2.0
 40
3.0
 40
3.0
 40
3.0
 40
4.0
 40
4.0
 40
4.0
 40
5.0
 40
5.0
 40
5.0
 40
6.0
 40
6.0
 40
6.0
 40
6.0
 10
13606.88000772889
 20
-4210.680394901126
 30
0.0
 10
13606.88000772889
 20
-4210.680394901126
 30
0.0
 10
13606.17445170806
 20
-4210.974433994767
 30
0.0
 10
13606.17445170806
 20
-4210.974433994767
 30
0.0
 10
13606.17445170806
 20
-4210.974433994767
 30
0.0
 10
13604.66618790963
 20
-4209.3712577531
 30
0.0
 10
13604.66618790963
 20
-4209.3712577531
 30
0.0
 10
13604.66618790963
 20
-4209.3712577531
 30
0.0
 10
13603.51518074869
 20
-4211.457092190659
 30
0.0
 10
13603.51518074869
 20
-4211.457092190659
 30
0.0
 10
13603.51518074869
 20
-4211.457092190659
 30
0.0
 10
13603.8224834687
 20
-4211.356667591014
 30
0.0
 10
13604.23417265078
 20
-4211.768184518204
 30
0.0
 10
13604.64586183286
 20
-4212.179701445394
 30
0.0
 10
13604.64586183286
 20
-4212.179701445394
 30
0.0
 10
13604.64586183286
 20
-4212.179701445394
 30
0.0
 10
13604.64586183286
 20
-4212.179701445394
 30
0.0
 10
13605.69971723701
 20
-4211.023182128042
 30
0.0
 10
13606.04365036748
 20
-4210.834581601247
 30
0.0
  0
SPLINE
  5
356B4B
330
18
100
AcDbEntity
  8
姿図
100
AcDbSpline
210
0.0
220
0.0
230
1.0
 70
     8
 71
     3
 72
    29
 73
    25
 74
     0
 42
0.000000001
 43
0.0000000001
 40
0.0
 40
0.0
 40
0.0
 40
0.0
 40
1.0
 40
1.0
 40
1.0
 40
2.0
 40
2.0
 40
2.0
 40
3.0
 40
3.0
 40
3.0
 40
4.0
 40
4.0
 40
4.0
 40
5.0
 40
5.0
 40
5.0
 40
6.0
 40
6.0
 40
6.0
 40
7.0
 40
7.0
 40
7.0
 40
8.0
 40
8.0
 40
8.0
 40
8.0
 10
13624.06957303297
 20
-4200.318108508206
 30
0.0
 10
13624.06957303297
 20
-4200.318108508206
 30
0.0
 10
13621.51237143628
 20
-4195.981713061893
 30
0.0
 10
13621.51237143628
 20
-4195.981713061893
 30
0.0
 10
13621.51237143628
 20
-4195.981713061893
 30
0.0
 10
13621.07484402103
 20
-4195.300444980257
 30
0.0
 10
13620.50709191052
 20
-4195.981713061893
 30
0.0
 10
13620.50709191052
 20
-4195.981713061893
 30
0.0
 10
13611.2311661972
 20
-4207.034964708541
 30
0.0
 10
13611.2311661972
 20
-4207.034964708541
 30
0.0
 10
13611.2311661972
 20
-4207.034964708541
 30
0.0
 10
13609.61403730961
 20
-4209.504410781449
 30
0.0
 10
13609.61403730961
 20
-4209.504410781449
 30
0.0
 10
13609.61403730961
 20
-4209.504410781449
 30
0.0
 10
13610.20211549689
 20
-4210.856783906335
 30
0.0
 10
13610.20211549689
 20
-4210.856783906335
 30
0.0
 10
13610.20211549689
 20
-4210.856783906335
 30
0.0
 10
13611.08406052294
 20
-4210.856783906335
 30
0.0
 10
13611.08406052294
 20
-4210.856783906335
 30
0.0
 10
13611.4661218643
 20
-4210.415811393318
 30
0.0
 10
13612.56683059796
 20
-4209.3712577531
 30
0.0
 10
13612.56683059796
 20
-4209.3712577531
 30
0.0
 10
13612.56683059796
 20
-4209.3712577531
 30
0.0
 10
13613.51354346185
 20
-4210.583759909018
 30
0.0
 10
13613.51354346185
 20
-4210.583759909018
 30
0.0
  0
SPLINE
  5
356B4C
330
18
100
AcDbEntity
  8
姿図
100
AcDbSpline
210
0.0
220
0.0
230
1.0
 70
     8
 71
     3
 72
    11
 73
     7
 74
     0
 42
0.000000001
 43
0.0000000001
 40
0.0
 40
0.0
 40
0.0
 40
0.0
 40
1.0
 40
1.0
 40
1.0
 40
2.0
 40
2.0
 40
2.0
 40
2.0
 10
13609.61403730961
 20
-4209.504410781449
 30
0.0
 10
13609.61403730961
 20
-4209.504410781449
 30
0.0
 10
13609.87862081742
 20
-4209.002804547886
 30
0.0
 10
13610.40778783305
 20
-4209.3712577531
 30
0.0
 10
13610.40778783305
 20
-4209.3712577531
 30
0.0
 10
13611.08406052294
 20
-4210.856783906335
 30
0.0
 10
13611.08406052294
 20
-4210.856783906335
 30
0.0
  0
POLYLINE
  5
356B4D
330
18
100
AcDbEntity
  8
姿図
100
AcDb2dPolyline
 66
     1
 10
0.0
 20
0.0
 30
0.0
  0
VERTEX
  5
356B4E
330
356B4D
100
AcDbEntity
  8
姿図
100
AcDbVertex
100
AcDb2dVertex
 10
13610.40778783305
 20
-4209.3712577531
 30
0.0
  0
VERTEX
  5
356B4F
330
356B4D
100
AcDbEntity
  8
姿図
100
AcDbVertex
100
AcDb2dVertex
 10
13612.17167788513
 20
-4207.240809299578
 30
0.0
  0
VERTEX
  5
356B50
330
356B4D
100
AcDbEntity
  8
姿図
100
AcDbVertex
100
AcDb2dVertex
 10
13621.51237143629
 20
-4195.981713061893
 30
0.0
  0
SEQEND
  5
356B51
330
356B4D
100
AcDbEntity
  8
姿図
  0
POLYLINE
  5
356B52
330
18
100
AcDbEntity
  8
姿図
100
AcDb2dPolyline
 66
     1
 10
0.0
 20
0.0
 30
0.0
  0
VERTEX
  5
356B53
330
356B52
100
AcDbEntity
  8
姿図
100
AcDbVertex
100
AcDb2dVertex
 10
13605.64528469244
 20
-4209.15163277103
 30
0.0
  0
VERTEX
  5
356B54
330
356B52
100
AcDbEntity
  8
姿図
100
AcDbVertex
100
AcDb2dVertex
 10
13615.11172431178
 20
-4198.068581028779
 30
0.0
  0
VERTEX
  5
356B55
330
356B52
100
AcDbEntity
  8
姿図
100
AcDbVertex
100
AcDb2dVertex
 10
13617.0513143495
 20
-4195.981713061893
 30
0.0
  0
SEQEND
  5
356B56
330
356B52
100
AcDbEntity
  8
姿図
  0
SPLINE
  5
356B57
330
18
100
AcDbEntity
  8
姿図
100
AcDbSpline
210
0.0
220
0.0
230
1.0
 70
     8
 71
     3
 72
    17
 73
    13
 74
     0
 42
0.000000001
 43
0.0000000001
 40
0.0
 40
0.0
 40
0.0
 40
0.0
 40
1.0
 40
1.0
 40
1.0
 40
2.0
 40
2.0
 40
2.0
 40
3.0
 40
3.0
 40
3.0
 40
4.0
 40
4.0
 40
4.0
 40
4.0
 10
13603.51961722754
 20
-4211.452964616331
 30
0.0
 10
13603.51961722754
 20
-4211.452964616331
 30
0.0
 10
13603.32310585786
 20
-4211.719169374405
 30
0.0
 10
13603.73497798566
 20
-4211.990737833369
 30
0.0
 10
13603.73497798566
 20
-4211.990737833369
 30
0.0
 10
13604.26931264791
 20
-4212.4429069141
 30
0.0
 10
13604.26931264791
 20
-4212.4429069141
 30
0.0
 10
13604.26931264791
 20
-4212.4429069141
 30
0.0
 10
13604.64586183286
 20
-4212.179701445394
 30
0.0
 10
13604.64586183286
 20
-4212.179701445394
 30
0.0
 10
13604.64586183286
 20
-4212.179701445394
 30
0.0
 10
13604.21419108378
 20
-4212.68716434514
 30
0.0
 10
13604.21419108378
 20
-4212.68716434514
 30
0.0
  0
SPLINE
  5
356B58
330
18
100
AcDbEntity
  8
姿図
100
AcDbSpline
210
0.0
220
0.0
230
1.0
 70
     8
 71
     3
 72
    26
 73
    22
 74
     0
 42
0.000000001
 43
0.0000000001
 40
0.0
 40
0.0
 40
0.0
 40
0.0
 40
1.0
 40
1.0
 40
1.0
 40
2.0
 40
2.0
 40
2.0
 40
3.0
 40
3.0
 40
3.0
 40
4.0
 40
4.0
 40
4.0
 40
5.0
 40
5.0
 40
5.0
 40
6.0
 40
6.0
 40
6.0
 40
7.0
 40
7.0
 40
7.0
 40
7.0
 10
13627.20747004708
 20
-4205.354502584119
 30
0.0
 10
13627.20747004708
 20
-4205.354502584119
 30
0.0
 10
13628.07080403812
 20
-4203.778830562605
 30
0.0
 10
13628.07080403812
 20
-4203.778830562605
 30
0.0
 10
13628.07080403812
 20
-4203.778830562605
 30
0.0
 10
13626.95218079611
 20
-4198.167972099097
 30
0.0
 10
13626.95218079611
 20
-4198.167972099097
 30
0.0
 10
13626.95218079611
 20
-4198.167972099097
 30
0.0
 10
13626.603536903
 20
-4197.230044234492
 30
0.0
 10
13626.04853165419
 20
-4197.873760750567
 30
0.0
 10
13626.04853165419
 20
-4197.873760750567
 30
0.0
 10
13623.60767989268
 20
-4200.861349526272
 30
0.0
 10
13623.60767989268
 20
-4200.861349526272
 30
0.0
 10
13623.60767989268
 20
-4200.861349526272
 30
0.0
 10
13616.22483539737
 20
-4209.710255372486
 30
0.0
 10
13616.22483539737
 20
-4209.710255372486
 30
0.0
 10
13616.22483539737
 20
-4209.710255372486
 30
0.0
 10
13614.99562451733
 20
-4211.826923434975
 30
0.0
 10
13614.99562451733
 20
-4211.826923434975
 30
0.0
 10
13614.99562451733
 20
-4211.826923434975
 30
0.0
 10
13614.78616257364
 20
-4211.921146858657
 30
0.0
 10
13615.22816861599
 20
-4212.697155128636
 30
0.0
  0
SPLINE
  5
356B59
330
18
100
AcDbEntity
  8
姿図
100
AcDbSpline
210
0.0
220
0.0
230
1.0
 70
     8
 71
     3
 72
     8
 73
     4
 74
     0
 42
0.000000001
 43
0.0000000001
 40
0.0
 40
0.0
 40
0.0
 40
0.0
 40
1.0
 40
1.0
 40
1.0
 40
1.0
 10
13614.99562451733
 20
-4211.931309897041
 30
0.0
 10
13614.99562451733
 20
-4211.931309897041
 30
0.0
 10
13615.55235231502
 20
-4211.842254120001
 30
0.0
 10
13615.78765249188
 20
-4212.68716434514
 30
0.0
  0
POLYLINE
  5
356B5A
330
18
100
AcDbEntity
  8
姿図
100
AcDb2dPolyline
 66
     1
 10
0.0
 20
0.0
 30
0.0
  0
VERTEX
  5
356B5B
330
356B5A
100
AcDbEntity
  8
姿図
100
AcDbVertex
100
AcDb2dVertex
 10
13616.22483539737
 20
-4212.806709237341
 30
0.0
  0
VERTEX
  5
356B5C
330
356B5A
100
AcDbEntity
  8
姿図
100
AcDbVertex
100
AcDb2dVertex
 10
13617.46334804136
 20
-4211.928553818837
 30
0.0
  0
VERTEX
  5
356B5D
330
356B5A
100
AcDbEntity
  8
姿図
100
AcDbVertex
100
AcDb2dVertex
 10
13617.69562972237
 20
-4212.226274576448
 30
0.0
  0
SEQEND
  5
356B5E
330
356B5A
100
AcDbEntity
  8
姿図
  0
SPLINE
  5
356B5F
330
18
100
AcDbEntity
  8
姿図
100
AcDbSpline
210
0.0
220
0.0
230
1.0
 70
     8
 71
     3
 72
    11
 73
     7
 74
     0
 42
0.000000001
 43
0.0000000001
 40
0.0
 40
0.0
 40
0.0
 40
0.0
 40
1.0
 40
1.0
 40
1.0
 40
2.0
 40
2.0
 40
2.0
 40
2.0
 10
13618.79625636391
 20
-4212.830600594151
 30
0.0
 10
13618.79625636391
 20
-4212.830600594151
 30
0.0
 10
13625.51867561902
 20
-4204.7126243099
 30
0.0
 10
13625.51867561902
 20
-4204.7126243099
 30
0.0
 10
13625.51867561902
 20
-4204.7126243099
 30
0.0
 10
13628.0198165913
 20
-4205.509303166425
 30
0.0
 10
13628.35674715203
 20
-4206.066375473888
 30
0.0
  0
POLYLINE
  5
356B60
330
18
100
AcDbEntity
  8
姿図
100
AcDb2dPolyline
 66
     1
 10
0.0
 20
0.0
 30
0.0
  0
VERTEX
  5
356B61
330
356B60
100
AcDbEntity
  8
姿図
100
AcDbVertex
100
AcDb2dVertex
 10
13615.51307820057
 20
-4212.153001937767
 30
0.0
  0
VERTEX
  5
356B62
330
356B60
100
AcDbEntity
  8
姿図
100
AcDbVertex
100
AcDb2dVertex
 10
13624.6122703989
 20
-4200.567482687517
 30
0.0
  0
VERTEX
  5
356B63
330
356B60
100
AcDbEntity
  8
姿図
100
AcDbVertex
100
AcDb2dVertex
 10
13626.90946158391
 20
-4198.048254952008
 30
0.0
  0
SEQEND
  5
356B64
330
356B60
100
AcDbEntity
  8
姿図
  0
SPLINE
  5
356B65
330
18
100
AcDbEntity
  8
姿図
100
AcDbSpline
210
0.0
220
0.0
230
1.0
 70
     8
 71
     3
 72
    11
 73
     7
 74
     0
 42
0.000000001
 43
0.0000000001
 40
1.074028454579184
 40
1.074028454579184
 40
1.074028454579184
 40
1.074028454579184
 40
2.0
 40
2.0
 40
2.0
 40
2.948499676856913
 40
2.948499676856913
 40
2.948499676856913
 40
2.948499676856913
 10
13621.66698115217
 20
-4214.838683423654
 30
0.0
 10
13621.45523049382
 20
-4214.673537973041
 30
0.0
 10
13621.23991327964
 20
-4214.506018463088
 30
0.0
 10
13621.02075598623
 20
-4214.3359881321
 30
0.0
 10
13619.79929940385
 20
-4213.388035872743
 30
0.0
 10
13618.54034022863
 20
-4212.634260261405
 30
0.0
 10
13617.31325699393
 20
-4212.034974425201
 30
0.0
  0
SPLINE
  5
356B66
330
18
100
AcDbEntity
  8
姿図
100
AcDbSpline
210
0.0
220
0.0
230
1.0
 70
    11
 71
     3
 72
    23
 73
    19
 74
     0
 42
0.000000001
 43
0.0000000001
 40
0.0
 40
0.0
 40
0.0
 40
0.0
 40
1.0
 40
1.0
 40
1.0
 40
2.0
 40
2.0
 40
2.0
 40
3.0
 40
3.0
 40
3.0
 40
4.0
 40
4.0
 40
4.0
 40
5.0
 40
5.0
 40
5.0
 40
6.0
 40
6.0
 40
6.0
 40
6.0
 10
13632.3582281979
 20
-4201.109396564846
 30
0.0
 10
13632.3582281979
 20
-4201.109396564846
 30
0.0
 10
13633.14095440851
 20
-4200.383858977019
 30
0.0
 10
13632.960431286
 20
-4201.622199366119
 30
0.0
 10
13632.960431286
 20
-4201.622199366119
 30
0.0
 10
13624.02625927027
 20
-4214.208175005278
 30
0.0
 10
13624.02625927027
 20
-4214.208175005278
 30
0.0
 10
13624.02625927027
 20
-4214.208175005278
 30
0.0
 10
13621.52236221979
 20
-4216.471776487148
 30
0.0
 10
13621.52236221979
 20
-4216.471776487148
 30
0.0
 10
13621.52236221979
 20
-4216.471776487148
 30
0.0
 10
13620.99112814551
 20
-4216.060259559958
 30
0.0
 10
13620.99112814551
 20
-4216.060259559958
 30
0.0
 10
13620.99112814551
 20
-4216.060259559958
 30
0.0
 10
13622.52006253049
 20
-4213.296774393409
 30
0.0
 10
13622.52006253049
 20
-4213.296774393409
 30
0.0
 10
13622.52006253049
 20
-4213.296774393409
 30
0.0
 10
13632.3582281979
 20
-4201.109396564846
 30
0.0
 10
13632.3582281979
 20
-4201.109396564846
 30
0.0
  0
SPLINE
  5
356B67
330
18
100
AcDbEntity
  8
姿図
100
AcDbSpline
210
0.0
220
0.0
230
1.0
 70
     8
 71
     3
 72
     8
 73
     4
 74
     0
 42
0.000000001
 43
0.0000000001
 40
0.0900959125755671
 40
0.0900959125755671
 40
0.0900959125755671
 40
0.0900959125755671
 40
1.0
 40
1.0
 40
1.0
 40
1.0
 10
13629.28565917095
 20
-4206.79901846452
 30
0.0
 10
13629.65100581987
 20
-4207.094369069581
 30
0.0
 10
13631.69180850892
 20
-4208.76542943896
 30
0.0
 10
13631.98615764004
 20
-4209.475127450506
 30
0.0
  0
SPLINE
  5
356B68
330
18
100
AcDbEntity
  8
姿図
100
AcDbSpline
210
0.0
220
0.0
230
1.0
 70
     8
 71
     3
 72
    11
 73
     7
 74
     0
 42
0.000000001
 43
0.0000000001
 40
0.0
 40
0.0
 40
0.0
 40
0.0
 40
1.0
 40
1.0
 40
1.0
 40
2.0
 40
2.0
 40
2.0
 40
2.0
 10
13621.13857832955
 20
-4215.820653010894
 30
0.0
 10
13621.13857832955
 20
-4215.820653010894
 30
0.0
 10
13621.50341418212
 20
-4215.413442455904
 30
0.0
 10
13621.71769926266
 20
-4215.58983146111
 30
0.0
 10
13621.9319843432
 20
-4215.766220466317
 30
0.0
 10
13622.0032978668
 20
-4215.88404280964
 30
0.0
 10
13621.71769926266
 20
-4216.266104150995
 30
0.0
  0
POLYLINE
  5
356B69
330
18
100
AcDbEntity
  8
姿図
100
AcDb2dPolyline
 66
     1
 10
0.0
 20
0.0
 30
0.0
  0
VERTEX
  5
356B6A
330
356B69
100
AcDbEntity
  8
姿図
100
AcDbVertex
100
AcDb2dVertex
 10
13625.7822255975
 20
-4218.207588992499
 30
0.0
  0
VERTEX
  5
356B6B
330
356B69
100
AcDbEntity
  8
姿図
100
AcDbVertex
100
AcDb2dVertex
 10
13631.98615764004
 20
-4209.475127450506
 30
0.0
  0
SEQEND
  5
356B6C
330
356B69
100
AcDbEntity
  8
姿図
  0
SPLINE
  5
356B6D
330
18
100
AcDbEntity
  8
姿図
100
AcDbSpline
210
0.0
220
0.0
230
1.0
 70
     8
 71
     3
 72
    29
 73
    25
 74
     0
 42
0.000000001
 43
0.0000000001
 40
0.1691778704026286
 40
0.1691778704026286
 40
0.1691778704026286
 40
0.1691778704026286
 40
1.0
 40
1.0
 40
1.0
 40
2.0
 40
2.0
 40
2.0
 40
3.0
 40
3.0
 40
3.0
 40
4.0
 40
4.0
 40
4.0
 40
5.0
 40
5.0
 40
5.0
 40
6.0
 40
6.0
 40
6.0
 40
7.0
 40
7.0
 40
7.0
 40
8.0
 40
8.0
 40
8.0
 40
8.0
 10
13630.56531983169
 20
-4207.893082084108
 30
0.0
 10
13630.85589574612
 20
-4207.703965079791
 30
0.0
 10
13631.71468393672
 20
-4207.145035581906
 30
0.0
 10
13631.71468393672
 20
-4207.145035581906
 30
0.0
 10
13631.71468393672
 20
-4207.145035581906
 30
0.0
 10
13637.75015069889
 20
-4205.721521188319
 30
0.0
 10
13637.75015069889
 20
-4205.721521188319
 30
0.0
 10
13637.75015069889
 20
-4205.721521188319
 30
0.0
 10
13638.73407061856
 20
-4205.631604136836
 30
0.0
 10
13638.26312575505
 20
-4206.367304763046
 30
0.0
 10
13637.79218089154
 20
-4207.10300538926
 30
0.0
 10
13629.63418940068
 20
-4218.735550223903
 30
0.0
 10
13629.63418940068
 20
-4218.735550223903
 30
0.0
 10
13629.63418940068
 20
-4218.735550223903
 30
0.0
 10
13627.22365449943
 20
-4221.057890622545
 30
0.0
 10
13627.22365449943
 20
-4221.057890622545
 30
0.0
 10
13627.22365449943
 20
-4221.057890622545
 30
0.0
 10
13626.78302649619
 20
-4221.234279627754
 30
0.0
 10
13626.78302649619
 20
-4221.234279627754
 30
0.0
 10
13626.78302649619
 20
-4221.234279627754
 30
0.0
 10
13626.13603713725
 20
-4220.377139305575
 30
0.0
 10
13626.13603713725
 20
-4220.377139305575
 30
0.0
 10
13626.13603713725
 20
-4220.377139305575
 30
0.0
 10
13626.79818492633
 20
-4219.147239405981
 30
0.0
 10
13626.79818492633
 20
-4219.147239405981
 30
0.0
  0
SPLINE
  5
356B6E
330
18
100
AcDbEntity
  8
姿図
100
AcDbSpline
210
0.0
220
0.0
230
1.0
 70
     8
 71
     3
 72
     8
 73
     4
 74
     0
 42
0.000000001
 43
0.0000000001
 40
0.0
 40
0.0
 40
0.0
 40
0.0
 40
1.0
 40
1.0
 40
1.0
 40
1.0
 10
13626.13603713725
 20
-4220.377139305575
 30
0.0
 10
13626.13603713725
 20
-4220.377139305575
 30
0.0
 10
13628.01809404242
 20
-4220.181457752921
 30
0.0
 10
13627.31219351182
 20
-4220.972452198151
 30
0.0
  0
SPLINE
  5
356B6F
330
18
100
AcDbEntity
  8
姿図
100
AcDbSpline
210
0.0
220
0.0
230
1.0
 70
     8
 71
     3
 72
    29
 73
    25
 74
     0
 42
0.000000001
 43
0.0000000001
 40
0.0761318261908955
 40
0.0761318261908955
 40
0.0761318261908955
 40
0.0761318261908955
 40
1.0
 40
1.0
 40
1.0
 40
2.0
 40
2.0
 40
2.0
 40
3.0
 40
3.0
 40
3.0
 40
4.0
 40
4.0
 40
4.0
 40
5.0
 40
5.0
 40
5.0
 40
6.0
 40
6.0
 40
6.0
 40
7.0
 40
7.0
 40
7.0
 40
8.0
 40
8.0
 40
8.0
 40
8.0
 10
13636.02029333249
 20
-4209.608964921887
 30
0.0
 10
13636.76567700107
 20
-4209.737777320642
 30
0.0
 10
13641.66102567373
 20
-4210.583759909018
 30
0.0
 10
13641.66102567373
 20
-4210.583759909018
 30
0.0
 10
13641.66102567373
 20
-4210.583759909018
 30
0.0
 10
13642.53608050425
 20
-4210.75567028714
 30
0.0
 10
13642.14609543804
 20
-4211.301890536665
 30
0.0
 10
13641.75611037184
 20
-4211.848110786187
 30
0.0
 10
13633.54437535596
 20
-4223.73318128649
 30
0.0
 10
13633.54437535596
 20
-4223.73318128649
 30
0.0
 10
13633.54437535596
 20
-4223.73318128649
 30
0.0
 10
13631.37499729778
 20
-4225.879304934812
 30
0.0
 10
13631.37499729778
 20
-4225.879304934812
 30
0.0
 10
13631.37499729778
 20
-4225.879304934812
 30
0.0
 10
13630.48685109577
 20
-4226.084977270965
 30
0.0
 10
13630.48685109577
 20
-4226.084977270965
 30
0.0
 10
13630.48685109577
 20
-4226.084977270965
 30
0.0
 10
13629.86948957755
 20
-4225.291226747529
 30
0.0
 10
13629.86948957755
 20
-4225.291226747529
 30
0.0
 10
13629.86948957755
 20
-4225.291226747529
 30
0.0
 10
13630.85409851677
 20
-4223.057080851492
 30
0.0
 10
13630.85409851677
 20
-4223.057080851492
 30
0.0
 10
13630.85409851677
 20
-4223.057080851492
 30
0.0
 10
13630.07102779639
 20
-4223.07861271248
 30
0.0
 10
13630.07102779639
 20
-4223.07861271248
 30
0.0
  0
SPLINE
  5
356B70
330
18
100
AcDbEntity
  8
姿図
100
AcDbSpline
210
0.0
220
0.0
230
1.0
 70
     8
 71
     3
 72
    11
 73
     7
 74
     0
 42
0.000000001
 43
0.0000000001
 40
0.0
 40
0.0
 40
0.0
 40
0.0
 40
1.0
 40
1.0
 40
1.0
 40
2.0
 40
2.0
 40
2.0
 40
2.0
 10
13629.86948957755
 20
-4225.291226747529
 30
0.0
 10
13629.86948957755
 20
-4225.291226747529
 30
0.0
 10
13631.07492928306
 20
-4224.967904322943
 30
0.0
 10
13631.07492928306
 20
-4224.967904322943
 30
0.0
 10
13631.07492928306
 20
-4224.967904322943
 30
0.0
 10
13632.14566566623
 20
-4225.05627108044
 30
0.0
 10
13631.37499729778
 20
-4225.879304934812
 30
0.0
  0
POLYLINE
  5
356B71
330
18
100
AcDbEntity
  8
姿図
100
AcDb2dPolyline
 66
     1
 10
0.0
 20
0.0
 30
0.0
  0
VERTEX
  5
356B72
330
356B71
100
AcDbEntity
  8
姿図
100
AcDbVertex
100
AcDb2dVertex
 10
13631.16312378566
 20
-4224.967904322943
 30
0.0
  0
VERTEX
  5
356B73
330
356B71
100
AcDbEntity
  8
姿図
100
AcDbVertex
100
AcDb2dVertex
 10
13633.48546418431
 20
-4222.179786707427
 30
0.0
  0
VERTEX
  5
356B74
330
356B71
100
AcDbEntity
  8
姿図
100
AcDbVertex
100
AcDb2dVertex
 10
13641.66102567373
 20
-4210.583759909018
 30
0.0
  0
SEQEND
  5
356B75
330
356B71
100
AcDbEntity
  8
姿図
  0
POLYLINE
  5
356B76
330
18
100
AcDbEntity
  8
姿図
100
AcDb2dPolyline
 66
     1
 10
0.0
 20
0.0
 30
0.0
  0
VERTEX
  5
356B77
330
356B76
100
AcDbEntity
  8
姿図
100
AcDbVertex
100
AcDb2dVertex
 10
13626.7830264962
 20
-4220.377139305575
 30
0.0
  0
VERTEX
  5
356B78
330
356B76
100
AcDbEntity
  8
姿図
100
AcDbVertex
100
AcDb2dVertex
 10
13628.88419161878
 20
-4217.83879127751
 30
0.0
  0
VERTEX
  5
356B79
330
356B76
100
AcDbEntity
  8
姿図
100
AcDbVertex
100
AcDb2dVertex
 10
13638.04952969406
 20
-4205.734440304909
 30
0.0
  0
SEQEND
  5
356B7A
330
356B76
100
AcDbEntity
  8
姿図
  0
SPLINE
  5
356B7B
330
18
100
AcDbEntity
  8
姿図
100
AcDbSpline
210
0.0
220
0.0
230
1.0
 70
     8
 71
     3
 72
    29
 73
    25
 74
     0
 42
0.000000001
 43
0.0000000001
 40
0.0
 40
0.0
 40
0.0
 40
0.0
 40
1.0
 40
1.0
 40
1.0
 40
2.0
 40
2.0
 40
2.0
 40
3.0
 40
3.0
 40
3.0
 40
4.0
 40
4.0
 40
4.0
 40
5.0
 40
5.0
 40
5.0
 40
6.0
 40
6.0
 40
6.0
 40
7.0
 40
7.0
 40
7.0
 40
8.0
 40
8.0
 40
8.0
 40
8.0
 10
13640.48659184803
 20
-4213.692960635576
 30
0.0
 10
13640.48659184803
 20
-4213.692960635576
 30
0.0
 10
13643.30881593136
 20
-4215.084091110241
 30
0.0
 10
13643.30881593136
 20
-4215.084091110241
 30
0.0
 10
13643.30881593136
 20
-4215.084091110241
 30
0.0
 10
13643.83384882967
 20
-4215.257379527468
 30
0.0
 10
13643.3594588684
 20
-4215.993596918345
 30
0.0
 10
13643.3594588684
 20
-4215.993596918345
 30
0.0
 10
13634.8376650543
 20
-4228.34875100772
 30
0.0
 10
13634.8376650543
 20
-4228.34875100772
 30
0.0
 10
13634.8376650543
 20
-4228.34875100772
 30
0.0
 10
13632.9873030485
 20
-4230.62130974376
 30
0.0
 10
13632.9873030485
 20
-4230.62130974376
 30
0.0
 10
13632.9873030485
 20
-4230.62130974376
 30
0.0
 10
13631.98615764004
 20
-4230.230118893344
 30
0.0
 10
13631.98615764004
 20
-4230.230118893344
 30
0.0
 10
13631.98615764004
 20
-4230.230118893344
 30
0.0
 10
13631.7546470707
 20
-4229.554018458347
 30
0.0
 10
13631.7546470707
 20
-4229.554018458347
 30
0.0
 10
13631.7546470707
 20
-4229.554018458347
 30
0.0
 10
13632.41610584024
 20
-4226.966922297003
 30
0.0
 10
13632.41610584024
 20
-4226.966922297003
 30
0.0
 10
13632.41610584024
 20
-4226.966922297003
 30
0.0
 10
13631.89003941259
 20
-4226.822917210719
 30
0.0
 10
13631.89003941259
 20
-4226.822917210719
 30
0.0
  0
SPLINE
  5
356B7C
330
18
100
AcDbEntity
  8
姿図
100
AcDbSpline
210
0.0
220
0.0
230
1.0
 70
     8
 71
     3
 72
    11
 73
     7
 74
     0
 42
0.000000001
 43
0.0000000001
 40
0.0
 40
0.0
 40
0.0
 40
0.0
 40
1.0
 40
1.0
 40
1.0
 40
2.0
 40
2.0
 40
2.0
 40
2.0
 10
13631.7546470707
 20
-4229.554018458347
 30
0.0
 10
13631.7546470707
 20
-4229.554018458347
 30
0.0
 10
13632.9873030485
 20
-4229.789146380327
 30
0.0
 10
13632.9873030485
 20
-4229.789146380327
 30
0.0
 10
13632.9873030485
 20
-4229.789146380327
 30
0.0
 10
13633.37108693874
 20
-4230.277488987517
 30
0.0
 10
13632.9873030485
 20
-4230.62130974376
 30
0.0
  0
POLYLINE
  5
356B7D
330
18
100
AcDbEntity
  8
姿図
100
AcDb2dPolyline
 66
     1
 10
0.0
 20
0.0
 30
0.0
  0
VERTEX
  5
356B7E
330
356B7D
100
AcDbEntity
  8
姿図
100
AcDbVertex
100
AcDb2dVertex
 10
13643.44593082213
 20
-4215.201396688902
 30
0.0
  0
VERTEX
  5
356B7F
330
356B7D
100
AcDbEntity
  8
姿図
100
AcDbVertex
100
AcDb2dVertex
 10
13634.63199271816
 20
-4227.657664397472
 30
0.0
  0
VERTEX
  5
356B80
330
356B7D
100
AcDbEntity
  8
姿図
100
AcDbVertex
100
AcDb2dVertex
 10
13632.9873030485
 20
-4229.789146380327
 30
0.0
  0
SEQEND
  5
356B81
330
356B7D
100
AcDbEntity
  8
姿図
  0
SPLINE
  5
356B82
330
18
100
AcDbEntity
  8
姿図
100
AcDbSpline
210
0.0
220
0.0
230
1.0
 70
     8
 71
     3
 72
    26
 73
    22
 74
     0
 42
0.000000001
 43
0.0000000001
 40
0.0
 40
0.0
 40
0.0
 40
0.0
 40
1.0
 40
1.0
 40
1.0
 40
2.0
 40
2.0
 40
2.0
 40
3.0
 40
3.0
 40
3.0
 40
4.0
 40
4.0
 40
4.0
 40
5.0
 40
5.0
 40
5.0
 40
6.0
 40
6.0
 40
6.0
 40
7.0
 40
7.0
 40
7.0
 40
7.0
 10
13631.93723725188
 20
-4230.08766410105
 30
0.0
 10
13631.93723725188
 20
-4230.08766410105
 30
0.0
 10
13631.22548005508
 20
-4232.252908041929
 30
0.0
 10
13631.22548005508
 20
-4232.252908041929
 30
0.0
 10
13631.22548005508
 20
-4232.252908041929
 30
0.0
 10
13632.24419546211
 20
-4232.901103185092
 30
0.0
 10
13632.24419546211
 20
-4232.901103185092
 30
0.0
 10
13632.24419546211
 20
-4232.901103185092
 30
0.0
 10
13632.39336819503
 20
-4233.136920126623
 30
0.0
 10
13632.6968813075
 20
-4232.762610255219
 30
0.0
 10
13632.6968813075
 20
-4232.762610255219
 30
0.0
 10
13636.05791868017
 20
-4228.608166868896
 30
0.0
 10
13636.05791868017
 20
-4228.608166868896
 30
0.0
 10
13636.05791868017
 20
-4228.608166868896
 30
0.0
 10
13642.87404459431
 20
-4218.824778255835
 30
0.0
 10
13642.87404459431
 20
-4218.824778255835
 30
0.0
 10
13642.87404459431
 20
-4218.824778255835
 30
0.0
 10
13643.09832045834
 20
-4218.593095431613
 30
0.0
 10
13642.58396736308
 20
-4218.076330767918
 30
0.0
 10
13642.58396736308
 20
-4218.076330767918
 30
0.0
 10
13642.0868397566
 20
-4217.83879127751
 30
0.0
 10
13642.0868397566
 20
-4217.83879127751
 30
0.0
  0
SPLINE
  5
356B83
330
18
100
AcDbEntity
  8
姿図
100
AcDbSpline
210
0.0
220
0.0
230
1.0
 70
     8
 71
     3
 72
    11
 73
     7
 74
     0
 42
0.000000001
 43
0.0000000001
 40
0.0
 40
0.0
 40
0.0
 40
0.0
 40
1.0
 40
1.0
 40
1.0
 40
2.0
 40
2.0
 40
2.0
 40
2.0
 10
13631.37499729778
 20
-4231.798155137879
 30
0.0
 10
13631.37499729778
 20
-4231.798155137879
 30
0.0
 10
13632.57423582732
 20
-4232.582087132704
 30
0.0
 10
13632.57423582732
 20
-4232.582087132704
 30
0.0
 10
13632.57423582732
 20
-4232.582087132704
 30
0.0
 10
13632.75785953783
 20
-4232.925563379172
 30
0.0
 10
13632.41610584024
 20
-4232.974311512447
 30
0.0
  0
POLYLINE
  5
356B84
330
18
100
AcDbEntity
  8
姿図
100
AcDb2dPolyline
 66
     1
 10
0.0
 20
0.0
 30
0.0
  0
VERTEX
  5
356B85
330
356B84
100
AcDbEntity
  8
姿図
100
AcDbVertex
100
AcDb2dVertex
 10
13590.80277002182
 20
-4229.372978571165
 30
0.0
  0
VERTEX
  5
356B86
330
356B84
100
AcDbEntity
  8
姿図
100
AcDbVertex
100
AcDb2dVertex
 10
13585.25444008262
 20
-4235.208629663374
 30
0.0
  0
SEQEND
  5
356B87
330
356B84
100
AcDbEntity
  8
姿図
  0
POLYLINE
  5
356B88
330
18
100
AcDbEntity
  8
姿図
100
AcDb2dPolyline
 66
     1
 10
0.0
 20
0.0
 30
0.0
  0
VERTEX
  5
356B89
330
356B88
100
AcDbEntity
  8
姿図
100
AcDbVertex
100
AcDb2dVertex
 10
13570.07154975351
 20
-4265.323434949935
 30
0.0
  0
VERTEX
  5
356B8A
330
356B88
100
AcDbEntity
  8
姿図
100
AcDbVertex
100
AcDb2dVertex
 10
13567.50908604114
 20
-4268.521863708424
 30
0.0
  0
SEQEND
  5
356B8B
330
356B88
100
AcDbEntity
  8
姿図
  0
POLYLINE
  5
356B8C
330
18
100
AcDbEntity
  8
姿図
100
AcDb2dPolyline
 66
     1
 10
0.0
 20
0.0
 30
0.0
  0
VERTEX
  5
356B8D
330
356B8C
100
AcDbEntity
  8
姿図
100
AcDbVertex
100
AcDb2dVertex
 10
13583.10280427789
 20
-4262.229737163284
 30
0.0
  0
VERTEX
  5
356B8E
330
356B8C
100
AcDbEntity
  8
姿図
100
AcDbVertex
100
AcDb2dVertex
 10
13582.09804151677
 20
-4261.866279349818
 30
0.0
  0
VERTEX
  5
356B8F
330
356B8C
100
AcDbEntity
  8
姿図
100
AcDbVertex
100
AcDb2dVertex
 10
13582.46167158513
 20
-4260.860999824045
 30
0.0
  0
VERTEX
  5
356B90
330
356B8C
100
AcDbEntity
  8
姿図
100
AcDbVertex
100
AcDb2dVertex
 10
13582.09700798745
 20
-4260.728708070138
 30
0.0
  0
VERTEX
  5
356B91
330
356B8C
100
AcDbEntity
  8
姿図
100
AcDbVertex
100
AcDb2dVertex
 10
13581.73355017399
 20
-4261.734332105686
 30
0.0
  0
VERTEX
  5
356B92
330
356B8C
100
AcDbEntity
  8
姿図
100
AcDbVertex
100
AcDb2dVertex
 10
13580.72861515799
 20
-4261.370874292224
 30
0.0
  0
VERTEX
  5
356B93
330
356B8C
100
AcDbEntity
  8
姿図
100
AcDbVertex
100
AcDb2dVertex
 10
13580.59684016874
 20
-4261.735021125241
 30
0.0
  0
VERTEX
  5
356B94
330
356B8C
100
AcDbEntity
  8
姿図
100
AcDbVertex
100
AcDb2dVertex
 10
13581.60143067497
 20
-4262.098823448478
 30
0.0
  0
VERTEX
  5
356B95
330
356B8C
100
AcDbEntity
  8
姿図
100
AcDbVertex
100
AcDb2dVertex
 10
13581.23797286151
 20
-4263.1034139547
 30
0.0
  0
VERTEX
  5
356B96
330
356B8C
100
AcDbEntity
  8
姿図
100
AcDbVertex
100
AcDb2dVertex
 10
13581.60280871407
 20
-4263.235361198832
 30
0.0
  0
VERTEX
  5
356B97
330
356B8C
100
AcDbEntity
  8
姿図
100
AcDbVertex
100
AcDb2dVertex
 10
13581.96626652754
 20
-4262.23077069261
 30
0.0
  0
VERTEX
  5
356B98
330
356B8C
100
AcDbEntity
  8
姿図
100
AcDbVertex
100
AcDb2dVertex
 10
13582.97085703375
 20
-4262.593883996301
 30
0.0
  0
VERTEX
  5
356B99
330
356B8C
100
AcDbEntity
  8
姿図
100
AcDbVertex
100
AcDb2dVertex
 10
13583.10280427789
 20
-4262.229737163284
 30
0.0
  0
SEQEND
  5
356B9A
330
356B8C
100
AcDbEntity
  8
姿図
  0
TEXT
  5
356B9B
330
18
100
AcDbEntity
  8
文字
100
AcDbText
 10
13547.25949819992
 20
-4332.393744351092
 30
0.0
 40
9.75
  1
SX-B9651H
100
AcDbText
  0
HATCH
  5
35716B
330
18
100
AcDbEntity
  8
ﾊｯﾁﾝｸﾞ
100
AcDbHatch
 10
0.0
 20
0.0
 30
0.0
210
0.0
220
0.0
230
1.0
  2
SOLID
 70
     1
 71
     0
 91
        0
 75
     0
 76
     1
 98
        1
 10
13984.64525587503
 20
-4771.471201153595
1001
ACAD
1010
0.0
1020
0.0
1030
0.0
  0
ENDSEC
  0
SECTION
  2
OBJECTS
  0
DICTIONARY
  5
C
330
0
100
AcDbDictionary
281
     1
  3
ACAD_GROUP
350
D
  3
ACAD_IMAGE_VARS
350
2F1759
  3
ACAD_LAYOUT
350
353
  3
ACAD_MLINESTYLE
350
E
  3
ACAD_PLOTSETTINGS
350
354
  3
ACAD_PLOTSTYLENAME
350
351
  3
ACAD_SCALELIST
350
CD53
  3
AcadDim
350
5182D
  3
AcDbVariableDictionary
350
E0D
  3
AEC_DISP_REPS
350
355D42
  3
AEC_DISPLAY_PROPS_DEFAULTS
350
355D44
  3
AEC_VARS
350
355D40
  3
APPDATA
350
2F1758
  3
DWGPROPS
350
357691
  0
DICTIONARY
  5
559E
330
2
100
AcDbDictionary
280
     1
281
     1
  3
ACAD_LAYERFILTERS
360
29A509
  3
ACAD_LAYERSTATES
360
559F
  3
ACLYDICTIONARY
360
29A508
  0
DICTIONARY
  5
CD7F
330
F
100
AcDbDictionary
280
     1
281
     1
  3
ADSK_XREC_LAYER_RECONCILED
360
CD80
  0
DICTIONARY
  5
CD85
330
34
100
AcDbDictionary
280
     1
281
     1
  3
ADSK_XREC_LAYER_RECONCILED
360
CD86
  0
DICTIONARY
  5
CD89
330
2A3
100
AcDbDictionary
280
     1
281
     1
  3
ADSK_XREC_LAYER_RECONCILED
360
CD8A
  0
DICTIONARY
  5
CD8D
330
2F4
100
AcDbDictionary
280
     1
281
     1
  3
ADSK_XREC_LAYER_RECONCILED
360
CD8E
  0
DICTIONARY
  5
D25F
330
18
100
AcDbDictionary
280
     1
281
     1
  3
ACAD_SORTENTS
360
D260
  0
DICTIONARY
  5
D
102
{ACAD_REACTORS
330
C
102
}
330
C
100
AcDbDictionary
281
     1
  0
RASTERVARIABLES
  5
2F1759
102
{ACAD_REACTORS
330
C
102
}
330
C
100
AcDbRasterVariables
 90
        0
 70
     1
 71
     1
 72
     0
  0
DICTIONARY
  5
353
102
{ACAD_REACTORS
330
C
102
}
330
C
100
AcDbDictionary
281
     1
  3
Model
350
355
  3
ﾚｲｱｳﾄ1
350
356
  0
DICTIONARY
  5
E
102
{ACAD_REACTORS
330
C
102
}
330
C
100
AcDbDictionary
281
     1
  3
STANDARD
350
1B
  0
DICTIONARY
  5
354
102
{ACAD_REACTORS
330
C
102
}
330
C
100
AcDbDictionary
281
     1
  0
ACDBDICTIONARYWDFLT
  5
351
102
{ACAD_REACTORS
330
C
102
}
330
C
100
AcDbDictionary
281
     1
  3
Normal
350
352
100
AcDbDictionaryWithDefault
340
352
  0
DICTIONARY
  5
CD53
102
{ACAD_REACTORS
330
C
102
}
330
C
100
AcDbDictionary
281
     1
  3
A0
350
CD54
  3
A1
350
35DF8
  3
A2
350
35DF9
  3
A3
350
35DFA
  3
A4
350
35DFB
  3
A5
350
35DFC
  3
A6
350
35DFD
  3
A7
350
35DFE
  3
A8
350
35DFF
  3
A9
350
35E00
  3
B0
350
35E01
  3
B1
350
35E02
  3
B2
350
35E03
  3
B3
350
35E04
  3
B4
350
35E05
  3
B5
350
35E06
  3
B6
350
35E07
  3
B7
350
35E08
  3
B8
350
35E09
  3
B9
350
35E0A
  3
C0
350
35E0B
  3
C1
350
35E0C
  3
C2
350
35E0D
  3
C3
350
35E0E
  3
C4
350
35E0F
  3
C5
350
35E10
  3
C6
350
35E11
  3
C7
350
35E12
  3
C8
350
35E13
  3
C9
350
35E14
  3
D0
350
35E15
  3
D1
350
35E16
  3
D2
350
35E17
  0
XRECORD
  5
5182D
102
{ACAD_REACTORS
330
C
102
}
330
C
100
AcDbXrecord
280
     1
 90
   990106
  3
OPEN30
 60
     0
 61
     0
 62
     4
 63
     4
 64
     1
 65
     0
 66
     0
 67
     3
 68
     1
 69
     0
 70
     0
 71
     0
 72
     0
 40
0.0
170
     0
340
0
  0
DICTIONARY
  5
E0D
102
{ACAD_REACTORS
330
C
102
}
330
C
100
AcDbDictionary
281
     1
  3
DIMASSOC
350
E0E
  3
INDEXCTL
350
D04A
  3
PROJECTNAME
350
E0F
  3
SORTENTS
350
D049
  0
DICTIONARY
  5
355D42
102
{ACAD_REACTORS
330
C
102
}
330
C
100
AcDbDictionary
281
     1
  3
AecDbDispRep2dSection
350
355D43
  3
AecDbDispRepAnchor
350
355D79
  3
AecDbDispRepAnchorEntToNode
350
355D7A
  3
AecDbDispRepClipVolModel
350
355D46
  3
AecDbDispRepClipVolPlan
350
355D48
  3
AecDbDispRepClipVolResSubDiv
350
355D4B
  3
AecDbDispRepClipVolResult
350
355D4A
  3
AecDbDispRepDisplayTheme
350
355D4D
  3
AecDbDispRepEditInPlaceProfile
350
355D7E
  3
AecDbDispRepEntRef
350
355D4F
  3
AecDbDispRepLayoutCurve
350
355D51
  3
AecDbDispRepLayoutGrid2d
350
355D53
  3
AecDbDispRepLayoutGrid3d
350
355D55
  3
AecDbDispRepMaskBlockRef
350
355D57
  3
AecDbDispRepMaskBlockRefRcp
350
355D59
  3
AecDbDispRepMassElemModel
350
355D5B
  3
AecDbDispRepMassElemPlan100
350
355D61
  3
AecDbDispRepMassElemPlan50
350
355D5F
  3
AecDbDispRepMassElemRcp
350
355D63
  3
AecDbDispRepMassElemSchem
350
355D5D
  3
AecDbDispRepMassGroupModel
350
355D65
  3
AecDbDispRepMassGroupPlan
350
355D67
  3
AecDbDispRepMassGroupPlan100
350
355D6B
  3
AecDbDispRepMassGroupPlan50
350
355D69
  3
AecDbDispRepMassGroupRcp
350
355D6D
  3
AecDbDispRepMaterial
350
355D7C
  3
AecDbDispRepMvBlockRef
350
355D6F
  3
AecDbDispRepMvBlockRefModel
350
355D70
  3
AecDbDispRepMvBlockRefPlan100
350
355D71
  3
AecDbDispRepMvBlockRefPlan50
350
355D72
  3
AecDbDispRepPolygonModel
350
355D73
  3
AecDbDispRepPolygonTrueColour
350
355D75
  3
AecDbDispRepSlice
350
355D77
  0
DICTIONARY
  5
355D44
102
{ACAD_REACTORS
330
C
102
}
330
C
100
AcDbDictionary
281
     1
  3
*A1
350
355D45
  3
*A10
350
355D58
  3
*A11
350
355D5A
  3
*A12
350
355D5C
  3
*A13
350
355D5E
  3
*A14
350
355D60
  3
*A15
350
355D62
  3
*A16
350
355D64
  3
*A17
350
355D66
  3
*A18
350
355D68
  3
*A19
350
355D6A
  3
*A2
350
355D47
  3
*A20
350
355D6C
  3
*A21
350
355D6E
  3
*A22
350
355D74
  3
*A23
350
355D76
  3
*A24
350
355D78
  3
*A25
350
355D7B
  3
*A26
350
355D7D
  3
*A27
350
355D7F
  3
*A3
350
355D49
  3
*A4
350
355D4C
  3
*A5
350
355D4E
  3
*A6
350
355D50
  3
*A7
350
355D52
  3
*A8
350
355D54
  3
*A9
350
355D56
  0
DICTIONARY
  5
355D40
102
{ACAD_REACTORS
330
C
102
}
330
C
100
AcDbDictionary
281
     1
  3
AEC_VARS_DWG_SETUP
350
355D41
  0
DICTIONARY
  5
2F1758
102
{ACAD_REACTORS
330
C
102
}
330
C
100
AcDbDictionary
281
     1
  0
XRECORD
  5
357691
102
{ACAD_REACTORS
330
C
102
}
330
C
100
AcDbXrecord
280
     1
  1
DWGPROPS COOKIE
  2

  3

  4

  6

  7

  8
SPAX
  9

300
=
301
=
302
=
303
=
304
=
305
=
306
=
307
=
308
=
309
=
 40
0.0
 41
2448636.244629629
 42
2456825.388177176
  1

 90
        0
  0
DICTIONARY
  5
29A509
102
{ACAD_REACTORS
330
559E
102
}
330
559E
100
AcDbDictionary
281
     1
  0
DICTIONARY
  5
559F
102
{ACAD_REACTORS
330
559E
102
}
330
559E
100
AcDbDictionary
281
     1
  0
DICTIONARY
  5
29A508
102
{ACAD_REACTORS
330
559E
102
}
330
559E
100
AcDbDictionary
281
     1
1001
ACAD
1000
<All
  0
XRECORD
  5
CD80
102
{ACAD_REACTORS
330
CD7F
102
}
330
CD7F
100
AcDbXrecord
280
     1
290
     1
  0
XRECORD
  5
CD86
102
{ACAD_REACTORS
330
CD85
102
}
330
CD85
100
AcDbXrecord
280
     1
290
     1
  0
XRECORD
  5
CD8A
102
{ACAD_REACTORS
330
CD89
102
}
330
CD89
100
AcDbXrecord
280
     1
290
     1
  0
XRECORD
  5
CD8E
102
{ACAD_REACTORS
330
CD8D
102
}
330
CD8D
100
AcDbXrecord
280
     1
290
     1
  0
SORTENTSTABLE
  5
D260
102
{ACAD_REACTORS
330
D25F
102
}
330
D25F
100
AcDbSortentsTable
330
18
331
8182F
  5
2FEC53
331
3073B9
  5
307455
331
0
  5
32EBCD
331
0
  5
32EBCF
331
0
  5
32EBD0
331
0
  5
32EBD1
331
0
  5
32EBEF
331
0
  5
32EBF0
331
0
  5
32EBF1
331
0
  5
32EBF2
331
0
  5
32EBF3
331
0
  5
32EBF4
331
0
  5
32EBF5
331
0
  5
32EBF6
331
0
  5
32EBF7
331
0
  5
32EBF8
331
0
  5
32EBF9
331
0
  5
32EBFA
331
0
  5
32EBFB
331
0
  5
32EBFC
331
0
  5
32EBFD
331
0
  5
32EBFE
331
0
  5
32EBFF
331
0
  5
32EC00
331
0
  5
32EC01
331
0
  5
32EC02
331
0
  5
32EC03
331
0
  5
32EC04
331
0
  5
32EC05
331
0
  5
32EC06
331
0
  5
32EC07
331
0
  5
32EC08
331
0
  5
32EC09
331
0
  5
32EC0A
331
0
  5
32EC0B
331
0
  5
32EC0C
331
0
  5
32EC0D
331
0
  5
32EC0E
331
0
  5
32EC0F
331
0
  5
32EC10
331
0
  5
32EC11
331
0
  5
32EC12
331
0
  5
32EC13
331
0
  5
32EC14
331
0
  5
32EC15
331
0
  5
32EC16
331
0
  5
32EC17
331
0
  5
32EC18
331
0
  5
32EC19
331
0
  5
32EC1A
331
0
  5
32EC1B
331
0
  5
32EC1C
331
0
  5
32EC1D
331
0
  5
32EC1E
331
0
  5
32EC1F
331
0
  5
32EC20
331
0
  5
32EC21
331
0
  5
32EC22
331
0
  5
32EC23
331
0
  5
32EC24
331
0
  5
32EC25
331
0
  5
32EC26
331
0
  5
32EC27
331
0
  5
32EC28
331
0
  5
32EC29
331
0
  5
32EC2A
331
0
  5
32EC2B
331
0
  5
32EC2C
331
0
  5
32EC2D
331
0
  5
32EC2E
331
0
  5
32EC2F
331
0
  5
32EC30
331
0
  5
32EC31
331
0
  5
32EC32
331
0
  5
32EC33
331
0
  5
32EC34
331
0
  5
32EC35
331
0
  5
32EC36
331
0
  5
32EC37
331
0
  5
32EC38
331
0
  5
32EC39
331
0
  5
32EC3A
331
0
  5
32EC3B
331
0
  5
32EC3C
331
0
  5
32EC3D
331
0
  5
32EC3E
331
0
  5
32EC3F
331
0
  5
32EC40
331
0
  5
32EC41
331
0
  5
32EC42
331
0
  5
32EC43
331
0
  5
32EC44
331
0
  5
32EC45
331
0
  5
32EC46
331
0
  5
32EC47
331
0
  5
32EC48
331
0
  5
32EC49
331
0
  5
32EC4A
331
0
  5
32EC4B
331
0
  5
32EC4C
331
0
  5
32EC4D
331
0
  5
32EC4E
331
0
  5
32EC4F
331
0
  5
32EC50
331
0
  5
32EC51
331
0
  5
32EC52
331
0
  5
32EC53
331
0
  5
32EC54
331
0
  5
32EC55
331
0
  5
32EC56
331
0
  5
32EC57
331
0
  5
32EC58
331
0
  5
32EC59
331
0
  5
32EC5A
331
0
  5
32EC5B
331
0
  5
32EC5C
331
0
  5
32EC5D
331
0
  5
32EC5E
331
0
  5
32EC5F
331
0
  5
32EC60
331
0
  5
32EC61
331
0
  5
32EC62
331
0
  5
32EC63
331
0
  5
32EC64
331
0
  5
32EC65
331
0
  5
32EC66
331
0
  5
32EC67
331
0
  5
32EC68
331
0
  5
32EC69
331
0
  5
32EC6A
331
0
  5
32EC6B
331
0
  5
32EC6C
331
0
  5
32EC6D
331
0
  5
32EC6E
331
0
  5
32EC6F
331
0
  5
32EC70
331
0
  5
32EC71
331
0
  5
32EC72
331
0
  5
32EC73
331
0
  5
32EC74
331
0
  5
32EC75
331
0
  5
32EC76
331
0
  5
32EC77
331
0
  5
32EC78
331
0
  5
32EC79
331
0
  5
32EC7A
331
0
  5
32EC7B
331
0
  5
32EC7C
331
0
  5
32EC7D
331
0
  5
32EC7E
331
0
  5
32EC7F
331
0
  5
32EC80
331
0
  5
32EC81
331
0
  5
32EC82
331
0
  5
32EC83
331
0
  5
32EC84
331
0
  5
32EC85
331
0
  5
32EC86
331
0
  5
32EC87
331
0
  5
32EC88
331
0
  5
32EC89
331
0
  5
32EC8A
331
0
  5
32EC8B
331
0
  5
32EC8C
331
0
  5
32EC8D
331
0
  5
32EC8E
331
0
  5
32EC8F
331
0
  5
32EC90
331
0
  5
32EC91
331
0
  5
32EC92
331
0
  5
32EC93
331
0
  5
32EC94
331
0
  5
32EC95
331
0
  5
32EC96
331
0
  5
32EC97
331
0
  5
32EC98
331
0
  5
32EC99
331
0
  5
32EC9A
331
0
  5
32EC9B
331
0
  5
32EC9C
331
0
  5
32EC9D
331
0
  5
32EC9E
331
0
  5
32EC9F
331
0
  5
32ECA0
331
0
  5
32ECA1
331
0
  5
32ECA2
331
0
  5
32ECA3
331
0
  5
32ECA4
331
0
  5
32ECA5
331
0
  5
32ECA6
331
0
  5
32ECA7
331
0
  5
32ECA8
331
0
  5
32ECA9
331
0
  5
32ECAA
331
0
  5
32ECAB
331
0
  5
32ECAC
331
0
  5
32ECAD
331
0
  5
32ECAE
331
0
  5
32ECAF
331
0
  5
32ECB0
331
0
  5
32ECB1
331
0
  5
32ECB2
331
0
  5
32ECB3
331
0
  5
32ECB4
331
0
  5
32ECB5
331
0
  5
32ECB6
331
0
  5
32ECB7
331
0
  5
32ECB8
331
0
  5
32ECB9
331
0
  5
32ECBA
331
0
  5
32ECBB
331
0
  5
32ECBC
331
0
  5
32ECBD
331
0
  5
32ECBE
331
0
  5
32EFD2
331
0
  5
32F134
331
0
  5
32F13E
331
0
  5
32F13F
331
0
  5
32F140
331
0
  5
32F141
331
0
  5
32F43B
331
0
  5
32FD83
331
0
  5
32FD84
331
0
  5
32FD85
331
0
  5
32FD86
331
0
  5
32FD87
331
0
  5
32FD88
331
0
  5
32FD89
331
0
  5
32FD8A
331
0
  5
32FD8B
331
0
  5
32FD8C
331
0
  5
32FD8D
331
0
  5
32FD8E
331
0
  5
32FD90
331
0
  5
32FD92
331
0
  5
32FD93
331
0
  5
32FD94
331
0
  5
32FD95
331
0
  5
32FD96
331
0
  5
32FD97
331
0
  5
32FD98
331
0
  5
32FD99
331
0
  5
32FD9A
331
0
  5
32FD9D
331
0
  5
32FD9F
331
0
  5
32FDA0
331
0
  5
32FDA1
331
0
  5
32FDA2
331
0
  5
32FDA3
331
0
  5
32FDA4
331
0
  5
32FDA5
331
0
  5
32FDA6
331
0
  5
32FDA7
331
0
  5
32FDA8
331
0
  5
333322
331
0
  5
333323
331
0
  5
333324
331
0
  5
333325
331
0
  5
333326
331
0
  5
333327
331
0
  5
333328
331
0
  5
333329
331
0
  5
33332A
331
0
  5
33332B
331
0
  5
33332C
331
0
  5
33332D
331
0
  5
33332E
331
0
  5
33332F
331
0
  5
333330
331
0
  5
333331
331
0
  5
333332
331
0
  5
333333
331
0
  5
333334
331
0
  5
333335
331
0
  5
333336
331
0
  5
333337
331
0
  5
333338
331
0
  5
333339
331
0
  5
33333A
331
0
  5
33333B
331
0
  5
33333C
331
0
  5
33333D
331
0
  5
33333E
331
0
  5
33333F
331
0
  5
333340
331
0
  5
333341
331
0
  5
333342
331
0
  5
333343
331
0
  5
333344
331
0
  5
333345
331
0
  5
333346
331
0
  5
333347
331
0
  5
333348
331
0
  5
333349
331
0
  5
33334A
331
0
  5
33334B
331
0
  5
33334C
331
0
  5
33334D
331
0
  5
33334E
331
0
  5
33334F
331
0
  5
333350
331
0
  5
333351
331
0
  5
333352
331
0
  5
333353
331
0
  5
333354
331
0
  5
333355
331
0
  5
333356
331
0
  5
333357
331
0
  5
333358
331
0
  5
333359
331
0
  5
33335A
331
0
  5
33335B
331
0
  5
33335C
331
0
  5
33352D
331
0
  5
33352E
331
0
  5
33352F
331
0
  5
333530
331
0
  5
333531
331
0
  5
333535
331
0
  5
333539
331
0
  5
33353A
331
0
  5
33353B
331
0
  5
33353C
331
0
  5
33353D
331
0
  5
333541
331
0
  5
333545
331
0
  5
333546
331
0
  5
333547
331
0
  5
333548
331
0
  5
333553
331
0
  5
333557
331
0
  5
333558
331
0
  5
33355C
331
0
  5
333560
331
0
  5
333564
331
0
  5
333568
331
0
  5
33356D
331
0
  5
333571
331
0
  5
333577
331
0
  5
33357B
331
0
  5
33357F
331
0
  5
333583
331
0
  5
333587
331
0
  5
33358B
331
0
  5
33358F
331
0
  5
333593
331
0
  5
333597
331
0
  5
33359B
331
0
  5
33359F
331
0
  5
3335A3
331
0
  5
3335A7
331
0
  5
3335AB
331
0
  5
3335AF
331
0
  5
3335B3
331
0
  5
3335B7
331
0
  5
3335BB
331
0
  5
3335BF
331
0
  5
3335C3
331
0
  5
3335C7
331
0
  5
3335CB
331
0
  5
3335CF
331
0
  5
3335D3
331
0
  5
3335D7
331
0
  5
3335DB
331
0
  5
3335DF
331
0
  5
3335E3
331
0
  5
3335E7
331
0
  5
3335EB
331
0
  5
3335EF
331
0
  5
3335F3
331
0
  5
3335F7
331
0
  5
3335FB
331
0
  5
333600
331
0
  5
333604
331
0
  5
333608
331
0
  5
33360D
331
0
  5
33361A
331
0
  5
33361E
331
0
  5
333622
331
0
  5
333626
331
0
  5
33362A
331
0
  5
33362B
331
0
  5
33362F
331
0
  5
333633
331
0
  5
333634
331
0
  5
333635
331
0
  5
333636
331
0
  5
333637
331
0
  5
333638
331
0
  5
333639
331
0
  5
33363A
331
0
  5
33363B
331
0
  5
33363C
331
0
  5
33363D
331
0
  5
33363E
331
0
  5
33363F
331
0
  5
333640
331
0
  5
333641
331
0
  5
333645
331
0
  5
333646
331
0
  5
333647
331
0
  5
333648
331
0
  5
333649
331
0
  5
33364D
331
0
  5
333651
331
0
  5
333652
331
0
  5
333653
331
0
  5
333654
331
0
  5
333655
331
0
  5
333656
331
0
  5
333657
331
0
  5
333658
331
0
  5
333659
331
0
  5
33365A
331
0
  5
33365B
331
0
  5
33365C
331
0
  5
33365D
331
0
  5
33365E
331
0
  5
33365F
331
0
  5
333660
331
0
  5
333661
331
0
  5
333662
331
0
  5
333663
331
0
  5
333664
331
0
  5
333665
331
0
  5
333666
331
0
  5
333667
331
0
  5
333668
331
0
  5
333669
331
0
  5
33366A
331
0
  5
33366B
331
0
  5
33366C
331
0
  5
33366D
331
0
  5
33366E
331
0
  5
333672
331
0
  5
333673
331
0
  5
333674
331
0
  5
333675
331
0
  5
333676
331
0
  5
333677
331
0
  5
333678
331
0
  5
333679
331
0
  5
33367A
331
0
  5
33367B
331
0
  5
33367F
331
0
  5
333680
331
0
  5
333684
331
0
  5
333685
331
0
  5
33368A
331
0
  5
33368B
331
0
  5
33368C
331
0
  5
33368D
331
0
  5
33368E
331
0
  5
33368F
331
0
  5
333690
331
0
  5
333691
331
0
  5
333692
331
0
  5
333697
331
0
  5
33369C
331
0
  5
33369D
331
0
  5
33369E
331
0
  5
33369F
331
0
  5
3336A4
331
0
  5
3336A5
331
0
  5
3336AA
331
0
  5
3336AB
331
0
  5
3336AC
331
0
  5
3336AD
331
0
  5
3336AE
331
0
  5
3336B2
331
0
  5
3336B3
331
0
  5
3336B4
331
0
  5
3336B5
331
0
  5
3336B6
331
0
  5
3336BB
331
0
  5
3336C0
331
0
  5
3336C1
331
0
  5
3336C2
331
0
  5
3336C7
331
0
  5
3336C8
331
0
  5
3336C9
331
0
  5
3336CD
331
0
  5
3336D1
331
0
  5
3336E0
331
0
  5
3336EF
331
0
  5
3336F0
331
0
  5
3336F1
331
0
  5
3336F2
331
0
  5
334355
331
0
  5
334356
331
0
  5
334357
331
0
  5
334358
331
0
  5
334359
331
0
  5
33501F
331
0
  5
335020
331
0
  5
335021
331
0
  5
335022
331
0
  5
335023
331
0
  5
335024
331
0
  5
335025
331
0
  5
335026
331
0
  5
335027
331
0
  5
335028
331
0
  5
335029
331
0
  5
33502A
331
0
  5
33502B
331
0
  5
33502C
331
0
  5
33502D
331
0
  5
33502E
331
0
  5
33502F
331
0
  5
335030
331
0
  5
335031
331
0
  5
335032
331
0
  5
335033
331
0
  5
335034
331
0
  5
335035
331
0
  5
335036
331
0
  5
335037
331
0
  5
335038
331
0
  5
335039
331
0
  5
33503A
331
0
  5
33503C
331
0
  5
33503D
331
0
  5
33503E
331
0
  5
33503F
331
0
  5
335040
331
0
  5
335041
331
0
  5
335042
331
0
  5
335043
331
0
  5
335044
331
0
  5
335045
331
0
  5
335046
331
0
  5
335047
331
0
  5
335048
331
0
  5
335049
331
0
  5
33504A
331
0
  5
33504B
331
0
  5
33504C
331
0
  5
33504D
331
0
  5
33504E
331
0
  5
33504F
331
0
  5
335050
331
0
  5
335051
331
0
  5
335052
331
0
  5
335053
331
0
  5
335054
331
0
  5
335055
331
0
  5
335056
331
0
  5
335057
331
0
  5
335058
331
0
  5
335059
331
0
  5
33505A
331
0
  5
33505B
331
0
  5
33505C
331
0
  5
33505D
331
0
  5
33505E
331
0
  5
33505F
331
0
  5
335060
331
0
  5
335061
331
0
  5
335062
331
0
  5
335063
331
0
  5
335064
331
0
  5
335065
331
0
  5
335066
331
0
  5
335067
331
0
  5
335068
331
0
  5
335069
331
0
  5
33506A
331
0
  5
33506B
331
0
  5
33506C
331
0
  5
33506D
331
0
  5
33506E
331
0
  5
33506F
331
0
  5
335070
331
0
  5
335071
331
0
  5
335072
331
0
  5
335073
331
0
  5
335074
331
0
  5
335075
331
0
  5
335076
331
0
  5
335077
331
0
  5
335078
331
0
  5
335079
331
0
  5
33507A
331
0
  5
33507B
331
0
  5
33507C
331
0
  5
33507D
331
0
  5
33507E
331
0
  5
33507F
331
0
  5
335080
331
0
  5
335081
331
0
  5
335082
331
0
  5
335083
331
0
  5
335084
331
0
  5
335085
331
0
  5
335086
331
0
  5
335087
331
0
  5
335088
331
0
  5
335089
331
0
  5
33508A
331
0
  5
33508B
331
0
  5
33508C
331
0
  5
33508D
331
0
  5
33508E
331
0
  5
33508F
331
0
  5
335090
331
0
  5
335091
331
0
  5
335092
331
0
  5
335093
331
0
  5
335094
331
0
  5
335095
331
0
  5
335096
331
0
  5
335097
331
0
  5
335098
331
0
  5
335099
331
0
  5
33509A
331
0
  5
33509B
331
0
  5
33509C
331
0
  5
33509D
331
0
  5
33509E
331
0
  5
33509F
331
0
  5
3350A0
331
0
  5
3350A1
331
0
  5
3350A2
331
0
  5
3350A3
331
0
  5
3350A4
331
0
  5
3350A5
331
0
  5
3350A6
331
0
  5
3350A7
331
0
  5
3350A8
331
0
  5
3350A9
331
0
  5
3350AA
331
0
  5
3350AB
331
0
  5
3350AC
331
0
  5
3350AD
331
0
  5
3350AE
331
0
  5
3350AF
331
0
  5
3350B0
331
0
  5
3350B1
331
0
  5
3350B2
331
0
  5
3350B3
331
0
  5
3350B4
331
0
  5
3350B5
331
0
  5
3350B6
331
0
  5
3350B7
331
0
  5
3350B8
331
0
  5
3350B9
331
0
  5
3350BA
331
0
  5
3350BB
331
0
  5
3350BC
331
0
  5
3350BD
331
0
  5
3350BE
331
0
  5
3350BF
331
0
  5
3350C0
331
0
  5
3350C1
331
0
  5
3350C2
331
0
  5
3350C3
331
0
  5
3350C4
331
0
  5
3350C5
331
0
  5
3350C6
331
0
  5
3350C7
331
0
  5
3350C8
331
0
  5
3350C9
331
0
  5
3350CA
331
0
  5
3350CB
331
0
  5
3350CC
331
0
  5
3350CD
331
0
  5
3350CE
331
0
  5
3350CF
331
0
  5
3350D0
331
0
  5
3350D1
331
0
  5
3350D2
331
0
  5
3350D3
331
0
  5
3350D4
331
0
  5
3350D5
331
0
  5
3350D6
331
0
  5
3350D7
331
0
  5
3350D8
331
0
  5
3350D9
331
0
  5
3350DA
331
0
  5
3350DB
331
0
  5
3350DC
331
0
  5
3350DD
331
0
  5
3350DE
331
0
  5
3350DF
331
0
  5
3350E0
331
0
  5
3350E1
331
0
  5
3350E2
331
0
  5
3350E3
331
0
  5
3350E4
331
0
  5
3350E5
331
0
  5
3350E6
331
0
  5
3350E7
331
0
  5
3350E8
331
0
  5
3350E9
331
0
  5
3350EA
331
0
  5
3350EB
331
0
  5
3350EC
331
0
  5
3350ED
331
0
  5
3350EE
331
0
  5
3350EF
331
0
  5
3350F0
331
0
  5
3350F1
331
0
  5
3350F2
331
0
  5
3350F3
331
0
  5
3350F4
331
0
  5
3350F5
331
0
  5
3350F6
331
0
  5
3350F7
331
0
  5
3350F8
331
0
  5
3350F9
331
0
  5
3350FA
331
0
  5
3350FB
331
0
  5
3350FC
331
0
  5
3350FD
331
0
  5
3350FE
331
0
  5
3350FF
331
0
  5
335100
331
0
  5
335101
331
0
  5
335102
331
0
  5
335103
331
0
  5
335104
331
0
  5
335105
331
0
  5
335106
331
0
  5
335107
331
0
  5
335108
331
0
  5
335109
331
0
  5
33510A
331
0
  5
33510B
331
0
  5
33510C
331
0
  5
33510D
331
0
  5
33510E
331
0
  5
33510F
331
0
  5
335110
331
0
  5
335111
331
0
  5
335112
331
0
  5
335113
331
0
  5
335115
331
0
  5
335116
331
0
  5
335117
331
0
  5
335118
331
0
  5
335119
331
0
  5
33511A
331
0
  5
33511B
331
0
  5
33511C
331
0
  5
33511D
331
0
  5
33511E
331
0
  5
33511F
331
0
  5
335120
331
0
  5
335121
331
0
  5
335122
331
0
  5
335123
331
0
  5
335124
331
0
  5
335125
331
0
  5
335126
331
0
  5
335127
331
0
  5
335128
331
0
  5
335129
331
0
  5
33512A
331
0
  5
33512B
331
0
  5
33512C
331
0
  5
33512D
331
0
  5
33512E
331
0
  5
33512F
331
0
  5
335130
331
0
  5
335131
331
0
  5
335132
331
0
  5
335133
331
0
  5
335134
331
0
  5
335135
331
0
  5
335136
331
0
  5
335137
331
0
  5
335138
331
0
  5
335139
331
0
  5
33513A
331
0
  5
33513B
331
0
  5
33513C
331
0
  5
33513D
331
0
  5
33513E
331
0
  5
33513F
331
0
  5
335140
331
0
  5
335141
331
0
  5
335142
331
0
  5
335143
331
0
  5
335144
331
0
  5
335145
331
0
  5
335146
331
0
  5
335147
331
0
  5
335148
331
0
  5
335149
331
0
  5
33514A
331
0
  5
33514B
331
0
  5
33514C
331
0
  5
33514D
331
0
  5
33514E
331
0
  5
33514F
331
0
  5
335150
331
0
  5
335151
331
0
  5
335152
331
0
  5
335153
331
0
  5
335154
331
0
  5
335155
331
0
  5
335156
331
0
  5
335157
331
0
  5
335158
331
0
  5
335159
331
0
  5
33515A
331
0
  5
33515B
331
0
  5
33515C
331
0
  5
33515D
331
0
  5
33515E
331
0
  5
33515F
331
0
  5
335160
331
0
  5
335161
331
0
  5
335162
331
0
  5
335163
331
0
  5
335164
331
0
  5
335165
331
0
  5
335166
331
0
  5
335167
331
0
  5
335168
331
0
  5
335169
331
0
  5
33516A
331
0
  5
33516B
331
0
  5
33516C
331
0
  5
33516D
331
0
  5
33516E
331
0
  5
33516F
331
0
  5
335170
331
0
  5
335171
331
0
  5
335172
331
0
  5
335173
331
0
  5
335174
331
0
  5
335175
331
0
  5
335176
331
0
  5
335177
331
0
  5
335178
331
0
  5
335179
331
0
  5
33517A
331
0
  5
33517B
331
0
  5
33517C
331
0
  5
33517D
331
0
  5
33517E
331
0
  5
33517F
331
0
  5
335180
331
0
  5
335181
331
0
  5
335182
331
0
  5
335183
331
0
  5
335184
331
0
  5
335185
331
0
  5
335186
331
0
  5
335187
331
0
  5
335188
331
0
  5
335189
331
0
  5
33518A
331
0
  5
33518B
331
0
  5
33518C
331
0
  5
33518D
331
0
  5
33518E
331
0
  5
33518F
331
0
  5
335190
331
0
  5
335191
331
0
  5
335192
331
0
  5
335193
331
0
  5
335194
331
0
  5
335195
331
0
  5
335196
331
0
  5
335197
331
0
  5
335198
331
0
  5
335199
331
0
  5
33519A
331
0
  5
33519B
331
0
  5
33519C
331
0
  5
33519D
331
0
  5
33519E
331
0
  5
33519F
331
0
  5
3351A0
331
0
  5
3351A1
331
0
  5
3351A2
331
0
  5
3351A3
331
0
  5
3351A4
331
0
  5
3351A5
331
0
  5
3351A6
331
0
  5
3351A7
331
0
  5
3351A8
331
0
  5
3351A9
331
0
  5
3351AA
331
0
  5
3351AB
331
0
  5
3351AC
331
0
  5
3351AD
331
0
  5
3351AE
331
0
  5
3351AF
331
0
  5
3351B0
331
0
  5
3351B1
331
0
  5
3351B2
331
0
  5
3351B3
331
0
  5
3351B4
331
0
  5
3351B5
331
0
  5
3351B6
331
0
  5
3351B7
331
0
  5
3351B8
331
0
  5
3351B9
331
0
  5
3351BA
331
0
  5
3351BB
331
0
  5
3351BC
331
0
  5
3351BD
331
0
  5
3351BE
331
0
  5
3351BF
331
0
  5
3351C0
331
0
  5
3351C1
331
0
  5
3351C2
331
0
  5
3351C3
331
0
  5
3351C4
331
0
  5
3351C5
331
0
  5
3351C6
331
0
  5
3351C7
331
0
  5
3351C8
331
0
  5
3351C9
331
0
  5
3351CA
331
0
  5
3351CB
331
0
  5
3351CC
331
0
  5
3351CD
331
0
  5
3351CE
331
0
  5
3351CF
331
0
  5
3351D0
331
0
  5
3351D1
331
0
  5
3351D2
331
0
  5
3351D3
331
0
  5
3351D4
331
0
  5
3351D5
331
0
  5
3351D6
331
0
  5
3351D7
331
0
  5
3351D8
331
0
  5
3351D9
331
0
  5
3351DA
331
0
  5
3351DB
331
0
  5
3351DC
331
0
  5
3351DD
331
0
  5
3351DE
331
0
  5
3351DF
331
0
  5
3351E0
331
0
  5
3351E1
331
0
  5
3351E2
331
0
  5
3351E3
331
0
  5
3351E4
331
0
  5
3351E5
331
0
  5
3351E6
331
0
  5
3351E7
331
0
  5
3351E8
331
0
  5
3351E9
331
0
  5
3351EA
331
0
  5
3351EB
331
0
  5
3351EC
331
0
  5
3351ED
331
0
  5
3351EE
331
0
  5
3351EF
331
0
  5
3351F0
331
0
  5
3351F1
331
0
  5
3351F2
331
0
  5
3351F3
331
0
  5
3351F4
331
0
  5
3351F5
331
0
  5
3351F6
331
0
  5
3351F7
331
0
  5
3351F8
331
0
  5
3351F9
331
0
  5
3351FA
331
0
  5
3351FB
331
0
  5
3351FC
331
0
  5
3351FD
331
0
  5
3351FE
331
0
  5
3351FF
331
0
  5
335200
331
0
  5
335201
331
0
  5
335202
331
0
  5
335203
331
0
  5
335204
331
0
  5
335205
331
0
  5
335206
331
0
  5
335207
331
0
  5
335208
331
0
  5
335209
331
0
  5
33520A
331
0
  5
33520B
331
0
  5
33520C
331
0
  5
33520D
331
0
  5
33520E
331
0
  5
33520F
331
0
  5
335210
331
0
  5
335211
331
0
  5
335212
331
0
  5
335213
331
0
  5
335214
331
0
  5
335215
331
0
  5
335216
331
0
  5
335217
331
0
  5
335218
331
0
  5
335219
331
0
  5
33521A
331
0
  5
33521B
331
0
  5
33521C
331
0
  5
33521D
331
0
  5
33521E
331
0
  5
33521F
331
0
  5
335220
331
0
  5
335221
331
0
  5
335222
331
0
  5
335223
331
0
  5
335224
331
0
  5
335225
331
0
  5
335226
331
0
  5
335227
331
0
  5
335228
331
0
  5
335229
331
0
  5
33522A
331
0
  5
33522B
331
0
  5
33522C
331
0
  5
33522D
331
0
  5
33522E
331
0
  5
33522F
331
0
  5
335230
331
0
  5
335231
331
0
  5
335232
331
0
  5
335233
331
0
  5
335234
331
0
  5
335235
331
0
  5
335236
331
0
  5
335237
331
0
  5
335238
331
0
  5
335239
331
0
  5
33523A
331
0
  5
33523B
331
0
  5
33523C
331
0
  5
33523D
331
0
  5
33523E
331
0
  5
33523F
331
0
  5
335240
331
0
  5
335241
331
0
  5
335242
331
0
  5
335243
331
0
  5
335244
331
0
  5
335245
331
0
  5
335246
331
0
  5
335247
331
0
  5
335248
331
0
  5
335249
331
0
  5
33524A
331
0
  5
33524B
331
0
  5
33524C
331
0
  5
33524D
331
0
  5
33524E
331
0
  5
33524F
331
0
  5
335250
331
0
  5
335251
331
0
  5
335252
331
0
  5
335253
331
0
  5
335254
331
0
  5
335255
331
0
  5
335256
331
0
  5
335257
331
0
  5
335258
331
0
  5
335259
331
0
  5
33525A
331
0
  5
33525B
331
0
  5
33525C
331
0
  5
33525D
331
0
  5
33525E
331
0
  5
33525F
331
0
  5
335260
331
0
  5
335261
331
0
  5
335262
331
0
  5
335263
331
0
  5
335264
331
0
  5
335265
331
0
  5
335266
331
0
  5
335267
331
0
  5
335268
331
0
  5
335269
331
0
  5
33526A
331
0
  5
33526B
331
0
  5
33526C
331
0
  5
33526D
331
0
  5
33526E
331
0
  5
33526F
331
0
  5
335270
331
0
  5
335271
331
0
  5
335272
331
0
  5
335273
331
0
  5
335274
331
0
  5
335275
331
0
  5
335276
331
0
  5
335277
331
0
  5
335278
331
0
  5
335279
331
0
  5
33527A
331
0
  5
33527B
331
0
  5
33527C
331
0
  5
33527D
331
0
  5
33527E
331
0
  5
33527F
331
0
  5
335280
331
0
  5
335281
331
0
  5
335282
331
0
  5
335283
331
0
  5
335284
331
0
  5
335285
331
0
  5
335286
331
0
  5
335287
331
0
  5
335288
331
0
  5
335289
331
0
  5
33528A
331
0
  5
33528B
331
0
  5
33528C
331
0
  5
33528D
331
0
  5
33528E
331
0
  5
33528F
331
0
  5
335290
331
0
  5
335291
331
0
  5
335292
331
0
  5
335293
331
0
  5
335294
331
0
  5
335295
331
0
  5
335296
331
0
  5
335297
331
0
  5
335298
331
0
  5
335299
331
0
  5
33529A
331
0
  5
33529B
331
0
  5
33529C
331
0
  5
33529D
331
0
  5
33529E
331
0
  5
33529F
331
0
  5
3352A0
331
0
  5
3352A1
331
0
  5
3352A2
331
0
  5
3352A3
331
0
  5
3352A4
331
0
  5
3352A5
331
0
  5
3352A6
331
0
  5
3352A7
331
0
  5
3352A8
331
0
  5
3352A9
331
0
  5
3352AA
331
0
  5
3352AB
331
0
  5
3352AC
331
0
  5
3352AD
331
0
  5
3352AE
331
0
  5
3352AF
331
0
  5
3352B0
331
0
  5
3352B1
331
0
  5
3352B2
331
0
  5
3352B3
331
0
  5
3352B4
331
0
  5
3352B5
331
0
  5
3352B6
331
0
  5
3352B7
331
0
  5
3352B8
331
0
  5
3352B9
331
0
  5
3352BA
331
0
  5
3352BB
331
0
  5
3352BC
331
0
  5
3352BD
331
0
  5
3352BE
331
0
  5
3352BF
331
0
  5
3352C0
331
0
  5
3352C1
331
0
  5
3352C2
331
0
  5
3352C3
331
0
  5
3352C4
331
0
  5
3352C5
331
0
  5
3352C6
331
0
  5
3352C7
331
0
  5
3352C8
331
0
  5
3352C9
331
0
  5
3352CA
331
0
  5
3352CB
331
0
  5
3352CC
331
0
  5
3352CD
331
0
  5
3352CE
331
0
  5
3352CF
331
0
  5
3352D0
331
0
  5
3352D1
331
0
  5
3352D2
331
0
  5
3352D3
331
0
  5
3352D4
331
0
  5
3352D5
331
0
  5
3352D6
331
0
  5
3352D7
331
0
  5
3352D8
331
0
  5
3352D9
331
0
  5
3352DA
331
0
  5
3352DB
331
0
  5
3352DC
331
0
  5
3352DD
331
0
  5
3352DE
331
0
  5
3352DF
331
0
  5
3352E0
331
0
  5
3352E1
331
0
  5
3352E2
331
0
  5
3352E3
331
0
  5
3352E4
331
0
  5
3352E5
331
0
  5
3352E6
331
0
  5
3352E7
331
0
  5
3352E8
331
0
  5
3352E9
331
0
  5
3352EA
331
0
  5
3352EB
331
0
  5
3352EC
331
0
  5
3352ED
331
0
  5
3352EE
331
0
  5
3352EF
331
0
  5
3352F0
331
0
  5
3352F1
331
0
  5
3352F2
331
0
  5
3352F3
331
0
  5
3352F4
331
0
  5
3352F5
331
0
  5
3352F6
331
0
  5
3352F7
331
0
  5
3352F8
331
0
  5
3352F9
331
0
  5
3352FA
331
0
  5
3352FB
331
0
  5
3352FC
331
0
  5
3352FD
331
0
  5
3352FE
331
0
  5
3352FF
331
0
  5
335300
331
0
  5
335301
331
0
  5
335302
331
0
  5
335303
331
0
  5
335304
331
0
  5
335305
331
0
  5
335306
331
0
  5
335307
331
0
  5
335320
331
0
  5
335321
331
0
  5
335322
331
0
  5
335323
331
0
  5
335324
331
0
  5
335325
331
0
  5
335326
331
0
  5
335327
331
0
  5
335328
331
0
  5
335329
331
0
  5
33532A
331
0
  5
33532B
331
0
  5
33532C
331
0
  5
33532D
331
0
  5
33532E
331
0
  5
33532F
331
0
  5
335330
331
0
  5
335331
331
0
  5
335332
331
0
  5
335333
331
0
  5
335334
331
0
  5
335335
331
0
  5
335336
331
0
  5
335337
331
0
  5
335338
331
0
  5
335339
331
0
  5
33533A
331
0
  5
33533B
331
0
  5
33533C
331
0
  5
33533D
331
0
  5
33533F
331
0
  5
335341
331
0
  5
335342
331
0
  5
335343
331
0
  5
335344
331
0
  5
335345
331
0
  5
335346
331
0
  5
335347
331
0
  5
335348
331
0
  5
335349
331
0
  5
33534A
331
0
  5
33534B
331
0
  5
33534C
331
0
  5
33534D
331
0
  5
33534E
331
0
  5
33534F
331
0
  5
335350
331
0
  5
335351
331
0
  5
335352
331
0
  5
335353
331
0
  5
335354
331
0
  5
335355
331
0
  5
335356
331
0
  5
335357
331
0
  5
335358
331
0
  5
335359
331
0
  5
33535A
331
0
  5
33535B
331
0
  5
33535C
331
0
  5
33535D
331
0
  5
33535E
331
0
  5
33535F
331
0
  5
335360
331
0
  5
335361
331
0
  5
335362
331
0
  5
335363
331
0
  5
335364
331
0
  5
335365
331
0
  5
335367
331
0
  5
335368
331
0
  5
335369
331
0
  5
33536A
331
0
  5
33536B
331
0
  5
33536C
331
0
  5
33536D
331
0
  5
33536E
331
0
  5
33536F
331
0
  5
335370
331
0
  5
335371
331
0
  5
335372
331
0
  5
335373
331
0
  5
335374
331
0
  5
335375
331
0
  5
335376
331
0
  5
335377
331
0
  5
335378
331
0
  5
335379
331
0
  5
33537A
331
0
  5
33537B
331
0
  5
33537C
331
0
  5
33537D
331
0
  5
33537E
331
0
  5
33537F
331
0
  5
335380
331
0
  5
335381
331
0
  5
335382
331
0
  5
335383
331
0
  5
335384
331
0
  5
335385
331
0
  5
335386
331
0
  5
335387
331
0
  5
335388
331
0
  5
335389
331
0
  5
33538A
331
0
  5
33538B
331
0
  5
33538C
331
0
  5
33538D
331
0
  5
33538E
331
0
  5
33538F
331
0
  5
335390
331
0
  5
335391
331
0
  5
335392
331
0
  5
335393
331
0
  5
335394
331
0
  5
335395
331
0
  5
335396
331
0
  5
335397
331
0
  5
335398
331
0
  5
335399
331
0
  5
33539A
331
0
  5
33539B
331
0
  5
33539C
331
0
  5
33539D
331
0
  5
33539E
331
0
  5
33539F
331
0
  5
3353A0
331
0
  5
3353A1
331
0
  5
3353A2
331
0
  5
3353A3
331
0
  5
3353A4
331
0
  5
3353A5
331
0
  5
3353A6
331
0
  5
3353A7
331
0
  5
3353A8
331
0
  5
3353A9
331
0
  5
3353AA
331
0
  5
3353AB
331
0
  5
3353AC
331
0
  5
3353AD
331
0
  5
3353AE
331
0
  5
3353AF
331
0
  5
3353B0
331
0
  5
3353B1
331
0
  5
3353B2
331
0
  5
3353B3
331
0
  5
3353B4
331
0
  5
3353B5
331
0
  5
3353B6
331
0
  5
3353B7
331
0
  5
3353B8
331
0
  5
3353B9
331
0
  5
3353BA
331
0
  5
3353BB
331
0
  5
3353BC
331
0
  5
3353BD
331
0
  5
3353BE
331
0
  5
3353BF
331
0
  5
3353C0
331
0
  5
3353C1
331
0
  5
3353C2
331
0
  5
3353C3
331
0
  5
3353C4
331
0
  5
3353C5
331
0
  5
3353C6
331
0
  5
3353C7
331
0
  5
3353C8
331
0
  5
3353C9
331
0
  5
3353CA
331
0
  5
3353CB
331
0
  5
3353CC
331
0
  5
3353CD
331
0
  5
3353CE
331
0
  5
3353CF
331
0
  5
3353D0
331
0
  5
3353D1
331
0
  5
3353D2
331
0
  5
3353D3
331
0
  5
3353D4
331
0
  5
3353D5
331
0
  5
3353D6
331
0
  5
3353D7
331
0
  5
3353D8
331
0
  5
3353D9
331
0
  5
3353DA
331
0
  5
3353DB
331
0
  5
3353DC
331
0
  5
3353DD
331
0
  5
3353DE
331
0
  5
3353DF
331
0
  5
3353E0
331
0
  5
3353E1
331
0
  5
3353E2
331
0
  5
3353E3
331
0
  5
3353E4
331
0
  5
3353E5
331
0
  5
3353E6
331
0
  5
3353E7
331
0
  5
3353E8
331
0
  5
3353E9
331
0
  5
3353EA
331
0
  5
3353EB
331
0
  5
3353EC
331
0
  5
3353ED
331
0
  5
3353EE
331
0
  5
3353EF
331
0
  5
3353F0
331
0
  5
3353F1
331
0
  5
3353F2
331
0
  5
3353F3
331
0
  5
3353F4
331
0
  5
3353F5
331
0
  5
3353F6
331
0
  5
3353F7
331
0
  5
3353F8
331
0
  5
3353F9
331
0
  5
3353FA
331
0
  5
3353FB
331
0
  5
3353FC
331
0
  5
3353FD
331
0
  5
3353FE
331
0
  5
3353FF
331
0
  5
335400
331
0
  5
335401
331
0
  5
335402
331
0
  5
335403
331
0
  5
335404
331
0
  5
335406
331
0
  5
335407
331
0
  5
335408
331
0
  5
335409
331
0
  5
33540A
331
0
  5
33540B
331
0
  5
33540C
331
0
  5
33540D
331
0
  5
33540E
331
0
  5
33540F
331
0
  5
335410
331
0
  5
335411
331
0
  5
335412
331
0
  5
335413
331
0
  5
335414
331
0
  5
335415
331
0
  5
335416
331
0
  5
335417
331
0
  5
335418
331
0
  5
335419
331
0
  5
33541C
331
0
  5
33541D
331
0
  5
33541E
331
0
  5
33541F
331
0
  5
335423
331
0
  5
335424
331
0
  5
335425
331
0
  5
335426
331
0
  5
335427
331
0
  5
335428
331
0
  5
335429
331
0
  5
33542A
331
0
  5
33542B
331
0
  5
33542C
331
0
  5
33542D
331
0
  5
33542E
331
0
  5
33543D
331
0
  5
33543E
331
0
  5
33543F
331
0
  5
335440
331
0
  5
335451
331
0
  5
335452
331
0
  5
335453
331
0
  5
335455
331
0
  5
335456
331
0
  5
335457
331
0
  5
335459
331
0
  5
335466
331
0
  5
335473
331
0
  5
335482
331
0
  5
33549C
331
0
  5
3354A9
331
0
  5
335745
331
0
  5
335784
331
0
  5
335785
331
0
  5
335786
331
0
  5
335787
331
0
  5
335788
331
0
  5
335789
331
0
  5
33578A
331
0
  5
33578B
331
0
  5
33578C
331
0
  5
33578D
331
0
  5
33578E
331
0
  5
33578F
331
0
  5
335790
331
0
  5
335791
331
0
  5
335792
331
0
  5
335793
331
0
  5
335794
331
0
  5
335795
331
0
  5
335796
331
0
  5
335797
331
0
  5
335798
331
0
  5
3357A9
331
0
  5
3357AB
331
0
  5
3357AC
331
0
  5
3357AD
331
0
  5
3357AE
331
0
  5
3357AF
331
0
  5
3357B0
331
0
  5
3357B1
331
0
  5
3357B2
331
0
  5
3357B3
331
0
  5
3357B4
331
0
  5
3357B5
331
0
  5
3357B6
331
0
  5
3357B7
331
0
  5
3357B8
331
0
  5
3357B9
331
0
  5
3357BA
331
0
  5
335366
331
0
  5
3357BB
331
0
  5
3357BC
331
0
  5
3357BD
331
0
  5
3358B8
331
0
  5
3358B9
331
0
  5
3358BD
331
0
  5
3358BE
331
0
  5
3358BF
331
0
  5
3358C0
331
0
  5
3358C1
331
0
  5
3358C2
331
0
  5
3358C3
331
0
  5
3358C4
331
0
  5
3358C5
331
0
  5
3358C6
331
0
  5
3358C7
331
0
  5
3358C8
331
0
  5
3358C9
331
0
  5
3358CB
331
0
  5
3358CC
331
0
  5
3358CD
331
0
  5
3358CE
331
0
  5
3358CF
331
0
  5
3358D0
331
0
  5
3358D1
331
0
  5
3358D2
331
0
  5
3358D3
331
0
  5
3358D4
331
0
  5
3358D5
331
0
  5
3358D6
331
0
  5
3358D7
331
0
  5
3358D8
331
0
  5
3358D9
331
0
  5
3358DE
331
0
  5
3358DF
331
0
  5
3358E1
331
0
  5
3358E2
331
0
  5
3358E3
331
0
  5
3358FC
331
0
  5
3358FD
331
0
  5
3358FE
331
0
  5
3358FF
331
0
  5
335900
331
0
  5
335901
331
0
  5
335902
331
0
  5
335903
331
0
  5
335904
331
0
  5
335905
331
0
  5
335906
331
0
  5
335907
331
0
  5
335908
331
0
  5
335909
331
0
  5
33595B
331
0
  5
33595C
331
0
  5
33595D
331
0
  5
33595E
331
0
  5
33595F
331
0
  5
335960
331
0
  5
335961
331
0
  5
335962
331
0
  5
335963
331
0
  5
335964
331
0
  5
335965
331
0
  5
335966
331
0
  5
335967
331
0
  5
335968
331
0
  5
335969
331
0
  5
33596A
331
0
  5
33596B
331
0
  5
33596C
331
0
  5
33596D
331
0
  5
33596E
331
0
  5
33596F
331
0
  5
335970
331
0
  5
335971
331
0
  5
335972
331
0
  5
335973
331
0
  5
335974
331
0
  5
335975
331
0
  5
335976
331
0
  5
335977
331
0
  5
335978
331
0
  5
335979
331
0
  5
33597A
331
0
  5
33597B
331
0
  5
33597C
331
0
  5
33597D
331
0
  5
33597E
331
0
  5
33597F
331
0
  5
335980
331
0
  5
335981
331
0
  5
335982
331
0
  5
335983
331
0
  5
335984
331
0
  5
335985
331
0
  5
335986
331
0
  5
335987
331
0
  5
335988
331
0
  5
335989
331
0
  5
33598A
331
0
  5
33598B
331
0
  5
33598C
331
0
  5
33598D
331
0
  5
33598E
331
0
  5
33598F
331
0
  5
335990
331
0
  5
335991
331
0
  5
335992
331
0
  5
335993
331
0
  5
335994
331
0
  5
335995
331
0
  5
335996
331
0
  5
335997
331
0
  5
335998
331
0
  5
335999
331
0
  5
33599A
331
0
  5
33599B
331
0
  5
33599C
331
0
  5
33599D
331
0
  5
33599E
331
0
  5
33599F
331
0
  5
3359A0
331
0
  5
3359A1
331
0
  5
3359A2
331
0
  5
3359A3
331
0
  5
3359A4
331
0
  5
3359A5
331
0
  5
3359A6
331
0
  5
3359A7
331
0
  5
3359A8
331
0
  5
3359A9
331
0
  5
3359AA
331
0
  5
3359AB
331
0
  5
3359AC
331
0
  5
3359AD
331
0
  5
3359AE
331
0
  5
3359AF
331
0
  5
3359B0
331
0
  5
3359B1
331
0
  5
3359B2
331
0
  5
3359B3
331
0
  5
3359B4
331
0
  5
3359B5
331
0
  5
3359B6
331
0
  5
3359B7
331
0
  5
3359B8
331
0
  5
3359B9
331
0
  5
3359BA
331
0
  5
3359BB
331
0
  5
3359BC
331
0
  5
3359BD
331
0
  5
3359BE
331
0
  5
3359BF
331
0
  5
3359C0
331
0
  5
3359C1
331
0
  5
3359C2
331
0
  5
3359C3
331
0
  5
3359C4
331
0
  5
3359C5
331
0
  5
3359C6
331
0
  5
3359C7
331
0
  5
3359C8
331
0
  5
3359C9
331
0
  5
3359CA
331
0
  5
3359CB
331
0
  5
3359CC
331
0
  5
3359CD
331
0
  5
3359CE
331
0
  5
3359CF
331
0
  5
3359D0
331
0
  5
3359D1
331
0
  5
3359D2
331
0
  5
3359D3
331
0
  5
3359D4
331
0
  5
3359D5
331
0
  5
3359D6
331
0
  5
3359D7
331
0
  5
3359D8
331
0
  5
3359D9
331
0
  5
3359DA
331
0
  5
3359DB
331
0
  5
3359DC
331
0
  5
3359DD
331
0
  5
3359DE
331
0
  5
3359DF
331
0
  5
3359E0
331
0
  5
3359E1
331
0
  5
3359E2
331
0
  5
3359E3
331
0
  5
3359E4
331
0
  5
3359E5
331
0
  5
3359E6
331
0
  5
3359E7
331
0
  5
3359E8
331
0
  5
3359E9
331
0
  5
3359EA
331
0
  5
3359EB
331
0
  5
3359EC
331
0
  5
3359ED
331
0
  5
3359EE
331
0
  5
3359EF
331
0
  5
3359F0
331
0
  5
3359F1
331
0
  5
3359F2
331
0
  5
3359F3
331
0
  5
3359F4
331
0
  5
3359F5
331
0
  5
3359F6
331
0
  5
3359F7
331
0
  5
3359F8
331
0
  5
3359F9
331
0
  5
3359FA
331
0
  5
3359FB
331
0
  5
3359FC
331
0
  5
3359FD
331
0
  5
3359FE
331
0
  5
3359FF
331
0
  5
335A00
331
0
  5
335A01
331
0
  5
335A02
331
0
  5
335A03
331
0
  5
335A04
331
0
  5
335A05
331
0
  5
335A06
331
0
  5
335A07
331
0
  5
335A08
331
0
  5
335A09
331
0
  5
335A0A
331
0
  5
335A0B
331
0
  5
335A0C
331
0
  5
335A0D
331
0
  5
335A0E
331
0
  5
335A0F
331
0
  5
335A10
331
0
  5
335A11
331
0
  5
335A12
331
0
  5
335A13
331
0
  5
335A14
331
0
  5
335A15
331
0
  5
335A16
331
0
  5
335A17
331
0
  5
335A18
331
0
  5
335A19
331
0
  5
335A1A
331
0
  5
335A1B
331
0
  5
335A1C
331
0
  5
335A1D
331
0
  5
335A1E
331
0
  5
335A1F
331
0
  5
335A20
331
0
  5
335A21
331
0
  5
335A22
331
0
  5
335A23
331
0
  5
335A24
331
0
  5
335A25
331
0
  5
335A26
331
0
  5
335A27
331
0
  5
335A28
331
0
  5
335A29
331
0
  5
335A2A
331
0
  5
335A2B
331
0
  5
335A2C
331
0
  5
335A2D
331
0
  5
335A2E
331
0
  5
335A2F
331
0
  5
335A30
331
0
  5
335A31
331
0
  5
335A34
331
0
  5
335A35
331
0
  5
335A36
331
0
  5
335A37
331
0
  5
335A38
331
0
  5
335A39
331
0
  5
335A3A
331
0
  5
335A3B
331
0
  5
335A3C
331
0
  5
335A3D
331
0
  5
335A3E
331
0
  5
335A3F
331
0
  5
335A40
331
0
  5
335A41
331
0
  5
335A42
331
0
  5
335A43
331
0
  5
335A44
331
0
  5
335A45
331
0
  5
335A46
331
0
  5
335A47
331
0
  5
335A48
331
0
  5
335A49
331
0
  5
335A4A
331
0
  5
335A4B
331
0
  5
335A4C
331
0
  5
335A4D
331
0
  5
335A4E
331
0
  5
335A4F
331
0
  5
335A50
331
0
  5
335A51
331
0
  5
335A52
331
0
  5
335A54
331
0
  5
335A55
331
0
  5
335A56
331
0
  5
335A57
331
0
  5
335A58
331
0
  5
335A59
331
0
  5
335A5A
331
0
  5
335A5B
331
0
  5
335A5C
331
0
  5
335A5D
331
0
  5
335A5F
331
0
  5
335A60
331
0
  5
335A61
331
0
  5
335A62
331
0
  5
335A63
331
0
  5
335A64
331
0
  5
335A65
331
0
  5
335A66
331
0
  5
335A67
331
0
  5
335A68
331
0
  5
335A69
331
0
  5
335A6A
331
0
  5
335A6B
331
0
  5
335A6C
331
0
  5
335A6D
331
0
  5
335A6E
331
0
  5
335A6F
331
0
  5
335A70
331
0
  5
335A71
331
0
  5
335A72
331
0
  5
335A73
331
0
  5
335A74
331
0
  5
335A75
331
0
  5
335A76
331
0
  5
335A77
331
0
  5
335A78
331
0
  5
335A79
331
0
  5
335A7A
331
0
  5
335A7B
331
0
  5
335A7C
331
0
  5
335A7D
331
0
  5
335A7E
331
0
  5
335A7F
331
0
  5
335A80
331
0
  5
335A81
331
0
  5
335A82
331
0
  5
335A83
331
0
  5
335A84
331
0
  5
335A85
331
0
  5
335A86
331
0
  5
335A87
331
0
  5
335A88
331
0
  5
335A89
331
0
  5
335A8A
331
0
  5
335A8B
331
0
  5
335A8C
331
0
  5
335A8D
331
0
  5
335A8E
331
0
  5
335A8F
331
0
  5
335A91
331
0
  5
335A92
331
0
  5
335A93
331
0
  5
335A94
331
0
  5
335A95
331
0
  5
335A96
331
0
  5
335A97
331
0
  5
335A98
331
0
  5
335A99
331
0
  5
335A9A
331
0
  5
335A9B
331
0
  5
335A9C
331
0
  5
335A9D
331
0
  5
335A9E
331
0
  5
335A9F
331
0
  5
335AA0
331
0
  5
335AA1
331
0
  5
335AA2
331
0
  5
335AA3
331
0
  5
335AA4
331
0
  5
335AA5
331
0
  5
335AA6
331
0
  5
335AA7
331
0
  5
335AA8
331
0
  5
335AA9
331
0
  5
335AAA
331
0
  5
335AAB
331
0
  5
335AAC
331
0
  5
335AAD
331
0
  5
335AAE
331
0
  5
335AAF
331
0
  5
335AB0
331
0
  5
335AB1
331
0
  5
335AB2
331
0
  5
335AB3
331
0
  5
335AB4
331
0
  5
335AB5
331
0
  5
335AB6
331
0
  5
335AB7
331
0
  5
335AB8
331
0
  5
335AB9
331
0
  5
335ABA
331
0
  5
335ABB
331
0
  5
335ABC
331
0
  5
335ABD
331
0
  5
335ABE
331
0
  5
335ABF
331
0
  5
335AC0
331
0
  5
335AC1
331
0
  5
335AC2
331
0
  5
335AC3
331
0
  5
335AC4
331
0
  5
335AC5
331
0
  5
335AC6
331
0
  5
335AC7
331
0
  5
335AC8
331
0
  5
335AC9
331
0
  5
335ACA
331
0
  5
335ACB
331
0
  5
335ACC
331
0
  5
335ACD
331
0
  5
335BC1
331
0
  5
335BC2
331
0
  5
335BC3
331
0
  5
335BC4
331
0
  5
335BC9
331
0
  5
335BCA
331
0
  5
335C0A
331
0
  5
335C0B
331
0
  5
335C0C
331
0
  5
335C0D
331
0
  5
335C0E
331
0
  5
335C0F
331
0
  5
335C10
331
0
  5
335C11
331
0
  5
335C12
331
0
  5
335C13
331
0
  5
335C14
331
0
  5
335C15
331
0
  5
335C16
331
0
  5
335C17
331
0
  5
335C18
331
0
  5
335C19
331
0
  5
335C1A
331
0
  5
335C1B
331
0
  5
335C1C
331
0
  5
335C1D
331
0
  5
335C1E
331
0
  5
335C1F
331
0
  5
335C20
331
0
  5
335C21
331
0
  5
335C22
331
0
  5
335C23
331
0
  5
335C24
331
0
  5
335C25
331
0
  5
335C26
331
0
  5
335C27
331
0
  5
335C28
331
0
  5
335C29
331
0
  5
335C2A
331
0
  5
335C2B
331
0
  5
335C2C
331
0
  5
335C2D
331
0
  5
335C2E
331
0
  5
335C2F
331
0
  5
335C30
331
0
  5
335C31
331
0
  5
335C32
331
0
  5
335C33
331
0
  5
335C34
331
0
  5
335C35
331
0
  5
335C36
331
0
  5
335C37
331
0
  5
335C38
331
0
  5
335C39
331
0
  5
335C3A
331
0
  5
335C59
331
0
  5
335C5B
331
0
  5
335C5C
331
0
  5
335C5D
331
0
  5
335C5E
331
0
  5
335C5F
331
0
  5
335C60
331
0
  5
335C61
331
0
  5
335C62
331
0
  5
335C63
331
0
  5
335C64
331
0
  5
335C65
331
0
  5
335C66
331
0
  5
335C67
331
0
  5
335C68
331
0
  5
335C69
331
0
  5
335C6A
331
0
  5
335C6B
331
0
  5
335C6C
331
0
  5
335C6D
331
0
  5
335C6E
331
0
  5
335C6F
331
0
  5
335C70
331
0
  5
335C71
331
0
  5
335C72
331
0
  5
335C73
331
0
  5
335C74
331
0
  5
335C75
331
0
  5
335C76
331
0
  5
335C77
331
0
  5
335C78
331
0
  5
335C79
331
0
  5
335C7A
331
0
  5
335C7B
331
0
  5
335C7C
331
0
  5
335C7D
331
0
  5
335C7E
331
0
  5
335C7F
331
0
  5
335C80
331
0
  5
335C82
331
0
  5
335C83
331
0
  5
335C84
331
0
  5
335C85
331
0
  5
335C86
331
0
  5
335C87
331
0
  5
335C88
331
0
  5
335C89
331
0
  5
335C8A
331
0
  5
335C8B
331
0
  5
335C8C
331
0
  5
335C8D
331
0
  5
335C8E
331
0
  5
335C8F
331
0
  5
335C90
331
0
  5
335C91
331
0
  5
335C92
331
0
  5
335C93
331
0
  5
335C94
331
0
  5
335C95
331
0
  5
335C96
331
0
  5
335C97
331
0
  5
335C98
331
0
  5
335C99
331
0
  5
335C9A
331
0
  5
335C9B
331
0
  5
335C9C
331
0
  5
335C9D
331
0
  5
335C9E
331
0
  5
335C9F
331
0
  5
335CA0
331
0
  5
335CA1
331
0
  5
335CA2
331
0
  5
335CA3
331
0
  5
335CA4
331
0
  5
335CA5
331
0
  5
335CA6
331
0
  5
335CA7
331
0
  5
335CA8
331
0
  5
335CA9
331
0
  5
335CAA
331
0
  5
335CAB
331
0
  5
335CAC
331
0
  5
335CAD
331
0
  5
335CAE
331
0
  5
335CAF
331
0
  5
335CB0
331
0
  5
335CB1
331
0
  5
335CB2
331
0
  5
335CB3
331
0
  5
335CB4
331
0
  5
335CB5
331
0
  5
335CB7
331
0
  5
335CB8
331
0
  5
335CB9
331
0
  5
335CBA
331
0
  5
335CBB
331
0
  5
335CBC
331
0
  5
335CBD
331
0
  5
335CBE
331
0
  5
335CBF
331
0
  5
335CC0
331
0
  5
335CC1
331
0
  5
335CC2
331
0
  5
335CC3
331
0
  5
335CC4
331
0
  5
335CC5
331
0
  5
335CC6
331
0
  5
335CC7
331
0
  5
335CC8
331
0
  5
335CC9
331
0
  5
335CCA
331
0
  5
335CCB
331
0
  5
335CCC
331
0
  5
335CCD
331
0
  5
335CCE
331
0
  5
335CCF
331
0
  5
335CD0
331
0
  5
335CD1
331
0
  5
335CD2
331
0
  5
335CD3
331
0
  5
335CD4
331
0
  5
335CD5
331
0
  5
335CD6
331
0
  5
335CD7
331
0
  5
335CD8
331
0
  5
335CD9
331
0
  5
335CDA
331
0
  5
335CDB
331
0
  5
335CDC
331
0
  5
335CDD
331
0
  5
335CDE
331
0
  5
335CDF
331
0
  5
335CE0
331
0
  5
335CE1
331
0
  5
335CE2
331
0
  5
335CE3
331
0
  5
335CE4
331
0
  5
335CE5
331
0
  5
335CE6
331
0
  5
335CE7
331
0
  5
335CE8
331
0
  5
335CE9
331
0
  5
335CEA
331
0
  5
335CEB
331
0
  5
335CEC
331
0
  5
335CED
331
0
  5
335CEE
331
0
  5
335CEF
331
0
  5
335CF0
331
0
  5
335CF1
331
0
  5
335CF2
331
0
  5
335CF3
331
0
  5
335CF4
331
0
  5
335CF5
331
0
  5
335CF6
331
0
  5
335CF7
331
0
  5
335CF8
331
0
  5
335CF9
331
0
  5
335CFA
331
0
  5
335CFB
331
0
  5
335CFC
331
0
  5
335CFD
331
0
  5
335CFE
331
0
  5
335CFF
331
0
  5
335D00
331
0
  5
335D01
331
0
  5
335D02
331
0
  5
335D03
331
0
  5
335D04
331
0
  5
335D05
331
0
  5
335D06
331
0
  5
335D07
331
0
  5
335D08
331
0
  5
335D09
331
0
  5
335D0A
331
0
  5
335D0B
331
0
  5
335D0C
331
0
  5
335D0D
331
0
  5
335D0E
331
0
  5
335D0F
331
0
  5
335D10
331
0
  5
335D11
331
0
  5
335D12
331
0
  5
335D13
331
0
  5
335D14
331
0
  5
335D15
331
0
  5
335D16
331
0
  5
335D17
331
0
  5
335D18
331
0
  5
335D19
331
0
  5
335D1A
331
0
  5
335D1B
331
0
  5
335D1C
331
0
  5
335D1D
331
0
  5
335D1E
331
0
  5
335D1F
331
0
  5
335D20
331
0
  5
335D21
331
0
  5
335D22
331
0
  5
335D23
331
0
  5
335D24
331
0
  5
335D25
331
0
  5
335D26
331
0
  5
335D27
331
0
  5
335D28
331
0
  5
335D29
331
0
  5
335D2A
331
0
  5
335D2B
331
0
  5
335D2C
331
0
  5
335D2D
331
0
  5
335D2E
331
0
  5
335D2F
331
0
  5
335D30
331
0
  5
335D31
331
0
  5
335D32
331
0
  5
335D33
331
0
  5
335D34
331
0
  5
335D35
331
0
  5
335D36
331
0
  5
335D37
331
0
  5
335D38
331
0
  5
335D39
331
0
  5
335D3A
331
0
  5
335D3B
331
0
  5
335D3C
331
0
  5
335D3D
331
0
  5
335D3E
331
0
  5
335D3F
331
0
  5
335D40
331
0
  5
335D44
331
0
  5
335E67
331
0
  5
335E68
331
0
  5
335F78
331
0
  5
335F79
331
0
  5
335F7A
331
0
  5
335F7B
331
0
  5
335F7C
331
0
  5
335F7D
331
0
  5
335F7E
331
0
  5
335F7F
331
0
  5
335F80
331
0
  5
335F81
331
0
  5
335F82
331
0
  5
335F83
331
0
  5
335F84
331
0
  5
335F85
331
0
  5
335F86
331
0
  5
335F87
331
0
  5
335F88
331
0
  5
335F89
331
0
  5
335F8A
331
0
  5
335F8B
331
0
  5
335F8C
331
0
  5
335F8D
331
0
  5
335F8E
331
0
  5
335F8F
331
0
  5
335F90
331
0
  5
335F91
331
0
  5
335F92
331
0
  5
335F93
331
0
  5
335F94
331
0
  5
335F95
331
0
  5
335F96
331
0
  5
335F97
331
0
  5
335F98
331
0
  5
335F99
331
0
  5
335F9A
331
0
  5
335F9B
331
0
  5
335F9C
331
0
  5
335F9D
331
0
  5
335F9E
331
0
  5
335F9F
331
0
  5
335FA0
331
0
  5
335FA1
331
0
  5
335FA2
331
0
  5
335FA3
331
0
  5
335FA4
331
0
  5
335FA5
331
0
  5
335FA6
331
0
  5
335FA7
331
0
  5
335FA8
331
0
  5
335FA9
331
0
  5
335FAA
331
0
  5
335FAB
331
0
  5
335FAC
331
0
  5
335FAD
331
0
  5
335FAE
331
0
  5
335FAF
331
0
  5
335FB0
331
0
  5
335FB1
331
0
  5
335FB2
331
0
  5
335FB3
331
0
  5
335FB4
331
0
  5
335FB5
331
0
  5
335FB6
331
0
  5
335FB7
331
0
  5
335FB8
331
0
  5
335FB9
331
0
  5
335FBA
331
0
  5
335FBB
331
0
  5
335FBC
331
0
  5
335FBD
331
0
  5
335FBE
331
0
  5
335FBF
331
0
  5
335FC0
331
0
  5
335FC1
331
0
  5
335FC2
331
0
  5
335FC3
331
0
  5
335FC4
331
0
  5
335FC5
331
0
  5
335FC6
331
0
  5
335FC7
331
0
  5
335FC8
331
0
  5
335FC9
331
0
  5
335FCA
331
0
  5
335FCB
331
0
  5
335FCC
331
0
  5
335FCD
331
0
  5
335FCE
331
0
  5
335FCF
331
0
  5
335FD0
331
0
  5
335FD1
331
0
  5
335FD2
331
0
  5
335FD3
331
0
  5
335FD4
331
0
  5
335FD5
331
0
  5
335FD6
331
0
  5
335FD7
331
0
  5
335FD8
331
0
  5
335FD9
331
0
  5
335FDA
331
0
  5
335FDB
331
0
  5
335FDC
331
0
  5
335FDD
331
0
  5
335FDE
331
0
  5
335FDF
331
0
  5
335FE0
331
0
  5
335FE1
331
0
  5
335FE2
331
0
  5
335FE3
331
0
  5
335FE4
331
0
  5
335FE5
331
0
  5
335FE6
331
0
  5
335FE7
331
0
  5
335FE8
331
0
  5
335FE9
331
0
  5
335FEA
331
0
  5
335FEB
331
0
  5
335FEC
331
0
  5
335FED
331
0
  5
335FEE
331
0
  5
335FEF
331
0
  5
335FF0
331
0
  5
335FF1
331
0
  5
335FF2
331
0
  5
335FF3
331
0
  5
335FF4
331
0
  5
335FF5
331
0
  5
335FF6
331
0
  5
335FF7
331
0
  5
335FF8
331
0
  5
335FF9
331
0
  5
335FFA
331
0
  5
335FFB
331
0
  5
335FFC
331
0
  5
335FFD
331
0
  5
335FFE
331
0
  5
335FFF
331
0
  5
336000
331
0
  5
336001
331
0
  5
336002
331
0
  5
336003
331
0
  5
336004
331
0
  5
336005
331
0
  5
336006
331
0
  5
336007
331
0
  5
336008
331
0
  5
336009
331
0
  5
33600A
331
0
  5
33600B
331
0
  5
33600C
331
0
  5
33600D
331
0
  5
33600E
331
0
  5
33600F
331
0
  5
336010
331
0
  5
336011
331
0
  5
336012
331
0
  5
336013
331
0
  5
336014
331
0
  5
336015
331
0
  5
336016
331
0
  5
336017
331
0
  5
336018
331
0
  5
336019
331
0
  5
33601A
331
0
  5
33601B
331
0
  5
33601C
331
0
  5
33601D
331
0
  5
33601E
331
0
  5
33601F
331
0
  5
336020
331
0
  5
336021
331
0
  5
336022
331
0
  5
336023
331
0
  5
336024
331
0
  5
336025
331
0
  5
336026
331
0
  5
336027
331
0
  5
336028
331
0
  5
336029
331
0
  5
33602A
331
0
  5
33602B
331
0
  5
33602C
331
0
  5
33602D
331
0
  5
33602E
331
0
  5
33602F
331
0
  5
336030
331
0
  5
336031
331
0
  5
336032
331
0
  5
336033
331
0
  5
336034
331
0
  5
336035
331
0
  5
336036
331
0
  5
336037
331
0
  5
336038
331
0
  5
336039
331
0
  5
33603A
331
0
  5
33603B
331
0
  5
33603C
331
0
  5
33603D
331
0
  5
33603E
331
0
  5
33603F
331
0
  5
336040
331
0
  5
336041
331
0
  5
336042
331
0
  5
336043
331
0
  5
336044
331
0
  5
336045
331
0
  5
336046
331
0
  5
336047
331
0
  5
336048
331
0
  5
336049
331
0
  5
33604A
331
0
  5
33604B
331
0
  5
33604C
331
0
  5
33604D
331
0
  5
33604E
331
0
  5
33604F
331
0
  5
336050
331
0
  5
336051
331
0
  5
336052
331
0
  5
336053
331
0
  5
336054
331
0
  5
336055
331
0
  5
336056
331
0
  5
336057
331
0
  5
336058
331
0
  5
336059
331
0
  5
33605A
331
0
  5
33605B
331
0
  5
33605C
331
0
  5
33605D
331
0
  5
33605E
331
0
  5
33605F
331
0
  5
336060
331
0
  5
336061
331
0
  5
336062
331
0
  5
336063
331
0
  5
336064
331
0
  5
336065
331
0
  5
336066
331
0
  5
336067
331
0
  5
336068
331
0
  5
336069
331
0
  5
33606A
331
0
  5
33606B
331
0
  5
33606C
331
0
  5
33606D
331
0
  5
33606E
331
0
  5
33606F
331
0
  5
336070
331
0
  5
336071
331
0
  5
336072
331
0
  5
336073
331
0
  5
336074
331
0
  5
336075
331
0
  5
336076
331
0
  5
336077
331
0
  5
336078
331
0
  5
336079
331
0
  5
33607A
331
0
  5
33607B
331
0
  5
33607C
331
0
  5
33607D
331
0
  5
33607E
331
0
  5
33607F
331
0
  5
336080
331
0
  5
336081
331
0
  5
336082
331
0
  5
336083
331
0
  5
336084
331
0
  5
336085
331
0
  5
336086
331
0
  5
336087
331
0
  5
336089
331
0
  5
33608A
331
0
  5
33608B
331
0
  5
33608C
331
0
  5
33608D
331
0
  5
33608E
331
0
  5
33608F
331
0
  5
336090
331
0
  5
336091
331
0
  5
336092
331
0
  5
336093
331
0
  5
336094
331
0
  5
336095
331
0
  5
336096
331
0
  5
336097
331
0
  5
336098
331
0
  5
336099
331
0
  5
33609A
331
0
  5
33609B
331
0
  5
33609C
331
0
  5
33609D
331
0
  5
33609E
331
0
  5
33609F
331
0
  5
3360A0
331
0
  5
3360A1
331
0
  5
3360A2
331
0
  5
3360A3
331
0
  5
32FD9E
331
0
  5
3360A4
331
0
  5
3360A5
331
0
  5
3360A6
331
0
  5
3360A7
331
0
  5
3360A8
331
0
  5
3360A9
331
0
  5
3360AA
331
0
  5
3360AB
331
0
  5
3360AC
331
0
  5
3360AD
331
0
  5
3360AE
331
0
  5
3360AF
331
0
  5
3360B0
331
0
  5
3360B1
331
0
  5
3360B2
331
0
  5
3360B3
331
0
  5
3360B4
331
0
  5
3360B5
331
0
  5
3360B6
331
0
  5
3360B7
331
0
  5
3360B8
331
0
  5
3360B9
331
0
  5
3360BB
331
0
  5
3360BC
331
0
  5
3360BD
331
0
  5
3360BE
331
0
  5
3360BF
331
0
  5
3360C0
331
0
  5
3360C1
331
0
  5
3360C2
331
0
  5
3360C3
331
0
  5
3360C4
331
0
  5
3360C5
331
0
  5
3360C6
331
0
  5
3360C7
331
0
  5
3360C8
331
0
  5
3360C9
331
0
  5
3360CA
331
0
  5
3360CB
331
0
  5
3360CC
331
0
  5
3360CD
331
0
  5
3360CE
331
0
  5
3360CF
331
0
  5
3360D0
331
0
  5
3360D1
331
0
  5
3360D2
331
0
  5
3360D3
331
0
  5
3360D4
331
0
  5
3360D5
331
0
  5
3360D6
331
0
  5
3360D7
331
0
  5
3360D8
331
0
  5
3360D9
331
0
  5
3360DA
331
0
  5
3360DB
331
0
  5
3360DC
331
0
  5
3360DD
331
0
  5
3360DE
331
0
  5
3360DF
331
0
  5
3360E0
331
0
  5
3360E1
331
0
  5
3360E2
331
0
  5
3360E3
331
0
  5
3360E4
331
0
  5
3360E5
331
0
  5
3360E6
331
0
  5
3360E7
331
0
  5
3360E8
331
0
  5
3360E9
331
0
  5
3360EA
331
0
  5
3360EB
331
0
  5
3360EC
331
0
  5
3360ED
331
0
  5
3360EF
331
0
  5
3360F0
331
0
  5
3360F1
331
0
  5
3360F2
331
0
  5
3360F3
331
0
  5
3360F5
331
0
  5
3360F6
331
0
  5
3360F7
331
0
  5
3360F8
331
0
  5
3360F9
331
0
  5
3360FA
331
0
  5
3360FB
331
0
  5
3360FC
331
0
  5
3360FD
331
0
  5
3360FE
331
0
  5
3360FF
331
0
  5
336100
331
0
  5
336102
331
0
  5
336103
331
0
  5
336104
331
0
  5
336105
331
0
  5
336106
331
0
  5
336107
331
0
  5
336108
331
0
  5
336109
331
0
  5
33610A
331
0
  5
33610B
331
0
  5
33610C
331
0
  5
33610D
331
0
  5
33610E
331
0
  5
33610F
331
0
  5
336110
331
0
  5
336111
331
0
  5
336112
331
0
  5
336113
331
0
  5
336114
331
0
  5
336115
331
0
  5
336116
331
0
  5
336117
331
0
  5
336118
331
0
  5
336119
331
0
  5
33611A
331
0
  5
33611B
331
0
  5
33611C
331
0
  5
33611D
331
0
  5
33611E
331
0
  5
33611F
331
0
  5
336120
331
0
  5
336121
331
0
  5
336122
331
0
  5
336123
331
0
  5
336124
331
0
  5
336125
331
0
  5
336126
331
0
  5
336127
331
0
  5
336128
331
0
  5
336129
331
0
  5
33612A
331
0
  5
33612B
331
0
  5
33612C
331
0
  5
33612D
331
0
  5
33612E
331
0
  5
33612F
331
0
  5
336130
331
0
  5
336131
331
0
  5
336132
331
0
  5
336133
331
0
  5
336134
331
0
  5
336135
331
0
  5
336136
331
0
  5
336137
331
0
  5
336138
331
0
  5
336139
331
0
  5
33613A
331
0
  5
33613B
331
0
  5
33613C
331
0
  5
33613D
331
0
  5
33613E
331
0
  5
33613F
331
0
  5
336140
331
0
  5
336141
331
0
  5
336142
331
0
  5
336143
331
0
  5
336144
331
0
  5
336145
331
0
  5
336146
331
0
  5
336147
331
0
  5
336148
331
0
  5
336149
331
0
  5
33614A
331
0
  5
33614B
331
0
  5
33614C
331
0
  5
33614D
331
0
  5
33614E
331
0
  5
33614F
331
0
  5
336150
331
0
  5
336151
331
0
  5
336152
331
0
  5
336153
331
0
  5
336154
331
0
  5
336155
331
0
  5
336156
331
0
  5
336157
331
0
  5
336158
331
0
  5
336159
331
0
  5
33615A
331
0
  5
33615B
331
0
  5
33615C
331
0
  5
33615D
331
0
  5
33615E
331
0
  5
33615F
331
0
  5
336164
331
0
  5
336165
331
0
  5
336169
331
0
  5
33616A
331
0
  5
33616B
331
0
  5
33616C
331
0
  5
33616D
331
0
  5
33616E
331
0
  5
33616F
331
0
  5
336170
331
0
  5
336171
331
0
  5
336172
331
0
  5
336173
331
0
  5
336174
331
0
  5
336175
331
0
  5
336176
331
0
  5
336177
331
0
  5
336178
331
0
  5
336179
331
0
  5
33617A
331
0
  5
33617B
331
0
  5
33617C
331
0
  5
33617D
331
0
  5
33617E
331
0
  5
33617F
331
0
  5
336180
331
0
  5
3361D9
331
0
  5
3362E8
331
0
  5
33630F
331
0
  5
336310
331
0
  5
3363A5
331
0
  5
3363A6
331
0
  5
3363A7
331
0
  5
3363A8
331
0
  5
3363A9
331
0
  5
3363AA
331
0
  5
3363AB
331
0
  5
3363AC
331
0
  5
3363AD
331
0
  5
3363AF
331
0
  5
3363B0
331
0
  5
3363B1
331
0
  5
3363B2
331
0
  5
3363B3
331
0
  5
3363B4
331
0
  5
3363B5
331
0
  5
3363B6
331
0
  5
3363B9
331
0
  5
3363BC
331
0
  5
3363BD
331
0
  5
3363BE
331
0
  5
3363BF
331
0
  5
3363C0
331
0
  5
3363C1
331
0
  5
3363C2
331
0
  5
3363C3
331
0
  5
3363C4
331
0
  5
3363C5
331
0
  5
3363C6
331
0
  5
3363C7
331
0
  5
3363C8
331
0
  5
3363C9
331
0
  5
3363CA
331
0
  5
32FD8F
331
0
  5
32FD9C
331
0
  5
335340
331
0
  5
32FD9B
331
0
  5
32FD91
331
0
  5
33D9E4
331
0
  5
341F6B
  0
LAYOUT
  5
355
102
{ACAD_REACTORS
330
353
102
}
330
353
100
AcDbPlotSettings
  1

  2
JUST PDF 3
  4
A4
  6

 40
3.174999952316284
 41
3.174999952316284
 42
3.175003051757812
 43
3.17498779296875
 44
209.8886566162109
 45
297.0530090332031
 46
14.27171755861522
 47
9.85517307462564
 48
13518.95909429803
 49
-4032.834276279787
140
14043.94474978275
141
-3219.856250863787
142
1.0
143
3.0
 70
  3748
 72
     1
 73
     0
 74
     4
  7
spax form.ctb
 75
     0
147
0.547045008312821
148
-13518.95909429803
149
4032.834276279787
100
AcDbLayout
  1
Model
 70
     1
 71
     0
 10
0.0
 20
0.0
 11
12.0
 21
9.0
 12
0.0
 22
0.0
 32
0.0
 14
13547.25949819992
 24
-4332.393744351092
 34
0.0
 15
13643.44593082213
 25
-4195.827028172563
 35
0.0
146
0.0
 13
0.0
 23
0.0
 33
0.0
 16
1.0
 26
0.0
 36
0.0
 17
0.0
 27
1.0
 37
0.0
 76
     0
330
18
331
3523F0
1001
ACAD_PSEXT
1000
JUST PDF 3
1000
JUST PDF 3
1000
JUST PDF 3 Port:
1000

1070
     0
  0
LAYOUT
  5
356
102
{ACAD_REACTORS
330
353
102
}
330
353
100
AcDbPlotSettings
  1

  2
Canon LASER SHOT LBP-750
  4

  6

 40
0.0
 41
0.0
 42
0.0
 43
0.0
 44
0.0
 45
0.0
 46
0.0
 47
0.0
 48
0.0
 49
0.0
140
0.0
141
0.0
142
1.0
143
1.0
 70
   688
 72
     0
 73
     0
 74
     5
  7
spax form.ctb
 75
    16
147
1.0
148
0.0
149
0.0
100
AcDbLayout
  1
ﾚｲｱｳﾄ1
 70
     0
 71
     1
 10
0.0
 20
0.0
 11
12.0
 21
9.0
 12
0.0
 22
0.0
 32
0.0
 14
1.000000000000000E+20
 24
1.000000000000000E+20
 34
1.000000000000000E+20
 15
-1.000000000000000E+20
 25
-1.000000000000000E+20
 35
-1.000000000000000E+20
146
0.0
 13
0.0
 23
0.0
 33
0.0
 16
1.0
 26
0.0
 36
0.0
 17
0.0
 27
1.0
 37
0.0
 76
     0
330
15
  0
MLINESTYLE
  5
1B
102
{ACAD_REACTORS
330
E
102
}
330
E
100
AcDbMlineStyle
  2
STANDARD
 70
     0
  3

 62
     0
 51
90.0
 52
90.0
 71
     2
 49
0.5
 62
   256
  6
BYLAYER
 49
-0.5
 62
   256
  6
BYLAYER
  0
ACDBPLACEHOLDER
  5
352
102
{ACAD_REACTORS
330
351
102
}
330
351
  0
SCALE
  5
CD54
102
{ACAD_REACTORS
330
CD53
102
}
330
CD53
100
AcDbScale
 70
     0
300
1:1
140
1.0
141
1.0
290
     1
1001
ACAD
1000
AcRTDxfName
1000
SCALE
1000
AcRTDxfName
1000
SCALE
  0
SCALE
  5
35DF8
102
{ACAD_REACTORS
330
CD53
102
}
330
CD53
100
AcDbScale
 70
     0
300
1:2
140
1.0
141
2.0
290
     0
1001
ACAD
1000
AcRTDxfName
1000
SCALE
1000
AcRTDxfName
1000
SCALE
  0
SCALE
  5
35DF9
102
{ACAD_REACTORS
330
CD53
102
}
330
CD53
100
AcDbScale
 70
     0
300
1:4
140
1.0
141
4.0
290
     0
1001
ACAD
1000
AcRTDxfName
1000
SCALE
1000
AcRTDxfName
1000
SCALE
  0
SCALE
  5
35DFA
102
{ACAD_REACTORS
330
CD53
102
}
330
CD53
100
AcDbScale
 70
     0
300
1:5
140
1.0
141
5.0
290
     0
1001
ACAD
1000
AcRTDxfName
1000
SCALE
1000
AcRTDxfName
1000
SCALE
  0
SCALE
  5
35DFB
102
{ACAD_REACTORS
330
CD53
102
}
330
CD53
100
AcDbScale
 70
     0
300
1:8
140
1.0
141
8.0
290
     0
1001
ACAD
1000
AcRTDxfName
1000
SCALE
1000
AcRTDxfName
1000
SCALE
  0
SCALE
  5
35DFC
102
{ACAD_REACTORS
330
CD53
102
}
330
CD53
100
AcDbScale
 70
     0
300
1:10
140
1.0
141
10.0
290
     0
1001
ACAD
1000
AcRTDxfName
1000
SCALE
1000
AcRTDxfName
1000
SCALE
  0
SCALE
  5
35DFD
102
{ACAD_REACTORS
330
CD53
102
}
330
CD53
100
AcDbScale
 70
     0
300
1:16
140
1.0
141
16.0
290
     0
1001
ACAD
1000
AcRTDxfName
1000
SCALE
1000
AcRTDxfName
1000
SCALE
  0
SCALE
  5
35DFE
102
{ACAD_REACTORS
330
CD53
102
}
330
CD53
100
AcDbScale
 70
     0
300
1:20
140
1.0
141
20.0
290
     0
1001
ACAD
1000
AcRTDxfName
1000
SCALE
1000
AcRTDxfName
1000
SCALE
  0
SCALE
  5
35DFF
102
{ACAD_REACTORS
330
CD53
102
}
330
CD53
100
AcDbScale
 70
     0
300
1:30
140
1.0
141
30.0
290
     0
1001
ACAD
1000
AcRTDxfName
1000
SCALE
1000
AcRTDxfName
1000
SCALE
  0
SCALE
  5
35E00
102
{ACAD_REACTORS
330
CD53
102
}
330
CD53
100
AcDbScale
 70
     0
300
1:40
140
1.0
141
40.0
290
     0
1001
ACAD
1000
AcRTDxfName
1000
SCALE
1000
AcRTDxfName
1000
SCALE
  0
SCALE
  5
35E01
102
{ACAD_REACTORS
330
CD53
102
}
330
CD53
100
AcDbScale
 70
     0
300
1:50
140
1.0
141
50.0
290
     0
1001
ACAD
1000
AcRTDxfName
1000
SCALE
1000
AcRTDxfName
1000
SCALE
  0
SCALE
  5
35E02
102
{ACAD_REACTORS
330
CD53
102
}
330
CD53
100
AcDbScale
 70
     0
300
1:100
140
1.0
141
100.0
290
     0
1001
ACAD
1000
AcRTDxfName
1000
SCALE
1000
AcRTDxfName
1000
SCALE
  0
SCALE
  5
35E03
102
{ACAD_REACTORS
330
CD53
102
}
330
CD53
100
AcDbScale
 70
     0
300
2:1
140
2.0
141
1.0
290
     0
1001
ACAD
1000
AcRTDxfName
1000
SCALE
1000
AcRTDxfName
1000
SCALE
  0
SCALE
  5
35E04
102
{ACAD_REACTORS
330
CD53
102
}
330
CD53
100
AcDbScale
 70
     0
300
4:1
140
4.0
141
1.0
290
     0
1001
ACAD
1000
AcRTDxfName
1000
SCALE
1000
AcRTDxfName
1000
SCALE
  0
SCALE
  5
35E05
102
{ACAD_REACTORS
330
CD53
102
}
330
CD53
100
AcDbScale
 70
     0
300
8:1
140
8.0
141
1.0
290
     0
1001
ACAD
1000
AcRTDxfName
1000
SCALE
1000
AcRTDxfName
1000
SCALE
  0
SCALE
  5
35E06
102
{ACAD_REACTORS
330
CD53
102
}
330
CD53
100
AcDbScale
 70
     0
300
10:1
140
10.0
141
1.0
290
     0
1001
ACAD
1000
AcRTDxfName
1000
SCALE
1000
AcRTDxfName
1000
SCALE
  0
SCALE
  5
35E07
102
{ACAD_REACTORS
330
CD53
102
}
330
CD53
100
AcDbScale
 70
     0
300
100:1
140
100.0
141
1.0
290
     0
1001
ACAD
1000
AcRTDxfName
1000
SCALE
1000
AcRTDxfName
1000
SCALE
  0
SCALE
  5
35E08
102
{ACAD_REACTORS
330
CD53
102
}
330
CD53
100
AcDbScale
 70
     0
300
1/128" = 1'-0"
140
0.0078125
141
12.0
290
     0
1001
ACAD
1000
AcRTDxfName
1000
SCALE
1000
AcRTDxfName
1000
SCALE
  0
SCALE
  5
35E09
102
{ACAD_REACTORS
330
CD53
102
}
330
CD53
100
AcDbScale
 70
     0
300
1/64" = 1'-0"
140
0.015625
141
12.0
290
     0
1001
ACAD
1000
AcRTDxfName
1000
SCALE
1000
AcRTDxfName
1000
SCALE
  0
SCALE
  5
35E0A
102
{ACAD_REACTORS
330
CD53
102
}
330
CD53
100
AcDbScale
 70
     0
300
1/32" = 1'-0"
140
0.03125
141
12.0
290
     0
1001
ACAD
1000
AcRTDxfName
1000
SCALE
1000
AcRTDxfName
1000
SCALE
  0
SCALE
  5
35E0B
102
{ACAD_REACTORS
330
CD53
102
}
330
CD53
100
AcDbScale
 70
     0
300
1/16" = 1'-0"
140
0.0625
141
12.0
290
     0
1001
ACAD
1000
AcRTDxfName
1000
SCALE
1000
AcRTDxfName
1000
SCALE
  0
SCALE
  5
35E0C
102
{ACAD_REACTORS
330
CD53
102
}
330
CD53
100
AcDbScale
 70
     0
300
3/32" = 1'-0"
140
0.09375
141
12.0
290
     0
1001
ACAD
1000
AcRTDxfName
1000
SCALE
1000
AcRTDxfName
1000
SCALE
  0
SCALE
  5
35E0D
102
{ACAD_REACTORS
330
CD53
102
}
330
CD53
100
AcDbScale
 70
     0
300
1/8" = 1'-0"
140
0.125
141
12.0
290
     0
1001
ACAD
1000
AcRTDxfName
1000
SCALE
1000
AcRTDxfName
1000
SCALE
  0
SCALE
  5
35E0E
102
{ACAD_REACTORS
330
CD53
102
}
330
CD53
100
AcDbScale
 70
     0
300
3/16" = 1'-0"
140
0.1875
141
12.0
290
     0
1001
ACAD
1000
AcRTDxfName
1000
SCALE
1000
AcRTDxfName
1000
SCALE
  0
SCALE
  5
35E0F
102
{ACAD_REACTORS
330
CD53
102
}
330
CD53
100
AcDbScale
 70
     0
300
1/4" = 1'-0"
140
0.25
141
12.0
290
     0
1001
ACAD
1000
AcRTDxfName
1000
SCALE
1000
AcRTDxfName
1000
SCALE
  0
SCALE
  5
35E10
102
{ACAD_REACTORS
330
CD53
102
}
330
CD53
100
AcDbScale
 70
     0
300
3/8" = 1'-0"
140
0.375
141
12.0
290
     0
1001
ACAD
1000
AcRTDxfName
1000
SCALE
1000
AcRTDxfName
1000
SCALE
  0
SCALE
  5
35E11
102
{ACAD_REACTORS
330
CD53
102
}
330
CD53
100
AcDbScale
 70
     0
300
1/2" = 1'-0"
140
0.5
141
12.0
290
     0
1001
ACAD
1000
AcRTDxfName
1000
SCALE
1000
AcRTDxfName
1000
SCALE
  0
SCALE
  5
35E12
102
{ACAD_REACTORS
330
CD53
102
}
330
CD53
100
AcDbScale
 70
     0
300
3/4" = 1'-0"
140
0.75
141
12.0
290
     0
1001
ACAD
1000
AcRTDxfName
1000
SCALE
1000
AcRTDxfName
1000
SCALE
  0
SCALE
  5
35E13
102
{ACAD_REACTORS
330
CD53
102
}
330
CD53
100
AcDbScale
 70
     0
300
1" = 1'-0"
140
1.0
141
12.0
290
     0
1001
ACAD
1000
AcRTDxfName
1000
SCALE
1000
AcRTDxfName
1000
SCALE
  0
SCALE
  5
35E14
102
{ACAD_REACTORS
330
CD53
102
}
330
CD53
100
AcDbScale
 70
     0
300
1-1/2" = 1'-0"
140
1.5
141
12.0
290
     0
1001
ACAD
1000
AcRTDxfName
1000
SCALE
1000
AcRTDxfName
1000
SCALE
  0
SCALE
  5
35E15
102
{ACAD_REACTORS
330
CD53
102
}
330
CD53
100
AcDbScale
 70
     0
300
3" = 1'-0"
140
3.0
141
12.0
290
     0
1001
ACAD
1000
AcRTDxfName
1000
SCALE
1000
AcRTDxfName
1000
SCALE
  0
SCALE
  5
35E16
102
{ACAD_REACTORS
330
CD53
102
}
330
CD53
100
AcDbScale
 70
     0
300
6" = 1'-0"
140
6.0
141
12.0
290
     0
1001
ACAD
1000
AcRTDxfName
1000
SCALE
1000
AcRTDxfName
1000
SCALE
  0
SCALE
  5
35E17
102
{ACAD_REACTORS
330
CD53
102
}
330
CD53
100
AcDbScale
 70
     0
300
1'-0" = 1'-0"
140
12.0
141
12.0
290
     0
1001
ACAD
1000
AcRTDxfName
1000
SCALE
1000
AcRTDxfName
1000
SCALE
  0
DICTIONARYVAR
  5
E0E
102
{ACAD_REACTORS
330
E0D
102
}
330
E0D
100
DictionaryVariables
280
     0
  1
1
  0
DICTIONARYVAR
  5
D04A
102
{ACAD_REACTORS
330
E0D
102
}
330
E0D
100
DictionaryVariables
280
     0
  1
0
  0
DICTIONARYVAR
  5
E0F
102
{ACAD_REACTORS
330
E0D
102
}
330
E0D
100
DictionaryVariables
280
     0
  1

  0
DICTIONARYVAR
  5
D049
102
{ACAD_REACTORS
330
E0D
102
}
330
E0D
100
DictionaryVariables
280
     0
  1
127
  0
ENDSEC
  0
EOF
