  0
SECTION
  2
HEADER
  9
$ACADVER
  1
AC1015
  9
$ACADMAINTVER
 70
     6
  9
$DWGCODEPAGE
  3
ANSI_932
  9
$INSBASE
 10
0.0
 20
0.0
 30
0.0
  9
$EXTMIN
 10
-5076.727144011283
 20
-14889.98789582205
 30
0.0
  9
$EXTMAX
 10
-4929.986040562774
 20
-14793.37275846795
 30
0.0
  9
$LIMMIN
 10
0.0
 20
0.0
  9
$LIMMAX
 10
420.0
 20
297.0
  9
$ORTHOMODE
 70
     1
  9
$REGENMODE
 70
     1
  9
$FILLMODE
 70
     1
  9
$QTEXTMODE
 70
     0
  9
$MIRRTEXT
 70
     1
  9
$LTSCALE
 40
5.0
  9
$ATTMODE
 70
     0
  9
$TEXTSIZE
 40
2.5
  9
$TRACEWID
 40
1.0
  9
$TEXTSTYLE
  7
STANDARD
  9
$CLAYER
  8
寸法線
  9
$CELTYPE
  6
BYLAYER
  9
$CECOLOR
 62
   256
  9
$CELTSCALE
 40
1.0
  9
$DISPSILH
 70
     0
  9
$DIMSCALE
 40
1.0
  9
$DIMASZ
 40
3.0
  9
$DIMEXO
 40
0.2999999999999999
  9
$DIMDLI
 40
0.6300000000000001
  9
$DIMRND
 40
0.0
  9
$DIMDLE
 40
0.0
  9
$DIMEXE
 40
0.4999999999999996
  9
$DIMTP
 40
0.0
  9
$DIMTM
 40
0.0
  9
$DIMTXT
 40
2.5
  9
$DIMCEN
 40
0.0
  9
$DIMTSZ
 40
0.0
  9
$DIMTOL
 70
     0
  9
$DIMLIM
 70
     0
  9
$DIMTIH
 70
     0
  9
$DIMTOH
 70
     0
  9
$DIMSE1
 70
     0
  9
$DIMSE2
 70
     0
  9
$DIMTAD
 70
     3
  9
$DIMZIN
 70
     8
  9
$DIMBLK
  1

  9
$DIMASO
 70
     1
  9
$DIMSHO
 70
     0
  9
$DIMPOST
  1

  9
$DIMAPOST
  1

  9
$DIMALT
 70
     0
  9
$DIMALTD
 70
     0
  9
$DIMALTF
 40
25.4
  9
$DIMLFAC
 40
1.0
  9
$DIMTOFL
 70
     1
  9
$DIMTVP
 40
0.0
  9
$DIMTIX
 70
     0
  9
$DIMSOXD
 70
     0
  9
$DIMSAH
 70
     1
  9
$DIMBLK1
  1
OPEN
  9
$DIMBLK2
  1
OPEN
  9
$DIMSTYLE
  2
STANDARD
  9
$DIMCLRD
 70
     8
  9
$DIMCLRE
 70
     8
  9
$DIMCLRT
 70
   256
  9
$DIMTFAC
 40
1.0
  9
$DIMGAP
 40
0.7999999999999998
  9
$DIMJUST
 70
     0
  9
$DIMSD1
 70
     0
  9
$DIMSD2
 70
     0
  9
$DIMTOLJ
 70
     1
  9
$DIMTZIN
 70
     0
  9
$DIMALTZ
 70
     0
  9
$DIMALTTZ
 70
     0
  9
$DIMUPT
 70
     0
  9
$DIMDEC
 70
     2
  9
$DIMTDEC
 70
     2
  9
$DIMALTU
 70
     2
  9
$DIMALTTD
 70
     0
  9
$DIMTXSTY
  7
STANDARD
  9
$DIMAUNIT
 70
     0
  9
$DIMADEC
 70
     2
  9
$DIMALTRND
 40
0.0
  9
$DIMAZIN
 70
     2
  9
$DIMDSEP
 70
    46
  9
$DIMATFIT
 70
     0
  9
$DIMFRAC
 70
     0
  9
$DIMLDRBLK
  1
OPEN
  9
$DIMLUNIT
 70
     2
  9
$DIMLWD
 70
    -1
  9
$DIMLWE
 70
    -1
  9
$DIMTMOVE
 70
     0
  9
$LUNITS
 70
     2
  9
$LUPREC
 70
     2
  9
$SKETCHINC
 40
0.1
  9
$FILLETRAD
 40
0.1
  9
$AUNITS
 70
     0
  9
$AUPREC
 70
     1
  9
$MENU
  1
FM
  9
$ELEVATION
 40
0.0
  9
$PELEVATION
 40
0.0
  9
$THICKNESS
 40
0.0
  9
$LIMCHECK
 70
     0
  9
$CHAMFERA
 40
0.0
  9
$CHAMFERB
 40
0.0
  9
$CHAMFERC
 40
0.0
  9
$CHAMFERD
 40
0.0
  9
$SKPOLY
 70
     0
  9
$TDCREATE
 40
2448636.619629629
  9
$TDUCREATE
 40
2448636.244629629
  9
$TDUPDATE
 40
2456821.619269537
  9
$TDUUPDATE
 40
2456821.244269537
  9
$TDINDWG
 40
41.0082216204
  9
$TDUSRTIMER
 40
2456821.244116458
  9
$USRTIMER
 70
     1
  9
$ANGBASE
 50
0.0
  9
$ANGDIR
 70
     0
  9
$PDMODE
 70
     3
  9
$PDSIZE
 40
0.0
  9
$PLINEWID
 40
0.0
  9
$SPLFRAME
 70
     0
  9
$SPLINETYPE
 70
     6
  9
$SPLINESEGS
 70
     8
  9
$HANDSEED
  5
20B485
  9
$SURFTAB1
 70
     6
  9
$SURFTAB2
 70
     6
  9
$SURFTYPE
 70
     6
  9
$SURFU
 70
     6
  9
$SURFV
 70
     6
  9
$UCSBASE
  2

  9
$UCSNAME
  2

  9
$UCSORG
 10
0.0
 20
0.0
 30
0.0
  9
$UCSXDIR
 10
1.0
 20
0.0
 30
0.0
  9
$UCSYDIR
 10
0.0
 20
1.0
 30
0.0
  9
$UCSORTHOREF
  2

  9
$UCSORTHOVIEW
 70
     0
  9
$UCSORGTOP
 10
0.0
 20
0.0
 30
0.0
  9
$UCSORGBOTTOM
 10
0.0
 20
0.0
 30
0.0
  9
$UCSORGLEFT
 10
0.0
 20
0.0
 30
0.0
  9
$UCSORGRIGHT
 10
0.0
 20
0.0
 30
0.0
  9
$UCSORGFRONT
 10
0.0
 20
0.0
 30
0.0
  9
$UCSORGBACK
 10
0.0
 20
0.0
 30
0.0
  9
$PUCSBASE
  2

  9
$PUCSNAME
  2

  9
$PUCSORG
 10
0.0
 20
0.0
 30
0.0
  9
$PUCSXDIR
 10
1.0
 20
0.0
 30
0.0
  9
$PUCSYDIR
 10
0.0
 20
1.0
 30
0.0
  9
$PUCSORTHOREF
  2

  9
$PUCSORTHOVIEW
 70
     0
  9
$PUCSORGTOP
 10
0.0
 20
0.0
 30
0.0
  9
$PUCSORGBOTTOM
 10
0.0
 20
0.0
 30
0.0
  9
$PUCSORGLEFT
 10
0.0
 20
0.0
 30
0.0
  9
$PUCSORGRIGHT
 10
0.0
 20
0.0
 30
0.0
  9
$PUCSORGFRONT
 10
0.0
 20
0.0
 30
0.0
  9
$PUCSORGBACK
 10
0.0
 20
0.0
 30
0.0
  9
$USERI1
 70
     0
  9
$USERI2
 70
     0
  9
$USERI3
 70
     0
  9
$USERI4
 70
     0
  9
$USERI5
 70
     0
  9
$USERR1
 40
0.0
  9
$USERR2
 40
0.0
  9
$USERR3
 40
0.0
  9
$USERR4
 40
0.0
  9
$USERR5
 40
0.0
  9
$WORLDVIEW
 70
     0
  9
$SHADEDGE
 70
     3
  9
$SHADEDIF
 70
    70
  9
$TILEMODE
 70
     1
  9
$MAXACTVP
 70
    16
  9
$PINSBASE
 10
0.0
 20
0.0
 30
0.0
  9
$PLIMCHECK
 70
     0
  9
$PEXTMIN
 10
1.000000000000000E+20
 20
1.000000000000000E+20
 30
1.000000000000000E+20
  9
$PEXTMAX
 10
-1.000000000000000E+20
 20
-1.000000000000000E+20
 30
-1.000000000000000E+20
  9
$PLIMMIN
 10
0.0
 20
0.0
  9
$PLIMMAX
 10
0.0
 20
0.0
  9
$UNITMODE
 70
     0
  9
$VISRETAIN
 70
     0
  9
$PLINEGEN
 70
     0
  9
$PSLTSCALE
 70
     0
  9
$TREEDEPTH
 70
  3020
  9
$CMLSTYLE
  2
STANDARD
  9
$CMLJUST
 70
     0
  9
$CMLSCALE
 40
1.0
  9
$PROXYGRAPHICS
 70
     1
  9
$MEASUREMENT
 70
     0
  9
$CELWEIGHT
370
    -1
  9
$ENDCAPS
280
     0
  9
$JOINSTYLE
280
     0
  9
$LWDISPLAY
290
     0
  9
$INSUNITS
 70
     0
  9
$HYPERLINKBASE
  1

  9
$STYLESHEET
  1
spax form.ctb
  9
$XEDIT
290
     1
  9
$CEPSNTYPE
380
     0
  9
$PSTYLEMODE
290
     1
  9
$FINGERPRINTGUID
  2
{E5B35D22-A717-11D3-9160-00E0294F7E09}
  9
$VERSIONGUID
  2
{DCED4D92-E060-4D70-AD7D-2761121A534C}
  9
$EXTNAMES
290
     1
  9
$PSVPSCALE
 40
0.0
  9
$OLESTARTUP
290
     0
  0
ENDSEC
  0
SECTION
  2
CLASSES
  0
CLASS
  1
LWPOLYLINE
  2
AcDbPolyline
  3
ObjectDBX Classes
 90
        0
280
     0
281
     1
  0
CLASS
  1
ACDBDICTIONARYWDFLT
  2
AcDbDictionaryWithDefault
  3
ObjectDBX Classes
 90
        0
280
     0
281
     0
  0
CLASS
  1
ACDBPLACEHOLDER
  2
AcDbPlaceHolder
  3
ObjectDBX Classes
 90
        0
280
     0
281
     0
  0
CLASS
  1
LAYOUT
  2
AcDbLayout
  3
ObjectDBX Classes
 90
        0
280
     0
281
     0
  0
CLASS
  1
DICTIONARYVAR
  2
AcDbDictionaryVar
  3
ObjectDBX Classes
 90
        0
280
     0
281
     0
  0
CLASS
  1
SORTENTSTABLE
  2
AcDbSortentsTable
  3
ObjectDBX Classes
 90
        0
280
     0
281
     0
  0
CLASS
  1
MATERIAL
  2
AcDbMaterial
  3
ObjectDBX Classes
 90
     1153
280
     0
281
     0
  0
CLASS
  1
VISUALSTYLE
  2
AcDbVisualStyle
  3
ObjectDBX Classes
 90
     4095
280
     0
281
     0
  0
CLASS
  1
TABLESTYLE
  2
AcDbTableStyle
  3
ObjectDBX Classes
 90
     4095
280
     0
281
     0
  0
CLASS
  1
SCALE
  2
AcDbScale
  3
ObjectDBX Classes
 90
     1153
280
     0
281
     0
  0
CLASS
  1
MLEADERSTYLE
  2
AcDbMLeaderStyle
  3
ACDB_MLEADERSTYLE_CLASS
 90
     4095
280
     0
281
     0
  0
CLASS
  1
CELLSTYLEMAP
  2
AcDbCellStyleMap
  3
ObjectDBX Classes
 90
     1152
280
     0
281
     0
  0
CLASS
  1
RASTERVARIABLES
  2
AcDbRasterVariables
  3
ISM
 90
        0
280
     0
281
     0
  0
CLASS
  1
AEC_VARS_DWG_SETUP
  2
AecDbVarsDwgSetup
  3
AecBase60
 90
      129
280
     0
281
     0
  0
CLASS
  1
AEC_DISP_REP_2D_SECTION
  2
AecDbDispRep2dSection
  3
AecBase60
 90
      129
280
     0
281
     0
  0
CLASS
  1
AEC_DISP_PROPS_2D_SECTION
  2
AecDbDispProps2dSection
  3
AecBase60
 90
      129
280
     0
281
     0
  0
CLASS
  1
AEC_DISP_REP_CLIP_VOLUME_MODEL
  2
AecDbDispRepClipVolModel
  3
AecBase60
 90
      129
280
     0
281
     0
  0
CLASS
  1
AEC_DISP_PROPS_CLIP_VOLUME
  2
AecDbDispPropsClipVol
  3
AecBase60
 90
      129
280
     0
281
     0
  0
CLASS
  1
AEC_DISP_REP_CLIP_VOLUME_PLAN
  2
AecDbDispRepClipVolPlan
  3
AecBase60
 90
      129
280
     0
281
     0
  0
CLASS
  1
AEC_DISP_REP_CLIP_VOLUME_RESULT
  2
AecDbDispRepClipVolResult
  3
AecBase60
 90
      129
280
     0
281
     0
  0
CLASS
  1
AEC_DISP_REP_CLIP_VOLUME_RESULT_SUBDIV
  2
AecDbDispRepClipVolResSubDiv
  3
AecBase60
 90
      129
280
     0
281
     0
  0
CLASS
  1
AEC_DISP_PROPS_CLIP_VOLUME_RESULT
  2
AecDbDispPropsClipVolResSubDiv
  3
AecBase60
 90
      129
280
     0
281
     0
  0
CLASS
  1
AEC_DISP_REP_DISPLAYTHEME
  2
AecDbDispRepDisplayTheme
  3
AecBase60
 90
      129
280
     0
281
     0
  0
CLASS
  1
AEC_DISP_PROPS_DISPLAYTHEME
  2
AecDbDispPropsDisplayTheme
  3
AecBase60
 90
      129
280
     0
281
     0
  0
CLASS
  1
AEC_DISP_REP_ENT_REF
  2
AecDbDispRepEntRef
  3
AecBase60
 90
      129
280
     0
281
     0
  0
CLASS
  1
AEC_DISP_PROPS_ENT_REF
  2
AecDbDispPropsEntRef
  3
AecBase60
 90
      129
280
     0
281
     0
  0
CLASS
  1
AEC_DISP_REP_LAYOUT_CURVE
  2
AecDbDispRepLayoutCurve
  3
AecBase60
 90
      129
280
     0
281
     0
  0
CLASS
  1
AEC_DISP_PROPS_LAYOUT_CURVE
  2
AecDbDispPropsLayoutCurve
  3
AecBase60
 90
      129
280
     0
281
     0
  0
CLASS
  1
AEC_DISP_REP_LAYOUT_GRID2D
  2
AecDbDispRepLayoutGrid2d
  3
AecBase60
 90
      129
280
     0
281
     0
  0
CLASS
  1
AEC_DISP_PROPS_LAYOUT_GRID2D
  2
AecDbDispPropsLayoutGrid2d
  3
AecBase60
 90
      129
280
     0
281
     0
  0
CLASS
  1
AEC_DISP_REP_LAYOUT_GRID3D
  2
AecDbDispRepLayoutGrid3d
  3
AecBase60
 90
      129
280
     0
281
     0
  0
CLASS
  1
AEC_DISP_PROPS_LAYOUT_GRID3D
  2
AecDbDispPropsLayoutGrid3d
  3
AecBase60
 90
      129
280
     0
281
     0
  0
CLASS
  1
AEC_DISP_REP_MASKBLOCK_REF
  2
AecDbDispRepMaskBlockRef
  3
AecBase60
 90
      129
280
     0
281
     0
  0
CLASS
  1
AEC_DISP_PROPS_MASKBLOCK
  2
AecDbDispPropsMaskBlock
  3
AecBase60
 90
      129
280
     0
281
     0
  0
CLASS
  1
AEC_DISP_REP_MASKBLOCK_REF_RCP
  2
AecDbDispRepMaskBlockRefRcp
  3
AecArchBase60
 90
      129
280
     0
281
     0
  0
CLASS
  1
AEC_DISP_REP_MASS_ELEM_MODEL
  2
AecDbDispRepMassElemModel
  3
AecBase60
 90
      129
280
     0
281
     0
  0
CLASS
  1
AEC_DISP_PROPS_MASS_ELEM_MODEL
  2
AecDbDispPropsMassElem
  3
AecBase60
 90
      129
280
     0
281
     0
  0
CLASS
  1
AEC_DISP_REP_MASS_ELEM_SCHEM
  2
AecDbDispRepMassElemSchem
  3
AecBase60
 90
      129
280
     0
281
     0
  0
CLASS
  1
AEC_DISPREPAECDBDISPREPMASSELEMPLAN50
  2
AecDbDispRepMassElemPlan50
  3
AecArchDACHBase60
 90
      129
280
     0
281
     0
  0
CLASS
  1
AEC_DISPROPSMASSELEMPLANCOMMON
  2
AecDbDispPropsMassElemPlanCommon
  3
AecArchDACHBase60
 90
      129
280
     0
281
     0
  0
CLASS
  1
AEC_DISPREPAECDBDISPREPMASSELEMPLAN100
  2
AecDbDispRepMassElemPlan100
  3
AecArchDACHBase60
 90
      129
280
     0
281
     0
  0
CLASS
  1
AEC_DISP_REP_MASS_ELEM_RCP
  2
AecDbDispRepMassElemRcp
  3
AecArchBase60
 90
      129
280
     0
281
     0
  0
CLASS
  1
AEC_DISP_REP_MASS_GROUP_MODEL
  2
AecDbDispRepMassGroupModel
  3
AecBase60
 90
      129
280
     0
281
     0
  0
CLASS
  1
AEC_DISP_PROPS_MASS_GROUP
  2
AecDbDispPropsMassGroup
  3
AecBase60
 90
      129
280
     0
281
     0
  0
CLASS
  1
AEC_DISP_REP_MASS_GROUP_PLAN
  2
AecDbDispRepMassGroupPlan
  3
AecBase60
 90
      129
280
     0
281
     0
  0
CLASS
  1
AEC_DISPREPAECDBDISPREPMASSGROUPPLAN50
  2
AecDbDispRepMassGroupPlan50
  3
AecArchDACHBase60
 90
      129
280
     0
281
     0
  0
CLASS
  1
AEC_DISPROPSMASSGROUPPLANCOMMON
  2
AecDbDispPropsMassGroupPlanCommon
  3
AecArchDACHBase60
 90
      129
280
     0
281
     0
  0
CLASS
  1
AEC_DISPREPAECDBDISPREPMASSGROUPPLAN100
  2
AecDbDispRepMassGroupPlan100
  3
AecArchDACHBase60
 90
      129
280
     0
281
     0
  0
CLASS
  1
AEC_DISP_REP_MASS_GROUP_RCP
  2
AecDbDispRepMassGroupRcp
  3
AecArchBase60
 90
      129
280
     0
281
     0
  0
CLASS
  1
AEC_DISP_REP_MVBLOCK_REF
  2
AecDbDispRepMvBlockRef
  3
AecBase60
 90
      129
280
     0
281
     0
  0
CLASS
  1
AEC_DISP_REP_MVBLOCK_REF_MODEL
  2
AecDbDispRepMvBlockRefModel
  3
AecBase60
 90
      129
280
     0
281
     0
  0
CLASS
  1
AEC_AECDBDISPREPMVBLOCKREFPLAN100
  2
AecDbDispRepMvBlockRefPlan100
  3
AecBase60
 90
      129
280
     0
281
     0
  0
CLASS
  1
AEC_AECDBDISPREPMVBLOCKREFPLAN50
  2
AecDbDispRepMvBlockRefPlan50
  3
AecBase60
 90
      129
280
     0
281
     0
  0
CLASS
  1
AEC_DISP_REP_POLYGON_MODEL
  2
AecDbDispRepPolygonModel
  3
AecBase60
 90
      129
280
     0
281
     0
  0
CLASS
  1
AEC_DISP_PROPS_POLYGON_MODEL
  2
AecDbDispPropsPolygonModel
  3
AecBase60
 90
      129
280
     0
281
     0
  0
CLASS
  1
AEC_DISP_REP_POLYGON_TRUECOLOUR
  2
AecDbDispRepPolygonTrueColour
  3
AecBase60
 90
      129
280
     0
281
     0
  0
CLASS
  1
AEC_DISP_PROPS_POLYGON_TRUECOLOUR
  2
AecDbDispPropsPolygonTrueColour
  3
AecBase60
 90
      129
280
     0
281
     0
  0
CLASS
  1
AEC_DISP_REP_SLICE
  2
AecDbDispRepSlice
  3
AecBase60
 90
      129
280
     0
281
     0
  0
CLASS
  1
AEC_DISP_PROPS_SLICE
  2
AecDbDispPropsSlice
  3
AecBase60
 90
      129
280
     0
281
     0
  0
CLASS
  1
AEC_DISP_REP_ANCHOR
  2
AecDbDispRepAnchor
  3
AecBase60
 90
      129
280
     0
281
     0
  0
CLASS
  1
AEC_DISP_REP_ANCHOR_ENT_TO_NODE
  2
AecDbDispRepAnchorEntToNode
  3
AecBase60
 90
      129
280
     0
281
     0
  0
CLASS
  1
AEC_DISP_PROPS_ENT
  2
AecDbDispPropsEnt
  3
AecBase60
 90
      129
280
     0
281
     0
  0
CLASS
  1
AEC_DISP_REP_MATERIAL
  2
AecDbDispRepMaterial
  3
AecBase60
 90
      129
280
     0
281
     0
  0
CLASS
  1
AEC_DISP_PROPS_MATERIAL
  2
AecDbDispPropsMaterial
  3
AecBase60
 90
      129
280
     0
281
     0
  0
CLASS
  1
AEC_DISP_REP_EDITINPLACEPROFILE
  2
AecDbDispRepEditInPlaceProfile
  3
AecBase60
 90
      129
280
     0
281
     0
  0
CLASS
  1
AEC_DISP_PROPS_EDITINPLACEPROFILE_MODEL
  2
AecDbDispPropsEditInPlaceProfile
  3
AecBase60
 90
      129
280
     0
281
     0
  0
CLASS
  1
SUN
  2
AcDbSun
  3
SCENEOE
 90
     1153
280
     0
281
     0
  0
ENDSEC
  0
SECTION
  2
TABLES
  0
TABLE
  2
VPORT
  5
8
330
0
100
AcDbSymbolTable
 70
     1
  0
VPORT
  5
20B3F6
330
8
100
AcDbSymbolTableRecord
100
AcDbViewportTableRecord
  2
*Active
 70
     0
 10
0.0
 20
0.0
 11
1.0
 21
1.0
 12
-5003.356592287028
 22
-14841.680327145
 13
0.0
 23
0.0
 14
1.0
 24
1.0
 15
20.0
 25
20.0
 16
0.0
 26
0.0
 36
1.0
 17
0.0
 27
0.0
 37
0.0
 40
98.54744010117986
 41
1.731829573934837
 42
50.0
 43
0.0
 44
0.0
 50
0.0
 51
0.0
 71
    16
 72
   100
 73
     1
 74
     0
 75
     0
 76
     0
 77
     0
 78
     0
281
     0
 65
     1
110
0.0
120
0.0
130
0.0
111
1.0
121
0.0
131
0.0
112
0.0
122
1.0
132
0.0
 79
     0
146
0.0
  0
ENDTAB
  0
TABLE
  2
LTYPE
  5
5
330
0
100
AcDbSymbolTable
 70
     4
  0
LTYPE
  5
12
330
5
100
AcDbSymbolTableRecord
100
AcDbLinetypeTableRecord
  2
BYBLOCK
 70
     0
  3

 72
    65
 73
     0
 40
0.0
  0
LTYPE
  5
13
330
5
100
AcDbSymbolTableRecord
100
AcDbLinetypeTableRecord
  2
BYLAYER
 70
     0
  3

 72
    65
 73
     0
 40
0.0
  0
LTYPE
  5
14
330
5
100
AcDbSymbolTableRecord
100
AcDbLinetypeTableRecord
  2
CONTINUOUS
 70
     0
  3
Solid line
 72
    65
 73
     0
 40
0.0
  0
LTYPE
  5
25
330
5
100
AcDbSymbolTableRecord
100
AcDbLinetypeTableRecord
  2
CENTER
 70
     0
  3
____ _ ____ _ ____ _ ____ _ ____ _ ____ _ ____
 72
    65
 73
     4
 40
2.0
 49
1.25
 74
     0
 49
-0.25
 74
     0
 49
0.25
 74
     0
 49
-0.25
 74
     0
  0
LTYPE
  5
26
330
5
100
AcDbSymbolTableRecord
100
AcDbLinetypeTableRecord
  2
PHANTOM
 70
     0
  3
_____ _ _ _____ _ _ _____ _ _ _____ _ _ ____
 72
    65
 73
     6
 40
2.5
 49
1.25
 74
     0
 49
-0.25
 74
     0
 49
0.25
 74
     0
 49
-0.25
 74
     0
 49
0.25
 74
     0
 49
-0.25
 74
     0
  0
LTYPE
  5
1B66CA
330
5
100
AcDbSymbolTableRecord
100
AcDbLinetypeTableRecord
  2
HIDDEN
 70
     0
  3
_ _ _ _ _ _ _ _ _ _ _ _ _ _ _ _ _ _ _ _ _ _ _
 72
    65
 73
     2
 40
0.375
 49
0.25
 74
     0
 49
-0.125
 74
     0
  0
ENDTAB
  0
TABLE
  2
LAYER
  5
2
102
{ACAD_XDICTIONARY
360
1339DB
102
}
330
0
100
AcDbSymbolTable
 70
    12
  0
LAYER
  5
F
102
{ACAD_XDICTIONARY
360
209663
102
}
330
2
100
AcDbSymbolTableRecord
100
AcDbLayerTableRecord
  2
0
 70
     0
 62
     7
  6
CONTINUOUS
370
    -3
390
352
  0
LAYER
  5
34
102
{ACAD_XDICTIONARY
360
209667
102
}
330
2
100
AcDbSymbolTableRecord
100
AcDbLayerTableRecord
  2
寸法線
 70
     0
 62
     7
  6
CONTINUOUS
370
    -3
390
352
  0
LAYER
  5
2F4
102
{ACAD_XDICTIONARY
360
20966F
102
}
330
2
100
AcDbSymbolTableRecord
100
AcDbLayerTableRecord
  2
文字
 70
     0
 62
     7
  6
CONTINUOUS
370
    -3
390
352
  0
LAYER
  5
305
102
{ACAD_XDICTIONARY
360
209673
102
}
330
2
100
AcDbSymbolTableRecord
100
AcDbLayerTableRecord
  2
姿図
 70
     0
 62
     8
  6
CONTINUOUS
370
    -3
390
352
  0
ENDTAB
  0
TABLE
  2
STYLE
  5
3
330
0
100
AcDbSymbolTable
 70
     1
  0
STYLE
  5
10
330
3
100
AcDbSymbolTableRecord
100
AcDbTextStyleTableRecord
  2
STANDARD
 70
     0
 40
0.0
 41
1.0
 50
0.0
 71
     0
 42
2.5
  3
MONOTXT
  4
BIGFONT
  0
ENDTAB
  0
TABLE
  2
VIEW
  5
6
330
0
100
AcDbSymbolTable
 70
     0
  0
ENDTAB
  0
TABLE
  2
UCS
  5
7
330
0
100
AcDbSymbolTable
 70
     0
  0
ENDTAB
  0
TABLE
  2
APPID
  5
9
330
0
100
AcDbSymbolTable
 70
    11
  0
APPID
  5
11
330
9
100
AcDbSymbolTableRecord
100
AcDbRegAppTableRecord
  2
ACAD
 70
     0
  0
APPID
  5
7DDF6
330
9
100
AcDbSymbolTableRecord
100
AcDbRegAppTableRecord
  2
GENIUS_GENODEF_13
 70
     0
  0
APPID
  5
7DDF7
330
9
100
AcDbSymbolTableRecord
100
AcDbRegAppTableRecord
  2
GENIUS_GENREC_14
 70
     0
  0
APPID
  5
7DDF8
330
9
100
AcDbSymbolTableRecord
100
AcDbRegAppTableRecord
  2
GENIUS_GENOBJ-N-REC_13
 70
     0
  0
APPID
  5
7E5F3
330
9
100
AcDbSymbolTableRecord
100
AcDbRegAppTableRecord
  2
GENIUS_GENOBJ-N-FIL_13
 70
     0
  0
APPID
  5
1CF1BD
330
9
100
AcDbSymbolTableRecord
100
AcDbRegAppTableRecord
  2
ACAD_PSEXT
 70
     0
  0
APPID
  5
20964B
330
9
100
AcDbSymbolTableRecord
100
AcDbRegAppTableRecord
  2
ACAD_MLEADERVER
 70
     0
  0
APPID
  5
20A4FC
330
9
100
AcDbSymbolTableRecord
100
AcDbRegAppTableRecord
  2
ACAD_EXEMPT_FROM_CAD_STANDARDS
 70
     0
  0
APPID
  5
20B421
330
9
100
AcDbSymbolTableRecord
100
AcDbRegAppTableRecord
  2
AECBASE
 70
     0
  0
APPID
  5
20B422
330
9
100
AcDbSymbolTableRecord
100
AcDbRegAppTableRecord
  2
AEC_2DSECTION_XDATA
 70
     0
  0
APPID
  5
20B423
330
9
100
AcDbSymbolTableRecord
100
AcDbRegAppTableRecord
  2
AEC_MASSGROUP_XDADA
 70
     0
  0
ENDTAB
  0
TABLE
  2
DIMSTYLE
  5
A
330
0
100
AcDbSymbolTable
 70
     2
100
AcDbDimStyleTable
  0
DIMSTYLE
105
1CC
330
A
100
AcDbSymbolTableRecord
100
AcDbDimStyleTableRecord
  2
STANDARD
 70
     0
 41
3.0
 42
0.2999999999999999
 43
0.6300000000000001
 44
0.4999999999999996
 73
     0
 74
     0
 77
     3
 78
     8
 79
     2
140
2.5
141
0.0
147
0.7999999999999998
171
     0
172
     1
173
     1
176
     8
177
     8
271
     2
178
   256
179
     2
271
     2
272
     2
274
     0
289
     0
340
10
341
33F
343
33F
344
33F
371
    -1
372
    -1
  0
ENDTAB
  0
TABLE
  2
BLOCK_RECORD
  5
1
330
0
100
AcDbSymbolTable
 70
    77
  0
BLOCK_RECORD
  5
18
330
1
100
AcDbSymbolTableRecord
100
AcDbBlockTableRecord
  2
*MODEL_SPACE
340
355
  0
BLOCK_RECORD
  5
15
330
1
100
AcDbSymbolTableRecord
100
AcDbBlockTableRecord
  2
*PAPER_SPACE
340
356
  0
BLOCK_RECORD
  5
33F
330
1
100
AcDbSymbolTableRecord
100
AcDbBlockTableRecord
  2
_OPEN
340
0
  0
BLOCK_RECORD
  5
1B664C
330
1
100
AcDbSymbolTableRecord
100
AcDbBlockTableRecord
  2
_Open30
340
0
102
{BLKREFS
331
20918B
331
20918C
331
209194
331
209195
331
20919F
331
2091A0
331
2091A8
331
2091A9
331
2091B1
331
2091B2
331
2091BC
331
2091BD
331
2091C5
331
2091C6
331
2091CE
331
2091CF
331
2091D8
331
2091D9
331
2091E0
331
2091E1
331
20926A
331
20926B
331
209273
331
209274
331
20927C
331
20927D
331
209285
331
209286
331
2092C4
331
2092C5
331
209386
331
209387
331
20938F
331
209390
331
209656
331
20A53D
331
20A53E
331
20A546
331
20A547
331
20A54F
331
20A550
331
20A558
331
20A559
331
20A561
331
20A562
331
20A56A
331
20A56B
331
20A573
331
20A574
331
20A57D
331
20A57E
331
20A585
331
20A586
331
20A58C
331
20A58D
331
20A595
331
20A596
331
20A5A0
331
20A5A1
331
20A5A9
331
20A5AA
331
20A5B2
331
20A5B3
331
20A5BD
331
20A5BE
331
20A5C6
331
20A5C7
331
20A5D1
331
20A5D2
331
20A5DB
331
20ABB7
331
20ABB8
331
20ABC0
331
20ABC1
331
20ABC9
331
20ABCA
331
20ABD2
331
20ABD3
331
20ABDB
331
20ABDC
331
20ABE4
331
20ABE5
331
20ABED
331
20ABEE
331
20ABF7
331
20ABF8
331
20ABFF
331
20AC00
331
20AC06
331
20AC07
331
20AC0F
331
20AC10
331
20AC1A
331
20AC1B
331
20AC23
331
20AC24
331
20AC2C
331
20AC2D
331
20AC37
331
20AC38
331
20AC40
331
20AC41
331
20AC6C
331
20ACEE
331
20B333
331
20B334
331
20B33B
331
20B33C
331
20B342
331
20B343
331
20B34B
331
20B34C
331
20B356
331
20B357
331
20B35F
331
20B360
331
20B368
331
20B369
331
20B373
331
20B374
331
20B37C
331
20B37D
331
20B388
331
20B393
331
20B39B
331
20B39C
331
20B3A4
331
20B3A5
331
20B3AD
331
20B3AE
331
20B3B6
331
20B3B7
331
20B3BF
331
20B3C0
331
20B3C8
331
20B3C9
331
20B3D1
331
20B3D2
331
20B3E9
331
20B3EA
102
}
  0
ENDTAB
  0
ENDSEC
  0
SECTION
  2
BLOCKS
  0
BLOCK
  5
39
330
18
100
AcDbEntity
  8
0
100
AcDbBlockBegin
  2
*MODEL_SPACE
 70
     0
 10
0.0
 20
0.0
 30
0.0
  3
*MODEL_SPACE
  1
*MODEL_SPACE
  0
ENDBLK
  5
3A
330
18
100
AcDbEntity
  8
0
100
AcDbBlockEnd
  0
BLOCK
  5
37
330
15
100
AcDbEntity
 67
     1
  8
0
100
AcDbBlockBegin
  2
*PAPER_SPACE
 70
     0
 10
0.0
 20
0.0
 30
0.0
  3
*PAPER_SPACE
  1
*PAPER_SPACE
  0
ENDBLK
  5
38
330
15
100
AcDbEntity
 67
     1
  8
0
100
AcDbBlockEnd
  0
BLOCK
  5
340
330
33F
100
AcDbEntity
  8
0
100
AcDbBlockBegin
  2
_OPEN
 70
     0
 10
0.0
 20
0.0
 30
0.0
  3
_OPEN
  1
_OPEN
  0
LINE
  5
341
330
33F
100
AcDbEntity
  8
0
  6
ByBlock
 62
     0
100
AcDbLine
 10
-1.0
 20
0.1666666666666667
 30
0.0
 11
0.0
 21
0.0
 31
0.0
  0
LINE
  5
342
330
33F
100
AcDbEntity
  8
0
  6
ByBlock
 62
     0
100
AcDbLine
 10
0.0
 20
0.0
 30
0.0
 11
-1.0
 21
-0.1666666666666667
 31
0.0
  0
LINE
  5
343
330
33F
100
AcDbEntity
  8
0
  6
ByBlock
 62
     0
100
AcDbLine
 10
0.0
 20
0.0
 30
0.0
 11
-1.0
 21
0.0
 31
0.0
  0
ENDBLK
  5
344
330
33F
100
AcDbEntity
  8
0
100
AcDbBlockEnd
  0
BLOCK
  5
1B664D
330
1B664C
100
AcDbEntity
  8
0
100
AcDbBlockBegin
  2
_Open30
 70
     0
 10
0.0
 20
0.0
 30
0.0
  3
_Open30
  1
_Open30
  0
LINE
  5
1B664E
330
1B664C
100
AcDbEntity
  8
寸法線
 62
     0
370
    -2
100
AcDbLine
 10
-1.0
 20
0.26794919
 30
0.0
 11
0.0
 21
0.0
 31
0.0
  0
LINE
  5
1B664F
330
1B664C
100
AcDbEntity
  8
寸法線
 62
     0
370
    -2
100
AcDbLine
 10
0.0
 20
0.0
 30
0.0
 11
-1.0
 21
-0.26794919
 31
0.0
  0
LINE
  5
1B6650
330
1B664C
100
AcDbEntity
  8
寸法線
 62
     0
370
    -2
100
AcDbLine
 10
0.0
 20
0.0
 30
0.0
 11
-1.0
 21
0.0
 31
0.0
  0
ENDBLK
  5
1B6651
330
1B664C
100
AcDbEntity
  8
0
100
AcDbBlockEnd
  0
ENDSEC
  0
SECTION
  2
ENTITIES
  0
MTEXT
  5
1CADCE
330
18
100
AcDbEntity
  8
寸法線
100
AcDbMText
 10
-8190.898993724017
 20
-12886.90737958262
 30
-0.0000000000000001
 40
3.0
 41
0.0
 71
     9
 72
     1
  1
\A1;
 73
     1
 44
1.0
  0
MTEXT
  5
1CADD6
330
18
100
AcDbEntity
  8
寸法線
100
AcDbMText
 10
-8188.398993724017
 20
-12886.90737958262
 30
0.0000000000000001
 40
3.0
 41
0.0
 71
     9
 72
     1
  1
\A1;
 73
     1
 44
1.0
  0
MTEXT
  5
1CADDC
330
18
100
AcDbEntity
  8
寸法線
100
AcDbMText
 10
-8188.398993724017
 20
-12886.90737958262
 30
0.0000000000000001
 40
3.0
 41
0.0
 71
     9
 72
     1
  1
\A1;
 73
     1
 44
1.0
  0
MTEXT
  5
1CADE4
330
18
100
AcDbEntity
  8
寸法線
100
AcDbMText
 10
-8121.238459237466
 20
-12907.96180382428
 30
0.0
 40
3.0
 41
0.0
 71
     7
 72
     1
  1
\A1;
 73
     1
 44
1.0
  0
TEXT
  5
20ADE1
330
18
100
AcDbEntity
  8
文字
100
AcDbText
 10
-5072.597578644633
 20
-14889.98789582205
 30
0.0
 40
12.0
  1
SX-LD082/V2
100
AcDbText
  0
LINE
  5
20AE2E
330
18
100
AcDbEntity
  8
姿図
100
AcDbLine
 10
-4929.986040562774
 20
-14840.21314475151
 30
0.0
 11
-4929.986040562774
 21
-14839.19431051045
 31
0.0
  0
LINE
  5
20AE2F
330
18
100
AcDbEntity
  8
姿図
100
AcDbLine
 10
-4934.6000561627
 20
-14835.96977197817
 30
0.0
 11
-4935.559331842484
 21
-14836.13890988762
 31
0.0
  0
LINE
  5
20AE30
330
18
100
AcDbEntity
  8
姿図
100
AcDbLine
 10
-4935.559331842484
 20
-14837.5482863888
 30
0.0
 11
-4935.559331842484
 21
-14836.13890988762
 31
0.0
  0
LINE
  5
20AE31
330
18
100
AcDbEntity
  8
姿図
100
AcDbLine
 10
-4934.600252230174
 20
-14835.96971312003
 30
0.0
 11
-4934.600252230174
 21
-14834.91922261025
 31
0.0
  0
LINE
  5
20AE32
330
18
100
AcDbEntity
  8
姿図
100
AcDbLine
 10
-4939.498636455012
 20
-14840.17514139423
 30
0.0
 11
-4929.986040562774
 21
-14840.21314475151
 31
0.0
  0
LINE
  5
20AE33
330
18
100
AcDbEntity
  8
姿図
100
AcDbLine
 10
-4976.871667254533
 20
-14851.88100476109
 30
0.0
 11
-4976.871667254532
 21
-14843.16784681343
 31
0.0
  0
LINE
  5
20AE34
330
18
100
AcDbEntity
  8
姿図
100
AcDbLine
 10
-4976.871667254532
 20
-14849.60692183843
 30
0.0
 11
-4976.871667254532
 21
-14843.17393250622
 31
0.0
  0
LINE
  5
20AE35
330
18
100
AcDbEntity
  8
姿図
100
AcDbLine
 10
-4976.871667254533
 20
-14851.88100476109
 30
0.0
 11
-4929.986040562774
 21
-14840.21314475151
 31
0.0
  0
LINE
  5
20AE36
330
18
100
AcDbEntity
  8
姿図
100
AcDbLine
 10
-4976.871667254532
 20
-14843.16784681343
 30
0.0
 11
-4951.55070288769
 21
-14836.72342215463
 31
0.0
  0
LINE
  5
20AE37
330
18
100
AcDbEntity
  8
姿図
100
AcDbLine
 10
-4976.871667254532
 20
-14849.58476522058
 30
0.0
 11
-4939.498636455012
 21
-14840.17514139423
 31
0.0
  0
LINE
  5
20AE38
330
18
100
AcDbEntity
  8
姿図
100
AcDbLine
 10
-4976.871667254532
 20
-14848.25209011948
 30
0.0
 11
-4942.084197299148
 21
-14839.43463517808
 31
0.0
  0
LINE
  5
20AE39
330
18
100
AcDbEntity
  8
姿図
100
AcDbLine
 10
-4976.871667254532
 20
-14846.98520983636
 30
0.0
 11
-4944.526978025927
 21
-14838.73502127537
 31
0.0
  0
LINE
  5
20AE3A
330
18
100
AcDbEntity
  8
姿図
100
AcDbLine
 10
-4934.95288041482
 20
-14834.81245416705
 30
0.0
 11
-4934.95288041482
 21
-14826.67311024728
 31
0.0
  0
ELLIPSE
  5
20AE3C
330
18
100
AcDbEntity
  8
姿図
100
AcDbEllipse
 10
-5046.953610474114
 20
-14799.37309579088
 30
0.0
 11
0.185987346015459
 21
-0.9313504013085574
 31
0.0
210
0.0
220
0.0
230
-1.0
 40
0.4002854556153349
 41
1.090992743497568
 42
2.475844893381597
  0
LINE
  5
20AE3D
330
18
100
AcDbEntity
  8
姿図
100
AcDbLine
 10
-5051.073714446627
 20
-14799.50417251049
 30
0.0
 11
-5040.721892910172
 21
-14793.37275846795
 31
0.0
  0
LINE
  5
20AE3E
330
18
100
AcDbEntity
  8
姿図
100
AcDbLine
 10
-5041.815031880808
 20
-14807.46538747982
 30
0.0
 11
-5041.815031880808
 21
-14806.16657017327
 31
0.0
  0
LINE
  5
20AE3F
330
18
100
AcDbEntity
  8
姿図
100
AcDbLine
 10
-5040.721892910172
 20
-14811.18473848257
 30
0.0
 11
-5041.815031880808
 21
-14807.46538747982
 31
0.0
  0
LINE
  5
20AE40
330
18
100
AcDbEntity
  8
姿図
100
AcDbLine
 10
-5031.658156759403
 20
-14809.10065729815
 30
0.0
 11
-5031.658156759403
 21
-14807.32347009945
 31
0.0
  0
LINE
  5
20AE41
330
18
100
AcDbEntity
  8
姿図
100
AcDbLine
 10
-5057.046313840004
 20
-14806.72294724982
 30
0.0
 11
-5055.394220538973
 21
-14805.7512187242
 31
0.0
  0
LINE
  5
20AE42
330
18
100
AcDbEntity
  8
姿図
100
AcDbLine
 10
-5057.046313840004
 20
-14805.5024358621
 30
0.0
 11
-5055.394220538973
 21
-14804.53217481346
 31
0.0
  0
LINE
  5
20AE43
330
18
100
AcDbEntity
  8
姿図
100
AcDbLine
 10
-5057.046313840004
 20
-14803.04176052455
 30
0.0
 11
-5055.394220538973
 21
-14802.06322085113
 31
0.0
  0
LINE
  5
20AE44
330
18
100
AcDbEntity
  8
姿図
100
AcDbLine
 10
-5057.04653471899
 20
-14804.18222463869
 30
0.0
 11
-5055.394220538973
 21
-14803.20843541695
 31
0.0
  0
LINE
  5
20AE45
330
18
100
AcDbEntity
  8
姿図
100
AcDbLine
 10
-5057.046313840004
 20
-14803.04176052455
 30
0.0
 11
-5055.394220538973
 21
-14802.06322085113
 31
0.0
  0
LINE
  5
20AE46
330
18
100
AcDbEntity
  8
姿図
100
AcDbLine
 10
-5057.046313840004
 20
-14804.18259942358
 30
0.0
 11
-5055.394220538973
 21
-14803.20894037659
 31
0.0
  0
LINE
  5
20AE47
330
18
100
AcDbEntity
  8
姿図
100
AcDbLine
 10
-5057.046313840004
 20
-14805.50329238562
 30
0.0
 11
-5055.394220538973
 21
-14804.53303133697
 31
0.0
  0
LINE
  5
20AE48
330
18
100
AcDbEntity
  8
姿図
100
AcDbLine
 10
-5057.046313840004
 20
-14806.72365194515
 30
0.0
 11
-5055.394220538973
 21
-14805.75192341953
 31
0.0
  0
LINE
  5
20AE49
330
18
100
AcDbEntity
  8
姿図
100
AcDbLine
 10
-5057.31650418829
 20
-14808.17193317263
 30
0.0
 11
-5055.394220538973
 21
-14807.04673603918
 31
0.0
  0
ELLIPSE
  5
20AE4A
330
18
100
AcDbEntity
  8
姿図
100
AcDbEllipse
 10
-5060.993008212575
 20
-14807.46899960685
 30
0.0
 11
0.185987346015459
 21
-0.9313504013085574
 31
0.0
210
0.0
220
0.0
230
-1.0
 40
0.4002854556153347
 41
1.090992743497568
 42
2.475844893381597
  0
LINE
  5
20AE4B
330
18
100
AcDbEntity
  8
姿図
100
AcDbLine
 10
-5057.695013080937
 20
-14804.04641866902
 30
0.0
 11
-5058.380520235663
 21
-14803.83201485816
 31
0.0
  0
LINE
  5
20AE4C
330
18
100
AcDbEntity
  8
姿図
100
AcDbLine
 10
-5057.046313840004
 20
-14803.04176052455
 30
0.0
 11
-5057.046313840004
 21
-14808.01377888281
 31
0.0
  0
ELLIPSE
  5
20AE4D
330
18
100
AcDbEntity
  8
姿図
100
AcDbEllipse
 10
-5061.560952766261
 20
-14807.47330686024
 30
0.0
 11
-0.01697072851146973
 21
0.8801342180117231
 31
0.0
210
0.0
220
0.0
230
1.0
 40
0.4318616350327592
 41
0.0
 42
6.283185307179586
  0
LINE
  5
20AE4E
330
18
100
AcDbEntity
  8
姿図
100
AcDbLine
 10
-5058.380520235663
 20
-14803.83201485816
 30
0.0
 11
-5058.380520235663
 21
-14808.79474854479
 31
0.0
  0
LINE
  5
20AE4F
330
18
100
AcDbEntity
  8
姿図
100
AcDbLine
 10
-5057.695013080937
 20
-14804.04641866902
 30
0.0
 11
-5057.695013080937
 21
-14808.3934910687
 31
0.0
  0
LINE
  5
20AE50
330
18
100
AcDbEntity
  8
姿図
100
AcDbLine
 10
-5062.010388331034
 20
-14816.6749849219
 30
0.0
 11
-5062.010388331034
 21
-14817.4972079992
 31
0.0
  0
LINE
  5
20AE51
330
18
100
AcDbEntity
  8
姿図
100
AcDbLine
 10
-5054.060014143312
 20
-14804.96646497395
 30
0.0
 11
-5052.407920842285
 21
-14803.99473644833
 31
0.0
  0
LINE
  5
20AE52
330
18
100
AcDbEntity
  8
姿図
100
AcDbLine
 10
-5054.060388167351
 20
-14803.74882583746
 30
0.0
 11
-5052.407920842285
 21
-14802.77834512752
 31
0.0
  0
LINE
  5
20AE53
330
18
100
AcDbEntity
  8
姿図
100
AcDbLine
 10
-5054.060235022303
 20
-14802.42225278063
 30
0.0
 11
-5052.407920842285
 21
-14801.44846355889
 31
0.0
  0
LINE
  5
20AE54
330
18
100
AcDbEntity
  8
姿図
100
AcDbLine
 10
-5054.060014143312
 20
-14801.27296651752
 30
0.0
 11
-5052.407920842285
 21
-14800.29442684411
 31
0.0
  0
LINE
  5
20AE55
330
18
100
AcDbEntity
  8
姿図
100
AcDbLine
 10
-5054.708713384251
 20
-14802.27762466199
 30
0.0
 11
-5055.394220538973
 21
-14802.06322085113
 31
0.0
  0
LINE
  5
20AE56
330
18
100
AcDbEntity
  8
姿図
100
AcDbLine
 10
-5051.712809557198
 20
-14800.50858187037
 30
0.0
 11
-5052.404150004347
 21
-14800.29235359988
 31
0.0
  0
LINE
  5
20AE57
330
18
100
AcDbEntity
  8
姿図
100
AcDbLine
 10
-5054.060014143312
 20
-14801.27296651752
 30
0.0
 11
-5052.407920842285
 21
-14800.29442684411
 31
0.0
  0
LINE
  5
20AE58
330
18
100
AcDbEntity
  8
姿図
100
AcDbLine
 10
-5054.060014143312
 20
-14802.42262756551
 30
0.0
 11
-5052.407920842285
 21
-14801.44896851853
 31
0.0
  0
LINE
  5
20AE59
330
18
100
AcDbEntity
  8
姿図
100
AcDbLine
 10
-5054.060014143312
 20
-14803.74946269968
 30
0.0
 11
-5052.407920842285
 21
-14802.77920165104
 31
0.0
  0
LINE
  5
20AE5A
330
18
100
AcDbEntity
  8
姿図
100
AcDbLine
 10
-5054.060014143312
 20
-14804.96716966929
 30
0.0
 11
-5052.407920842285
 21
-14803.99544114366
 31
0.0
  0
LINE
  5
20AE5B
330
18
100
AcDbEntity
  8
姿図
100
AcDbLine
 10
-5054.060014143312
 20
-14806.26576637722
 30
0.0
 11
-5052.143410477395
 21
-14805.14389398778
 31
0.0
  0
LINE
  5
20AE5C
330
18
100
AcDbEntity
  8
姿図
100
AcDbLine
 10
-5055.394220538973
 20
-14802.06322085113
 30
0.0
 11
-5055.394220538973
 21
-14808.42391865947
 31
0.0
  0
LINE
  5
20AE5D
330
18
100
AcDbEntity
  8
姿図
100
AcDbLine
 10
-5052.407920842285
 20
-14800.29442684411
 30
0.0
 11
-5052.407920842285
 21
-14805.29872353359
 31
0.0
  0
LINE
  5
20AE5E
330
18
100
AcDbEntity
  8
姿図
100
AcDbLine
 10
-5054.060014143312
 20
-14801.27296651752
 30
0.0
 11
-5054.060014143312
 21
-14807.63922292044
 31
0.0
  0
LINE
  5
20AE5F
330
18
100
AcDbEntity
  8
姿図
100
AcDbLine
 10
-5054.708713384251
 20
-14802.27762466199
 30
0.0
 11
-5054.708713384251
 21
-14808.02074674758
 31
0.0
  0
LINE
  5
20AE60
330
18
100
AcDbEntity
  8
姿図
100
AcDbLine
 10
-5051.712809557198
 20
-14800.50858187037
 30
0.0
 11
-5051.712809557198
 21
-14804.89184433775
 31
0.0
  0
LINE
  5
20AE61
330
18
100
AcDbEntity
  8
姿図
100
AcDbLine
 10
-5048.434441805674
 20
-14809.88040095734
 30
0.0
 11
-5048.434441805674
 21
-14809.02788395288
 31
0.0
  0
LINE
  5
20AE62
330
18
100
AcDbEntity
  8
姿図
100
AcDbLine
 10
-5051.073714446627
 20
-14803.20998269808
 30
0.0
 11
-5040.721892910172
 21
-14797.12124650329
 31
0.0
  0
LINE
  5
20AE63
330
18
100
AcDbEntity
  8
姿図
100
AcDbLine
 10
-5051.073714446627
 20
-14801.99477649024
 30
0.0
 11
-5040.721892910172
 21
-14795.91523533293
 31
0.0
  0
LINE
  5
20AE64
330
18
100
AcDbEntity
  8
姿図
100
AcDbLine
 10
-5051.073714446627
 20
-14800.66215074782
 30
0.0
 11
-5040.721892910172
 21
-14794.56131813413
 31
0.0
  0
LINE
  5
20AE65
330
18
100
AcDbEntity
  8
姿図
100
AcDbLine
 10
-5054.060014143312
 20
-14806.2645768916
 30
0.0
 11
-5040.721892910172
 21
-14798.45718812129
 31
0.0
  0
ELLIPSE
  5
20AE66
330
18
100
AcDbEntity
  8
姿図
100
AcDbEllipse
 10
-5047.486499959762
 20
-14799.27017474158
 30
0.0
 11
-0.01697072851146973
 21
0.8801342180117231
 31
0.0
210
0.0
220
0.0
230
1.0
 40
0.4318616350327592
 41
0.0
 42
6.283185307179586
  0
LINE
  5
20AE67
330
18
100
AcDbEntity
  8
姿図
100
AcDbLine
 10
-5051.073714446627
 20
-14799.50417251049
 30
0.0
 11
-5051.073714446627
 21
-14804.51775387162
 31
0.0
  0
LINE
  5
20AE68
330
18
100
AcDbEntity
  8
姿図
100
AcDbLine
 10
-5040.721892910172
 20
-14806.48235282701
 30
0.0
 11
-5040.721892910172
 21
-14793.37275846796
 31
0.0
  0
ELLIPSE
  5
20AE69
330
18
100
AcDbEntity
  8
姿図
100
AcDbEllipse
 10
-5022.105545148029
 20
-14816.07026020495
 30
0.0
 11
-21.12080753413098
 21
0.0
 31
0.0
210
0.0
220
0.0
230
1.0
 40
0.3999919185846545
 41
-0.5784367365588503
 42
2.477240828422211
  0
ELLIPSE
  5
20AE6A
330
18
100
AcDbEntity
  8
姿図
100
AcDbEllipse
 10
-5022.105545148029
 20
-14815.36437785201
 30
0.0
 11
-21.12080753413098
 21
0.0
 31
0.0
210
0.0
220
0.0
230
1.0
 40
0.3999919185846545
 41
0.0417894837624354
 42
2.409090005352873
  0
LINE
  5
20AE6B
330
18
100
AcDbEntity
  8
姿図
100
AcDbLine
 10
-5068.309906678108
 20
-14826.26443164184
 30
0.0
 11
-5076.727144011283
 21
-14826.93621863192
 31
0.0
  0
LINE
  5
20AE6C
330
18
100
AcDbEntity
  8
姿図
100
AcDbLine
 10
-5076.727144011283
 20
-14826.93621863192
 30
0.0
 11
-5076.727144011283
 21
-14825.7540678866
 31
0.0
  0
LINE
  5
20AE6D
330
18
100
AcDbEntity
  8
姿図
100
AcDbLine
 10
-5068.309906678108
 20
-14819.6721909006
 30
0.0
 11
-5068.309906678108
 21
-14818.46185287563
 31
0.0
  0
LINE
  5
20AE6E
330
18
100
AcDbEntity
  8
姿図
100
AcDbLine
 10
-5067.640256810021
 20
-14820.65585493372
 30
0.0
 11
-5067.640256810021
 21
-14819.84619457721
 31
0.0
  0
LINE
  5
20AE6F
330
18
100
AcDbEntity
  8
姿図
100
AcDbLine
 10
-5068.309906678108
 20
-14819.6721909006
 30
0.0
 11
-5067.640256810021
 21
-14819.84619457721
 31
0.0
  0
LINE
  5
20AE70
330
18
100
AcDbEntity
  8
姿図
100
AcDbLine
 10
-5067.982909522413
 20
-14818.27607045217
 30
0.0
 11
-5067.982909522413
 21
-14809.5195379967
 31
0.0
  0
LINE
  5
20AE71
330
18
100
AcDbEntity
  8
姿図
100
AcDbLine
 10
-5067.982909522413
 20
-14815.82707645622
 30
0.0
 11
-5040.721892910172
 21
-14799.79387226312
 31
0.0
  0
LINE
  5
20AE72
330
18
100
AcDbEntity
  8
姿図
100
AcDbLine
 10
-5068.309906678108
 20
-14819.6721909006
 30
0.0
 11
-5040.721892910172
 21
-14804.11270865019
 31
0.0
  0
LINE
  5
20AE73
330
18
100
AcDbEntity
  8
姿図
100
AcDbLine
 10
-5068.309906678108
 20
-14818.46185287563
 30
0.0
 11
-5040.721892910172
 21
-14802.7878081118
 31
0.0
  0
LINE
  5
20AE74
330
18
100
AcDbEntity
  8
姿図
100
AcDbLine
 10
-5067.640256810021
 20
-14819.84619457721
 30
0.0
 11
-5040.721892910172
 21
-14804.68353565847
 31
0.0
  0
LINE
  5
20AE75
330
18
100
AcDbEntity
  8
姿図
100
AcDbLine
 10
-5068.309906678108
 20
-14826.26443164184
 30
0.0
 11
-5040.721892910172
 21
-14811.18473848257
 31
0.0
  0
LINE
  5
20AE76
330
18
100
AcDbEntity
  8
姿図
100
AcDbLine
 10
-5041.815031880808
 20
-14806.16657017327
 30
0.0
 11
-5076.727144011283
 21
-14825.7540678866
 31
0.0
  0
LINE
  5
20AE77
330
18
100
AcDbEntity
  8
姿図
100
AcDbLine
 10
-5076.727144011283
 20
-14826.93621863192
 30
0.0
 11
-5041.815031880808
 21
-14807.46538747982
 31
0.0
  0
LINE
  5
20AE78
330
18
100
AcDbEntity
  8
姿図
100
AcDbLine
 10
-5067.982909522413
 20
-14817.05730230887
 30
0.0
 11
-5040.721892910172
 21
-14801.23848079152
 31
0.0
  0
LINE
  5
20AE79
330
18
100
AcDbEntity
  8
姿図
100
AcDbLine
 10
-5067.982909522413
 20
-14809.5195379967
 30
0.0
 11
-5058.380520235663
 21
-14803.83201485816
 31
0.0
  0
LINE
  5
20AE7A
330
18
100
AcDbEntity
  8
姿図
100
AcDbLine
 10
-5067.982909522413
 20
-14814.41425967923
 30
0.0
 11
-5055.394220538973
 21
-14807.04554655357
 31
0.0
  0
LINE
  5
20AE7B
330
18
100
AcDbEntity
  8
姿図
100
AcDbLine
 10
-5067.982909522413
 20
-14813.15563600366
 30
0.0
 11
-5058.380520235663
 21
-14807.50770100006
 31
0.0
  0
LINE
  5
20AE7C
330
18
100
AcDbEntity
  8
姿図
100
AcDbLine
 10
-5067.982909522413
 20
-14810.6275629631
 30
0.0
 11
-5058.380520235663
 21
-14804.96840727502
 31
0.0
  0
LINE
  5
20AE7D
330
18
100
AcDbEntity
  8
姿図
100
AcDbLine
 10
-5067.982909522413
 20
-14811.92541015101
 30
0.0
 11
-5058.380520235663
 21
-14806.28600449938
 31
0.0
  0
LINE
  5
20AE7E
330
18
100
AcDbEntity
  8
姿図
100
AcDbLine
 10
-4934.95288041482
 20
-14829.08668171779
 30
0.0
 11
-5040.721892910172
 21
-14795.91523533293
 31
0.0
  0
LINE
  5
20AE7F
330
18
100
AcDbEntity
  8
姿図
100
AcDbLine
 10
-4934.95288041482
 20
-14827.92402282238
 30
0.0
 11
-5040.721892910172
 21
-14794.56131813413
 31
0.0
  0
LINE
  5
20AE80
330
18
100
AcDbEntity
  8
姿図
100
AcDbLine
 10
-4934.95288041482
 20
-14832.47974621686
 30
0.0
 11
-5040.721892910172
 21
-14799.79387226312
 31
0.0
  0
LINE
  5
20AE81
330
18
100
AcDbEntity
  8
姿図
100
AcDbLine
 10
-4934.95288041482
 20
-14826.67311024728
 30
0.0
 11
-5040.721892910172
 21
-14793.37275846796
 31
0.0
  0
LINE
  5
20AE82
330
18
100
AcDbEntity
  8
姿図
100
AcDbLine
 10
-4934.95288041482
 20
-14830.19221734127
 30
0.0
 11
-5040.721892910172
 21
-14797.12124650329
 31
0.0
  0
LINE
  5
20AE83
330
18
100
AcDbEntity
  8
姿図
100
AcDbLine
 10
-4934.95288041482
 20
-14831.32525022893
 30
0.0
 11
-5040.721892910172
 21
-14798.45718812129
 31
0.0
  0
LINE
  5
20AE84
330
18
100
AcDbEntity
  8
姿図
100
AcDbLine
 10
-4934.95288041482
 20
-14833.65120454062
 30
0.0
 11
-5040.721892910172
 21
-14801.23635585163
 31
0.0
  0
LINE
  5
20AE85
330
18
100
AcDbEntity
  8
姿図
100
AcDbLine
 10
-4935.559331842484
 20
-14836.13890988762
 30
0.0
 11
-5040.721892910172
 21
-14804.68353565847
 31
0.0
  0
LINE
  5
20AE86
330
18
100
AcDbEntity
  8
姿図
100
AcDbLine
 10
-4934.600252230174
 20
-14834.91922261025
 30
0.0
 11
-5040.721892910172
 21
-14802.7878081118
 31
0.0
  0
LINE
  5
20AE87
330
18
100
AcDbEntity
  8
姿図
100
AcDbLine
 10
-4934.6000561627
 20
-14835.96977197817
 30
0.0
 11
-5040.721892910172
 21
-14804.11270865019
 31
0.0
  0
LINE
  5
20AE88
330
18
100
AcDbEntity
  8
姿図
100
AcDbLine
 10
-4929.986040562774
 20
-14839.19431051045
 30
0.0
 11
-5041.815031880808
 21
-14806.16657017327
 31
0.0
  0
LINE
  5
20AE89
330
18
100
AcDbEntity
  8
姿図
100
AcDbLine
 10
-4929.986040562774
 20
-14840.21314475151
 30
0.0
 11
-5041.815031880808
 21
-14807.46538747982
 31
0.0
  0
LINE
  5
20AE8A
330
18
100
AcDbEntity
  8
姿図
100
AcDbLine
 10
-4976.871667254533
 20
-14849.58476522058
 30
0.0
 11
-5068.309906678108
 21
-14826.26443164184
 31
0.0
  0
LINE
  5
20AE8B
330
18
100
AcDbEntity
  8
姿図
100
AcDbLine
 10
-4976.871667254533
 20
-14848.25209011948
 30
0.0
 11
-5066.306750005378
 21
-14825.16950004479
 31
0.0
  0
LINE
  5
20AE8C
330
18
100
AcDbEntity
  8
姿図
100
AcDbLine
 10
-4976.871667254532
 20
-14843.17393250622
 30
0.0
 11
-5058.528867045435
 21
-14820.91808530172
 31
0.0
  0
LINE
  5
20AE8D
330
18
100
AcDbEntity
  8
姿図
100
AcDbLine
 10
-4976.871667254533
 20
-14846.98520983636
 30
0.0
 11
-5064.415141577533
 21
-14824.13554106139
 31
0.0
  0
LINE
  5
20AE8E
330
18
100
AcDbEntity
  8
姿図
100
AcDbLine
 10
-4976.871667254533
 20
-14851.88100476109
 30
0.0
 11
-5076.727144011283
 21
-14826.93621863192
 31
0.0
  0
LINE
  5
20AE8F
330
18
100
AcDbEntity
  8
姿図
100
AcDbLine
 10
-4939.498636455012
 20
-14840.17514139423
 30
0.0
 11
-5040.721892910172
 21
-14811.18473848257
 31
0.0
  0
ELLIPSE
  5
20AE90
330
18
100
AcDbEntity
  8
姿図
100
AcDbEllipse
 10
-4974.891287170562
 20
-14830.44220422339
 30
0.0
 11
-19.65016863075697
 21
0.0
 31
0.0
210
0.0
220
0.0
230
1.0
 40
0.3989172817622233
 41
5.618686487414179
 42
8.843940284267434
  0
ELLIPSE
  5
20AE91
330
18
100
AcDbEntity
  8
姿図
100
AcDbEllipse
 10
-4974.891287170562
 20
-14829.73632187044
 30
0.0
 11
-19.65016863075697
 21
0.0
 31
0.0
210
0.0
220
0.0
230
1.0
 40
0.3989172817622233
 41
6.328225479390605
 42
8.770773160613757
  0
ENDSEC
  0
SECTION
  2
OBJECTS
  0
DICTIONARY
  5
C
330
0
100
AcDbDictionary
281
     1
  3
ACAD_GROUP
350
D
  3
ACAD_IMAGE_VARS
350
20B41D
  3
ACAD_LAYOUT
350
353
  3
ACAD_MLINESTYLE
350
E
  3
ACAD_PLOTSETTINGS
350
354
  3
ACAD_PLOTSTYLENAME
350
351
  3
ACAD_SCALELIST
350
209627
  3
AcadDim
350
A3ACF
  3
AcDbVariableDictionary
350
1C63
  3
AEC_DISP_REPS
350
20B426
  3
AEC_DISPLAY_PROPS_DEFAULTS
350
20B428
  3
AEC_VARS
350
20B424
  3
APPDATA
350
20B41C
  3
DWGPROPS
350
20B484
  0
DICTIONARY
  5
1339DB
330
2
100
AcDbDictionary
280
     1
281
     1
  3
ACAD_LAYERFILTERS
360
146A70
  3
ACAD_LAYERSTATES
360
1339DC
  0
DICTIONARY
  5
209663
330
F
100
AcDbDictionary
280
     1
281
     1
  3
ADSK_XREC_LAYER_RECONCILED
360
209664
  0
DICTIONARY
  5
209667
330
34
100
AcDbDictionary
280
     1
281
     1
  3
ADSK_XREC_LAYER_RECONCILED
360
209668
  0
DICTIONARY
  5
20966F
330
2F4
100
AcDbDictionary
280
     1
281
     1
  3
ADSK_XREC_LAYER_RECONCILED
360
209670
  0
DICTIONARY
  5
209673
330
305
100
AcDbDictionary
280
     1
281
     1
  3
ADSK_XREC_LAYER_RECONCILED
360
209674
  0
DICTIONARY
  5
D
102
{ACAD_REACTORS
330
C
102
}
330
C
100
AcDbDictionary
281
     1
  0
RASTERVARIABLES
  5
20B41D
102
{ACAD_REACTORS
330
C
102
}
330
C
100
AcDbRasterVariables
 90
        0
 70
     1
 71
     1
 72
     0
  0
DICTIONARY
  5
353
102
{ACAD_REACTORS
330
C
102
}
330
C
100
AcDbDictionary
281
     1
  3
Model
350
355
  3
ﾚｲｱｳﾄ1
350
356
  0
DICTIONARY
  5
E
102
{ACAD_REACTORS
330
C
102
}
330
C
100
AcDbDictionary
281
     1
  3
STANDARD
350
1B
  0
DICTIONARY
  5
354
102
{ACAD_REACTORS
330
C
102
}
330
C
100
AcDbDictionary
281
     1
  0
ACDBDICTIONARYWDFLT
  5
351
102
{ACAD_REACTORS
330
C
102
}
330
C
100
AcDbDictionary
281
     1
  3
Normal
350
352
100
AcDbDictionaryWithDefault
340
352
  0
DICTIONARY
  5
209627
102
{ACAD_REACTORS
330
C
102
}
330
C
100
AcDbDictionary
281
     1
  3
A0
350
209628
  3
A1
350
209629
  3
A2
350
20962A
  3
A3
350
20962B
  3
A4
350
20962C
  3
A5
350
20962D
  3
A6
350
20962E
  3
A7
350
20962F
  3
A8
350
209630
  3
A9
350
209631
  3
B0
350
209632
  3
B1
350
209633
  3
B2
350
209634
  3
B3
350
209635
  3
B4
350
209636
  3
B5
350
209637
  3
B6
350
209638
  3
B7
350
209639
  3
B8
350
20963A
  3
B9
350
20963B
  3
C0
350
20963C
  3
C1
350
20963D
  3
C2
350
20963E
  3
C3
350
20963F
  3
C4
350
209640
  3
C5
350
209641
  3
C6
350
209642
  3
C7
350
209643
  3
C8
350
209644
  3
C9
350
209645
  3
D0
350
209646
  3
D1
350
209647
  3
D2
350
209648
  0
XRECORD
  5
A3ACF
102
{ACAD_REACTORS
330
C
102
}
330
C
100
AcDbXrecord
280
     1
 90
   990106
  3

 60
     0
 61
     0
 62
     4
 63
     4
 64
     1
 65
     0
 66
     0
 67
     3
 68
     1
 69
     0
 70
     0
 71
     0
 72
     0
 40
0.0
170
     2
340
1CADE4
  0
DICTIONARY
  5
1C63
102
{ACAD_REACTORS
330
C
102
}
330
C
100
AcDbDictionary
281
     1
  3
DIMASSOC
350
272F6
  3
INDEXCTL
350
20969C
  3
PROJECTNAME
350
273B1
  3
SORTENTS
350
1C64
  0
DICTIONARY
  5
20B426
102
{ACAD_REACTORS
330
C
102
}
330
C
100
AcDbDictionary
281
     1
  3
AecDbDispRep2dSection
350
20B427
  3
AecDbDispRepAnchor
350
20B461
  3
AecDbDispRepAnchorEntToNode
350
20B462
  3
AecDbDispRepClipVolModel
350
20B42E
  3
AecDbDispRepClipVolPlan
350
20B430
  3
AecDbDispRepClipVolResSubDiv
350
20B433
  3
AecDbDispRepClipVolResult
350
20B432
  3
AecDbDispRepDisplayTheme
350
20B435
  3
AecDbDispRepEditInPlaceProfile
350
20B466
  3
AecDbDispRepEntRef
350
20B437
  3
AecDbDispRepLayoutCurve
350
20B439
  3
AecDbDispRepLayoutGrid2d
350
20B43B
  3
AecDbDispRepLayoutGrid3d
350
20B43D
  3
AecDbDispRepMaskBlockRef
350
20B43F
  3
AecDbDispRepMaskBlockRefRcp
350
20B441
  3
AecDbDispRepMassElemModel
350
20B443
  3
AecDbDispRepMassElemPlan100
350
20B449
  3
AecDbDispRepMassElemPlan50
350
20B447
  3
AecDbDispRepMassElemRcp
350
20B44B
  3
AecDbDispRepMassElemSchem
350
20B445
  3
AecDbDispRepMassGroupModel
350
20B44D
  3
AecDbDispRepMassGroupPlan
350
20B44F
  3
AecDbDispRepMassGroupPlan100
350
20B453
  3
AecDbDispRepMassGroupPlan50
350
20B451
  3
AecDbDispRepMassGroupRcp
350
20B455
  3
AecDbDispRepMaterial
350
20B464
  3
AecDbDispRepMvBlockRef
350
20B457
  3
AecDbDispRepMvBlockRefModel
350
20B458
  3
AecDbDispRepMvBlockRefPlan100
350
20B459
  3
AecDbDispRepMvBlockRefPlan50
350
20B45A
  3
AecDbDispRepPolygonModel
350
20B45B
  3
AecDbDispRepPolygonTrueColour
350
20B45D
  3
AecDbDispRepSlice
350
20B45F
  0
DICTIONARY
  5
20B428
102
{ACAD_REACTORS
330
C
102
}
330
C
100
AcDbDictionary
281
     1
  3
*A1
350
20B429
  3
*A10
350
20B440
  3
*A11
350
20B442
  3
*A12
350
20B444
  3
*A13
350
20B446
  3
*A14
350
20B448
  3
*A15
350
20B44A
  3
*A16
350
20B44C
  3
*A17
350
20B44E
  3
*A18
350
20B450
  3
*A19
350
20B452
  3
*A2
350
20B42F
  3
*A20
350
20B454
  3
*A21
350
20B456
  3
*A22
350
20B45C
  3
*A23
350
20B45E
  3
*A24
350
20B460
  3
*A25
350
20B463
  3
*A26
350
20B465
  3
*A27
350
20B467
  3
*A3
350
20B431
  3
*A4
350
20B434
  3
*A5
350
20B436
  3
*A6
350
20B438
  3
*A7
350
20B43A
  3
*A8
350
20B43C
  3
*A9
350
20B43E
  0
DICTIONARY
  5
20B424
102
{ACAD_REACTORS
330
C
102
}
330
C
100
AcDbDictionary
281
     1
  3
AEC_VARS_DWG_SETUP
350
20B425
  0
DICTIONARY
  5
20B41C
102
{ACAD_REACTORS
330
C
102
}
330
C
100
AcDbDictionary
281
     1
  0
XRECORD
  5
20B484
102
{ACAD_REACTORS
330
C
102
}
330
C
100
AcDbXrecord
280
     1
  1
DWGPROPS COOKIE
  2

  3

  4

  6

  7

  8
SPAX
  9

300
=
301
=
302
=
303
=
304
=
305
=
306
=
307
=
308
=
309
=
 40
0.0
 41
2448636.244629629
 42
2456821.244269537
  1

 90
        0
  0
DICTIONARY
  5
146A70
102
{ACAD_REACTORS
330
1339DB
102
}
330
1339DB
100
AcDbDictionary
281
     1
  0
DICTIONARY
  5
1339DC
102
{ACAD_REACTORS
330
1339DB
102
}
330
1339DB
100
AcDbDictionary
281
     1
  0
XRECORD
  5
209664
102
{ACAD_REACTORS
330
209663
102
}
330
209663
100
AcDbXrecord
280
     1
290
     1
  0
XRECORD
  5
209668
102
{ACAD_REACTORS
330
209667
102
}
330
209667
100
AcDbXrecord
280
     1
290
     1
  0
XRECORD
  5
209670
102
{ACAD_REACTORS
330
20966F
102
}
330
20966F
100
AcDbXrecord
280
     1
290
     1
  0
XRECORD
  5
209674
102
{ACAD_REACTORS
330
209673
102
}
330
209673
100
AcDbXrecord
280
     1
290
     1
  0
LAYOUT
  5
355
102
{ACAD_REACTORS
330
353
102
}
330
353
100
AcDbPlotSettings
  1

  2
JUST PDF 2
  4
A4
  6

 40
3.174999952316284
 41
3.174999952316284
 42
3.175003051757812
 43
3.17498779296875
 44
209.8886566162109
 45
297.0530090332031
 46
14.27171755861582
 47
9.855173074625782
 48
-5093.287647935732
 49
-15749.37970914169
140
-4393.306773956111
141
-14665.40900858703
142
1.0
143
4.0
 70
 11940
 72
     1
 73
     0
 74
     4
  7
spax form.ctb
 75
    16
147
1.0
148
5093.287647935732
149
15749.37970914169
100
AcDbLayout
  1
Model
 70
     1
 71
     0
 10
0.0
 20
0.0
 11
12.0
 21
9.0
 12
0.0
 22
0.0
 32
0.0
 14
-5076.727144011283
 24
-14889.98789582205
 34
0.0
 15
-4929.986040562774
 25
-14793.37275846795
 35
0.0
146
0.0
 13
0.0
 23
0.0
 33
0.0
 16
1.0
 26
0.0
 36
0.0
 17
0.0
 27
1.0
 37
0.0
 76
     0
330
18
331
20B3F6
1001
ACAD_PSEXT
1000
JUST PDF 2
1000
JUST PDF 2
1000
JUST PDF 2 Port:
1000

1070
     0
  0
LAYOUT
  5
356
102
{ACAD_REACTORS
330
353
102
}
330
353
100
AcDbPlotSettings
  1

  2
Canon LASER SHOT LBP-750
  4

  6

 40
0.0
 41
0.0
 42
0.0
 43
0.0
 44
0.0
 45
0.0
 46
0.0
 47
0.0
 48
0.0
 49
0.0
140
0.0
141
0.0
142
1.0
143
1.0
 70
   688
 72
     0
 73
     0
 74
     5
  7
spax form2.ctb
 75
    16
147
1.0
148
0.0
149
0.0
100
AcDbLayout
  1
ﾚｲｱｳﾄ1
 70
     0
 71
     1
 10
0.0
 20
0.0
 11
12.0
 21
9.0
 12
0.0
 22
0.0
 32
0.0
 14
1.000000000000000E+20
 24
1.000000000000000E+20
 34
1.000000000000000E+20
 15
-1.000000000000000E+20
 25
-1.000000000000000E+20
 35
-1.000000000000000E+20
146
0.0
 13
0.0
 23
0.0
 33
0.0
 16
1.0
 26
0.0
 36
0.0
 17
0.0
 27
1.0
 37
0.0
 76
     0
330
15
  0
MLINESTYLE
  5
1B
102
{ACAD_REACTORS
330
E
102
}
330
E
100
AcDbMlineStyle
  2
STANDARD
 70
     0
  3

 62
     0
 51
90.0
 52
90.0
 71
     2
 49
0.5
 62
   256
  6
BYLAYER
 49
-0.5
 62
   256
  6
BYLAYER
  0
ACDBPLACEHOLDER
  5
352
102
{ACAD_REACTORS
330
351
102
}
330
351
  0
SCALE
  5
209628
102
{ACAD_REACTORS
330
209627
102
}
330
209627
100
AcDbScale
 70
     0
300
1:1
140
1.0
141
1.0
290
     1
  0
SCALE
  5
209629
102
{ACAD_REACTORS
330
209627
102
}
330
209627
100
AcDbScale
 70
     0
300
1:2
140
1.0
141
2.0
290
     0
  0
SCALE
  5
20962A
102
{ACAD_REACTORS
330
209627
102
}
330
209627
100
AcDbScale
 70
     0
300
1:4
140
1.0
141
4.0
290
     0
  0
SCALE
  5
20962B
102
{ACAD_REACTORS
330
209627
102
}
330
209627
100
AcDbScale
 70
     0
300
1:5
140
1.0
141
5.0
290
     0
  0
SCALE
  5
20962C
102
{ACAD_REACTORS
330
209627
102
}
330
209627
100
AcDbScale
 70
     0
300
1:8
140
1.0
141
8.0
290
     0
  0
SCALE
  5
20962D
102
{ACAD_REACTORS
330
209627
102
}
330
209627
100
AcDbScale
 70
     0
300
1:10
140
1.0
141
10.0
290
     0
  0
SCALE
  5
20962E
102
{ACAD_REACTORS
330
209627
102
}
330
209627
100
AcDbScale
 70
     0
300
1:16
140
1.0
141
16.0
290
     0
  0
SCALE
  5
20962F
102
{ACAD_REACTORS
330
209627
102
}
330
209627
100
AcDbScale
 70
     0
300
1:20
140
1.0
141
20.0
290
     0
  0
SCALE
  5
209630
102
{ACAD_REACTORS
330
209627
102
}
330
209627
100
AcDbScale
 70
     0
300
1:30
140
1.0
141
30.0
290
     0
  0
SCALE
  5
209631
102
{ACAD_REACTORS
330
209627
102
}
330
209627
100
AcDbScale
 70
     0
300
1:40
140
1.0
141
40.0
290
     0
  0
SCALE
  5
209632
102
{ACAD_REACTORS
330
209627
102
}
330
209627
100
AcDbScale
 70
     0
300
1:50
140
1.0
141
50.0
290
     0
  0
SCALE
  5
209633
102
{ACAD_REACTORS
330
209627
102
}
330
209627
100
AcDbScale
 70
     0
300
1:100
140
1.0
141
100.0
290
     0
  0
SCALE
  5
209634
102
{ACAD_REACTORS
330
209627
102
}
330
209627
100
AcDbScale
 70
     0
300
2:1
140
2.0
141
1.0
290
     0
  0
SCALE
  5
209635
102
{ACAD_REACTORS
330
209627
102
}
330
209627
100
AcDbScale
 70
     0
300
4:1
140
4.0
141
1.0
290
     0
  0
SCALE
  5
209636
102
{ACAD_REACTORS
330
209627
102
}
330
209627
100
AcDbScale
 70
     0
300
8:1
140
8.0
141
1.0
290
     0
  0
SCALE
  5
209637
102
{ACAD_REACTORS
330
209627
102
}
330
209627
100
AcDbScale
 70
     0
300
10:1
140
10.0
141
1.0
290
     0
  0
SCALE
  5
209638
102
{ACAD_REACTORS
330
209627
102
}
330
209627
100
AcDbScale
 70
     0
300
100:1
140
100.0
141
1.0
290
     0
  0
SCALE
  5
209639
102
{ACAD_REACTORS
330
209627
102
}
330
209627
100
AcDbScale
 70
     0
300
1/128" = 1'-0"
140
0.0078125
141
12.0
290
     0
  0
SCALE
  5
20963A
102
{ACAD_REACTORS
330
209627
102
}
330
209627
100
AcDbScale
 70
     0
300
1/64" = 1'-0"
140
0.015625
141
12.0
290
     0
  0
SCALE
  5
20963B
102
{ACAD_REACTORS
330
209627
102
}
330
209627
100
AcDbScale
 70
     0
300
1/32" = 1'-0"
140
0.03125
141
12.0
290
     0
  0
SCALE
  5
20963C
102
{ACAD_REACTORS
330
209627
102
}
330
209627
100
AcDbScale
 70
     0
300
1/16" = 1'-0"
140
0.0625
141
12.0
290
     0
  0
SCALE
  5
20963D
102
{ACAD_REACTORS
330
209627
102
}
330
209627
100
AcDbScale
 70
     0
300
3/32" = 1'-0"
140
0.09375
141
12.0
290
     0
  0
SCALE
  5
20963E
102
{ACAD_REACTORS
330
209627
102
}
330
209627
100
AcDbScale
 70
     0
300
1/8" = 1'-0"
140
0.125
141
12.0
290
     0
  0
SCALE
  5
20963F
102
{ACAD_REACTORS
330
209627
102
}
330
209627
100
AcDbScale
 70
     0
300
3/16" = 1'-0"
140
0.1875
141
12.0
290
     0
  0
SCALE
  5
209640
102
{ACAD_REACTORS
330
209627
102
}
330
209627
100
AcDbScale
 70
     0
300
1/4" = 1'-0"
140
0.25
141
12.0
290
     0
  0
SCALE
  5
209641
102
{ACAD_REACTORS
330
209627
102
}
330
209627
100
AcDbScale
 70
     0
300
3/8" = 1'-0"
140
0.375
141
12.0
290
     0
  0
SCALE
  5
209642
102
{ACAD_REACTORS
330
209627
102
}
330
209627
100
AcDbScale
 70
     0
300
1/2" = 1'-0"
140
0.5
141
12.0
290
     0
  0
SCALE
  5
209643
102
{ACAD_REACTORS
330
209627
102
}
330
209627
100
AcDbScale
 70
     0
300
3/4" = 1'-0"
140
0.75
141
12.0
290
     0
  0
SCALE
  5
209644
102
{ACAD_REACTORS
330
209627
102
}
330
209627
100
AcDbScale
 70
     0
300
1" = 1'-0"
140
1.0
141
12.0
290
     0
  0
SCALE
  5
209645
102
{ACAD_REACTORS
330
209627
102
}
330
209627
100
AcDbScale
 70
     0
300
1-1/2" = 1'-0"
140
1.5
141
12.0
290
     0
  0
SCALE
  5
209646
102
{ACAD_REACTORS
330
209627
102
}
330
209627
100
AcDbScale
 70
     0
300
3" = 1'-0"
140
3.0
141
12.0
290
     0
  0
SCALE
  5
209647
102
{ACAD_REACTORS
330
209627
102
}
330
209627
100
AcDbScale
 70
     0
300
6" = 1'-0"
140
6.0
141
12.0
290
     0
  0
SCALE
  5
209648
102
{ACAD_REACTORS
330
209627
102
}
330
209627
100
AcDbScale
 70
     0
300
1'-0" = 1'-0"
140
12.0
141
12.0
290
     0
  0
DICTIONARYVAR
  5
272F6
102
{ACAD_REACTORS
330
1C63
102
}
330
1C63
100
DictionaryVariables
280
     0
  1
1
  0
DICTIONARYVAR
  5
20969C
102
{ACAD_REACTORS
330
1C63
102
}
330
1C63
100
DictionaryVariables
280
     0
  1
0
  0
DICTIONARYVAR
  5
273B1
102
{ACAD_REACTORS
330
1C63
102
}
330
1C63
100
DictionaryVariables
280
     0
  1

  0
DICTIONARYVAR
  5
1C64
102
{ACAD_REACTORS
330
1C63
102
}
330
1C63
100
DictionaryVariables
280
     0
  1
1
  0
ENDSEC
  0
EOF
