  0
SECTION
  2
HEADER
  9
$ACADVER
  1
AC1015
  9
$ACADMAINTVER
 70
     6
  9
$DWGCODEPAGE
  3
ANSI_932
  9
$INSBASE
 10
0.0
 20
0.0
 30
0.0
  9
$EXTMIN
 10
-4237.714091752006
 20
-14891.5867027151
 30
0.0
  9
$EXTMAX
 10
-4089.356385786431
 20
-14797.18334558558
 30
0.0
  9
$LIMMIN
 10
0.0
 20
0.0
  9
$LIMMAX
 10
420.0
 20
297.0
  9
$ORTHOMODE
 70
     1
  9
$REGENMODE
 70
     1
  9
$FILLMODE
 70
     1
  9
$QTEXTMODE
 70
     0
  9
$MIRRTEXT
 70
     1
  9
$LTSCALE
 40
5.0
  9
$ATTMODE
 70
     0
  9
$TEXTSIZE
 40
2.5
  9
$TRACEWID
 40
1.0
  9
$TEXTSTYLE
  7
STANDARD
  9
$CLAYER
  8
寸法線
  9
$CELTYPE
  6
BYLAYER
  9
$CECOLOR
 62
   256
  9
$CELTSCALE
 40
1.0
  9
$DISPSILH
 70
     0
  9
$DIMSCALE
 40
1.0
  9
$DIMASZ
 40
3.0
  9
$DIMEXO
 40
0.2999999999999999
  9
$DIMDLI
 40
0.6300000000000001
  9
$DIMRND
 40
0.0
  9
$DIMDLE
 40
0.0
  9
$DIMEXE
 40
0.4999999999999996
  9
$DIMTP
 40
0.0
  9
$DIMTM
 40
0.0
  9
$DIMTXT
 40
2.5
  9
$DIMCEN
 40
0.0
  9
$DIMTSZ
 40
0.0
  9
$DIMTOL
 70
     0
  9
$DIMLIM
 70
     0
  9
$DIMTIH
 70
     0
  9
$DIMTOH
 70
     0
  9
$DIMSE1
 70
     0
  9
$DIMSE2
 70
     0
  9
$DIMTAD
 70
     3
  9
$DIMZIN
 70
     8
  9
$DIMBLK
  1

  9
$DIMASO
 70
     1
  9
$DIMSHO
 70
     0
  9
$DIMPOST
  1

  9
$DIMAPOST
  1

  9
$DIMALT
 70
     0
  9
$DIMALTD
 70
     0
  9
$DIMALTF
 40
25.4
  9
$DIMLFAC
 40
1.0
  9
$DIMTOFL
 70
     1
  9
$DIMTVP
 40
0.0
  9
$DIMTIX
 70
     0
  9
$DIMSOXD
 70
     0
  9
$DIMSAH
 70
     1
  9
$DIMBLK1
  1
OPEN
  9
$DIMBLK2
  1
OPEN
  9
$DIMSTYLE
  2
STANDARD
  9
$DIMCLRD
 70
     8
  9
$DIMCLRE
 70
     8
  9
$DIMCLRT
 70
   256
  9
$DIMTFAC
 40
1.0
  9
$DIMGAP
 40
0.7999999999999998
  9
$DIMJUST
 70
     0
  9
$DIMSD1
 70
     0
  9
$DIMSD2
 70
     0
  9
$DIMTOLJ
 70
     1
  9
$DIMTZIN
 70
     0
  9
$DIMALTZ
 70
     0
  9
$DIMALTTZ
 70
     0
  9
$DIMUPT
 70
     0
  9
$DIMDEC
 70
     2
  9
$DIMTDEC
 70
     2
  9
$DIMALTU
 70
     2
  9
$DIMALTTD
 70
     0
  9
$DIMTXSTY
  7
STANDARD
  9
$DIMAUNIT
 70
     0
  9
$DIMADEC
 70
     2
  9
$DIMALTRND
 40
0.0
  9
$DIMAZIN
 70
     2
  9
$DIMDSEP
 70
    46
  9
$DIMATFIT
 70
     0
  9
$DIMFRAC
 70
     0
  9
$DIMLDRBLK
  1
OPEN
  9
$DIMLUNIT
 70
     2
  9
$DIMLWD
 70
    -1
  9
$DIMLWE
 70
    -1
  9
$DIMTMOVE
 70
     0
  9
$LUNITS
 70
     2
  9
$LUPREC
 70
     2
  9
$SKETCHINC
 40
0.1
  9
$FILLETRAD
 40
0.1
  9
$AUNITS
 70
     0
  9
$AUPREC
 70
     1
  9
$MENU
  1
FM
  9
$ELEVATION
 40
0.0
  9
$PELEVATION
 40
0.0
  9
$THICKNESS
 40
0.0
  9
$LIMCHECK
 70
     0
  9
$CHAMFERA
 40
0.0
  9
$CHAMFERB
 40
0.0
  9
$CHAMFERC
 40
0.0
  9
$CHAMFERD
 40
0.0
  9
$SKPOLY
 70
     0
  9
$TDCREATE
 40
2448636.619629629
  9
$TDUCREATE
 40
2448636.244629629
  9
$TDUPDATE
 40
2456821.619523379
  9
$TDUUPDATE
 40
2456821.244523379
  9
$TDINDWG
 40
40.9957090278
  9
$TDUSRTIMER
 40
2456821.244344468
  9
$USRTIMER
 70
     1
  9
$ANGBASE
 50
0.0
  9
$ANGDIR
 70
     0
  9
$PDMODE
 70
     3
  9
$PDSIZE
 40
0.0
  9
$PLINEWID
 40
0.0
  9
$SPLFRAME
 70
     0
  9
$SPLINETYPE
 70
     6
  9
$SPLINESEGS
 70
     8
  9
$HANDSEED
  5
20BE1F
  9
$SURFTAB1
 70
     6
  9
$SURFTAB2
 70
     6
  9
$SURFTYPE
 70
     6
  9
$SURFU
 70
     6
  9
$SURFV
 70
     6
  9
$UCSBASE
  2

  9
$UCSNAME
  2

  9
$UCSORG
 10
0.0
 20
0.0
 30
0.0
  9
$UCSXDIR
 10
1.0
 20
0.0
 30
0.0
  9
$UCSYDIR
 10
0.0
 20
1.0
 30
0.0
  9
$UCSORTHOREF
  2

  9
$UCSORTHOVIEW
 70
     0
  9
$UCSORGTOP
 10
0.0
 20
0.0
 30
0.0
  9
$UCSORGBOTTOM
 10
0.0
 20
0.0
 30
0.0
  9
$UCSORGLEFT
 10
0.0
 20
0.0
 30
0.0
  9
$UCSORGRIGHT
 10
0.0
 20
0.0
 30
0.0
  9
$UCSORGFRONT
 10
0.0
 20
0.0
 30
0.0
  9
$UCSORGBACK
 10
0.0
 20
0.0
 30
0.0
  9
$PUCSBASE
  2

  9
$PUCSNAME
  2

  9
$PUCSORG
 10
0.0
 20
0.0
 30
0.0
  9
$PUCSXDIR
 10
1.0
 20
0.0
 30
0.0
  9
$PUCSYDIR
 10
0.0
 20
1.0
 30
0.0
  9
$PUCSORTHOREF
  2

  9
$PUCSORTHOVIEW
 70
     0
  9
$PUCSORGTOP
 10
0.0
 20
0.0
 30
0.0
  9
$PUCSORGBOTTOM
 10
0.0
 20
0.0
 30
0.0
  9
$PUCSORGLEFT
 10
0.0
 20
0.0
 30
0.0
  9
$PUCSORGRIGHT
 10
0.0
 20
0.0
 30
0.0
  9
$PUCSORGFRONT
 10
0.0
 20
0.0
 30
0.0
  9
$PUCSORGBACK
 10
0.0
 20
0.0
 30
0.0
  9
$USERI1
 70
     0
  9
$USERI2
 70
     0
  9
$USERI3
 70
     0
  9
$USERI4
 70
     0
  9
$USERI5
 70
     0
  9
$USERR1
 40
0.0
  9
$USERR2
 40
0.0
  9
$USERR3
 40
0.0
  9
$USERR4
 40
0.0
  9
$USERR5
 40
0.0
  9
$WORLDVIEW
 70
     0
  9
$SHADEDGE
 70
     3
  9
$SHADEDIF
 70
    70
  9
$TILEMODE
 70
     1
  9
$MAXACTVP
 70
    16
  9
$PINSBASE
 10
0.0
 20
0.0
 30
0.0
  9
$PLIMCHECK
 70
     0
  9
$PEXTMIN
 10
1.000000000000000E+20
 20
1.000000000000000E+20
 30
1.000000000000000E+20
  9
$PEXTMAX
 10
-1.000000000000000E+20
 20
-1.000000000000000E+20
 30
-1.000000000000000E+20
  9
$PLIMMIN
 10
0.0
 20
0.0
  9
$PLIMMAX
 10
0.0
 20
0.0
  9
$UNITMODE
 70
     0
  9
$VISRETAIN
 70
     0
  9
$PLINEGEN
 70
     0
  9
$PSLTSCALE
 70
     0
  9
$TREEDEPTH
 70
  3020
  9
$CMLSTYLE
  2
STANDARD
  9
$CMLJUST
 70
     0
  9
$CMLSCALE
 40
1.0
  9
$PROXYGRAPHICS
 70
     1
  9
$MEASUREMENT
 70
     0
  9
$CELWEIGHT
370
    -1
  9
$ENDCAPS
280
     0
  9
$JOINSTYLE
280
     0
  9
$LWDISPLAY
290
     0
  9
$INSUNITS
 70
     0
  9
$HYPERLINKBASE
  1

  9
$STYLESHEET
  1
spax form.ctb
  9
$XEDIT
290
     1
  9
$CEPSNTYPE
380
     0
  9
$PSTYLEMODE
290
     1
  9
$FINGERPRINTGUID
  2
{E5B35D22-A717-11D3-9160-00E0294F7E09}
  9
$VERSIONGUID
  2
{755031FA-B242-403A-9A2E-7E4184D8F76A}
  9
$EXTNAMES
290
     1
  9
$PSVPSCALE
 40
0.0
  9
$OLESTARTUP
290
     0
  0
ENDSEC
  0
SECTION
  2
CLASSES
  0
CLASS
  1
LWPOLYLINE
  2
AcDbPolyline
  3
ObjectDBX Classes
 90
        0
280
     0
281
     1
  0
CLASS
  1
ACDBDICTIONARYWDFLT
  2
AcDbDictionaryWithDefault
  3
ObjectDBX Classes
 90
        0
280
     0
281
     0
  0
CLASS
  1
ACDBPLACEHOLDER
  2
AcDbPlaceHolder
  3
ObjectDBX Classes
 90
        0
280
     0
281
     0
  0
CLASS
  1
LAYOUT
  2
AcDbLayout
  3
ObjectDBX Classes
 90
        0
280
     0
281
     0
  0
CLASS
  1
DICTIONARYVAR
  2
AcDbDictionaryVar
  3
ObjectDBX Classes
 90
        0
280
     0
281
     0
  0
CLASS
  1
SORTENTSTABLE
  2
AcDbSortentsTable
  3
ObjectDBX Classes
 90
        0
280
     0
281
     0
  0
CLASS
  1
MATERIAL
  2
AcDbMaterial
  3
ObjectDBX Classes
 90
     1153
280
     0
281
     0
  0
CLASS
  1
VISUALSTYLE
  2
AcDbVisualStyle
  3
ObjectDBX Classes
 90
     4095
280
     0
281
     0
  0
CLASS
  1
TABLESTYLE
  2
AcDbTableStyle
  3
ObjectDBX Classes
 90
     4095
280
     0
281
     0
  0
CLASS
  1
SCALE
  2
AcDbScale
  3
ObjectDBX Classes
 90
     1153
280
     0
281
     0
  0
CLASS
  1
MLEADERSTYLE
  2
AcDbMLeaderStyle
  3
ACDB_MLEADERSTYLE_CLASS
 90
     4095
280
     0
281
     0
  0
CLASS
  1
CELLSTYLEMAP
  2
AcDbCellStyleMap
  3
ObjectDBX Classes
 90
     1152
280
     0
281
     0
  0
CLASS
  1
RASTERVARIABLES
  2
AcDbRasterVariables
  3
ISM
 90
        0
280
     0
281
     0
  0
CLASS
  1
AEC_VARS_DWG_SETUP
  2
AecDbVarsDwgSetup
  3
AecBase60
 90
      129
280
     0
281
     0
  0
CLASS
  1
AEC_DISP_REP_2D_SECTION
  2
AecDbDispRep2dSection
  3
AecBase60
 90
      129
280
     0
281
     0
  0
CLASS
  1
AEC_DISP_PROPS_2D_SECTION
  2
AecDbDispProps2dSection
  3
AecBase60
 90
      129
280
     0
281
     0
  0
CLASS
  1
AEC_DISP_REP_CLIP_VOLUME_MODEL
  2
AecDbDispRepClipVolModel
  3
AecBase60
 90
      129
280
     0
281
     0
  0
CLASS
  1
AEC_DISP_PROPS_CLIP_VOLUME
  2
AecDbDispPropsClipVol
  3
AecBase60
 90
      129
280
     0
281
     0
  0
CLASS
  1
AEC_DISP_REP_CLIP_VOLUME_PLAN
  2
AecDbDispRepClipVolPlan
  3
AecBase60
 90
      129
280
     0
281
     0
  0
CLASS
  1
AEC_DISP_REP_CLIP_VOLUME_RESULT
  2
AecDbDispRepClipVolResult
  3
AecBase60
 90
      129
280
     0
281
     0
  0
CLASS
  1
AEC_DISP_REP_CLIP_VOLUME_RESULT_SUBDIV
  2
AecDbDispRepClipVolResSubDiv
  3
AecBase60
 90
      129
280
     0
281
     0
  0
CLASS
  1
AEC_DISP_PROPS_CLIP_VOLUME_RESULT
  2
AecDbDispPropsClipVolResSubDiv
  3
AecBase60
 90
      129
280
     0
281
     0
  0
CLASS
  1
AEC_DISP_REP_DISPLAYTHEME
  2
AecDbDispRepDisplayTheme
  3
AecBase60
 90
      129
280
     0
281
     0
  0
CLASS
  1
AEC_DISP_PROPS_DISPLAYTHEME
  2
AecDbDispPropsDisplayTheme
  3
AecBase60
 90
      129
280
     0
281
     0
  0
CLASS
  1
AEC_DISP_REP_ENT_REF
  2
AecDbDispRepEntRef
  3
AecBase60
 90
      129
280
     0
281
     0
  0
CLASS
  1
AEC_DISP_PROPS_ENT_REF
  2
AecDbDispPropsEntRef
  3
AecBase60
 90
      129
280
     0
281
     0
  0
CLASS
  1
AEC_DISP_REP_LAYOUT_CURVE
  2
AecDbDispRepLayoutCurve
  3
AecBase60
 90
      129
280
     0
281
     0
  0
CLASS
  1
AEC_DISP_PROPS_LAYOUT_CURVE
  2
AecDbDispPropsLayoutCurve
  3
AecBase60
 90
      129
280
     0
281
     0
  0
CLASS
  1
AEC_DISP_REP_LAYOUT_GRID2D
  2
AecDbDispRepLayoutGrid2d
  3
AecBase60
 90
      129
280
     0
281
     0
  0
CLASS
  1
AEC_DISP_PROPS_LAYOUT_GRID2D
  2
AecDbDispPropsLayoutGrid2d
  3
AecBase60
 90
      129
280
     0
281
     0
  0
CLASS
  1
AEC_DISP_REP_LAYOUT_GRID3D
  2
AecDbDispRepLayoutGrid3d
  3
AecBase60
 90
      129
280
     0
281
     0
  0
CLASS
  1
AEC_DISP_PROPS_LAYOUT_GRID3D
  2
AecDbDispPropsLayoutGrid3d
  3
AecBase60
 90
      129
280
     0
281
     0
  0
CLASS
  1
AEC_DISP_REP_MASKBLOCK_REF
  2
AecDbDispRepMaskBlockRef
  3
AecBase60
 90
      129
280
     0
281
     0
  0
CLASS
  1
AEC_DISP_PROPS_MASKBLOCK
  2
AecDbDispPropsMaskBlock
  3
AecBase60
 90
      129
280
     0
281
     0
  0
CLASS
  1
AEC_DISP_REP_MASKBLOCK_REF_RCP
  2
AecDbDispRepMaskBlockRefRcp
  3
AecArchBase60
 90
      129
280
     0
281
     0
  0
CLASS
  1
AEC_DISP_REP_MASS_ELEM_MODEL
  2
AecDbDispRepMassElemModel
  3
AecBase60
 90
      129
280
     0
281
     0
  0
CLASS
  1
AEC_DISP_PROPS_MASS_ELEM_MODEL
  2
AecDbDispPropsMassElem
  3
AecBase60
 90
      129
280
     0
281
     0
  0
CLASS
  1
AEC_DISP_REP_MASS_ELEM_SCHEM
  2
AecDbDispRepMassElemSchem
  3
AecBase60
 90
      129
280
     0
281
     0
  0
CLASS
  1
AEC_DISPREPAECDBDISPREPMASSELEMPLAN50
  2
AecDbDispRepMassElemPlan50
  3
AecArchDACHBase60
 90
      129
280
     0
281
     0
  0
CLASS
  1
AEC_DISPROPSMASSELEMPLANCOMMON
  2
AecDbDispPropsMassElemPlanCommon
  3
AecArchDACHBase60
 90
      129
280
     0
281
     0
  0
CLASS
  1
AEC_DISPREPAECDBDISPREPMASSELEMPLAN100
  2
AecDbDispRepMassElemPlan100
  3
AecArchDACHBase60
 90
      129
280
     0
281
     0
  0
CLASS
  1
AEC_DISP_REP_MASS_ELEM_RCP
  2
AecDbDispRepMassElemRcp
  3
AecArchBase60
 90
      129
280
     0
281
     0
  0
CLASS
  1
AEC_DISP_REP_MASS_GROUP_MODEL
  2
AecDbDispRepMassGroupModel
  3
AecBase60
 90
      129
280
     0
281
     0
  0
CLASS
  1
AEC_DISP_PROPS_MASS_GROUP
  2
AecDbDispPropsMassGroup
  3
AecBase60
 90
      129
280
     0
281
     0
  0
CLASS
  1
AEC_DISP_REP_MASS_GROUP_PLAN
  2
AecDbDispRepMassGroupPlan
  3
AecBase60
 90
      129
280
     0
281
     0
  0
CLASS
  1
AEC_DISPREPAECDBDISPREPMASSGROUPPLAN50
  2
AecDbDispRepMassGroupPlan50
  3
AecArchDACHBase60
 90
      129
280
     0
281
     0
  0
CLASS
  1
AEC_DISPROPSMASSGROUPPLANCOMMON
  2
AecDbDispPropsMassGroupPlanCommon
  3
AecArchDACHBase60
 90
      129
280
     0
281
     0
  0
CLASS
  1
AEC_DISPREPAECDBDISPREPMASSGROUPPLAN100
  2
AecDbDispRepMassGroupPlan100
  3
AecArchDACHBase60
 90
      129
280
     0
281
     0
  0
CLASS
  1
AEC_DISP_REP_MASS_GROUP_RCP
  2
AecDbDispRepMassGroupRcp
  3
AecArchBase60
 90
      129
280
     0
281
     0
  0
CLASS
  1
AEC_DISP_REP_MVBLOCK_REF
  2
AecDbDispRepMvBlockRef
  3
AecBase60
 90
      129
280
     0
281
     0
  0
CLASS
  1
AEC_DISP_REP_MVBLOCK_REF_MODEL
  2
AecDbDispRepMvBlockRefModel
  3
AecBase60
 90
      129
280
     0
281
     0
  0
CLASS
  1
AEC_AECDBDISPREPMVBLOCKREFPLAN100
  2
AecDbDispRepMvBlockRefPlan100
  3
AecBase60
 90
      129
280
     0
281
     0
  0
CLASS
  1
AEC_AECDBDISPREPMVBLOCKREFPLAN50
  2
AecDbDispRepMvBlockRefPlan50
  3
AecBase60
 90
      129
280
     0
281
     0
  0
CLASS
  1
AEC_DISP_REP_POLYGON_MODEL
  2
AecDbDispRepPolygonModel
  3
AecBase60
 90
      129
280
     0
281
     0
  0
CLASS
  1
AEC_DISP_PROPS_POLYGON_MODEL
  2
AecDbDispPropsPolygonModel
  3
AecBase60
 90
      129
280
     0
281
     0
  0
CLASS
  1
AEC_DISP_REP_POLYGON_TRUECOLOUR
  2
AecDbDispRepPolygonTrueColour
  3
AecBase60
 90
      129
280
     0
281
     0
  0
CLASS
  1
AEC_DISP_PROPS_POLYGON_TRUECOLOUR
  2
AecDbDispPropsPolygonTrueColour
  3
AecBase60
 90
      129
280
     0
281
     0
  0
CLASS
  1
AEC_DISP_REP_SLICE
  2
AecDbDispRepSlice
  3
AecBase60
 90
      129
280
     0
281
     0
  0
CLASS
  1
AEC_DISP_PROPS_SLICE
  2
AecDbDispPropsSlice
  3
AecBase60
 90
      129
280
     0
281
     0
  0
CLASS
  1
AEC_DISP_REP_ANCHOR
  2
AecDbDispRepAnchor
  3
AecBase60
 90
      129
280
     0
281
     0
  0
CLASS
  1
AEC_DISP_REP_ANCHOR_ENT_TO_NODE
  2
AecDbDispRepAnchorEntToNode
  3
AecBase60
 90
      129
280
     0
281
     0
  0
CLASS
  1
AEC_DISP_PROPS_ENT
  2
AecDbDispPropsEnt
  3
AecBase60
 90
      129
280
     0
281
     0
  0
CLASS
  1
AEC_DISP_REP_MATERIAL
  2
AecDbDispRepMaterial
  3
AecBase60
 90
      129
280
     0
281
     0
  0
CLASS
  1
AEC_DISP_PROPS_MATERIAL
  2
AecDbDispPropsMaterial
  3
AecBase60
 90
      129
280
     0
281
     0
  0
CLASS
  1
AEC_DISP_REP_EDITINPLACEPROFILE
  2
AecDbDispRepEditInPlaceProfile
  3
AecBase60
 90
      129
280
     0
281
     0
  0
CLASS
  1
AEC_DISP_PROPS_EDITINPLACEPROFILE_MODEL
  2
AecDbDispPropsEditInPlaceProfile
  3
AecBase60
 90
      129
280
     0
281
     0
  0
CLASS
  1
SUN
  2
AcDbSun
  3
SCENEOE
 90
     1153
280
     0
281
     0
  0
ENDSEC
  0
SECTION
  2
TABLES
  0
TABLE
  2
VPORT
  5
8
330
0
100
AcDbSymbolTable
 70
     1
  0
VPORT
  5
20BD90
330
8
100
AcDbSymbolTableRecord
100
AcDbViewportTableRecord
  2
*Active
 70
     0
 10
0.0
 20
0.0
 11
1.0
 21
1.0
 12
-4163.535238769218
 22
-14844.38502415034
 13
0.0
 23
0.0
 14
1.0
 24
1.0
 15
20.0
 25
20.0
 16
0.0
 26
0.0
 36
1.0
 17
0.0
 27
0.0
 37
0.0
 40
96.29142427211264
 41
1.731829573934837
 42
50.0
 43
0.0
 44
0.0
 50
0.0
 51
0.0
 71
    16
 72
   100
 73
     1
 74
     0
 75
     0
 76
     0
 77
     0
 78
     0
281
     0
 65
     1
110
0.0
120
0.0
130
0.0
111
1.0
121
0.0
131
0.0
112
0.0
122
1.0
132
0.0
 79
     0
146
0.0
  0
ENDTAB
  0
TABLE
  2
LTYPE
  5
5
330
0
100
AcDbSymbolTable
 70
     4
  0
LTYPE
  5
12
330
5
100
AcDbSymbolTableRecord
100
AcDbLinetypeTableRecord
  2
BYBLOCK
 70
     0
  3

 72
    65
 73
     0
 40
0.0
  0
LTYPE
  5
13
330
5
100
AcDbSymbolTableRecord
100
AcDbLinetypeTableRecord
  2
BYLAYER
 70
     0
  3

 72
    65
 73
     0
 40
0.0
  0
LTYPE
  5
14
330
5
100
AcDbSymbolTableRecord
100
AcDbLinetypeTableRecord
  2
CONTINUOUS
 70
     0
  3
Solid line
 72
    65
 73
     0
 40
0.0
  0
LTYPE
  5
25
330
5
100
AcDbSymbolTableRecord
100
AcDbLinetypeTableRecord
  2
CENTER
 70
     0
  3
____ _ ____ _ ____ _ ____ _ ____ _ ____ _ ____
 72
    65
 73
     4
 40
2.0
 49
1.25
 74
     0
 49
-0.25
 74
     0
 49
0.25
 74
     0
 49
-0.25
 74
     0
  0
LTYPE
  5
26
330
5
100
AcDbSymbolTableRecord
100
AcDbLinetypeTableRecord
  2
PHANTOM
 70
     0
  3
_____ _ _ _____ _ _ _____ _ _ _____ _ _ ____
 72
    65
 73
     6
 40
2.5
 49
1.25
 74
     0
 49
-0.25
 74
     0
 49
0.25
 74
     0
 49
-0.25
 74
     0
 49
0.25
 74
     0
 49
-0.25
 74
     0
  0
LTYPE
  5
1B66CA
330
5
100
AcDbSymbolTableRecord
100
AcDbLinetypeTableRecord
  2
HIDDEN
 70
     0
  3
_ _ _ _ _ _ _ _ _ _ _ _ _ _ _ _ _ _ _ _ _ _ _
 72
    65
 73
     2
 40
0.375
 49
0.25
 74
     0
 49
-0.125
 74
     0
  0
ENDTAB
  0
TABLE
  2
LAYER
  5
2
102
{ACAD_XDICTIONARY
360
1339DB
102
}
330
0
100
AcDbSymbolTable
 70
    12
  0
LAYER
  5
F
102
{ACAD_XDICTIONARY
360
209BEF
102
}
330
2
100
AcDbSymbolTableRecord
100
AcDbLayerTableRecord
  2
0
 70
     0
 62
     7
  6
CONTINUOUS
370
    -3
390
352
  0
LAYER
  5
34
102
{ACAD_XDICTIONARY
360
209BF3
102
}
330
2
100
AcDbSymbolTableRecord
100
AcDbLayerTableRecord
  2
寸法線
 70
     0
 62
     7
  6
CONTINUOUS
370
    -3
390
352
  0
LAYER
  5
2F4
102
{ACAD_XDICTIONARY
360
209BFB
102
}
330
2
100
AcDbSymbolTableRecord
100
AcDbLayerTableRecord
  2
文字
 70
     0
 62
     7
  6
CONTINUOUS
370
    -3
390
352
  0
LAYER
  5
305
102
{ACAD_XDICTIONARY
360
209BFF
102
}
330
2
100
AcDbSymbolTableRecord
100
AcDbLayerTableRecord
  2
姿図
 70
     0
 62
     8
  6
CONTINUOUS
370
    -3
390
352
  0
ENDTAB
  0
TABLE
  2
STYLE
  5
3
330
0
100
AcDbSymbolTable
 70
     1
  0
STYLE
  5
10
330
3
100
AcDbSymbolTableRecord
100
AcDbTextStyleTableRecord
  2
STANDARD
 70
     0
 40
0.0
 41
1.0
 50
0.0
 71
     0
 42
2.5
  3
MONOTXT
  4
BIGFONT
  0
ENDTAB
  0
TABLE
  2
VIEW
  5
6
330
0
100
AcDbSymbolTable
 70
     0
  0
ENDTAB
  0
TABLE
  2
UCS
  5
7
330
0
100
AcDbSymbolTable
 70
     0
  0
ENDTAB
  0
TABLE
  2
APPID
  5
9
330
0
100
AcDbSymbolTable
 70
    11
  0
APPID
  5
11
330
9
100
AcDbSymbolTableRecord
100
AcDbRegAppTableRecord
  2
ACAD
 70
     0
  0
APPID
  5
7DDF6
330
9
100
AcDbSymbolTableRecord
100
AcDbRegAppTableRecord
  2
GENIUS_GENODEF_13
 70
     0
  0
APPID
  5
7DDF7
330
9
100
AcDbSymbolTableRecord
100
AcDbRegAppTableRecord
  2
GENIUS_GENREC_14
 70
     0
  0
APPID
  5
7DDF8
330
9
100
AcDbSymbolTableRecord
100
AcDbRegAppTableRecord
  2
GENIUS_GENOBJ-N-REC_13
 70
     0
  0
APPID
  5
7E5F3
330
9
100
AcDbSymbolTableRecord
100
AcDbRegAppTableRecord
  2
GENIUS_GENOBJ-N-FIL_13
 70
     0
  0
APPID
  5
1CF1BD
330
9
100
AcDbSymbolTableRecord
100
AcDbRegAppTableRecord
  2
ACAD_PSEXT
 70
     0
  0
APPID
  5
209BD7
330
9
100
AcDbSymbolTableRecord
100
AcDbRegAppTableRecord
  2
ACAD_MLEADERVER
 70
     0
  0
APPID
  5
20AEDE
330
9
100
AcDbSymbolTableRecord
100
AcDbRegAppTableRecord
  2
ACAD_EXEMPT_FROM_CAD_STANDARDS
 70
     0
  0
APPID
  5
20BDBB
330
9
100
AcDbSymbolTableRecord
100
AcDbRegAppTableRecord
  2
AECBASE
 70
     0
  0
APPID
  5
20BDBC
330
9
100
AcDbSymbolTableRecord
100
AcDbRegAppTableRecord
  2
AEC_2DSECTION_XDATA
 70
     0
  0
APPID
  5
20BDBD
330
9
100
AcDbSymbolTableRecord
100
AcDbRegAppTableRecord
  2
AEC_MASSGROUP_XDADA
 70
     0
  0
ENDTAB
  0
TABLE
  2
DIMSTYLE
  5
A
330
0
100
AcDbSymbolTable
 70
     2
100
AcDbDimStyleTable
  0
DIMSTYLE
105
1CC
330
A
100
AcDbSymbolTableRecord
100
AcDbDimStyleTableRecord
  2
STANDARD
 70
     0
 41
3.0
 42
0.2999999999999999
 43
0.6300000000000001
 44
0.4999999999999996
 73
     0
 74
     0
 77
     3
 78
     8
 79
     2
140
2.5
141
0.0
147
0.7999999999999998
171
     0
172
     1
173
     1
176
     8
177
     8
271
     2
178
   256
179
     2
271
     2
272
     2
274
     0
289
     0
340
10
341
33F
343
33F
344
33F
371
    -1
372
    -1
  0
ENDTAB
  0
TABLE
  2
BLOCK_RECORD
  5
1
330
0
100
AcDbSymbolTable
 70
    81
  0
BLOCK_RECORD
  5
18
330
1
100
AcDbSymbolTableRecord
100
AcDbBlockTableRecord
  2
*MODEL_SPACE
340
355
  0
BLOCK_RECORD
  5
15
330
1
100
AcDbSymbolTableRecord
100
AcDbBlockTableRecord
  2
*PAPER_SPACE
340
356
  0
BLOCK_RECORD
  5
33F
330
1
100
AcDbSymbolTableRecord
100
AcDbBlockTableRecord
  2
_OPEN
340
0
  0
BLOCK_RECORD
  5
1B664C
330
1
100
AcDbSymbolTableRecord
100
AcDbBlockTableRecord
  2
_Open30
340
0
102
{BLKREFS
331
2093B3
331
2093B4
331
2093BE
331
2093BF
331
20940C
331
20940D
331
20941E
331
20941F
331
209455
331
209456
331
20946B
331
20946C
331
20947D
331
20947E
331
209486
331
209487
331
209490
331
209491
331
209498
331
209499
331
20949F
331
2094A0
331
2094A8
331
2094A9
331
2094B1
331
2094B2
331
2094BA
331
2094BB
331
2094C3
331
2094C4
331
2094CC
331
2094CD
331
2094D5
331
2094D6
331
2094DE
331
2094DF
331
209BE2
331
20AE2E
331
20AE2F
331
20AE38
331
20AE39
331
20AE40
331
20AE41
331
20AE49
331
20AE4A
331
20AE52
331
20AE53
331
20AE5B
331
20AE5C
331
20AE64
331
20AE65
331
20AE6F
331
20AE70
331
20AE79
331
20AE81
331
20AE82
331
20AE8C
331
20AE8D
331
20AE95
331
20AE96
331
20AE9E
331
20AE9F
331
20AEA7
331
20AEA8
331
20AEB0
331
20AEB1
331
20AEB9
331
20AEBA
331
20AEC2
331
20AEC3
331
20AECB
331
20AECC
331
20AED4
331
20AED5
331
20B4FD
331
20B4FE
331
20B506
331
20B507
331
20B50F
331
20B510
331
20B518
331
20B519
331
20B521
331
20B522
331
20B52A
331
20B52B
331
20B533
331
20B534
331
20B53C
331
20B53D
331
20B545
331
20B546
331
20B550
331
20B551
331
20B559
331
20B55A
331
20B563
331
20B564
331
20B56B
331
20B56C
331
20B574
331
20B575
331
20B57D
331
20B57E
331
20B586
331
20B587
331
20B58F
331
20B590
331
20B5CB
331
20B66C
331
20BCC4
331
20BCC5
331
20BCCD
331
20BCCE
331
20BCD6
331
20BCD7
331
20BCDF
331
20BCE0
331
20BCE8
331
20BCE9
331
20BCF1
331
20BCF2
331
20BCFA
331
20BCFB
331
20BD03
331
20BD04
331
20BD0C
331
20BD0D
331
20BD17
331
20BD18
331
20BD20
331
20BD21
331
20BD2A
331
20BD2B
331
20BD32
331
20BD33
331
20BD3B
331
20BD3C
331
20BD44
331
20BD45
331
20BD4D
331
20BD4E
331
20BD56
331
20BD57
331
20BD62
331
20BD6D
331
20BD84
331
20BD85
102
}
  0
ENDTAB
  0
ENDSEC
  0
SECTION
  2
BLOCKS
  0
BLOCK
  5
39
330
18
100
AcDbEntity
  8
0
100
AcDbBlockBegin
  2
*MODEL_SPACE
 70
     0
 10
0.0
 20
0.0
 30
0.0
  3
*MODEL_SPACE
  1
*MODEL_SPACE
  0
ENDBLK
  5
3A
330
18
100
AcDbEntity
  8
0
100
AcDbBlockEnd
  0
BLOCK
  5
37
330
15
100
AcDbEntity
 67
     1
  8
0
100
AcDbBlockBegin
  2
*PAPER_SPACE
 70
     0
 10
0.0
 20
0.0
 30
0.0
  3
*PAPER_SPACE
  1
*PAPER_SPACE
  0
ENDBLK
  5
38
330
15
100
AcDbEntity
 67
     1
  8
0
100
AcDbBlockEnd
  0
BLOCK
  5
340
330
33F
100
AcDbEntity
  8
0
100
AcDbBlockBegin
  2
_OPEN
 70
     0
 10
0.0
 20
0.0
 30
0.0
  3
_OPEN
  1
_OPEN
  0
LINE
  5
341
330
33F
100
AcDbEntity
  8
0
  6
ByBlock
 62
     0
100
AcDbLine
 10
-1.0
 20
0.1666666666666667
 30
0.0
 11
0.0
 21
0.0
 31
0.0
  0
LINE
  5
342
330
33F
100
AcDbEntity
  8
0
  6
ByBlock
 62
     0
100
AcDbLine
 10
0.0
 20
0.0
 30
0.0
 11
-1.0
 21
-0.1666666666666667
 31
0.0
  0
LINE
  5
343
330
33F
100
AcDbEntity
  8
0
  6
ByBlock
 62
     0
100
AcDbLine
 10
0.0
 20
0.0
 30
0.0
 11
-1.0
 21
0.0
 31
0.0
  0
ENDBLK
  5
344
330
33F
100
AcDbEntity
  8
0
100
AcDbBlockEnd
  0
BLOCK
  5
1B664D
330
1B664C
100
AcDbEntity
  8
0
100
AcDbBlockBegin
  2
_Open30
 70
     0
 10
0.0
 20
0.0
 30
0.0
  3
_Open30
  1
_Open30
  0
LINE
  5
1B664E
330
1B664C
100
AcDbEntity
  8
寸法線
 62
     0
370
    -2
100
AcDbLine
 10
-1.0
 20
0.26794919
 30
0.0
 11
0.0
 21
0.0
 31
0.0
  0
LINE
  5
1B664F
330
1B664C
100
AcDbEntity
  8
寸法線
 62
     0
370
    -2
100
AcDbLine
 10
0.0
 20
0.0
 30
0.0
 11
-1.0
 21
-0.26794919
 31
0.0
  0
LINE
  5
1B6650
330
1B664C
100
AcDbEntity
  8
寸法線
 62
     0
370
    -2
100
AcDbLine
 10
0.0
 20
0.0
 30
0.0
 11
-1.0
 21
0.0
 31
0.0
  0
ENDBLK
  5
1B6651
330
1B664C
100
AcDbEntity
  8
0
100
AcDbBlockEnd
  0
ENDSEC
  0
SECTION
  2
ENTITIES
  0
MTEXT
  5
1CADCE
330
18
100
AcDbEntity
  8
寸法線
100
AcDbMText
 10
-8190.898993724017
 20
-12886.90737958262
 30
-0.0000000000000001
 40
3.0
 41
0.0
 71
     9
 72
     1
  1
\A1;
 73
     1
 44
1.0
  0
MTEXT
  5
1CADD6
330
18
100
AcDbEntity
  8
寸法線
100
AcDbMText
 10
-8188.398993724017
 20
-12886.90737958262
 30
0.0000000000000001
 40
3.0
 41
0.0
 71
     9
 72
     1
  1
\A1;
 73
     1
 44
1.0
  0
MTEXT
  5
1CADDC
330
18
100
AcDbEntity
  8
寸法線
100
AcDbMText
 10
-8188.398993724017
 20
-12886.90737958262
 30
0.0000000000000001
 40
3.0
 41
0.0
 71
     9
 72
     1
  1
\A1;
 73
     1
 44
1.0
  0
MTEXT
  5
1CADE4
330
18
100
AcDbEntity
  8
寸法線
100
AcDbMText
 10
-8121.238459237466
 20
-12907.96180382428
 30
0.0
 40
3.0
 41
0.0
 71
     7
 72
     1
  1
\A1;
 73
     1
 44
1.0
  0
TEXT
  5
20B6DA
330
18
100
AcDbEntity
  8
文字
100
AcDbText
 10
-4232.451869986893
 20
-14891.5867027151
 30
0.0
 40
12.0
  1
SX-LD083/V2
100
AcDbText
  0
LINE
  5
20B99F
330
18
100
AcDbEntity
  8
姿図
100
AcDbLine
 10
-4089.356385786431
 20
-14843.72332572691
 30
0.0
 11
-4089.356385786431
 21
-14842.97953458469
 31
0.0
  0
LINE
  5
20B9A0
330
18
100
AcDbEntity
  8
姿図
100
AcDbLine
 10
-4099.896393575447
 20
-14838.83920244761
 30
0.0
 11
-4099.896393575447
 21
-14839.87288253139
 31
0.0
  0
LINE
  5
20B9A1
330
18
100
AcDbEntity
  8
姿図
100
AcDbLine
 10
-4094.614342788345
 20
-14839.32168809849
 30
0.0
 11
-4094.614342788346
 21
-14833.28458474756
 31
0.0
  0
LINE
  5
20B9A2
330
18
100
AcDbEntity
  8
姿図
100
AcDbLine
 10
-4094.380586829759
 20
-14840.16653451017
 30
0.0
 11
-4095.057573454874
 21
-14840.2865511635
 31
0.0
  0
LINE
  5
20B9A3
330
18
100
AcDbEntity
  8
姿図
100
AcDbLine
 10
-4095.057573454874
 20
-14841.30277741655
 30
0.0
 11
-4095.057573454874
 21
-14840.2865511635
 31
0.0
  0
LINE
  5
20B9A4
330
18
100
AcDbEntity
  8
姿図
100
AcDbLine
 10
-4094.380586829759
 20
-14840.16653451017
 30
0.0
 11
-4094.382477016949
 21
-14839.3918922073
 31
0.0
  0
LINE
  5
20B9A5
330
18
100
AcDbEntity
  8
姿図
100
AcDbLine
 10
-4096.273350011372
 20
-14843.69210418278
 30
0.0
 11
-4089.356385786431
 21
-14843.72332572691
 31
0.0
  0
LINE
  5
20B9A6
330
18
100
AcDbEntity
  8
姿図
100
AcDbLine
 10
-4124.212798710426
 20
-14850.7265805565
 30
0.0
 11
-4124.212798710426
 21
-14846.18664711589
 31
0.0
  0
LINE
  5
20B9A7
330
18
100
AcDbEntity
  8
姿図
100
AcDbLine
 10
-4124.212798710427
 20
-14850.7265805565
 30
0.0
 11
-4124.212798710426
 21
-14846.18235227895
 31
0.0
  0
ELLIPSE
  5
20B9A8
330
18
100
AcDbEntity
  8
姿図
100
AcDbEllipse
 10
-4122.628494643247
 20
-14837.47071047398
 30
0.0
 11
-14.75510273552043
 21
0.0
 31
0.0
210
0.0
220
0.0
230
1.0
 40
0.3602758143190611
 41
5.414899075445597
 42
8.949758222447707
  0
ELLIPSE
  5
20B9A9
330
18
100
AcDbEntity
  8
姿図
100
AcDbEllipse
 10
-4122.628494643247
 20
-14836.90600459163
 30
0.0
 11
-14.75510273552043
 21
0.0
 31
0.0
210
0.0
220
0.0
230
1.0
 40
0.3602758143190611
 41
6.336325042237743
 42
8.865574586074086
  0
LINE
  5
20B9AA
330
18
100
AcDbEntity
  8
姿図
100
AcDbLine
 10
-4108.279574383043
 20
-14830.77716742516
 30
0.0
 11
-4149.729168713202
 21
-14817.7776795453
 31
0.0
  0
LINE
  5
20B9AB
330
18
100
AcDbEntity
  8
姿図
100
AcDbLine
 10
-4108.368462390533
 20
-14829.84796191857
 30
0.0
 11
-4149.703997077793
 21
-14816.79514710451
 31
0.0
  0
LINE
  5
20B9AC
330
18
100
AcDbEntity
  8
姿図
100
AcDbLine
 10
-4124.212798710426
 20
-14849.75836336606
 30
0.0
 11
-4098.1542806719
 21
-14843.15340448463
 31
0.0
  0
LINE
  5
20B9AD
330
18
100
AcDbEntity
  8
姿図
100
AcDbLine
 10
-4124.212798710426
 20
-14848.83948227263
 30
0.0
 11
-4099.928504265458
 21
-14842.64526575611
 31
0.0
  0
LINE
  5
20B9AE
330
18
100
AcDbEntity
  8
姿図
100
AcDbLine
 10
-4124.212798710426
 20
-14846.18235227895
 30
0.0
 11
-4104.815630662018
 21
-14841.24558975004
 31
0.0
  0
LINE
  5
20B9AF
330
18
100
AcDbEntity
  8
姿図
100
AcDbLine
 10
-4124.212798710426
 20
-14850.7265805565
 30
0.0
 11
-4096.273350011372
 21
-14843.69210418278
 31
0.0
  0
LINE
  5
20B9B0
330
18
100
AcDbEntity
  8
姿図
100
AcDbLine
 10
-4124.214876641633
 20
-14852.39813760727
 30
0.0
 11
-4089.356385786431
 21
-14843.72332572691
 31
0.0
  0
LINE
  5
20B9B1
330
18
100
AcDbEntity
  8
姿図
100
AcDbLine
 10
-4094.614342788345
 20
-14838.50218498636
 30
0.0
 11
-4113.977489450925
 21
-14832.56799448574
 31
0.0
  0
LINE
  5
20B9B2
330
18
100
AcDbEntity
  8
姿図
100
AcDbLine
 10
-4094.614342788346
 20
-14837.64107199655
 30
0.0
 11
-4111.619589292257
 21
-14832.38592844679
 31
0.0
  0
LINE
  5
20B9B3
330
18
100
AcDbEntity
  8
姿図
100
AcDbLine
 10
-4094.614342788345
 20
-14835.9191127368
 30
0.0
 11
-4111.619589292257
 21
-14830.60205438526
 31
0.0
  0
LINE
  5
20B9B4
330
18
100
AcDbEntity
  8
姿図
100
AcDbLine
 10
-4094.614342788346
 20
-14836.76859987756
 30
0.0
 11
-4111.619589292257
 21
-14831.48416462512
 31
0.0
  0
LINE
  5
20B9B5
330
18
100
AcDbEntity
  8
姿図
100
AcDbLine
 10
-4094.614342788346
 20
-14833.28458474756
 30
0.0
 11
-4111.619589292258
 21
-14827.86396190837
 31
0.0
  0
LINE
  5
20B9B6
330
18
100
AcDbEntity
  8
姿図
100
AcDbLine
 10
-4094.614342788346
 20
-14835.06287915193
 30
0.0
 11
-4108.279574383043
 21
-14830.77716742516
 31
0.0
  0
LINE
  5
20B9B7
330
18
100
AcDbEntity
  8
姿図
100
AcDbLine
 10
-4094.614342788346
 20
-14834.18642192409
 30
0.0
 11
-4108.368462390533
 21
-14829.84796191857
 31
0.0
  0
LINE
  5
20B9B9
330
18
100
AcDbEntity
  8
姿図
100
AcDbLine
 10
-4217.054604928039
 20
-14804.00065184308
 30
0.0
 11
-4214.343032057846
 21
-14802.40816700287
 31
0.0
  0
LINE
  5
20B9BA
330
18
100
AcDbEntity
  8
姿図
100
AcDbLine
 10
-4217.054604928039
 20
-14802.93426999804
 30
0.0
 11
-4214.431909790716
 21
-14801.38858801606
 31
0.0
  0
LINE
  5
20B9BB
330
18
100
AcDbEntity
  8
姿図
100
AcDbLine
 10
-4219.443644685388
 20
-14804.34224748449
 30
0.0
 11
-4218.121970044564
 21
-14803.5633202469
 31
0.0
  0
LINE
  5
20B9BC
330
18
100
AcDbEntity
  8
姿図
100
AcDbLine
 10
-4219.443644685388
 20
-14803.42251864609
 30
0.0
 11
-4218.121970044564
 21
-14802.63968690736
 31
0.0
  0
ELLIPSE
  5
20B9BD
330
18
100
AcDbEntity
  8
姿図
100
AcDbEllipse
 10
-4214.184833338546
 20
-14801.82028522535
 30
0.0
 11
-0.01357658280917579
 21
0.7041073744093787
 31
0.0
210
0.0
220
0.0
230
1.0
 40
0.4318616350327592
 41
0.0
 42
6.283185307179586
  0
LINE
  5
20B9BE
330
18
100
AcDbEntity
  8
姿図
100
AcDbLine
 10
-4217.565881016496
 20
-14802.81101092837
 30
0.0
 11
-4218.118953374215
 21
-14802.63802831198
 31
0.0
  0
LINE
  5
20B9BF
330
18
100
AcDbEntity
  8
姿図
100
AcDbLine
 10
-4219.96260407814
 20
-14804.22624516168
 30
0.0
 11
-4220.511009801917
 21
-14804.05472211299
 31
0.0
  0
ELLIPSE
  5
20B9C0
330
18
100
AcDbEntity
  8
姿図
100
AcDbEllipse
 10
-4213.758521750027
 20
-14801.90262206479
 30
0.0
 11
0.1487898768123672
 21
-0.745080321046846
 31
0.0
210
0.0
220
0.0
230
-1.0
 40
0.400285455615335
 41
1.090992743497568
 42
2.475844893381597
  0
LINE
  5
20B9C1
330
18
100
AcDbEntity
  8
姿図
100
AcDbLine
 10
-4213.911970385302
 20
-14802.15500796508
 30
0.0
 11
-4208.909890871118
 21
-14799.21732707756
 31
0.0
  0
LINE
  5
20B9C2
330
18
100
AcDbEntity
  8
姿図
100
AcDbLine
 10
-4214.071841263411
 20
-14801.17638209589
 30
0.0
 11
-4208.909890871118
 21
-14798.13419331852
 31
0.0
  0
LINE
  5
20B9C3
330
18
100
AcDbEntity
  8
姿図
100
AcDbLine
 10
-4217.054604928039
 20
-14802.00748344047
 30
0.0
 11
-4208.909890871118
 21
-14797.18334558558
 31
0.0
  0
LINE
  5
20B9C4
330
18
100
AcDbEntity
  8
姿図
100
AcDbLine
 10
-4208.909890871118
 20
-14811.43292959727
 30
0.0
 11
-4209.784402047627
 21
-14808.45744879507
 31
0.0
  0
LINE
  5
20B9C5
330
18
100
AcDbEntity
  8
姿図
100
AcDbLine
 10
-4209.784402047627
 20
-14808.45744879507
 30
0.0
 11
-4209.784402047627
 21
-14807.41839494984
 31
0.0
  0
LINE
  5
20B9C6
330
18
100
AcDbEntity
  8
姿図
100
AcDbLine
 10
-4201.658901950503
 20
-14809.76566464974
 30
0.0
 11
-4201.658901950503
 21
-14808.34391489078
 31
0.0
  0
LINE
  5
20B9C7
330
18
100
AcDbEntity
  8
姿図
100
AcDbLine
 10
-4222.048836721371
 20
-14808.94169197018
 30
0.0
 11
-4220.511009801917
 21
-14808.04153426343
 31
0.0
  0
LINE
  5
20B9C8
330
18
100
AcDbEntity
  8
姿図
100
AcDbLine
 10
-4221.832684442741
 20
-14807.7830669882
 30
0.0
 11
-4220.511009801917
 21
-14807.0056841677
 31
0.0
  0
LINE
  5
20B9C9
330
18
100
AcDbEntity
  8
姿図
100
AcDbLine
 10
-4221.832684442741
 20
-14806.80677934057
 30
0.0
 11
-4220.511009801917
 21
-14806.03057050165
 31
0.0
  0
LINE
  5
20B9CA
330
18
100
AcDbEntity
  8
姿図
100
AcDbLine
 10
-4221.832684442741
 20
-14805.75022497094
 30
0.0
 11
-4220.511009801917
 21
-14804.97129773335
 31
0.0
  0
LINE
  5
20B9CB
330
18
100
AcDbEntity
  8
姿図
100
AcDbLine
 10
-4225.185926481129
 20
-14808.7761112993
 30
0.0
 11
-4222.900049559266
 21
-14807.4336342504
 31
0.0
  0
LINE
  5
20B9CC
330
18
100
AcDbEntity
  8
姿図
100
AcDbLine
 10
-4225.290758315172
 20
-14807.78823632838
 30
0.0
 11
-4222.900049559266
 21
-14806.3792752198
 31
0.0
  0
LINE
  5
20B9CD
330
18
100
AcDbEntity
  8
姿図
100
AcDbLine
 10
-4222.351643835488
 20
-14805.6412803673
 30
0.0
 11
-4222.351643835488
 21
-14809.11893828704
 31
0.0
  0
LINE
  5
20B9CE
330
18
100
AcDbEntity
  8
姿図
100
AcDbLine
 10
-4222.900049559266
 20
-14805.46975731861
 30
0.0
 11
-4222.900049559266
 21
-14809.43994426791
 31
0.0
  0
ELLIPSE
  5
20B9CF
330
18
100
AcDbEntity
  8
姿図
100
AcDbEllipse
 10
-4225.444395583746
 20
-14808.38279092027
 30
0.0
 11
-0.01357658280917579
 21
0.7041073744093787
 31
0.0
210
0.0
220
0.0
230
1.0
 40
0.4318616350327592
 41
0.0
 42
6.283185307179586
  0
LINE
  5
20B9D0
330
18
100
AcDbEntity
  8
姿図
100
AcDbLine
 10
-4221.832684442741
 20
-14804.83755385172
 30
0.0
 11
-4221.832684442741
 21
-14808.81516853833
 31
0.0
  0
LINE
  5
20B9D1
330
18
100
AcDbEntity
  8
姿図
100
AcDbLine
 10
-4222.351643835488
 20
-14805.6412803673
 30
0.0
 11
-4222.900049559266
 21
-14805.46975731861
 31
0.0
  0
ELLIPSE
  5
20B9D2
330
18
100
AcDbEntity
  8
姿図
100
AcDbEllipse
 10
-4224.990039940798
 20
-14808.37934511756
 30
0.0
 11
0.1487898768123672
 21
-0.745080321046846
 31
0.0
210
0.0
220
0.0
230
-1.0
 40
0.400285455615335
 41
1.090992743497568
 42
2.475844893381597
  0
LINE
  5
20B9D3
330
18
100
AcDbEntity
  8
姿図
100
AcDbLine
 10
-4225.940687207806
 20
-14815.82512674874
 30
0.0
 11
-4225.940687207806
 21
-14816.48290521058
 31
0.0
  0
LINE
  5
20B9D4
330
18
100
AcDbEntity
  8
姿図
100
AcDbLine
 10
-4219.443644685388
 20
-14807.41675853385
 30
0.0
 11
-4217.910361752652
 21
-14806.5192606223
 31
0.0
  0
LINE
  5
20B9D5
330
18
100
AcDbEntity
  8
姿図
100
AcDbLine
 10
-4219.443644685388
 20
-14806.3778811675
 30
0.0
 11
-4218.121970044564
 21
-14805.600498347
 31
0.0
  0
LINE
  5
20B9D6
330
18
100
AcDbEntity
  8
姿図
100
AcDbLine
 10
-4219.443644685388
 20
-14805.40371559182
 30
0.0
 11
-4218.121970044564
 21
-14804.62750675291
 31
0.0
  0
LINE
  5
20B9D7
330
18
100
AcDbEntity
  8
姿図
100
AcDbLine
 10
-4213.934803234974
 20
-14809.25300926841
 30
0.0
 11
-4214.06836187711
 21
-14808.58420089185
 31
0.0
  0
LINE
  5
20B9D8
330
18
100
AcDbEntity
  8
姿図
100
AcDbLine
 10
-4221.832684442741
 20
-14804.83755385172
 30
0.0
 11
-4220.511009801917
 21
-14804.05472211299
 31
0.0
  0
LINE
  5
20B9D9
330
18
100
AcDbEntity
  8
姿図
100
AcDbLine
 10
-4217.263333735503
 20
-14807.23320289385
 30
0.0
 11
-4208.909890871118
 21
-14802.32023662172
 31
0.0
  0
LINE
  5
20B9DA
330
18
100
AcDbEntity
  8
姿図
100
AcDbLine
 10
-4217.910361752652
 20
-14806.5192606223
 30
0.0
 11
-4208.909890871118
 21
-14801.25088930825
 31
0.0
  0
LINE
  5
20B9DB
330
18
100
AcDbEntity
  8
姿図
100
AcDbLine
 10
-4217.054604928039
 20
-14804.97269534681
 30
0.0
 11
-4208.909890871118
 21
-14800.18213601385
 31
0.0
  0
LINE
  5
20B9DC
330
18
100
AcDbEntity
  8
姿図
100
AcDbLine
 10
-4217.054604928039
 20
-14802.00748344047
 30
0.0
 11
-4217.054604928039
 21
-14806.01834852937
 31
0.0
  0
LINE
  5
20B9DD
330
18
100
AcDbEntity
  8
姿図
100
AcDbLine
 10
-4217.565881016496
 20
-14802.81101092837
 30
0.0
 11
-4217.565881016496
 21
-14806.31762090228
 31
0.0
  0
LINE
  5
20B9DE
330
18
100
AcDbEntity
  8
姿図
100
AcDbLine
 10
-4219.96260407814
 20
-14804.22624516168
 30
0.0
 11
-4219.96260407814
 21
-14808.82074283014
 31
0.0
  0
LINE
  5
20B9DF
330
18
100
AcDbEntity
  8
姿図
100
AcDbLine
 10
-4219.443644685388
 20
-14803.42251864609
 30
0.0
 11
-4219.443644685388
 21
-14808.51552376843
 31
0.0
  0
LINE
  5
20B9E0
330
18
100
AcDbEntity
  8
姿図
100
AcDbLine
 10
-4218.121970044564
 20
-14802.63968690736
 30
0.0
 11
-4218.121970044564
 21
-14806.64312425895
 31
0.0
  0
LINE
  5
20B9E1
330
18
100
AcDbEntity
  8
姿図
100
AcDbLine
 10
-4220.511009801917
 20
-14804.05472211299
 30
0.0
 11
-4220.511009801917
 21
-14809.14328035965
 31
0.0
  0
LINE
  5
20B9E2
330
18
100
AcDbEntity
  8
姿図
100
AcDbLine
 10
-4208.909890871118
 20
-14807.67102107282
 30
0.0
 11
-4208.909890871118
 21
-14797.18334558558
 31
0.0
  0
LINE
  5
20B9E3
330
18
100
AcDbEntity
  8
姿図
100
AcDbLine
 10
-4179.12866545674
 20
-14808.55736248871
 30
0.0
 11
-4208.909890871118
 21
-14799.21732707756
 31
0.0
  0
LINE
  5
20B9E4
330
18
100
AcDbEntity
  8
姿図
100
AcDbLine
 10
-4179.017854978213
 20
-14807.53559745453
 30
0.0
 11
-4208.909890871118
 21
-14798.13419331852
 31
0.0
  0
LINE
  5
20B9E5
330
18
100
AcDbEntity
  8
姿図
100
AcDbLine
 10
-4182.349400579123
 20
-14805.31800055548
 30
0.0
 11
-4208.909890871118
 21
-14797.18334558558
 31
0.0
  0
LINE
  5
20B9E6
330
18
100
AcDbEntity
  8
姿図
100
AcDbLine
 10
-4182.349400579123
 20
-14808.48684813289
 30
0.0
 11
-4208.909890871118
 21
-14800.18213601385
 31
0.0
  0
LINE
  5
20B9E7
330
18
100
AcDbEntity
  8
姿図
100
AcDbLine
 10
-4182.349400579123
 20
-14809.50464741689
 30
0.0
 11
-4208.909890871118
 21
-14801.25088930825
 31
0.0
  0
LINE
  5
20B9E8
330
18
100
AcDbEntity
  8
姿図
100
AcDbLine
 10
-4184.969289644313
 20
-14809.71861782633
 30
0.0
 11
-4208.909890871118
 21
-14802.32023662172
 31
0.0
  0
ELLIPSE
  5
20B9E9
330
18
100
AcDbEntity
  8
姿図
100
AcDbEllipse
 10
-4194.016812661404
 20
-14815.34134697518
 30
0.0
 11
-16.89664602730478
 21
0.0
 31
0.0
210
0.0
220
0.0
230
1.0
 40
0.3999919185846545
 41
-0.5784367365588503
 42
2.477240828422211
  0
ELLIPSE
  5
20B9EA
330
18
100
AcDbEntity
  8
姿図
100
AcDbEllipse
 10
-4194.016812661404
 20
-14814.77664109282
 30
0.0
 11
-16.89664602730478
 21
0.0
 31
0.0
210
0.0
220
0.0
230
1.0
 40
0.3999919185846545
 41
0.0417894837624354
 42
2.409090005352873
  0
LINE
  5
20B9EB
330
18
100
AcDbEntity
  8
姿図
100
AcDbLine
 10
-4230.980301885465
 20
-14823.49668412469
 30
0.0
 11
-4237.714091752006
 21
-14824.03411371676
 31
0.0
  0
LINE
  5
20B9EC
330
18
100
AcDbEntity
  8
姿図
100
AcDbLine
 10
-4237.714091752006
 20
-14824.03411371676
 30
0.0
 11
-4237.714091752006
 21
-14823.0883931205
 31
0.0
  0
LINE
  5
20B9ED
330
18
100
AcDbEntity
  8
姿図
100
AcDbLine
 10
-4230.71870416091
 20
-14817.10599517296
 30
0.0
 11
-4230.71870416091
 21
-14810.10076920858
 31
0.0
  0
LINE
  5
20B9EE
330
18
100
AcDbEntity
  8
姿図
100
AcDbLine
 10
-4230.444581990998
 20
-14819.00982275819
 30
0.0
 11
-4230.444581990998
 21
-14818.36209447299
 31
0.0
  0
LINE
  5
20B9EF
330
18
100
AcDbEntity
  8
姿図
100
AcDbLine
 10
-4230.980301885465
 20
-14818.2228915317
 30
0.0
 11
-4230.444581990998
 21
-14818.36209447299
 31
0.0
  0
LINE
  5
20B9F0
330
18
100
AcDbEntity
  8
姿図
100
AcDbLine
 10
-4230.980301885465
 20
-14818.2228915317
 30
0.0
 11
-4230.980301885465
 21
-14817.25462111172
 31
0.0
  0
LINE
  5
20B9F1
330
18
100
AcDbEntity
  8
姿図
100
AcDbLine
 10
-4237.714091752006
 20
-14824.03411371676
 30
0.0
 11
-4209.784402047627
 21
-14808.45744879507
 31
0.0
  0
LINE
  5
20B9F2
330
18
100
AcDbEntity
  8
姿図
100
AcDbLine
 10
-4209.784402047627
 20
-14807.41839494984
 30
0.0
 11
-4237.714091752006
 21
-14823.0883931205
 31
0.0
  0
LINE
  5
20B9F3
330
18
100
AcDbEntity
  8
姿図
100
AcDbLine
 10
-4230.71870416091
 20
-14816.13098065831
 30
0.0
 11
-4208.909890871118
 21
-14803.47592344443
 31
0.0
  0
LINE
  5
20B9F4
330
18
100
AcDbEntity
  8
姿図
100
AcDbLine
 10
-4230.71870416091
 20
-14815.1467999762
 30
0.0
 11
-4217.263333735503
 21
-14807.23320289385
 31
0.0
  0
LINE
  5
20B9F5
330
18
100
AcDbEntity
  8
姿図
100
AcDbLine
 10
-4230.980301885465
 20
-14817.25462111172
 30
0.0
 11
-4208.909890871118
 21
-14804.71538530066
 31
0.0
  0
LINE
  5
20B9F6
330
18
100
AcDbEntity
  8
姿図
100
AcDbLine
 10
-4230.980301885465
 20
-14823.49668412469
 30
0.0
 11
-4208.909890871118
 21
-14811.43292959727
 31
0.0
  0
LINE
  5
20B9F7
330
18
100
AcDbEntity
  8
姿図
100
AcDbLine
 10
-4230.980301885465
 20
-14818.2228915317
 30
0.0
 11
-4208.909890871118
 21
-14805.77530573137
 31
0.0
  0
LINE
  5
20B9F8
330
18
100
AcDbEntity
  8
姿図
100
AcDbLine
 10
-4230.444581990998
 20
-14818.36209447299
 30
0.0
 11
-4208.909890871118
 21
-14806.231967338
 31
0.0
  0
LINE
  5
20B9F9
330
18
100
AcDbEntity
  8
姿図
100
AcDbLine
 10
-4230.71870416091
 20
-14810.10076920858
 30
0.0
 11
-4222.900049559266
 21
-14805.46975731861
 31
0.0
  0
LINE
  5
20B9FA
330
18
100
AcDbEntity
  8
姿図
100
AcDbLine
 10
-4230.71870416091
 20
-14813.00964761414
 30
0.0
 11
-4222.900049559266
 21
-14808.41086998839
 31
0.0
  0
LINE
  5
20B9FB
330
18
100
AcDbEntity
  8
姿図
100
AcDbLine
 10
-4230.71870416091
 20
-14814.01654655461
 30
0.0
 11
-4222.048836721371
 21
-14808.94169197018
 31
0.0
  0
LINE
  5
20B9FC
330
18
100
AcDbEntity
  8
姿図
100
AcDbLine
 10
-4230.71870416091
 20
-14810.9871891817
 30
0.0
 11
-4225.715092187231
 21
-14808.03831694624
 31
0.0
  0
LINE
  5
20B9FD
330
18
100
AcDbEntity
  8
姿図
100
AcDbLine
 10
-4230.71870416091
 20
-14812.02546693203
 30
0.0
 11
-4225.576584157619
 21
-14809.00554139663
 31
0.0
  0
LINE
  5
20B9FE
330
18
100
AcDbEntity
  8
姿図
100
AcDbLine
 10
-4111.619589292257
 20
-14832.38592844679
 30
0.0
 11
-4184.969289644313
 21
-14809.71861782633
 31
0.0
  0
LINE
  5
20B9FF
330
18
100
AcDbEntity
  8
姿図
100
AcDbLine
 10
-4111.619589292257
 20
-14831.48416462512
 30
0.0
 11
-4182.349400579123
 21
-14809.50464741689
 31
0.0
  0
LINE
  5
20BA00
330
18
100
AcDbEntity
  8
姿図
100
AcDbLine
 10
-4111.619589292257
 20
-14830.60205438526
 30
0.0
 11
-4182.349400579123
 21
-14808.48684813289
 31
0.0
  0
LINE
  5
20BA01
330
18
100
AcDbEntity
  8
姿図
100
AcDbLine
 10
-4111.619589292258
 20
-14827.86396190837
 30
0.0
 11
-4182.349400579123
 21
-14805.31800055548
 31
0.0
  0
LINE
  5
20BA02
330
18
100
AcDbEntity
  8
姿図
100
AcDbLine
 10
-4096.273350011372
 20
-14843.69210418278
 30
0.0
 11
-4208.909890871118
 21
-14811.43292959727
 31
0.0
  0
LINE
  5
20BA03
330
18
100
AcDbEntity
  8
姿図
100
AcDbLine
 10
-4095.057573454874
 20
-14840.2865511635
 30
0.0
 11
-4208.909890871118
 21
-14806.231967338
 31
0.0
  0
LINE
  5
20BA04
330
18
100
AcDbEntity
  8
姿図
100
AcDbLine
 10
-4094.382477016949
 20
-14839.3918922073
 30
0.0
 11
-4208.909890871118
 21
-14804.71538530066
 31
0.0
  0
LINE
  5
20BA05
330
18
100
AcDbEntity
  8
姿図
100
AcDbLine
 10
-4094.380611981423
 20
-14840.15622677762
 30
0.0
 11
-4208.909890871118
 21
-14805.77530573137
 31
0.0
  0
LINE
  5
20BA06
330
18
100
AcDbEntity
  8
姿図
100
AcDbLine
 10
-4089.356385786431
 20
-14842.98578408138
 30
0.0
 11
-4209.784402047627
 21
-14807.41839494984
 31
0.0
  0
LINE
  5
20BA07
330
18
100
AcDbEntity
  8
姿図
100
AcDbLine
 10
-4089.356385786431
 20
-14843.72332572691
 30
0.0
 11
-4209.784402047627
 21
-14808.45744879507
 31
0.0
  0
LINE
  5
20BA08
330
18
100
AcDbEntity
  8
姿図
100
AcDbLine
 10
-4113.977489450925
 20
-14832.56799448574
 30
0.0
 11
-4208.909890871118
 21
-14803.47422349252
 31
0.0
  0
LINE
  5
20BA09
330
18
100
AcDbEntity
  8
姿図
100
AcDbLine
 10
-4124.192997135075
 20
-14852.39269271855
 30
0.0
 11
-4237.714091752006
 21
-14824.03411371676
 31
0.0
  0
LINE
  5
20BA0A
330
18
100
AcDbEntity
  8
姿図
100
AcDbLine
 10
-4150.138618539687
 20
-14816.65786053449
 30
0.0
 11
-4179.017854978213
 21
-14807.53559745453
 31
0.0
  0
LINE
  5
20BA0B
330
18
100
AcDbEntity
  8
姿図
100
AcDbLine
 10
-4124.212798710426
 20
-14846.18664711589
 30
0.0
 11
-4223.155470179328
 21
-14819.2196070526
 31
0.0
  0
LINE
  5
20BA0C
330
18
100
AcDbEntity
  8
姿図
100
AcDbLine
 10
-4124.212798710426
 20
-14850.7265805565
 30
0.0
 11
-4230.980301885465
 21
-14823.49668412469
 31
0.0
  0
LINE
  5
20BA0D
330
18
100
AcDbEntity
  8
姿図
100
AcDbLine
 10
-4124.212798710426
 20
-14849.7631084738
 30
0.0
 11
-4229.377776547282
 21
-14822.62073884705
 31
0.0
  0
LINE
  5
20BA0E
330
18
100
AcDbEntity
  8
姿図
100
AcDbLine
 10
-4124.212798710427
 20
-14848.84763625843
 30
0.0
 11
-4227.864489805007
 21
-14821.79357166033
 31
0.0
  0
LINE
  5
20BA0F
330
18
100
AcDbEntity
  8
姿図
100
AcDbLine
 10
-4150.211863025115
 20
-14817.62629618538
 30
0.0
 11
-4179.12866545674
 21
-14808.55736248871
 31
0.0
  0
ELLIPSE
  5
20BA10
330
18
100
AcDbEntity
  8
姿図
100
AcDbEllipse
 10
-4156.245406279428
 20
-14826.83890218993
 30
0.0
 11
-15.72013490460558
 21
0.0
 31
0.0
210
0.0
220
0.0
230
1.0
 40
0.3989172817622233
 41
5.618686487414179
 42
8.843940284267434
  0
ELLIPSE
  5
20BA11
330
18
100
AcDbEntity
  8
姿図
100
AcDbEllipse
 10
-4156.245406279428
 20
-14826.27419630758
 30
0.0
 11
-15.72013490460558
 21
0.0
 31
0.0
210
0.0
220
0.0
230
1.0
 40
0.3989172817622233
 41
6.328225479390605
 42
8.770773160613757
  0
ENDSEC
  0
SECTION
  2
OBJECTS
  0
DICTIONARY
  5
C
330
0
100
AcDbDictionary
281
     1
  3
ACAD_GROUP
350
D
  3
ACAD_IMAGE_VARS
350
20BDB7
  3
ACAD_LAYOUT
350
353
  3
ACAD_MLINESTYLE
350
E
  3
ACAD_PLOTSETTINGS
350
354
  3
ACAD_PLOTSTYLENAME
350
351
  3
ACAD_SCALELIST
350
209BB3
  3
AcadDim
350
A3ACF
  3
AcDbVariableDictionary
350
1C63
  3
AEC_DISP_REPS
350
20BDC0
  3
AEC_DISPLAY_PROPS_DEFAULTS
350
20BDC2
  3
AEC_VARS
350
20BDBE
  3
APPDATA
350
20BDB6
  3
DWGPROPS
350
20BE1E
  0
DICTIONARY
  5
1339DB
330
2
100
AcDbDictionary
280
     1
281
     1
  3
ACAD_LAYERFILTERS
360
146A70
  3
ACAD_LAYERSTATES
360
1339DC
  0
DICTIONARY
  5
209BEF
330
F
100
AcDbDictionary
280
     1
281
     1
  3
ADSK_XREC_LAYER_RECONCILED
360
209BF0
  0
DICTIONARY
  5
209BF3
330
34
100
AcDbDictionary
280
     1
281
     1
  3
ADSK_XREC_LAYER_RECONCILED
360
209BF4
  0
DICTIONARY
  5
209BFB
330
2F4
100
AcDbDictionary
280
     1
281
     1
  3
ADSK_XREC_LAYER_RECONCILED
360
209BFC
  0
DICTIONARY
  5
209BFF
330
305
100
AcDbDictionary
280
     1
281
     1
  3
ADSK_XREC_LAYER_RECONCILED
360
209C00
  0
DICTIONARY
  5
D
102
{ACAD_REACTORS
330
C
102
}
330
C
100
AcDbDictionary
281
     1
  0
RASTERVARIABLES
  5
20BDB7
102
{ACAD_REACTORS
330
C
102
}
330
C
100
AcDbRasterVariables
 90
        0
 70
     1
 71
     1
 72
     0
  0
DICTIONARY
  5
353
102
{ACAD_REACTORS
330
C
102
}
330
C
100
AcDbDictionary
281
     1
  3
Model
350
355
  3
ﾚｲｱｳﾄ1
350
356
  0
DICTIONARY
  5
E
102
{ACAD_REACTORS
330
C
102
}
330
C
100
AcDbDictionary
281
     1
  3
STANDARD
350
1B
  0
DICTIONARY
  5
354
102
{ACAD_REACTORS
330
C
102
}
330
C
100
AcDbDictionary
281
     1
  0
ACDBDICTIONARYWDFLT
  5
351
102
{ACAD_REACTORS
330
C
102
}
330
C
100
AcDbDictionary
281
     1
  3
Normal
350
352
100
AcDbDictionaryWithDefault
340
352
  0
DICTIONARY
  5
209BB3
102
{ACAD_REACTORS
330
C
102
}
330
C
100
AcDbDictionary
281
     1
  3
A0
350
209BB4
  3
A1
350
209BB5
  3
A2
350
209BB6
  3
A3
350
209BB7
  3
A4
350
209BB8
  3
A5
350
209BB9
  3
A6
350
209BBA
  3
A7
350
209BBB
  3
A8
350
209BBC
  3
A9
350
209BBD
  3
B0
350
209BBE
  3
B1
350
209BBF
  3
B2
350
209BC0
  3
B3
350
209BC1
  3
B4
350
209BC2
  3
B5
350
209BC3
  3
B6
350
209BC4
  3
B7
350
209BC5
  3
B8
350
209BC6
  3
B9
350
209BC7
  3
C0
350
209BC8
  3
C1
350
209BC9
  3
C2
350
209BCA
  3
C3
350
209BCB
  3
C4
350
209BCC
  3
C5
350
209BCD
  3
C6
350
209BCE
  3
C7
350
209BCF
  3
C8
350
209BD0
  3
C9
350
209BD1
  3
D0
350
209BD2
  3
D1
350
209BD3
  3
D2
350
209BD4
  0
XRECORD
  5
A3ACF
102
{ACAD_REACTORS
330
C
102
}
330
C
100
AcDbXrecord
280
     1
 90
   990106
  3

 60
     0
 61
     0
 62
     4
 63
     4
 64
     1
 65
     0
 66
     0
 67
     3
 68
     1
 69
     0
 70
     0
 71
     0
 72
     0
 40
0.0
170
     2
340
1CADE4
  0
DICTIONARY
  5
1C63
102
{ACAD_REACTORS
330
C
102
}
330
C
100
AcDbDictionary
281
     1
  3
DIMASSOC
350
272F6
  3
INDEXCTL
350
209C2C
  3
PROJECTNAME
350
273B1
  3
SORTENTS
350
1C64
  0
DICTIONARY
  5
20BDC0
102
{ACAD_REACTORS
330
C
102
}
330
C
100
AcDbDictionary
281
     1
  3
AecDbDispRep2dSection
350
20BDC1
  3
AecDbDispRepAnchor
350
20BDFB
  3
AecDbDispRepAnchorEntToNode
350
20BDFC
  3
AecDbDispRepClipVolModel
350
20BDC8
  3
AecDbDispRepClipVolPlan
350
20BDCA
  3
AecDbDispRepClipVolResSubDiv
350
20BDCD
  3
AecDbDispRepClipVolResult
350
20BDCC
  3
AecDbDispRepDisplayTheme
350
20BDCF
  3
AecDbDispRepEditInPlaceProfile
350
20BE00
  3
AecDbDispRepEntRef
350
20BDD1
  3
AecDbDispRepLayoutCurve
350
20BDD3
  3
AecDbDispRepLayoutGrid2d
350
20BDD5
  3
AecDbDispRepLayoutGrid3d
350
20BDD7
  3
AecDbDispRepMaskBlockRef
350
20BDD9
  3
AecDbDispRepMaskBlockRefRcp
350
20BDDB
  3
AecDbDispRepMassElemModel
350
20BDDD
  3
AecDbDispRepMassElemPlan100
350
20BDE3
  3
AecDbDispRepMassElemPlan50
350
20BDE1
  3
AecDbDispRepMassElemRcp
350
20BDE5
  3
AecDbDispRepMassElemSchem
350
20BDDF
  3
AecDbDispRepMassGroupModel
350
20BDE7
  3
AecDbDispRepMassGroupPlan
350
20BDE9
  3
AecDbDispRepMassGroupPlan100
350
20BDED
  3
AecDbDispRepMassGroupPlan50
350
20BDEB
  3
AecDbDispRepMassGroupRcp
350
20BDEF
  3
AecDbDispRepMaterial
350
20BDFE
  3
AecDbDispRepMvBlockRef
350
20BDF1
  3
AecDbDispRepMvBlockRefModel
350
20BDF2
  3
AecDbDispRepMvBlockRefPlan100
350
20BDF3
  3
AecDbDispRepMvBlockRefPlan50
350
20BDF4
  3
AecDbDispRepPolygonModel
350
20BDF5
  3
AecDbDispRepPolygonTrueColour
350
20BDF7
  3
AecDbDispRepSlice
350
20BDF9
  0
DICTIONARY
  5
20BDC2
102
{ACAD_REACTORS
330
C
102
}
330
C
100
AcDbDictionary
281
     1
  3
*A1
350
20BDC3
  3
*A10
350
20BDDA
  3
*A11
350
20BDDC
  3
*A12
350
20BDDE
  3
*A13
350
20BDE0
  3
*A14
350
20BDE2
  3
*A15
350
20BDE4
  3
*A16
350
20BDE6
  3
*A17
350
20BDE8
  3
*A18
350
20BDEA
  3
*A19
350
20BDEC
  3
*A2
350
20BDC9
  3
*A20
350
20BDEE
  3
*A21
350
20BDF0
  3
*A22
350
20BDF6
  3
*A23
350
20BDF8
  3
*A24
350
20BDFA
  3
*A25
350
20BDFD
  3
*A26
350
20BDFF
  3
*A27
350
20BE01
  3
*A3
350
20BDCB
  3
*A4
350
20BDCE
  3
*A5
350
20BDD0
  3
*A6
350
20BDD2
  3
*A7
350
20BDD4
  3
*A8
350
20BDD6
  3
*A9
350
20BDD8
  0
DICTIONARY
  5
20BDBE
102
{ACAD_REACTORS
330
C
102
}
330
C
100
AcDbDictionary
281
     1
  3
AEC_VARS_DWG_SETUP
350
20BDBF
  0
DICTIONARY
  5
20BDB6
102
{ACAD_REACTORS
330
C
102
}
330
C
100
AcDbDictionary
281
     1
  0
XRECORD
  5
20BE1E
102
{ACAD_REACTORS
330
C
102
}
330
C
100
AcDbXrecord
280
     1
  1
DWGPROPS COOKIE
  2

  3

  4

  6

  7

  8
SPAX
  9

300
=
301
=
302
=
303
=
304
=
305
=
306
=
307
=
308
=
309
=
 40
0.0
 41
2448636.244629629
 42
2456821.244523379
  1

 90
        0
  0
DICTIONARY
  5
146A70
102
{ACAD_REACTORS
330
1339DB
102
}
330
1339DB
100
AcDbDictionary
281
     1
  0
DICTIONARY
  5
1339DC
102
{ACAD_REACTORS
330
1339DB
102
}
330
1339DB
100
AcDbDictionary
281
     1
  0
XRECORD
  5
209BF0
102
{ACAD_REACTORS
330
209BEF
102
}
330
209BEF
100
AcDbXrecord
280
     1
290
     1
  0
XRECORD
  5
209BF4
102
{ACAD_REACTORS
330
209BF3
102
}
330
209BF3
100
AcDbXrecord
280
     1
290
     1
  0
XRECORD
  5
209BFC
102
{ACAD_REACTORS
330
209BFB
102
}
330
209BFB
100
AcDbXrecord
280
     1
290
     1
  0
XRECORD
  5
209C00
102
{ACAD_REACTORS
330
209BFF
102
}
330
209BFF
100
AcDbXrecord
280
     1
290
     1
  0
LAYOUT
  5
355
102
{ACAD_REACTORS
330
353
102
}
330
353
100
AcDbPlotSettings
  1

  2
JUST PDF 2
  4
A4
  6

 40
3.174999952316284
 41
3.174999952316284
 42
3.175003051757812
 43
3.17498779296875
 44
209.8886566162109
 45
297.0530090332031
 46
14.27171755861548
 47
9.855173074625782
 48
-4254.466974213353
 49
-15750.01461215425
140
-3554.486100233729
141
-14666.04391159958
142
1.0
143
4.0
 70
 11940
 72
     1
 73
     0
 74
     4
  7
spax form.ctb
 75
     0
147
0.1666666666666667
148
4254.466974213353
149
15750.01461215425
100
AcDbLayout
  1
Model
 70
     1
 71
     0
 10
0.0
 20
0.0
 11
12.0
 21
9.0
 12
0.0
 22
0.0
 32
0.0
 14
-4237.714091752006
 24
-14891.5867027151
 34
0.0
 15
-4089.356385786431
 25
-14797.18334558558
 35
0.0
146
0.0
 13
0.0
 23
0.0
 33
0.0
 16
1.0
 26
0.0
 36
0.0
 17
0.0
 27
1.0
 37
0.0
 76
     0
330
18
331
20BD90
1001
ACAD_PSEXT
1000
JUST PDF 2
1000
JUST PDF 2
1000
JUST PDF 2 Port:
1000

1070
     0
  0
LAYOUT
  5
356
102
{ACAD_REACTORS
330
353
102
}
330
353
100
AcDbPlotSettings
  1

  2
Canon LASER SHOT LBP-750
  4

  6

 40
0.0
 41
0.0
 42
0.0
 43
0.0
 44
0.0
 45
0.0
 46
0.0
 47
0.0
 48
0.0
 49
0.0
140
0.0
141
0.0
142
1.0
143
1.0
 70
   688
 72
     0
 73
     0
 74
     5
  7
spax form.ctb
 75
    16
147
1.0
148
0.0
149
0.0
100
AcDbLayout
  1
ﾚｲｱｳﾄ1
 70
     0
 71
     1
 10
0.0
 20
0.0
 11
12.0
 21
9.0
 12
0.0
 22
0.0
 32
0.0
 14
1.000000000000000E+20
 24
1.000000000000000E+20
 34
1.000000000000000E+20
 15
-1.000000000000000E+20
 25
-1.000000000000000E+20
 35
-1.000000000000000E+20
146
0.0
 13
0.0
 23
0.0
 33
0.0
 16
1.0
 26
0.0
 36
0.0
 17
0.0
 27
1.0
 37
0.0
 76
     0
330
15
  0
MLINESTYLE
  5
1B
102
{ACAD_REACTORS
330
E
102
}
330
E
100
AcDbMlineStyle
  2
STANDARD
 70
     0
  3

 62
     0
 51
90.0
 52
90.0
 71
     2
 49
0.5
 62
   256
  6
BYLAYER
 49
-0.5
 62
   256
  6
BYLAYER
  0
ACDBPLACEHOLDER
  5
352
102
{ACAD_REACTORS
330
351
102
}
330
351
  0
SCALE
  5
209BB4
102
{ACAD_REACTORS
330
209BB3
102
}
330
209BB3
100
AcDbScale
 70
     0
300
1:1
140
1.0
141
1.0
290
     1
  0
SCALE
  5
209BB5
102
{ACAD_REACTORS
330
209BB3
102
}
330
209BB3
100
AcDbScale
 70
     0
300
1:2
140
1.0
141
2.0
290
     0
  0
SCALE
  5
209BB6
102
{ACAD_REACTORS
330
209BB3
102
}
330
209BB3
100
AcDbScale
 70
     0
300
1:4
140
1.0
141
4.0
290
     0
  0
SCALE
  5
209BB7
102
{ACAD_REACTORS
330
209BB3
102
}
330
209BB3
100
AcDbScale
 70
     0
300
1:5
140
1.0
141
5.0
290
     0
  0
SCALE
  5
209BB8
102
{ACAD_REACTORS
330
209BB3
102
}
330
209BB3
100
AcDbScale
 70
     0
300
1:8
140
1.0
141
8.0
290
     0
  0
SCALE
  5
209BB9
102
{ACAD_REACTORS
330
209BB3
102
}
330
209BB3
100
AcDbScale
 70
     0
300
1:10
140
1.0
141
10.0
290
     0
  0
SCALE
  5
209BBA
102
{ACAD_REACTORS
330
209BB3
102
}
330
209BB3
100
AcDbScale
 70
     0
300
1:16
140
1.0
141
16.0
290
     0
  0
SCALE
  5
209BBB
102
{ACAD_REACTORS
330
209BB3
102
}
330
209BB3
100
AcDbScale
 70
     0
300
1:20
140
1.0
141
20.0
290
     0
  0
SCALE
  5
209BBC
102
{ACAD_REACTORS
330
209BB3
102
}
330
209BB3
100
AcDbScale
 70
     0
300
1:30
140
1.0
141
30.0
290
     0
  0
SCALE
  5
209BBD
102
{ACAD_REACTORS
330
209BB3
102
}
330
209BB3
100
AcDbScale
 70
     0
300
1:40
140
1.0
141
40.0
290
     0
  0
SCALE
  5
209BBE
102
{ACAD_REACTORS
330
209BB3
102
}
330
209BB3
100
AcDbScale
 70
     0
300
1:50
140
1.0
141
50.0
290
     0
  0
SCALE
  5
209BBF
102
{ACAD_REACTORS
330
209BB3
102
}
330
209BB3
100
AcDbScale
 70
     0
300
1:100
140
1.0
141
100.0
290
     0
  0
SCALE
  5
209BC0
102
{ACAD_REACTORS
330
209BB3
102
}
330
209BB3
100
AcDbScale
 70
     0
300
2:1
140
2.0
141
1.0
290
     0
  0
SCALE
  5
209BC1
102
{ACAD_REACTORS
330
209BB3
102
}
330
209BB3
100
AcDbScale
 70
     0
300
4:1
140
4.0
141
1.0
290
     0
  0
SCALE
  5
209BC2
102
{ACAD_REACTORS
330
209BB3
102
}
330
209BB3
100
AcDbScale
 70
     0
300
8:1
140
8.0
141
1.0
290
     0
  0
SCALE
  5
209BC3
102
{ACAD_REACTORS
330
209BB3
102
}
330
209BB3
100
AcDbScale
 70
     0
300
10:1
140
10.0
141
1.0
290
     0
  0
SCALE
  5
209BC4
102
{ACAD_REACTORS
330
209BB3
102
}
330
209BB3
100
AcDbScale
 70
     0
300
100:1
140
100.0
141
1.0
290
     0
  0
SCALE
  5
209BC5
102
{ACAD_REACTORS
330
209BB3
102
}
330
209BB3
100
AcDbScale
 70
     0
300
1/128" = 1'-0"
140
0.0078125
141
12.0
290
     0
  0
SCALE
  5
209BC6
102
{ACAD_REACTORS
330
209BB3
102
}
330
209BB3
100
AcDbScale
 70
     0
300
1/64" = 1'-0"
140
0.015625
141
12.0
290
     0
  0
SCALE
  5
209BC7
102
{ACAD_REACTORS
330
209BB3
102
}
330
209BB3
100
AcDbScale
 70
     0
300
1/32" = 1'-0"
140
0.03125
141
12.0
290
     0
  0
SCALE
  5
209BC8
102
{ACAD_REACTORS
330
209BB3
102
}
330
209BB3
100
AcDbScale
 70
     0
300
1/16" = 1'-0"
140
0.0625
141
12.0
290
     0
  0
SCALE
  5
209BC9
102
{ACAD_REACTORS
330
209BB3
102
}
330
209BB3
100
AcDbScale
 70
     0
300
3/32" = 1'-0"
140
0.09375
141
12.0
290
     0
  0
SCALE
  5
209BCA
102
{ACAD_REACTORS
330
209BB3
102
}
330
209BB3
100
AcDbScale
 70
     0
300
1/8" = 1'-0"
140
0.125
141
12.0
290
     0
  0
SCALE
  5
209BCB
102
{ACAD_REACTORS
330
209BB3
102
}
330
209BB3
100
AcDbScale
 70
     0
300
3/16" = 1'-0"
140
0.1875
141
12.0
290
     0
  0
SCALE
  5
209BCC
102
{ACAD_REACTORS
330
209BB3
102
}
330
209BB3
100
AcDbScale
 70
     0
300
1/4" = 1'-0"
140
0.25
141
12.0
290
     0
  0
SCALE
  5
209BCD
102
{ACAD_REACTORS
330
209BB3
102
}
330
209BB3
100
AcDbScale
 70
     0
300
3/8" = 1'-0"
140
0.375
141
12.0
290
     0
  0
SCALE
  5
209BCE
102
{ACAD_REACTORS
330
209BB3
102
}
330
209BB3
100
AcDbScale
 70
     0
300
1/2" = 1'-0"
140
0.5
141
12.0
290
     0
  0
SCALE
  5
209BCF
102
{ACAD_REACTORS
330
209BB3
102
}
330
209BB3
100
AcDbScale
 70
     0
300
3/4" = 1'-0"
140
0.75
141
12.0
290
     0
  0
SCALE
  5
209BD0
102
{ACAD_REACTORS
330
209BB3
102
}
330
209BB3
100
AcDbScale
 70
     0
300
1" = 1'-0"
140
1.0
141
12.0
290
     0
  0
SCALE
  5
209BD1
102
{ACAD_REACTORS
330
209BB3
102
}
330
209BB3
100
AcDbScale
 70
     0
300
1-1/2" = 1'-0"
140
1.5
141
12.0
290
     0
  0
SCALE
  5
209BD2
102
{ACAD_REACTORS
330
209BB3
102
}
330
209BB3
100
AcDbScale
 70
     0
300
3" = 1'-0"
140
3.0
141
12.0
290
     0
  0
SCALE
  5
209BD3
102
{ACAD_REACTORS
330
209BB3
102
}
330
209BB3
100
AcDbScale
 70
     0
300
6" = 1'-0"
140
6.0
141
12.0
290
     0
  0
SCALE
  5
209BD4
102
{ACAD_REACTORS
330
209BB3
102
}
330
209BB3
100
AcDbScale
 70
     0
300
1'-0" = 1'-0"
140
12.0
141
12.0
290
     0
  0
DICTIONARYVAR
  5
272F6
102
{ACAD_REACTORS
330
1C63
102
}
330
1C63
100
DictionaryVariables
280
     0
  1
1
  0
DICTIONARYVAR
  5
209C2C
102
{ACAD_REACTORS
330
1C63
102
}
330
1C63
100
DictionaryVariables
280
     0
  1
0
  0
DICTIONARYVAR
  5
273B1
102
{ACAD_REACTORS
330
1C63
102
}
330
1C63
100
DictionaryVariables
280
     0
  1

  0
DICTIONARYVAR
  5
1C64
102
{ACAD_REACTORS
330
1C63
102
}
330
1C63
100
DictionaryVariables
280
     0
  1
1
  0
ENDSEC
  0
EOF
