  0
SECTION
  2
HEADER
  9
$ACADVER
  1
AC1015
  9
$ACADMAINTVER
 70
     6
  9
$DWGCODEPAGE
  3
ANSI_932
  9
$INSBASE
 10
0.0
 20
0.0
 30
0.0
  9
$EXTMIN
 10
66294.21292101199
 20
-34585.37684216449
 30
0.0
  9
$EXTMAX
 10
66435.06838627893
 20
-34429.71464700859
 30
0.0
  9
$LIMMIN
 10
0.0
 20
0.0
  9
$LIMMAX
 10
420.0
 20
297.0
  9
$ORTHOMODE
 70
     0
  9
$REGENMODE
 70
     1
  9
$FILLMODE
 70
     1
  9
$QTEXTMODE
 70
     0
  9
$MIRRTEXT
 70
     1
  9
$LTSCALE
 40
5.0
  9
$ATTMODE
 70
     0
  9
$TEXTSIZE
 40
3.5
  9
$TRACEWID
 40
1.0
  9
$TEXTSTYLE
  7
STANDARD
  9
$CLAYER
  8
0
  9
$CELTYPE
  6
BYLAYER
  9
$CECOLOR
 62
   256
  9
$CELTSCALE
 40
1.0
  9
$DISPSILH
 70
     0
  9
$DIMSCALE
 40
1.0
  9
$DIMASZ
 40
1.5
  9
$DIMEXO
 40
1.5
  9
$DIMDLI
 40
0.38
  9
$DIMRND
 40
0.0
  9
$DIMDLE
 40
0.0
  9
$DIMEXE
 40
1.0
  9
$DIMTP
 40
0.0
  9
$DIMTM
 40
0.0
  9
$DIMTXT
 40
2.500000000000003
  9
$DIMCEN
 40
0.0
  9
$DIMTSZ
 40
0.0
  9
$DIMTOL
 70
     0
  9
$DIMLIM
 70
     0
  9
$DIMTIH
 70
     0
  9
$DIMTOH
 70
     0
  9
$DIMSE1
 70
     0
  9
$DIMSE2
 70
     0
  9
$DIMTAD
 70
     3
  9
$DIMZIN
 70
     8
  9
$DIMBLK
  1

  9
$DIMASO
 70
     1
  9
$DIMSHO
 70
     0
  9
$DIMPOST
  1

  9
$DIMAPOST
  1

  9
$DIMALT
 70
     0
  9
$DIMALTD
 70
     0
  9
$DIMALTF
 40
25.4
  9
$DIMLFAC
 40
1.0
  9
$DIMTOFL
 70
     0
  9
$DIMTVP
 40
0.0
  9
$DIMTIX
 70
     0
  9
$DIMSOXD
 70
     0
  9
$DIMSAH
 70
     1
  9
$DIMBLK1
  1
OPEN
  9
$DIMBLK2
  1
OPEN
  9
$DIMSTYLE
  2
STANDARD
  9
$DIMCLRD
 70
     8
  9
$DIMCLRE
 70
     8
  9
$DIMCLRT
 70
   256
  9
$DIMTFAC
 40
1.0
  9
$DIMGAP
 40
1.0
  9
$DIMJUST
 70
     0
  9
$DIMSD1
 70
     0
  9
$DIMSD2
 70
     0
  9
$DIMTOLJ
 70
     1
  9
$DIMTZIN
 70
     0
  9
$DIMALTZ
 70
     0
  9
$DIMALTTZ
 70
     0
  9
$DIMUPT
 70
     0
  9
$DIMDEC
 70
     2
  9
$DIMTDEC
 70
     2
  9
$DIMALTU
 70
     2
  9
$DIMALTTD
 70
     0
  9
$DIMTXSTY
  7
STANDARD
  9
$DIMAUNIT
 70
     0
  9
$DIMADEC
 70
     2
  9
$DIMALTRND
 40
0.0
  9
$DIMAZIN
 70
     2
  9
$DIMDSEP
 70
    46
  9
$DIMATFIT
 70
     3
  9
$DIMFRAC
 70
     0
  9
$DIMLDRBLK
  1
OPEN
  9
$DIMLUNIT
 70
     2
  9
$DIMLWD
 70
    -2
  9
$DIMLWE
 70
    -2
  9
$DIMTMOVE
 70
     0
  9
$LUNITS
 70
     2
  9
$LUPREC
 70
     2
  9
$SKETCHINC
 40
0.1
  9
$FILLETRAD
 40
5.0
  9
$AUNITS
 70
     0
  9
$AUPREC
 70
     1
  9
$MENU
  1
FM
  9
$ELEVATION
 40
0.0
  9
$PELEVATION
 40
0.0
  9
$THICKNESS
 40
0.0
  9
$LIMCHECK
 70
     0
  9
$CHAMFERA
 40
0.0
  9
$CHAMFERB
 40
0.0
  9
$CHAMFERC
 40
0.0
  9
$CHAMFERD
 40
0.0
  9
$SKPOLY
 70
     0
  9
$TDCREATE
 40
2448636.619629629
  9
$TDUCREATE
 40
2448636.244629629
  9
$TDUPDATE
 40
2456822.480144039
  9
$TDUUPDATE
 40
2456822.105144039
  9
$TDINDWG
 40
45.2380788079
  9
$TDUSRTIMER
 40
2456822.105006389
  9
$USRTIMER
 70
     1
  9
$ANGBASE
 50
0.0
  9
$ANGDIR
 70
     0
  9
$PDMODE
 70
     3
  9
$PDSIZE
 40
0.0
  9
$PLINEWID
 40
0.0
  9
$SPLFRAME
 70
     0
  9
$SPLINETYPE
 70
     6
  9
$SPLINESEGS
 70
     8
  9
$HANDSEED
  5
4775F9
  9
$SURFTAB1
 70
     6
  9
$SURFTAB2
 70
     6
  9
$SURFTYPE
 70
     6
  9
$SURFU
 70
     6
  9
$SURFV
 70
     6
  9
$UCSBASE
  2

  9
$UCSNAME
  2

  9
$UCSORG
 10
0.0
 20
0.0
 30
0.0
  9
$UCSXDIR
 10
1.0
 20
0.0
 30
0.0
  9
$UCSYDIR
 10
0.0
 20
1.0
 30
0.0
  9
$UCSORTHOREF
  2

  9
$UCSORTHOVIEW
 70
     0
  9
$UCSORGTOP
 10
0.0
 20
0.0
 30
0.0
  9
$UCSORGBOTTOM
 10
0.0
 20
0.0
 30
0.0
  9
$UCSORGLEFT
 10
0.0
 20
0.0
 30
0.0
  9
$UCSORGRIGHT
 10
0.0
 20
0.0
 30
0.0
  9
$UCSORGFRONT
 10
0.0
 20
0.0
 30
0.0
  9
$UCSORGBACK
 10
0.0
 20
0.0
 30
0.0
  9
$PUCSBASE
  2

  9
$PUCSNAME
  2

  9
$PUCSORG
 10
0.0
 20
0.0
 30
0.0
  9
$PUCSXDIR
 10
1.0
 20
0.0
 30
0.0
  9
$PUCSYDIR
 10
0.0
 20
1.0
 30
0.0
  9
$PUCSORTHOREF
  2

  9
$PUCSORTHOVIEW
 70
     0
  9
$PUCSORGTOP
 10
0.0
 20
0.0
 30
0.0
  9
$PUCSORGBOTTOM
 10
0.0
 20
0.0
 30
0.0
  9
$PUCSORGLEFT
 10
0.0
 20
0.0
 30
0.0
  9
$PUCSORGRIGHT
 10
0.0
 20
0.0
 30
0.0
  9
$PUCSORGFRONT
 10
0.0
 20
0.0
 30
0.0
  9
$PUCSORGBACK
 10
0.0
 20
0.0
 30
0.0
  9
$USERI1
 70
     0
  9
$USERI2
 70
     0
  9
$USERI3
 70
     0
  9
$USERI4
 70
     0
  9
$USERI5
 70
     0
  9
$USERR1
 40
0.0
  9
$USERR2
 40
0.0
  9
$USERR3
 40
0.0
  9
$USERR4
 40
0.0
  9
$USERR5
 40
0.0
  9
$WORLDVIEW
 70
     0
  9
$SHADEDGE
 70
     3
  9
$SHADEDIF
 70
    70
  9
$TILEMODE
 70
     1
  9
$MAXACTVP
 70
    16
  9
$PINSBASE
 10
0.0
 20
0.0
 30
0.0
  9
$PLIMCHECK
 70
     0
  9
$PEXTMIN
 10
1.000000000000000E+20
 20
1.000000000000000E+20
 30
1.000000000000000E+20
  9
$PEXTMAX
 10
-1.000000000000000E+20
 20
-1.000000000000000E+20
 30
-1.000000000000000E+20
  9
$PLIMMIN
 10
0.0
 20
0.0
  9
$PLIMMAX
 10
0.0
 20
0.0
  9
$UNITMODE
 70
     0
  9
$VISRETAIN
 70
     0
  9
$PLINEGEN
 70
     0
  9
$PSLTSCALE
 70
     0
  9
$TREEDEPTH
 70
  3020
  9
$CMLSTYLE
  2
STANDARD
  9
$CMLJUST
 70
     0
  9
$CMLSCALE
 40
1.0
  9
$PROXYGRAPHICS
 70
     1
  9
$MEASUREMENT
 70
     0
  9
$CELWEIGHT
370
    -1
  9
$ENDCAPS
280
     0
  9
$JOINSTYLE
280
     0
  9
$LWDISPLAY
290
     0
  9
$INSUNITS
 70
     0
  9
$HYPERLINKBASE
  1

  9
$STYLESHEET
  1
spax form.ctb
  9
$XEDIT
290
     1
  9
$CEPSNTYPE
380
     0
  9
$PSTYLEMODE
290
     1
  9
$FINGERPRINTGUID
  2
{BBAEEBA6-8B94-11D3-9160-00E0294F7E09}
  9
$VERSIONGUID
  2
{DE394BE7-A4AD-4DFE-A59B-8AEDD22A5322}
  9
$EXTNAMES
290
     1
  9
$PSVPSCALE
 40
0.0
  9
$OLESTARTUP
290
     0
  0
ENDSEC
  0
SECTION
  2
CLASSES
  0
CLASS
  1
LWPOLYLINE
  2
AcDbPolyline
  3
ObjectDBX Classes
 90
        0
280
     0
281
     1
  0
CLASS
  1
ACDBDICTIONARYWDFLT
  2
AcDbDictionaryWithDefault
  3
ObjectDBX Classes
 90
        0
280
     0
281
     0
  0
CLASS
  1
ACDBPLACEHOLDER
  2
AcDbPlaceHolder
  3
ObjectDBX Classes
 90
        0
280
     0
281
     0
  0
CLASS
  1
LAYOUT
  2
AcDbLayout
  3
ObjectDBX Classes
 90
        0
280
     0
281
     0
  0
CLASS
  1
DICTIONARYVAR
  2
AcDbDictionaryVar
  3
ObjectDBX Classes
 90
        0
280
     0
281
     0
  0
CLASS
  1
DIMASSOC
  2
AcDbDimAssoc
  3
"AcDbDimAssoc|Product Desc:     AcDim ARX App For Dimension|Company:          Autodesk, Inc.|WEB Address:      www.autodesk.com"
 90
        0
280
     0
281
     0
  0
CLASS
  1
SORTENTSTABLE
  2
AcDbSortentsTable
  3
ObjectDBX Classes
 90
        0
280
     0
281
     0
  0
CLASS
  1
MATERIAL
  2
AcDbMaterial
  3
ObjectDBX Classes
 90
     1153
280
     0
281
     0
  0
CLASS
  1
VISUALSTYLE
  2
AcDbVisualStyle
  3
ObjectDBX Classes
 90
     4095
280
     0
281
     0
  0
CLASS
  1
TABLESTYLE
  2
AcDbTableStyle
  3
ObjectDBX Classes
 90
     4095
280
     0
281
     0
  0
CLASS
  1
SCALE
  2
AcDbScale
  3
ObjectDBX Classes
 90
     1153
280
     0
281
     0
  0
CLASS
  1
MLEADERSTYLE
  2
AcDbMLeaderStyle
  3
ACDB_MLEADERSTYLE_CLASS
 90
     4095
280
     0
281
     0
  0
CLASS
  1
CELLSTYLEMAP
  2
AcDbCellStyleMap
  3
ObjectDBX Classes
 90
     1152
280
     0
281
     0
  0
CLASS
  1
RASTERVARIABLES
  2
AcDbRasterVariables
  3
ISM
 90
        0
280
     0
281
     0
  0
CLASS
  1
SUN
  2
AcDbSun
  3
SCENEOE
 90
     1153
280
     0
281
     0
  0
ENDSEC
  0
SECTION
  2
TABLES
  0
TABLE
  2
VPORT
  5
8
330
0
100
AcDbSymbolTable
 70
     1
  0
VPORT
  5
474227
330
8
100
AcDbSymbolTableRecord
100
AcDbViewportTableRecord
  2
*Active
 70
     0
 10
0.0
 20
0.0
 11
1.0
 21
1.0
 12
66364.64065364546
 22
-34507.54574458653
 13
0.0
 23
0.0
 14
1.0
 24
1.0
 15
20.0
 25
20.0
 16
0.0
 26
0.0
 36
1.0
 17
0.0
 27
0.0
 37
0.0
 40
158.7754390590171
 41
1.731829573934837
 42
50.0
 43
0.0
 44
0.0
 50
0.0
 51
0.0
 71
    16
 72
   100
 73
     1
 74
     0
 75
     0
 76
     0
 77
     0
 78
     0
281
     0
 65
     1
110
0.0
120
0.0
130
0.0
111
1.0
121
0.0
131
0.0
112
0.0
122
1.0
132
0.0
 79
     0
146
0.0
  0
ENDTAB
  0
TABLE
  2
LTYPE
  5
5
330
0
100
AcDbSymbolTable
 70
     7
  0
LTYPE
  5
12
330
5
100
AcDbSymbolTableRecord
100
AcDbLinetypeTableRecord
  2
BYBLOCK
 70
     0
  3

 72
    65
 73
     0
 40
0.0
  0
LTYPE
  5
13
330
5
100
AcDbSymbolTableRecord
100
AcDbLinetypeTableRecord
  2
BYLAYER
 70
     0
  3

 72
    65
 73
     0
 40
0.0
  0
LTYPE
  5
14
330
5
100
AcDbSymbolTableRecord
100
AcDbLinetypeTableRecord
  2
CONTINUOUS
 70
     0
  3
Solid line
 72
    65
 73
     0
 40
0.0
  0
LTYPE
  5
26
330
5
100
AcDbSymbolTableRecord
100
AcDbLinetypeTableRecord
  2
PHANTOM
 70
     0
  3
_____ _ _ _____ _ _ _____ _ _ _____ _ _ ____
 72
    65
 73
     6
 40
2.5
 49
1.25
 74
     0
 49
-0.25
 74
     0
 49
0.25
 74
     0
 49
-0.25
 74
     0
 49
0.25
 74
     0
 49
-0.25
 74
     0
  0
LTYPE
  5
27
330
5
100
AcDbSymbolTableRecord
100
AcDbLinetypeTableRecord
  2
HIDDEN
 70
     0
  3
_ _ _ _ _ _ _ _ _ _ _ _ _ _ _ _ _ _ _ _ _ _ _
 72
    65
 73
     2
 40
0.375
 49
0.25
 74
     0
 49
-0.125
 74
     0
  0
LTYPE
  5
514
330
5
100
AcDbSymbolTableRecord
100
AcDbLinetypeTableRecord
  2
CENTER
 70
     0
  3
Center ____ _ ____ _ ____ _ ____ _ ____ _ ____
 72
    65
 73
     4
 40
2.0
 49
1.25
 74
     0
 49
-0.25
 74
     0
 49
0.25
 74
     0
 49
-0.25
 74
     0
  0
LTYPE
  5
28FEBF
330
5
100
AcDbSymbolTableRecord
100
AcDbLinetypeTableRecord
  2
PHANTOM2
 70
     0
  3
___ _ _ ___ _ _ ___ _ _ ___ _ _ ___ _ _ ___ _ _
 72
    65
 73
     6
 40
1.25
 49
0.625
 74
     0
 49
-0.125
 74
     0
 49
0.125
 74
     0
 49
-0.125
 74
     0
 49
0.125
 74
     0
 49
-0.125
 74
     0
  0
ENDTAB
  0
TABLE
  2
LAYER
  5
2
102
{ACAD_XDICTIONARY
360
6A835
102
}
330
0
100
AcDbSymbolTable
 70
    29
  0
LAYER
  5
F
102
{ACAD_XDICTIONARY
360
46D9EC
102
}
330
2
100
AcDbSymbolTableRecord
100
AcDbLayerTableRecord
  2
0
 70
     0
 62
     7
  6
CONTINUOUS
370
    -3
390
616
  0
LAYER
  5
2C
102
{ACAD_XDICTIONARY
360
46D9EE
102
}
330
2
100
AcDbSymbolTableRecord
100
AcDbLayerTableRecord
  2
中心線
 70
     0
 62
     1
  6
CENTER
370
    -3
390
616
  0
LAYER
  5
34
102
{ACAD_XDICTIONARY
360
46D9F0
102
}
330
2
100
AcDbSymbolTableRecord
100
AcDbLayerTableRecord
  2
寸法線
 70
     0
 62
     7
  6
CONTINUOUS
370
    -3
390
616
  0
LAYER
  5
36
330
2
100
AcDbSymbolTableRecord
100
AcDbLayerTableRecord
  2
DEFPOINTS
 70
     0
 62
     7
  6
CONTINUOUS
290
     0
370
    -3
390
616
  0
LAYER
  5
280
102
{ACAD_XDICTIONARY
360
46D9F2
102
}
330
2
100
AcDbSymbolTableRecord
100
AcDbLayerTableRecord
  2
実線
 70
     0
 62
     4
  6
CONTINUOUS
370
    -3
390
616
  0
LAYER
  5
2F4
102
{ACAD_XDICTIONARY
360
46D9F4
102
}
330
2
100
AcDbSymbolTableRecord
100
AcDbLayerTableRecord
  2
文字
 70
     0
 62
     7
  6
CONTINUOUS
370
    -3
390
616
  0
LAYER
  5
301
102
{ACAD_XDICTIONARY
360
46D9F6
102
}
330
2
100
AcDbSymbolTableRecord
100
AcDbLayerTableRecord
  2
想像線
 70
     0
 62
     3
  6
PHANTOM
370
    -3
390
616
  0
LAYER
  5
305
102
{ACAD_XDICTIONARY
360
46D9F8
102
}
330
2
100
AcDbSymbolTableRecord
100
AcDbLayerTableRecord
  2
姿図
 70
     0
 62
     8
  6
CONTINUOUS
370
    -3
390
616
  0
LAYER
  5
1616FA
102
{ACAD_XDICTIONARY
360
46D9FA
102
}
330
2
100
AcDbSymbolTableRecord
100
AcDbLayerTableRecord
  2
取付金具
 70
     0
 62
     4
  6
CONTINUOUS
370
    -3
390
616
  0
LAYER
  5
198684
102
{ACAD_XDICTIONARY
360
46DA02
102
}
330
2
100
AcDbSymbolTableRecord
100
AcDbLayerTableRecord
  2
CONT-2
 70
     0
 62
     3
  6
CONTINUOUS
370
    -3
390
616
  0
LAYER
  5
2E1BD2
102
{ACAD_XDICTIONARY
360
46DA06
102
}
330
2
100
AcDbSymbolTableRecord
100
AcDbLayerTableRecord
  2
ﾊｯﾁﾝｸﾞ
 70
     0
 62
     8
  6
CONTINUOUS
370
    -3
390
616
  0
LAYER
  5
2E1BD3
102
{ACAD_XDICTIONARY
360
46DA08
102
}
330
2
100
AcDbSymbolTableRecord
100
AcDbLayerTableRecord
  2
輪郭線
 70
     0
 62
     6
  6
CONTINUOUS
370
    -3
390
616
  0
LAYER
  5
368931
102
{ACAD_XDICTIONARY
360
46DA0E
102
}
330
2
100
AcDbSymbolTableRecord
100
AcDbLayerTableRecord
  2
破線
 70
     0
 62
     3
  6
HIDDEN
370
    -3
390
616
  0
LAYER
  5
3AC0FB
102
{ACAD_XDICTIONARY
360
46DA12
102
}
330
2
100
AcDbSymbolTableRecord
100
AcDbLayerTableRecord
  2
ﾊﾟﾝﾁﾝｸﾞ
 70
     0
 62
     8
  6
CONTINUOUS
370
    -3
390
616
  0
LAYER
  5
3ED740
102
{ACAD_XDICTIONARY
360
46DA1C
102
}
330
2
100
AcDbSymbolTableRecord
100
AcDbLayerTableRecord
  2
Bis
 70
     0
 62
     8
  6
CONTINUOUS
370
    -3
390
616
  0
LAYER
  5
3ED741
102
{ACAD_XDICTIONARY
360
46DA1E
102
}
330
2
100
AcDbSymbolTableRecord
100
AcDbLayerTableRecord
  2
パンチング
 70
     0
 62
     6
  6
CONTINUOUS
370
    -3
390
616
  0
ENDTAB
  0
TABLE
  2
STYLE
  5
3
330
0
100
AcDbSymbolTable
 70
     3
  0
STYLE
  5
10
330
3
100
AcDbSymbolTableRecord
100
AcDbTextStyleTableRecord
  2
STANDARD
 70
     0
 40
0.0
 41
1.0
 50
0.0
 71
     0
 42
3.5
  3
MONOTXT
  4
BIGFONT
  0
STYLE
  5
113DD
330
3
100
AcDbSymbolTableRecord
100
AcDbTextStyleTableRecord
  2
EXTFONT
 70
     0
 40
2.5
 41
1.0
 50
0.0
 71
     0
 42
2.5
  3
txt.shx
  4
extfont
  0
ENDTAB
  0
TABLE
  2
VIEW
  5
6
330
0
100
AcDbSymbolTable
 70
     0
  0
ENDTAB
  0
TABLE
  2
UCS
  5
7
330
0
100
AcDbSymbolTable
 70
     0
  0
ENDTAB
  0
TABLE
  2
APPID
  5
9
330
0
100
AcDbSymbolTable
 70
     8
  0
APPID
  5
11
330
9
100
AcDbSymbolTableRecord
100
AcDbRegAppTableRecord
  2
ACAD
 70
     0
  0
APPID
  5
100B4C
330
9
100
AcDbSymbolTableRecord
100
AcDbRegAppTableRecord
  2
GENIUS_GENODEF_13
 70
     0
  0
APPID
  5
100B4D
330
9
100
AcDbSymbolTableRecord
100
AcDbRegAppTableRecord
  2
GENIUS_GENREC_14
 70
     0
  0
APPID
  5
100B4E
330
9
100
AcDbSymbolTableRecord
100
AcDbRegAppTableRecord
  2
GENIUS_GENOBJ-N-REC_13
 70
     0
  0
APPID
  5
44CC63
330
9
100
AcDbSymbolTableRecord
100
AcDbRegAppTableRecord
  2
DCO15
 70
     0
  0
APPID
  5
46A65A
330
9
100
AcDbSymbolTableRecord
100
AcDbRegAppTableRecord
  2
ACAD_MLEADERVER
 70
     0
  0
APPID
  5
46D9EA
330
9
100
AcDbSymbolTableRecord
100
AcDbRegAppTableRecord
  2
ACAD_EXEMPT_FROM_CAD_STANDARDS
 70
     0
  0
APPID
  5
46DA28
330
9
100
AcDbSymbolTableRecord
100
AcDbRegAppTableRecord
  2
ACAD_PSEXT
 70
     0
  0
ENDTAB
  0
TABLE
  2
DIMSTYLE
  5
A
330
0
100
AcDbSymbolTable
 70
     9
100
AcDbDimStyleTable
  0
DIMSTYLE
105
1CC
330
A
100
AcDbSymbolTableRecord
100
AcDbDimStyleTableRecord
  2
STANDARD
 70
     0
 41
1.5
 42
1.5
 44
1.0
 73
     0
 74
     0
 77
     3
 78
     8
 79
     2
140
2.500000000000003
141
0.0
147
1.0
171
     0
173
     1
176
     8
177
     8
271
     2
178
   256
179
     2
271
     2
272
     2
274
     0
340
10
341
608
343
608
344
608
  0
DIMSTYLE
105
A4E
330
A
100
AcDbSymbolTableRecord
100
AcDbDimStyleTableRecord
  2
STANDARD$0
 70
     0
 41
3.0
 42
0.8
 43
5.0
 44
0.7
 73
     0
 74
     0
 77
     1
 78
     8
140
2.5
147
0.9
171
     0
172
     1
174
     1
176
     8
177
     8
178
     0
271
     2
272
     2
274
     0
284
     8
340
10
341
A48
342
608
  0
DIMSTYLE
105
16B9C8
330
A
100
AcDbSymbolTableRecord
100
AcDbDimStyleTableRecord
  2
STANDARD$2
 70
     0
 40
0.0
 41
2.5
 42
0.8
 43
7.0
 44
1.0
 73
     0
 74
     0
 77
     1
 78
     8
140
3.5
141
0.0
146
0.88
147
0.8
171
     0
172
     1
173
     1
176
     8
177
     8
178
     0
271
     2
272
     2
274
     0
284
     8
285
     8
286
     8
340
10
341
608
343
608
344
608
  0
DIMSTYLE
105
36AB52
330
A
100
AcDbSymbolTableRecord
100
AcDbDimStyleTableRecord
  2
3-1
 70
     0
 41
3.0
 42
0.8
 43
0.6300000000000001
 44
0.6999999999999997
 73
     0
 74
     0
 77
     3
 78
     8
 79
     2
140
2.5
141
0.0
144
0.333333333333333
147
0.7999999999999998
171
     0
172
     1
173
     1
176
     8
177
     8
271
     2
178
   256
179
     2
271
     2
272
     2
274
     0
340
10
341
608
343
608
344
608
371
    -1
372
    -1
  0
DIMSTYLE
105
36AB53
330
A
100
AcDbSymbolTableRecord
100
AcDbDimStyleTableRecord
  2
5-1
 70
     0
 41
3.0
 42
0.8
 43
0.6300000000000001
 44
0.6999999999999997
 73
     0
 74
     0
 77
     3
 78
     8
 79
     2
140
2.5
141
0.0
144
0.2
147
0.7999999999999998
171
     0
173
     1
176
     8
177
     8
271
     2
178
   256
179
     2
271
     2
272
     2
274
     0
340
10
341
608
343
608
344
608
371
    -1
372
    -1
  0
DIMSTYLE
105
3AB363
330
A
100
AcDbSymbolTableRecord
100
AcDbDimStyleTableRecord
  2
STANDERD
 70
     0
 40
0.0
 41
4.0
 42
1.5
 43
3.75
 44
1.25
 73
     0
 74
     0
 77
     3
 78
     8
140
5.0
141
0.0
147
2.5
171
     0
173
     1
178
     0
288
     1
340
10
341
608
343
608
344
608
  0
DIMSTYLE
105
4176DE
330
A
100
AcDbSymbolTableRecord
100
AcDbDimStyleTableRecord
  2
STANDARD-5
 70
     0
 41
7.5
 42
7.5
 43
1.9
 44
5.0
 73
     0
 74
     0
 77
     1
 78
     8
 79
     2
140
12.5
141
0.0
147
3.0
171
     0
173
     1
176
     8
177
     8
271
     2
178
   256
179
     2
271
     2
272
     2
274
     0
340
10
341
608
343
608
344
608
  0
ENDTAB
  0
TABLE
  2
BLOCK_RECORD
  5
1
330
0
100
AcDbSymbolTable
 70
    84
  0
BLOCK_RECORD
  5
18
330
1
100
AcDbSymbolTableRecord
100
AcDbBlockTableRecord
  2
*MODEL_SPACE
340
619
  0
BLOCK_RECORD
  5
15
330
1
100
AcDbSymbolTableRecord
100
AcDbBlockTableRecord
  2
*PAPER_SPACE
340
61A
  0
BLOCK_RECORD
  5
608
330
1
100
AcDbSymbolTableRecord
100
AcDbBlockTableRecord
  2
_OPEN
340
0
102
{BLKREFS
331
3E349F
331
3E34A0
331
3E34AB
331
3E34AC
331
3E34B7
331
3E34B8
331
3E406D
331
3E406E
331
3E4079
331
3E407A
331
3E4085
331
3E4086
331
3E4092
331
3E4093
331
3E409D
331
3E409E
331
419565
331
419566
331
419571
331
419572
331
41957D
331
41957E
331
419589
331
41958A
331
419595
331
419596
331
4195A1
331
4195A2
331
4195AD
331
4195AE
331
4195B9
331
4195BA
331
4195C5
331
4195C6
331
4195D1
331
4195D2
331
4195DF
331
4195E0
331
4195EC
331
4195ED
331
4195F8
331
4195F9
331
419604
331
419605
331
419612
331
419613
331
41961E
331
41961F
331
41962A
331
41962B
331
419636
331
419637
331
419641
331
419642
331
41964F
331
419650
331
41965B
331
41965C
331
419669
331
41966A
331
419677
331
419678
331
419683
331
419684
331
41968F
331
419690
331
41969D
331
41969E
331
4196A9
331
4196AA
331
4196B5
331
4196B6
331
4196C1
331
4196C2
331
4196CF
331
4196D0
331
4196DB
331
4196DC
331
44F342
331
44F346
331
44F34A
331
44F34B
331
44F1AB
331
44F1AC
331
44F19D
331
44F19E
331
44F192
331
44F193
331
44F186
331
44F187
331
44F1BD
331
44F1BE
331
44F17A
331
44F17B
331
45282F
331
452830
331
452838
331
452839
331
452841
331
452842
331
452849
331
45284A
331
452854
331
452855
331
45CB1D
331
45CB1E
331
45CB26
331
45CB27
331
45CB2F
331
45CB30
331
45CB37
331
45CB38
331
45CB42
331
45CB43
331
46A5E2
331
46A5E3
331
46A5EA
331
46A5EB
331
46A5F5
331
46A5F6
331
46A5FE
331
46A5FF
331
46A607
331
46A608
331
470DD4
331
470DD5
331
470DDD
331
470DDE
331
470DE6
331
470DE7
331
470DEF
331
470DF0
331
470DF7
331
470DF8
331
4741A8
331
4741A9
331
4741B1
331
4741B2
331
4741B9
331
4741BA
331
4741C4
331
4741C5
331
4741CD
331
4741CE
331
47758C
331
47758D
331
477595
331
477596
331
47759E
331
47759F
331
4775A6
331
4775A7
331
4775B1
331
4775B2
102
}
  0
BLOCK_RECORD
  5
A48
330
1
100
AcDbSymbolTableRecord
100
AcDbBlockTableRecord
  2
SUN
340
0
  0
BLOCK_RECORD
  5
2D8C93
330
1
100
AcDbSymbolTableRecord
100
AcDbBlockTableRecord
  2
_Open30
340
0
  0
BLOCK_RECORD
  5
3E3498
330
1
100
AcDbSymbolTableRecord
100
AcDbBlockTableRecord
  2
*D4
340
0
  0
BLOCK_RECORD
  5
3E34A6
330
1
100
AcDbSymbolTableRecord
100
AcDbBlockTableRecord
  2
*D5
340
0
  0
BLOCK_RECORD
  5
3E34B2
330
1
100
AcDbSymbolTableRecord
100
AcDbBlockTableRecord
  2
*D6
340
0
  0
BLOCK_RECORD
  5
3E4068
330
1
100
AcDbSymbolTableRecord
100
AcDbBlockTableRecord
  2
*D8
340
0
  0
BLOCK_RECORD
  5
3E4074
330
1
100
AcDbSymbolTableRecord
100
AcDbBlockTableRecord
  2
*D9
340
0
  0
BLOCK_RECORD
  5
3E4080
330
1
100
AcDbSymbolTableRecord
100
AcDbBlockTableRecord
  2
*D10
340
0
  0
BLOCK_RECORD
  5
3E408C
330
1
100
AcDbSymbolTableRecord
100
AcDbBlockTableRecord
  2
*D11
340
0
  0
BLOCK_RECORD
  5
3E4097
330
1
100
AcDbSymbolTableRecord
100
AcDbBlockTableRecord
  2
*D12
340
0
  0
BLOCK_RECORD
  5
419560
330
1
100
AcDbSymbolTableRecord
100
AcDbBlockTableRecord
  2
*D16
340
0
  0
BLOCK_RECORD
  5
41956C
330
1
100
AcDbSymbolTableRecord
100
AcDbBlockTableRecord
  2
*D17
340
0
  0
BLOCK_RECORD
  5
419578
330
1
100
AcDbSymbolTableRecord
100
AcDbBlockTableRecord
  2
*D18
340
0
  0
BLOCK_RECORD
  5
419584
330
1
100
AcDbSymbolTableRecord
100
AcDbBlockTableRecord
  2
*D19
340
0
  0
BLOCK_RECORD
  5
419590
330
1
100
AcDbSymbolTableRecord
100
AcDbBlockTableRecord
  2
*D20
340
0
  0
BLOCK_RECORD
  5
41959C
330
1
100
AcDbSymbolTableRecord
100
AcDbBlockTableRecord
  2
*D21
340
0
  0
BLOCK_RECORD
  5
4195A8
330
1
100
AcDbSymbolTableRecord
100
AcDbBlockTableRecord
  2
*D22
340
0
  0
BLOCK_RECORD
  5
4195B4
330
1
100
AcDbSymbolTableRecord
100
AcDbBlockTableRecord
  2
*D23
340
0
  0
BLOCK_RECORD
  5
4195C0
330
1
100
AcDbSymbolTableRecord
100
AcDbBlockTableRecord
  2
*D24
340
0
  0
BLOCK_RECORD
  5
4195CC
330
1
100
AcDbSymbolTableRecord
100
AcDbBlockTableRecord
  2
*D25
340
0
  0
BLOCK_RECORD
  5
4195D8
330
1
100
AcDbSymbolTableRecord
100
AcDbBlockTableRecord
  2
*D26
340
0
  0
BLOCK_RECORD
  5
4195E6
330
1
100
AcDbSymbolTableRecord
100
AcDbBlockTableRecord
  2
*D27
340
0
  0
BLOCK_RECORD
  5
4195F3
330
1
100
AcDbSymbolTableRecord
100
AcDbBlockTableRecord
  2
*D28
340
0
  0
BLOCK_RECORD
  5
4195FF
330
1
100
AcDbSymbolTableRecord
100
AcDbBlockTableRecord
  2
*D29
340
0
  0
BLOCK_RECORD
  5
41960B
330
1
100
AcDbSymbolTableRecord
100
AcDbBlockTableRecord
  2
*D30
340
0
  0
BLOCK_RECORD
  5
419619
330
1
100
AcDbSymbolTableRecord
100
AcDbBlockTableRecord
  2
*D31
340
0
  0
BLOCK_RECORD
  5
419625
330
1
100
AcDbSymbolTableRecord
100
AcDbBlockTableRecord
  2
*D32
340
0
  0
BLOCK_RECORD
  5
419631
330
1
100
AcDbSymbolTableRecord
100
AcDbBlockTableRecord
  2
*D33
340
0
  0
BLOCK_RECORD
  5
41963D
330
1
100
AcDbSymbolTableRecord
100
AcDbBlockTableRecord
  2
*D34
340
0
  0
BLOCK_RECORD
  5
41964A
330
1
100
AcDbSymbolTableRecord
100
AcDbBlockTableRecord
  2
*D35
340
0
  0
BLOCK_RECORD
  5
419656
330
1
100
AcDbSymbolTableRecord
100
AcDbBlockTableRecord
  2
*D36
340
0
  0
BLOCK_RECORD
  5
419662
330
1
100
AcDbSymbolTableRecord
100
AcDbBlockTableRecord
  2
*D37
340
0
  0
BLOCK_RECORD
  5
419670
330
1
100
AcDbSymbolTableRecord
100
AcDbBlockTableRecord
  2
*D38
340
0
  0
BLOCK_RECORD
  5
41967E
330
1
100
AcDbSymbolTableRecord
100
AcDbBlockTableRecord
  2
*D39
340
0
  0
BLOCK_RECORD
  5
41968A
330
1
100
AcDbSymbolTableRecord
100
AcDbBlockTableRecord
  2
*D40
340
0
  0
BLOCK_RECORD
  5
419696
330
1
100
AcDbSymbolTableRecord
100
AcDbBlockTableRecord
  2
*D41
340
0
  0
BLOCK_RECORD
  5
4196A4
330
1
100
AcDbSymbolTableRecord
100
AcDbBlockTableRecord
  2
*D42
340
0
  0
BLOCK_RECORD
  5
4196B0
330
1
100
AcDbSymbolTableRecord
100
AcDbBlockTableRecord
  2
*D43
340
0
  0
BLOCK_RECORD
  5
4196BC
330
1
100
AcDbSymbolTableRecord
100
AcDbBlockTableRecord
  2
*D44
340
0
  0
BLOCK_RECORD
  5
4196C8
330
1
100
AcDbSymbolTableRecord
100
AcDbBlockTableRecord
  2
*D45
340
0
  0
BLOCK_RECORD
  5
4196D6
330
1
100
AcDbSymbolTableRecord
100
AcDbBlockTableRecord
  2
*D46
340
0
  0
BLOCK_RECORD
  5
44F175
330
1
100
AcDbSymbolTableRecord
100
AcDbBlockTableRecord
  2
*D52
340
0
  0
BLOCK_RECORD
  5
44F181
330
1
100
AcDbSymbolTableRecord
100
AcDbBlockTableRecord
  2
*D53
340
0
  0
BLOCK_RECORD
  5
44F18D
330
1
100
AcDbSymbolTableRecord
100
AcDbBlockTableRecord
  2
*D54
340
0
  0
BLOCK_RECORD
  5
44F199
330
1
100
AcDbSymbolTableRecord
100
AcDbBlockTableRecord
  2
*D55
340
0
  0
BLOCK_RECORD
  5
44F1A6
330
1
100
AcDbSymbolTableRecord
100
AcDbBlockTableRecord
  2
*D56
340
0
  0
ENDTAB
  0
ENDSEC
  0
SECTION
  2
BLOCKS
  0
BLOCK
  5
39
330
18
100
AcDbEntity
  8
0
100
AcDbBlockBegin
  2
*MODEL_SPACE
 70
     0
 10
0.0
 20
0.0
 30
0.0
  3
*MODEL_SPACE
  1
*MODEL_SPACE
  0
ENDBLK
  5
3A
330
18
100
AcDbEntity
  8
0
100
AcDbBlockEnd
  0
BLOCK
  5
37
330
15
100
AcDbEntity
 67
     1
  8
0
100
AcDbBlockBegin
  2
*PAPER_SPACE
 70
     0
 10
0.0
 20
0.0
 30
0.0
  3
*PAPER_SPACE
  1
*PAPER_SPACE
  0
ENDBLK
  5
38
330
15
100
AcDbEntity
 67
     1
  8
0
100
AcDbBlockEnd
  0
BLOCK
  5
609
330
608
100
AcDbEntity
  8
0
100
AcDbBlockBegin
  2
_OPEN
 70
     0
 10
0.0
 20
0.0
 30
0.0
  3
_OPEN
  1
_OPEN
  0
LINE
  5
60A
330
608
100
AcDbEntity
  8
0
  6
ByBlock
 62
     0
100
AcDbLine
 10
-1.0
 20
0.1666666666666667
 30
0.0
 11
0.0
 21
0.0
 31
0.0
  0
LINE
  5
60B
330
608
100
AcDbEntity
  8
0
  6
ByBlock
 62
     0
100
AcDbLine
 10
0.0
 20
0.0
 30
0.0
 11
-1.0
 21
-0.1666666666666667
 31
0.0
  0
LINE
  5
60C
330
608
100
AcDbEntity
  8
0
  6
ByBlock
 62
     0
100
AcDbLine
 10
0.0
 20
0.0
 30
0.0
 11
-1.0
 21
0.0
 31
0.0
  0
ENDBLK
  5
60D
330
608
100
AcDbEntity
  8
0
100
AcDbBlockEnd
  0
BLOCK
  5
A49
330
A48
100
AcDbEntity
  8
0
100
AcDbBlockBegin
  2
SUN
 70
     0
 10
0.0
 20
0.0
 30
0.0
  3
SUN
  1
SUN
  0
LINE
  5
A4A
330
A48
100
AcDbEntity
  8
0
100
AcDbLine
 10
-0.0000000000000568
 20
0.0
 30
0.0
 11
-1.500000000000057
 21
0.0
 31
0.0
  0
LINE
  5
A4B
330
A48
100
AcDbEntity
  8
0
100
AcDbLine
 10
-0.0000000000000568
 20
0.0000000000000284
 30
0.0
 11
-1.500000000000057
 21
0.401923788646684
 31
0.0
  0
LINE
  5
A4C
330
A48
100
AcDbEntity
  8
0
100
AcDbLine
 10
-0.0000000000000568
 20
0.0000000000000284
 30
0.0
 11
-1.500000000000057
 21
-0.4019237886466556
 31
0.0
  0
ENDBLK
  5
A4D
330
A48
100
AcDbEntity
  8
0
100
AcDbBlockEnd
  0
BLOCK
  5
2D8C94
330
2D8C93
100
AcDbEntity
  8
0
100
AcDbBlockBegin
  2
_Open30
 70
     0
 10
0.0
 20
0.0
 30
0.0
  3
_Open30
  1
_Open30
  0
LINE
  5
2D8C95
330
2D8C93
100
AcDbEntity
  8
0
  6
ByBlock
 62
     0
370
    -2
100
AcDbLine
 10
-1.0
 20
0.26794919
 30
0.0
 11
0.0
 21
0.0
 31
0.0
  0
LINE
  5
2D8C96
330
2D8C93
100
AcDbEntity
  8
0
  6
ByBlock
 62
     0
370
    -2
100
AcDbLine
 10
0.0
 20
0.0
 30
0.0
 11
-1.0
 21
-0.26794919
 31
0.0
  0
LINE
  5
2D8C97
330
2D8C93
100
AcDbEntity
  8
0
  6
ByBlock
 62
     0
370
    -2
100
AcDbLine
 10
0.0
 20
0.0
 30
0.0
 11
-1.0
 21
0.0
 31
0.0
  0
ENDBLK
  5
2D8C98
330
2D8C93
100
AcDbEntity
  8
0
100
AcDbBlockEnd
  0
BLOCK
  5
3E3499
330
3E3498
100
AcDbEntity
  8
0
100
AcDbBlockBegin
  2
*D4
 70
     1
 10
0.0
 20
0.0
 30
0.0
  3
*D4
  1
*D4
  0
LINE
  5
3E349A
330
3E3498
100
AcDbEntity
  8
寸法線
 62
     8
370
    -2
100
AcDbLine
 10
53638.55919622399
 20
-33267.45274351017
 30
0.0
 11
53638.55919622399
 21
-33258.65875277686
 31
0.0
  0
LINE
  5
3E349B
330
3E3498
100
AcDbEntity
  8
寸法線
 62
     8
370
    -2
100
AcDbLine
 10
53643.95816190504
 20
-33262.97274350705
 30
0.0
 11
53643.95816190504
 21
-33258.65875277686
 31
0.0
  0
LINE
  5
3E349C
330
3E3498
100
AcDbEntity
  8
寸法線
 62
     8
370
    -2
100
AcDbLine
 10
53645.95816190504
 20
-33259.35875277686
 30
0.0
 11
53647.95816190504
 21
-33259.35875277686
 31
0.0
  0
LINE
  5
3E349D
330
3E3498
100
AcDbEntity
  8
寸法線
 62
     8
370
    -2
100
AcDbLine
 10
53636.55919622399
 20
-33259.35875277686
 30
0.0
 11
53614.09252955732
 21
-33259.35875277686
 31
0.0
  0
LINE
  5
3E349E
330
3E3498
100
AcDbEntity
  8
寸法線
 62
     8
370
    -2
100
AcDbLine
 10
53643.95816190504
 20
-33259.35875277686
 30
0.0
 11
53638.55919622399
 21
-33259.35875277686
 31
0.0
  0
INSERT
  5
3E349F
330
3E3498
100
AcDbEntity
  8
寸法線
 62
     8
370
    -2
100
AcDbBlockReference
  2
_OPEN
 10
53643.95816190504
 20
-33259.35875277686
 30
0.0
 41
2.0
 42
2.0
 43
2.0
 50
180.0
  0
INSERT
  5
3E34A0
330
3E3498
100
AcDbEntity
  8
寸法線
 62
     8
370
    -2
100
AcDbBlockReference
  2
_OPEN
 10
53638.55919622399
 20
-33259.35875277686
 30
0.0
 41
2.0
 42
2.0
 43
2.0
  0
MTEXT
  5
3E34A1
330
3E3498
100
AcDbEntity
  8
寸法線
 62
     0
100
AcDbMText
 10
53624.32586289066
 20
-33254.95875277686
 30
0.0
 40
7.0
 41
0.0
 71
     5
 72
     1
  1
\A1;5.4
 73
     1
 44
1.0
  0
POINT
  5
3E34A2
330
3E3498
100
AcDbEntity
  8
DEFPOINTS
 62
     0
100
AcDbPoint
 10
53638.55919622399
 20
-33268.25274351017
 30
-0.0000000000005757
  0
POINT
  5
3E34A3
330
3E3498
100
AcDbEntity
  8
DEFPOINTS
 62
     0
100
AcDbPoint
 10
53643.95816190504
 20
-33263.77274350706
 30
-0.0000000000005757
  0
POINT
  5
3E34A4
330
3E3498
100
AcDbEntity
  8
DEFPOINTS
 62
     0
100
AcDbPoint
 10
53643.95816190504
 20
-33259.35875277686
 30
0.0
  0
ENDBLK
  5
3E34A5
330
3E3498
100
AcDbEntity
  8
0
100
AcDbBlockEnd
  0
BLOCK
  5
3E34A7
330
3E34A6
100
AcDbEntity
  8
0
100
AcDbBlockBegin
  2
*D5
 70
     1
 10
0.0
 20
0.0
 30
0.0
  3
*D5
  1
*D5
  0
LINE
  5
3E34A8
330
3E34A6
100
AcDbEntity
  8
寸法線
 62
     8
370
    -2
100
AcDbLine
 10
53642.35816190501
 20
-33263.77274350706
 30
0.0
 11
53607.353487624
 21
-33263.77274350706
 31
0.0
  0
LINE
  5
3E34A9
330
3E34A6
100
AcDbEntity
  8
寸法線
 62
     8
370
    -2
100
AcDbLine
 10
53642.358161905
 20
-33499.27334874654
 30
0.0
 11
53607.353487624
 21
-33499.27334874654
 31
0.0
  0
LINE
  5
3E34AA
330
3E34A6
100
AcDbEntity
  8
寸法線
 62
     8
370
    -2
100
AcDbLine
 10
53608.053487624
 20
-33265.77274350706
 30
0.0
 11
53608.053487624
 21
-33497.27334874654
 31
0.0
  0
INSERT
  5
3E34AB
330
3E34A6
100
AcDbEntity
  8
寸法線
 62
     8
370
    -2
100
AcDbBlockReference
  2
_OPEN
 10
53608.053487624
 20
-33263.77274350706
 30
0.0
 41
2.0
 42
2.0
 43
2.0
 50
90.0
  0
INSERT
  5
3E34AC
330
3E34A6
100
AcDbEntity
  8
寸法線
 62
     8
370
    -2
100
AcDbBlockReference
  2
_OPEN
 10
53608.053487624
 20
-33499.27334874654
 30
0.0
 41
2.0
 42
2.0
 43
2.0
 50
270.0
  0
MTEXT
  5
3E34AD
330
3E34A6
100
AcDbEntity
  8
寸法線
 62
     0
100
AcDbMText
 10
53602.253487624
 20
-33381.52304612679
 30
0.0
 40
7.0
 41
0.0
 71
     5
 72
     1
  1
\A1;235.5{\H4.200000;\S+0^ -0.5;}
 11
6.123031769111886E-17
 21
1.0
 31
0.0
 73
     1
 44
1.0
  0
POINT
  5
3E34AE
330
3E34A6
100
AcDbEntity
  8
DEFPOINTS
 62
     0
100
AcDbPoint
 10
53643.15816190501
 20
-33263.77274350706
 30
-0.0000000000005757
  0
POINT
  5
3E34AF
330
3E34A6
100
AcDbEntity
  8
DEFPOINTS
 62
     0
100
AcDbPoint
 10
53643.158161905
 20
-33499.27334874654
 30
-0.0000000000005757
  0
POINT
  5
3E34B0
330
3E34A6
100
AcDbEntity
  8
DEFPOINTS
 62
     0
100
AcDbPoint
 10
53608.053487624
 20
-33499.27334874654
 30
0.0
  0
ENDBLK
  5
3E34B1
330
3E34A6
100
AcDbEntity
  8
0
100
AcDbBlockEnd
  0
BLOCK
  5
3E34B3
330
3E34B2
100
AcDbEntity
  8
0
100
AcDbBlockBegin
  2
*D6
 70
     1
 10
0.0
 20
0.0
 30
0.0
  3
*D6
  1
*D6
  0
LINE
  5
3E34B4
330
3E34B2
100
AcDbEntity
  8
寸法線
 62
     8
370
    -2
100
AcDbLine
 10
53637.75919622398
 20
-33268.25274351017
 30
0.0
 11
53628.45172042761
 21
-33268.25274351017
 31
0.0
  0
LINE
  5
3E34B5
330
3E34B2
100
AcDbEntity
  8
寸法線
 62
     8
370
    -2
100
AcDbLine
 10
53637.75919622397
 20
-33494.79334874342
 30
0.0
 11
53628.45172042761
 21
-33494.79334874342
 31
0.0
  0
LINE
  5
3E34B6
330
3E34B2
100
AcDbEntity
  8
寸法線
 62
     8
370
    -2
100
AcDbLine
 10
53629.15172042761
 20
-33270.25274351017
 30
0.0
 11
53629.15172042761
 21
-33492.79334874342
 31
0.0
  0
INSERT
  5
3E34B7
330
3E34B2
100
AcDbEntity
  8
寸法線
 62
     8
370
    -2
100
AcDbBlockReference
  2
_OPEN
 10
53629.15172042761
 20
-33268.25274351017
 30
0.0
 41
2.0
 42
2.0
 43
2.0
 50
90.0
  0
INSERT
  5
3E34B8
330
3E34B2
100
AcDbEntity
  8
寸法線
 62
     8
370
    -2
100
AcDbBlockReference
  2
_OPEN
 10
53629.15172042761
 20
-33494.79334874342
 30
0.0
 41
2.0
 42
2.0
 43
2.0
 50
270.0
  0
MTEXT
  5
3E34B9
330
3E34B2
100
AcDbEntity
  8
寸法線
 62
     0
100
AcDbMText
 10
53623.35172042761
 20
-33381.52304612678
 30
0.0
 40
7.0
 41
0.0
 71
     5
 72
     1
  1
\A1;226.5{\H4.200000;\S-0.5^ -0;}（内寸）
 11
6.123031769111886E-17
 21
1.0
 31
0.0
 73
     1
 44
1.0
  0
POINT
  5
3E34BA
330
3E34B2
100
AcDbEntity
  8
DEFPOINTS
 62
     0
100
AcDbPoint
 10
53638.55919622399
 20
-33268.25274351017
 30
-0.0000000000005757
  0
POINT
  5
3E34BB
330
3E34B2
100
AcDbEntity
  8
DEFPOINTS
 62
     0
100
AcDbPoint
 10
53638.55919622398
 20
-33494.79334874342
 30
-0.0000000000005757
  0
POINT
  5
3E34BC
330
3E34B2
100
AcDbEntity
  8
DEFPOINTS
 62
     0
100
AcDbPoint
 10
53629.15172042761
 20
-33494.79334874342
 30
0.0
  0
ENDBLK
  5
3E34BD
330
3E34B2
100
AcDbEntity
  8
0
100
AcDbBlockEnd
  0
BLOCK
  5
3E4069
330
3E4068
100
AcDbEntity
  8
0
100
AcDbBlockBegin
  2
*D8
 70
     1
 10
0.0
 20
0.0
 30
0.0
  3
*D8
  1
*D8
  0
LINE
  5
3E406A
330
3E4068
100
AcDbEntity
  8
寸法線
 62
     8
370
    -2
100
AcDbLine
 10
54281.93090078419
 20
-32674.68303710658
 30
0.0
 11
54281.93090078419
 21
-32696.17351121044
 31
0.0
  0
LINE
  5
3E406B
330
3E4068
100
AcDbEntity
  8
寸法線
 62
     8
370
    -2
100
AcDbLine
 10
54353.43090078409
 20
-32674.68303710658
 30
0.0
 11
54353.43090078409
 21
-32696.17351121044
 31
0.0
  0
LINE
  5
3E406C
330
3E4068
100
AcDbEntity
  8
寸法線
 62
     8
370
    -2
100
AcDbLine
 10
54283.93090078419
 20
-32695.47351121044
 30
0.0
 11
54351.43090078409
 21
-32695.47351121044
 31
0.0
  0
INSERT
  5
3E406D
330
3E4068
100
AcDbEntity
  8
寸法線
 62
     8
370
    -2
100
AcDbBlockReference
  2
_OPEN
 10
54281.93090078419
 20
-32695.47351121044
 30
0.0
 41
2.0
 42
2.0
 43
2.0
 50
180.0
  0
INSERT
  5
3E406E
330
3E4068
100
AcDbEntity
  8
寸法線
 62
     8
370
    -2
100
AcDbBlockReference
  2
_OPEN
 10
54353.43090078409
 20
-32695.47351121044
 30
0.0
 41
2.0
 42
2.0
 43
2.0
  0
MTEXT
  5
3E406F
330
3E4068
100
AcDbEntity
  8
寸法線
 62
     0
100
AcDbMText
 10
54317.68090078414
 20
-32689.67351121044
 30
0.0
 40
7.0
 41
0.0
 71
     5
 72
     1
  1
\A1;71.5{\H4.200000;\S+0^ -0.2;}
 73
     1
 44
1.0
  0
POINT
  5
3E4070
330
3E4068
100
AcDbEntity
  8
DEFPOINTS
 62
     0
100
AcDbPoint
 10
54281.93090078419
 20
-32673.88303710659
 30
-0.0000000006599858
  0
POINT
  5
3E4071
330
3E4068
100
AcDbEntity
  8
DEFPOINTS
 62
     0
100
AcDbPoint
 10
54353.43090078409
 20
-32673.88303710659
 30
-0.0000000006599858
  0
POINT
  5
3E4072
330
3E4068
100
AcDbEntity
  8
DEFPOINTS
 62
     0
100
AcDbPoint
 10
54353.43090078409
 20
-32695.47351121044
 30
0.0
  0
ENDBLK
  5
3E4073
330
3E4068
100
AcDbEntity
  8
0
100
AcDbBlockEnd
  0
BLOCK
  5
3E4075
330
3E4074
100
AcDbEntity
  8
0
100
AcDbBlockBegin
  2
*D9
 70
     1
 10
0.0
 20
0.0
 30
0.0
  3
*D9
  1
*D9
  0
LINE
  5
3E4076
330
3E4074
100
AcDbEntity
  8
寸法線
 62
     8
370
    -2
100
AcDbLine
 10
54366.4213461247
 20
-32542.14499363244
 30
0.0
 11
54395.79866478049
 21
-32542.14499363244
 31
0.0
  0
LINE
  5
3E4077
330
3E4074
100
AcDbEntity
  8
寸法線
 62
     8
370
    -2
100
AcDbLine
 10
54366.4213461247
 20
-32642.14499363244
 30
0.0
 11
54395.79866478049
 21
-32642.14499363244
 31
0.0
  0
LINE
  5
3E4078
330
3E4074
100
AcDbEntity
  8
寸法線
 62
     8
370
    -2
100
AcDbLine
 10
54395.09866478049
 20
-32544.14499363244
 30
0.0
 11
54395.09866478049
 21
-32640.14499363244
 31
0.0
  0
INSERT
  5
3E4079
330
3E4074
100
AcDbEntity
  8
寸法線
 62
     8
370
    -2
100
AcDbBlockReference
  2
_OPEN
 10
54395.09866478049
 20
-32542.14499363244
 30
0.0
 41
2.0
 42
2.0
 43
2.0
 50
90.0
  0
INSERT
  5
3E407A
330
3E4074
100
AcDbEntity
  8
寸法線
 62
     8
370
    -2
100
AcDbBlockReference
  2
_OPEN
 10
54395.09866478049
 20
-32642.14499363244
 30
0.0
 41
2.0
 42
2.0
 43
2.0
 50
270.0
  0
MTEXT
  5
3E407B
330
3E4074
100
AcDbEntity
  8
寸法線
 62
     0
100
AcDbMText
 10
54390.6986647805
 20
-32592.14499363243
 30
0.0
 40
7.0
 41
0.0
 71
     5
 72
     1
  1
\A1;100
 11
6.123031769111886E-17
 21
1.0
 31
0.0
 73
     1
 44
1.0
  0
POINT
  5
3E407C
330
3E4074
100
AcDbEntity
  8
DEFPOINTS
 62
     0
100
AcDbPoint
 10
54365.6213461247
 20
-32542.14499363244
 30
-0.0000000006599858
  0
POINT
  5
3E407D
330
3E4074
100
AcDbEntity
  8
DEFPOINTS
 62
     0
100
AcDbPoint
 10
54365.6213461247
 20
-32642.14499363244
 30
-0.0000000006599858
  0
POINT
  5
3E407E
330
3E4074
100
AcDbEntity
  8
DEFPOINTS
 62
     0
100
AcDbPoint
 10
54395.09866478049
 20
-32642.14499363244
 30
0.0
  0
ENDBLK
  5
3E407F
330
3E4074
100
AcDbEntity
  8
0
100
AcDbBlockEnd
  0
BLOCK
  5
3E4081
330
3E4080
100
AcDbEntity
  8
0
100
AcDbBlockBegin
  2
*D10
 70
     1
 10
0.0
 20
0.0
 30
0.0
  3
*D10
  1
*D10
  0
LINE
  5
3E4082
330
3E4080
100
AcDbEntity
  8
寸法線
 62
     8
370
    -2
100
AcDbLine
 10
54277.50109263608
 20
-32670.64499363239
 30
0.0
 11
54260.97243285539
 21
-32670.64499363239
 31
0.0
  0
LINE
  5
3E4083
330
3E4080
100
AcDbEntity
  8
寸法線
 62
     8
370
    -2
100
AcDbLine
 10
54277.50109263609
 20
-32613.64499363238
 30
0.0
 11
54260.97243285539
 21
-32613.64499363238
 31
0.0
  0
LINE
  5
3E4084
330
3E4080
100
AcDbEntity
  8
寸法線
 62
     8
370
    -2
100
AcDbLine
 10
54261.67243285539
 20
-32668.64499363239
 30
0.0
 11
54261.67243285539
 21
-32615.64499363238
 31
0.0
  0
INSERT
  5
3E4085
330
3E4080
100
AcDbEntity
  8
寸法線
 62
     8
370
    -2
100
AcDbBlockReference
  2
_OPEN
 10
54261.67243285539
 20
-32670.64499363239
 30
0.0
 41
2.0
 42
2.0
 43
2.0
 50
270.0
  0
INSERT
  5
3E4086
330
3E4080
100
AcDbEntity
  8
寸法線
 62
     8
370
    -2
100
AcDbBlockReference
  2
_OPEN
 10
54261.67243285539
 20
-32613.64499363238
 30
0.0
 41
2.0
 42
2.0
 43
2.0
 50
90.0
  0
MTEXT
  5
3E4087
330
3E4080
100
AcDbEntity
  8
寸法線
 62
     0
100
AcDbMText
 10
54257.2724328554
 20
-32642.14499363238
 30
0.0
 40
7.0
 41
0.0
 71
     5
 72
     1
  1
\A1;57
 11
6.123031769111886E-17
 21
1.0
 31
0.0
 73
     1
 44
1.0
  0
POINT
  5
3E4088
330
3E4080
100
AcDbEntity
  8
DEFPOINTS
 62
     0
100
AcDbPoint
 10
54278.30109263609
 20
-32670.64499363239
 30
-0.0000000000005757
  0
POINT
  5
3E4089
330
3E4080
100
AcDbEntity
  8
DEFPOINTS
 62
     0
100
AcDbPoint
 10
54278.30109263609
 20
-32613.64499363238
 30
-0.0000000000005757
  0
POINT
  5
3E408A
330
3E4080
100
AcDbEntity
  8
DEFPOINTS
 62
     0
100
AcDbPoint
 10
54261.67243285539
 20
-32613.64499363238
 30
0.0
  0
ENDBLK
  5
3E408B
330
3E4080
100
AcDbEntity
  8
0
100
AcDbBlockEnd
  0
BLOCK
  5
3E408D
330
3E408C
100
AcDbEntity
  8
0
100
AcDbBlockBegin
  2
*D11
 70
     1
 10
0.0
 20
0.0
 30
0.0
  3
*D11
  1
*D11
  0
LINE
  5
3E408E
330
3E408C
100
AcDbEntity
  8
寸法線
 62
     8
370
    -2
100
AcDbLine
 10
54414.48220508423
 20
-32667.03495116171
 30
0.0
 11
54355.21017083547
 21
-32651.79467701671
 31
0.0
  0
LINE
  5
3E408F
330
3E408C
100
AcDbEntity
  8
寸法線
 62
     8
370
    -2
100
AcDbLine
 10
54280.15163073287
 20
-32632.49531024813
 30
0.0
 11
54278.21463614958
 21
-32631.99726207346
 31
0.0
  0
MTEXT
  5
3E4090
330
3E408C
100
AcDbEntity
  8
寸法線
 62
     0
100
AcDbMText
 10
54386.91039123578
 20
-32655.4024500933
 30
0.0
 40
7.0
 41
0.0
 71
     5
 72
     1
  1
\A1;2-\U+220573.5穴
 11
0.9684972916463023
 21
-0.2490240873365012
 31
0.0
 73
     1
 44
1.0
  0
LINE
  5
3E4091
330
3E408C
100
AcDbEntity
  8
寸法線
 62
     8
370
    -2
100
AcDbLine
 10
54282.08862531616
 20
-32632.99335842281
 30
0.0
 11
54353.27317625219
 21
-32651.29662884204
 31
0.0
  0
INSERT
  5
3E4092
330
3E408C
100
AcDbEntity
  8
寸法線
 62
     8
370
    -2
100
AcDbBlockReference
  2
_OPEN
 10
54282.08862531616
 20
-32632.99335842281
 30
0.0
 41
2.0
 42
2.0
 43
2.0
 50
345.5802297740081
  0
INSERT
  5
3E4093
330
3E408C
100
AcDbEntity
  8
寸法線
 62
     8
370
    -2
100
AcDbBlockReference
  2
_OPEN
 10
54353.27317625219
 20
-32651.29662884204
 30
0.0
 41
2.0
 42
2.0
 43
2.0
 50
165.5802297740081
  0
POINT
  5
3E4094
330
3E408C
100
AcDbEntity
  8
DEFPOINTS
 62
     0
100
AcDbPoint
 10
54353.27317625219
 20
-32651.29662884204
 30
-0.0000000000002725
  0
POINT
  5
3E4095
330
3E408C
100
AcDbEntity
  8
DEFPOINTS
 62
     0
100
AcDbPoint
 10
54282.08862531616
 20
-32632.99335842281
 30
-0.0000000000008789
  0
ENDBLK
  5
3E4096
330
3E408C
100
AcDbEntity
  8
0
100
AcDbBlockEnd
  0
BLOCK
  5
3E4098
330
3E4097
100
AcDbEntity
  8
0
100
AcDbBlockBegin
  2
*D12
 70
     1
 10
0.0
 20
0.0
 30
0.0
  3
*D12
  1
*D12
  0
LINE
  5
3E4099
330
3E4097
100
AcDbEntity
  8
寸法線
 62
     8
370
    -2
100
AcDbLine
 10
54409.48378144718
 20
-32684.95223198825
 30
0.0
 11
54356.96751296076
 21
-32671.54769752178
 31
0.0
  0
LINE
  5
3E409A
330
3E4097
100
AcDbEntity
  8
寸法線
 62
     8
370
    -2
100
AcDbLine
 10
54349.89428860739
 20
-32669.74228974307
 30
0.0
 11
54347.95641892155
 21
-32669.24765747494
 31
0.0
  0
MTEXT
  5
3E409B
330
3E4097
100
AcDbEntity
  8
寸法線
 62
     0
100
AcDbMText
 10
54385.28277303679
 20
-32674.23396758022
 30
0.0
 40
7.0
 41
0.0
 71
     5
 72
     1
  1
\A1;8-\U+22053.3穴
 11
0.968934842922789
 21
-0.2473161340676961
 31
0.0
 73
     1
 44
1.0
  0
LINE
  5
3E409C
330
3E4097
100
AcDbEntity
  8
寸法線
 62
     8
370
    -2
100
AcDbLine
 10
54351.83215829323
 20
-32670.23692201121
 30
0.0
 11
54355.02964327492
 21
-32671.05306525364
 31
0.0
  0
INSERT
  5
3E409D
330
3E4097
100
AcDbEntity
  8
寸法線
 62
     8
370
    -2
100
AcDbBlockReference
  2
_OPEN
 10
54351.83215829323
 20
-32670.23692201121
 30
0.0
 41
2.0
 42
2.0
 43
2.0
 50
345.6812485264198
  0
INSERT
  5
3E409E
330
3E4097
100
AcDbEntity
  8
寸法線
 62
     8
370
    -2
100
AcDbBlockReference
  2
_OPEN
 10
54355.02964327492
 20
-32671.05306525364
 30
0.0
 41
2.0
 42
2.0
 43
2.0
 50
165.6812485264198
  0
POINT
  5
3E409F
330
3E4097
100
AcDbEntity
  8
DEFPOINTS
 62
     0
100
AcDbPoint
 10
54355.02964327492
 20
-32671.05306525364
 30
-0.0000000000005429
  0
POINT
  5
3E40A0
330
3E4097
100
AcDbEntity
  8
DEFPOINTS
 62
     0
100
AcDbPoint
 10
54351.83215829323
 20
-32670.23692201121
 30
-0.0000000000006085
  0
ENDBLK
  5
3E40A1
330
3E4097
100
AcDbEntity
  8
0
100
AcDbBlockEnd
  0
BLOCK
  5
419561
330
419560
100
AcDbEntity
  8
0
100
AcDbBlockBegin
  2
*D16
 70
     1
 10
0.0
 20
0.0
 30
0.0
  3
*D16
  1
*D16
  0
LINE
  5
419562
330
419560
100
AcDbEntity
  8
寸法線
 62
     8
370
    -2
100
AcDbLine
 10
52995.99709124009
 20
-31506.36484938963
 30
-0.0000000000004022
 11
52995.42467023124
 21
-31506.36484938963
 31
-0.0000000000004022
  0
LINE
  5
419563
330
419560
100
AcDbEntity
  8
寸法線
 62
     8
370
    -2
100
AcDbLine
 10
53015.53249184434
 20
-31495.36484946336
 30
-0.0000000000004022
 11
52995.42467023124
 21
-31495.36484946336
 31
-0.0000000000004022
  0
LINE
  5
419564
330
419560
100
AcDbEntity
  8
寸法線
 62
     8
370
    -2
100
AcDbLine
 10
52996.12467023123
 20
-31504.36484938963
 30
-0.0000000000004022
 11
52996.12467023123
 21
-31497.36484946336
 31
-0.0000000000004022
  0
INSERT
  5
419565
330
419560
100
AcDbEntity
  8
寸法線
 62
     8
370
    -2
100
AcDbBlockReference
  2
_OPEN
 10
52996.12467023123
 20
-31506.36484938963
 30
-0.0000000000004022
 41
2.0
 42
2.0
 43
2.0
 50
270.0
  0
INSERT
  5
419566
330
419560
100
AcDbEntity
  8
寸法線
 62
     8
370
    -2
100
AcDbBlockReference
  2
_OPEN
 10
52996.12467023123
 20
-31495.36484946336
 30
-0.0000000000004022
 41
2.0
 42
2.0
 43
2.0
 50
90.0
  0
MTEXT
  5
419567
330
419560
100
AcDbEntity
  8
寸法線
 62
     0
100
AcDbMText
 10
52994.22467023124
 20
-31500.86484942583
 30
-0.0000000000004022
 40
2.0
 41
0.0
 71
     5
 72
     1
  1
\A1;11
 11
6.123031769111886E-17
 21
1.0
 31
0.0
 73
     1
 44
1.0
  0
POINT
  5
419568
330
419560
100
AcDbEntity
  8
DEFPOINTS
 62
     0
100
AcDbPoint
 10
52996.49709124009
 20
-31506.36484938963
 30
-0.0000000000004022
  0
POINT
  5
419569
330
419560
100
AcDbEntity
  8
DEFPOINTS
 62
     0
100
AcDbPoint
 10
53016.03249184434
 20
-31495.36484946336
 30
-0.0000000000004022
  0
POINT
  5
41956A
330
419560
100
AcDbEntity
  8
DEFPOINTS
 62
     0
100
AcDbPoint
 10
52996.12467023123
 20
-31495.36484946336
 30
-0.0000000000004022
  0
ENDBLK
  5
41956B
330
419560
100
AcDbEntity
  8
0
100
AcDbBlockEnd
  0
BLOCK
  5
41956D
330
41956C
100
AcDbEntity
  8
0
100
AcDbBlockBegin
  2
*D17
 70
     1
 10
0.0
 20
0.0
 30
0.0
  3
*D17
  1
*D17
  0
LINE
  5
41956E
330
41956C
100
AcDbEntity
  8
寸法線
 62
     8
370
    -2
100
AcDbLine
 10
53015.53249184434
 20
-31495.36484946336
 30
-0.0000000000004022
 11
52991.60359541504
 21
-31495.36484946336
 31
-0.0000000000004022
  0
LINE
  5
41956F
330
41956C
100
AcDbEntity
  8
寸法線
 62
     8
370
    -2
100
AcDbLine
 10
52994.14542433512
 20
-31507.86484938153
 30
-0.0000000000004022
 11
52991.60359541504
 21
-31507.86484938153
 31
-0.0000000000004022
  0
LINE
  5
419570
330
41956C
100
AcDbEntity
  8
寸法線
 62
     8
370
    -2
100
AcDbLine
 10
52992.30359541504
 20
-31497.36484946336
 30
-0.0000000000004022
 11
52992.30359541504
 21
-31505.86484938153
 31
-0.0000000000004022
  0
INSERT
  5
419571
330
41956C
100
AcDbEntity
  8
寸法線
 62
     8
370
    -2
100
AcDbBlockReference
  2
_OPEN
 10
52992.30359541504
 20
-31495.36484946336
 30
-0.0000000000004022
 41
2.0
 42
2.0
 43
2.0
 50
90.0
  0
INSERT
  5
419572
330
41956C
100
AcDbEntity
  8
寸法線
 62
     8
370
    -2
100
AcDbBlockReference
  2
_OPEN
 10
52992.30359541504
 20
-31507.86484938153
 30
-0.0000000000004022
 41
2.0
 42
2.0
 43
2.0
 50
270.0
  0
MTEXT
  5
419573
330
41956C
100
AcDbEntity
  8
寸法線
 62
     0
100
AcDbMText
 10
52990.40359541505
 20
-31501.61484942089
 30
-0.0000000000004022
 40
2.0
 41
0.0
 71
     5
 72
     1
  1
\A1;12.5
 11
6.123031769111886E-17
 21
1.0
 31
0.0
 73
     1
 44
1.0
  0
POINT
  5
419574
330
41956C
100
AcDbEntity
  8
DEFPOINTS
 62
     0
100
AcDbPoint
 10
53016.03249184434
 20
-31495.36484946336
 30
-0.0000000000004022
  0
POINT
  5
419575
330
41956C
100
AcDbEntity
  8
DEFPOINTS
 62
     0
100
AcDbPoint
 10
52994.64542433512
 20
-31507.86484938153
 30
-0.0000000006599858
  0
POINT
  5
419576
330
41956C
100
AcDbEntity
  8
DEFPOINTS
 62
     0
100
AcDbPoint
 10
52992.30359541504
 20
-31507.86484938153
 30
-0.0000000000004022
  0
ENDBLK
  5
419577
330
41956C
100
AcDbEntity
  8
0
100
AcDbBlockEnd
  0
BLOCK
  5
419579
330
419578
100
AcDbEntity
  8
0
100
AcDbBlockBegin
  2
*D18
 70
     1
 10
0.0
 20
0.0
 30
0.0
  3
*D18
  1
*D18
  0
LINE
  5
41957A
330
419578
100
AcDbEntity
  8
寸法線
 62
     8
370
    -2
100
AcDbLine
 10
52994.44714139513
 20
-31508.13869837792
 30
0.0
 11
52994.44714139513
 21
-31525.5483387873
 31
0.0
  0
LINE
  5
41957B
330
419578
100
AcDbEntity
  8
寸法線
 62
     8
370
    -2
100
AcDbLine
 10
53059.44790577456
 20
-31506.46484954009
 30
0.0
 11
53059.44790577456
 21
-31525.5483387873
 31
0.0
  0
LINE
  5
41957C
330
419578
100
AcDbEntity
  8
寸法線
 62
     8
370
    -2
100
AcDbLine
 10
52996.44714139513
 20
-31524.84833878729
 30
0.0
 11
53057.44790577456
 21
-31524.84833878729
 31
0.0
  0
INSERT
  5
41957D
330
419578
100
AcDbEntity
  8
寸法線
 62
     8
370
    -2
100
AcDbBlockReference
  2
_OPEN
 10
52994.44714139513
 20
-31524.84833878729
 30
0.0
 41
2.0
 42
2.0
 43
2.0
 50
180.0
  0
INSERT
  5
41957E
330
419578
100
AcDbEntity
  8
寸法線
 62
     8
370
    -2
100
AcDbBlockReference
  2
_OPEN
 10
53059.44790577456
 20
-31524.84833878729
 30
0.0
 41
2.0
 42
2.0
 43
2.0
  0
MTEXT
  5
41957F
330
419578
100
AcDbEntity
  8
寸法線
 62
     0
100
AcDbMText
 10
53026.74774104023
 20
-31522.94833878729
 30
0.0
 40
2.0
 41
0.0
 71
     5
 72
     1
  1
\A1;65
 73
     1
 44
1.0
  0
POINT
  5
419580
330
419578
100
AcDbEntity
  8
DEFPOINTS
 62
     0
100
AcDbPoint
 10
52994.44714139513
 20
-31507.63869837792
 30
-0.0000000006599858
  0
POINT
  5
419581
330
419578
100
AcDbEntity
  8
DEFPOINTS
 62
     0
100
AcDbPoint
 10
53059.44790577456
 20
-31505.96484954009
 30
-0.0000000000005699
  0
POINT
  5
419582
330
419578
100
AcDbEntity
  8
DEFPOINTS
 62
     0
100
AcDbPoint
 10
53059.44790577456
 20
-31524.84833878729
 30
0.0
  0
ENDBLK
  5
419583
330
419578
100
AcDbEntity
  8
0
100
AcDbBlockEnd
  0
BLOCK
  5
419585
330
419584
100
AcDbEntity
  8
0
100
AcDbBlockBegin
  2
*D19
 70
     1
 10
0.0
 20
0.0
 30
0.0
  3
*D19
  1
*D19
  0
LINE
  5
419586
330
419584
100
AcDbEntity
  8
寸法線
 62
     8
370
    -2
100
AcDbLine
 10
53006.24901417847
 20
-31506.36484949377
 30
0.0
 11
53006.24901417847
 21
-31519.55682834259
 31
0.0
  0
LINE
  5
419587
330
419584
100
AcDbEntity
  8
寸法線
 62
     8
370
    -2
100
AcDbLine
 10
53026.24901417848
 20
-31506.36484952895
 30
0.0
 11
53026.24901417848
 21
-31519.55682834259
 31
0.0
  0
LINE
  5
419588
330
419584
100
AcDbEntity
  8
寸法線
 62
     8
370
    -2
100
AcDbLine
 10
53008.24901417847
 20
-31518.85682834259
 30
0.0
 11
53024.24901417848
 21
-31518.85682834259
 31
0.0
  0
INSERT
  5
419589
330
419584
100
AcDbEntity
  8
寸法線
 62
     8
370
    -2
100
AcDbBlockReference
  2
_OPEN
 10
53006.24901417847
 20
-31518.85682834259
 30
0.0
 41
2.0
 42
2.0
 43
2.0
 50
180.0
  0
INSERT
  5
41958A
330
419584
100
AcDbEntity
  8
寸法線
 62
     8
370
    -2
100
AcDbBlockReference
  2
_OPEN
 10
53026.24901417848
 20
-31518.85682834259
 30
0.0
 41
2.0
 42
2.0
 43
2.0
  0
MTEXT
  5
41958B
330
419584
100
AcDbEntity
  8
寸法線
 62
     0
100
AcDbMText
 10
53016.24901417848
 20
-31516.67349500925
 30
0.0
 40
2.0
 41
0.0
 71
     5
 72
     1
  1
\A1;20{\H1.100000;\S+0.3^ -0;}
 73
     1
 44
1.0
  0
POINT
  5
41958C
330
419584
100
AcDbEntity
  8
DEFPOINTS
 62
     0
100
AcDbPoint
 10
53006.24901417847
 20
-31505.86484949377
 30
-0.0000000000004022
  0
POINT
  5
41958D
330
419584
100
AcDbEntity
  8
DEFPOINTS
 62
     0
100
AcDbPoint
 10
53026.24901417848
 20
-31505.86484952895
 30
-0.0000000000005691
  0
POINT
  5
41958E
330
419584
100
AcDbEntity
  8
DEFPOINTS
 62
     0
100
AcDbPoint
 10
53026.24901417848
 20
-31518.85682834259
 30
0.0
  0
ENDBLK
  5
41958F
330
419584
100
AcDbEntity
  8
0
100
AcDbBlockEnd
  0
BLOCK
  5
419591
330
419590
100
AcDbEntity
  8
0
100
AcDbBlockBegin
  2
*D20
 70
     1
 10
0.0
 20
0.0
 30
0.0
  3
*D20
  1
*D20
  0
LINE
  5
419592
330
419590
100
AcDbEntity
  8
寸法線
 62
     8
370
    -2
100
AcDbLine
 10
53035.04901417848
 20
-31506.36484949523
 30
0.0
 11
53035.04901417848
 21
-31519.55682834259
 31
0.0
  0
LINE
  5
419593
330
419590
100
AcDbEntity
  8
寸法線
 62
     8
370
    -2
100
AcDbLine
 10
53026.24901417848
 20
-31506.36484952895
 30
0.0
 11
53026.24901417848
 21
-31519.55682834259
 31
0.0
  0
LINE
  5
419594
330
419590
100
AcDbEntity
  8
寸法線
 62
     8
370
    -2
100
AcDbLine
 10
53033.04901417848
 20
-31518.85682834259
 30
0.0
 11
53028.24901417848
 21
-31518.85682834259
 31
0.0
  0
INSERT
  5
419595
330
419590
100
AcDbEntity
  8
寸法線
 62
     8
370
    -2
100
AcDbBlockReference
  2
_OPEN
 10
53035.04901417848
 20
-31518.85682834259
 30
0.0
 41
2.0
 42
2.0
 43
2.0
  0
INSERT
  5
419596
330
419590
100
AcDbEntity
  8
寸法線
 62
     8
370
    -2
100
AcDbBlockReference
  2
_OPEN
 10
53026.24901417848
 20
-31518.85682834259
 30
0.0
 41
2.0
 42
2.0
 43
2.0
 50
180.0
  0
MTEXT
  5
419597
330
419590
100
AcDbEntity
  8
寸法線
 62
     0
100
AcDbMText
 10
53030.64901417848
 20
-31516.95682834259
 30
0.0
 40
2.0
 41
0.0
 71
     5
 72
     1
  1
\A1;8.8
 73
     1
 44
1.0
  0
POINT
  5
419598
330
419590
100
AcDbEntity
  8
DEFPOINTS
 62
     0
100
AcDbPoint
 10
53035.04901417848
 20
-31505.86484949523
 30
-0.0000000000005224
  0
POINT
  5
419599
330
419590
100
AcDbEntity
  8
DEFPOINTS
 62
     0
100
AcDbPoint
 10
53026.24901417848
 20
-31505.86484952895
 30
-0.0000000000005691
  0
POINT
  5
41959A
330
419590
100
AcDbEntity
  8
DEFPOINTS
 62
     0
100
AcDbPoint
 10
53026.24901417848
 20
-31518.85682834259
 30
0.0
  0
ENDBLK
  5
41959B
330
419590
100
AcDbEntity
  8
0
100
AcDbBlockEnd
  0
BLOCK
  5
41959D
330
41959C
100
AcDbEntity
  8
0
100
AcDbBlockBegin
  2
*D21
 70
     1
 10
0.0
 20
0.0
 30
0.0
  3
*D21
  1
*D21
  0
LINE
  5
41959E
330
41959C
100
AcDbEntity
  8
寸法線
 62
     8
370
    -2
100
AcDbLine
 10
53035.04901417849
 20
-31506.36484949373
 30
0.0
 11
53035.04901417849
 21
-31519.55682834259
 31
0.0
  0
LINE
  5
41959F
330
41959C
100
AcDbEntity
  8
寸法線
 62
     8
370
    -2
100
AcDbLine
 10
53055.04901417849
 20
-31506.36484952892
 30
0.0
 11
53055.04901417849
 21
-31519.55682834259
 31
0.0
  0
LINE
  5
4195A0
330
41959C
100
AcDbEntity
  8
寸法線
 62
     8
370
    -2
100
AcDbLine
 10
53037.04901417849
 20
-31518.85682834259
 30
0.0
 11
53053.04901417849
 21
-31518.85682834259
 31
0.0
  0
INSERT
  5
4195A1
330
41959C
100
AcDbEntity
  8
寸法線
 62
     8
370
    -2
100
AcDbBlockReference
  2
_OPEN
 10
53035.04901417849
 20
-31518.85682834259
 30
0.0
 41
2.0
 42
2.0
 43
2.0
 50
180.0
  0
INSERT
  5
4195A2
330
41959C
100
AcDbEntity
  8
寸法線
 62
     8
370
    -2
100
AcDbBlockReference
  2
_OPEN
 10
53055.04901417849
 20
-31518.85682834259
 30
0.0
 41
2.0
 42
2.0
 43
2.0
  0
MTEXT
  5
4195A3
330
41959C
100
AcDbEntity
  8
寸法線
 62
     0
100
AcDbMText
 10
53045.04901417849
 20
-31516.67349500925
 30
0.0
 40
2.0
 41
0.0
 71
     5
 72
     1
  1
\A1;20{\H1.100000;\S+0.3^ -0;}
 73
     1
 44
1.0
  0
POINT
  5
4195A4
330
41959C
100
AcDbEntity
  8
DEFPOINTS
 62
     0
100
AcDbPoint
 10
53035.04901417849
 20
-31505.86484949373
 30
-0.0000000000005691
  0
POINT
  5
4195A5
330
41959C
100
AcDbEntity
  8
DEFPOINTS
 62
     0
100
AcDbPoint
 10
53055.04901417849
 20
-31505.86484952892
 30
-0.0000000000007359
  0
POINT
  5
4195A6
330
41959C
100
AcDbEntity
  8
DEFPOINTS
 62
     0
100
AcDbPoint
 10
53055.04901417849
 20
-31518.85682834259
 30
0.0
  0
ENDBLK
  5
4195A7
330
41959C
100
AcDbEntity
  8
0
100
AcDbBlockEnd
  0
BLOCK
  5
4195A9
330
4195A8
100
AcDbEntity
  8
0
100
AcDbBlockBegin
  2
*D22
 70
     1
 10
0.0
 20
0.0
 30
0.0
  3
*D22
  1
*D22
  0
LINE
  5
4195AA
330
4195A8
100
AcDbEntity
  8
寸法線
 62
     8
370
    -2
100
AcDbLine
 10
53058.04790577862
 20
-31507.8648495273
 30
0.0
 11
53087.31756299832
 21
-31507.8648495273
 31
0.0
  0
LINE
  5
4195AB
330
4195A8
100
AcDbEntity
  8
寸法線
 62
     8
370
    -2
100
AcDbLine
 10
53059.7479057742
 20
-31393.56484938053
 30
0.0
 11
53087.31756299832
 21
-31393.56484938053
 31
0.0
  0
LINE
  5
4195AC
330
4195A8
100
AcDbEntity
  8
寸法線
 62
     8
370
    -2
100
AcDbLine
 10
53086.61756299833
 20
-31505.8648495273
 30
0.0
 11
53086.61756299833
 21
-31395.56484938053
 31
0.0
  0
INSERT
  5
4195AD
330
4195A8
100
AcDbEntity
  8
寸法線
 62
     8
370
    -2
100
AcDbBlockReference
  2
_OPEN
 10
53086.61756299833
 20
-31507.8648495273
 30
0.0
 41
2.0
 42
2.0
 43
2.0
 50
270.0
  0
INSERT
  5
4195AE
330
4195A8
100
AcDbEntity
  8
寸法線
 62
     8
370
    -2
100
AcDbBlockReference
  2
_OPEN
 10
53086.61756299833
 20
-31393.56484938053
 30
0.0
 41
2.0
 42
2.0
 43
2.0
 50
90.0
  0
MTEXT
  5
4195AF
330
4195A8
100
AcDbEntity
  8
寸法線
 62
     0
100
AcDbMText
 10
53084.71756299833
 20
-31450.66484945441
 30
0.0
 40
2.0
 41
0.0
 71
     5
 72
     1
  1
\A1;114.3
 11
6.123031769111886E-17
 21
1.0
 31
0.0
 73
     1
 44
1.0
  0
POINT
  5
4195B0
330
4195A8
100
AcDbEntity
  8
DEFPOINTS
 62
     0
100
AcDbPoint
 10
53057.54790577862
 20
-31507.8648495273
 30
-0.0000000000046486
  0
POINT
  5
4195B1
330
4195A8
100
AcDbEntity
  8
DEFPOINTS
 62
     0
100
AcDbPoint
 10
53059.2479057742
 20
-31393.56484938053
 30
-0.0000000000005492
  0
POINT
  5
4195B2
330
4195A8
100
AcDbEntity
  8
DEFPOINTS
 62
     0
100
AcDbPoint
 10
53086.61756299833
 20
-31393.56484938053
 30
0.0
  0
ENDBLK
  5
4195B3
330
4195A8
100
AcDbEntity
  8
0
100
AcDbBlockEnd
  0
BLOCK
  5
4195B5
330
4195B4
100
AcDbEntity
  8
0
100
AcDbBlockBegin
  2
*D23
 70
     1
 10
0.0
 20
0.0
 30
0.0
  3
*D23
  1
*D23
  0
LINE
  5
4195B6
330
4195B4
100
AcDbEntity
  8
寸法線
 62
     8
370
    -2
100
AcDbLine
 10
53025.25238483057
 20
-31502.36484949373
 30
0.0
 11
53025.25238483057
 21
-31494.65451895164
 31
0.0
  0
LINE
  5
4195B7
330
4195B4
100
AcDbEntity
  8
寸法線
 62
     8
370
    -2
100
AcDbLine
 10
53036.04901417849
 20
-31502.36484949374
 30
0.0
 11
53036.04901417849
 21
-31494.65451895164
 31
0.0
  0
LINE
  5
4195B8
330
4195B4
100
AcDbEntity
  8
寸法線
 62
     8
370
    -2
100
AcDbLine
 10
53027.25238483057
 20
-31495.35451895164
 30
0.0
 11
53034.04901417849
 21
-31495.35451895164
 31
0.0
  0
INSERT
  5
4195B9
330
4195B4
100
AcDbEntity
  8
寸法線
 62
     8
370
    -2
100
AcDbBlockReference
  2
_OPEN
 10
53025.25238483057
 20
-31495.35451895164
 30
0.0
 41
2.0
 42
2.0
 43
2.0
 50
180.0
  0
INSERT
  5
4195BA
330
4195B4
100
AcDbEntity
  8
寸法線
 62
     8
370
    -2
100
AcDbBlockReference
  2
_OPEN
 10
53036.04901417849
 20
-31495.35451895164
 30
0.0
 41
2.0
 42
2.0
 43
2.0
  0
MTEXT
  5
4195BB
330
4195B4
100
AcDbEntity
  8
寸法線
 62
     0
100
AcDbMText
 10
53030.88501917968
 20
-31493.45451895164
 30
0.0
 40
2.0
 41
0.0
 71
     5
 72
     1
  1
\A1;10.8
 73
     1
 44
1.0
  0
POINT
  5
4195BC
330
4195B4
100
AcDbEntity
  8
DEFPOINTS
 62
     0
100
AcDbPoint
 10
53025.25238483057
 20
-31502.86484949373
 30
-0.0000000000005691
  0
POINT
  5
4195BD
330
4195B4
100
AcDbEntity
  8
DEFPOINTS
 62
     0
100
AcDbPoint
 10
53036.04901417849
 20
-31502.86484949374
 30
-0.0000000000005691
  0
POINT
  5
4195BE
330
4195B4
100
AcDbEntity
  8
DEFPOINTS
 62
     0
100
AcDbPoint
 10
53036.04901417849
 20
-31495.35451895164
 30
0.0
  0
ENDBLK
  5
4195BF
330
4195B4
100
AcDbEntity
  8
0
100
AcDbBlockEnd
  0
BLOCK
  5
4195C1
330
4195C0
100
AcDbEntity
  8
0
100
AcDbBlockBegin
  2
*D24
 70
     1
 10
0.0
 20
0.0
 30
0.0
  3
*D24
  1
*D24
  0
LINE
  5
4195C2
330
4195C0
100
AcDbEntity
  8
寸法線
 62
     8
370
    -2
100
AcDbLine
 10
53058.30413624203
 20
-31471.513202146
 30
0.0
 11
53070.83395037185
 21
-31471.513202146
 31
0.0
  0
LINE
  5
4195C3
330
4195C0
100
AcDbEntity
  8
寸法線
 62
     8
370
    -2
100
AcDbLine
 10
53058.30413624203
 20
-31481.013202146
 30
0.0
 11
53070.83395037185
 21
-31481.013202146
 31
0.0
  0
LINE
  5
4195C4
330
4195C0
100
AcDbEntity
  8
寸法線
 62
     8
370
    -2
100
AcDbLine
 10
53070.13395037185
 20
-31473.513202146
 30
0.0
 11
53070.13395037185
 21
-31479.013202146
 31
0.0
  0
INSERT
  5
4195C5
330
4195C0
100
AcDbEntity
  8
寸法線
 62
     8
370
    -2
100
AcDbBlockReference
  2
_OPEN
 10
53070.13395037185
 20
-31471.513202146
 30
0.0
 41
2.0
 42
2.0
 43
2.0
 50
90.0
  0
INSERT
  5
4195C6
330
4195C0
100
AcDbEntity
  8
寸法線
 62
     8
370
    -2
100
AcDbBlockReference
  2
_OPEN
 10
53070.13395037185
 20
-31481.013202146
 30
0.0
 41
2.0
 42
2.0
 43
2.0
 50
270.0
  0
MTEXT
  5
4195C7
330
4195C0
100
AcDbEntity
  8
寸法線
 62
     0
100
AcDbMText
 10
53068.23395037185
 20
-31476.26320214599
 30
0.0
 40
2.0
 41
0.0
 71
     5
 72
     1
  1
\A1;9.5
 11
6.123031769111886E-17
 21
1.0
 31
0.0
 73
     1
 44
1.0
  0
POINT
  5
4195C8
330
4195C0
100
AcDbEntity
  8
DEFPOINTS
 62
     0
100
AcDbPoint
 10
53057.80413624203
 20
-31471.513202146
 30
-0.0000000000005699
  0
POINT
  5
4195C9
330
4195C0
100
AcDbEntity
  8
DEFPOINTS
 62
     0
100
AcDbPoint
 10
53057.80413624203
 20
-31481.013202146
 30
-0.0000000000005699
  0
POINT
  5
4195CA
330
4195C0
100
AcDbEntity
  8
DEFPOINTS
 62
     0
100
AcDbPoint
 10
53070.13395037185
 20
-31481.013202146
 30
0.0
  0
ENDBLK
  5
4195CB
330
4195C0
100
AcDbEntity
  8
0
100
AcDbBlockEnd
  0
BLOCK
  5
4195CD
330
4195CC
100
AcDbEntity
  8
0
100
AcDbBlockBegin
  2
*D25
 70
     1
 10
0.0
 20
0.0
 30
0.0
  3
*D25
  1
*D25
  0
LINE
  5
4195CE
330
4195CC
100
AcDbEntity
  8
寸法線
 62
     8
370
    -2
100
AcDbLine
 10
53058.30413624203
 20
-31481.013202146
 30
0.0
 11
53070.83395037185
 21
-31481.013202146
 31
0.0
  0
LINE
  5
4195CF
330
4195CC
100
AcDbEntity
  8
寸法線
 62
     8
370
    -2
100
AcDbLine
 10
53058.30413624203
 20
-31490.513202146
 30
0.0
 11
53070.83395037185
 21
-31490.513202146
 31
0.0
  0
LINE
  5
4195D0
330
4195CC
100
AcDbEntity
  8
寸法線
 62
     8
370
    -2
100
AcDbLine
 10
53070.13395037185
 20
-31483.013202146
 30
0.0
 11
53070.13395037185
 21
-31488.513202146
 31
0.0
  0
INSERT
  5
4195D1
330
4195CC
100
AcDbEntity
  8
寸法線
 62
     8
370
    -2
100
AcDbBlockReference
  2
_OPEN
 10
53070.13395037185
 20
-31481.013202146
 30
0.0
 41
2.0
 42
2.0
 43
2.0
 50
90.0
  0
INSERT
  5
4195D2
330
4195CC
100
AcDbEntity
  8
寸法線
 62
     8
370
    -2
100
AcDbBlockReference
  2
_OPEN
 10
53070.13395037185
 20
-31490.513202146
 30
0.0
 41
2.0
 42
2.0
 43
2.0
 50
270.0
  0
MTEXT
  5
4195D3
330
4195CC
100
AcDbEntity
  8
寸法線
 62
     0
100
AcDbMText
 10
53068.23395037185
 20
-31485.76320214599
 30
0.0
 40
2.0
 41
0.0
 71
     5
 72
     1
  1
\A1;9.5
 11
6.123031769111886E-17
 21
1.0
 31
0.0
 73
     1
 44
1.0
  0
POINT
  5
4195D4
330
4195CC
100
AcDbEntity
  8
DEFPOINTS
 62
     0
100
AcDbPoint
 10
53057.80413624203
 20
-31481.013202146
 30
-0.0000000000005699
  0
POINT
  5
4195D5
330
4195CC
100
AcDbEntity
  8
DEFPOINTS
 62
     0
100
AcDbPoint
 10
53057.80413624203
 20
-31490.513202146
 30
-0.0000000000005699
  0
POINT
  5
4195D6
330
4195CC
100
AcDbEntity
  8
DEFPOINTS
 62
     0
100
AcDbPoint
 10
53070.13395037185
 20
-31490.513202146
 30
0.0
  0
ENDBLK
  5
4195D7
330
4195CC
100
AcDbEntity
  8
0
100
AcDbBlockEnd
  0
BLOCK
  5
4195D9
330
4195D8
100
AcDbEntity
  8
0
100
AcDbBlockBegin
  2
*D26
 70
     1
 10
0.0
 20
0.0
 30
0.0
  3
*D26
  1
*D26
  0
LINE
  5
4195DA
330
4195D8
100
AcDbEntity
  8
寸法線
 62
     8
370
    -2
100
AcDbLine
 10
53056.14790577423
 20
-31410.16484930419
 30
-0.0000000000004464
 11
53056.14790577423
 21
-31407.19918041232
 31
-0.0000000000004464
  0
LINE
  5
4195DB
330
4195D8
100
AcDbEntity
  8
寸法線
 62
     8
370
    -2
100
AcDbLine
 10
53057.64790577422
 20
-31410.16484930419
 30
-0.0000000000004464
 11
53057.64790577422
 21
-31407.19918041232
 31
-0.0000000000004464
  0
LINE
  5
4195DC
330
4195D8
100
AcDbEntity
  8
寸法線
 62
     8
370
    -2
100
AcDbLine
 10
53059.64790577422
 20
-31407.89918041233
 30
-0.0000000000004464
 11
53061.64790577422
 21
-31407.89918041233
 31
-0.0000000000004464
  0
LINE
  5
4195DD
330
4195D8
100
AcDbEntity
  8
寸法線
 62
     8
370
    -2
100
AcDbLine
 10
53054.14790577423
 20
-31407.89918041233
 30
-0.0000000000004464
 11
53034.78930404197
 21
-31407.89918041233
 31
-0.0000000000004464
  0
LINE
  5
4195DE
330
4195D8
100
AcDbEntity
  8
寸法線
 62
     8
370
    -2
100
AcDbLine
 10
53057.64790577422
 20
-31407.89918041233
 30
-0.0000000000004464
 11
53056.14790577423
 21
-31407.89918041233
 31
-0.0000000000004464
  0
INSERT
  5
4195DF
330
4195D8
100
AcDbEntity
  8
寸法線
 62
     8
370
    -2
100
AcDbBlockReference
  2
_OPEN
 10
53057.64790577422
 20
-31407.89918041233
 30
-0.0000000000004464
 41
2.0
 42
2.0
 43
2.0
 50
180.0
  0
INSERT
  5
4195E0
330
4195D8
100
AcDbEntity
  8
寸法線
 62
     8
370
    -2
100
AcDbBlockReference
  2
_OPEN
 10
53056.14790577423
 20
-31407.89918041233
 30
-0.0000000000004464
 41
2.0
 42
2.0
 43
2.0
  0
MTEXT
  5
4195E1
330
4195D8
100
AcDbEntity
  8
寸法線
 62
     0
100
AcDbMText
 10
53040.70597070864
 20
-31405.71584707899
 30
-0.0000000000004464
 40
2.0
 41
0.0
 71
     5
 72
     1
  1
\A1;1.5{\H1.100000;\S+0.3^ -0;}
 73
     1
 44
1.0
  0
POINT
  5
4195E2
330
4195D8
100
AcDbEntity
  8
DEFPOINTS
 62
     0
100
AcDbPoint
 10
53056.14790577423
 20
-31410.66484930419
 30
-0.0000000000004464
  0
POINT
  5
4195E3
330
4195D8
100
AcDbEntity
  8
DEFPOINTS
 62
     0
100
AcDbPoint
 10
53057.64790577422
 20
-31410.66484930419
 30
-0.0000000000004464
  0
POINT
  5
4195E4
330
4195D8
100
AcDbEntity
  8
DEFPOINTS
 62
     0
100
AcDbPoint
 10
53057.64790577422
 20
-31407.89918041233
 30
-0.0000000000004464
  0
ENDBLK
  5
4195E5
330
4195D8
100
AcDbEntity
  8
0
100
AcDbBlockEnd
  0
BLOCK
  5
4195E7
330
4195E6
100
AcDbEntity
  8
0
100
AcDbBlockBegin
  2
*D27
 70
     1
 10
0.0
 20
0.0
 30
0.0
  3
*D27
  1
*D27
  0
LINE
  5
4195E8
330
4195E6
100
AcDbEntity
  8
寸法線
 62
     8
370
    -2
100
AcDbLine
 10
53054.0479057742
 20
-31402.16484947757
 30
-0.0000000000005757
 11
53046.47434167283
 21
-31402.16484947757
 31
-0.0000000000005757
  0
LINE
  5
4195E9
330
4195E6
100
AcDbEntity
  8
寸法線
 62
     8
370
    -2
100
AcDbLine
 10
53054.0479057742
 20
-31394.96484947756
 30
-0.0000000000005757
 11
53046.47434167283
 21
-31394.96484947756
 31
-0.0000000000005757
  0
LINE
  5
4195EA
330
4195E6
100
AcDbEntity
  8
寸法線
 62
     8
370
    -2
100
AcDbLine
 10
53047.17434167283
 20
-31400.16484947757
 30
-0.0000000000005757
 11
53047.17434167283
 21
-31396.96484947756
 31
-0.0000000000005757
  0
LINE
  5
4195EB
330
4195E6
100
AcDbEntity
  8
寸法線
 62
     8
370
    -2
100
AcDbLine
 10
53047.17434167283
 20
-31394.96484947756
 30
-0.0000000000005757
 11
53047.17434167283
 21
-31379.87734947757
 31
-0.0000000000005757
  0
INSERT
  5
4195EC
330
4195E6
100
AcDbEntity
  8
寸法線
 62
     8
370
    -2
100
AcDbBlockReference
  2
_OPEN
 10
53047.17434167283
 20
-31402.16484947757
 30
-0.0000000000005757
 41
2.0
 42
2.0
 43
2.0
 50
270.0
  0
INSERT
  5
4195ED
330
4195E6
100
AcDbEntity
  8
寸法線
 62
     8
370
    -2
100
AcDbBlockReference
  2
_OPEN
 10
53047.17434167283
 20
-31394.96484947756
 30
-0.0000000000005757
 41
2.0
 42
2.0
 43
2.0
 50
90.0
  0
MTEXT
  5
4195EE
330
4195E6
100
AcDbEntity
  8
寸法線
 62
     0
100
AcDbMText
 10
53044.9910083395
 20
-31385.79401614422
 30
-0.0000000000005757
 40
2.0
 41
0.0
 71
     5
 72
     1
  1
\A1;7.2{\H1.100000;\S+0.3^ -0;}
 11
6.123031769111886E-17
 21
1.0
 31
0.0
 73
     1
 44
1.0
  0
POINT
  5
4195EF
330
4195E6
100
AcDbEntity
  8
DEFPOINTS
 62
     0
100
AcDbPoint
 10
53054.5479057742
 20
-31402.16484947757
 30
-0.0000000000005757
  0
POINT
  5
4195F0
330
4195E6
100
AcDbEntity
  8
DEFPOINTS
 62
     0
100
AcDbPoint
 10
53054.5479057742
 20
-31394.96484947756
 30
-0.0000000000005757
  0
POINT
  5
4195F1
330
4195E6
100
AcDbEntity
  8
DEFPOINTS
 62
     0
100
AcDbPoint
 10
53047.17434167283
 20
-31394.96484947756
 30
-0.0000000000005757
  0
ENDBLK
  5
4195F2
330
4195E6
100
AcDbEntity
  8
0
100
AcDbBlockEnd
  0
BLOCK
  5
4195F4
330
4195F3
100
AcDbEntity
  8
0
100
AcDbBlockBegin
  2
*D28
 70
     1
 10
0.0
 20
0.0
 30
0.0
  3
*D28
  1
*D28
  0
LINE
  5
4195F5
330
4195F3
100
AcDbEntity
  8
寸法線
 62
     8
370
    -2
100
AcDbLine
 10
53059.74790577419
 20
-31393.56484938051
 30
0.0
 11
53080.51840522383
 21
-31393.56484938051
 31
0.0
  0
LINE
  5
4195F6
330
4195F3
100
AcDbEntity
  8
寸法線
 62
     8
370
    -2
100
AcDbLine
 10
53059.7479057742
 20
-31408.76484930419
 30
0.0
 11
53080.51840522383
 21
-31408.76484930419
 31
0.0
  0
LINE
  5
4195F7
330
4195F3
100
AcDbEntity
  8
寸法線
 62
     8
370
    -2
100
AcDbLine
 10
53079.81840522384
 20
-31395.56484938051
 30
0.0
 11
53079.81840522384
 21
-31406.76484930419
 31
0.0
  0
INSERT
  5
4195F8
330
4195F3
100
AcDbEntity
  8
寸法線
 62
     8
370
    -2
100
AcDbBlockReference
  2
_OPEN
 10
53079.81840522384
 20
-31393.56484938051
 30
0.0
 41
2.0
 42
2.0
 43
2.0
 50
90.0
  0
INSERT
  5
4195F9
330
4195F3
100
AcDbEntity
  8
寸法線
 62
     8
370
    -2
100
AcDbBlockReference
  2
_OPEN
 10
53079.81840522384
 20
-31408.76484930419
 30
0.0
 41
2.0
 42
2.0
 43
2.0
 50
270.0
  0
MTEXT
  5
4195FA
330
4195F3
100
AcDbEntity
  8
寸法線
 62
     0
100
AcDbMText
 10
53077.91840522384
 20
-31401.16484934235
 30
0.0
 40
2.0
 41
0.0
 71
     5
 72
     1
  1
\A1;15.2
 11
6.123031769111886E-17
 21
1.0
 31
0.0
 73
     1
 44
1.0
  0
POINT
  5
4195FB
330
4195F3
100
AcDbEntity
  8
DEFPOINTS
 62
     0
100
AcDbPoint
 10
53059.24790577419
 20
-31393.56484938051
 30
-0.0000000000005809
  0
POINT
  5
4195FC
330
4195F3
100
AcDbEntity
  8
DEFPOINTS
 62
     0
100
AcDbPoint
 10
53059.2479057742
 20
-31408.76484930419
 30
-0.0000000000004464
  0
POINT
  5
4195FD
330
4195F3
100
AcDbEntity
  8
DEFPOINTS
 62
     0
100
AcDbPoint
 10
53079.81840522384
 20
-31408.76484930419
 30
0.0
  0
ENDBLK
  5
4195FE
330
4195F3
100
AcDbEntity
  8
0
100
AcDbBlockEnd
  0
BLOCK
  5
419600
330
4195FF
100
AcDbEntity
  8
0
100
AcDbBlockBegin
  2
*D29
 70
     1
 10
0.0
 20
0.0
 30
0.0
  3
*D29
  1
*D29
  0
LINE
  5
419601
330
4195FF
100
AcDbEntity
  8
寸法線
 62
     8
370
    -2
100
AcDbLine
 10
53024.25238483056
 20
-31503.36484949374
 30
0.0
 11
53024.25238483056
 21
-31489.2283980083
 31
0.0
  0
LINE
  5
419602
330
4195FF
100
AcDbEntity
  8
寸法線
 62
     8
370
    -2
100
AcDbLine
 10
53037.04901417849
 20
-31503.36484949374
 30
0.0
 11
53037.04901417849
 21
-31489.2283980083
 31
0.0
  0
LINE
  5
419603
330
4195FF
100
AcDbEntity
  8
寸法線
 62
     8
370
    -2
100
AcDbLine
 10
53026.25238483056
 20
-31489.9283980083
 30
0.0
 11
53035.04901417849
 21
-31489.9283980083
 31
0.0
  0
INSERT
  5
419604
330
4195FF
100
AcDbEntity
  8
寸法線
 62
     8
370
    -2
100
AcDbBlockReference
  2
_OPEN
 10
53024.25238483056
 20
-31489.9283980083
 30
0.0
 41
2.0
 42
2.0
 43
2.0
 50
180.0
  0
INSERT
  5
419605
330
4195FF
100
AcDbEntity
  8
寸法線
 62
     8
370
    -2
100
AcDbBlockReference
  2
_OPEN
 10
53037.04901417849
 20
-31489.9283980083
 30
0.0
 41
2.0
 42
2.0
 43
2.0
  0
MTEXT
  5
419606
330
4195FF
100
AcDbEntity
  8
寸法線
 62
     0
100
AcDbMText
 10
53030.65069950453
 20
-31488.0283980083
 30
0.0
 40
2.0
 41
0.0
 71
     5
 72
     1
  1
\A1;12.8
 73
     1
 44
1.0
  0
POINT
  5
419607
330
4195FF
100
AcDbEntity
  8
DEFPOINTS
 62
     0
100
AcDbPoint
 10
53024.25238483056
 20
-31503.86484949374
 30
-0.0000000000005691
  0
POINT
  5
419608
330
4195FF
100
AcDbEntity
  8
DEFPOINTS
 62
     0
100
AcDbPoint
 10
53037.04901417849
 20
-31503.86484949374
 30
-0.0000000000005691
  0
POINT
  5
419609
330
4195FF
100
AcDbEntity
  8
DEFPOINTS
 62
     0
100
AcDbPoint
 10
53037.04901417849
 20
-31489.9283980083
 30
0.0
  0
ENDBLK
  5
41960A
330
4195FF
100
AcDbEntity
  8
0
100
AcDbBlockEnd
  0
BLOCK
  5
41960C
330
41960B
100
AcDbEntity
  8
0
100
AcDbBlockBegin
  2
*D30
 70
     1
 10
0.0
 20
0.0
 30
0.0
  3
*D30
  1
*D30
  0
LINE
  5
41960D
330
41960B
100
AcDbEntity
  8
寸法線
 62
     8
370
    -2
100
AcDbLine
 10
53055.049014179
 20
-31506.36484952891
 30
0.0
 11
53055.049014179
 21
-31519.55682834259
 31
0.0
  0
LINE
  5
41960E
330
41960B
100
AcDbEntity
  8
寸法線
 62
     8
370
    -2
100
AcDbLine
 10
53059.44790577456
 20
-31506.46484954009
 30
0.0
 11
53059.44790577456
 21
-31519.55682834259
 31
0.0
  0
LINE
  5
41960F
330
41960B
100
AcDbEntity
  8
寸法線
 62
     8
370
    -2
100
AcDbLine
 10
53053.049014179
 20
-31518.85682834259
 30
0.0
 11
53051.049014179
 21
-31518.85682834259
 31
0.0
  0
LINE
  5
419610
330
41960B
100
AcDbEntity
  8
寸法線
 62
     8
370
    -2
100
AcDbLine
 10
53061.44790577456
 20
-31518.85682834259
 30
0.0
 11
53071.2490141786
 21
-31518.85682834259
 31
0.0
  0
LINE
  5
419611
330
41960B
100
AcDbEntity
  8
寸法線
 62
     8
370
    -2
100
AcDbLine
 10
53055.049014179
 20
-31518.85682834259
 30
0.0
 11
53059.44790577456
 21
-31518.85682834259
 31
0.0
  0
INSERT
  5
419612
330
41960B
100
AcDbEntity
  8
寸法線
 62
     8
370
    -2
100
AcDbBlockReference
  2
_OPEN
 10
53055.049014179
 20
-31518.85682834259
 30
0.0
 41
2.0
 42
2.0
 43
2.0
  0
INSERT
  5
419613
330
41960B
100
AcDbEntity
  8
寸法線
 62
     8
370
    -2
100
AcDbBlockReference
  2
_OPEN
 10
53059.44790577456
 20
-31518.85682834259
 30
0.0
 41
2.0
 42
2.0
 43
2.0
 50
180.0
  0
MTEXT
  5
419614
330
41960B
100
AcDbEntity
  8
寸法線
 62
     0
100
AcDbMText
 10
53067.68234751193
 20
-31516.95682834259
 30
0.0
 40
2.0
 41
0.0
 71
     5
 72
     1
  1
\A1;4.4
 73
     1
 44
1.0
  0
POINT
  5
419615
330
41960B
100
AcDbEntity
  8
DEFPOINTS
 62
     0
100
AcDbPoint
 10
53055.049014179
 20
-31505.86484952891
 30
-0.0000000000007359
  0
POINT
  5
419616
330
41960B
100
AcDbEntity
  8
DEFPOINTS
 62
     0
100
AcDbPoint
 10
53059.44790577456
 20
-31505.96484954009
 30
-0.0000000000005699
  0
POINT
  5
419617
330
41960B
100
AcDbEntity
  8
DEFPOINTS
 62
     0
100
AcDbPoint
 10
53059.44790577456
 20
-31518.85682834259
 30
0.0
  0
ENDBLK
  5
419618
330
41960B
100
AcDbEntity
  8
0
100
AcDbBlockEnd
  0
BLOCK
  5
41961A
330
419619
100
AcDbEntity
  8
0
100
AcDbBlockBegin
  2
*D31
 70
     1
 10
0.0
 20
0.0
 30
0.0
  3
*D31
  1
*D31
  0
LINE
  5
41961B
330
419619
100
AcDbEntity
  8
寸法線
 62
     8
370
    -2
100
AcDbLine
 10
53062.08610627674
 20
-31438.2632021411
 30
0.0
 11
53080.52061139089
 21
-31438.2632021411
 31
0.0
  0
LINE
  5
41961C
330
419619
100
AcDbEntity
  8
寸法線
 62
     8
370
    -2
100
AcDbLine
 10
53061.88610627675
 20
-31495.26320214111
 30
0.0
 11
53080.52061139089
 21
-31495.26320214111
 31
0.0
  0
LINE
  5
41961D
330
419619
100
AcDbEntity
  8
寸法線
 62
     8
370
    -2
100
AcDbLine
 10
53079.8206113909
 20
-31440.2632021411
 30
0.0
 11
53079.8206113909
 21
-31493.26320214111
 31
0.0
  0
INSERT
  5
41961E
330
419619
100
AcDbEntity
  8
寸法線
 62
     8
370
    -2
100
AcDbBlockReference
  2
_OPEN
 10
53079.8206113909
 20
-31438.2632021411
 30
0.0
 41
2.0
 42
2.0
 43
2.0
 50
90.0
  0
INSERT
  5
41961F
330
419619
100
AcDbEntity
  8
寸法線
 62
     8
370
    -2
100
AcDbBlockReference
  2
_OPEN
 10
53079.8206113909
 20
-31495.26320214111
 30
0.0
 41
2.0
 42
2.0
 43
2.0
 50
270.0
  0
MTEXT
  5
419620
330
419619
100
AcDbEntity
  8
寸法線
 62
     0
100
AcDbMText
 10
53077.9206113909
 20
-31459.4617760485
 30
0.0
 40
2.0
 41
0.0
 71
     5
 72
     1
  1
\A1;P9.5×7＝57
 11
6.123031769111886E-17
 21
1.0
 31
0.0
 73
     1
 44
1.0
  0
POINT
  5
419621
330
419619
100
AcDbEntity
  8
DEFPOINTS
 62
     0
100
AcDbPoint
 10
53061.58610627674
 20
-31438.2632021411
 30
-0.0000000000005699
  0
POINT
  5
419622
330
419619
100
AcDbEntity
  8
DEFPOINTS
 62
     0
100
AcDbPoint
 10
53061.38610627675
 20
-31495.26320214111
 30
-0.0000000000005699
  0
POINT
  5
419623
330
419619
100
AcDbEntity
  8
DEFPOINTS
 62
     0
100
AcDbPoint
 10
53079.8206113909
 20
-31495.26320214111
 30
0.0
  0
ENDBLK
  5
419624
330
419619
100
AcDbEntity
  8
0
100
AcDbBlockEnd
  0
BLOCK
  5
419626
330
419625
100
AcDbEntity
  8
0
100
AcDbBlockBegin
  2
*D32
 70
     1
 10
0.0
 20
0.0
 30
0.0
  3
*D32
  1
*D32
  0
LINE
  5
419627
330
419625
100
AcDbEntity
  8
寸法線
 62
     8
370
    -2
100
AcDbLine
 10
53053.55127636185
 20
-31410.31484937987
 30
0.0
 11
53042.37618783102
 21
-31410.31484937987
 31
0.0
  0
LINE
  5
419628
330
419625
100
AcDbEntity
  8
寸法線
 62
     8
370
    -2
100
AcDbLine
 10
53053.34845997637
 20
-31495.81484937974
 30
0.0
 11
53042.37618783102
 21
-31495.81484937974
 31
0.0
  0
LINE
  5
419629
330
419625
100
AcDbEntity
  8
寸法線
 62
     8
370
    -2
100
AcDbLine
 10
53043.07618783101
 20
-31412.31484937987
 30
0.0
 11
53043.07618783101
 21
-31493.81484937974
 31
0.0
  0
INSERT
  5
41962A
330
419625
100
AcDbEntity
  8
寸法線
 62
     8
370
    -2
100
AcDbBlockReference
  2
_OPEN
 10
53043.07618783101
 20
-31410.31484937987
 30
0.0
 41
2.0
 42
2.0
 43
2.0
 50
90.0
  0
INSERT
  5
41962B
330
419625
100
AcDbEntity
  8
寸法線
 62
     8
370
    -2
100
AcDbBlockReference
  2
_OPEN
 10
53043.07618783101
 20
-31495.81484937974
 30
0.0
 41
2.0
 42
2.0
 43
2.0
 50
270.0
  0
MTEXT
  5
41962C
330
419625
100
AcDbEntity
  8
寸法線
 62
     0
100
AcDbMText
 10
53041.17618783102
 20
-31448.42783063904
 30
0.0
 40
2.0
 41
0.0
 71
     5
 72
     1
  1
\A1;（P1.5×57＝85.5）
 11
6.123031769111886E-17
 21
1.0
 31
0.0
 73
     1
 44
1.0
  0
POINT
  5
41962D
330
419625
100
AcDbEntity
  8
DEFPOINTS
 62
     0
100
AcDbPoint
 10
53054.05127636185
 20
-31410.31484937987
 30
-0.0000000000005699
  0
POINT
  5
41962E
330
419625
100
AcDbEntity
  8
DEFPOINTS
 62
     0
100
AcDbPoint
 10
53053.84845997637
 20
-31495.81484937974
 30
-0.0000000000005699
  0
POINT
  5
41962F
330
419625
100
AcDbEntity
  8
DEFPOINTS
 62
     0
100
AcDbPoint
 10
53043.07618783101
 20
-31495.81484937974
 30
0.0
  0
ENDBLK
  5
419630
330
419625
100
AcDbEntity
  8
0
100
AcDbBlockEnd
  0
BLOCK
  5
419632
330
419631
100
AcDbEntity
  8
0
100
AcDbBlockBegin
  2
*D33
 70
     1
 10
0.0
 20
0.0
 30
0.0
  3
*D33
  1
*D33
  0
LINE
  5
419633
330
419631
100
AcDbEntity
  8
寸法線
 62
     8
370
    -2
100
AcDbLine
 10
53061.88610627675
 20
-31495.26320214111
 30
0.0
 11
53080.5206113909
 21
-31495.26320214111
 31
0.0
  0
LINE
  5
419634
330
419631
100
AcDbEntity
  8
寸法線
 62
     8
370
    -2
100
AcDbLine
 10
53058.04790577874
 20
-31507.8648495273
 30
0.0
 11
53080.5206113909
 21
-31507.8648495273
 31
0.0
  0
LINE
  5
419635
330
419631
100
AcDbEntity
  8
寸法線
 62
     8
370
    -2
100
AcDbLine
 10
53079.8206113909
 20
-31497.26320214111
 30
0.0
 11
53079.8206113909
 21
-31505.8648495273
 31
0.0
  0
INSERT
  5
419636
330
419631
100
AcDbEntity
  8
寸法線
 62
     8
370
    -2
100
AcDbBlockReference
  2
_OPEN
 10
53079.8206113909
 20
-31495.26320214111
 30
0.0
 41
2.0
 42
2.0
 43
2.0
 50
90.0
  0
INSERT
  5
419637
330
419631
100
AcDbEntity
  8
寸法線
 62
     8
370
    -2
100
AcDbBlockReference
  2
_OPEN
 10
53079.8206113909
 20
-31507.8648495273
 30
0.0
 41
2.0
 42
2.0
 43
2.0
 50
270.0
  0
MTEXT
  5
419638
330
419631
100
AcDbEntity
  8
寸法線
 62
     0
100
AcDbMText
 10
53077.92061139091
 20
-31501.5640258342
 30
0.0
 40
2.0
 41
0.0
 71
     5
 72
     1
  1
\A1;12.6
 11
6.123031769111886E-17
 21
1.0
 31
0.0
 73
     1
 44
1.0
  0
POINT
  5
419639
330
419631
100
AcDbEntity
  8
DEFPOINTS
 62
     0
100
AcDbPoint
 10
53061.38610627675
 20
-31495.26320214111
 30
-0.0000000000005699
  0
POINT
  5
41963A
330
419631
100
AcDbEntity
  8
DEFPOINTS
 62
     0
100
AcDbPoint
 10
53057.54790577874
 20
-31507.8648495273
 30
-0.0000000000045644
  0
POINT
  5
41963B
330
419631
100
AcDbEntity
  8
DEFPOINTS
 62
     0
100
AcDbPoint
 10
53079.8206113909
 20
-31507.8648495273
 30
0.0
  0
ENDBLK
  5
41963C
330
419631
100
AcDbEntity
  8
0
100
AcDbBlockEnd
  0
BLOCK
  5
41963E
330
41963D
100
AcDbEntity
  8
0
100
AcDbBlockBegin
  2
*D34
 70
     1
 10
0.0
 20
0.0
 30
0.0
  3
*D34
  1
*D34
  0
LINE
  5
41963F
330
41963D
100
AcDbEntity
  8
寸法線
 62
     8
370
    -2
100
AcDbLine
 10
52996.93010307464
 20
-31506.11484938963
 30
0.0
 11
53018.65755298392
 21
-31493.57050033577
 31
0.0
  0
ARC
  5
419640
330
41963D
100
AcDbEntity
  8
寸法線
 62
     8
370
    -2
100
AcDbCircle
 10
52993.89901417846
 20
-31507.86484937976
 30
0.0
 40
27.88869808809459
100
AcDbArc
 50
4.109769641094766
 51
25.89023022279255
  0
INSERT
  5
419641
330
41963D
100
AcDbEntity
  8
寸法線
 62
     8
370
    -2
100
AcDbBlockReference
  2
_OPEN
 10
53021.78771226655
 20
-31507.86484944594
 30
0.0
 41
2.0
 42
2.0
 43
2.0
 50
272.0548847525594
  0
INSERT
  5
419642
330
41963D
100
AcDbEntity
  8
寸法線
 62
     8
370
    -2
100
AcDbBlockReference
  2
_OPEN
 10
53018.05133520126
 20
-31493.92050033576
 30
0.0
 41
2.0
 42
2.0
 43
2.0
 50
117.9451151113279
  0
MTEXT
  5
419643
330
41963D
100
AcDbEntity
  8
寸法線
 62
     0
100
AcDbMText
 10
53022.73160622182
 20
-31500.37831681488
 30
0.0
 40
2.0
 41
0.0
 71
     5
 72
     1
  1
\A1;30°
 11
0.2513212407854625
 21
-0.9679037317471483
 31
0.0
 73
     1
 44
1.0
  0
POINT
  5
419644
330
41963D
100
AcDbEntity
  8
DEFPOINTS
 62
     0
100
AcDbPoint
 10
53020.10581798274
 20
-31498.32635288328
 30
0.0
  0
POINT
  5
419645
330
41963D
100
AcDbEntity
  8
DEFPOINTS
 62
     0
100
AcDbPoint
 10
52993.89901417847
 20
-31507.86484937975
 30
-0.0000000000004022
  0
POINT
  5
419646
330
41963D
100
AcDbEntity
  8
DEFPOINTS
 62
     0
100
AcDbPoint
 10
52993.89901504582
 20
-31507.86484937976
 30
-0.0000000000004022
  0
POINT
  5
419647
330
41963D
100
AcDbEntity
  8
DEFPOINTS
 62
     0
100
AcDbPoint
 10
53056.49790577445
 20
-31507.86484952832
 30
0.0
  0
POINT
  5
419648
330
41963D
100
AcDbEntity
  8
DEFPOINTS
 62
     0
100
AcDbPoint
 10
52996.49709037274
 20
-31506.36484938963
 30
-0.0000000000004022
  0
ENDBLK
  5
419649
330
41963D
100
AcDbEntity
  8
0
100
AcDbBlockEnd
  0
BLOCK
  5
41964B
330
41964A
100
AcDbEntity
  8
0
100
AcDbBlockBegin
  2
*D35
 70
     1
 10
0.0
 20
0.0
 30
0.0
  3
*D35
  1
*D35
  0
LINE
  5
41964C
330
41964A
100
AcDbEntity
  8
寸法線
 62
     8
370
    -2
100
AcDbLine
 10
53007.64901417848
 20
-31504.86484952965
 30
0.0
 11
53007.64901417848
 21
-31512.32340130987
 31
0.0
  0
LINE
  5
41964D
330
41964A
100
AcDbEntity
  8
寸法線
 62
     8
370
    -2
100
AcDbLine
 10
53024.24901417847
 20
-31504.86484952965
 30
0.0
 11
53024.24901417847
 21
-31512.32340130987
 31
0.0
  0
LINE
  5
41964E
330
41964A
100
AcDbEntity
  8
寸法線
 62
     8
370
    -2
100
AcDbLine
 10
53009.64901417848
 20
-31511.62340130987
 30
0.0
 11
53022.24901417847
 21
-31511.62340130987
 31
0.0
  0
INSERT
  5
41964F
330
41964A
100
AcDbEntity
  8
寸法線
 62
     8
370
    -2
100
AcDbBlockReference
  2
_OPEN
 10
53007.64901417848
 20
-31511.62340130987
 30
0.0
 41
2.0
 42
2.0
 43
2.0
 50
180.0
  0
INSERT
  5
419650
330
41964A
100
AcDbEntity
  8
寸法線
 62
     8
370
    -2
100
AcDbBlockReference
  2
_OPEN
 10
53024.24901417847
 20
-31511.62340130987
 30
0.0
 41
2.0
 42
2.0
 43
2.0
  0
MTEXT
  5
419651
330
41964A
100
AcDbEntity
  8
寸法線
 62
     0
100
AcDbMText
 10
53015.94901417848
 20
-31509.72340130987
 30
0.0
 40
2.0
 41
0.0
 71
     5
 72
     1
  1
\A1;16.6
 73
     1
 44
1.0
  0
POINT
  5
419652
330
41964A
100
AcDbEntity
  8
DEFPOINTS
 62
     0
100
AcDbPoint
 10
53007.64901417848
 20
-31504.36484952965
 30
0.0
  0
POINT
  5
419653
330
41964A
100
AcDbEntity
  8
DEFPOINTS
 62
     0
100
AcDbPoint
 10
53024.24901417847
 20
-31504.36484952965
 30
-0.0000000000005691
  0
POINT
  5
419654
330
41964A
100
AcDbEntity
  8
DEFPOINTS
 62
     0
100
AcDbPoint
 10
53024.24901417847
 20
-31511.62340130987
 30
0.0
  0
ENDBLK
  5
419655
330
41964A
100
AcDbEntity
  8
0
100
AcDbBlockEnd
  0
BLOCK
  5
419657
330
419656
100
AcDbEntity
  8
0
100
AcDbBlockBegin
  2
*D36
 70
     1
 10
0.0
 20
0.0
 30
0.0
  3
*D36
  1
*D36
  0
LINE
  5
419658
330
419656
100
AcDbEntity
  8
寸法線
 62
     8
370
    -2
100
AcDbLine
 10
53037.04901417849
 20
-31504.86484949374
 30
0.0
 11
53037.04901417849
 21
-31512.31531774324
 31
0.0
  0
LINE
  5
419659
330
419656
100
AcDbEntity
  8
寸法線
 62
     8
370
    -2
100
AcDbLine
 10
53053.64845997635
 20
-31504.86484952959
 30
0.0
 11
53053.64845997635
 21
-31512.31531774324
 31
0.0
  0
LINE
  5
41965A
330
419656
100
AcDbEntity
  8
寸法線
 62
     8
370
    -2
100
AcDbLine
 10
53039.04901417849
 20
-31511.61531774324
 30
0.0
 11
53051.64845997635
 21
-31511.61531774324
 31
0.0
  0
INSERT
  5
41965B
330
419656
100
AcDbEntity
  8
寸法線
 62
     8
370
    -2
100
AcDbBlockReference
  2
_OPEN
 10
53037.04901417849
 20
-31511.61531774324
 30
0.0
 41
2.0
 42
2.0
 43
2.0
 50
180.0
  0
INSERT
  5
41965C
330
419656
100
AcDbEntity
  8
寸法線
 62
     8
370
    -2
100
AcDbBlockReference
  2
_OPEN
 10
53053.64845997635
 20
-31511.61531774324
 30
0.0
 41
2.0
 42
2.0
 43
2.0
  0
MTEXT
  5
41965D
330
419656
100
AcDbEntity
  8
寸法線
 62
     0
100
AcDbMText
 10
53045.34845997634
 20
-31509.71531774324
 30
0.0
 40
2.0
 41
0.0
 71
     5
 72
     1
  1
\A1;16.6
 73
     1
 44
1.0
  0
POINT
  5
41965E
330
419656
100
AcDbEntity
  8
DEFPOINTS
 62
     0
100
AcDbPoint
 10
53037.04901417849
 20
-31504.36484949374
 30
-0.0000000000005691
  0
POINT
  5
41965F
330
419656
100
AcDbEntity
  8
DEFPOINTS
 62
     0
100
AcDbPoint
 10
53053.64845997635
 20
-31504.36484952959
 30
-0.0000000000007359
  0
POINT
  5
419660
330
419656
100
AcDbEntity
  8
DEFPOINTS
 62
     0
100
AcDbPoint
 10
53053.64845997635
 20
-31511.61531774324
 30
0.0
  0
ENDBLK
  5
419661
330
419656
100
AcDbEntity
  8
0
100
AcDbBlockEnd
  0
BLOCK
  5
419663
330
419662
100
AcDbEntity
  8
0
100
AcDbBlockBegin
  2
*D37
 70
     1
 10
0.0
 20
0.0
 30
0.0
  3
*D37
  1
*D37
  0
LINE
  5
419664
330
419662
100
AcDbEntity
  8
寸法線
 62
     8
370
    -2
100
AcDbLine
 10
53027.85069950453
 20
-31502.36484949373
 30
0.0
 11
53027.85069950453
 21
-31499.75857786028
 31
0.0
  0
LINE
  5
419665
330
419662
100
AcDbEntity
  8
寸法線
 62
     8
370
    -2
100
AcDbLine
 10
53033.45069950454
 20
-31502.36484949374
 30
0.0
 11
53033.45069950454
 21
-31499.75857786028
 31
0.0
  0
LINE
  5
419666
330
419662
100
AcDbEntity
  8
寸法線
 62
     8
370
    -2
100
AcDbLine
 10
53025.85069950453
 20
-31500.45857786028
 30
0.0
 11
53023.85069950453
 21
-31500.45857786028
 31
0.0
  0
LINE
  5
419667
330
419662
100
AcDbEntity
  8
寸法線
 62
     8
370
    -2
100
AcDbLine
 10
53035.45069950454
 20
-31500.45857786028
 30
0.0
 11
53037.45069950454
 21
-31500.45857786028
 31
0.0
  0
LINE
  5
419668
330
419662
100
AcDbEntity
  8
寸法線
 62
     8
370
    -2
100
AcDbLine
 10
53027.85069950453
 20
-31500.45857786028
 30
0.0
 11
53033.45069950454
 21
-31500.45857786028
 31
0.0
  0
INSERT
  5
419669
330
419662
100
AcDbEntity
  8
寸法線
 62
     8
370
    -2
100
AcDbBlockReference
  2
_OPEN
 10
53027.85069950453
 20
-31500.45857786028
 30
0.0
 41
2.0
 42
2.0
 43
2.0
  0
INSERT
  5
41966A
330
419662
100
AcDbEntity
  8
寸法線
 62
     8
370
    -2
100
AcDbBlockReference
  2
_OPEN
 10
53033.45069950454
 20
-31500.45857786028
 30
0.0
 41
2.0
 42
2.0
 43
2.0
 50
180.0
  0
MTEXT
  5
41966B
330
419662
100
AcDbEntity
  8
寸法線
 62
     0
100
AcDbMText
 10
53030.65069950453
 20
-31498.55857786028
 30
0.0
 40
2.0
 41
0.0
 71
     5
 72
     1
  1
\A1;5.6
 73
     1
 44
1.0
  0
POINT
  5
41966C
330
419662
100
AcDbEntity
  8
DEFPOINTS
 62
     0
100
AcDbPoint
 10
53027.85069950453
 20
-31502.86484949373
 30
-0.0000000000005691
  0
POINT
  5
41966D
330
419662
100
AcDbEntity
  8
DEFPOINTS
 62
     0
100
AcDbPoint
 10
53033.45069950454
 20
-31502.86484949374
 30
-0.0000000000005691
  0
POINT
  5
41966E
330
419662
100
AcDbEntity
  8
DEFPOINTS
 62
     0
100
AcDbPoint
 10
53033.45069950454
 20
-31500.45857786028
 30
0.0
  0
ENDBLK
  5
41966F
330
419662
100
AcDbEntity
  8
0
100
AcDbBlockEnd
  0
BLOCK
  5
419671
330
419670
100
AcDbEntity
  8
0
100
AcDbBlockBegin
  2
*D38
 70
     1
 10
0.0
 20
0.0
 30
0.0
  3
*D38
  1
*D38
  0
LINE
  5
419672
330
419670
100
AcDbEntity
  8
寸法線
 62
     8
370
    -2
100
AcDbLine
 10
52994.44714139513
 20
-31508.13869837792
 30
0.0
 11
52994.44714139513
 21
-31519.55682834259
 31
0.0
  0
LINE
  5
419673
330
419670
100
AcDbEntity
  8
寸法線
 62
     8
370
    -2
100
AcDbLine
 10
53006.24901417849
 20
-31506.36484949377
 30
0.0
 11
53006.24901417849
 21
-31519.55682834259
 31
0.0
  0
LINE
  5
419674
330
419670
100
AcDbEntity
  8
寸法線
 62
     8
370
    -2
100
AcDbLine
 10
52992.44714139513
 20
-31518.85682834259
 30
0.0
 11
52990.44714139513
 21
-31518.85682834259
 31
0.0
  0
LINE
  5
419675
330
419670
100
AcDbEntity
  8
寸法線
 62
     8
370
    -2
100
AcDbLine
 10
53008.24901417849
 20
-31518.85682834259
 30
0.0
 11
53010.24901417849
 21
-31518.85682834259
 31
0.0
  0
LINE
  5
419676
330
419670
100
AcDbEntity
  8
寸法線
 62
     8
370
    -2
100
AcDbLine
 10
52994.44714139513
 20
-31518.85682834259
 30
0.0
 11
53006.24901417849
 21
-31518.85682834259
 31
0.0
  0
INSERT
  5
419677
330
419670
100
AcDbEntity
  8
寸法線
 62
     8
370
    -2
100
AcDbBlockReference
  2
_OPEN
 10
52994.44714139513
 20
-31518.85682834259
 30
0.0
 41
2.0
 42
2.0
 43
2.0
  0
INSERT
  5
419678
330
419670
100
AcDbEntity
  8
寸法線
 62
     8
370
    -2
100
AcDbBlockReference
  2
_OPEN
 10
53006.24901417849
 20
-31518.85682834259
 30
0.0
 41
2.0
 42
2.0
 43
2.0
 50
180.0
  0
MTEXT
  5
419679
330
419670
100
AcDbEntity
  8
寸法線
 62
     0
100
AcDbMText
 10
53000.34807778681
 20
-31516.95682834259
 30
0.0
 40
2.0
 41
0.0
 71
     5
 72
     1
  1
\A1;（11.8）
 73
     1
 44
1.0
  0
POINT
  5
41967A
330
419670
100
AcDbEntity
  8
DEFPOINTS
 62
     0
100
AcDbPoint
 10
52994.44714139513
 20
-31507.63869837792
 30
-0.0000000006599858
  0
POINT
  5
41967B
330
419670
100
AcDbEntity
  8
DEFPOINTS
 62
     0
100
AcDbPoint
 10
53006.24901417849
 20
-31505.86484949377
 30
-0.0000000000004022
  0
POINT
  5
41967C
330
419670
100
AcDbEntity
  8
DEFPOINTS
 62
     0
100
AcDbPoint
 10
53006.24901417849
 20
-31518.85682834259
 30
0.0
  0
ENDBLK
  5
41967D
330
419670
100
AcDbEntity
  8
0
100
AcDbBlockEnd
  0
BLOCK
  5
41967F
330
41967E
100
AcDbEntity
  8
0
100
AcDbBlockBegin
  2
*D39
 70
     1
 10
0.0
 20
0.0
 30
0.0
  3
*D39
  1
*D39
  0
LINE
  5
419680
330
41967E
100
AcDbEntity
  8
寸法線
 62
     8
370
    -2
100
AcDbLine
 10
53061.88610627674
 20
-31438.2632021411
 30
0.0
 11
53080.5206113909
 21
-31438.2632021411
 31
0.0
  0
LINE
  5
419681
330
41967E
100
AcDbEntity
  8
寸法線
 62
     8
370
    -2
100
AcDbLine
 10
53059.7479057742
 20
-31427.86484930419
 30
0.0
 11
53080.5206113909
 21
-31427.86484930419
 31
0.0
  0
LINE
  5
419682
330
41967E
100
AcDbEntity
  8
寸法線
 62
     8
370
    -2
100
AcDbLine
 10
53079.8206113909
 20
-31436.2632021411
 30
0.0
 11
53079.8206113909
 21
-31429.86484930419
 31
0.0
  0
INSERT
  5
419683
330
41967E
100
AcDbEntity
  8
寸法線
 62
     8
370
    -2
100
AcDbBlockReference
  2
_OPEN
 10
53079.8206113909
 20
-31438.2632021411
 30
0.0
 41
2.0
 42
2.0
 43
2.0
 50
270.0
  0
INSERT
  5
419684
330
41967E
100
AcDbEntity
  8
寸法線
 62
     8
370
    -2
100
AcDbBlockReference
  2
_OPEN
 10
53079.8206113909
 20
-31427.86484930419
 30
0.0
 41
2.0
 42
2.0
 43
2.0
 50
90.0
  0
MTEXT
  5
419685
330
41967E
100
AcDbEntity
  8
寸法線
 62
     0
100
AcDbMText
 10
53077.92061139091
 20
-31433.06402572264
 30
0.0
 40
2.0
 41
0.0
 71
     5
 72
     1
  1
\A1;10.4
 11
6.123031769111886E-17
 21
1.0
 31
0.0
 73
     1
 44
1.0
  0
POINT
  5
419686
330
41967E
100
AcDbEntity
  8
DEFPOINTS
 62
     0
100
AcDbPoint
 10
53061.38610627674
 20
-31438.2632021411
 30
-0.0000000000005699
  0
POINT
  5
419687
330
41967E
100
AcDbEntity
  8
DEFPOINTS
 62
     0
100
AcDbPoint
 10
53059.2479057742
 20
-31427.86484930419
 30
-0.0000000000004464
  0
POINT
  5
419688
330
41967E
100
AcDbEntity
  8
DEFPOINTS
 62
     0
100
AcDbPoint
 10
53079.8206113909
 20
-31427.86484930419
 30
0.0
  0
ENDBLK
  5
419689
330
41967E
100
AcDbEntity
  8
0
100
AcDbBlockEnd
  0
BLOCK
  5
41968B
330
41968A
100
AcDbEntity
  8
0
100
AcDbBlockBegin
  2
*D40
 70
     1
 10
0.0
 20
0.0
 30
0.0
  3
*D40
  1
*D40
  0
LINE
  5
41968C
330
41968A
100
AcDbEntity
  8
寸法線
 62
     8
370
    -2
100
AcDbLine
 10
53059.74790577422
 20
-31408.76484930419
 30
0.0
 11
53080.51840522383
 21
-31408.76484930419
 31
0.0
  0
LINE
  5
41968D
330
41968A
100
AcDbEntity
  8
寸法線
 62
     8
370
    -2
100
AcDbLine
 10
53059.7479057742
 20
-31427.86484930419
 30
0.0
 11
53080.51840522383
 21
-31427.86484930419
 31
0.0
  0
LINE
  5
41968E
330
41968A
100
AcDbEntity
  8
寸法線
 62
     8
370
    -2
100
AcDbLine
 10
53079.81840522384
 20
-31410.76484930419
 30
0.0
 11
53079.81840522384
 21
-31425.86484930419
 31
0.0
  0
INSERT
  5
41968F
330
41968A
100
AcDbEntity
  8
寸法線
 62
     8
370
    -2
100
AcDbBlockReference
  2
_OPEN
 10
53079.81840522384
 20
-31408.76484930419
 30
0.0
 41
2.0
 42
2.0
 43
2.0
 50
90.0
  0
INSERT
  5
419690
330
41968A
100
AcDbEntity
  8
寸法線
 62
     8
370
    -2
100
AcDbBlockReference
  2
_OPEN
 10
53079.81840522384
 20
-31427.86484930419
 30
0.0
 41
2.0
 42
2.0
 43
2.0
 50
270.0
  0
MTEXT
  5
419691
330
41968A
100
AcDbEntity
  8
寸法線
 62
     0
100
AcDbMText
 10
53077.91840522384
 20
-31418.31484930418
 30
0.0
 40
2.0
 41
0.0
 71
     5
 72
     1
  1
\A1;19.1
 11
6.123031769111886E-17
 21
1.0
 31
0.0
 73
     1
 44
1.0
  0
POINT
  5
419692
330
41968A
100
AcDbEntity
  8
DEFPOINTS
 62
     0
100
AcDbPoint
 10
53059.24790577422
 20
-31408.76484930419
 30
-0.0000000000004698
  0
POINT
  5
419693
330
41968A
100
AcDbEntity
  8
DEFPOINTS
 62
     0
100
AcDbPoint
 10
53059.2479057742
 20
-31427.86484930419
 30
-0.0000000000004464
  0
POINT
  5
419694
330
41968A
100
AcDbEntity
  8
DEFPOINTS
 62
     0
100
AcDbPoint
 10
53079.81840522384
 20
-31427.86484930419
 30
0.0
  0
ENDBLK
  5
419695
330
41968A
100
AcDbEntity
  8
0
100
AcDbBlockEnd
  0
BLOCK
  5
419697
330
419696
100
AcDbEntity
  8
0
100
AcDbBlockBegin
  2
*D41
 70
     1
 10
0.0
 20
0.0
 30
0.0
  3
*D41
  1
*D41
  0
LINE
  5
419698
330
419696
100
AcDbEntity
  8
寸法線
 62
     8
370
    -2
100
AcDbLine
 10
53053.14790577419
 20
-31393.06484938051
 30
0.0
 11
53053.14790577419
 21
-31388.2057892074
 31
0.0
  0
LINE
  5
419699
330
419696
100
AcDbEntity
  8
寸法線
 62
     8
370
    -2
100
AcDbLine
 10
53059.24790577419
 20
-31393.06484938049
 30
0.0
 11
53059.24790577419
 21
-31388.2057892074
 31
0.0
  0
LINE
  5
41969A
330
419696
100
AcDbEntity
  8
寸法線
 62
     8
370
    -2
100
AcDbLine
 10
53051.14790577419
 20
-31388.90578920741
 30
0.0
 11
53049.14790577419
 21
-31388.90578920741
 31
0.0
  0
LINE
  5
41969B
330
419696
100
AcDbEntity
  8
寸法線
 62
     8
370
    -2
100
AcDbLine
 10
53061.24790577419
 20
-31388.90578920741
 30
0.0
 11
53063.24790577419
 21
-31388.90578920741
 31
0.0
  0
LINE
  5
41969C
330
419696
100
AcDbEntity
  8
寸法線
 62
     8
370
    -2
100
AcDbLine
 10
53053.14790577419
 20
-31388.90578920741
 30
0.0
 11
53059.24790577419
 21
-31388.90578920741
 31
0.0
  0
INSERT
  5
41969D
330
419696
100
AcDbEntity
  8
寸法線
 62
     8
370
    -2
100
AcDbBlockReference
  2
_OPEN
 10
53053.14790577419
 20
-31388.90578920741
 30
0.0
 41
2.0
 42
2.0
 43
2.0
  0
INSERT
  5
41969E
330
419696
100
AcDbEntity
  8
寸法線
 62
     8
370
    -2
100
AcDbBlockReference
  2
_OPEN
 10
53059.24790577419
 20
-31388.90578920741
 30
0.0
 41
2.0
 42
2.0
 43
2.0
 50
180.0
  0
MTEXT
  5
41969F
330
419696
100
AcDbEntity
  8
寸法線
 62
     0
100
AcDbMText
 10
53056.19790577418
 20
-31387.0057892074
 30
0.0
 40
2.0
 41
0.0
 71
     5
 72
     1
  1
\A1;6.1
 73
     1
 44
1.0
  0
POINT
  5
4196A0
330
419696
100
AcDbEntity
  8
DEFPOINTS
 62
     0
100
AcDbPoint
 10
53053.14790577419
 20
-31393.56484938051
 30
-0.0000000000005757
  0
POINT
  5
4196A1
330
419696
100
AcDbEntity
  8
DEFPOINTS
 62
     0
100
AcDbPoint
 10
53059.24790577419
 20
-31393.56484938049
 30
-0.0000000000005805
  0
POINT
  5
4196A2
330
419696
100
AcDbEntity
  8
DEFPOINTS
 62
     0
100
AcDbPoint
 10
53059.24790577419
 20
-31388.90578920741
 30
0.0
  0
ENDBLK
  5
4196A3
330
419696
100
AcDbEntity
  8
0
100
AcDbBlockEnd
  0
BLOCK
  5
4196A5
330
4196A4
100
AcDbEntity
  8
0
100
AcDbBlockBegin
  2
*D42
 70
     1
 10
0.0
 20
0.0
 30
0.0
  3
*D42
  1
*D42
  0
LINE
  5
4196A6
330
4196A4
100
AcDbEntity
  8
寸法線
 62
     8
370
    -2
100
AcDbLine
 10
53058.94790577421
 20
-31424.2648493042
 30
0.0
 11
53065.0283022923
 21
-31424.2648493042
 31
0.0
  0
LINE
  5
4196A7
330
4196A4
100
AcDbEntity
  8
寸法線
 62
     8
370
    -2
100
AcDbLine
 10
53058.94790577423
 20
-31412.66484930419
 30
0.0
 11
53065.0283022923
 21
-31412.66484930419
 31
0.0
  0
LINE
  5
4196A8
330
4196A4
100
AcDbEntity
  8
寸法線
 62
     8
370
    -2
100
AcDbLine
 10
53064.32830229231
 20
-31422.2648493042
 30
0.0
 11
53064.32830229231
 21
-31414.66484930419
 31
0.0
  0
INSERT
  5
4196A9
330
4196A4
100
AcDbEntity
  8
寸法線
 62
     8
370
    -2
100
AcDbBlockReference
  2
_OPEN
 10
53064.32830229231
 20
-31424.2648493042
 30
0.0
 41
2.0
 42
2.0
 43
2.0
 50
270.0
  0
INSERT
  5
4196AA
330
4196A4
100
AcDbEntity
  8
寸法線
 62
     8
370
    -2
100
AcDbBlockReference
  2
_OPEN
 10
53064.32830229231
 20
-31412.66484930419
 30
0.0
 41
2.0
 42
2.0
 43
2.0
 50
90.0
  0
MTEXT
  5
4196AB
330
4196A4
100
AcDbEntity
  8
寸法線
 62
     0
100
AcDbMText
 10
53062.42830229231
 20
-31418.46484930419
 30
0.0
 40
2.0
 41
0.0
 71
     5
 72
     1
  1
\A1;11.6
 11
6.123031769111886E-17
 21
1.0
 31
0.0
 73
     1
 44
1.0
  0
POINT
  5
4196AC
330
4196A4
100
AcDbEntity
  8
DEFPOINTS
 62
     0
100
AcDbPoint
 10
53058.44790577421
 20
-31424.2648493042
 30
-0.0000000000004464
  0
POINT
  5
4196AD
330
4196A4
100
AcDbEntity
  8
DEFPOINTS
 62
     0
100
AcDbPoint
 10
53058.44790577423
 20
-31412.66484930419
 30
-0.0000000000004464
  0
POINT
  5
4196AE
330
4196A4
100
AcDbEntity
  8
DEFPOINTS
 62
     0
100
AcDbPoint
 10
53064.32830229231
 20
-31412.66484930419
 30
0.0
  0
ENDBLK
  5
4196AF
330
4196A4
100
AcDbEntity
  8
0
100
AcDbBlockEnd
  0
BLOCK
  5
4196B1
330
4196B0
100
AcDbEntity
  8
0
100
AcDbBlockBegin
  2
*D43
 70
     1
 10
0.0
 20
0.0
 30
0.0
  3
*D43
  1
*D43
  0
LINE
  5
4196B2
330
4196B0
100
AcDbEntity
  8
寸法線
 62
     8
370
    -2
100
AcDbLine
 10
53059.74790577422
 20
-31411.86484930422
 30
0.0
 11
53069.92434136843
 21
-31411.86484930422
 31
0.0
  0
LINE
  5
4196B3
330
4196B0
100
AcDbEntity
  8
寸法線
 62
     8
370
    -2
100
AcDbLine
 10
53059.74790577422
 20
-31425.06484930421
 30
0.0
 11
53069.92434136843
 21
-31425.06484930421
 31
0.0
  0
LINE
  5
4196B4
330
4196B0
100
AcDbEntity
  8
寸法線
 62
     8
370
    -2
100
AcDbLine
 10
53069.22434136843
 20
-31413.86484930422
 30
0.0
 11
53069.22434136843
 21
-31423.06484930421
 31
0.0
  0
INSERT
  5
4196B5
330
4196B0
100
AcDbEntity
  8
寸法線
 62
     8
370
    -2
100
AcDbBlockReference
  2
_OPEN
 10
53069.22434136843
 20
-31411.86484930422
 30
0.0
 41
2.0
 42
2.0
 43
2.0
 50
90.0
  0
INSERT
  5
4196B6
330
4196B0
100
AcDbEntity
  8
寸法線
 62
     8
370
    -2
100
AcDbBlockReference
  2
_OPEN
 10
53069.22434136843
 20
-31425.06484930421
 30
0.0
 41
2.0
 42
2.0
 43
2.0
 50
270.0
  0
MTEXT
  5
4196B7
330
4196B0
100
AcDbEntity
  8
寸法線
 62
     0
100
AcDbMText
 10
53067.32434136844
 20
-31418.46484930421
 30
0.0
 40
2.0
 41
0.0
 71
     5
 72
     1
  1
\A1;13.2
 11
6.123031769111886E-17
 21
1.0
 31
0.0
 73
     1
 44
1.0
  0
POINT
  5
4196B8
330
4196B0
100
AcDbEntity
  8
DEFPOINTS
 62
     0
100
AcDbPoint
 10
53059.24790577422
 20
-31411.86484930422
 30
-0.0000000000004464
  0
POINT
  5
4196B9
330
4196B0
100
AcDbEntity
  8
DEFPOINTS
 62
     0
100
AcDbPoint
 10
53059.24790577422
 20
-31425.06484930421
 30
-0.0000000000004464
  0
POINT
  5
4196BA
330
4196B0
100
AcDbEntity
  8
DEFPOINTS
 62
     0
100
AcDbPoint
 10
53069.22434136843
 20
-31425.06484930421
 30
0.0
  0
ENDBLK
  5
4196BB
330
4196B0
100
AcDbEntity
  8
0
100
AcDbBlockEnd
  0
BLOCK
  5
4196BD
330
4196BC
100
AcDbEntity
  8
0
100
AcDbBlockBegin
  2
*D44
 70
     1
 10
0.0
 20
0.0
 30
0.0
  3
*D44
  1
*D44
  0
LINE
  5
4196BE
330
4196BC
100
AcDbEntity
  8
寸法線
 62
     8
370
    -2
100
AcDbLine
 10
53055.64790577423
 20
-31410.46484930419
 30
0.0
 11
53050.64980992341
 21
-31410.46484930419
 31
0.0
  0
LINE
  5
4196BF
330
4196BC
100
AcDbEntity
  8
寸法線
 62
     8
370
    -2
100
AcDbLine
 10
53055.64790577423
 20
-31426.26484930419
 30
0.0
 11
53050.64980992341
 21
-31426.26484930419
 31
0.0
  0
LINE
  5
4196C0
330
4196BC
100
AcDbEntity
  8
寸法線
 62
     8
370
    -2
100
AcDbLine
 10
53051.34980992341
 20
-31412.46484930419
 30
0.0
 11
53051.34980992341
 21
-31424.26484930419
 31
0.0
  0
INSERT
  5
4196C1
330
4196BC
100
AcDbEntity
  8
寸法線
 62
     8
370
    -2
100
AcDbBlockReference
  2
_OPEN
 10
53051.34980992341
 20
-31410.46484930419
 30
0.0
 41
2.0
 42
2.0
 43
2.0
 50
90.0
  0
INSERT
  5
4196C2
330
4196BC
100
AcDbEntity
  8
寸法線
 62
     8
370
    -2
100
AcDbBlockReference
  2
_OPEN
 10
53051.34980992341
 20
-31426.26484930419
 30
0.0
 41
2.0
 42
2.0
 43
2.0
 50
270.0
  0
MTEXT
  5
4196C3
330
4196BC
100
AcDbEntity
  8
寸法線
 62
     0
100
AcDbMText
 10
53049.16647659008
 20
-31418.36484930418
 30
0.0
 40
2.0
 41
0.0
 71
     5
 72
     1
  1
\A1;15.8{\H1.100000;\S+0.3^ -0;}
 11
6.123031769111886E-17
 21
1.0
 31
0.0
 73
     1
 44
1.0
  0
POINT
  5
4196C4
330
4196BC
100
AcDbEntity
  8
DEFPOINTS
 62
     0
100
AcDbPoint
 10
53056.14790577423
 20
-31410.46484930419
 30
-0.0000000000004464
  0
POINT
  5
4196C5
330
4196BC
100
AcDbEntity
  8
DEFPOINTS
 62
     0
100
AcDbPoint
 10
53056.14790577423
 20
-31426.26484930419
 30
-0.0000000000004464
  0
POINT
  5
4196C6
330
4196BC
100
AcDbEntity
  8
DEFPOINTS
 62
     0
100
AcDbPoint
 10
53051.34980992341
 20
-31426.26484930419
 30
0.0
  0
ENDBLK
  5
4196C7
330
4196BC
100
AcDbEntity
  8
0
100
AcDbBlockEnd
  0
BLOCK
  5
4196C9
330
4196C8
100
AcDbEntity
  8
0
100
AcDbBlockBegin
  2
*D45
 70
     1
 10
0.0
 20
0.0
 30
0.0
  3
*D45
  1
*D45
  0
LINE
  5
4196CA
330
4196C8
100
AcDbEntity
  8
寸法線
 62
     8
100
AcDbLine
 10
52969.27617970178
 20
-31539.49189307303
 30
0.0000000000003726
 11
52982.71482700483
 21
-31539.49189307303
 31
0.0000000000003726
  0
LINE
  5
4196CB
330
4196C8
100
AcDbEntity
  8
寸法線
 62
     8
100
AcDbLine
 10
52974.08123567996
 20
-31534.99189296527
 30
0.0000000000003726
 11
52982.71482700483
 21
-31534.99189296527
 31
0.0000000000003726
  0
LINE
  5
4196CC
330
4196C8
100
AcDbEntity
  8
寸法線
 62
     8
100
AcDbLine
 10
52982.01482700484
 20
-31541.49189307303
 30
0.0000000000003726
 11
52982.01482700484
 21
-31543.49189307303
 31
0.0000000000003726
  0
LINE
  5
4196CD
330
4196C8
100
AcDbEntity
  8
寸法線
 62
     8
100
AcDbLine
 10
52982.01482700484
 20
-31532.99189296527
 30
0.0000000000003726
 11
52982.01482700484
 21
-31524.05855963193
 31
0.0000000000003726
  0
LINE
  5
4196CE
330
4196C8
100
AcDbEntity
  8
寸法線
 62
     8
100
AcDbLine
 10
52982.01482700484
 20
-31539.49189307303
 30
0.0000000000003726
 11
52982.01482700484
 21
-31534.99189296527
 31
0.0000000000003726
  0
INSERT
  5
4196CF
330
4196C8
100
AcDbEntity
  8
寸法線
 62
     8
100
AcDbBlockReference
  2
_OPEN
 10
52982.01482700484
 20
-31539.49189307303
 30
0.0000000000003726
 41
2.0
 42
2.0
 43
2.0
 50
90.0
  0
INSERT
  5
4196D0
330
4196C8
100
AcDbEntity
  8
寸法線
 62
     8
100
AcDbBlockReference
  2
_OPEN
 10
52982.01482700484
 20
-31534.99189296527
 30
0.0000000000003726
 41
2.0
 42
2.0
 43
2.0
 50
270.0
  0
MTEXT
  5
4196D1
330
4196C8
100
AcDbEntity
  8
寸法線
100
AcDbMText
 10
52980.21482700484
 20
-31527.52522629859
 30
0.0000000000003726
 40
2.0
 41
0.0
 71
     5
 72
     1
  1
\A1;1.5
 11
6.123031769111886E-17
 21
1.0
 31
0.0
 73
     1
 44
1.0
  0
POINT
  5
4196D2
330
4196C8
100
AcDbEntity
  8
DEFPOINTS
 62
     0
100
AcDbPoint
 10
52968.47617970178
 20
-31539.49189307303
 30
-0.0000000000013345
  0
POINT
  5
4196D3
330
4196C8
100
AcDbEntity
  8
DEFPOINTS
 62
     0
100
AcDbPoint
 10
52973.28123567995
 20
-31534.99189296527
 30
-0.0000000000013345
  0
POINT
  5
4196D4
330
4196C8
100
AcDbEntity
  8
DEFPOINTS
 62
     0
100
AcDbPoint
 10
52982.01482700484
 20
-31534.99189296527
 30
0.0000000000003726
  0
ENDBLK
  5
4196D5
330
4196C8
100
AcDbEntity
  8
0
100
AcDbBlockEnd
  0
BLOCK
  5
4196D7
330
4196D6
100
AcDbEntity
  8
0
100
AcDbBlockBegin
  2
*D46
 70
     1
 10
0.0
 20
0.0
 30
0.0
  3
*D46
  1
*D46
  0
LINE
  5
4196D8
330
4196D6
100
AcDbEntity
  8
寸法線
 62
     8
370
    -2
100
AcDbLine
 10
53053.14790577421
 20
-31408.82034862596
 30
0.0
 11
53053.14790577422
 21
-31418.67095757728
 31
0.0
  0
LINE
  5
4196D9
330
4196D6
100
AcDbEntity
  8
寸法線
 62
     8
370
    -2
100
AcDbLine
 10
53005.44901417848
 20
-31505.86484949382
 30
0.0
 11
52963.9540138601
 21
-31505.86484949588
 31
0.0
  0
ARC
  5
4196DA
330
4196D6
100
AcDbEntity
  8
寸法線
 62
     8
370
    -2
100
AcDbCircle
 10
53053.14790577425
 20
-31505.86484949145
 30
0.0
 40
88.19389191415924
100
AcDbArc
 50
91.6241968897877
 51
178.3758031130888
  0
INSERT
  5
4196DB
330
4196D6
100
AcDbEntity
  8
寸法線
 62
     8
370
    -2
100
AcDbBlockReference
  2
_OPEN
 10
53053.14790577421
 20
-31417.67095757728
 30
0.0
 41
2.5
 42
2.5
 43
2.5
 50
0.8120984449082669
  0
INSERT
  5
4196DC
330
4196D6
100
AcDbEntity
  8
寸法線
 62
     8
370
    -2
100
AcDbBlockReference
  2
_OPEN
 10
52964.9540138601
 20
-31505.86484949583
 30
0.0
 41
2.5
 42
2.5
 43
2.5
 50
269.1879015579682
  0
MTEXT
  5
4196DD
330
4196D6
100
AcDbEntity
  8
寸法線
 62
     0
100
AcDbMText
 10
52988.98228444888
 20
-31441.69922816929
 30
0.0
 40
3.5
 41
0.0
 71
     5
 72
     1
  1
\A1;90°
 11
0.7071067811690507
 21
0.7071067812040444
 31
0.0
 73
     1
 44
1.0
  0
POINT
  5
4196DE
330
4196D6
100
AcDbEntity
  8
DEFPOINTS
 62
     0
100
AcDbPoint
 10
53009.05095981589
 20
-31429.48669863591
 30
0.0
  0
POINT
  5
4196DF
330
4196D6
100
AcDbEntity
  8
DEFPOINTS
 62
     0
100
AcDbPoint
 10
53026.24901417848
 20
-31505.86484949278
 30
-0.0000000000004977
  0
POINT
  5
4196E0
330
4196D6
100
AcDbEntity
  8
DEFPOINTS
 62
     0
100
AcDbPoint
 10
53053.1479057742
 20
-31401.01484938051
 30
-0.0000000000005757
  0
POINT
  5
4196E1
330
4196D6
100
AcDbEntity
  8
DEFPOINTS
 62
     0
100
AcDbPoint
 10
53053.14790577421
 20
-31408.02034862596
 30
-0.0000000000005757
  0
POINT
  5
4196E2
330
4196D6
100
AcDbEntity
  8
DEFPOINTS
 62
     0
100
AcDbPoint
 10
53006.24901417847
 20
-31505.86484949377
 30
-0.0000000000004022
  0
ENDBLK
  5
4196E3
330
4196D6
100
AcDbEntity
  8
0
100
AcDbBlockEnd
  0
BLOCK
  5
44F176
330
44F175
100
AcDbEntity
  8
0
100
AcDbBlockBegin
  2
*D52
 70
     1
 10
0.0
 20
0.0
 30
0.0
  3
*D52
  1
*D52
  0
LINE
  5
44F177
330
44F175
100
AcDbEntity
  8
寸法線
 62
     8
370
    -2
100
AcDbLine
 10
62669.70471842377
 20
-33407.75883962738
 30
0.0
 11
62669.70471842377
 21
-33447.63020970424
 31
0.0
  0
LINE
  5
44F178
330
44F175
100
AcDbEntity
  8
寸法線
 62
     8
370
    -2
100
AcDbLine
 10
62454.69988353514
 20
-33407.75883962744
 30
0.0
 11
62454.69988353514
 21
-33447.63020970424
 31
0.0
  0
LINE
  5
44F179
330
44F175
100
AcDbEntity
  8
寸法線
 62
     8
370
    -2
100
AcDbLine
 10
62662.70471842377
 20
-33446.93020970424
 30
0.0
 11
62461.69988353514
 21
-33446.93020970424
 31
0.0
  0
INSERT
  5
44F17A
330
44F175
100
AcDbEntity
  8
寸法線
 62
     8
370
    -2
100
AcDbBlockReference
  2
_OPEN
 10
62669.70471842377
 20
-33446.93020970424
 30
0.0
 41
7.0
 42
7.0
 43
7.0
  0
INSERT
  5
44F17B
330
44F175
100
AcDbEntity
  8
寸法線
 62
     8
370
    -2
100
AcDbBlockReference
  2
_OPEN
 10
62454.69988353514
 20
-33446.93020970424
 30
0.0
 41
7.0
 42
7.0
 43
7.0
 50
180.0
  0
MTEXT
  5
44F17C
330
44F175
100
AcDbEntity
  8
寸法線
 62
     0
100
AcDbMText
 10
62562.20230097945
 20
-33442.03020970424
 30
0.0
 40
8.0
 41
0.0
 71
     5
 72
     1
  1
\A1;215
 73
     1
 44
1.0
  0
POINT
  5
44F17D
330
44F175
100
AcDbEntity
  8
DEFPOINTS
 62
     0
100
AcDbPoint
 10
62669.70471842377
 20
-33407.25883962738
 30
0.0000000006588893
  0
POINT
  5
44F17E
330
44F175
100
AcDbEntity
  8
DEFPOINTS
 62
     0
100
AcDbPoint
 10
62454.69988353514
 20
-33407.25883962744
 30
0.0000000006588893
  0
POINT
  5
44F17F
330
44F175
100
AcDbEntity
  8
DEFPOINTS
 62
     0
100
AcDbPoint
 10
62454.69988353514
 20
-33446.93020970424
 30
0.0
  0
ENDBLK
  5
44F180
330
44F175
100
AcDbEntity
  8
0
100
AcDbBlockEnd
  0
BLOCK
  5
44F182
330
44F181
100
AcDbEntity
  8
0
100
AcDbBlockBegin
  2
*D53
 70
     1
 10
0.0
 20
0.0
 30
0.0
  3
*D53
  1
*D53
  0
LINE
  5
44F183
330
44F181
100
AcDbEntity
  8
寸法線
 62
     8
370
    -2
100
AcDbLine
 10
62459.20230097945
 20
-33502.30948954546
 30
0.0
 11
62413.89227824791
 21
-33502.30948954546
 31
0.0
  0
LINE
  5
44F184
330
44F181
100
AcDbEntity
  8
寸法線
 62
     8
370
    -2
100
AcDbLine
 10
62459.20230097945
 20
-33788.9144524207
 30
0.0
 11
62413.89227824791
 21
-33788.9144524207
 31
0.0
  0
LINE
  5
44F185
330
44F181
100
AcDbEntity
  8
寸法線
 62
     8
370
    -2
100
AcDbLine
 10
62414.59227824791
 20
-33509.30948954546
 30
0.0
 11
62414.59227824791
 21
-33781.9144524207
 31
0.0
  0
INSERT
  5
44F186
330
44F181
100
AcDbEntity
  8
寸法線
 62
     8
370
    -2
100
AcDbBlockReference
  2
_OPEN
 10
62414.59227824791
 20
-33502.30948954546
 30
0.0
 41
7.0
 42
7.0
 43
7.0
 50
90.0
  0
INSERT
  5
44F187
330
44F181
100
AcDbEntity
  8
寸法線
 62
     8
370
    -2
100
AcDbBlockReference
  2
_OPEN
 10
62414.59227824791
 20
-33788.9144524207
 30
0.0
 41
7.0
 42
7.0
 43
7.0
 50
270.0
  0
MTEXT
  5
44F188
330
44F181
100
AcDbEntity
  8
寸法線
 62
     0
100
AcDbMText
 10
62409.69227824792
 20
-33645.61197098307
 30
0.0
 40
8.0
 41
0.0
 71
     5
 72
     1
  1
\A1;286.6
 11
6.123031769111886E-17
 21
1.0
 31
0.0
 73
     1
 44
1.0
  0
POINT
  5
44F189
330
44F181
100
AcDbEntity
  8
DEFPOINTS
 62
     0
100
AcDbPoint
 10
62459.70230097945
 20
-33502.30948954546
 30
0.0000000008733377
  0
POINT
  5
44F18A
330
44F181
100
AcDbEntity
  8
DEFPOINTS
 62
     0
100
AcDbPoint
 10
62459.70230097945
 20
-33788.9144524207
 30
0.0000000008733377
  0
POINT
  5
44F18B
330
44F181
100
AcDbEntity
  8
DEFPOINTS
 62
     0
100
AcDbPoint
 10
62414.59227824791
 20
-33788.9144524207
 30
0.0
  0
ENDBLK
  5
44F18C
330
44F181
100
AcDbEntity
  8
0
100
AcDbBlockEnd
  0
BLOCK
  5
44F18E
330
44F18D
100
AcDbEntity
  8
0
100
AcDbBlockBegin
  2
*D54
 70
     1
 10
0.0
 20
0.0
 30
0.0
  3
*D54
  1
*D54
  0
LINE
  5
44F18F
330
44F18D
100
AcDbEntity
  8
寸法線
 62
     8
370
    -2
100
AcDbLine
 10
62830.5228158095
 20
-33409.65883961559
 30
0.0
 11
62830.5228158095
 21
-33447.63020970424
 31
0.0
  0
LINE
  5
44F190
330
44F18D
100
AcDbEntity
  8
寸法線
 62
     8
370
    -2
100
AcDbLine
 10
63045.52765069813
 20
-33409.65883961559
 30
0.0
 11
63045.52765069813
 21
-33447.63020970424
 31
0.0
  0
LINE
  5
44F191
330
44F18D
100
AcDbEntity
  8
寸法線
 62
     8
370
    -2
100
AcDbLine
 10
62837.5228158095
 20
-33446.93020970424
 30
0.0
 11
63038.52765069813
 21
-33446.93020970424
 31
0.0
  0
INSERT
  5
44F192
330
44F18D
100
AcDbEntity
  8
寸法線
 62
     8
370
    -2
100
AcDbBlockReference
  2
_OPEN
 10
62830.5228158095
 20
-33446.93020970424
 30
0.0
 41
7.0
 42
7.0
 43
7.0
 50
180.0
  0
INSERT
  5
44F193
330
44F18D
100
AcDbEntity
  8
寸法線
 62
     8
370
    -2
100
AcDbBlockReference
  2
_OPEN
 10
63045.52765069813
 20
-33446.93020970424
 30
0.0
 41
7.0
 42
7.0
 43
7.0
  0
MTEXT
  5
44F194
330
44F18D
100
AcDbEntity
  8
寸法線
 62
     0
100
AcDbMText
 10
62938.02523325381
 20
-33442.03020970424
 30
0.0
 40
8.0
 41
0.0
 71
     5
 72
     1
  1
\A1;215
 73
     1
 44
1.0
  0
POINT
  5
44F195
330
44F18D
100
AcDbEntity
  8
DEFPOINTS
 62
     0
100
AcDbPoint
 10
62830.5228158095
 20
-33409.15883961559
 30
0.000000000658846
  0
POINT
  5
44F196
330
44F18D
100
AcDbEntity
  8
DEFPOINTS
 62
     0
100
AcDbPoint
 10
63045.52765069813
 20
-33409.15883961559
 30
0.000000000658846
  0
POINT
  5
44F197
330
44F18D
100
AcDbEntity
  8
DEFPOINTS
 62
     0
100
AcDbPoint
 10
63045.52765069813
 20
-33446.93020970424
 30
0.0
  0
ENDBLK
  5
44F198
330
44F18D
100
AcDbEntity
  8
0
100
AcDbBlockEnd
  0
BLOCK
  5
44F19A
330
44F199
100
AcDbEntity
  8
0
100
AcDbBlockBegin
  2
*D55
 70
     1
 10
0.0
 20
0.0
 30
0.0
  3
*D55
  1
*D55
  0
LINE
  5
44F19B
330
44F199
100
AcDbEntity
  8
寸法線
 62
     8
370
    -2
100
AcDbLine
 10
63001.76879344246
 20
-33316.05871517533
 30
0.0
 11
63013.45050982304
 21
-33304.37699879475
 31
0.0
  0
ARC
  5
44F19C
330
44F199
100
AcDbEntity
  8
寸法線
 62
     8
370
    -2
100
AcDbCircle
 10
62938.02523325381
 20
-33379.802275364
 30
0.0
 40
105.9674490699577
100
AcDbArc
 50
46.08140057077484
 51
88.91859942923477
  0
INSERT
  5
44F19D
330
44F199
100
AcDbEntity
  8
寸法線
 62
     8
370
    -2
100
AcDbBlockReference
  2
_OPEN
 10
63012.95553507621
 20
-33304.87197354158
 30
0.0
 41
2.0
 42
2.0
 43
2.0
 50
315.5407002853924
  0
INSERT
  5
44F19E
330
44F199
100
AcDbEntity
  8
寸法線
 62
     8
370
    -2
100
AcDbBlockReference
  2
_OPEN
 10
62938.02523325381
 20
-33273.83482629404
 30
0.0
 41
2.0
 42
2.0
 43
2.0
 50
179.4592997146172
  0
MTEXT
  5
44F19F
330
44F199
100
AcDbEntity
  8
寸法線
 62
     0
100
AcDbMText
 10
62980.45236920146
 20
-33277.37410834653
 30
0.0
 40
8.0
 41
0.0
 71
     5
 72
     1
  1
\A1;45°
 11
0.9238795325113087
 21
-0.3826834323650368
 31
0.0
 73
     1
 44
1.0
  0
POINT
  5
44F1A0
330
44F199
100
AcDbEntity
  8
DEFPOINTS
 62
     0
100
AcDbPoint
 10
62991.00895778879
 20
-33288.03177249518
 30
0.0
  0
POINT
  5
44F1A1
330
44F199
100
AcDbEntity
  8
DEFPOINTS
 62
     0
100
AcDbPoint
 10
62938.02523325382
 20
-33232.69799114602
 30
0.0
  0
POINT
  5
44F1A2
330
44F199
100
AcDbEntity
  8
DEFPOINTS
 62
     0
100
AcDbPoint
 10
63001.41524005187
 20
-33316.41226856592
 30
-0.0000000006594356
  0
POINT
  5
44F1A3
330
44F199
100
AcDbEntity
  8
DEFPOINTS
 62
     0
100
AcDbPoint
 10
62924.90220029355
 20
-33392.92530832429
 30
-0.0000000006591616
  0
POINT
  5
44F1A4
330
44F199
100
AcDbEntity
  8
DEFPOINTS
 62
     0
100
AcDbPoint
 10
62938.02523325381
 20
-33412.29691257197
 30
0.0
  0
ENDBLK
  5
44F1A5
330
44F199
100
AcDbEntity
  8
0
100
AcDbBlockEnd
  0
BLOCK
  5
44F1A7
330
44F1A6
100
AcDbEntity
  8
0
100
AcDbBlockBegin
  2
*D56
 70
     1
 10
0.0
 20
0.0
 30
0.0
  3
*D56
  1
*D56
  0
LINE
  5
44F1A8
330
44F1A6
100
AcDbEntity
  8
寸法線
 62
     8
370
    -2
100
AcDbLine
 10
62459.70230097945
 20
-33501.80948954547
 30
0.0
 11
62459.70230097945
 21
-33473.89211412568
 31
0.0
  0
LINE
  5
44F1A9
330
44F1A6
100
AcDbEntity
  8
寸法線
 62
     8
370
    -2
100
AcDbLine
 10
62664.70230097945
 20
-33501.80948954545
 30
0.0
 11
62664.70230097945
 21
-33473.89211412568
 31
0.0
  0
LINE
  5
44F1AA
330
44F1A6
100
AcDbEntity
  8
寸法線
 62
     8
370
    -2
100
AcDbLine
 10
62466.70230097945
 20
-33474.59211412568
 30
0.0
 11
62657.70230097945
 21
-33474.59211412568
 31
0.0
  0
INSERT
  5
44F1AB
330
44F1A6
100
AcDbEntity
  8
寸法線
 62
     8
370
    -2
100
AcDbBlockReference
  2
_OPEN
 10
62459.70230097945
 20
-33474.59211412568
 30
0.0
 41
7.0
 42
7.0
 43
7.0
 50
180.0
  0
INSERT
  5
44F1AC
330
44F1A6
100
AcDbEntity
  8
寸法線
 62
     8
370
    -2
100
AcDbBlockReference
  2
_OPEN
 10
62664.70230097945
 20
-33474.59211412568
 30
0.0
 41
7.0
 42
7.0
 43
7.0
  0
MTEXT
  5
44F1AD
330
44F1A6
100
AcDbEntity
  8
寸法線
 62
     0
100
AcDbMText
 10
62562.20230097945
 20
-33469.69211412568
 30
0.0
 40
8.0
 41
0.0
 71
     5
 72
     1
  1
\A1;205
 73
     1
 44
1.0
  0
POINT
  5
44F1AE
330
44F1A6
100
AcDbEntity
  8
DEFPOINTS
 62
     0
100
AcDbPoint
 10
62459.70230097945
 20
-33502.30948954547
 30
0.0000000008733377
  0
POINT
  5
44F1AF
330
44F1A6
100
AcDbEntity
  8
DEFPOINTS
 62
     0
100
AcDbPoint
 10
62664.70230097945
 20
-33502.30948954545
 30
0.0000000008733377
  0
POINT
  5
44F1B0
330
44F1A6
100
AcDbEntity
  8
DEFPOINTS
 62
     0
100
AcDbPoint
 10
62664.70230097945
 20
-33474.59211412568
 30
0.0
  0
ENDBLK
  5
44F1B1
330
44F1A6
100
AcDbEntity
  8
0
100
AcDbBlockEnd
  0
ENDSEC
  0
SECTION
  2
ENTITIES
  0
TEXT
  5
11B04
330
18
100
AcDbEntity
  8
文字
100
AcDbText
 10
-1240.183388714458
 20
-1416.837204555437
 30
0.0
 40
6.75
  1

 41
1.0228
100
AcDbText
  0
MTEXT
  5
12B3E
330
18
100
AcDbEntity
  8
0
100
AcDbMText
 10
-974.1891318600246
 20
-2072.131137572738
 30
0.0
 40
2.500000000000003
 41
0.0
 71
     9
 72
     1
  1
\A1;
 73
     1
 44
1.0
  0
MTEXT
  5
CD161
330
18
100
AcDbEntity
  8
寸法線
100
AcDbMText
 10
790.7551244589424
 20
-5735.183918242472
 30
0.0
 40
2.500000000000003
 41
0.0
 71
     6
 72
     1
  1
\A1;\P　　　　
 73
     1
 44
1.0
  0
MTEXT
  5
D3E27
330
18
100
AcDbEntity
  8
0
100
AcDbMText
 10
2439.336910391245
 20
667.075356397309
 30
0.0
 40
2.5
 41
0.0
 71
     9
 72
     1
  1
\A1;
 73
     1
 44
1.0
  0
MTEXT
  5
1420C2
330
18
100
AcDbEntity
  8
寸法線
100
AcDbMText
 10
-8174.409940395288
 20
1453.836710937994
 30
0.0
 40
2.5
 41
0.0
 71
     1
 72
     1
  1

  7
EXTFONT
 73
     1
 44
1.0
  0
TEXT
  5
18CEEC
330
18
100
AcDbEntity
  8
文字
100
AcDbText
 10
4713.45528577579
 20
-10991.74774079692
 30
0.0
 40
17.0
  1

 72
     1
 11
4713.45528577579
 21
-10991.74774079692
 31
0.0
100
AcDbText
  0
TEXT
  5
1D03BD
330
18
100
AcDbEntity
  8
文字
100
AcDbText
 10
9339.350494841161
 20
-6691.468753201214
 30
0.0
 40
15.0
  1

 72
     1
 11
9339.350494841161
 21
-6691.468753201214
 31
0.0
100
AcDbText
  0
TEXT
  5
36B148
330
18
100
AcDbEntity
  8
文字
100
AcDbText
 10
49394.64127479332
 20
-30205.80622202081
 30
0.0
 40
2.5
  1

100
AcDbText
  0
TEXT
  5
47650E
330
18
100
AcDbEntity
  8
文字
100
AcDbText
 10
66311.27642074875
 20
-34585.37684216449
 30
0.0
 40
15.0
  1
SX-LF081
  7
EXTFONT
100
AcDbText
  0
LINE
  5
477477
330
18
100
AcDbEntity
  8
寸法線
 62
   253
100
AcDbLine
 10
66387.4783218404
 20
-34475.97282081684
 30
0.0
 11
66376.76539577273
 21
-34467.51854265593
 31
0.0
  0
LINE
  5
477478
330
18
100
AcDbEntity
  8
寸法線
 62
   253
100
AcDbLine
 10
66387.43169497022
 20
-34476.77334493559
 30
0.0
 11
66376.76539577273
 21
-34468.35586312031
 31
0.0
  0
LINE
  5
477479
330
18
100
AcDbEntity
  8
寸法線
 62
   253
100
AcDbLine
 10
66387.34268003624
 20
-34478.30161825321
 30
0.0
 11
66376.76539577273
 21
-34469.95438400686
 31
0.0
  0
LINE
  5
47747A
330
18
100
AcDbEntity
  8
寸法線
 62
   253
100
AcDbLine
 10
66387.29605316604
 20
-34479.10214237195
 30
0.0
 11
66376.76539577273
 21
-34470.79170447124
 31
0.0
  0
LINE
  5
47747B
330
18
100
AcDbEntity
  8
寸法線
 62
   253
100
AcDbLine
 10
66387.20703823205
 20
-34480.63041568957
 30
0.0
 11
66376.76539577273
 21
-34472.39022535781
 31
0.0
  0
LINE
  5
47747C
330
18
100
AcDbEntity
  8
寸法線
 62
   253
100
AcDbLine
 10
66386.54909078698
 20
-34480.94850633004
 30
0.0
 11
66376.76539577273
 21
-34473.22754582219
 31
0.0
  0
LINE
  5
47747D
330
18
100
AcDbEntity
  8
寸法線
 62
   253
100
AcDbLine
 10
66384.8474490903
 20
-34481.20414926308
 30
0.0
 11
66376.76539577273
 21
-34474.82606670874
 31
0.0
  0
LINE
  5
47747E
330
18
100
AcDbEntity
  8
寸法線
 62
   253
100
AcDbLine
 10
66383.9561129635
 20
-34481.33805746611
 30
0.0
 11
66376.76539577273
 21
-34475.66338717312
 31
0.0
  0
LINE
  5
47747F
330
18
100
AcDbEntity
  8
寸法線
 62
   253
100
AcDbLine
 10
66387.5673367744
 20
-34474.44454749922
 30
0.0
 11
66376.76539577273
 21
-34465.92002176937
 31
0.0
  0
LINE
  5
477480
330
18
100
AcDbEntity
  8
寸法線
 62
   253
100
AcDbLine
 10
66387.6139636446
 20
-34473.64402338048
 30
0.0
 11
66376.76539577273
 21
-34465.08270130498
 31
0.0
  0
LINE
  5
477481
330
18
100
AcDbEntity
  8
寸法線
 62
   253
100
AcDbLine
 10
66387.70298372528
 20
-34472.11566170069
 30
0.0
 11
66376.76539577273
 21
-34463.48418041843
 31
0.0
  0
LINE
  5
477482
330
18
100
AcDbEntity
  8
寸法線
 62
   253
100
AcDbLine
 10
66387.74959857718
 20
-34471.31534392069
 30
0.0
 11
66376.76539577273
 21
-34462.64685995404
 31
0.0
  0
LINE
  5
477483
330
18
100
AcDbEntity
  8
寸法線
 62
   253
100
AcDbLine
 10
66387.75786343165
 20
-34470.652566192
 30
0.0
 11
66376.76539577273
 21
-34461.98467141582
 31
0.0
  0
LINE
  5
477484
330
18
100
AcDbEntity
  8
寸法線
 62
   253
100
AcDbLine
 10
66387.90454876865
 20
-34470.24490821525
 30
0.0
 11
66376.66094761343
 21
-34461.3967484466
 31
0.0
  0
LINE
  5
477485
330
18
100
AcDbEntity
  8
姿図
100
AcDbLine
 10
66383.81733736227
 20
-34481.60380997376
 30
0.0
 11
66392.90950552584
 21
-34480.23786522659
 31
0.0
  0
LINE
  5
477486
330
18
100
AcDbEntity
  8
姿図
100
AcDbLine
 10
66422.05738323578
 20
-34509.39991115749
 30
0.0
 11
66429.47517937714
 21
-34508.28551253524
 31
0.0
  0
LINE
  5
477487
330
18
100
AcDbEntity
  8
寸法線
 62
     8
100
AcDbLine
 10
66435.06838627893
 20
-34527.66382090411
 30
0.0
 11
66376.76539577273
 21
-34481.76288857506
 31
0.0
  0
LINE
  5
477488
330
18
100
AcDbEntity
  8
寸法線
 62
     8
100
AcDbLine
 10
66435.06838627893
 20
-34527.66382090411
 30
0.0
 11
66435.06838627893
 21
-34526.28376211963
 31
0.0
  0
LINE
  5
477489
330
18
100
AcDbEntity
  8
寸法線
 62
     8
100
AcDbLine
 10
66435.06838627893
 20
-34526.28376211963
 30
0.0
 11
66376.76539577273
 21
-34480.38282979058
 31
0.0
  0
LINE
  5
47748A
330
18
100
AcDbEntity
  8
寸法線
 62
     8
100
AcDbLine
 10
66376.76539577273
 20
-34429.7146470086
 30
0.0
 11
66431.6311284134
 21
-34477.16111263555
 31
0.0
  0
LINE
  5
47748B
330
18
100
AcDbEntity
  8
寸法線
 62
     8
100
AcDbLine
 10
66431.6311284134
 20
-34477.16111263555
 30
0.0
 11
66431.6311284134
 21
-34483.64550663609
 31
0.0
  0
LINE
  5
47748C
330
18
100
AcDbEntity
  8
寸法線
 62
     8
100
AcDbLine
 10
66435.06838627893
 20
-34521.56431950218
 30
0.0
 11
66433.93088227109
 21
-34521.56431950218
 31
0.0
  0
LINE
  5
47748D
330
18
100
AcDbEntity
  8
寸法線
 62
     8
100
AcDbLine
 10
66435.06838627893
 20
-34521.56431950218
 30
0.0
 11
66435.06838627893
 21
-34520.72699903779
 31
0.0
  0
LINE
  5
47748E
330
18
100
AcDbEntity
  8
寸法線
 62
     8
100
AcDbLine
 10
66435.06838627893
 20
-34487.34396147556
 30
0.0
 11
66435.06838627893
 21
-34486.32902757933
 31
0.0
  0
LINE
  5
47748F
330
18
100
AcDbEntity
  8
寸法線
 62
     8
100
AcDbLine
 10
66435.06838627893
 20
-34507.27912491281
 30
0.0
 11
66435.06838627893
 21
-34489.7808974695
 31
0.0
  0
LINE
  5
477490
330
18
100
AcDbEntity
  8
寸法線
 62
     8
100
AcDbLine
 10
66435.06838627893
 20
-34509.38511274748
 30
0.0
 11
66435.06838627893
 21
-34508.54779228309
 31
0.0
  0
LINE
  5
477491
330
18
100
AcDbEntity
  8
寸法線
 62
     8
100
AcDbLine
 10
66435.06838627893
 20
-34511.82095409842
 30
0.0
 11
66435.06838627893
 21
-34510.98363363403
 31
0.0
  0
LINE
  5
477492
330
18
100
AcDbEntity
  8
寸法線
 62
     8
100
AcDbLine
 10
66435.06838627893
 20
-34514.25679544936
 30
0.0
 11
66435.06838627893
 21
-34513.41947498498
 31
0.0
  0
LINE
  5
477493
330
18
100
AcDbEntity
  8
寸法線
 62
     8
100
AcDbLine
 10
66435.06838627893
 20
-34516.6926368003
 30
0.0
 11
66435.06838627893
 21
-34515.85531633591
 31
0.0
  0
LINE
  5
477494
330
18
100
AcDbEntity
  8
寸法線
 62
     8
100
AcDbLine
 10
66435.06838627893
 20
-34519.12847815124
 30
0.0
 11
66435.06838627893
 21
-34518.29115768686
 31
0.0
  0
LINE
  5
477495
330
18
100
AcDbEntity
  8
寸法線
 62
     8
100
AcDbLine
 10
66435.06838627893
 20
-34487.34396147556
 30
0.0
 11
66434.54011450516
 21
-34487.34396147556
 31
0.0
  0
LINE
  5
477496
330
18
100
AcDbEntity
  8
寸法線
 62
     8
100
AcDbLine
 10
66434.41942239535
 20
-34507.3496740363
 30
0.0
 11
66434.41942239535
 21
-34508.04113603525
 31
0.0
  0
LINE
  5
477497
330
18
100
AcDbEntity
  8
寸法線
 62
     8
100
AcDbLine
 10
66435.06838627893
 20
-34519.12847815124
 30
0.0
 11
66434.15900316334
 21
-34520.01702942493
 31
0.0
  0
LINE
  5
477498
330
18
100
AcDbEntity
  8
寸法線
 62
     8
100
AcDbLine
 10
66435.06838627893
 20
-34516.6926368003
 30
0.0
 11
66434.15900316334
 21
-34517.58118807399
 31
0.0
  0
LINE
  5
477499
330
18
100
AcDbEntity
  8
寸法線
 62
     8
100
AcDbLine
 10
66435.06838627893
 20
-34514.25679544936
 30
0.0
 11
66434.15900316334
 21
-34515.14534672305
 31
0.0
  0
LINE
  5
47749A
330
18
100
AcDbEntity
  8
寸法線
 62
     8
100
AcDbLine
 10
66435.06838627893
 20
-34511.82095409842
 30
0.0
 11
66434.15900316334
 21
-34512.70950537211
 31
0.0
  0
LINE
  5
47749B
330
18
100
AcDbEntity
  8
寸法線
 62
     8
100
AcDbLine
 10
66435.06838627893
 20
-34507.27912491281
 30
0.0
 11
66434.41942239535
 21
-34507.3496740363
 31
0.0
  0
LINE
  5
47749C
330
18
100
AcDbEntity
  8
寸法線
 62
     8
100
AcDbLine
 10
66435.06838627893
 20
-34509.38511274748
 30
0.0
 11
66434.15900316334
 21
-34510.27366402117
 31
0.0
  0
LINE
  5
47749D
330
18
100
AcDbEntity
  8
寸法線
 62
   253
100
AcDbLine
 10
66434.54011450516
 20
-34487.34396147556
 30
0.0
 11
66422.01349446367
 21
-34477.56423340612
 31
0.0
  0
LINE
  5
47749E
330
18
100
AcDbEntity
  8
寸法線
 62
   253
100
AcDbLine
 10
66434.41942239535
 20
-34507.3496740363
 30
0.0
 11
66427.03623393853
 21
-34501.58550340177
 31
0.0
  0
LINE
  5
47749F
330
18
100
AcDbEntity
  8
寸法線
 62
     8
100
AcDbLine
 10
66435.06838627893
 20
-34486.32902757933
 30
0.0
 11
66422.01349446367
 21
-34476.13686947872
 31
0.0
  0
LINE
  5
4774A0
330
18
100
AcDbEntity
  8
寸法線
 62
   253
100
AcDbLine
 10
66435.06838627893
 20
-34487.34396147556
 30
0.0
 11
66422.01349446365
 21
-34477.15180337495
 31
0.0
  0
LINE
  5
4774A1
330
18
100
AcDbEntity
  8
寸法線
 62
   253
100
AcDbLine
 10
66435.06838627893
 20
-34489.7808974695
 30
0.0
 11
66422.01349446365
 21
-34480.18878037051
 31
0.0
  0
LINE
  5
4774A2
330
18
100
AcDbEntity
  8
寸法線
 62
   253
100
AcDbLine
 10
66435.06838627893
 20
-34507.27912491281
 30
0.0
 11
66427.0362339385
 21
-34501.00829803045
 31
0.0
  0
LINE
  5
4774A3
330
18
100
AcDbEntity
  8
寸法線
 62
   253
100
AcDbLine
 10
66435.06838627893
 20
-34508.54779228309
 30
0.0
 11
66427.03623393853
 21
-34502.27696540074
 31
0.0
  0
LINE
  5
4774A4
330
18
100
AcDbEntity
  8
寸法線
 62
   253
100
AcDbLine
 10
66435.06838627893
 20
-34509.38511274748
 30
0.0
 11
66427.03623393853
 21
-34503.1142858651
 31
0.0
  0
LINE
  5
4774A5
330
18
100
AcDbEntity
  8
寸法線
 62
   253
100
AcDbLine
 10
66435.06838627893
 20
-34510.98363363403
 30
0.0
 11
66427.03623393853
 21
-34504.71280675168
 31
0.0
  0
LINE
  5
4774A6
330
18
100
AcDbEntity
  8
寸法線
 62
   253
100
AcDbLine
 10
66435.06838627893
 20
-34511.82095409842
 30
0.0
 11
66427.03623393852
 21
-34505.55012721605
 31
0.0
  0
LINE
  5
4774A7
330
18
100
AcDbEntity
  8
寸法線
 62
   253
100
AcDbLine
 10
66435.06838627893
 20
-34513.41947498498
 30
0.0
 11
66428.65101113211
 21
-34508.40932989814
 31
0.0
  0
LINE
  5
4774A8
330
18
100
AcDbEntity
  8
寸法線
 62
   253
100
AcDbLine
 10
66435.06838627893
 20
-34514.25679544936
 30
0.0
 11
66427.75158410365
 21
-34508.54445362252
 31
0.0
  0
LINE
  5
4774A9
330
18
100
AcDbEntity
  8
寸法線
 62
   253
100
AcDbLine
 10
66435.06838627893
 20
-34515.85531633591
 30
0.0
 11
66426.03449614029
 21
-34508.80241709633
 31
0.0
  0
LINE
  5
4774AA
330
18
100
AcDbEntity
  8
寸法線
 62
   253
100
AcDbLine
 10
66435.06838627893
 20
-34516.6926368003
 30
0.0
 11
66425.13506911184
 21
-34508.93754082072
 31
0.0
  0
LINE
  5
4774AB
330
18
100
AcDbEntity
  8
寸法線
 62
   253
100
AcDbLine
 10
66435.06838627893
 20
-34518.29115768686
 30
0.0
 11
66423.41798114844
 21
-34509.19550429453
 31
0.0
  0
LINE
  5
4774AC
330
18
100
AcDbEntity
  8
寸法線
 62
   253
100
AcDbLine
 10
66435.06838627893
 20
-34519.12847815124
 30
0.0
 11
66422.51855412
 21
-34509.33062801891
 31
0.0
  0
LINE
  5
4774AD
330
18
100
AcDbEntity
  8
寸法線
 62
   253
100
AcDbLine
 10
66435.06838627893
 20
-34520.72699903779
 30
0.0
 11
66422.07364835648
 21
-34510.58180402157
 31
0.0
  0
LINE
  5
4774AE
330
18
100
AcDbEntity
  8
寸法線
 62
   253
100
AcDbLine
 10
66435.06838627893
 20
-34521.56431950218
 30
0.0
 11
66422.07364835648
 21
-34511.41912448596
 31
0.0
  0
LINE
  5
4774AF
330
18
100
AcDbEntity
  8
寸法線
 62
   253
100
AcDbLine
 10
66435.06838627893
 20
-34522.45238666138
 30
0.0
 11
66422.07364835648
 21
-34512.30719164516
 31
0.0
  0
LINE
  5
4774B0
330
18
100
AcDbEntity
  8
寸法線
 62
   253
100
AcDbLine
 10
66422.01349446367
 20
-34477.56423340612
 30
0.0
 11
66376.76539577273
 21
-34442.04950797857
 31
0.0
  0
LINE
  5
4774B1
330
18
100
AcDbEntity
  8
寸法線
 62
   253
100
AcDbLine
 10
66422.01349446367
 20
-34477.15180337495
 30
0.0
 11
66376.76539577273
 21
-34441.4430291465
 31
0.0
  0
LINE
  5
4774B2
330
18
100
AcDbEntity
  8
寸法線
 62
     8
100
AcDbLine
 10
66422.01349446367
 20
-34476.13686947872
 30
0.0
 11
66376.76539577273
 21
-34440.42809525028
 31
0.0
  0
LINE
  5
4774B3
330
18
100
AcDbEntity
  8
寸法線
100
AcDbLine
 10
66366.93668220195
 20
-34520.60603205797
 30
0.0
 11
66365.81122115225
 21
-34519.39436687464
 31
0.0
  0
LINE
  5
4774B4
330
18
100
AcDbEntity
  8
寸法線
 62
     8
100
AcDbLine
 10
66365.81122115225
 20
-34519.39436687464
 30
0.0
 11
66392.15507794297
 21
-34516.69428063475
 31
0.0
  0
LINE
  5
4774B5
330
18
100
AcDbEntity
  8
寸法線
 62
     8
100
AcDbLine
 10
66366.93668220195
 20
-34520.60603205797
 30
0.0
 11
66393.71383094734
 21
-34517.86153600924
 31
0.0
  0
LINE
  5
4774B6
330
18
100
AcDbEntity
  8
寸法線
 62
     8
100
AcDbLine
 10
66369.2362935495
 20
-34502.02784457751
 30
0.0
 11
66340.48616606236
 21
-34505.20711867652
 31
0.0
  0
LINE
  5
4774B7
330
18
100
AcDbEntity
  8
寸法線
 62
     8
100
AcDbLine
 10
66341.26195474013
 20
-34505.12132967087
 30
0.0
 11
66365.81122115225
 21
-34519.39436687464
 31
0.0
  0
LINE
  5
4774B8
330
18
100
AcDbEntity
  8
寸法線
 62
     8
100
AcDbLine
 10
66340.48616606236
 20
-34505.20711867652
 30
0.0
 11
66366.93668220195
 21
-34520.60603205797
 31
0.0
  0
LINE
  5
4774B9
330
18
100
AcDbEntity
  8
寸法線
 62
     8
100
AcDbLine
 10
66369.2362935495
 20
-34502.0278445775
 30
0.0
 11
66393.71383094734
 21
-34517.86153600924
 31
0.0
  0
LINE
  5
4774BA
330
18
100
AcDbEntity
  8
寸法線
 62
   253
100
AcDbLine
 10
66422.07364835648
 20
-34513.65497148327
 30
0.0
 11
66376.76539577273
 21
-34477.89923417043
 31
0.0
  0
LINE
  5
4774BB
330
18
100
AcDbEntity
  8
寸法線
 62
   253
100
AcDbLine
 10
66422.07364835648
 20
-34513.19525880436
 30
0.0
 11
66376.76539577273
 21
-34477.43952149152
 31
0.0
  0
LINE
  5
4774BC
330
18
100
AcDbEntity
  8
寸法線
 62
   253
100
AcDbLine
 10
66422.07364835648
 20
-34512.30719164516
 30
0.0
 11
66376.76539577273
 21
-34476.55145433233
 31
0.0
  0
LINE
  5
4774BD
330
18
100
AcDbEntity
  8
寸法線
 62
   253
100
AcDbLine
 10
66422.07364835648
 20
-34511.41912448596
 30
0.0
 11
66387.43600087494
 21
-34484.08426706248
 31
0.0
  0
LINE
  5
4774BE
330
18
100
AcDbEntity
  8
寸法線
 62
   253
100
AcDbLine
 10
66422.07364835648
 20
-34510.58180402157
 30
0.0
 11
66403.55798252672
 21
-34495.96986809764
 31
0.0
  0
LINE
  5
4774BF
330
18
100
AcDbEntity
  8
寸法線
 62
   253
100
AcDbLine
 10
66420.5406507483
 20
-34500.46596932755
 30
0.0
 11
66396.87987588605
 21
-34481.79368773757
 31
0.0
  0
LINE
  5
4774C0
330
18
100
AcDbEntity
  8
寸法線
 62
   253
100
AcDbLine
 10
66420.58727761846
 20
-34499.66544520871
 30
0.0
 11
66396.87987588605
 21
-34480.95636727317
 31
0.0
  0
LINE
  5
4774C1
330
18
100
AcDbEntity
  8
寸法線
 62
   253
100
AcDbLine
 10
66420.67631321478
 20
-34498.1368171453
 30
0.0
 11
66396.87987588606
 21
-34479.35767641717
 31
0.0
  0
LINE
  5
4774C2
330
18
100
AcDbEntity
  8
寸法線
 62
   253
100
AcDbLine
 10
66420.72289192333
 20
-34497.33711990088
 30
0.0
 11
66396.87987588606
 21
-34478.52075189359
 31
0.0
  0
LINE
  5
4774C3
330
18
100
AcDbEntity
  8
寸法線
 62
   253
100
AcDbLine
 10
66420.76135141238
 20
-34496.67681933885
 30
0.0
 11
66396.87987588606
 21
-34477.84555020209
 31
0.0
  0
LINE
  5
4774C4
330
18
100
AcDbEntity
  8
寸法線
 62
   253
100
AcDbLine
 10
66420.79338736812
 20
-34496.12680268267
 30
0.0
 11
66396.87987588605
 21
-34477.30804814829
 31
0.0
  0
LINE
  5
4774C5
330
18
100
AcDbEntity
  8
寸法線
 62
   253
100
AcDbLine
 10
66422.01349446365
 20
-34480.18878037051
 30
0.0
 11
66376.76539577273
 21
-34444.38633744556
 31
0.0
  0
LINE
  5
4774C6
330
18
100
AcDbEntity
  8
寸法線
 62
     8
100
AcDbLine
 10
66376.76539577273
 20
-34481.76288857506
 30
0.0
 11
66376.76539577272
 21
-34429.71464700859
 31
0.0
  0
LINE
  5
4774C7
330
18
100
AcDbEntity
  8
寸法線
 62
     8
100
AcDbLine
 10
66294.93980918525
 20
-34490.80668859745
 30
0.0
 11
66294.93980918525
 21
-34491.08827692458
 31
0.0
  0
LINE
  5
4774C8
330
18
100
AcDbEntity
  8
寸法線
 62
     8
100
AcDbLine
 10
66294.21292101199
 20
-34492.10548027283
 30
0.0
 11
66294.76390431383
 21
-34492.4673073533
 31
0.0
  0
LINE
  5
4774C9
330
18
100
AcDbEntity
  8
寸法線
 62
     8
100
AcDbLine
 10
66294.21292101199
 20
-34490.32934595444
 30
0.0
 11
66294.93980918525
 21
-34490.80668859745
 31
0.0
  0
LINE
  5
4774CA
330
18
100
AcDbEntity
  8
寸法線
 62
     8
100
AcDbLine
 10
66294.21292101199
 20
-34491.21741311363
 30
0.0
 11
66294.21292101199
 21
-34492.10548027283
 31
0.0
  0
LINE
  5
4774CB
330
18
100
AcDbEntity
  8
寸法線
 62
     8
100
AcDbLine
 10
66295.12230412757
 20
-34488.78205587719
 30
0.0
 11
66294.21292101199
 21
-34489.49202549005
 31
0.0
  0
LINE
  5
4774CC
330
18
100
AcDbEntity
  8
寸法線
 62
     8
100
AcDbLine
 10
66295.12230412757
 20
-34486.34621452625
 30
0.0
 11
66294.21292101199
 21
-34487.05618413911
 31
0.0
  0
LINE
  5
4774CD
330
18
100
AcDbEntity
  8
寸法線
 62
     8
100
AcDbLine
 10
66295.12230412757
 20
-34483.91037317531
 30
0.0
 11
66294.21292101199
 21
-34484.62034278817
 31
0.0
  0
LINE
  5
4774CE
330
18
100
AcDbEntity
  8
寸法線
 62
     8
100
AcDbLine
 10
66295.12230412757
 20
-34481.47453182437
 30
0.0
 11
66294.21292101199
 21
-34482.18450143723
 31
0.0
  0
LINE
  5
4774CF
330
18
100
AcDbEntity
  8
寸法線
 62
     8
100
AcDbLine
 10
66295.12230412757
 20
-34479.03869047343
 30
0.0
 11
66294.21292101199
 21
-34479.74866008629
 31
0.0
  0
LINE
  5
4774D0
330
18
100
AcDbEntity
  8
寸法線
 62
     8
100
AcDbLine
 10
66294.93980918525
 20
-34476.52149400807
 30
0.0
 11
66294.93980918525
 21
-34477.18368254629
 31
0.0
  0
LINE
  5
4774D1
330
18
100
AcDbEntity
  8
寸法線
 62
     8
100
AcDbLine
 10
66294.21292101199
 20
-34476.04415136507
 30
0.0
 11
66294.93980918525
 21
-34476.52149400807
 31
0.0
  0
LINE
  5
4774D2
330
18
100
AcDbEntity
  8
寸法線
 62
     8
100
AcDbLine
 10
66295.29746387347
 20
-34456.5227909988
 30
0.0
 11
66295.29746387347
 21
-34458.85962046579
 31
0.0
  0
LINE
  5
4774D3
330
18
100
AcDbEntity
  8
寸法線
 62
     8
100
AcDbLine
 10
66294.21292101199
 20
-34456.10898792782
 30
0.0
 11
66294.93980918525
 21
-34456.58633057083
 31
0.0
  0
LINE
  5
4774D4
330
18
100
AcDbEntity
  8
寸法線
 62
     8
100
AcDbLine
 10
66294.21292101199
 20
-34456.10898792782
 30
0.0
 11
66294.21292101199
 21
-34455.09405403159
 31
0.0
  0
LINE
  5
4774D5
330
18
100
AcDbEntity
  8
寸法線
 62
     8
100
AcDbLine
 10
66294.21292101199
 20
-34478.15013919974
 30
0.0
 11
66295.12230412757
 21
-34479.03869047343
 31
0.0
  0
LINE
  5
4774D6
330
18
100
AcDbEntity
  8
寸法線
 62
     8
100
AcDbLine
 10
66294.21292101199
 20
-34480.58598055068
 30
0.0
 11
66295.12230412757
 21
-34481.47453182437
 31
0.0
  0
LINE
  5
4774D7
330
18
100
AcDbEntity
  8
寸法線
 62
     8
100
AcDbLine
 10
66294.21292101199
 20
-34483.02182190162
 30
0.0
 11
66295.12230412757
 21
-34483.91037317531
 31
0.0
  0
LINE
  5
4774D8
330
18
100
AcDbEntity
  8
寸法線
 62
     8
100
AcDbLine
 10
66294.21292101199
 20
-34483.02182190162
 30
0.0
 11
66294.21292101199
 21
-34482.18450143723
 31
0.0
  0
LINE
  5
4774D9
330
18
100
AcDbEntity
  8
寸法線
 62
     8
100
AcDbLine
 10
66294.21292101199
 20
-34480.58598055068
 30
0.0
 11
66294.21292101199
 21
-34479.74866008629
 31
0.0
  0
LINE
  5
4774DA
330
18
100
AcDbEntity
  8
寸法線
 62
     8
100
AcDbLine
 10
66294.21292101199
 20
-34478.15013919974
 30
0.0
 11
66294.21292101199
 21
-34477.31281873535
 31
0.0
  0
LINE
  5
4774DB
330
18
100
AcDbEntity
  8
寸法線
 62
     8
100
AcDbLine
 10
66294.21292101199
 20
-34476.04415136507
 30
0.0
 11
66294.21292101199
 21
-34459.05229622687
 31
0.0
  0
LINE
  5
4774DC
330
18
100
AcDbEntity
  8
寸法線
 62
     8
100
AcDbLine
 10
66294.21292101199
 20
-34485.45766325256
 30
0.0
 11
66295.12230412757
 21
-34486.34621452625
 31
0.0
  0
LINE
  5
4774DD
330
18
100
AcDbEntity
  8
寸法線
 62
     8
100
AcDbLine
 10
66294.21292101199
 20
-34487.8935046035
 30
0.0
 11
66295.12230412757
 21
-34488.78205587719
 31
0.0
  0
LINE
  5
4774DE
330
18
100
AcDbEntity
  8
寸法線
 62
     8
100
AcDbLine
 10
66294.21292101199
 20
-34487.8935046035
 30
0.0
 11
66294.21292101199
 21
-34487.05618413911
 31
0.0
  0
LINE
  5
4774DF
330
18
100
AcDbEntity
  8
寸法線
 62
     8
100
AcDbLine
 10
66294.21292101199
 20
-34490.32934595444
 30
0.0
 11
66294.21292101199
 21
-34489.49202549005
 31
0.0
  0
LINE
  5
4774E0
330
18
100
AcDbEntity
  8
寸法線
 62
     8
100
AcDbLine
 10
66294.21292101199
 20
-34485.45766325256
 30
0.0
 11
66294.21292101199
 21
-34484.62034278817
 31
0.0
  0
LINE
  5
4774E1
330
18
100
AcDbEntity
  8
寸法線
 62
     8
100
AcDbLine
 10
66294.21292101199
 20
-34496.42884735637
 30
0.0
 11
66294.21292101199
 21
-34495.04878857188
 31
0.0
  0
LINE
  5
4774E2
330
18
100
AcDbEntity
  8
寸法線
 62
     8
100
AcDbLine
 10
66294.76390431383
 20
-34492.4673073533
 30
0.0
 11
66294.76390431383
 21
-34494.95090297345
 31
0.0
  0
LINE
  5
4774E3
330
18
100
AcDbEntity
  8
寸法線
 62
     8
100
AcDbLine
 10
66296.972743447
 20
-34454.6037544713
 30
0.0
 11
66296.97274344701
 21
-34443.89030622963
 31
0.0
  0
LINE
  5
4774E4
330
18
100
AcDbEntity
  8
寸法線
 62
     8
100
AcDbLine
 10
66376.76539577273
 20
-34429.7146470086
 30
0.0
 11
66296.972743447
 21
-34443.89030622962
 31
0.0
  0
LINE
  5
4774E5
330
18
100
AcDbEntity
  8
寸法線
 62
   253
100
AcDbLine
 10
66376.76539577273
 20
-34477.89923417043
 30
0.0
 11
66294.76390431383
 21
-34492.4673073533
 31
0.0
  0
LINE
  5
4774E6
330
18
100
AcDbEntity
  8
寸法線
 62
   253
100
AcDbLine
 10
66376.76539577273
 20
-34477.43952149152
 30
0.0
 11
66294.21292101199
 21
-34492.10548027283
 31
0.0
  0
LINE
  5
4774E7
330
18
100
AcDbEntity
  8
寸法線
 62
   253
100
AcDbLine
 10
66376.76539577273
 20
-34471.84181329156
 30
0.0
 11
66295.12230412757
 21
-34486.34621452625
 31
0.0
  0
LINE
  5
4774E8
330
18
100
AcDbEntity
  8
寸法線
 62
   253
100
AcDbLine
 10
66376.76539577273
 20
-34474.27765464249
 30
0.0
 11
66295.12230412757
 21
-34488.78205587719
 31
0.0
  0
LINE
  5
4774E9
330
18
100
AcDbEntity
  8
寸法線
 62
   253
100
AcDbLine
 10
66376.76539577273
 20
-34469.40597194061
 30
0.0
 11
66295.12230412757
 21
-34483.91037317531
 31
0.0
  0
LINE
  5
4774EA
330
18
100
AcDbEntity
  8
寸法線
 62
   253
100
AcDbLine
 10
66376.76539577273
 20
-34466.97013058968
 30
0.0
 11
66295.12230412757
 21
-34481.47453182437
 31
0.0
  0
LINE
  5
4774EB
330
18
100
AcDbEntity
  8
寸法線
 62
   253
100
AcDbLine
 10
66376.76539577273
 20
-34464.53428923873
 30
0.0
 11
66295.12230412757
 21
-34479.03869047343
 31
0.0
  0
LINE
  5
4774EC
330
18
100
AcDbEntity
  8
寸法線
 62
   253
100
AcDbLine
 10
66376.76539577273
 20
-34461.98467141582
 30
0.0
 11
66294.93980918525
 21
-34476.52149400808
 31
0.0
  0
LINE
  5
4774ED
330
18
100
AcDbEntity
  8
寸法線
 62
   253
100
AcDbLine
 10
66376.76539577273
 20
-34442.04950797857
 30
0.0
 11
66294.93980918525
 21
-34456.58633057083
 31
0.0
  0
LINE
  5
4774EE
330
18
100
AcDbEntity
  8
寸法線
 62
     8
100
AcDbLine
 10
66376.76539577273
 20
-34440.42809525028
 30
0.0
 11
66294.21292101199
 21
-34455.09405403159
 31
0.0
  0
LINE
  5
4774EF
330
18
100
AcDbEntity
  8
寸法線
 62
   253
100
AcDbLine
 10
66376.76539577273
 20
-34441.4430291465
 30
0.0
 11
66294.21292101199
 21
-34456.10898792782
 31
0.0
  0
LINE
  5
4774F0
330
18
100
AcDbEntity
  8
寸法線
 62
   253
100
AcDbLine
 10
66376.76539577273
 20
-34444.38633744556
 30
0.0
 11
66294.21292101199
 21
-34459.05229622687
 31
0.0
  0
LINE
  5
4774F1
330
18
100
AcDbEntity
  8
寸法線
 62
   253
100
AcDbLine
 10
66376.76539577273
 20
-34461.37819258376
 30
0.0
 11
66294.21292101199
 21
-34476.04415136507
 31
0.0
  0
LINE
  5
4774F2
330
18
100
AcDbEntity
  8
寸法線
 62
   253
100
AcDbLine
 10
66376.76539577273
 20
-34462.64685995404
 30
0.0
 11
66294.21292101199
 21
-34477.31281873535
 31
0.0
  0
LINE
  5
4774F3
330
18
100
AcDbEntity
  8
寸法線
 62
   253
100
AcDbLine
 10
66376.76539577273
 20
-34463.48418041843
 30
0.0
 11
66294.21292101199
 21
-34478.15013919974
 31
0.0
  0
LINE
  5
4774F4
330
18
100
AcDbEntity
  8
寸法線
 62
   253
100
AcDbLine
 10
66376.76539577273
 20
-34465.08270130498
 30
0.0
 11
66294.21292101199
 21
-34479.74866008629
 31
0.0
  0
LINE
  5
4774F5
330
18
100
AcDbEntity
  8
寸法線
 62
   253
100
AcDbLine
 10
66376.76539577273
 20
-34465.92002176937
 30
0.0
 11
66294.21292101199
 21
-34480.58598055068
 31
0.0
  0
LINE
  5
4774F6
330
18
100
AcDbEntity
  8
寸法線
 62
   253
100
AcDbLine
 10
66376.76539577273
 20
-34467.51854265593
 30
0.0
 11
66294.21292101199
 21
-34482.18450143723
 31
0.0
  0
LINE
  5
4774F7
330
18
100
AcDbEntity
  8
寸法線
 62
   253
100
AcDbLine
 10
66376.76539577273
 20
-34468.35586312031
 30
0.0
 11
66294.21292101199
 21
-34483.02182190162
 31
0.0
  0
LINE
  5
4774F8
330
18
100
AcDbEntity
  8
寸法線
 62
   253
100
AcDbLine
 10
66376.76539577273
 20
-34469.95438400686
 30
0.0
 11
66294.21292101199
 21
-34484.62034278817
 31
0.0
  0
LINE
  5
4774F9
330
18
100
AcDbEntity
  8
寸法線
 62
   253
100
AcDbLine
 10
66376.76539577273
 20
-34470.79170447124
 30
0.0
 11
66294.21292101199
 21
-34485.45766325256
 31
0.0
  0
LINE
  5
4774FA
330
18
100
AcDbEntity
  8
寸法線
 62
   253
100
AcDbLine
 10
66376.76539577273
 20
-34472.39022535781
 30
0.0
 11
66294.21292101199
 21
-34487.05618413911
 31
0.0
  0
LINE
  5
4774FB
330
18
100
AcDbEntity
  8
寸法線
 62
   253
100
AcDbLine
 10
66376.76539577273
 20
-34473.22754582219
 30
0.0
 11
66294.21292101199
 21
-34487.8935046035
 31
0.0
  0
LINE
  5
4774FC
330
18
100
AcDbEntity
  8
寸法線
 62
   253
100
AcDbLine
 10
66376.76539577273
 20
-34474.82606670874
 30
0.0
 11
66294.21292101199
 21
-34489.49202549005
 31
0.0
  0
LINE
  5
4774FD
330
18
100
AcDbEntity
  8
寸法線
 62
   253
100
AcDbLine
 10
66376.76539577273
 20
-34475.66338717312
 30
0.0
 11
66294.21292101199
 21
-34490.32934595444
 31
0.0
  0
LINE
  5
4774FE
330
18
100
AcDbEntity
  8
寸法線
 62
   253
100
AcDbLine
 10
66376.76539577273
 20
-34477.43952149152
 30
0.0
 11
66294.21292101199
 21
-34492.10548027283
 31
0.0
  0
LINE
  5
4774FF
330
18
100
AcDbEntity
  8
寸法線
 62
   253
100
AcDbLine
 10
66376.76539577273
 20
-34476.55145433233
 30
0.0
 11
66294.21292101199
 21
-34491.21741311363
 31
0.0
  0
LINE
  5
477500
330
18
100
AcDbEntity
  8
寸法線
 62
     8
100
AcDbLine
 10
66376.76539577273
 20
-34480.38282979058
 30
0.0
 11
66294.21292101199
 21
-34495.04878857188
 31
0.0
  0
LINE
  5
477501
330
18
100
AcDbEntity
  8
寸法線
 62
     8
100
AcDbLine
 10
66376.76539577273
 20
-34481.76288857506
 30
0.0
 11
66294.21292101199
 21
-34496.42884735637
 31
0.0
  0
LINE
  5
477502
330
18
100
AcDbEntity
  8
寸法線
 62
     8
100
AcDbLine
 10
66433.90351208558
 20
-34522.89073100865
 30
0.0
 11
66433.90351208558
 21
-34525.37432662879
 31
0.0
  0
LINE
  5
477503
330
18
100
AcDbEntity
  8
寸法線
 62
     8
100
AcDbLine
 10
66435.06838627893
 20
-34523.34045382057
 30
0.0
 11
66434.4795512913
 21
-34523.34045382057
 31
0.0
  0
LINE
  5
477504
330
18
100
AcDbEntity
  8
寸法線
 62
     8
100
AcDbLine
 10
66435.06838627893
 20
-34527.66382090411
 30
0.0
 11
66435.06838627893
 21
-34526.28376211963
 31
0.0
  0
LINE
  5
477505
330
18
100
AcDbEntity
  8
寸法線
 62
     8
100
AcDbLine
 10
66363.52290892942
 20
-34534.99680029476
 30
0.0
 11
66435.06838627893
 21
-34527.66382090411
 31
0.0
  0
LINE
  5
477506
330
18
100
AcDbEntity
  8
寸法線
 62
     8
100
AcDbLine
 10
66435.06838627893
 20
-34523.34045382057
 30
0.0
 11
66435.06838627893
 21
-34522.45238666138
 31
0.0
  0
LINE
  5
477507
330
18
100
AcDbEntity
  8
寸法線
 62
   253
100
AcDbLine
 10
66434.4795512913
 20
-34523.34045382057
 30
0.0
 11
66422.07364835648
 21
-34513.65497148327
 31
0.0
  0
LINE
  5
477508
330
18
100
AcDbEntity
  8
寸法線
 62
   253
100
AcDbLine
 10
66435.06838627893
 20
-34523.34045382057
 30
0.0
 11
66422.07364835648
 21
-34513.19525880436
 31
0.0
  0
LINE
  5
477509
330
18
100
AcDbEntity
  8
寸法線
 62
     8
100
AcDbLine
 10
66294.21292101199
 20
-34496.42884735637
 30
0.0
 11
66363.52290892942
 21
-34534.99680029476
 31
0.0
  0
LINE
  5
47750A
330
18
100
AcDbEntity
  8
寸法線
 62
   253
100
AcDbLine
 10
66434.2456169482
 20
-34489.19471850499
 30
0.0
 11
66434.2456169482
 21
-34487.11404262957
 31
0.0
  0
LINE
  5
47750B
330
18
100
AcDbEntity
  8
寸法線
 62
     8
100
AcDbLine
 10
66348.50623994082
 20
-34526.95450596383
 30
0.0
 11
66344.48048146472
 21
-34527.65707101049
 31
0.0
  0
LINE
  5
47750C
330
18
100
AcDbEntity
  8
寸法線
 62
     8
100
AcDbLine
 10
66299.92344222675
 20
-34502.86048135817
 30
0.0
 11
66344.48048146472
 21
-34527.65707101049
 31
0.0
  0
LINE
  5
47750D
330
18
100
AcDbEntity
  8
寸法線
 62
     8
100
AcDbLine
 10
66303.93270649866
 20
-34502.14821071182
 30
0.0
 11
66299.92344222675
 21
-34502.86048135817
 31
0.0
  0
LINE
  5
477529
330
18
100
AcDbEntity
  8
姿図
100
AcDbLine
 10
66388.64931929114
 20
-34468.62637514114
 30
0.0
 11
66396.87987588605
 21
-34475.00107942879
 31
0.0
  0
LINE
  5
47752A
330
18
100
AcDbEntity
  8
姿図
100
AcDbLine
 10
66387.89000950253
 20
-34468.90466673321
 30
0.0
 11
66388.64931929114
 21
-34468.62637514115
 31
0.0
  0
LINE
  5
47752B
330
18
100
AcDbEntity
  8
姿図
100
AcDbLine
 10
66387.94381587354
 20
-34480.73897243543
 30
0.0
 11
66388.64931929116
 21
-34468.62637514115
 31
0.0
  0
LINE
  5
47752C
330
18
100
AcDbEntity
  8
姿図
100
AcDbLine
 10
66387.19415547544
 20
-34480.85159625238
 30
0.0
 11
66387.89000950253
 21
-34468.90466673321
 31
0.0
  0
LINE
  5
47752D
330
18
100
AcDbEntity
  8
姿図
100
AcDbLine
 10
66396.87987588605
 20
-34475.00107942879
 30
0.0
 11
66396.87987588605
 21
-34482.95940406832
 31
0.0
  0
LINE
  5
47752E
330
18
100
AcDbEntity
  8
姿図
100
AcDbLine
 10
66421.21141813572
 20
-34501.70783826483
 30
0.0
 11
66421.67138225997
 21
-34493.81083866497
 31
0.0
  0
LINE
  5
47752F
330
18
100
AcDbEntity
  8
姿図
100
AcDbLine
 10
66420.91207247134
 20
-34494.08913025704
 30
0.0
 11
66421.67138225996
 21
-34493.81083866497
 31
0.0
  0
LINE
  5
477530
330
18
100
AcDbEntity
  8
姿図
100
AcDbLine
 10
66420.50010560991
 20
-34501.16207783808
 30
0.0
 11
66420.91207247134
 21
-34494.08913025704
 31
0.0
  0
LINE
  5
477531
330
18
100
AcDbEntity
  8
姿図
100
AcDbLine
 10
66427.03623393852
 20
-34497.88265364618
 30
0.0
 11
66427.03623393853
 21
-34506.17697643242
 31
0.0
  0
LINE
  5
477532
330
18
100
AcDbEntity
  8
姿図
100
AcDbLine
 10
66383.81733736227
 20
-34481.35890615699
 30
0.0
 11
66392.90950552584
 21
-34479.99296140983
 31
0.0
  0
LINE
  5
477533
330
18
100
AcDbEntity
  8
姿図
100
AcDbLine
 10
66383.84881795675
 20
-34481.66157060128
 30
0.0
 11
66422.05738323578
 21
-34509.39991115749
 31
0.0
  0
LINE
  5
477534
330
18
100
AcDbEntity
  8
寸法線
100
AcDbLine
 10
66429.47517937713
 20
-34508.30121484917
 30
0.0
 11
66429.47517937713
 21
-34508.03029545739
 31
0.0
  0
LINE
  5
477535
330
18
100
AcDbEntity
  8
姿図
100
AcDbLine
 10
66392.90950552584
 20
-34480.23786522659
 30
0.0
 11
66429.47517937714
 21
-34508.28551253524
 31
0.0
  0
LINE
  5
477536
330
18
100
AcDbEntity
  8
姿図
100
AcDbLine
 10
66392.90950552584
 20
-34480.23786522659
 30
0.0
 11
66392.90950552584
 21
-34479.99296140984
 31
0.0
  0
LINE
  5
477537
330
18
100
AcDbEntity
  8
姿図
100
AcDbLine
 10
66392.90950552584
 20
-34479.99296140983
 30
0.0
 11
66429.47517937713
 21
-34508.04827752028
 31
0.0
  0
LINE
  5
477538
330
18
100
AcDbEntity
  8
姿図
100
AcDbLine
 10
66421.67138225997
 20
-34493.81083866498
 30
0.0
 11
66427.03623393852
 21
-34497.88265364618
 31
0.0
  0
ENDSEC
  0
SECTION
  2
OBJECTS
  0
DICTIONARY
  5
C
330
0
100
AcDbDictionary
281
     1
  3
ACAD_GROUP
350
D
  3
ACAD_IMAGE_VARS
350
4775D5
  3
ACAD_LAYOUT
350
617
  3
ACAD_MLINESTYLE
350
E
  3
ACAD_PLOTSETTINGS
350
618
  3
ACAD_PLOTSTYLENAME
350
615
  3
ACAD_SCALELIST
350
46A636
  3
AcadDim
350
44DDA5
  3
AcDbVariableDictionary
350
6DE
  3
APPDATA
350
4775D4
  3
ASE_INDEX_DICTIONARY
350
44CC62
  3
DWGPROPS
350
4775F8
  0
DICTIONARY
  5
6A835
330
2
100
AcDbDictionary
280
     1
281
     1
  3
ACAD_LAYERFILTERS
360
DBFD3
  3
ACAD_LAYERSTATES
360
6A836
  0
DICTIONARY
  5
46D9EC
330
F
100
AcDbDictionary
280
     1
281
     1
  3
ADSK_XREC_LAYER_RECONCILED
360
46D9ED
  0
DICTIONARY
  5
46D9EE
330
2C
100
AcDbDictionary
280
     1
281
     1
  3
ADSK_XREC_LAYER_RECONCILED
360
46D9EF
  0
DICTIONARY
  5
46D9F0
330
34
100
AcDbDictionary
280
     1
281
     1
  3
ADSK_XREC_LAYER_RECONCILED
360
46D9F1
  0
DICTIONARY
  5
46D9F2
330
280
100
AcDbDictionary
280
     1
281
     1
  3
ADSK_XREC_LAYER_RECONCILED
360
46D9F3
  0
DICTIONARY
  5
46D9F4
330
2F4
100
AcDbDictionary
280
     1
281
     1
  3
ADSK_XREC_LAYER_RECONCILED
360
46D9F5
  0
DICTIONARY
  5
46D9F6
330
301
100
AcDbDictionary
280
     1
281
     1
  3
ADSK_XREC_LAYER_RECONCILED
360
46D9F7
  0
DICTIONARY
  5
46D9F8
330
305
100
AcDbDictionary
280
     1
281
     1
  3
ADSK_XREC_LAYER_RECONCILED
360
46D9F9
  0
DICTIONARY
  5
46D9FA
330
1616FA
100
AcDbDictionary
280
     1
281
     1
  3
ADSK_XREC_LAYER_RECONCILED
360
46D9FB
  0
DICTIONARY
  5
46DA02
330
198684
100
AcDbDictionary
280
     1
281
     1
  3
ADSK_XREC_LAYER_RECONCILED
360
46DA03
  0
DICTIONARY
  5
46DA06
330
2E1BD2
100
AcDbDictionary
280
     1
281
     1
  3
ADSK_XREC_LAYER_RECONCILED
360
46DA07
  0
DICTIONARY
  5
46DA08
330
2E1BD3
100
AcDbDictionary
280
     1
281
     1
  3
ADSK_XREC_LAYER_RECONCILED
360
46DA09
  0
DICTIONARY
  5
46DA0E
330
368931
100
AcDbDictionary
280
     1
281
     1
  3
ADSK_XREC_LAYER_RECONCILED
360
46DA0F
  0
DICTIONARY
  5
46DA12
330
3AC0FB
100
AcDbDictionary
280
     1
281
     1
  3
ADSK_XREC_LAYER_RECONCILED
360
46DA13
  0
DICTIONARY
  5
46DA1C
330
3ED740
100
AcDbDictionary
280
     1
281
     1
  3
ADSK_XREC_LAYER_RECONCILED
360
46DA1D
  0
DICTIONARY
  5
46DA1E
330
3ED741
100
AcDbDictionary
280
     1
281
     1
  3
ADSK_XREC_LAYER_RECONCILED
360
46DA1F
  0
DICTIONARY
  5
D
102
{ACAD_REACTORS
330
C
102
}
330
C
100
AcDbDictionary
281
     1
  0
RASTERVARIABLES
  5
4775D5
102
{ACAD_REACTORS
330
C
102
}
330
C
100
AcDbRasterVariables
 90
        0
 70
     1
 71
     1
 72
     0
  0
DICTIONARY
  5
617
102
{ACAD_REACTORS
330
C
102
}
330
C
100
AcDbDictionary
281
     1
  3
Model
350
619
  3
ﾚｲｱｳﾄ1
350
61A
  0
DICTIONARY
  5
E
102
{ACAD_REACTORS
330
C
102
}
330
C
100
AcDbDictionary
281
     1
  3
STANDARD
350
1B
  0
DICTIONARY
  5
618
102
{ACAD_REACTORS
330
C
102
}
330
C
100
AcDbDictionary
281
     1
  0
ACDBDICTIONARYWDFLT
  5
615
102
{ACAD_REACTORS
330
C
102
}
330
C
100
AcDbDictionary
281
     1
  3
Normal
350
616
100
AcDbDictionaryWithDefault
340
616
  0
DICTIONARY
  5
46A636
102
{ACAD_REACTORS
330
C
102
}
330
C
100
AcDbDictionary
281
     1
  3
A0
350
46A637
  3
A1
350
46A638
  3
A2
350
46A639
  3
A3
350
46A63A
  3
A4
350
46A63B
  3
A5
350
46A63C
  3
A6
350
46A63D
  3
A7
350
46A63E
  3
A8
350
46A63F
  3
A9
350
46A640
  3
B0
350
46A641
  3
B1
350
46A642
  3
B2
350
46A643
  3
B3
350
46A644
  3
B4
350
46A645
  3
B5
350
46A646
  3
B6
350
46A647
  3
B7
350
46A648
  3
B8
350
46A649
  3
B9
350
46A64A
  3
C0
350
46A64B
  3
C1
350
46A64C
  3
C2
350
46A64D
  3
C3
350
46A64E
  3
C4
350
46A64F
  3
C5
350
46A650
  3
C6
350
46A651
  3
C7
350
46A652
  3
C8
350
46A653
  3
C9
350
46A654
  3
D0
350
46A655
  3
D1
350
46A656
  3
D2
350
46A657
  0
XRECORD
  5
44DDA5
102
{ACAD_REACTORS
330
C
102
}
330
C
100
AcDbXrecord
280
     1
 90
   990106
  3
OPEN
 60
     0
 61
     0
 62
     4
 63
     4
 64
     1
 65
     0
 66
     0
 67
     3
 68
     1
 69
     0
 70
     0
 71
     0
 72
     0
 40
0.0
170
     2
  0
DICTIONARY
  5
6DE
102
{ACAD_REACTORS
330
C
102
}
330
C
100
AcDbDictionary
281
     1
  3
DIMASSOC
350
6DF
  3
INDEXCTL
350
46DA4B
  3
PROJECTNAME
350
6E0
  3
SORTENTS
350
46DA4A
  0
DICTIONARY
  5
4775D4
102
{ACAD_REACTORS
330
C
102
}
330
C
100
AcDbDictionary
281
     1
  0
DICTIONARY
  5
44CC62
102
{ACAD_REACTORS
330
C
102
}
330
C
100
AcDbDictionary
281
     1
  3
ASEBlockHierarchyIndexRecord
350
44CC64
1001
DCO15
1040
1604398629.359
  0
XRECORD
  5
4775F8
102
{ACAD_REACTORS
330
C
102
}
330
C
100
AcDbXrecord
280
     1
  1
DWGPROPS COOKIE
  2

  3

  4

  6

  7

  8
SPAX
  9

300
=
301
=
302
=
303
=
304
=
305
=
306
=
307
=
308
=
309
=
 40
0.0
 41
2448636.244629629
 42
2456822.105144039
  1

 90
        0
  0
DICTIONARY
  5
DBFD3
102
{ACAD_REACTORS
330
6A835
102
}
330
6A835
100
AcDbDictionary
281
     1
  0
DICTIONARY
  5
6A836
102
{ACAD_REACTORS
330
6A835
102
}
330
6A835
100
AcDbDictionary
281
     1
  0
XRECORD
  5
46D9ED
102
{ACAD_REACTORS
330
46D9EC
102
}
330
46D9EC
100
AcDbXrecord
280
     1
290
     1
  0
XRECORD
  5
46D9EF
102
{ACAD_REACTORS
330
46D9EE
102
}
330
46D9EE
100
AcDbXrecord
280
     1
290
     1
  0
XRECORD
  5
46D9F1
102
{ACAD_REACTORS
330
46D9F0
102
}
330
46D9F0
100
AcDbXrecord
280
     1
290
     1
  0
XRECORD
  5
46D9F3
102
{ACAD_REACTORS
330
46D9F2
102
}
330
46D9F2
100
AcDbXrecord
280
     1
290
     1
  0
XRECORD
  5
46D9F5
102
{ACAD_REACTORS
330
46D9F4
102
}
330
46D9F4
100
AcDbXrecord
280
     1
290
     1
  0
XRECORD
  5
46D9F7
102
{ACAD_REACTORS
330
46D9F6
102
}
330
46D9F6
100
AcDbXrecord
280
     1
290
     1
  0
XRECORD
  5
46D9F9
102
{ACAD_REACTORS
330
46D9F8
102
}
330
46D9F8
100
AcDbXrecord
280
     1
290
     1
  0
XRECORD
  5
46D9FB
102
{ACAD_REACTORS
330
46D9FA
102
}
330
46D9FA
100
AcDbXrecord
280
     1
290
     1
  0
XRECORD
  5
46DA03
102
{ACAD_REACTORS
330
46DA02
102
}
330
46DA02
100
AcDbXrecord
280
     1
290
     1
  0
XRECORD
  5
46DA07
102
{ACAD_REACTORS
330
46DA06
102
}
330
46DA06
100
AcDbXrecord
280
     1
290
     1
  0
XRECORD
  5
46DA09
102
{ACAD_REACTORS
330
46DA08
102
}
330
46DA08
100
AcDbXrecord
280
     1
290
     1
  0
XRECORD
  5
46DA0F
102
{ACAD_REACTORS
330
46DA0E
102
}
330
46DA0E
100
AcDbXrecord
280
     1
290
     1
  0
XRECORD
  5
46DA13
102
{ACAD_REACTORS
330
46DA12
102
}
330
46DA12
100
AcDbXrecord
280
     1
290
     1
  0
XRECORD
  5
46DA1D
102
{ACAD_REACTORS
330
46DA1C
102
}
330
46DA1C
100
AcDbXrecord
280
     1
290
     1
  0
XRECORD
  5
46DA1F
102
{ACAD_REACTORS
330
46DA1E
102
}
330
46DA1E
100
AcDbXrecord
280
     1
290
     1
  0
LAYOUT
  5
619
102
{ACAD_REACTORS
330
617
102
}
330
617
100
AcDbPlotSettings
  1

  2
JUST PDF 2.pc3
  4
A4
  6

 40
3.174999952316284
 41
3.174999952316284
 42
3.175003051757812
 43
3.17498779296875
 44
209.8886566162109
 45
297.0530090332031
 46
14.27
 47
9.86
 48
66202.37631217143
 49
-34262.93999557561
140
67077.35240464596
141
-32907.97661988228
142
1.0
143
5.0
 70
 11940
 72
     1
 73
     0
 74
     4
  7
spax form.ctb
 75
     0
147
0.2
148
-66202.37631217143
149
34262.93999557561
100
AcDbLayout
  1
Model
 70
     1
 71
     0
 10
0.0
 20
0.0
 11
12.0
 21
9.0
 12
0.0
 22
0.0
 32
0.0
 14
66294.21292101199
 24
-34585.37684216449
 34
0.0
 15
66435.06838627893
 25
-34429.71464700859
 35
0.0
146
0.0
 13
0.0
 23
0.0
 33
0.0
 16
1.0
 26
0.0
 36
0.0
 17
0.0
 27
1.0
 37
0.0
 76
     0
330
18
331
474227
1001
ACAD_PSEXT
1000
クセロPDF2
1000
XeloPDF2
1000
Xelo PDF Port2
1000

1070
     0
  0
LAYOUT
  5
61A
102
{ACAD_REACTORS
330
617
102
}
330
617
100
AcDbPlotSettings
  1

  2
Canon LASER SHOT LBP-750
  4

  6

 40
0.0
 41
0.0
 42
0.0
 43
0.0
 44
0.0
 45
0.0
 46
0.0
 47
0.0
 48
0.0
 49
0.0
140
0.0
141
0.0
142
1.0
143
1.0
 70
   688
 72
     0
 73
     0
 74
     5
  7
spax form.ctb
 75
    16
147
1.0
148
0.0
149
0.0
100
AcDbLayout
  1
ﾚｲｱｳﾄ1
 70
     0
 71
     1
 10
0.0
 20
0.0
 11
12.0
 21
9.0
 12
0.0
 22
0.0
 32
0.0
 14
1.000000000000000E+20
 24
1.000000000000000E+20
 34
1.000000000000000E+20
 15
-1.000000000000000E+20
 25
-1.000000000000000E+20
 35
-1.000000000000000E+20
146
0.0
 13
0.0
 23
0.0
 33
0.0
 16
1.0
 26
0.0
 36
0.0
 17
0.0
 27
1.0
 37
0.0
 76
     0
330
15
  0
MLINESTYLE
  5
1B
102
{ACAD_REACTORS
330
E
102
}
330
E
100
AcDbMlineStyle
  2
STANDARD
 70
     0
  3

 62
     0
 51
90.0
 52
90.0
 71
     2
 49
0.5
 62
   256
  6
BYLAYER
 49
-0.5
 62
   256
  6
BYLAYER
  0
ACDBPLACEHOLDER
  5
616
102
{ACAD_REACTORS
330
615
102
}
330
615
  0
SCALE
  5
46A637
102
{ACAD_REACTORS
330
46A636
102
}
330
46A636
100
AcDbScale
 70
     0
300
1:1
140
1.0
141
1.0
290
     1
1001
ACAD
1000
AcRTDxfName
1000
SCALE
1000
AcRTDxfName
1000
SCALE
  0
SCALE
  5
46A638
102
{ACAD_REACTORS
330
46A636
102
}
330
46A636
100
AcDbScale
 70
     0
300
1:2
140
1.0
141
2.0
290
     0
1001
ACAD
1000
AcRTDxfName
1000
SCALE
1000
AcRTDxfName
1000
SCALE
  0
SCALE
  5
46A639
102
{ACAD_REACTORS
330
46A636
102
}
330
46A636
100
AcDbScale
 70
     0
300
1:4
140
1.0
141
4.0
290
     0
1001
ACAD
1000
AcRTDxfName
1000
SCALE
1000
AcRTDxfName
1000
SCALE
  0
SCALE
  5
46A63A
102
{ACAD_REACTORS
330
46A636
102
}
330
46A636
100
AcDbScale
 70
     0
300
1:5
140
1.0
141
5.0
290
     0
1001
ACAD
1000
AcRTDxfName
1000
SCALE
1000
AcRTDxfName
1000
SCALE
  0
SCALE
  5
46A63B
102
{ACAD_REACTORS
330
46A636
102
}
330
46A636
100
AcDbScale
 70
     0
300
1:8
140
1.0
141
8.0
290
     0
1001
ACAD
1000
AcRTDxfName
1000
SCALE
1000
AcRTDxfName
1000
SCALE
  0
SCALE
  5
46A63C
102
{ACAD_REACTORS
330
46A636
102
}
330
46A636
100
AcDbScale
 70
     0
300
1:10
140
1.0
141
10.0
290
     0
1001
ACAD
1000
AcRTDxfName
1000
SCALE
1000
AcRTDxfName
1000
SCALE
  0
SCALE
  5
46A63D
102
{ACAD_REACTORS
330
46A636
102
}
330
46A636
100
AcDbScale
 70
     0
300
1:16
140
1.0
141
16.0
290
     0
1001
ACAD
1000
AcRTDxfName
1000
SCALE
1000
AcRTDxfName
1000
SCALE
  0
SCALE
  5
46A63E
102
{ACAD_REACTORS
330
46A636
102
}
330
46A636
100
AcDbScale
 70
     0
300
1:20
140
1.0
141
20.0
290
     0
1001
ACAD
1000
AcRTDxfName
1000
SCALE
1000
AcRTDxfName
1000
SCALE
  0
SCALE
  5
46A63F
102
{ACAD_REACTORS
330
46A636
102
}
330
46A636
100
AcDbScale
 70
     0
300
1:30
140
1.0
141
30.0
290
     0
1001
ACAD
1000
AcRTDxfName
1000
SCALE
1000
AcRTDxfName
1000
SCALE
  0
SCALE
  5
46A640
102
{ACAD_REACTORS
330
46A636
102
}
330
46A636
100
AcDbScale
 70
     0
300
1:40
140
1.0
141
40.0
290
     0
1001
ACAD
1000
AcRTDxfName
1000
SCALE
1000
AcRTDxfName
1000
SCALE
  0
SCALE
  5
46A641
102
{ACAD_REACTORS
330
46A636
102
}
330
46A636
100
AcDbScale
 70
     0
300
1:50
140
1.0
141
50.0
290
     0
1001
ACAD
1000
AcRTDxfName
1000
SCALE
1000
AcRTDxfName
1000
SCALE
  0
SCALE
  5
46A642
102
{ACAD_REACTORS
330
46A636
102
}
330
46A636
100
AcDbScale
 70
     0
300
1:100
140
1.0
141
100.0
290
     0
1001
ACAD
1000
AcRTDxfName
1000
SCALE
1000
AcRTDxfName
1000
SCALE
  0
SCALE
  5
46A643
102
{ACAD_REACTORS
330
46A636
102
}
330
46A636
100
AcDbScale
 70
     0
300
2:1
140
2.0
141
1.0
290
     0
1001
ACAD
1000
AcRTDxfName
1000
SCALE
1000
AcRTDxfName
1000
SCALE
  0
SCALE
  5
46A644
102
{ACAD_REACTORS
330
46A636
102
}
330
46A636
100
AcDbScale
 70
     0
300
4:1
140
4.0
141
1.0
290
     0
1001
ACAD
1000
AcRTDxfName
1000
SCALE
1000
AcRTDxfName
1000
SCALE
  0
SCALE
  5
46A645
102
{ACAD_REACTORS
330
46A636
102
}
330
46A636
100
AcDbScale
 70
     0
300
8:1
140
8.0
141
1.0
290
     0
1001
ACAD
1000
AcRTDxfName
1000
SCALE
1000
AcRTDxfName
1000
SCALE
  0
SCALE
  5
46A646
102
{ACAD_REACTORS
330
46A636
102
}
330
46A636
100
AcDbScale
 70
     0
300
10:1
140
10.0
141
1.0
290
     0
1001
ACAD
1000
AcRTDxfName
1000
SCALE
1000
AcRTDxfName
1000
SCALE
  0
SCALE
  5
46A647
102
{ACAD_REACTORS
330
46A636
102
}
330
46A636
100
AcDbScale
 70
     0
300
100:1
140
100.0
141
1.0
290
     0
1001
ACAD
1000
AcRTDxfName
1000
SCALE
1000
AcRTDxfName
1000
SCALE
  0
SCALE
  5
46A648
102
{ACAD_REACTORS
330
46A636
102
}
330
46A636
100
AcDbScale
 70
     0
300
1/128" = 1'-0"
140
0.0078125
141
12.0
290
     0
1001
ACAD
1000
AcRTDxfName
1000
SCALE
1000
AcRTDxfName
1000
SCALE
  0
SCALE
  5
46A649
102
{ACAD_REACTORS
330
46A636
102
}
330
46A636
100
AcDbScale
 70
     0
300
1/64" = 1'-0"
140
0.015625
141
12.0
290
     0
1001
ACAD
1000
AcRTDxfName
1000
SCALE
1000
AcRTDxfName
1000
SCALE
  0
SCALE
  5
46A64A
102
{ACAD_REACTORS
330
46A636
102
}
330
46A636
100
AcDbScale
 70
     0
300
1/32" = 1'-0"
140
0.03125
141
12.0
290
     0
1001
ACAD
1000
AcRTDxfName
1000
SCALE
1000
AcRTDxfName
1000
SCALE
  0
SCALE
  5
46A64B
102
{ACAD_REACTORS
330
46A636
102
}
330
46A636
100
AcDbScale
 70
     0
300
1/16" = 1'-0"
140
0.0625
141
12.0
290
     0
1001
ACAD
1000
AcRTDxfName
1000
SCALE
1000
AcRTDxfName
1000
SCALE
  0
SCALE
  5
46A64C
102
{ACAD_REACTORS
330
46A636
102
}
330
46A636
100
AcDbScale
 70
     0
300
3/32" = 1'-0"
140
0.09375
141
12.0
290
     0
1001
ACAD
1000
AcRTDxfName
1000
SCALE
1000
AcRTDxfName
1000
SCALE
  0
SCALE
  5
46A64D
102
{ACAD_REACTORS
330
46A636
102
}
330
46A636
100
AcDbScale
 70
     0
300
1/8" = 1'-0"
140
0.125
141
12.0
290
     0
1001
ACAD
1000
AcRTDxfName
1000
SCALE
1000
AcRTDxfName
1000
SCALE
  0
SCALE
  5
46A64E
102
{ACAD_REACTORS
330
46A636
102
}
330
46A636
100
AcDbScale
 70
     0
300
3/16" = 1'-0"
140
0.1875
141
12.0
290
     0
1001
ACAD
1000
AcRTDxfName
1000
SCALE
1000
AcRTDxfName
1000
SCALE
  0
SCALE
  5
46A64F
102
{ACAD_REACTORS
330
46A636
102
}
330
46A636
100
AcDbScale
 70
     0
300
1/4" = 1'-0"
140
0.25
141
12.0
290
     0
1001
ACAD
1000
AcRTDxfName
1000
SCALE
1000
AcRTDxfName
1000
SCALE
  0
SCALE
  5
46A650
102
{ACAD_REACTORS
330
46A636
102
}
330
46A636
100
AcDbScale
 70
     0
300
3/8" = 1'-0"
140
0.375
141
12.0
290
     0
1001
ACAD
1000
AcRTDxfName
1000
SCALE
1000
AcRTDxfName
1000
SCALE
  0
SCALE
  5
46A651
102
{ACAD_REACTORS
330
46A636
102
}
330
46A636
100
AcDbScale
 70
     0
300
1/2" = 1'-0"
140
0.5
141
12.0
290
     0
1001
ACAD
1000
AcRTDxfName
1000
SCALE
1000
AcRTDxfName
1000
SCALE
  0
SCALE
  5
46A652
102
{ACAD_REACTORS
330
46A636
102
}
330
46A636
100
AcDbScale
 70
     0
300
3/4" = 1'-0"
140
0.75
141
12.0
290
     0
1001
ACAD
1000
AcRTDxfName
1000
SCALE
1000
AcRTDxfName
1000
SCALE
  0
SCALE
  5
46A653
102
{ACAD_REACTORS
330
46A636
102
}
330
46A636
100
AcDbScale
 70
     0
300
1" = 1'-0"
140
1.0
141
12.0
290
     0
1001
ACAD
1000
AcRTDxfName
1000
SCALE
1000
AcRTDxfName
1000
SCALE
  0
SCALE
  5
46A654
102
{ACAD_REACTORS
330
46A636
102
}
330
46A636
100
AcDbScale
 70
     0
300
1-1/2" = 1'-0"
140
1.5
141
12.0
290
     0
1001
ACAD
1000
AcRTDxfName
1000
SCALE
1000
AcRTDxfName
1000
SCALE
  0
SCALE
  5
46A655
102
{ACAD_REACTORS
330
46A636
102
}
330
46A636
100
AcDbScale
 70
     0
300
3" = 1'-0"
140
3.0
141
12.0
290
     0
1001
ACAD
1000
AcRTDxfName
1000
SCALE
1000
AcRTDxfName
1000
SCALE
  0
SCALE
  5
46A656
102
{ACAD_REACTORS
330
46A636
102
}
330
46A636
100
AcDbScale
 70
     0
300
6" = 1'-0"
140
6.0
141
12.0
290
     0
1001
ACAD
1000
AcRTDxfName
1000
SCALE
1000
AcRTDxfName
1000
SCALE
  0
SCALE
  5
46A657
102
{ACAD_REACTORS
330
46A636
102
}
330
46A636
100
AcDbScale
 70
     0
300
1'-0" = 1'-0"
140
12.0
141
12.0
290
     0
1001
ACAD
1000
AcRTDxfName
1000
SCALE
1000
AcRTDxfName
1000
SCALE
  0
DICTIONARYVAR
  5
6DF
102
{ACAD_REACTORS
330
6DE
102
}
330
6DE
100
DictionaryVariables
280
     0
  1
1
  0
DICTIONARYVAR
  5
46DA4B
102
{ACAD_REACTORS
330
6DE
102
}
330
6DE
100
DictionaryVariables
280
     0
  1
0
  0
DICTIONARYVAR
  5
6E0
102
{ACAD_REACTORS
330
6DE
102
}
330
6DE
100
DictionaryVariables
280
     0
  1

  0
DICTIONARYVAR
  5
46DA4A
102
{ACAD_REACTORS
330
6DE
102
}
330
6DE
100
DictionaryVariables
280
     0
  1
1
  0
XRECORD
  5
44CC64
102
{ACAD_REACTORS
330
44CC62
102
}
330
44CC62
100
AcDbXrecord
280
     1
330
0
330
0
330
0
330
0
330
0
330
0
330
0
330
0
330
0
330
0
330
0
330
0
330
0
330
0
330
0
330
0
330
0
330
0
330
0
330
0
330
0
330
0
330
0
330
0
330
0
330
0
330
0
330
0
330
0
330
0
330
0
330
0
330
0
330
0
330
0
330
0
330
0
330
0
330
0
330
0
330
0
330
0
330
0
330
0
330
0
330
0
330
0
330
0
330
0
330
0
330
0
330
0
330
0
330
0
330
0
330
0
330
0
330
0
330
0
330
0
330
0
330
0
330
0
330
0
330
0
330
0
330
0
330
0
330
0
330
0
330
0
330
0
330
0
330
0
330
0
330
0
330
0
330
0
330
0
330
0
330
0
330
0
330
0
330
0
330
0
330
0
330
0
330
0
330
0
330
0
330
0
330
0
330
0
330
0
330
0
330
0
330
0
330
0
330
0
330
0
330
0
330
0
330
0
330
0
330
0
330
0
330
0
330
0
330
0
330
0
330
0
330
0
330
0
330
0
330
0
330
0
330
0
330
0
330
0
330
0
330
0
330
0
330
0
330
0
330
0
330
0
330
0
330
0
330
0
330
0
330
0
330
0
330
0
330
0
330
0
330
0
330
0
330
0
330
0
330
0
330
0
330
0
330
0
330
0
330
0
330
0
330
0
330
0
330
0
330
0
330
0
330
0
330
0
330
0
330
0
330
0
330
0
330
0
330
0
330
0
330
0
330
0
330
0
330
0
330
0
330
0
330
0
330
0
330
0
330
0
330
0
330
0
330
0
330
0
330
0
330
0
330
0
330
0
330
0
330
0
330
0
330
0
330
0
330
0
330
0
330
0
330
0
330
0
330
0
330
0
330
0
330
0
330
0
330
0
330
0
330
0
330
0
330
0
330
0
330
0
330
0
330
0
330
0
330
0
330
0
330
0
330
0
330
0
330
0
330
0
330
0
330
0
330
0
330
0
330
0
330
0
330
0
330
0
330
0
330
0
330
0
330
0
330
0
330
0
330
0
330
0
330
0
330
0
330
0
330
0
330
0
330
0
330
0
330
0
330
0
330
0
330
0
330
0
330
0
330
0
330
0
330
0
330
0
330
0
330
0
330
0
330
0
330
0
330
0
330
0
330
0
330
0
330
0
330
0
330
0
330
0
330
0
330
0
330
0
330
0
330
0
330
0
330
0
330
0
330
0
330
0
330
0
330
0
330
0
330
0
330
0
330
0
330
0
330
0
330
0
330
0
330
0
330
0
330
0
330
0
330
0
330
0
330
0
330
0
330
0
330
0
330
0
330
0
330
0
330
0
330
0
330
0
330
0
330
0
330
0
330
0
330
0
330
0
330
0
330
0
330
0
330
0
330
0
330
0
330
0
330
0
330
0
330
0
330
0
330
0
330
0
330
0
330
0
330
0
330
0
330
0
330
0
330
0
330
0
330
0
330
0
330
0
330
0
330
0
330
0
330
0
330
0
330
0
330
0
330
0
330
0
330
0
330
0
330
0
330
0
330
0
330
0
330
0
330
0
330
0
330
0
330
0
330
0
330
0
330
0
330
0
330
0
330
0
330
0
330
0
330
0
330
0
330
0
330
0
330
0
330
0
330
0
330
0
330
0
330
0
330
0
330
0
330
0
330
0
330
0
330
0
330
0
330
0
330
0
330
0
330
0
330
0
330
0
330
0
330
0
330
0
330
0
330
0
330
0
330
0
330
0
330
0
330
0
330
0
330
0
330
0
330
0
330
0
330
0
330
0
330
0
330
0
330
0
330
0
330
0
330
0
330
0
330
0
330
0
330
0
330
0
330
0
330
0
330
0
330
0
330
0
330
0
330
0
330
0
330
0
330
0
330
0
330
0
330
0
330
0
330
0
330
0
330
0
330
0
330
0
330
0
330
0
330
0
330
0
330
0
330
0
330
0
330
0
330
0
330
0
330
0
330
0
330
0
330
0
330
0
330
0
330
0
330
0
330
0
330
0
330
0
330
0
330
0
330
0
330
0
330
0
330
0
330
0
330
0
330
0
330
0
330
0
330
0
330
0
330
0
330
0
330
0
330
0
330
0
330
0
330
0
330
0
330
0
330
0
330
0
330
0
330
0
330
0
330
0
330
0
330
0
330
0
330
0
330
0
330
0
330
0
330
0
330
0
330
0
330
0
330
0
330
0
330
0
330
0
330
0
330
0
330
0
330
0
330
0
330
0
330
0
330
0
330
0
330
0
330
0
330
0
330
0
330
0
330
0
330
0
330
0
330
0
330
0
330
0
330
0
330
0
330
0
330
0
330
0
330
0
330
0
330
0
330
0
330
0
330
0
330
0
330
0
330
0
330
0
330
0
330
0
330
0
330
0
330
0
330
0
330
0
330
0
330
0
330
0
330
0
330
0
330
0
330
0
330
0
330
0
330
0
330
0
330
0
330
0
330
0
330
0
330
0
330
0
330
0
330
0
330
0
330
0
330
0
330
0
330
0
330
0
330
0
330
0
330
0
330
0
330
0
330
0
330
0
330
0
330
0
330
0
330
0
330
0
330
0
330
0
330
0
330
0
330
0
330
0
330
0
330
0
330
0
330
0
330
0
330
0
330
0
330
0
330
0
330
0
330
0
330
0
330
0
330
0
330
0
330
0
330
0
330
0
330
0
330
0
330
0
330
0
330
0
330
0
330
0
330
0
330
0
330
0
330
0
330
0
330
0
330
0
330
0
330
0
330
0
330
0
330
0
330
0
330
0
330
0
330
0
330
0
330
0
330
0
330
0
330
0
330
0
330
0
330
0
330
0
330
0
330
0
330
0
330
0
330
0
330
0
330
0
330
0
330
0
330
0
330
0
330
0
330
0
330
0
330
0
330
0
330
0
330
0
330
0
330
0
330
0
330
0
330
0
330
0
330
0
330
0
330
0
330
0
330
0
330
0
330
0
330
0
330
0
330
0
330
0
330
0
330
0
330
0
330
0
330
0
330
0
330
0
330
0
330
0
330
0
330
0
330
0
330
0
330
0
330
0
330
0
330
0
330
0
330
0
330
0
330
0
330
0
330
0
330
0
330
0
330
0
330
0
330
0
330
0
330
0
330
0
330
0
330
0
330
0
330
0
330
0
330
0
330
0
330
0
330
0
330
0
330
0
330
0
330
0
330
0
330
0
330
0
330
0
330
0
330
0
330
0
330
0
330
0
330
0
330
0
330
0
330
0
330
0
330
0
330
0
330
0
330
0
330
0
330
0
330
0
330
0
330
0
330
0
330
0
330
0
330
0
330
0
330
0
330
0
330
0
330
0
330
0
330
0
330
0
330
0
330
0
330
0
330
0
330
0
330
0
330
0
330
0
330
0
330
0
330
0
330
0
330
0
330
0
330
0
330
0
330
0
330
0
330
0
330
0
330
0
330
0
330
0
330
0
330
0
330
0
330
0
330
0
330
0
330
0
330
0
330
0
330
0
330
0
330
0
330
0
330
0
330
0
330
0
330
0
330
0
330
0
330
0
330
0
330
0
330
0
330
0
330
0
330
0
330
0
330
0
330
0
330
0
330
0
330
0
330
0
330
0
330
0
330
0
330
0
330
0
330
0
330
0
330
0
330
0
330
0
330
0
330
0
330
0
330
0
330
0
330
0
330
0
330
0
330
0
330
0
330
0
330
0
330
0
330
0
330
0
330
0
330
0
330
0
330
0
330
0
330
0
330
0
330
0
330
0
330
0
330
0
330
0
330
0
330
0
330
0
330
0
330
0
330
0
330
0
330
0
330
0
330
0
330
0
330
0
330
0
330
0
330
0
330
0
330
0
330
0
330
0
330
0
330
0
330
0
330
0
330
0
330
0
330
0
330
0
330
0
330
0
330
0
330
0
330
0
330
0
330
0
330
0
330
0
330
0
330
0
330
0
330
0
330
0
330
0
330
0
330
0
330
0
330
0
330
0
330
0
330
0
330
0
330
0
330
0
330
0
330
0
330
0
330
0
330
0
330
0
330
0
330
0
330
0
330
0
330
0
330
0
330
0
330
0
330
0
330
0
330
0
330
0
330
0
330
0
330
0
330
0
330
0
330
0
330
0
330
0
330
0
330
0
330
0
330
0
330
0
330
0
330
0
330
0
330
0
330
0
330
0
330
0
330
0
330
0
330
0
330
0
330
0
330
0
330
0
330
0
330
0
330
0
330
0
330
0
330
0
330
0
330
0
330
0
330
0
330
0
330
0
330
0
330
0
330
0
330
0
330
0
330
0
330
0
330
0
330
0
330
0
330
0
330
0
330
0
330
0
330
0
330
0
330
0
330
0
330
0
330
0
330
0
330
0
330
0
330
0
330
0
330
0
330
0
330
0
330
0
330
0
330
0
330
0
330
0
330
0
330
0
330
0
330
0
330
0
330
0
330
0
330
0
330
0
330
0
330
0
330
0
330
0
330
0
330
0
330
0
330
0
330
0
330
0
330
0
330
0
330
0
330
0
330
0
330
0
330
0
330
0
330
0
330
0
330
0
330
0
330
0
330
0
330
0
330
0
330
0
330
0
330
0
330
0
330
0
330
0
330
0
330
0
330
0
330
0
330
0
330
0
330
0
330
0
330
0
330
0
330
0
330
0
330
0
330
0
330
0
330
0
330
0
330
0
330
0
330
0
330
0
330
0
330
0
330
0
330
0
330
0
330
0
330
0
330
0
330
0
330
0
330
0
330
0
330
0
330
0
330
0
330
0
330
0
330
0
330
0
330
0
330
0
330
0
330
0
330
0
330
0
330
0
330
0
330
0
330
0
330
0
330
0
330
0
330
0
330
0
330
0
330
0
330
0
330
0
330
0
330
0
330
0
330
0
330
0
330
0
330
0
330
0
330
0
330
0
330
0
330
0
330
0
330
0
330
0
330
0
330
0
330
0
330
0
330
0
330
0
330
0
330
0
330
0
330
0
330
0
330
0
330
0
330
0
330
0
330
0
330
0
330
0
330
0
330
0
330
0
330
0
330
0
330
0
330
0
330
0
330
0
330
0
330
0
330
0
330
0
330
0
330
0
330
0
330
0
330
0
330
0
330
0
330
0
330
0
330
0
330
0
330
0
330
0
330
0
330
0
330
0
330
0
330
0
330
0
330
0
330
0
330
0
330
0
330
0
330
0
330
0
330
0
330
0
330
0
330
0
330
0
330
0
330
0
330
0
330
0
330
0
330
0
330
0
330
0
330
0
330
0
330
0
330
0
330
0
330
0
330
0
330
0
330
0
330
0
330
0
330
0
330
0
330
0
330
0
330
0
330
0
330
0
330
0
330
0
330
0
330
0
330
0
330
0
330
0
330
0
330
0
330
0
330
0
330
0
330
0
330
0
330
0
330
0
330
0
330
0
330
0
330
0
330
0
330
0
330
0
330
0
330
0
330
0
330
0
330
0
330
0
330
0
330
0
330
0
330
0
330
0
330
0
330
0
330
0
330
0
330
0
330
0
330
0
330
0
330
0
330
0
330
0
330
0
330
0
330
0
330
0
330
0
330
0
330
0
330
0
330
0
330
0
330
0
330
0
330
0
330
0
330
0
330
0
330
0
330
0
330
0
330
0
330
0
330
0
330
0
330
0
330
0
330
0
330
0
330
0
330
0
330
0
330
0
330
0
330
0
330
0
330
0
330
0
330
0
330
0
330
0
330
0
330
0
330
0
330
0
330
0
330
0
330
0
330
0
330
0
330
0
330
0
330
0
330
0
330
0
330
0
330
0
330
0
330
0
330
0
330
0
330
0
330
0
330
0
330
0
330
0
330
0
330
0
330
0
330
0
330
0
330
0
330
0
330
0
330
0
330
0
330
0
330
0
330
0
330
0
330
0
330
0
330
0
330
0
330
0
330
0
330
0
330
0
330
0
330
0
330
0
330
0
330
0
330
0
330
0
330
0
330
0
330
0
330
0
330
0
330
0
330
0
330
0
330
0
330
0
330
0
330
0
330
0
330
0
330
0
330
0
330
0
330
0
330
0
330
0
330
0
330
0
330
0
330
0
330
0
330
0
330
0
330
0
330
0
330
0
330
0
330
0
330
0
330
0
330
0
330
0
330
0
330
0
330
0
330
0
330
0
330
0
330
0
330
0
330
0
330
0
330
0
330
0
330
0
330
0
330
0
330
0
330
0
330
0
330
0
330
0
330
0
330
0
330
0
330
0
330
0
330
0
330
0
330
0
330
0
330
0
330
0
330
0
330
0
330
0
330
0
330
0
330
0
330
0
330
0
330
0
330
0
330
0
330
0
330
0
330
0
330
0
330
0
330
0
330
0
330
0
330
0
330
0
330
0
330
0
330
0
330
0
330
0
330
0
330
0
330
0
330
0
330
0
330
0
330
0
330
0
330
0
330
0
330
0
330
0
330
0
330
0
330
0
330
0
330
0
330
0
330
0
330
0
330
0
330
0
330
0
330
0
330
0
330
0
330
0
330
0
330
0
330
0
330
0
330
0
330
0
330
0
330
0
330
0
330
0
330
0
330
0
330
0
330
0
330
0
330
0
330
0
330
0
330
0
330
0
330
0
330
0
330
0
330
0
330
0
330
0
330
0
330
0
330
0
330
0
330
0
330
0
330
0
330
0
330
0
330
0
330
0
330
0
330
0
330
0
330
0
330
0
330
0
330
0
330
0
330
0
330
0
330
0
330
0
330
0
330
0
330
0
330
0
330
0
330
0
330
0
330
0
330
0
330
0
330
0
330
0
330
0
330
0
330
0
330
0
330
0
330
0
330
0
330
0
330
0
330
0
330
0
330
0
330
0
330
0
330
0
330
0
330
0
330
0
330
0
330
0
330
0
330
0
330
0
330
0
330
0
330
0
330
0
330
0
330
0
330
0
330
0
330
0
330
0
330
0
330
0
330
0
330
0
330
0
330
0
330
0
330
0
330
0
330
0
330
0
330
0
330
0
330
0
330
0
330
0
330
0
330
0
330
0
330
0
330
0
330
0
330
0
330
0
330
0
330
0
330
0
330
0
330
0
330
0
330
0
330
0
330
0
330
0
330
0
330
0
330
0
330
0
330
0
330
0
330
0
330
0
330
0
330
0
330
0
330
0
330
0
330
0
330
0
330
0
330
0
330
0
330
0
330
0
330
0
330
0
330
0
330
0
330
0
330
0
330
0
330
0
330
0
330
0
330
0
330
0
330
0
330
0
330
0
330
0
330
0
330
0
330
0
330
0
330
0
330
0
330
0
330
0
330
0
330
0
330
0
330
0
330
0
330
0
330
0
330
0
330
0
330
0
330
0
330
0
330
0
330
0
330
0
330
0
330
0
330
0
330
0
330
0
330
0
330
0
330
0
330
0
330
0
330
0
330
0
330
0
330
0
330
0
330
0
330
0
330
0
330
0
330
0
330
0
330
0
330
0
330
0
330
0
330
0
330
0
330
0
330
0
330
0
330
0
330
0
330
0
330
0
330
0
330
0
330
0
330
0
330
0
330
0
330
0
330
0
330
0
330
0
330
0
330
0
330
0
330
0
330
0
330
0
330
0
330
0
330
0
330
0
330
0
330
0
330
0
330
0
330
0
330
0
330
0
330
0
330
0
330
0
330
0
330
0
330
0
330
0
330
0
330
0
330
0
330
0
330
0
330
0
330
0
330
0
330
0
330
0
330
0
330
0
330
0
330
0
330
0
330
0
330
0
330
0
330
0
330
0
330
0
330
0
330
0
330
0
330
0
330
0
330
0
330
0
330
0
330
0
330
0
330
0
330
0
330
0
330
0
330
0
330
0
330
0
330
0
330
0
330
0
330
0
330
0
330
0
330
0
330
0
330
0
330
0
330
0
330
0
330
0
330
0
330
0
330
0
330
0
330
0
330
0
330
0
330
0
330
0
330
0
330
0
330
0
330
0
330
0
330
0
330
0
330
0
330
0
330
0
330
0
330
0
330
0
330
0
330
0
330
0
330
0
330
0
330
0
330
0
330
0
330
0
330
0
330
0
330
0
330
0
330
0
330
0
330
0
330
0
330
0
330
0
330
0
330
0
330
0
330
0
330
0
330
0
330
0
330
0
330
0
330
0
330
0
330
0
330
0
330
0
330
0
330
0
330
0
330
0
330
0
330
0
330
0
330
0
330
0
330
0
330
0
330
0
330
0
330
0
330
0
330
0
330
0
330
0
330
0
330
0
330
0
330
0
330
0
330
0
330
0
330
0
330
0
330
0
330
0
330
0
330
0
330
0
330
0
330
0
330
0
330
0
330
0
330
0
330
0
330
0
330
0
330
0
330
0
330
0
330
0
330
0
330
0
330
0
330
0
330
0
330
0
330
0
330
0
330
0
330
0
330
0
330
0
330
0
330
0
330
0
330
0
330
0
330
0
330
0
330
0
330
0
330
0
330
0
330
0
330
0
330
0
330
0
330
0
330
0
330
0
330
0
330
0
330
0
330
0
330
0
330
0
330
0
330
0
330
0
330
0
330
0
330
0
330
0
330
0
330
0
330
0
330
0
330
0
330
0
330
0
330
0
330
0
330
0
330
0
330
0
330
0
330
0
330
0
330
0
330
0
330
0
330
0
330
0
330
0
330
0
330
0
330
0
330
0
330
0
330
0
330
0
330
0
330
0
330
0
330
0
330
0
330
0
330
0
330
0
330
0
330
0
330
0
330
0
330
0
330
0
330
0
330
0
330
0
330
0
330
0
330
0
330
0
330
0
330
0
330
0
330
0
330
0
330
0
330
0
330
0
330
0
330
0
330
0
330
0
330
0
330
0
330
0
330
0
330
0
330
0
330
0
330
0
330
0
330
0
330
0
330
0
330
0
330
0
330
0
330
0
330
0
330
0
330
0
330
0
330
0
330
0
330
0
330
0
330
0
330
0
330
0
330
0
330
0
330
0
330
0
330
0
330
0
330
0
330
0
330
0
330
0
330
0
330
0
330
0
330
0
330
0
330
0
330
0
330
0
330
0
330
0
330
0
330
0
330
0
330
0
330
0
330
0
330
0
330
0
330
0
330
0
330
0
330
0
330
0
330
0
330
0
330
0
330
0
330
0
330
0
330
0
330
0
330
0
330
0
330
0
330
0
330
0
330
0
330
0
330
0
330
0
330
0
330
0
330
0
330
0
330
0
330
0
330
0
330
0
330
0
330
0
330
0
330
0
330
0
330
0
330
0
330
0
330
0
330
0
330
0
330
0
330
0
330
0
330
0
330
0
330
0
330
0
330
0
330
0
330
0
330
0
330
0
330
0
330
0
330
0
330
0
330
0
330
0
330
0
330
0
330
0
330
0
330
0
330
0
330
0
330
0
330
0
330
0
330
0
330
0
330
0
330
0
330
0
330
0
330
0
330
0
330
0
330
0
330
0
330
0
330
0
330
0
330
0
330
0
330
0
330
0
330
0
330
0
330
0
330
0
330
0
330
0
330
0
330
0
330
0
330
0
330
0
330
0
330
0
330
0
330
0
330
0
330
0
330
0
330
0
330
0
330
0
330
0
330
0
330
0
330
0
330
0
330
0
330
0
330
0
330
0
330
0
330
0
330
0
330
0
330
0
330
0
330
0
330
0
330
0
330
0
330
0
330
0
330
0
330
0
330
0
330
0
330
0
330
0
330
0
330
0
330
0
330
0
330
0
330
0
330
0
330
0
330
0
330
0
330
0
330
0
330
0
330
0
330
0
330
0
330
0
330
0
330
0
330
0
330
0
330
0
330
0
330
0
330
0
330
0
330
0
330
0
330
0
330
0
330
0
330
0
330
0
330
0
330
0
330
0
330
0
330
0
330
0
330
0
330
0
330
0
330
0
330
0
330
0
330
0
330
0
330
0
330
0
330
0
330
0
330
0
330
0
330
0
330
0
330
0
330
0
330
0
330
0
330
0
330
0
330
0
330
0
330
0
330
0
330
0
330
0
330
0
330
0
330
0
330
0
330
0
330
0
330
0
330
0
330
0
330
0
330
0
330
0
330
0
330
0
330
0
330
0
330
0
330
0
330
0
330
0
330
0
330
0
330
0
330
0
330
0
330
0
330
0
330
0
330
0
330
0
330
0
330
0
330
0
330
0
330
0
330
0
330
0
330
0
330
0
330
0
330
0
330
0
330
0
330
0
330
0
330
0
330
0
330
0
330
0
330
0
330
0
330
0
330
0
330
0
330
0
330
0
330
0
330
0
330
0
330
0
330
0
330
0
330
0
330
0
330
0
330
0
330
0
330
0
330
0
330
0
330
0
330
0
330
0
330
0
330
0
330
0
330
0
330
0
330
0
330
0
330
0
330
0
330
0
330
0
330
0
330
0
330
0
330
0
330
0
330
0
330
0
330
0
330
0
330
0
330
0
330
0
330
0
330
0
330
0
330
0
330
0
330
0
330
0
330
0
330
0
330
0
330
0
330
0
330
0
330
0
330
0
330
0
330
0
330
0
330
0
330
0
330
0
330
0
330
0
330
0
330
0
330
0
330
0
330
0
330
0
330
0
330
0
330
0
330
0
330
0
330
0
330
0
330
0
330
0
330
0
330
0
330
0
330
0
330
0
330
0
330
0
330
0
330
0
330
0
330
0
330
0
330
0
330
0
330
0
330
0
330
0
330
0
330
0
330
0
330
0
330
0
330
0
330
0
330
0
330
0
330
0
330
0
330
0
330
0
330
0
330
0
330
0
330
0
330
0
330
0
330
0
330
0
330
0
330
0
330
0
330
0
330
0
330
0
330
0
330
0
330
0
330
0
330
0
330
0
330
0
330
0
330
0
330
0
330
0
330
0
330
0
330
0
330
0
330
0
330
0
330
0
330
0
330
0
330
0
330
0
330
0
330
0
330
0
330
0
330
0
330
0
330
0
330
0
330
0
330
0
330
0
330
0
330
0
330
0
330
0
330
0
330
0
330
0
330
0
330
0
330
0
330
0
330
0
330
0
330
0
330
0
330
0
330
0
330
0
330
0
330
0
330
0
330
0
330
0
330
0
330
0
330
0
330
0
330
0
330
0
330
0
330
0
330
0
330
0
330
0
330
0
330
0
330
0
330
0
330
0
330
0
330
0
330
0
330
0
330
0
330
0
330
0
330
0
330
0
330
0
330
0
330
0
330
0
330
0
330
0
330
0
330
0
330
0
330
0
330
0
330
0
330
0
330
0
330
0
330
0
330
0
330
0
330
0
330
0
330
0
330
0
330
0
330
0
330
0
330
0
330
0
330
0
330
0
330
0
330
0
330
0
330
0
330
0
330
0
330
0
330
0
330
0
330
0
330
0
330
0
330
0
330
0
330
0
330
0
330
0
330
0
330
0
330
0
330
0
330
0
330
0
330
0
330
0
330
0
330
0
330
0
330
0
330
0
330
0
330
0
330
0
330
0
330
0
330
0
330
0
330
0
330
0
330
0
330
0
330
0
330
0
330
0
330
0
330
0
330
0
330
0
330
0
330
0
330
0
330
0
330
0
330
0
330
0
330
0
330
0
330
0
330
0
330
0
330
0
330
0
330
0
330
0
330
0
330
0
330
0
330
0
330
0
330
0
330
0
330
0
330
0
330
0
330
0
330
0
330
0
330
0
330
0
330
0
330
0
330
0
330
0
330
0
330
0
330
0
330
0
330
0
330
0
330
0
330
0
330
0
330
0
330
0
330
0
330
0
330
0
330
0
330
0
330
0
330
0
330
0
330
0
330
0
330
0
330
0
330
0
330
0
330
0
330
0
330
0
330
0
330
0
330
0
330
0
330
0
330
0
330
0
330
0
330
0
330
0
330
0
330
0
330
0
330
0
330
0
330
0
330
0
330
0
330
0
330
0
330
0
330
0
330
0
330
0
330
0
330
0
330
0
330
0
330
0
330
0
330
0
330
0
330
0
330
0
330
0
330
0
330
0
330
0
330
0
330
0
330
0
330
0
330
0
330
0
330
0
330
0
330
0
330
0
330
0
330
0
330
0
330
0
330
0
330
0
330
0
330
0
330
0
330
0
330
0
330
0
330
0
330
0
330
0
330
0
330
0
330
0
330
0
330
0
330
0
330
0
330
0
330
0
330
0
330
0
330
0
330
0
330
0
330
0
330
0
330
0
330
0
330
0
330
0
330
0
330
0
330
0
330
0
330
0
330
0
330
0
330
0
330
0
330
0
330
0
330
0
330
0
330
0
330
0
330
0
330
0
330
0
330
0
330
0
330
0
330
0
330
0
330
0
330
0
330
0
330
0
330
0
330
0
330
0
330
0
330
0
330
0
330
0
330
0
330
0
330
0
330
0
330
0
330
0
330
0
330
0
330
0
330
0
330
0
330
0
330
0
330
0
330
0
330
0
330
0
330
0
330
0
330
0
330
0
330
0
330
0
330
0
330
0
330
0
330
0
330
0
330
0
330
0
330
0
330
0
330
0
330
0
330
0
330
0
330
0
330
0
330
0
330
0
330
0
330
0
330
0
330
3E349F
330
3E34A0
330
3E34AB
330
3E34AC
330
3E34B7
330
3E34B8
330
0
330
0
330
0
330
0
330
0
330
0
330
0
330
0
330
0
330
0
330
0
330
0
330
0
330
0
330
0
330
0
330
0
330
0
330
0
330
0
330
0
330
0
330
0
330
0
330
0
330
0
330
0
330
0
330
0
330
0
330
0
330
0
330
0
330
0
330
0
330
0
330
0
330
0
330
0
330
0
330
0
330
0
330
0
330
0
330
0
330
0
330
0
330
0
330
0
330
0
330
0
330
0
330
0
330
0
330
0
330
0
330
0
330
0
330
0
330
0
330
0
330
0
330
0
330
0
330
0
330
0
330
0
330
0
330
0
330
0
330
0
330
0
330
0
330
0
330
0
330
0
330
0
330
0
330
0
330
0
330
0
330
0
330
0
330
0
330
0
330
0
330
0
330
3E406D
330
3E406E
330
3E4079
330
3E407A
330
3E4085
330
3E4086
330
3E4092
330
3E4093
330
3E409D
330
3E409E
330
0
330
0
330
0
330
0
330
0
330
0
330
0
330
0
330
0
330
0
330
0
330
0
330
0
330
0
330
0
330
0
330
0
330
0
330
0
330
0
330
0
330
0
330
0
330
0
330
0
330
0
330
0
330
0
330
0
330
0
330
0
330
0
330
0
330
0
330
0
330
0
330
0
330
0
330
0
330
0
330
0
330
0
330
0
330
0
330
0
330
0
330
0
330
0
330
0
330
0
330
0
330
0
330
0
330
0
330
0
330
0
330
0
330
0
330
0
330
0
330
0
330
0
330
0
330
0
330
0
330
0
330
0
330
0
330
0
330
0
330
0
330
0
330
0
330
0
330
0
330
0
330
0
330
0
330
0
330
0
330
0
330
0
330
0
330
0
330
0
330
0
330
0
330
0
330
0
330
0
330
0
330
0
330
0
330
0
330
0
330
0
330
0
330
0
330
0
330
0
330
0
330
0
330
0
330
0
330
0
330
0
330
0
330
0
330
0
330
0
330
0
330
0
330
0
330
0
330
0
330
0
330
0
330
0
330
0
330
0
330
0
330
0
330
0
330
0
330
0
330
0
330
0
330
0
330
0
330
0
330
0
330
0
330
0
330
0
330
0
330
0
330
0
330
0
330
0
330
0
330
0
330
0
330
0
330
0
330
0
330
0
330
0
330
0
330
0
330
0
330
0
330
0
330
0
330
0
330
0
330
0
330
0
330
0
330
0
330
0
330
0
330
0
330
0
330
0
330
0
330
0
330
0
330
0
330
0
330
0
330
0
330
0
330
0
330
0
330
0
330
0
330
0
330
0
330
0
330
0
330
0
330
0
330
0
330
0
330
0
330
0
330
0
330
0
330
0
330
0
330
0
330
0
330
0
330
0
330
0
330
0
330
0
330
0
330
0
330
0
330
0
330
0
330
0
330
0
330
0
330
0
330
0
330
0
330
0
330
0
330
0
330
0
330
0
330
0
330
0
330
0
330
0
330
0
330
0
330
0
330
0
330
0
330
0
330
0
330
0
330
0
330
0
330
0
330
0
330
0
330
0
330
0
330
0
330
0
330
0
330
0
330
0
330
0
330
0
330
0
330
0
330
0
330
0
330
0
330
0
330
0
330
0
330
0
330
0
330
0
330
0
330
0
330
0
330
0
330
0
330
0
330
0
330
0
330
0
330
0
330
0
330
0
330
0
330
0
330
0
330
0
330
0
330
0
330
0
330
0
330
0
330
0
330
0
330
0
330
0
330
0
330
0
330
0
330
0
330
0
330
0
330
0
330
0
330
0
330
0
330
0
330
0
330
0
330
0
330
0
330
0
330
0
330
0
330
0
330
0
330
0
330
0
330
0
330
0
330
0
330
0
330
0
330
0
330
0
330
0
330
0
330
0
330
0
330
0
330
0
330
0
330
0
330
0
330
0
330
0
330
0
330
0
330
0
330
0
330
0
330
0
330
0
330
0
330
0
330
0
330
0
330
0
330
0
330
0
330
0
330
0
330
0
330
0
330
0
330
0
330
0
330
0
330
0
330
0
330
0
330
0
330
0
330
0
330
0
330
0
330
0
330
0
330
0
330
0
330
0
330
0
330
0
330
0
330
0
330
0
330
0
330
0
330
0
330
0
330
0
330
0
330
0
330
0
330
0
330
0
330
0
330
0
330
0
330
0
330
0
330
0
330
0
330
0
330
0
330
0
330
0
330
0
330
0
330
0
330
0
330
0
330
0
330
0
330
0
330
0
330
0
330
0
330
0
330
0
330
0
330
0
330
0
330
0
330
0
330
0
330
0
330
0
330
0
330
0
330
0
330
0
330
0
330
0
330
0
330
0
330
0
330
0
330
0
330
0
330
0
330
0
330
0
330
0
330
0
330
0
330
0
330
0
330
0
330
0
330
0
330
0
330
0
330
0
330
0
330
0
330
0
330
0
330
0
330
0
330
0
330
0
330
0
330
0
330
0
330
0
330
0
330
0
330
0
330
0
330
0
330
0
330
0
330
0
330
0
330
0
330
0
330
0
330
0
330
0
330
0
330
0
330
0
330
0
330
0
330
0
330
0
330
0
330
0
330
0
330
0
330
0
330
0
330
0
330
0
330
0
330
0
330
0
330
0
330
0
330
0
330
0
330
0
330
0
330
0
330
0
330
0
330
0
330
0
330
0
330
0
330
0
330
0
330
0
330
0
330
0
330
0
330
0
330
0
330
0
330
0
330
0
330
0
330
0
330
0
330
0
330
0
330
0
330
0
330
0
330
0
330
0
330
0
330
0
330
0
330
0
330
0
330
0
330
0
330
0
330
0
330
0
330
0
330
0
330
0
330
0
330
0
330
0
330
0
330
0
330
0
330
0
330
0
330
419565
330
419566
330
419571
330
419572
330
41957D
330
41957E
330
419589
330
41958A
330
419595
330
419596
330
4195A1
330
4195A2
330
4195AD
330
4195AE
330
4195B9
330
4195BA
330
4195C5
330
4195C6
330
4195D1
330
4195D2
330
4195DF
330
4195E0
330
4195EC
330
4195ED
330
4195F8
330
4195F9
330
419604
330
419605
330
419612
330
419613
330
41961E
330
41961F
330
41962A
330
41962B
330
419636
330
419637
330
419641
330
419642
330
41964F
330
419650
330
41965B
330
41965C
330
419669
330
41966A
330
419677
330
419678
330
419683
330
419684
330
41968F
330
419690
330
41969D
330
41969E
330
4196A9
330
4196AA
330
4196B5
330
4196B6
330
4196C1
330
4196C2
330
4196CF
330
4196D0
330
4196DB
330
4196DC
330
0
330
0
330
0
330
0
330
0
330
0
330
0
330
0
330
0
330
0
330
0
330
0
330
0
330
0
330
0
330
0
330
0
330
0
330
0
330
0
330
0
330
0
330
0
330
0
330
0
330
0
330
0
330
0
330
0
330
0
330
0
330
0
330
0
330
0
330
0
330
0
330
0
330
0
330
0
330
0
330
0
330
0
330
0
330
0
330
0
330
0
330
0
330
0
330
0
330
0
330
0
330
0
330
0
330
0
330
0
330
0
330
0
330
0
330
0
330
0
330
0
330
0
330
0
330
0
330
0
330
0
330
0
330
0
330
0
330
0
330
0
330
0
330
0
330
0
330
0
330
0
330
0
330
0
330
0
330
0
330
0
330
0
330
0
330
0
330
0
330
0
330
0
330
0
330
0
330
0
330
0
330
0
330
0
330
0
330
0
330
0
330
0
330
0
330
0
330
0
330
0
330
0
330
0
330
0
330
0
330
0
330
0
330
0
330
0
330
0
330
0
330
0
330
0
330
0
330
0
330
0
330
0
330
0
330
0
330
0
330
0
330
0
330
0
330
0
330
0
330
0
330
0
330
0
330
0
330
0
330
0
330
0
330
0
330
0
330
0
330
0
330
0
330
0
330
0
330
0
330
0
330
0
330
0
330
0
330
0
330
0
330
0
330
0
330
0
330
0
330
0
330
0
330
0
330
0
330
0
330
0
330
0
330
0
330
0
330
0
330
0
330
0
  0
ENDSEC
  0
EOF
