  0
SECTION
  2
HEADER
  9
$ACADVER
  1
AC1015
  9
$ACADMAINTVER
 70
     6
  9
$DWGCODEPAGE
  3
ANSI_932
  9
$INSBASE
 10
0.0
 20
0.0
 30
0.0
  9
$EXTMIN
 10
67670.9126749683
 20
-34580.81843312853
 30
0.0
  9
$EXTMAX
 10
67829.84563198758
 20
-34434.89830977112
 30
0.0
  9
$LIMMIN
 10
0.0
 20
0.0
  9
$LIMMAX
 10
420.0
 20
297.0
  9
$ORTHOMODE
 70
     1
  9
$REGENMODE
 70
     1
  9
$FILLMODE
 70
     1
  9
$QTEXTMODE
 70
     0
  9
$MIRRTEXT
 70
     1
  9
$LTSCALE
 40
5.0
  9
$ATTMODE
 70
     0
  9
$TEXTSIZE
 40
3.5
  9
$TRACEWID
 40
1.0
  9
$TEXTSTYLE
  7
STANDARD
  9
$CLAYER
  8
寸法線
  9
$CELTYPE
  6
BYLAYER
  9
$CECOLOR
 62
   256
  9
$CELTSCALE
 40
1.0
  9
$DISPSILH
 70
     0
  9
$DIMSCALE
 40
1.0
  9
$DIMASZ
 40
1.5
  9
$DIMEXO
 40
1.5
  9
$DIMDLI
 40
0.38
  9
$DIMRND
 40
0.0
  9
$DIMDLE
 40
0.0
  9
$DIMEXE
 40
1.0
  9
$DIMTP
 40
0.0
  9
$DIMTM
 40
0.0
  9
$DIMTXT
 40
2.500000000000003
  9
$DIMCEN
 40
0.0
  9
$DIMTSZ
 40
0.0
  9
$DIMTOL
 70
     0
  9
$DIMLIM
 70
     0
  9
$DIMTIH
 70
     0
  9
$DIMTOH
 70
     0
  9
$DIMSE1
 70
     0
  9
$DIMSE2
 70
     0
  9
$DIMTAD
 70
     3
  9
$DIMZIN
 70
     8
  9
$DIMBLK
  1

  9
$DIMASO
 70
     1
  9
$DIMSHO
 70
     0
  9
$DIMPOST
  1

  9
$DIMAPOST
  1

  9
$DIMALT
 70
     0
  9
$DIMALTD
 70
     0
  9
$DIMALTF
 40
25.4
  9
$DIMLFAC
 40
1.0
  9
$DIMTOFL
 70
     0
  9
$DIMTVP
 40
0.0
  9
$DIMTIX
 70
     0
  9
$DIMSOXD
 70
     0
  9
$DIMSAH
 70
     1
  9
$DIMBLK1
  1
OPEN
  9
$DIMBLK2
  1
OPEN
  9
$DIMSTYLE
  2
STANDARD
  9
$DIMCLRD
 70
     8
  9
$DIMCLRE
 70
     8
  9
$DIMCLRT
 70
   256
  9
$DIMTFAC
 40
1.0
  9
$DIMGAP
 40
1.0
  9
$DIMJUST
 70
     0
  9
$DIMSD1
 70
     0
  9
$DIMSD2
 70
     0
  9
$DIMTOLJ
 70
     1
  9
$DIMTZIN
 70
     0
  9
$DIMALTZ
 70
     0
  9
$DIMALTTZ
 70
     0
  9
$DIMUPT
 70
     0
  9
$DIMDEC
 70
     2
  9
$DIMTDEC
 70
     2
  9
$DIMALTU
 70
     2
  9
$DIMALTTD
 70
     0
  9
$DIMTXSTY
  7
STANDARD
  9
$DIMAUNIT
 70
     0
  9
$DIMADEC
 70
     2
  9
$DIMALTRND
 40
0.0
  9
$DIMAZIN
 70
     2
  9
$DIMDSEP
 70
    46
  9
$DIMATFIT
 70
     3
  9
$DIMFRAC
 70
     0
  9
$DIMLDRBLK
  1
OPEN
  9
$DIMLUNIT
 70
     2
  9
$DIMLWD
 70
    -2
  9
$DIMLWE
 70
    -2
  9
$DIMTMOVE
 70
     0
  9
$LUNITS
 70
     2
  9
$LUPREC
 70
     2
  9
$SKETCHINC
 40
0.1
  9
$FILLETRAD
 40
5.0
  9
$AUNITS
 70
     0
  9
$AUPREC
 70
     1
  9
$MENU
  1
FM
  9
$ELEVATION
 40
0.0
  9
$PELEVATION
 40
0.0
  9
$THICKNESS
 40
0.0
  9
$LIMCHECK
 70
     0
  9
$CHAMFERA
 40
0.0
  9
$CHAMFERB
 40
0.0
  9
$CHAMFERC
 40
0.0
  9
$CHAMFERD
 40
0.0
  9
$SKPOLY
 70
     0
  9
$TDCREATE
 40
2448636.619629629
  9
$TDUCREATE
 40
2448636.244629629
  9
$TDUPDATE
 40
2456822.480621123
  9
$TDUUPDATE
 40
2456822.105621123
  9
$TDINDWG
 40
45.5405889236
  9
$TDUSRTIMER
 40
2456822.105353334
  9
$USRTIMER
 70
     1
  9
$ANGBASE
 50
0.0
  9
$ANGDIR
 70
     0
  9
$PDMODE
 70
     3
  9
$PDSIZE
 40
0.0
  9
$PLINEWID
 40
0.0
  9
$SPLFRAME
 70
     0
  9
$SPLINETYPE
 70
     6
  9
$SPLINESEGS
 70
     8
  9
$HANDSEED
  5
484633
  9
$SURFTAB1
 70
     6
  9
$SURFTAB2
 70
     6
  9
$SURFTYPE
 70
     6
  9
$SURFU
 70
     6
  9
$SURFV
 70
     6
  9
$UCSBASE
  2

  9
$UCSNAME
  2

  9
$UCSORG
 10
0.0
 20
0.0
 30
0.0
  9
$UCSXDIR
 10
1.0
 20
0.0
 30
0.0
  9
$UCSYDIR
 10
0.0
 20
1.0
 30
0.0
  9
$UCSORTHOREF
  2

  9
$UCSORTHOVIEW
 70
     0
  9
$UCSORGTOP
 10
0.0
 20
0.0
 30
0.0
  9
$UCSORGBOTTOM
 10
0.0
 20
0.0
 30
0.0
  9
$UCSORGLEFT
 10
0.0
 20
0.0
 30
0.0
  9
$UCSORGRIGHT
 10
0.0
 20
0.0
 30
0.0
  9
$UCSORGFRONT
 10
0.0
 20
0.0
 30
0.0
  9
$UCSORGBACK
 10
0.0
 20
0.0
 30
0.0
  9
$PUCSBASE
  2

  9
$PUCSNAME
  2

  9
$PUCSORG
 10
0.0
 20
0.0
 30
0.0
  9
$PUCSXDIR
 10
1.0
 20
0.0
 30
0.0
  9
$PUCSYDIR
 10
0.0
 20
1.0
 30
0.0
  9
$PUCSORTHOREF
  2

  9
$PUCSORTHOVIEW
 70
     0
  9
$PUCSORGTOP
 10
0.0
 20
0.0
 30
0.0
  9
$PUCSORGBOTTOM
 10
0.0
 20
0.0
 30
0.0
  9
$PUCSORGLEFT
 10
0.0
 20
0.0
 30
0.0
  9
$PUCSORGRIGHT
 10
0.0
 20
0.0
 30
0.0
  9
$PUCSORGFRONT
 10
0.0
 20
0.0
 30
0.0
  9
$PUCSORGBACK
 10
0.0
 20
0.0
 30
0.0
  9
$USERI1
 70
     0
  9
$USERI2
 70
     0
  9
$USERI3
 70
     0
  9
$USERI4
 70
     0
  9
$USERI5
 70
     0
  9
$USERR1
 40
0.0
  9
$USERR2
 40
0.0
  9
$USERR3
 40
0.0
  9
$USERR4
 40
0.0
  9
$USERR5
 40
0.0
  9
$WORLDVIEW
 70
     0
  9
$SHADEDGE
 70
     3
  9
$SHADEDIF
 70
    70
  9
$TILEMODE
 70
     1
  9
$MAXACTVP
 70
    16
  9
$PINSBASE
 10
0.0
 20
0.0
 30
0.0
  9
$PLIMCHECK
 70
     0
  9
$PEXTMIN
 10
1.000000000000000E+20
 20
1.000000000000000E+20
 30
1.000000000000000E+20
  9
$PEXTMAX
 10
-1.000000000000000E+20
 20
-1.000000000000000E+20
 30
-1.000000000000000E+20
  9
$PLIMMIN
 10
0.0
 20
0.0
  9
$PLIMMAX
 10
0.0
 20
0.0
  9
$UNITMODE
 70
     0
  9
$VISRETAIN
 70
     0
  9
$PLINEGEN
 70
     0
  9
$PSLTSCALE
 70
     0
  9
$TREEDEPTH
 70
  3020
  9
$CMLSTYLE
  2
STANDARD
  9
$CMLJUST
 70
     0
  9
$CMLSCALE
 40
1.0
  9
$PROXYGRAPHICS
 70
     1
  9
$MEASUREMENT
 70
     0
  9
$CELWEIGHT
370
    -1
  9
$ENDCAPS
280
     0
  9
$JOINSTYLE
280
     0
  9
$LWDISPLAY
290
     0
  9
$INSUNITS
 70
     0
  9
$HYPERLINKBASE
  1

  9
$STYLESHEET
  1
spax form.ctb
  9
$XEDIT
290
     1
  9
$CEPSNTYPE
380
     0
  9
$PSTYLEMODE
290
     1
  9
$FINGERPRINTGUID
  2
{BBAEEBA6-8B94-11D3-9160-00E0294F7E09}
  9
$VERSIONGUID
  2
{ABE24356-646F-4AAC-96FE-1B99EDF6D167}
  9
$EXTNAMES
290
     1
  9
$PSVPSCALE
 40
0.0
  9
$OLESTARTUP
290
     0
  0
ENDSEC
  0
SECTION
  2
CLASSES
  0
CLASS
  1
LWPOLYLINE
  2
AcDbPolyline
  3
ObjectDBX Classes
 90
        0
280
     0
281
     1
  0
CLASS
  1
ACDBDICTIONARYWDFLT
  2
AcDbDictionaryWithDefault
  3
ObjectDBX Classes
 90
        0
280
     0
281
     0
  0
CLASS
  1
ACDBPLACEHOLDER
  2
AcDbPlaceHolder
  3
ObjectDBX Classes
 90
        0
280
     0
281
     0
  0
CLASS
  1
LAYOUT
  2
AcDbLayout
  3
ObjectDBX Classes
 90
        0
280
     0
281
     0
  0
CLASS
  1
DICTIONARYVAR
  2
AcDbDictionaryVar
  3
ObjectDBX Classes
 90
        0
280
     0
281
     0
  0
CLASS
  1
DIMASSOC
  2
AcDbDimAssoc
  3
"AcDbDimAssoc|Product Desc:     AcDim ARX App For Dimension|Company:          Autodesk, Inc.|WEB Address:      www.autodesk.com"
 90
        0
280
     0
281
     0
  0
CLASS
  1
SORTENTSTABLE
  2
AcDbSortentsTable
  3
ObjectDBX Classes
 90
        0
280
     0
281
     0
  0
CLASS
  1
MATERIAL
  2
AcDbMaterial
  3
ObjectDBX Classes
 90
     1153
280
     0
281
     0
  0
CLASS
  1
VISUALSTYLE
  2
AcDbVisualStyle
  3
ObjectDBX Classes
 90
     4095
280
     0
281
     0
  0
CLASS
  1
TABLESTYLE
  2
AcDbTableStyle
  3
ObjectDBX Classes
 90
     4095
280
     0
281
     0
  0
CLASS
  1
SCALE
  2
AcDbScale
  3
ObjectDBX Classes
 90
     1153
280
     0
281
     0
  0
CLASS
  1
MLEADERSTYLE
  2
AcDbMLeaderStyle
  3
ACDB_MLEADERSTYLE_CLASS
 90
     4095
280
     0
281
     0
  0
CLASS
  1
CELLSTYLEMAP
  2
AcDbCellStyleMap
  3
ObjectDBX Classes
 90
     1152
280
     0
281
     0
  0
CLASS
  1
RASTERVARIABLES
  2
AcDbRasterVariables
  3
ISM
 90
        0
280
     0
281
     0
  0
CLASS
  1
SUN
  2
AcDbSun
  3
SCENEOE
 90
     1153
280
     0
281
     0
  0
ENDSEC
  0
SECTION
  2
TABLES
  0
TABLE
  2
VPORT
  5
8
330
0
100
AcDbSymbolTable
 70
     1
  0
VPORT
  5
479B9C
330
8
100
AcDbSymbolTableRecord
100
AcDbViewportTableRecord
  2
*Active
 70
     0
 10
0.0
 20
0.0
 11
1.0
 21
1.0
 12
67750.37915347794
 22
-34507.85837144982
 13
0.0
 23
0.0
 14
1.0
 24
1.0
 15
20.0
 25
20.0
 16
0.0
 26
0.0
 36
1.0
 17
0.0
 27
0.0
 37
0.0
 40
148.8385258245614
 41
1.731829573934837
 42
50.0
 43
0.0
 44
0.0
 50
0.0
 51
0.0
 71
    16
 72
   100
 73
     1
 74
     0
 75
     0
 76
     0
 77
     0
 78
     0
281
     0
 65
     1
110
0.0
120
0.0
130
0.0
111
1.0
121
0.0
131
0.0
112
0.0
122
1.0
132
0.0
 79
     0
146
0.0
  0
ENDTAB
  0
TABLE
  2
LTYPE
  5
5
330
0
100
AcDbSymbolTable
 70
     7
  0
LTYPE
  5
12
330
5
100
AcDbSymbolTableRecord
100
AcDbLinetypeTableRecord
  2
BYBLOCK
 70
     0
  3

 72
    65
 73
     0
 40
0.0
  0
LTYPE
  5
13
330
5
100
AcDbSymbolTableRecord
100
AcDbLinetypeTableRecord
  2
BYLAYER
 70
     0
  3

 72
    65
 73
     0
 40
0.0
  0
LTYPE
  5
14
330
5
100
AcDbSymbolTableRecord
100
AcDbLinetypeTableRecord
  2
CONTINUOUS
 70
     0
  3
Solid line
 72
    65
 73
     0
 40
0.0
  0
LTYPE
  5
26
330
5
100
AcDbSymbolTableRecord
100
AcDbLinetypeTableRecord
  2
PHANTOM
 70
     0
  3
_____ _ _ _____ _ _ _____ _ _ _____ _ _ ____
 72
    65
 73
     6
 40
2.5
 49
1.25
 74
     0
 49
-0.25
 74
     0
 49
0.25
 74
     0
 49
-0.25
 74
     0
 49
0.25
 74
     0
 49
-0.25
 74
     0
  0
LTYPE
  5
27
330
5
100
AcDbSymbolTableRecord
100
AcDbLinetypeTableRecord
  2
HIDDEN
 70
     0
  3
_ _ _ _ _ _ _ _ _ _ _ _ _ _ _ _ _ _ _ _ _ _ _
 72
    65
 73
     2
 40
0.375
 49
0.25
 74
     0
 49
-0.125
 74
     0
  0
LTYPE
  5
514
330
5
100
AcDbSymbolTableRecord
100
AcDbLinetypeTableRecord
  2
CENTER
 70
     0
  3
Center ____ _ ____ _ ____ _ ____ _ ____ _ ____
 72
    65
 73
     4
 40
2.0
 49
1.25
 74
     0
 49
-0.25
 74
     0
 49
0.25
 74
     0
 49
-0.25
 74
     0
  0
ENDTAB
  0
TABLE
  2
LAYER
  5
2
102
{ACAD_XDICTIONARY
360
6A835
102
}
330
0
100
AcDbSymbolTable
 70
    27
  0
LAYER
  5
F
102
{ACAD_XDICTIONARY
360
46AC61
102
}
330
2
100
AcDbSymbolTableRecord
100
AcDbLayerTableRecord
  2
0
 70
     0
 62
     7
  6
CONTINUOUS
370
    -3
390
616
  0
LAYER
  5
2C
102
{ACAD_XDICTIONARY
360
46AC63
102
}
330
2
100
AcDbSymbolTableRecord
100
AcDbLayerTableRecord
  2
中心線
 70
     0
 62
     1
  6
CENTER
370
    -3
390
616
  0
LAYER
  5
34
102
{ACAD_XDICTIONARY
360
46AC65
102
}
330
2
100
AcDbSymbolTableRecord
100
AcDbLayerTableRecord
  2
寸法線
 70
     0
 62
     7
  6
CONTINUOUS
370
    -3
390
616
  0
LAYER
  5
36
330
2
100
AcDbSymbolTableRecord
100
AcDbLayerTableRecord
  2
DEFPOINTS
 70
     0
 62
     7
  6
CONTINUOUS
290
     0
370
    -3
390
616
  0
LAYER
  5
280
102
{ACAD_XDICTIONARY
360
46AC67
102
}
330
2
100
AcDbSymbolTableRecord
100
AcDbLayerTableRecord
  2
実線
 70
     0
 62
     4
  6
CONTINUOUS
370
    -3
390
616
  0
LAYER
  5
2F4
102
{ACAD_XDICTIONARY
360
46AC69
102
}
330
2
100
AcDbSymbolTableRecord
100
AcDbLayerTableRecord
  2
文字
 70
     0
 62
     7
  6
CONTINUOUS
370
    -3
390
616
  0
LAYER
  5
301
102
{ACAD_XDICTIONARY
360
46AC6B
102
}
330
2
100
AcDbSymbolTableRecord
100
AcDbLayerTableRecord
  2
想像線
 70
     0
 62
     3
  6
PHANTOM
370
    -3
390
616
  0
LAYER
  5
305
102
{ACAD_XDICTIONARY
360
46AC6D
102
}
330
2
100
AcDbSymbolTableRecord
100
AcDbLayerTableRecord
  2
姿図
 70
     0
 62
     8
  6
CONTINUOUS
370
    -3
390
616
  0
LAYER
  5
1616FA
102
{ACAD_XDICTIONARY
360
46AC6F
102
}
330
2
100
AcDbSymbolTableRecord
100
AcDbLayerTableRecord
  2
取付金具
 70
     0
 62
     4
  6
CONTINUOUS
370
    -3
390
616
  0
LAYER
  5
198684
102
{ACAD_XDICTIONARY
360
46AC77
102
}
330
2
100
AcDbSymbolTableRecord
100
AcDbLayerTableRecord
  2
CONT-2
 70
     0
 62
     3
  6
CONTINUOUS
370
    -3
390
616
  0
LAYER
  5
3AC0FB
102
{ACAD_XDICTIONARY
360
46AC87
102
}
330
2
100
AcDbSymbolTableRecord
100
AcDbLayerTableRecord
  2
ﾊﾟﾝﾁﾝｸﾞ
 70
     0
 62
     8
  6
CONTINUOUS
370
    -3
390
616
  0
ENDTAB
  0
TABLE
  2
STYLE
  5
3
330
0
100
AcDbSymbolTable
 70
     3
  0
STYLE
  5
10
330
3
100
AcDbSymbolTableRecord
100
AcDbTextStyleTableRecord
  2
STANDARD
 70
     0
 40
0.0
 41
1.0
 50
0.0
 71
     0
 42
3.5
  3
MONOTXT
  4
BIGFONT
  0
STYLE
  5
113DD
330
3
100
AcDbSymbolTableRecord
100
AcDbTextStyleTableRecord
  2
EXTFONT
 70
     0
 40
2.5
 41
1.0
 50
0.0
 71
     0
 42
2.5
  3
txt.shx
  4
extfont
  0
ENDTAB
  0
TABLE
  2
VIEW
  5
6
330
0
100
AcDbSymbolTable
 70
     0
  0
ENDTAB
  0
TABLE
  2
UCS
  5
7
330
0
100
AcDbSymbolTable
 70
     0
  0
ENDTAB
  0
TABLE
  2
APPID
  5
9
330
0
100
AcDbSymbolTable
 70
     8
  0
APPID
  5
11
330
9
100
AcDbSymbolTableRecord
100
AcDbRegAppTableRecord
  2
ACAD
 70
     0
  0
APPID
  5
100B4C
330
9
100
AcDbSymbolTableRecord
100
AcDbRegAppTableRecord
  2
GENIUS_GENODEF_13
 70
     0
  0
APPID
  5
100B4D
330
9
100
AcDbSymbolTableRecord
100
AcDbRegAppTableRecord
  2
GENIUS_GENREC_14
 70
     0
  0
APPID
  5
100B4E
330
9
100
AcDbSymbolTableRecord
100
AcDbRegAppTableRecord
  2
GENIUS_GENOBJ-N-REC_13
 70
     0
  0
APPID
  5
44CC63
330
9
100
AcDbSymbolTableRecord
100
AcDbRegAppTableRecord
  2
DCO15
 70
     0
  0
APPID
  5
46AC5A
330
9
100
AcDbSymbolTableRecord
100
AcDbRegAppTableRecord
  2
ACAD_MLEADERVER
 70
     0
  0
APPID
  5
4723AF
330
9
100
AcDbSymbolTableRecord
100
AcDbRegAppTableRecord
  2
ACAD_EXEMPT_FROM_CAD_STANDARDS
 70
     0
  0
APPID
  5
4723B9
330
9
100
AcDbSymbolTableRecord
100
AcDbRegAppTableRecord
  2
ACAD_PSEXT
 70
     0
  0
ENDTAB
  0
TABLE
  2
DIMSTYLE
  5
A
330
0
100
AcDbSymbolTable
 70
     9
100
AcDbDimStyleTable
  0
DIMSTYLE
105
1CC
330
A
100
AcDbSymbolTableRecord
100
AcDbDimStyleTableRecord
  2
STANDARD
 70
     0
 41
1.5
 42
1.5
 44
1.0
 73
     0
 74
     0
 77
     3
 78
     8
 79
     2
140
2.500000000000003
141
0.0
147
1.0
171
     0
173
     1
176
     8
177
     8
271
     2
178
   256
179
     2
271
     2
272
     2
274
     0
340
10
341
608
343
608
344
608
  0
DIMSTYLE
105
A4E
330
A
100
AcDbSymbolTableRecord
100
AcDbDimStyleTableRecord
  2
STANDARD$0
 70
     0
 41
3.0
 42
0.8
 43
5.0
 44
0.7
 73
     0
 74
     0
 77
     1
 78
     8
140
2.5
147
0.9
171
     0
172
     1
174
     1
176
     8
177
     8
178
     0
271
     2
272
     2
274
     0
284
     8
340
10
341
A48
342
608
  0
DIMSTYLE
105
16B9C8
330
A
100
AcDbSymbolTableRecord
100
AcDbDimStyleTableRecord
  2
STANDARD$2
 70
     0
 40
0.0
 41
2.5
 42
0.8
 43
7.0
 44
1.0
 73
     0
 74
     0
 77
     1
 78
     8
140
3.5
141
0.0
146
0.88
147
0.8
171
     0
172
     1
173
     1
176
     8
177
     8
178
     0
271
     2
272
     2
274
     0
284
     8
285
     8
286
     8
340
10
341
608
343
608
344
608
  0
DIMSTYLE
105
36AB52
330
A
100
AcDbSymbolTableRecord
100
AcDbDimStyleTableRecord
  2
3-1
 70
     0
 41
3.0
 42
0.8
 43
0.6300000000000001
 44
0.6999999999999997
 73
     0
 74
     0
 77
     3
 78
     8
 79
     2
140
2.5
141
0.0
144
0.333333333333333
147
0.7999999999999998
171
     0
172
     1
173
     1
176
     8
177
     8
271
     2
178
   256
179
     2
271
     2
272
     2
274
     0
340
10
341
608
343
608
344
608
371
    -1
372
    -1
  0
DIMSTYLE
105
36AB53
330
A
100
AcDbSymbolTableRecord
100
AcDbDimStyleTableRecord
  2
5-1
 70
     0
 41
3.0
 42
0.8
 43
0.6300000000000001
 44
0.6999999999999997
 73
     0
 74
     0
 77
     3
 78
     8
 79
     2
140
2.5
141
0.0
144
0.2
147
0.7999999999999998
171
     0
173
     1
176
     8
177
     8
271
     2
178
   256
179
     2
271
     2
272
     2
274
     0
340
10
341
608
343
608
344
608
371
    -1
372
    -1
  0
DIMSTYLE
105
3AB363
330
A
100
AcDbSymbolTableRecord
100
AcDbDimStyleTableRecord
  2
STANDERD
 70
     0
 40
0.0
 41
4.0
 42
1.5
 43
3.75
 44
1.25
 73
     0
 74
     0
 77
     3
 78
     8
140
5.0
141
0.0
147
2.5
171
     0
173
     1
178
     0
288
     1
340
10
341
608
343
608
344
608
  0
DIMSTYLE
105
4176DE
330
A
100
AcDbSymbolTableRecord
100
AcDbDimStyleTableRecord
  2
STANDARD-5
 70
     0
 41
7.5
 42
7.5
 43
1.9
 44
5.0
 73
     0
 74
     0
 77
     1
 78
     8
 79
     2
140
12.5
141
0.0
147
3.0
171
     0
173
     1
176
     8
177
     8
271
     2
178
   256
179
     2
271
     2
272
     2
274
     0
340
10
341
608
343
608
344
608
  0
ENDTAB
  0
TABLE
  2
BLOCK_RECORD
  5
1
330
0
100
AcDbSymbolTable
 70
    96
  0
BLOCK_RECORD
  5
18
330
1
100
AcDbSymbolTableRecord
100
AcDbBlockTableRecord
  2
*MODEL_SPACE
340
619
  0
BLOCK_RECORD
  5
15
330
1
100
AcDbSymbolTableRecord
100
AcDbBlockTableRecord
  2
*PAPER_SPACE
340
61A
  0
BLOCK_RECORD
  5
608
330
1
100
AcDbSymbolTableRecord
100
AcDbBlockTableRecord
  2
_OPEN
340
0
102
{BLKREFS
331
3E349F
331
3E34A0
331
3E34AB
331
3E34AC
331
3E34B7
331
3E34B8
331
3E406D
331
3E406E
331
3E4079
331
3E407A
331
3E4085
331
3E4086
331
3E4092
331
3E4093
331
3E409D
331
3E409E
331
419565
331
419566
331
419571
331
419572
331
41957D
331
41957E
331
419589
331
41958A
331
419595
331
419596
331
4195A1
331
4195A2
331
4195AD
331
4195AE
331
4195B9
331
4195BA
331
4195C5
331
4195C6
331
4195D1
331
4195D2
331
4195DF
331
4195E0
331
4195EC
331
4195ED
331
4195F8
331
4195F9
331
419604
331
419605
331
419612
331
419613
331
41961E
331
41961F
331
41962A
331
41962B
331
419636
331
419637
331
419641
331
419642
331
41964F
331
419650
331
41965B
331
41965C
331
419669
331
41966A
331
419677
331
419678
331
419683
331
419684
331
41968F
331
419690
331
41969D
331
41969E
331
4196A9
331
4196AA
331
4196B5
331
4196B6
331
4196C1
331
4196C2
331
4196CF
331
4196D0
331
4196DB
331
4196DC
331
4554CF
331
4554D0
331
4554D8
331
4554D9
331
4554EA
331
4554EB
331
4554F2
331
4554F3
331
45550F
331
455510
331
45553C
331
45553D
331
455545
331
455546
331
455567
331
455568
331
463CDE
331
463CDF
331
463CE7
331
463CE8
331
463CF0
331
463CF1
331
463CF9
331
463CFA
331
463D02
331
463D03
331
463D0A
331
463D0B
331
463D15
331
463D16
331
463D1E
331
463D1F
331
472348
331
472349
331
472351
331
472352
331
47235A
331
47235B
331
472363
331
472364
331
47236C
331
47236D
331
472374
331
472375
331
47237F
331
472380
331
472388
331
472389
331
475F9C
331
475F9D
331
475FA5
331
475FA6
331
475FAE
331
475FAF
331
475FB7
331
475FB8
331
475FC0
331
475FC1
331
475FC9
331
475FCA
331
475FD1
331
475FD2
331
475FDC
331
475FDD
331
479B24
331
479B25
331
479B2D
331
479B2E
331
479B36
331
479B37
331
479B3F
331
479B40
331
479B48
331
479B49
331
479B50
331
479B51
331
479B5B
331
479B5C
331
479B64
331
479B65
331
47D6BE
331
47D6BF
331
47D6C7
331
47D6C8
331
47D6D0
331
47D6D1
331
47D6D8
331
47D6D9
331
47D6E3
331
47D6E4
331
47D6EC
331
47D6ED
331
47D6F5
331
47D6F6
331
47D6FE
331
47D6FF
102
}
  0
BLOCK_RECORD
  5
A48
330
1
100
AcDbSymbolTableRecord
100
AcDbBlockTableRecord
  2
SUN
340
0
  0
BLOCK_RECORD
  5
2D8C93
330
1
100
AcDbSymbolTableRecord
100
AcDbBlockTableRecord
  2
_Open30
340
0
  0
BLOCK_RECORD
  5
3E3498
330
1
100
AcDbSymbolTableRecord
100
AcDbBlockTableRecord
  2
*D4
340
0
  0
BLOCK_RECORD
  5
3E34A6
330
1
100
AcDbSymbolTableRecord
100
AcDbBlockTableRecord
  2
*D5
340
0
  0
BLOCK_RECORD
  5
3E34B2
330
1
100
AcDbSymbolTableRecord
100
AcDbBlockTableRecord
  2
*D6
340
0
  0
BLOCK_RECORD
  5
3E4068
330
1
100
AcDbSymbolTableRecord
100
AcDbBlockTableRecord
  2
*D8
340
0
  0
BLOCK_RECORD
  5
3E4074
330
1
100
AcDbSymbolTableRecord
100
AcDbBlockTableRecord
  2
*D9
340
0
  0
BLOCK_RECORD
  5
3E4080
330
1
100
AcDbSymbolTableRecord
100
AcDbBlockTableRecord
  2
*D10
340
0
  0
BLOCK_RECORD
  5
3E408C
330
1
100
AcDbSymbolTableRecord
100
AcDbBlockTableRecord
  2
*D11
340
0
  0
BLOCK_RECORD
  5
3E4097
330
1
100
AcDbSymbolTableRecord
100
AcDbBlockTableRecord
  2
*D12
340
0
  0
BLOCK_RECORD
  5
419560
330
1
100
AcDbSymbolTableRecord
100
AcDbBlockTableRecord
  2
*D18
340
0
  0
BLOCK_RECORD
  5
41956C
330
1
100
AcDbSymbolTableRecord
100
AcDbBlockTableRecord
  2
*D19
340
0
  0
BLOCK_RECORD
  5
419578
330
1
100
AcDbSymbolTableRecord
100
AcDbBlockTableRecord
  2
*D20
340
0
  0
BLOCK_RECORD
  5
419584
330
1
100
AcDbSymbolTableRecord
100
AcDbBlockTableRecord
  2
*D21
340
0
  0
BLOCK_RECORD
  5
419590
330
1
100
AcDbSymbolTableRecord
100
AcDbBlockTableRecord
  2
*D22
340
0
  0
BLOCK_RECORD
  5
41959C
330
1
100
AcDbSymbolTableRecord
100
AcDbBlockTableRecord
  2
*D23
340
0
  0
BLOCK_RECORD
  5
4195A8
330
1
100
AcDbSymbolTableRecord
100
AcDbBlockTableRecord
  2
*D24
340
0
  0
BLOCK_RECORD
  5
4195B4
330
1
100
AcDbSymbolTableRecord
100
AcDbBlockTableRecord
  2
*D25
340
0
  0
BLOCK_RECORD
  5
4195C0
330
1
100
AcDbSymbolTableRecord
100
AcDbBlockTableRecord
  2
*D26
340
0
  0
BLOCK_RECORD
  5
4195CC
330
1
100
AcDbSymbolTableRecord
100
AcDbBlockTableRecord
  2
*D27
340
0
  0
BLOCK_RECORD
  5
4195D8
330
1
100
AcDbSymbolTableRecord
100
AcDbBlockTableRecord
  2
*D28
340
0
  0
BLOCK_RECORD
  5
4195E6
330
1
100
AcDbSymbolTableRecord
100
AcDbBlockTableRecord
  2
*D29
340
0
  0
BLOCK_RECORD
  5
4195F3
330
1
100
AcDbSymbolTableRecord
100
AcDbBlockTableRecord
  2
*D30
340
0
  0
BLOCK_RECORD
  5
4195FF
330
1
100
AcDbSymbolTableRecord
100
AcDbBlockTableRecord
  2
*D31
340
0
  0
BLOCK_RECORD
  5
41960B
330
1
100
AcDbSymbolTableRecord
100
AcDbBlockTableRecord
  2
*D32
340
0
  0
BLOCK_RECORD
  5
419619
330
1
100
AcDbSymbolTableRecord
100
AcDbBlockTableRecord
  2
*D33
340
0
  0
BLOCK_RECORD
  5
419625
330
1
100
AcDbSymbolTableRecord
100
AcDbBlockTableRecord
  2
*D34
340
0
  0
BLOCK_RECORD
  5
419631
330
1
100
AcDbSymbolTableRecord
100
AcDbBlockTableRecord
  2
*D35
340
0
  0
BLOCK_RECORD
  5
41963D
330
1
100
AcDbSymbolTableRecord
100
AcDbBlockTableRecord
  2
*D36
340
0
  0
BLOCK_RECORD
  5
41964A
330
1
100
AcDbSymbolTableRecord
100
AcDbBlockTableRecord
  2
*D37
340
0
  0
BLOCK_RECORD
  5
419656
330
1
100
AcDbSymbolTableRecord
100
AcDbBlockTableRecord
  2
*D38
340
0
  0
BLOCK_RECORD
  5
419662
330
1
100
AcDbSymbolTableRecord
100
AcDbBlockTableRecord
  2
*D39
340
0
  0
BLOCK_RECORD
  5
419670
330
1
100
AcDbSymbolTableRecord
100
AcDbBlockTableRecord
  2
*D40
340
0
  0
BLOCK_RECORD
  5
41967E
330
1
100
AcDbSymbolTableRecord
100
AcDbBlockTableRecord
  2
*D41
340
0
  0
BLOCK_RECORD
  5
41968A
330
1
100
AcDbSymbolTableRecord
100
AcDbBlockTableRecord
  2
*D42
340
0
  0
BLOCK_RECORD
  5
419696
330
1
100
AcDbSymbolTableRecord
100
AcDbBlockTableRecord
  2
*D43
340
0
  0
BLOCK_RECORD
  5
4196A4
330
1
100
AcDbSymbolTableRecord
100
AcDbBlockTableRecord
  2
*D44
340
0
  0
BLOCK_RECORD
  5
4196B0
330
1
100
AcDbSymbolTableRecord
100
AcDbBlockTableRecord
  2
*D45
340
0
  0
BLOCK_RECORD
  5
4196BC
330
1
100
AcDbSymbolTableRecord
100
AcDbBlockTableRecord
  2
*D46
340
0
  0
BLOCK_RECORD
  5
4196C8
330
1
100
AcDbSymbolTableRecord
100
AcDbBlockTableRecord
  2
*D47
340
0
  0
BLOCK_RECORD
  5
4196D6
330
1
100
AcDbSymbolTableRecord
100
AcDbBlockTableRecord
  2
*D48
340
0
  0
ENDTAB
  0
ENDSEC
  0
SECTION
  2
BLOCKS
  0
BLOCK
  5
39
330
18
100
AcDbEntity
  8
0
100
AcDbBlockBegin
  2
*MODEL_SPACE
 70
     0
 10
0.0
 20
0.0
 30
0.0
  3
*MODEL_SPACE
  1
*MODEL_SPACE
  0
ENDBLK
  5
3A
330
18
100
AcDbEntity
  8
0
100
AcDbBlockEnd
  0
BLOCK
  5
37
330
15
100
AcDbEntity
 67
     1
  8
0
100
AcDbBlockBegin
  2
*PAPER_SPACE
 70
     0
 10
0.0
 20
0.0
 30
0.0
  3
*PAPER_SPACE
  1
*PAPER_SPACE
  0
ENDBLK
  5
38
330
15
100
AcDbEntity
 67
     1
  8
0
100
AcDbBlockEnd
  0
BLOCK
  5
609
330
608
100
AcDbEntity
  8
0
100
AcDbBlockBegin
  2
_OPEN
 70
     0
 10
0.0
 20
0.0
 30
0.0
  3
_OPEN
  1
_OPEN
  0
LINE
  5
60A
330
608
100
AcDbEntity
  8
0
  6
ByBlock
 62
     0
100
AcDbLine
 10
-1.0
 20
0.1666666666666667
 30
0.0
 11
0.0
 21
0.0
 31
0.0
  0
LINE
  5
60B
330
608
100
AcDbEntity
  8
0
  6
ByBlock
 62
     0
100
AcDbLine
 10
0.0
 20
0.0
 30
0.0
 11
-1.0
 21
-0.1666666666666667
 31
0.0
  0
LINE
  5
60C
330
608
100
AcDbEntity
  8
0
  6
ByBlock
 62
     0
100
AcDbLine
 10
0.0
 20
0.0
 30
0.0
 11
-1.0
 21
0.0
 31
0.0
  0
ENDBLK
  5
60D
330
608
100
AcDbEntity
  8
0
100
AcDbBlockEnd
  0
BLOCK
  5
A49
330
A48
100
AcDbEntity
  8
0
100
AcDbBlockBegin
  2
SUN
 70
     0
 10
0.0
 20
0.0
 30
0.0
  3
SUN
  1
SUN
  0
LINE
  5
A4A
330
A48
100
AcDbEntity
  8
0
100
AcDbLine
 10
-0.0000000000000568
 20
0.0
 30
0.0
 11
-1.500000000000057
 21
0.0
 31
0.0
  0
LINE
  5
A4B
330
A48
100
AcDbEntity
  8
0
100
AcDbLine
 10
-0.0000000000000568
 20
0.0000000000000284
 30
0.0
 11
-1.500000000000057
 21
0.401923788646684
 31
0.0
  0
LINE
  5
A4C
330
A48
100
AcDbEntity
  8
0
100
AcDbLine
 10
-0.0000000000000568
 20
0.0000000000000284
 30
0.0
 11
-1.500000000000057
 21
-0.4019237886466556
 31
0.0
  0
ENDBLK
  5
A4D
330
A48
100
AcDbEntity
  8
0
100
AcDbBlockEnd
  0
BLOCK
  5
2D8C94
330
2D8C93
100
AcDbEntity
  8
0
100
AcDbBlockBegin
  2
_Open30
 70
     0
 10
0.0
 20
0.0
 30
0.0
  3
_Open30
  1
_Open30
  0
LINE
  5
2D8C95
330
2D8C93
100
AcDbEntity
  8
0
  6
ByBlock
 62
     0
370
    -2
100
AcDbLine
 10
-1.0
 20
0.26794919
 30
0.0
 11
0.0
 21
0.0
 31
0.0
  0
LINE
  5
2D8C96
330
2D8C93
100
AcDbEntity
  8
0
  6
ByBlock
 62
     0
370
    -2
100
AcDbLine
 10
0.0
 20
0.0
 30
0.0
 11
-1.0
 21
-0.26794919
 31
0.0
  0
LINE
  5
2D8C97
330
2D8C93
100
AcDbEntity
  8
0
  6
ByBlock
 62
     0
370
    -2
100
AcDbLine
 10
0.0
 20
0.0
 30
0.0
 11
-1.0
 21
0.0
 31
0.0
  0
ENDBLK
  5
2D8C98
330
2D8C93
100
AcDbEntity
  8
0
100
AcDbBlockEnd
  0
BLOCK
  5
3E3499
330
3E3498
100
AcDbEntity
  8
0
100
AcDbBlockBegin
  2
*D4
 70
     1
 10
0.0
 20
0.0
 30
0.0
  3
*D4
  1
*D4
  0
LINE
  5
3E349A
330
3E3498
100
AcDbEntity
  8
寸法線
 62
     8
370
    -2
100
AcDbLine
 10
53638.55919622399
 20
-33267.45274351017
 30
0.0
 11
53638.55919622399
 21
-33258.65875277686
 31
0.0
  0
LINE
  5
3E349B
330
3E3498
100
AcDbEntity
  8
寸法線
 62
     8
370
    -2
100
AcDbLine
 10
53643.95816190504
 20
-33262.97274350705
 30
0.0
 11
53643.95816190504
 21
-33258.65875277686
 31
0.0
  0
LINE
  5
3E349C
330
3E3498
100
AcDbEntity
  8
寸法線
 62
     8
370
    -2
100
AcDbLine
 10
53645.95816190504
 20
-33259.35875277686
 30
0.0
 11
53647.95816190504
 21
-33259.35875277686
 31
0.0
  0
LINE
  5
3E349D
330
3E3498
100
AcDbEntity
  8
寸法線
 62
     8
370
    -2
100
AcDbLine
 10
53636.55919622399
 20
-33259.35875277686
 30
0.0
 11
53614.09252955732
 21
-33259.35875277686
 31
0.0
  0
LINE
  5
3E349E
330
3E3498
100
AcDbEntity
  8
寸法線
 62
     8
370
    -2
100
AcDbLine
 10
53643.95816190504
 20
-33259.35875277686
 30
0.0
 11
53638.55919622399
 21
-33259.35875277686
 31
0.0
  0
INSERT
  5
3E349F
330
3E3498
100
AcDbEntity
  8
寸法線
 62
     8
370
    -2
100
AcDbBlockReference
  2
_OPEN
 10
53643.95816190504
 20
-33259.35875277686
 30
0.0
 41
2.0
 42
2.0
 43
2.0
 50
180.0
  0
INSERT
  5
3E34A0
330
3E3498
100
AcDbEntity
  8
寸法線
 62
     8
370
    -2
100
AcDbBlockReference
  2
_OPEN
 10
53638.55919622399
 20
-33259.35875277686
 30
0.0
 41
2.0
 42
2.0
 43
2.0
  0
MTEXT
  5
3E34A1
330
3E3498
100
AcDbEntity
  8
寸法線
 62
     0
100
AcDbMText
 10
53624.32586289066
 20
-33254.95875277686
 30
0.0
 40
7.0
 41
0.0
 71
     5
 72
     1
  1
\A1;5.4
 73
     1
 44
1.0
  0
POINT
  5
3E34A2
330
3E3498
100
AcDbEntity
  8
DEFPOINTS
 62
     0
100
AcDbPoint
 10
53638.55919622399
 20
-33268.25274351017
 30
-0.0000000000005757
  0
POINT
  5
3E34A3
330
3E3498
100
AcDbEntity
  8
DEFPOINTS
 62
     0
100
AcDbPoint
 10
53643.95816190504
 20
-33263.77274350706
 30
-0.0000000000005757
  0
POINT
  5
3E34A4
330
3E3498
100
AcDbEntity
  8
DEFPOINTS
 62
     0
100
AcDbPoint
 10
53643.95816190504
 20
-33259.35875277686
 30
0.0
  0
ENDBLK
  5
3E34A5
330
3E3498
100
AcDbEntity
  8
0
100
AcDbBlockEnd
  0
BLOCK
  5
3E34A7
330
3E34A6
100
AcDbEntity
  8
0
100
AcDbBlockBegin
  2
*D5
 70
     1
 10
0.0
 20
0.0
 30
0.0
  3
*D5
  1
*D5
  0
LINE
  5
3E34A8
330
3E34A6
100
AcDbEntity
  8
寸法線
 62
     8
370
    -2
100
AcDbLine
 10
53642.35816190501
 20
-33263.77274350706
 30
0.0
 11
53607.353487624
 21
-33263.77274350706
 31
0.0
  0
LINE
  5
3E34A9
330
3E34A6
100
AcDbEntity
  8
寸法線
 62
     8
370
    -2
100
AcDbLine
 10
53642.358161905
 20
-33499.27334874654
 30
0.0
 11
53607.353487624
 21
-33499.27334874654
 31
0.0
  0
LINE
  5
3E34AA
330
3E34A6
100
AcDbEntity
  8
寸法線
 62
     8
370
    -2
100
AcDbLine
 10
53608.053487624
 20
-33265.77274350706
 30
0.0
 11
53608.053487624
 21
-33497.27334874654
 31
0.0
  0
INSERT
  5
3E34AB
330
3E34A6
100
AcDbEntity
  8
寸法線
 62
     8
370
    -2
100
AcDbBlockReference
  2
_OPEN
 10
53608.053487624
 20
-33263.77274350706
 30
0.0
 41
2.0
 42
2.0
 43
2.0
 50
90.0
  0
INSERT
  5
3E34AC
330
3E34A6
100
AcDbEntity
  8
寸法線
 62
     8
370
    -2
100
AcDbBlockReference
  2
_OPEN
 10
53608.053487624
 20
-33499.27334874654
 30
0.0
 41
2.0
 42
2.0
 43
2.0
 50
270.0
  0
MTEXT
  5
3E34AD
330
3E34A6
100
AcDbEntity
  8
寸法線
 62
     0
100
AcDbMText
 10
53602.253487624
 20
-33381.52304612679
 30
0.0
 40
7.0
 41
0.0
 71
     5
 72
     1
  1
\A1;235.5{\H4.200000;\S+0^ -0.5;}
 11
6.123031769111886E-17
 21
1.0
 31
0.0
 73
     1
 44
1.0
  0
POINT
  5
3E34AE
330
3E34A6
100
AcDbEntity
  8
DEFPOINTS
 62
     0
100
AcDbPoint
 10
53643.15816190501
 20
-33263.77274350706
 30
-0.0000000000005757
  0
POINT
  5
3E34AF
330
3E34A6
100
AcDbEntity
  8
DEFPOINTS
 62
     0
100
AcDbPoint
 10
53643.158161905
 20
-33499.27334874654
 30
-0.0000000000005757
  0
POINT
  5
3E34B0
330
3E34A6
100
AcDbEntity
  8
DEFPOINTS
 62
     0
100
AcDbPoint
 10
53608.053487624
 20
-33499.27334874654
 30
0.0
  0
ENDBLK
  5
3E34B1
330
3E34A6
100
AcDbEntity
  8
0
100
AcDbBlockEnd
  0
BLOCK
  5
3E34B3
330
3E34B2
100
AcDbEntity
  8
0
100
AcDbBlockBegin
  2
*D6
 70
     1
 10
0.0
 20
0.0
 30
0.0
  3
*D6
  1
*D6
  0
LINE
  5
3E34B4
330
3E34B2
100
AcDbEntity
  8
寸法線
 62
     8
370
    -2
100
AcDbLine
 10
53637.75919622398
 20
-33268.25274351017
 30
0.0
 11
53628.45172042761
 21
-33268.25274351017
 31
0.0
  0
LINE
  5
3E34B5
330
3E34B2
100
AcDbEntity
  8
寸法線
 62
     8
370
    -2
100
AcDbLine
 10
53637.75919622397
 20
-33494.79334874342
 30
0.0
 11
53628.45172042761
 21
-33494.79334874342
 31
0.0
  0
LINE
  5
3E34B6
330
3E34B2
100
AcDbEntity
  8
寸法線
 62
     8
370
    -2
100
AcDbLine
 10
53629.15172042761
 20
-33270.25274351017
 30
0.0
 11
53629.15172042761
 21
-33492.79334874342
 31
0.0
  0
INSERT
  5
3E34B7
330
3E34B2
100
AcDbEntity
  8
寸法線
 62
     8
370
    -2
100
AcDbBlockReference
  2
_OPEN
 10
53629.15172042761
 20
-33268.25274351017
 30
0.0
 41
2.0
 42
2.0
 43
2.0
 50
90.0
  0
INSERT
  5
3E34B8
330
3E34B2
100
AcDbEntity
  8
寸法線
 62
     8
370
    -2
100
AcDbBlockReference
  2
_OPEN
 10
53629.15172042761
 20
-33494.79334874342
 30
0.0
 41
2.0
 42
2.0
 43
2.0
 50
270.0
  0
MTEXT
  5
3E34B9
330
3E34B2
100
AcDbEntity
  8
寸法線
 62
     0
100
AcDbMText
 10
53623.35172042761
 20
-33381.52304612678
 30
0.0
 40
7.0
 41
0.0
 71
     5
 72
     1
  1
\A1;226.5{\H4.200000;\S-0.5^ -0;}（内寸）
 11
6.123031769111886E-17
 21
1.0
 31
0.0
 73
     1
 44
1.0
  0
POINT
  5
3E34BA
330
3E34B2
100
AcDbEntity
  8
DEFPOINTS
 62
     0
100
AcDbPoint
 10
53638.55919622399
 20
-33268.25274351017
 30
-0.0000000000005757
  0
POINT
  5
3E34BB
330
3E34B2
100
AcDbEntity
  8
DEFPOINTS
 62
     0
100
AcDbPoint
 10
53638.55919622398
 20
-33494.79334874342
 30
-0.0000000000005757
  0
POINT
  5
3E34BC
330
3E34B2
100
AcDbEntity
  8
DEFPOINTS
 62
     0
100
AcDbPoint
 10
53629.15172042761
 20
-33494.79334874342
 30
0.0
  0
ENDBLK
  5
3E34BD
330
3E34B2
100
AcDbEntity
  8
0
100
AcDbBlockEnd
  0
BLOCK
  5
3E4069
330
3E4068
100
AcDbEntity
  8
0
100
AcDbBlockBegin
  2
*D8
 70
     1
 10
0.0
 20
0.0
 30
0.0
  3
*D8
  1
*D8
  0
LINE
  5
3E406A
330
3E4068
100
AcDbEntity
  8
寸法線
 62
     8
370
    -2
100
AcDbLine
 10
54281.93090078419
 20
-32674.68303710658
 30
0.0
 11
54281.93090078419
 21
-32696.17351121044
 31
0.0
  0
LINE
  5
3E406B
330
3E4068
100
AcDbEntity
  8
寸法線
 62
     8
370
    -2
100
AcDbLine
 10
54353.43090078409
 20
-32674.68303710658
 30
0.0
 11
54353.43090078409
 21
-32696.17351121044
 31
0.0
  0
LINE
  5
3E406C
330
3E4068
100
AcDbEntity
  8
寸法線
 62
     8
370
    -2
100
AcDbLine
 10
54283.93090078419
 20
-32695.47351121044
 30
0.0
 11
54351.43090078409
 21
-32695.47351121044
 31
0.0
  0
INSERT
  5
3E406D
330
3E4068
100
AcDbEntity
  8
寸法線
 62
     8
370
    -2
100
AcDbBlockReference
  2
_OPEN
 10
54281.93090078419
 20
-32695.47351121044
 30
0.0
 41
2.0
 42
2.0
 43
2.0
 50
180.0
  0
INSERT
  5
3E406E
330
3E4068
100
AcDbEntity
  8
寸法線
 62
     8
370
    -2
100
AcDbBlockReference
  2
_OPEN
 10
54353.43090078409
 20
-32695.47351121044
 30
0.0
 41
2.0
 42
2.0
 43
2.0
  0
MTEXT
  5
3E406F
330
3E4068
100
AcDbEntity
  8
寸法線
 62
     0
100
AcDbMText
 10
54317.68090078414
 20
-32689.67351121044
 30
0.0
 40
7.0
 41
0.0
 71
     5
 72
     1
  1
\A1;71.5{\H4.200000;\S+0^ -0.2;}
 73
     1
 44
1.0
  0
POINT
  5
3E4070
330
3E4068
100
AcDbEntity
  8
DEFPOINTS
 62
     0
100
AcDbPoint
 10
54281.93090078419
 20
-32673.88303710659
 30
-0.0000000006599858
  0
POINT
  5
3E4071
330
3E4068
100
AcDbEntity
  8
DEFPOINTS
 62
     0
100
AcDbPoint
 10
54353.43090078409
 20
-32673.88303710659
 30
-0.0000000006599858
  0
POINT
  5
3E4072
330
3E4068
100
AcDbEntity
  8
DEFPOINTS
 62
     0
100
AcDbPoint
 10
54353.43090078409
 20
-32695.47351121044
 30
0.0
  0
ENDBLK
  5
3E4073
330
3E4068
100
AcDbEntity
  8
0
100
AcDbBlockEnd
  0
BLOCK
  5
3E4075
330
3E4074
100
AcDbEntity
  8
0
100
AcDbBlockBegin
  2
*D9
 70
     1
 10
0.0
 20
0.0
 30
0.0
  3
*D9
  1
*D9
  0
LINE
  5
3E4076
330
3E4074
100
AcDbEntity
  8
寸法線
 62
     8
370
    -2
100
AcDbLine
 10
54366.4213461247
 20
-32542.14499363244
 30
0.0
 11
54395.79866478049
 21
-32542.14499363244
 31
0.0
  0
LINE
  5
3E4077
330
3E4074
100
AcDbEntity
  8
寸法線
 62
     8
370
    -2
100
AcDbLine
 10
54366.4213461247
 20
-32642.14499363244
 30
0.0
 11
54395.79866478049
 21
-32642.14499363244
 31
0.0
  0
LINE
  5
3E4078
330
3E4074
100
AcDbEntity
  8
寸法線
 62
     8
370
    -2
100
AcDbLine
 10
54395.09866478049
 20
-32544.14499363244
 30
0.0
 11
54395.09866478049
 21
-32640.14499363244
 31
0.0
  0
INSERT
  5
3E4079
330
3E4074
100
AcDbEntity
  8
寸法線
 62
     8
370
    -2
100
AcDbBlockReference
  2
_OPEN
 10
54395.09866478049
 20
-32542.14499363244
 30
0.0
 41
2.0
 42
2.0
 43
2.0
 50
90.0
  0
INSERT
  5
3E407A
330
3E4074
100
AcDbEntity
  8
寸法線
 62
     8
370
    -2
100
AcDbBlockReference
  2
_OPEN
 10
54395.09866478049
 20
-32642.14499363244
 30
0.0
 41
2.0
 42
2.0
 43
2.0
 50
270.0
  0
MTEXT
  5
3E407B
330
3E4074
100
AcDbEntity
  8
寸法線
 62
     0
100
AcDbMText
 10
54390.6986647805
 20
-32592.14499363243
 30
0.0
 40
7.0
 41
0.0
 71
     5
 72
     1
  1
\A1;100
 11
6.123031769111886E-17
 21
1.0
 31
0.0
 73
     1
 44
1.0
  0
POINT
  5
3E407C
330
3E4074
100
AcDbEntity
  8
DEFPOINTS
 62
     0
100
AcDbPoint
 10
54365.6213461247
 20
-32542.14499363244
 30
-0.0000000006599858
  0
POINT
  5
3E407D
330
3E4074
100
AcDbEntity
  8
DEFPOINTS
 62
     0
100
AcDbPoint
 10
54365.6213461247
 20
-32642.14499363244
 30
-0.0000000006599858
  0
POINT
  5
3E407E
330
3E4074
100
AcDbEntity
  8
DEFPOINTS
 62
     0
100
AcDbPoint
 10
54395.09866478049
 20
-32642.14499363244
 30
0.0
  0
ENDBLK
  5
3E407F
330
3E4074
100
AcDbEntity
  8
0
100
AcDbBlockEnd
  0
BLOCK
  5
3E4081
330
3E4080
100
AcDbEntity
  8
0
100
AcDbBlockBegin
  2
*D10
 70
     1
 10
0.0
 20
0.0
 30
0.0
  3
*D10
  1
*D10
  0
LINE
  5
3E4082
330
3E4080
100
AcDbEntity
  8
寸法線
 62
     8
370
    -2
100
AcDbLine
 10
54277.50109263608
 20
-32670.64499363239
 30
0.0
 11
54260.97243285539
 21
-32670.64499363239
 31
0.0
  0
LINE
  5
3E4083
330
3E4080
100
AcDbEntity
  8
寸法線
 62
     8
370
    -2
100
AcDbLine
 10
54277.50109263609
 20
-32613.64499363238
 30
0.0
 11
54260.97243285539
 21
-32613.64499363238
 31
0.0
  0
LINE
  5
3E4084
330
3E4080
100
AcDbEntity
  8
寸法線
 62
     8
370
    -2
100
AcDbLine
 10
54261.67243285539
 20
-32668.64499363239
 30
0.0
 11
54261.67243285539
 21
-32615.64499363238
 31
0.0
  0
INSERT
  5
3E4085
330
3E4080
100
AcDbEntity
  8
寸法線
 62
     8
370
    -2
100
AcDbBlockReference
  2
_OPEN
 10
54261.67243285539
 20
-32670.64499363239
 30
0.0
 41
2.0
 42
2.0
 43
2.0
 50
270.0
  0
INSERT
  5
3E4086
330
3E4080
100
AcDbEntity
  8
寸法線
 62
     8
370
    -2
100
AcDbBlockReference
  2
_OPEN
 10
54261.67243285539
 20
-32613.64499363238
 30
0.0
 41
2.0
 42
2.0
 43
2.0
 50
90.0
  0
MTEXT
  5
3E4087
330
3E4080
100
AcDbEntity
  8
寸法線
 62
     0
100
AcDbMText
 10
54257.2724328554
 20
-32642.14499363238
 30
0.0
 40
7.0
 41
0.0
 71
     5
 72
     1
  1
\A1;57
 11
6.123031769111886E-17
 21
1.0
 31
0.0
 73
     1
 44
1.0
  0
POINT
  5
3E4088
330
3E4080
100
AcDbEntity
  8
DEFPOINTS
 62
     0
100
AcDbPoint
 10
54278.30109263609
 20
-32670.64499363239
 30
-0.0000000000005757
  0
POINT
  5
3E4089
330
3E4080
100
AcDbEntity
  8
DEFPOINTS
 62
     0
100
AcDbPoint
 10
54278.30109263609
 20
-32613.64499363238
 30
-0.0000000000005757
  0
POINT
  5
3E408A
330
3E4080
100
AcDbEntity
  8
DEFPOINTS
 62
     0
100
AcDbPoint
 10
54261.67243285539
 20
-32613.64499363238
 30
0.0
  0
ENDBLK
  5
3E408B
330
3E4080
100
AcDbEntity
  8
0
100
AcDbBlockEnd
  0
BLOCK
  5
3E408D
330
3E408C
100
AcDbEntity
  8
0
100
AcDbBlockBegin
  2
*D11
 70
     1
 10
0.0
 20
0.0
 30
0.0
  3
*D11
  1
*D11
  0
LINE
  5
3E408E
330
3E408C
100
AcDbEntity
  8
寸法線
 62
     8
370
    -2
100
AcDbLine
 10
54414.48220508423
 20
-32667.03495116171
 30
0.0
 11
54355.21017083547
 21
-32651.79467701671
 31
0.0
  0
LINE
  5
3E408F
330
3E408C
100
AcDbEntity
  8
寸法線
 62
     8
370
    -2
100
AcDbLine
 10
54280.15163073287
 20
-32632.49531024813
 30
0.0
 11
54278.21463614958
 21
-32631.99726207346
 31
0.0
  0
MTEXT
  5
3E4090
330
3E408C
100
AcDbEntity
  8
寸法線
 62
     0
100
AcDbMText
 10
54386.91039123578
 20
-32655.4024500933
 30
0.0
 40
7.0
 41
0.0
 71
     5
 72
     1
  1
\A1;2-\U+220573.5穴
 11
0.9684972916463023
 21
-0.2490240873365012
 31
0.0
 73
     1
 44
1.0
  0
LINE
  5
3E4091
330
3E408C
100
AcDbEntity
  8
寸法線
 62
     8
370
    -2
100
AcDbLine
 10
54282.08862531616
 20
-32632.99335842281
 30
0.0
 11
54353.27317625219
 21
-32651.29662884204
 31
0.0
  0
INSERT
  5
3E4092
330
3E408C
100
AcDbEntity
  8
寸法線
 62
     8
370
    -2
100
AcDbBlockReference
  2
_OPEN
 10
54282.08862531616
 20
-32632.99335842281
 30
0.0
 41
2.0
 42
2.0
 43
2.0
 50
345.5802297740081
  0
INSERT
  5
3E4093
330
3E408C
100
AcDbEntity
  8
寸法線
 62
     8
370
    -2
100
AcDbBlockReference
  2
_OPEN
 10
54353.27317625219
 20
-32651.29662884204
 30
0.0
 41
2.0
 42
2.0
 43
2.0
 50
165.5802297740081
  0
POINT
  5
3E4094
330
3E408C
100
AcDbEntity
  8
DEFPOINTS
 62
     0
100
AcDbPoint
 10
54353.27317625219
 20
-32651.29662884204
 30
-0.0000000000002725
  0
POINT
  5
3E4095
330
3E408C
100
AcDbEntity
  8
DEFPOINTS
 62
     0
100
AcDbPoint
 10
54282.08862531616
 20
-32632.99335842281
 30
-0.0000000000008789
  0
ENDBLK
  5
3E4096
330
3E408C
100
AcDbEntity
  8
0
100
AcDbBlockEnd
  0
BLOCK
  5
3E4098
330
3E4097
100
AcDbEntity
  8
0
100
AcDbBlockBegin
  2
*D12
 70
     1
 10
0.0
 20
0.0
 30
0.0
  3
*D12
  1
*D12
  0
LINE
  5
3E4099
330
3E4097
100
AcDbEntity
  8
寸法線
 62
     8
370
    -2
100
AcDbLine
 10
54409.48378144718
 20
-32684.95223198825
 30
0.0
 11
54356.96751296076
 21
-32671.54769752178
 31
0.0
  0
LINE
  5
3E409A
330
3E4097
100
AcDbEntity
  8
寸法線
 62
     8
370
    -2
100
AcDbLine
 10
54349.89428860739
 20
-32669.74228974307
 30
0.0
 11
54347.95641892155
 21
-32669.24765747494
 31
0.0
  0
MTEXT
  5
3E409B
330
3E4097
100
AcDbEntity
  8
寸法線
 62
     0
100
AcDbMText
 10
54385.28277303679
 20
-32674.23396758022
 30
0.0
 40
7.0
 41
0.0
 71
     5
 72
     1
  1
\A1;8-\U+22053.3穴
 11
0.968934842922789
 21
-0.2473161340676961
 31
0.0
 73
     1
 44
1.0
  0
LINE
  5
3E409C
330
3E4097
100
AcDbEntity
  8
寸法線
 62
     8
370
    -2
100
AcDbLine
 10
54351.83215829323
 20
-32670.23692201121
 30
0.0
 11
54355.02964327492
 21
-32671.05306525364
 31
0.0
  0
INSERT
  5
3E409D
330
3E4097
100
AcDbEntity
  8
寸法線
 62
     8
370
    -2
100
AcDbBlockReference
  2
_OPEN
 10
54351.83215829323
 20
-32670.23692201121
 30
0.0
 41
2.0
 42
2.0
 43
2.0
 50
345.6812485264198
  0
INSERT
  5
3E409E
330
3E4097
100
AcDbEntity
  8
寸法線
 62
     8
370
    -2
100
AcDbBlockReference
  2
_OPEN
 10
54355.02964327492
 20
-32671.05306525364
 30
0.0
 41
2.0
 42
2.0
 43
2.0
 50
165.6812485264198
  0
POINT
  5
3E409F
330
3E4097
100
AcDbEntity
  8
DEFPOINTS
 62
     0
100
AcDbPoint
 10
54355.02964327492
 20
-32671.05306525364
 30
-0.0000000000005429
  0
POINT
  5
3E40A0
330
3E4097
100
AcDbEntity
  8
DEFPOINTS
 62
     0
100
AcDbPoint
 10
54351.83215829323
 20
-32670.23692201121
 30
-0.0000000000006085
  0
ENDBLK
  5
3E40A1
330
3E4097
100
AcDbEntity
  8
0
100
AcDbBlockEnd
  0
BLOCK
  5
419561
330
419560
100
AcDbEntity
  8
0
100
AcDbBlockBegin
  2
*D18
 70
     1
 10
0.0
 20
0.0
 30
0.0
  3
*D18
  1
*D18
  0
LINE
  5
419562
330
419560
100
AcDbEntity
  8
寸法線
 62
     8
370
    -2
100
AcDbLine
 10
52995.99709124009
 20
-31506.36484938963
 30
-0.0000000000004022
 11
52995.42467023124
 21
-31506.36484938963
 31
-0.0000000000004022
  0
LINE
  5
419563
330
419560
100
AcDbEntity
  8
寸法線
 62
     8
370
    -2
100
AcDbLine
 10
53015.53249184434
 20
-31495.36484946336
 30
-0.0000000000004022
 11
52995.42467023124
 21
-31495.36484946336
 31
-0.0000000000004022
  0
LINE
  5
419564
330
419560
100
AcDbEntity
  8
寸法線
 62
     8
370
    -2
100
AcDbLine
 10
52996.12467023123
 20
-31504.36484938963
 30
-0.0000000000004022
 11
52996.12467023123
 21
-31497.36484946336
 31
-0.0000000000004022
  0
INSERT
  5
419565
330
419560
100
AcDbEntity
  8
寸法線
 62
     8
370
    -2
100
AcDbBlockReference
  2
_OPEN
 10
52996.12467023123
 20
-31506.36484938963
 30
-0.0000000000004022
 41
2.0
 42
2.0
 43
2.0
 50
270.0
  0
INSERT
  5
419566
330
419560
100
AcDbEntity
  8
寸法線
 62
     8
370
    -2
100
AcDbBlockReference
  2
_OPEN
 10
52996.12467023123
 20
-31495.36484946336
 30
-0.0000000000004022
 41
2.0
 42
2.0
 43
2.0
 50
90.0
  0
MTEXT
  5
419567
330
419560
100
AcDbEntity
  8
寸法線
 62
     0
100
AcDbMText
 10
52994.22467023124
 20
-31500.86484942583
 30
-0.0000000000004022
 40
2.0
 41
0.0
 71
     5
 72
     1
  1
\A1;11
 11
6.123031769111886E-17
 21
1.0
 31
0.0
 73
     1
 44
1.0
  0
POINT
  5
419568
330
419560
100
AcDbEntity
  8
DEFPOINTS
 62
     0
100
AcDbPoint
 10
52996.49709124009
 20
-31506.36484938963
 30
-0.0000000000004022
  0
POINT
  5
419569
330
419560
100
AcDbEntity
  8
DEFPOINTS
 62
     0
100
AcDbPoint
 10
53016.03249184434
 20
-31495.36484946336
 30
-0.0000000000004022
  0
POINT
  5
41956A
330
419560
100
AcDbEntity
  8
DEFPOINTS
 62
     0
100
AcDbPoint
 10
52996.12467023123
 20
-31495.36484946336
 30
-0.0000000000004022
  0
ENDBLK
  5
41956B
330
419560
100
AcDbEntity
  8
0
100
AcDbBlockEnd
  0
BLOCK
  5
41956D
330
41956C
100
AcDbEntity
  8
0
100
AcDbBlockBegin
  2
*D19
 70
     1
 10
0.0
 20
0.0
 30
0.0
  3
*D19
  1
*D19
  0
LINE
  5
41956E
330
41956C
100
AcDbEntity
  8
寸法線
 62
     8
370
    -2
100
AcDbLine
 10
53015.53249184434
 20
-31495.36484946336
 30
-0.0000000000004022
 11
52991.60359541504
 21
-31495.36484946336
 31
-0.0000000000004022
  0
LINE
  5
41956F
330
41956C
100
AcDbEntity
  8
寸法線
 62
     8
370
    -2
100
AcDbLine
 10
52994.14542433512
 20
-31507.86484938153
 30
-0.0000000000004022
 11
52991.60359541504
 21
-31507.86484938153
 31
-0.0000000000004022
  0
LINE
  5
419570
330
41956C
100
AcDbEntity
  8
寸法線
 62
     8
370
    -2
100
AcDbLine
 10
52992.30359541504
 20
-31497.36484946336
 30
-0.0000000000004022
 11
52992.30359541504
 21
-31505.86484938153
 31
-0.0000000000004022
  0
INSERT
  5
419571
330
41956C
100
AcDbEntity
  8
寸法線
 62
     8
370
    -2
100
AcDbBlockReference
  2
_OPEN
 10
52992.30359541504
 20
-31495.36484946336
 30
-0.0000000000004022
 41
2.0
 42
2.0
 43
2.0
 50
90.0
  0
INSERT
  5
419572
330
41956C
100
AcDbEntity
  8
寸法線
 62
     8
370
    -2
100
AcDbBlockReference
  2
_OPEN
 10
52992.30359541504
 20
-31507.86484938153
 30
-0.0000000000004022
 41
2.0
 42
2.0
 43
2.0
 50
270.0
  0
MTEXT
  5
419573
330
41956C
100
AcDbEntity
  8
寸法線
 62
     0
100
AcDbMText
 10
52990.40359541505
 20
-31501.61484942089
 30
-0.0000000000004022
 40
2.0
 41
0.0
 71
     5
 72
     1
  1
\A1;12.5
 11
6.123031769111886E-17
 21
1.0
 31
0.0
 73
     1
 44
1.0
  0
POINT
  5
419574
330
41956C
100
AcDbEntity
  8
DEFPOINTS
 62
     0
100
AcDbPoint
 10
53016.03249184434
 20
-31495.36484946336
 30
-0.0000000000004022
  0
POINT
  5
419575
330
41956C
100
AcDbEntity
  8
DEFPOINTS
 62
     0
100
AcDbPoint
 10
52994.64542433512
 20
-31507.86484938153
 30
-0.0000000006599858
  0
POINT
  5
419576
330
41956C
100
AcDbEntity
  8
DEFPOINTS
 62
     0
100
AcDbPoint
 10
52992.30359541504
 20
-31507.86484938153
 30
-0.0000000000004022
  0
ENDBLK
  5
419577
330
41956C
100
AcDbEntity
  8
0
100
AcDbBlockEnd
  0
BLOCK
  5
419579
330
419578
100
AcDbEntity
  8
0
100
AcDbBlockBegin
  2
*D20
 70
     1
 10
0.0
 20
0.0
 30
0.0
  3
*D20
  1
*D20
  0
LINE
  5
41957A
330
419578
100
AcDbEntity
  8
寸法線
 62
     8
370
    -2
100
AcDbLine
 10
52994.44714139513
 20
-31508.13869837792
 30
0.0
 11
52994.44714139513
 21
-31525.5483387873
 31
0.0
  0
LINE
  5
41957B
330
419578
100
AcDbEntity
  8
寸法線
 62
     8
370
    -2
100
AcDbLine
 10
53059.44790577456
 20
-31506.46484954009
 30
0.0
 11
53059.44790577456
 21
-31525.5483387873
 31
0.0
  0
LINE
  5
41957C
330
419578
100
AcDbEntity
  8
寸法線
 62
     8
370
    -2
100
AcDbLine
 10
52996.44714139513
 20
-31524.84833878729
 30
0.0
 11
53057.44790577456
 21
-31524.84833878729
 31
0.0
  0
INSERT
  5
41957D
330
419578
100
AcDbEntity
  8
寸法線
 62
     8
370
    -2
100
AcDbBlockReference
  2
_OPEN
 10
52994.44714139513
 20
-31524.84833878729
 30
0.0
 41
2.0
 42
2.0
 43
2.0
 50
180.0
  0
INSERT
  5
41957E
330
419578
100
AcDbEntity
  8
寸法線
 62
     8
370
    -2
100
AcDbBlockReference
  2
_OPEN
 10
53059.44790577456
 20
-31524.84833878729
 30
0.0
 41
2.0
 42
2.0
 43
2.0
  0
MTEXT
  5
41957F
330
419578
100
AcDbEntity
  8
寸法線
 62
     0
100
AcDbMText
 10
53026.74774104023
 20
-31522.94833878729
 30
0.0
 40
2.0
 41
0.0
 71
     5
 72
     1
  1
\A1;65
 73
     1
 44
1.0
  0
POINT
  5
419580
330
419578
100
AcDbEntity
  8
DEFPOINTS
 62
     0
100
AcDbPoint
 10
52994.44714139513
 20
-31507.63869837792
 30
-0.0000000006599858
  0
POINT
  5
419581
330
419578
100
AcDbEntity
  8
DEFPOINTS
 62
     0
100
AcDbPoint
 10
53059.44790577456
 20
-31505.96484954009
 30
-0.0000000000005699
  0
POINT
  5
419582
330
419578
100
AcDbEntity
  8
DEFPOINTS
 62
     0
100
AcDbPoint
 10
53059.44790577456
 20
-31524.84833878729
 30
0.0
  0
ENDBLK
  5
419583
330
419578
100
AcDbEntity
  8
0
100
AcDbBlockEnd
  0
BLOCK
  5
419585
330
419584
100
AcDbEntity
  8
0
100
AcDbBlockBegin
  2
*D21
 70
     1
 10
0.0
 20
0.0
 30
0.0
  3
*D21
  1
*D21
  0
LINE
  5
419586
330
419584
100
AcDbEntity
  8
寸法線
 62
     8
370
    -2
100
AcDbLine
 10
53006.24901417847
 20
-31506.36484949377
 30
0.0
 11
53006.24901417847
 21
-31519.55682834259
 31
0.0
  0
LINE
  5
419587
330
419584
100
AcDbEntity
  8
寸法線
 62
     8
370
    -2
100
AcDbLine
 10
53026.24901417848
 20
-31506.36484952895
 30
0.0
 11
53026.24901417848
 21
-31519.55682834259
 31
0.0
  0
LINE
  5
419588
330
419584
100
AcDbEntity
  8
寸法線
 62
     8
370
    -2
100
AcDbLine
 10
53008.24901417847
 20
-31518.85682834259
 30
0.0
 11
53024.24901417848
 21
-31518.85682834259
 31
0.0
  0
INSERT
  5
419589
330
419584
100
AcDbEntity
  8
寸法線
 62
     8
370
    -2
100
AcDbBlockReference
  2
_OPEN
 10
53006.24901417847
 20
-31518.85682834259
 30
0.0
 41
2.0
 42
2.0
 43
2.0
 50
180.0
  0
INSERT
  5
41958A
330
419584
100
AcDbEntity
  8
寸法線
 62
     8
370
    -2
100
AcDbBlockReference
  2
_OPEN
 10
53026.24901417848
 20
-31518.85682834259
 30
0.0
 41
2.0
 42
2.0
 43
2.0
  0
MTEXT
  5
41958B
330
419584
100
AcDbEntity
  8
寸法線
 62
     0
100
AcDbMText
 10
53016.24901417848
 20
-31516.67349500925
 30
0.0
 40
2.0
 41
0.0
 71
     5
 72
     1
  1
\A1;20{\H1.100000;\S+0.3^ -0;}
 73
     1
 44
1.0
  0
POINT
  5
41958C
330
419584
100
AcDbEntity
  8
DEFPOINTS
 62
     0
100
AcDbPoint
 10
53006.24901417847
 20
-31505.86484949377
 30
-0.0000000000004022
  0
POINT
  5
41958D
330
419584
100
AcDbEntity
  8
DEFPOINTS
 62
     0
100
AcDbPoint
 10
53026.24901417848
 20
-31505.86484952895
 30
-0.0000000000005691
  0
POINT
  5
41958E
330
419584
100
AcDbEntity
  8
DEFPOINTS
 62
     0
100
AcDbPoint
 10
53026.24901417848
 20
-31518.85682834259
 30
0.0
  0
ENDBLK
  5
41958F
330
419584
100
AcDbEntity
  8
0
100
AcDbBlockEnd
  0
BLOCK
  5
419591
330
419590
100
AcDbEntity
  8
0
100
AcDbBlockBegin
  2
*D22
 70
     1
 10
0.0
 20
0.0
 30
0.0
  3
*D22
  1
*D22
  0
LINE
  5
419592
330
419590
100
AcDbEntity
  8
寸法線
 62
     8
370
    -2
100
AcDbLine
 10
53035.04901417848
 20
-31506.36484949523
 30
0.0
 11
53035.04901417848
 21
-31519.55682834259
 31
0.0
  0
LINE
  5
419593
330
419590
100
AcDbEntity
  8
寸法線
 62
     8
370
    -2
100
AcDbLine
 10
53026.24901417848
 20
-31506.36484952895
 30
0.0
 11
53026.24901417848
 21
-31519.55682834259
 31
0.0
  0
LINE
  5
419594
330
419590
100
AcDbEntity
  8
寸法線
 62
     8
370
    -2
100
AcDbLine
 10
53033.04901417848
 20
-31518.85682834259
 30
0.0
 11
53028.24901417848
 21
-31518.85682834259
 31
0.0
  0
INSERT
  5
419595
330
419590
100
AcDbEntity
  8
寸法線
 62
     8
370
    -2
100
AcDbBlockReference
  2
_OPEN
 10
53035.04901417848
 20
-31518.85682834259
 30
0.0
 41
2.0
 42
2.0
 43
2.0
  0
INSERT
  5
419596
330
419590
100
AcDbEntity
  8
寸法線
 62
     8
370
    -2
100
AcDbBlockReference
  2
_OPEN
 10
53026.24901417848
 20
-31518.85682834259
 30
0.0
 41
2.0
 42
2.0
 43
2.0
 50
180.0
  0
MTEXT
  5
419597
330
419590
100
AcDbEntity
  8
寸法線
 62
     0
100
AcDbMText
 10
53030.64901417848
 20
-31516.95682834259
 30
0.0
 40
2.0
 41
0.0
 71
     5
 72
     1
  1
\A1;8.8
 73
     1
 44
1.0
  0
POINT
  5
419598
330
419590
100
AcDbEntity
  8
DEFPOINTS
 62
     0
100
AcDbPoint
 10
53035.04901417848
 20
-31505.86484949523
 30
-0.0000000000005224
  0
POINT
  5
419599
330
419590
100
AcDbEntity
  8
DEFPOINTS
 62
     0
100
AcDbPoint
 10
53026.24901417848
 20
-31505.86484952895
 30
-0.0000000000005691
  0
POINT
  5
41959A
330
419590
100
AcDbEntity
  8
DEFPOINTS
 62
     0
100
AcDbPoint
 10
53026.24901417848
 20
-31518.85682834259
 30
0.0
  0
ENDBLK
  5
41959B
330
419590
100
AcDbEntity
  8
0
100
AcDbBlockEnd
  0
BLOCK
  5
41959D
330
41959C
100
AcDbEntity
  8
0
100
AcDbBlockBegin
  2
*D23
 70
     1
 10
0.0
 20
0.0
 30
0.0
  3
*D23
  1
*D23
  0
LINE
  5
41959E
330
41959C
100
AcDbEntity
  8
寸法線
 62
     8
370
    -2
100
AcDbLine
 10
53035.04901417849
 20
-31506.36484949373
 30
0.0
 11
53035.04901417849
 21
-31519.55682834259
 31
0.0
  0
LINE
  5
41959F
330
41959C
100
AcDbEntity
  8
寸法線
 62
     8
370
    -2
100
AcDbLine
 10
53055.04901417849
 20
-31506.36484952892
 30
0.0
 11
53055.04901417849
 21
-31519.55682834259
 31
0.0
  0
LINE
  5
4195A0
330
41959C
100
AcDbEntity
  8
寸法線
 62
     8
370
    -2
100
AcDbLine
 10
53037.04901417849
 20
-31518.85682834259
 30
0.0
 11
53053.04901417849
 21
-31518.85682834259
 31
0.0
  0
INSERT
  5
4195A1
330
41959C
100
AcDbEntity
  8
寸法線
 62
     8
370
    -2
100
AcDbBlockReference
  2
_OPEN
 10
53035.04901417849
 20
-31518.85682834259
 30
0.0
 41
2.0
 42
2.0
 43
2.0
 50
180.0
  0
INSERT
  5
4195A2
330
41959C
100
AcDbEntity
  8
寸法線
 62
     8
370
    -2
100
AcDbBlockReference
  2
_OPEN
 10
53055.04901417849
 20
-31518.85682834259
 30
0.0
 41
2.0
 42
2.0
 43
2.0
  0
MTEXT
  5
4195A3
330
41959C
100
AcDbEntity
  8
寸法線
 62
     0
100
AcDbMText
 10
53045.04901417849
 20
-31516.67349500925
 30
0.0
 40
2.0
 41
0.0
 71
     5
 72
     1
  1
\A1;20{\H1.100000;\S+0.3^ -0;}
 73
     1
 44
1.0
  0
POINT
  5
4195A4
330
41959C
100
AcDbEntity
  8
DEFPOINTS
 62
     0
100
AcDbPoint
 10
53035.04901417849
 20
-31505.86484949373
 30
-0.0000000000005691
  0
POINT
  5
4195A5
330
41959C
100
AcDbEntity
  8
DEFPOINTS
 62
     0
100
AcDbPoint
 10
53055.04901417849
 20
-31505.86484952892
 30
-0.0000000000007359
  0
POINT
  5
4195A6
330
41959C
100
AcDbEntity
  8
DEFPOINTS
 62
     0
100
AcDbPoint
 10
53055.04901417849
 20
-31518.85682834259
 30
0.0
  0
ENDBLK
  5
4195A7
330
41959C
100
AcDbEntity
  8
0
100
AcDbBlockEnd
  0
BLOCK
  5
4195A9
330
4195A8
100
AcDbEntity
  8
0
100
AcDbBlockBegin
  2
*D24
 70
     1
 10
0.0
 20
0.0
 30
0.0
  3
*D24
  1
*D24
  0
LINE
  5
4195AA
330
4195A8
100
AcDbEntity
  8
寸法線
 62
     8
370
    -2
100
AcDbLine
 10
53058.04790577862
 20
-31507.8648495273
 30
0.0
 11
53087.31756299832
 21
-31507.8648495273
 31
0.0
  0
LINE
  5
4195AB
330
4195A8
100
AcDbEntity
  8
寸法線
 62
     8
370
    -2
100
AcDbLine
 10
53059.7479057742
 20
-31393.56484938053
 30
0.0
 11
53087.31756299832
 21
-31393.56484938053
 31
0.0
  0
LINE
  5
4195AC
330
4195A8
100
AcDbEntity
  8
寸法線
 62
     8
370
    -2
100
AcDbLine
 10
53086.61756299833
 20
-31505.8648495273
 30
0.0
 11
53086.61756299833
 21
-31395.56484938053
 31
0.0
  0
INSERT
  5
4195AD
330
4195A8
100
AcDbEntity
  8
寸法線
 62
     8
370
    -2
100
AcDbBlockReference
  2
_OPEN
 10
53086.61756299833
 20
-31507.8648495273
 30
0.0
 41
2.0
 42
2.0
 43
2.0
 50
270.0
  0
INSERT
  5
4195AE
330
4195A8
100
AcDbEntity
  8
寸法線
 62
     8
370
    -2
100
AcDbBlockReference
  2
_OPEN
 10
53086.61756299833
 20
-31393.56484938053
 30
0.0
 41
2.0
 42
2.0
 43
2.0
 50
90.0
  0
MTEXT
  5
4195AF
330
4195A8
100
AcDbEntity
  8
寸法線
 62
     0
100
AcDbMText
 10
53084.71756299833
 20
-31450.66484945441
 30
0.0
 40
2.0
 41
0.0
 71
     5
 72
     1
  1
\A1;114.3
 11
6.123031769111886E-17
 21
1.0
 31
0.0
 73
     1
 44
1.0
  0
POINT
  5
4195B0
330
4195A8
100
AcDbEntity
  8
DEFPOINTS
 62
     0
100
AcDbPoint
 10
53057.54790577862
 20
-31507.8648495273
 30
-0.0000000000046486
  0
POINT
  5
4195B1
330
4195A8
100
AcDbEntity
  8
DEFPOINTS
 62
     0
100
AcDbPoint
 10
53059.2479057742
 20
-31393.56484938053
 30
-0.0000000000005492
  0
POINT
  5
4195B2
330
4195A8
100
AcDbEntity
  8
DEFPOINTS
 62
     0
100
AcDbPoint
 10
53086.61756299833
 20
-31393.56484938053
 30
0.0
  0
ENDBLK
  5
4195B3
330
4195A8
100
AcDbEntity
  8
0
100
AcDbBlockEnd
  0
BLOCK
  5
4195B5
330
4195B4
100
AcDbEntity
  8
0
100
AcDbBlockBegin
  2
*D25
 70
     1
 10
0.0
 20
0.0
 30
0.0
  3
*D25
  1
*D25
  0
LINE
  5
4195B6
330
4195B4
100
AcDbEntity
  8
寸法線
 62
     8
370
    -2
100
AcDbLine
 10
53025.25238483057
 20
-31502.36484949373
 30
0.0
 11
53025.25238483057
 21
-31494.65451895164
 31
0.0
  0
LINE
  5
4195B7
330
4195B4
100
AcDbEntity
  8
寸法線
 62
     8
370
    -2
100
AcDbLine
 10
53036.04901417849
 20
-31502.36484949374
 30
0.0
 11
53036.04901417849
 21
-31494.65451895164
 31
0.0
  0
LINE
  5
4195B8
330
4195B4
100
AcDbEntity
  8
寸法線
 62
     8
370
    -2
100
AcDbLine
 10
53027.25238483057
 20
-31495.35451895164
 30
0.0
 11
53034.04901417849
 21
-31495.35451895164
 31
0.0
  0
INSERT
  5
4195B9
330
4195B4
100
AcDbEntity
  8
寸法線
 62
     8
370
    -2
100
AcDbBlockReference
  2
_OPEN
 10
53025.25238483057
 20
-31495.35451895164
 30
0.0
 41
2.0
 42
2.0
 43
2.0
 50
180.0
  0
INSERT
  5
4195BA
330
4195B4
100
AcDbEntity
  8
寸法線
 62
     8
370
    -2
100
AcDbBlockReference
  2
_OPEN
 10
53036.04901417849
 20
-31495.35451895164
 30
0.0
 41
2.0
 42
2.0
 43
2.0
  0
MTEXT
  5
4195BB
330
4195B4
100
AcDbEntity
  8
寸法線
 62
     0
100
AcDbMText
 10
53030.88501917968
 20
-31493.45451895164
 30
0.0
 40
2.0
 41
0.0
 71
     5
 72
     1
  1
\A1;10.8
 73
     1
 44
1.0
  0
POINT
  5
4195BC
330
4195B4
100
AcDbEntity
  8
DEFPOINTS
 62
     0
100
AcDbPoint
 10
53025.25238483057
 20
-31502.86484949373
 30
-0.0000000000005691
  0
POINT
  5
4195BD
330
4195B4
100
AcDbEntity
  8
DEFPOINTS
 62
     0
100
AcDbPoint
 10
53036.04901417849
 20
-31502.86484949374
 30
-0.0000000000005691
  0
POINT
  5
4195BE
330
4195B4
100
AcDbEntity
  8
DEFPOINTS
 62
     0
100
AcDbPoint
 10
53036.04901417849
 20
-31495.35451895164
 30
0.0
  0
ENDBLK
  5
4195BF
330
4195B4
100
AcDbEntity
  8
0
100
AcDbBlockEnd
  0
BLOCK
  5
4195C1
330
4195C0
100
AcDbEntity
  8
0
100
AcDbBlockBegin
  2
*D26
 70
     1
 10
0.0
 20
0.0
 30
0.0
  3
*D26
  1
*D26
  0
LINE
  5
4195C2
330
4195C0
100
AcDbEntity
  8
寸法線
 62
     8
370
    -2
100
AcDbLine
 10
53058.30413624203
 20
-31471.513202146
 30
0.0
 11
53070.83395037185
 21
-31471.513202146
 31
0.0
  0
LINE
  5
4195C3
330
4195C0
100
AcDbEntity
  8
寸法線
 62
     8
370
    -2
100
AcDbLine
 10
53058.30413624203
 20
-31481.013202146
 30
0.0
 11
53070.83395037185
 21
-31481.013202146
 31
0.0
  0
LINE
  5
4195C4
330
4195C0
100
AcDbEntity
  8
寸法線
 62
     8
370
    -2
100
AcDbLine
 10
53070.13395037185
 20
-31473.513202146
 30
0.0
 11
53070.13395037185
 21
-31479.013202146
 31
0.0
  0
INSERT
  5
4195C5
330
4195C0
100
AcDbEntity
  8
寸法線
 62
     8
370
    -2
100
AcDbBlockReference
  2
_OPEN
 10
53070.13395037185
 20
-31471.513202146
 30
0.0
 41
2.0
 42
2.0
 43
2.0
 50
90.0
  0
INSERT
  5
4195C6
330
4195C0
100
AcDbEntity
  8
寸法線
 62
     8
370
    -2
100
AcDbBlockReference
  2
_OPEN
 10
53070.13395037185
 20
-31481.013202146
 30
0.0
 41
2.0
 42
2.0
 43
2.0
 50
270.0
  0
MTEXT
  5
4195C7
330
4195C0
100
AcDbEntity
  8
寸法線
 62
     0
100
AcDbMText
 10
53068.23395037185
 20
-31476.26320214599
 30
0.0
 40
2.0
 41
0.0
 71
     5
 72
     1
  1
\A1;9.5
 11
6.123031769111886E-17
 21
1.0
 31
0.0
 73
     1
 44
1.0
  0
POINT
  5
4195C8
330
4195C0
100
AcDbEntity
  8
DEFPOINTS
 62
     0
100
AcDbPoint
 10
53057.80413624203
 20
-31471.513202146
 30
-0.0000000000005699
  0
POINT
  5
4195C9
330
4195C0
100
AcDbEntity
  8
DEFPOINTS
 62
     0
100
AcDbPoint
 10
53057.80413624203
 20
-31481.013202146
 30
-0.0000000000005699
  0
POINT
  5
4195CA
330
4195C0
100
AcDbEntity
  8
DEFPOINTS
 62
     0
100
AcDbPoint
 10
53070.13395037185
 20
-31481.013202146
 30
0.0
  0
ENDBLK
  5
4195CB
330
4195C0
100
AcDbEntity
  8
0
100
AcDbBlockEnd
  0
BLOCK
  5
4195CD
330
4195CC
100
AcDbEntity
  8
0
100
AcDbBlockBegin
  2
*D27
 70
     1
 10
0.0
 20
0.0
 30
0.0
  3
*D27
  1
*D27
  0
LINE
  5
4195CE
330
4195CC
100
AcDbEntity
  8
寸法線
 62
     8
370
    -2
100
AcDbLine
 10
53058.30413624203
 20
-31481.013202146
 30
0.0
 11
53070.83395037185
 21
-31481.013202146
 31
0.0
  0
LINE
  5
4195CF
330
4195CC
100
AcDbEntity
  8
寸法線
 62
     8
370
    -2
100
AcDbLine
 10
53058.30413624203
 20
-31490.513202146
 30
0.0
 11
53070.83395037185
 21
-31490.513202146
 31
0.0
  0
LINE
  5
4195D0
330
4195CC
100
AcDbEntity
  8
寸法線
 62
     8
370
    -2
100
AcDbLine
 10
53070.13395037185
 20
-31483.013202146
 30
0.0
 11
53070.13395037185
 21
-31488.513202146
 31
0.0
  0
INSERT
  5
4195D1
330
4195CC
100
AcDbEntity
  8
寸法線
 62
     8
370
    -2
100
AcDbBlockReference
  2
_OPEN
 10
53070.13395037185
 20
-31481.013202146
 30
0.0
 41
2.0
 42
2.0
 43
2.0
 50
90.0
  0
INSERT
  5
4195D2
330
4195CC
100
AcDbEntity
  8
寸法線
 62
     8
370
    -2
100
AcDbBlockReference
  2
_OPEN
 10
53070.13395037185
 20
-31490.513202146
 30
0.0
 41
2.0
 42
2.0
 43
2.0
 50
270.0
  0
MTEXT
  5
4195D3
330
4195CC
100
AcDbEntity
  8
寸法線
 62
     0
100
AcDbMText
 10
53068.23395037185
 20
-31485.76320214599
 30
0.0
 40
2.0
 41
0.0
 71
     5
 72
     1
  1
\A1;9.5
 11
6.123031769111886E-17
 21
1.0
 31
0.0
 73
     1
 44
1.0
  0
POINT
  5
4195D4
330
4195CC
100
AcDbEntity
  8
DEFPOINTS
 62
     0
100
AcDbPoint
 10
53057.80413624203
 20
-31481.013202146
 30
-0.0000000000005699
  0
POINT
  5
4195D5
330
4195CC
100
AcDbEntity
  8
DEFPOINTS
 62
     0
100
AcDbPoint
 10
53057.80413624203
 20
-31490.513202146
 30
-0.0000000000005699
  0
POINT
  5
4195D6
330
4195CC
100
AcDbEntity
  8
DEFPOINTS
 62
     0
100
AcDbPoint
 10
53070.13395037185
 20
-31490.513202146
 30
0.0
  0
ENDBLK
  5
4195D7
330
4195CC
100
AcDbEntity
  8
0
100
AcDbBlockEnd
  0
BLOCK
  5
4195D9
330
4195D8
100
AcDbEntity
  8
0
100
AcDbBlockBegin
  2
*D28
 70
     1
 10
0.0
 20
0.0
 30
0.0
  3
*D28
  1
*D28
  0
LINE
  5
4195DA
330
4195D8
100
AcDbEntity
  8
寸法線
 62
     8
370
    -2
100
AcDbLine
 10
53056.14790577423
 20
-31410.16484930419
 30
-0.0000000000004464
 11
53056.14790577423
 21
-31407.19918041232
 31
-0.0000000000004464
  0
LINE
  5
4195DB
330
4195D8
100
AcDbEntity
  8
寸法線
 62
     8
370
    -2
100
AcDbLine
 10
53057.64790577422
 20
-31410.16484930419
 30
-0.0000000000004464
 11
53057.64790577422
 21
-31407.19918041232
 31
-0.0000000000004464
  0
LINE
  5
4195DC
330
4195D8
100
AcDbEntity
  8
寸法線
 62
     8
370
    -2
100
AcDbLine
 10
53059.64790577422
 20
-31407.89918041233
 30
-0.0000000000004464
 11
53061.64790577422
 21
-31407.89918041233
 31
-0.0000000000004464
  0
LINE
  5
4195DD
330
4195D8
100
AcDbEntity
  8
寸法線
 62
     8
370
    -2
100
AcDbLine
 10
53054.14790577423
 20
-31407.89918041233
 30
-0.0000000000004464
 11
53034.78930404197
 21
-31407.89918041233
 31
-0.0000000000004464
  0
LINE
  5
4195DE
330
4195D8
100
AcDbEntity
  8
寸法線
 62
     8
370
    -2
100
AcDbLine
 10
53057.64790577422
 20
-31407.89918041233
 30
-0.0000000000004464
 11
53056.14790577423
 21
-31407.89918041233
 31
-0.0000000000004464
  0
INSERT
  5
4195DF
330
4195D8
100
AcDbEntity
  8
寸法線
 62
     8
370
    -2
100
AcDbBlockReference
  2
_OPEN
 10
53057.64790577422
 20
-31407.89918041233
 30
-0.0000000000004464
 41
2.0
 42
2.0
 43
2.0
 50
180.0
  0
INSERT
  5
4195E0
330
4195D8
100
AcDbEntity
  8
寸法線
 62
     8
370
    -2
100
AcDbBlockReference
  2
_OPEN
 10
53056.14790577423
 20
-31407.89918041233
 30
-0.0000000000004464
 41
2.0
 42
2.0
 43
2.0
  0
MTEXT
  5
4195E1
330
4195D8
100
AcDbEntity
  8
寸法線
 62
     0
100
AcDbMText
 10
53040.70597070864
 20
-31405.71584707899
 30
-0.0000000000004464
 40
2.0
 41
0.0
 71
     5
 72
     1
  1
\A1;1.5{\H1.100000;\S+0.3^ -0;}
 73
     1
 44
1.0
  0
POINT
  5
4195E2
330
4195D8
100
AcDbEntity
  8
DEFPOINTS
 62
     0
100
AcDbPoint
 10
53056.14790577423
 20
-31410.66484930419
 30
-0.0000000000004464
  0
POINT
  5
4195E3
330
4195D8
100
AcDbEntity
  8
DEFPOINTS
 62
     0
100
AcDbPoint
 10
53057.64790577422
 20
-31410.66484930419
 30
-0.0000000000004464
  0
POINT
  5
4195E4
330
4195D8
100
AcDbEntity
  8
DEFPOINTS
 62
     0
100
AcDbPoint
 10
53057.64790577422
 20
-31407.89918041233
 30
-0.0000000000004464
  0
ENDBLK
  5
4195E5
330
4195D8
100
AcDbEntity
  8
0
100
AcDbBlockEnd
  0
BLOCK
  5
4195E7
330
4195E6
100
AcDbEntity
  8
0
100
AcDbBlockBegin
  2
*D29
 70
     1
 10
0.0
 20
0.0
 30
0.0
  3
*D29
  1
*D29
  0
LINE
  5
4195E8
330
4195E6
100
AcDbEntity
  8
寸法線
 62
     8
370
    -2
100
AcDbLine
 10
53054.0479057742
 20
-31402.16484947757
 30
-0.0000000000005757
 11
53046.47434167283
 21
-31402.16484947757
 31
-0.0000000000005757
  0
LINE
  5
4195E9
330
4195E6
100
AcDbEntity
  8
寸法線
 62
     8
370
    -2
100
AcDbLine
 10
53054.0479057742
 20
-31394.96484947756
 30
-0.0000000000005757
 11
53046.47434167283
 21
-31394.96484947756
 31
-0.0000000000005757
  0
LINE
  5
4195EA
330
4195E6
100
AcDbEntity
  8
寸法線
 62
     8
370
    -2
100
AcDbLine
 10
53047.17434167283
 20
-31400.16484947757
 30
-0.0000000000005757
 11
53047.17434167283
 21
-31396.96484947756
 31
-0.0000000000005757
  0
LINE
  5
4195EB
330
4195E6
100
AcDbEntity
  8
寸法線
 62
     8
370
    -2
100
AcDbLine
 10
53047.17434167283
 20
-31394.96484947756
 30
-0.0000000000005757
 11
53047.17434167283
 21
-31379.87734947757
 31
-0.0000000000005757
  0
INSERT
  5
4195EC
330
4195E6
100
AcDbEntity
  8
寸法線
 62
     8
370
    -2
100
AcDbBlockReference
  2
_OPEN
 10
53047.17434167283
 20
-31402.16484947757
 30
-0.0000000000005757
 41
2.0
 42
2.0
 43
2.0
 50
270.0
  0
INSERT
  5
4195ED
330
4195E6
100
AcDbEntity
  8
寸法線
 62
     8
370
    -2
100
AcDbBlockReference
  2
_OPEN
 10
53047.17434167283
 20
-31394.96484947756
 30
-0.0000000000005757
 41
2.0
 42
2.0
 43
2.0
 50
90.0
  0
MTEXT
  5
4195EE
330
4195E6
100
AcDbEntity
  8
寸法線
 62
     0
100
AcDbMText
 10
53044.9910083395
 20
-31385.79401614422
 30
-0.0000000000005757
 40
2.0
 41
0.0
 71
     5
 72
     1
  1
\A1;7.2{\H1.100000;\S+0.3^ -0;}
 11
6.123031769111886E-17
 21
1.0
 31
0.0
 73
     1
 44
1.0
  0
POINT
  5
4195EF
330
4195E6
100
AcDbEntity
  8
DEFPOINTS
 62
     0
100
AcDbPoint
 10
53054.5479057742
 20
-31402.16484947757
 30
-0.0000000000005757
  0
POINT
  5
4195F0
330
4195E6
100
AcDbEntity
  8
DEFPOINTS
 62
     0
100
AcDbPoint
 10
53054.5479057742
 20
-31394.96484947756
 30
-0.0000000000005757
  0
POINT
  5
4195F1
330
4195E6
100
AcDbEntity
  8
DEFPOINTS
 62
     0
100
AcDbPoint
 10
53047.17434167283
 20
-31394.96484947756
 30
-0.0000000000005757
  0
ENDBLK
  5
4195F2
330
4195E6
100
AcDbEntity
  8
0
100
AcDbBlockEnd
  0
BLOCK
  5
4195F4
330
4195F3
100
AcDbEntity
  8
0
100
AcDbBlockBegin
  2
*D30
 70
     1
 10
0.0
 20
0.0
 30
0.0
  3
*D30
  1
*D30
  0
LINE
  5
4195F5
330
4195F3
100
AcDbEntity
  8
寸法線
 62
     8
370
    -2
100
AcDbLine
 10
53059.74790577419
 20
-31393.56484938051
 30
0.0
 11
53080.51840522383
 21
-31393.56484938051
 31
0.0
  0
LINE
  5
4195F6
330
4195F3
100
AcDbEntity
  8
寸法線
 62
     8
370
    -2
100
AcDbLine
 10
53059.7479057742
 20
-31408.76484930419
 30
0.0
 11
53080.51840522383
 21
-31408.76484930419
 31
0.0
  0
LINE
  5
4195F7
330
4195F3
100
AcDbEntity
  8
寸法線
 62
     8
370
    -2
100
AcDbLine
 10
53079.81840522384
 20
-31395.56484938051
 30
0.0
 11
53079.81840522384
 21
-31406.76484930419
 31
0.0
  0
INSERT
  5
4195F8
330
4195F3
100
AcDbEntity
  8
寸法線
 62
     8
370
    -2
100
AcDbBlockReference
  2
_OPEN
 10
53079.81840522384
 20
-31393.56484938051
 30
0.0
 41
2.0
 42
2.0
 43
2.0
 50
90.0
  0
INSERT
  5
4195F9
330
4195F3
100
AcDbEntity
  8
寸法線
 62
     8
370
    -2
100
AcDbBlockReference
  2
_OPEN
 10
53079.81840522384
 20
-31408.76484930419
 30
0.0
 41
2.0
 42
2.0
 43
2.0
 50
270.0
  0
MTEXT
  5
4195FA
330
4195F3
100
AcDbEntity
  8
寸法線
 62
     0
100
AcDbMText
 10
53077.91840522384
 20
-31401.16484934235
 30
0.0
 40
2.0
 41
0.0
 71
     5
 72
     1
  1
\A1;15.2
 11
6.123031769111886E-17
 21
1.0
 31
0.0
 73
     1
 44
1.0
  0
POINT
  5
4195FB
330
4195F3
100
AcDbEntity
  8
DEFPOINTS
 62
     0
100
AcDbPoint
 10
53059.24790577419
 20
-31393.56484938051
 30
-0.0000000000005809
  0
POINT
  5
4195FC
330
4195F3
100
AcDbEntity
  8
DEFPOINTS
 62
     0
100
AcDbPoint
 10
53059.2479057742
 20
-31408.76484930419
 30
-0.0000000000004464
  0
POINT
  5
4195FD
330
4195F3
100
AcDbEntity
  8
DEFPOINTS
 62
     0
100
AcDbPoint
 10
53079.81840522384
 20
-31408.76484930419
 30
0.0
  0
ENDBLK
  5
4195FE
330
4195F3
100
AcDbEntity
  8
0
100
AcDbBlockEnd
  0
BLOCK
  5
419600
330
4195FF
100
AcDbEntity
  8
0
100
AcDbBlockBegin
  2
*D31
 70
     1
 10
0.0
 20
0.0
 30
0.0
  3
*D31
  1
*D31
  0
LINE
  5
419601
330
4195FF
100
AcDbEntity
  8
寸法線
 62
     8
370
    -2
100
AcDbLine
 10
53024.25238483056
 20
-31503.36484949374
 30
0.0
 11
53024.25238483056
 21
-31489.2283980083
 31
0.0
  0
LINE
  5
419602
330
4195FF
100
AcDbEntity
  8
寸法線
 62
     8
370
    -2
100
AcDbLine
 10
53037.04901417849
 20
-31503.36484949374
 30
0.0
 11
53037.04901417849
 21
-31489.2283980083
 31
0.0
  0
LINE
  5
419603
330
4195FF
100
AcDbEntity
  8
寸法線
 62
     8
370
    -2
100
AcDbLine
 10
53026.25238483056
 20
-31489.9283980083
 30
0.0
 11
53035.04901417849
 21
-31489.9283980083
 31
0.0
  0
INSERT
  5
419604
330
4195FF
100
AcDbEntity
  8
寸法線
 62
     8
370
    -2
100
AcDbBlockReference
  2
_OPEN
 10
53024.25238483056
 20
-31489.9283980083
 30
0.0
 41
2.0
 42
2.0
 43
2.0
 50
180.0
  0
INSERT
  5
419605
330
4195FF
100
AcDbEntity
  8
寸法線
 62
     8
370
    -2
100
AcDbBlockReference
  2
_OPEN
 10
53037.04901417849
 20
-31489.9283980083
 30
0.0
 41
2.0
 42
2.0
 43
2.0
  0
MTEXT
  5
419606
330
4195FF
100
AcDbEntity
  8
寸法線
 62
     0
100
AcDbMText
 10
53030.65069950453
 20
-31488.0283980083
 30
0.0
 40
2.0
 41
0.0
 71
     5
 72
     1
  1
\A1;12.8
 73
     1
 44
1.0
  0
POINT
  5
419607
330
4195FF
100
AcDbEntity
  8
DEFPOINTS
 62
     0
100
AcDbPoint
 10
53024.25238483056
 20
-31503.86484949374
 30
-0.0000000000005691
  0
POINT
  5
419608
330
4195FF
100
AcDbEntity
  8
DEFPOINTS
 62
     0
100
AcDbPoint
 10
53037.04901417849
 20
-31503.86484949374
 30
-0.0000000000005691
  0
POINT
  5
419609
330
4195FF
100
AcDbEntity
  8
DEFPOINTS
 62
     0
100
AcDbPoint
 10
53037.04901417849
 20
-31489.9283980083
 30
0.0
  0
ENDBLK
  5
41960A
330
4195FF
100
AcDbEntity
  8
0
100
AcDbBlockEnd
  0
BLOCK
  5
41960C
330
41960B
100
AcDbEntity
  8
0
100
AcDbBlockBegin
  2
*D32
 70
     1
 10
0.0
 20
0.0
 30
0.0
  3
*D32
  1
*D32
  0
LINE
  5
41960D
330
41960B
100
AcDbEntity
  8
寸法線
 62
     8
370
    -2
100
AcDbLine
 10
53055.049014179
 20
-31506.36484952891
 30
0.0
 11
53055.049014179
 21
-31519.55682834259
 31
0.0
  0
LINE
  5
41960E
330
41960B
100
AcDbEntity
  8
寸法線
 62
     8
370
    -2
100
AcDbLine
 10
53059.44790577456
 20
-31506.46484954009
 30
0.0
 11
53059.44790577456
 21
-31519.55682834259
 31
0.0
  0
LINE
  5
41960F
330
41960B
100
AcDbEntity
  8
寸法線
 62
     8
370
    -2
100
AcDbLine
 10
53053.049014179
 20
-31518.85682834259
 30
0.0
 11
53051.049014179
 21
-31518.85682834259
 31
0.0
  0
LINE
  5
419610
330
41960B
100
AcDbEntity
  8
寸法線
 62
     8
370
    -2
100
AcDbLine
 10
53061.44790577456
 20
-31518.85682834259
 30
0.0
 11
53071.2490141786
 21
-31518.85682834259
 31
0.0
  0
LINE
  5
419611
330
41960B
100
AcDbEntity
  8
寸法線
 62
     8
370
    -2
100
AcDbLine
 10
53055.049014179
 20
-31518.85682834259
 30
0.0
 11
53059.44790577456
 21
-31518.85682834259
 31
0.0
  0
INSERT
  5
419612
330
41960B
100
AcDbEntity
  8
寸法線
 62
     8
370
    -2
100
AcDbBlockReference
  2
_OPEN
 10
53055.049014179
 20
-31518.85682834259
 30
0.0
 41
2.0
 42
2.0
 43
2.0
  0
INSERT
  5
419613
330
41960B
100
AcDbEntity
  8
寸法線
 62
     8
370
    -2
100
AcDbBlockReference
  2
_OPEN
 10
53059.44790577456
 20
-31518.85682834259
 30
0.0
 41
2.0
 42
2.0
 43
2.0
 50
180.0
  0
MTEXT
  5
419614
330
41960B
100
AcDbEntity
  8
寸法線
 62
     0
100
AcDbMText
 10
53067.68234751193
 20
-31516.95682834259
 30
0.0
 40
2.0
 41
0.0
 71
     5
 72
     1
  1
\A1;4.4
 73
     1
 44
1.0
  0
POINT
  5
419615
330
41960B
100
AcDbEntity
  8
DEFPOINTS
 62
     0
100
AcDbPoint
 10
53055.049014179
 20
-31505.86484952891
 30
-0.0000000000007359
  0
POINT
  5
419616
330
41960B
100
AcDbEntity
  8
DEFPOINTS
 62
     0
100
AcDbPoint
 10
53059.44790577456
 20
-31505.96484954009
 30
-0.0000000000005699
  0
POINT
  5
419617
330
41960B
100
AcDbEntity
  8
DEFPOINTS
 62
     0
100
AcDbPoint
 10
53059.44790577456
 20
-31518.85682834259
 30
0.0
  0
ENDBLK
  5
419618
330
41960B
100
AcDbEntity
  8
0
100
AcDbBlockEnd
  0
BLOCK
  5
41961A
330
419619
100
AcDbEntity
  8
0
100
AcDbBlockBegin
  2
*D33
 70
     1
 10
0.0
 20
0.0
 30
0.0
  3
*D33
  1
*D33
  0
LINE
  5
41961B
330
419619
100
AcDbEntity
  8
寸法線
 62
     8
370
    -2
100
AcDbLine
 10
53062.08610627674
 20
-31438.2632021411
 30
0.0
 11
53080.52061139089
 21
-31438.2632021411
 31
0.0
  0
LINE
  5
41961C
330
419619
100
AcDbEntity
  8
寸法線
 62
     8
370
    -2
100
AcDbLine
 10
53061.88610627675
 20
-31495.26320214111
 30
0.0
 11
53080.52061139089
 21
-31495.26320214111
 31
0.0
  0
LINE
  5
41961D
330
419619
100
AcDbEntity
  8
寸法線
 62
     8
370
    -2
100
AcDbLine
 10
53079.8206113909
 20
-31440.2632021411
 30
0.0
 11
53079.8206113909
 21
-31493.26320214111
 31
0.0
  0
INSERT
  5
41961E
330
419619
100
AcDbEntity
  8
寸法線
 62
     8
370
    -2
100
AcDbBlockReference
  2
_OPEN
 10
53079.8206113909
 20
-31438.2632021411
 30
0.0
 41
2.0
 42
2.0
 43
2.0
 50
90.0
  0
INSERT
  5
41961F
330
419619
100
AcDbEntity
  8
寸法線
 62
     8
370
    -2
100
AcDbBlockReference
  2
_OPEN
 10
53079.8206113909
 20
-31495.26320214111
 30
0.0
 41
2.0
 42
2.0
 43
2.0
 50
270.0
  0
MTEXT
  5
419620
330
419619
100
AcDbEntity
  8
寸法線
 62
     0
100
AcDbMText
 10
53077.9206113909
 20
-31459.4617760485
 30
0.0
 40
2.0
 41
0.0
 71
     5
 72
     1
  1
\A1;P9.5×7＝57
 11
6.123031769111886E-17
 21
1.0
 31
0.0
 73
     1
 44
1.0
  0
POINT
  5
419621
330
419619
100
AcDbEntity
  8
DEFPOINTS
 62
     0
100
AcDbPoint
 10
53061.58610627674
 20
-31438.2632021411
 30
-0.0000000000005699
  0
POINT
  5
419622
330
419619
100
AcDbEntity
  8
DEFPOINTS
 62
     0
100
AcDbPoint
 10
53061.38610627675
 20
-31495.26320214111
 30
-0.0000000000005699
  0
POINT
  5
419623
330
419619
100
AcDbEntity
  8
DEFPOINTS
 62
     0
100
AcDbPoint
 10
53079.8206113909
 20
-31495.26320214111
 30
0.0
  0
ENDBLK
  5
419624
330
419619
100
AcDbEntity
  8
0
100
AcDbBlockEnd
  0
BLOCK
  5
419626
330
419625
100
AcDbEntity
  8
0
100
AcDbBlockBegin
  2
*D34
 70
     1
 10
0.0
 20
0.0
 30
0.0
  3
*D34
  1
*D34
  0
LINE
  5
419627
330
419625
100
AcDbEntity
  8
寸法線
 62
     8
370
    -2
100
AcDbLine
 10
53053.55127636185
 20
-31410.31484937987
 30
0.0
 11
53042.37618783102
 21
-31410.31484937987
 31
0.0
  0
LINE
  5
419628
330
419625
100
AcDbEntity
  8
寸法線
 62
     8
370
    -2
100
AcDbLine
 10
53053.34845997637
 20
-31495.81484937974
 30
0.0
 11
53042.37618783102
 21
-31495.81484937974
 31
0.0
  0
LINE
  5
419629
330
419625
100
AcDbEntity
  8
寸法線
 62
     8
370
    -2
100
AcDbLine
 10
53043.07618783101
 20
-31412.31484937987
 30
0.0
 11
53043.07618783101
 21
-31493.81484937974
 31
0.0
  0
INSERT
  5
41962A
330
419625
100
AcDbEntity
  8
寸法線
 62
     8
370
    -2
100
AcDbBlockReference
  2
_OPEN
 10
53043.07618783101
 20
-31410.31484937987
 30
0.0
 41
2.0
 42
2.0
 43
2.0
 50
90.0
  0
INSERT
  5
41962B
330
419625
100
AcDbEntity
  8
寸法線
 62
     8
370
    -2
100
AcDbBlockReference
  2
_OPEN
 10
53043.07618783101
 20
-31495.81484937974
 30
0.0
 41
2.0
 42
2.0
 43
2.0
 50
270.0
  0
MTEXT
  5
41962C
330
419625
100
AcDbEntity
  8
寸法線
 62
     0
100
AcDbMText
 10
53041.17618783102
 20
-31448.42783063904
 30
0.0
 40
2.0
 41
0.0
 71
     5
 72
     1
  1
\A1;（P1.5×57＝85.5）
 11
6.123031769111886E-17
 21
1.0
 31
0.0
 73
     1
 44
1.0
  0
POINT
  5
41962D
330
419625
100
AcDbEntity
  8
DEFPOINTS
 62
     0
100
AcDbPoint
 10
53054.05127636185
 20
-31410.31484937987
 30
-0.0000000000005699
  0
POINT
  5
41962E
330
419625
100
AcDbEntity
  8
DEFPOINTS
 62
     0
100
AcDbPoint
 10
53053.84845997637
 20
-31495.81484937974
 30
-0.0000000000005699
  0
POINT
  5
41962F
330
419625
100
AcDbEntity
  8
DEFPOINTS
 62
     0
100
AcDbPoint
 10
53043.07618783101
 20
-31495.81484937974
 30
0.0
  0
ENDBLK
  5
419630
330
419625
100
AcDbEntity
  8
0
100
AcDbBlockEnd
  0
BLOCK
  5
419632
330
419631
100
AcDbEntity
  8
0
100
AcDbBlockBegin
  2
*D35
 70
     1
 10
0.0
 20
0.0
 30
0.0
  3
*D35
  1
*D35
  0
LINE
  5
419633
330
419631
100
AcDbEntity
  8
寸法線
 62
     8
370
    -2
100
AcDbLine
 10
53061.88610627675
 20
-31495.26320214111
 30
0.0
 11
53080.5206113909
 21
-31495.26320214111
 31
0.0
  0
LINE
  5
419634
330
419631
100
AcDbEntity
  8
寸法線
 62
     8
370
    -2
100
AcDbLine
 10
53058.04790577874
 20
-31507.8648495273
 30
0.0
 11
53080.5206113909
 21
-31507.8648495273
 31
0.0
  0
LINE
  5
419635
330
419631
100
AcDbEntity
  8
寸法線
 62
     8
370
    -2
100
AcDbLine
 10
53079.8206113909
 20
-31497.26320214111
 30
0.0
 11
53079.8206113909
 21
-31505.8648495273
 31
0.0
  0
INSERT
  5
419636
330
419631
100
AcDbEntity
  8
寸法線
 62
     8
370
    -2
100
AcDbBlockReference
  2
_OPEN
 10
53079.8206113909
 20
-31495.26320214111
 30
0.0
 41
2.0
 42
2.0
 43
2.0
 50
90.0
  0
INSERT
  5
419637
330
419631
100
AcDbEntity
  8
寸法線
 62
     8
370
    -2
100
AcDbBlockReference
  2
_OPEN
 10
53079.8206113909
 20
-31507.8648495273
 30
0.0
 41
2.0
 42
2.0
 43
2.0
 50
270.0
  0
MTEXT
  5
419638
330
419631
100
AcDbEntity
  8
寸法線
 62
     0
100
AcDbMText
 10
53077.92061139091
 20
-31501.5640258342
 30
0.0
 40
2.0
 41
0.0
 71
     5
 72
     1
  1
\A1;12.6
 11
6.123031769111886E-17
 21
1.0
 31
0.0
 73
     1
 44
1.0
  0
POINT
  5
419639
330
419631
100
AcDbEntity
  8
DEFPOINTS
 62
     0
100
AcDbPoint
 10
53061.38610627675
 20
-31495.26320214111
 30
-0.0000000000005699
  0
POINT
  5
41963A
330
419631
100
AcDbEntity
  8
DEFPOINTS
 62
     0
100
AcDbPoint
 10
53057.54790577874
 20
-31507.8648495273
 30
-0.0000000000045644
  0
POINT
  5
41963B
330
419631
100
AcDbEntity
  8
DEFPOINTS
 62
     0
100
AcDbPoint
 10
53079.8206113909
 20
-31507.8648495273
 30
0.0
  0
ENDBLK
  5
41963C
330
419631
100
AcDbEntity
  8
0
100
AcDbBlockEnd
  0
BLOCK
  5
41963E
330
41963D
100
AcDbEntity
  8
0
100
AcDbBlockBegin
  2
*D36
 70
     1
 10
0.0
 20
0.0
 30
0.0
  3
*D36
  1
*D36
  0
LINE
  5
41963F
330
41963D
100
AcDbEntity
  8
寸法線
 62
     8
370
    -2
100
AcDbLine
 10
52996.93010307464
 20
-31506.11484938963
 30
0.0
 11
53018.65755298392
 21
-31493.57050033577
 31
0.0
  0
ARC
  5
419640
330
41963D
100
AcDbEntity
  8
寸法線
 62
     8
370
    -2
100
AcDbCircle
 10
52993.89901417846
 20
-31507.86484937976
 30
0.0
 40
27.88869808809459
100
AcDbArc
 50
4.109769641094766
 51
25.89023022279255
  0
INSERT
  5
419641
330
41963D
100
AcDbEntity
  8
寸法線
 62
     8
370
    -2
100
AcDbBlockReference
  2
_OPEN
 10
53021.78771226655
 20
-31507.86484944594
 30
0.0
 41
2.0
 42
2.0
 43
2.0
 50
272.0548847525594
  0
INSERT
  5
419642
330
41963D
100
AcDbEntity
  8
寸法線
 62
     8
370
    -2
100
AcDbBlockReference
  2
_OPEN
 10
53018.05133520126
 20
-31493.92050033576
 30
0.0
 41
2.0
 42
2.0
 43
2.0
 50
117.9451151113279
  0
MTEXT
  5
419643
330
41963D
100
AcDbEntity
  8
寸法線
 62
     0
100
AcDbMText
 10
53022.73160622182
 20
-31500.37831681488
 30
0.0
 40
2.0
 41
0.0
 71
     5
 72
     1
  1
\A1;30°
 11
0.2513212407854625
 21
-0.9679037317471483
 31
0.0
 73
     1
 44
1.0
  0
POINT
  5
419644
330
41963D
100
AcDbEntity
  8
DEFPOINTS
 62
     0
100
AcDbPoint
 10
53020.10581798274
 20
-31498.32635288328
 30
0.0
  0
POINT
  5
419645
330
41963D
100
AcDbEntity
  8
DEFPOINTS
 62
     0
100
AcDbPoint
 10
52993.89901417847
 20
-31507.86484937975
 30
-0.0000000000004022
  0
POINT
  5
419646
330
41963D
100
AcDbEntity
  8
DEFPOINTS
 62
     0
100
AcDbPoint
 10
52993.89901504582
 20
-31507.86484937976
 30
-0.0000000000004022
  0
POINT
  5
419647
330
41963D
100
AcDbEntity
  8
DEFPOINTS
 62
     0
100
AcDbPoint
 10
53056.49790577445
 20
-31507.86484952832
 30
0.0
  0
POINT
  5
419648
330
41963D
100
AcDbEntity
  8
DEFPOINTS
 62
     0
100
AcDbPoint
 10
52996.49709037274
 20
-31506.36484938963
 30
-0.0000000000004022
  0
ENDBLK
  5
419649
330
41963D
100
AcDbEntity
  8
0
100
AcDbBlockEnd
  0
BLOCK
  5
41964B
330
41964A
100
AcDbEntity
  8
0
100
AcDbBlockBegin
  2
*D37
 70
     1
 10
0.0
 20
0.0
 30
0.0
  3
*D37
  1
*D37
  0
LINE
  5
41964C
330
41964A
100
AcDbEntity
  8
寸法線
 62
     8
370
    -2
100
AcDbLine
 10
53007.64901417848
 20
-31504.86484952965
 30
0.0
 11
53007.64901417848
 21
-31512.32340130987
 31
0.0
  0
LINE
  5
41964D
330
41964A
100
AcDbEntity
  8
寸法線
 62
     8
370
    -2
100
AcDbLine
 10
53024.24901417847
 20
-31504.86484952965
 30
0.0
 11
53024.24901417847
 21
-31512.32340130987
 31
0.0
  0
LINE
  5
41964E
330
41964A
100
AcDbEntity
  8
寸法線
 62
     8
370
    -2
100
AcDbLine
 10
53009.64901417848
 20
-31511.62340130987
 30
0.0
 11
53022.24901417847
 21
-31511.62340130987
 31
0.0
  0
INSERT
  5
41964F
330
41964A
100
AcDbEntity
  8
寸法線
 62
     8
370
    -2
100
AcDbBlockReference
  2
_OPEN
 10
53007.64901417848
 20
-31511.62340130987
 30
0.0
 41
2.0
 42
2.0
 43
2.0
 50
180.0
  0
INSERT
  5
419650
330
41964A
100
AcDbEntity
  8
寸法線
 62
     8
370
    -2
100
AcDbBlockReference
  2
_OPEN
 10
53024.24901417847
 20
-31511.62340130987
 30
0.0
 41
2.0
 42
2.0
 43
2.0
  0
MTEXT
  5
419651
330
41964A
100
AcDbEntity
  8
寸法線
 62
     0
100
AcDbMText
 10
53015.94901417848
 20
-31509.72340130987
 30
0.0
 40
2.0
 41
0.0
 71
     5
 72
     1
  1
\A1;16.6
 73
     1
 44
1.0
  0
POINT
  5
419652
330
41964A
100
AcDbEntity
  8
DEFPOINTS
 62
     0
100
AcDbPoint
 10
53007.64901417848
 20
-31504.36484952965
 30
0.0
  0
POINT
  5
419653
330
41964A
100
AcDbEntity
  8
DEFPOINTS
 62
     0
100
AcDbPoint
 10
53024.24901417847
 20
-31504.36484952965
 30
-0.0000000000005691
  0
POINT
  5
419654
330
41964A
100
AcDbEntity
  8
DEFPOINTS
 62
     0
100
AcDbPoint
 10
53024.24901417847
 20
-31511.62340130987
 30
0.0
  0
ENDBLK
  5
419655
330
41964A
100
AcDbEntity
  8
0
100
AcDbBlockEnd
  0
BLOCK
  5
419657
330
419656
100
AcDbEntity
  8
0
100
AcDbBlockBegin
  2
*D38
 70
     1
 10
0.0
 20
0.0
 30
0.0
  3
*D38
  1
*D38
  0
LINE
  5
419658
330
419656
100
AcDbEntity
  8
寸法線
 62
     8
370
    -2
100
AcDbLine
 10
53037.04901417849
 20
-31504.86484949374
 30
0.0
 11
53037.04901417849
 21
-31512.31531774324
 31
0.0
  0
LINE
  5
419659
330
419656
100
AcDbEntity
  8
寸法線
 62
     8
370
    -2
100
AcDbLine
 10
53053.64845997635
 20
-31504.86484952959
 30
0.0
 11
53053.64845997635
 21
-31512.31531774324
 31
0.0
  0
LINE
  5
41965A
330
419656
100
AcDbEntity
  8
寸法線
 62
     8
370
    -2
100
AcDbLine
 10
53039.04901417849
 20
-31511.61531774324
 30
0.0
 11
53051.64845997635
 21
-31511.61531774324
 31
0.0
  0
INSERT
  5
41965B
330
419656
100
AcDbEntity
  8
寸法線
 62
     8
370
    -2
100
AcDbBlockReference
  2
_OPEN
 10
53037.04901417849
 20
-31511.61531774324
 30
0.0
 41
2.0
 42
2.0
 43
2.0
 50
180.0
  0
INSERT
  5
41965C
330
419656
100
AcDbEntity
  8
寸法線
 62
     8
370
    -2
100
AcDbBlockReference
  2
_OPEN
 10
53053.64845997635
 20
-31511.61531774324
 30
0.0
 41
2.0
 42
2.0
 43
2.0
  0
MTEXT
  5
41965D
330
419656
100
AcDbEntity
  8
寸法線
 62
     0
100
AcDbMText
 10
53045.34845997634
 20
-31509.71531774324
 30
0.0
 40
2.0
 41
0.0
 71
     5
 72
     1
  1
\A1;16.6
 73
     1
 44
1.0
  0
POINT
  5
41965E
330
419656
100
AcDbEntity
  8
DEFPOINTS
 62
     0
100
AcDbPoint
 10
53037.04901417849
 20
-31504.36484949374
 30
-0.0000000000005691
  0
POINT
  5
41965F
330
419656
100
AcDbEntity
  8
DEFPOINTS
 62
     0
100
AcDbPoint
 10
53053.64845997635
 20
-31504.36484952959
 30
-0.0000000000007359
  0
POINT
  5
419660
330
419656
100
AcDbEntity
  8
DEFPOINTS
 62
     0
100
AcDbPoint
 10
53053.64845997635
 20
-31511.61531774324
 30
0.0
  0
ENDBLK
  5
419661
330
419656
100
AcDbEntity
  8
0
100
AcDbBlockEnd
  0
BLOCK
  5
419663
330
419662
100
AcDbEntity
  8
0
100
AcDbBlockBegin
  2
*D39
 70
     1
 10
0.0
 20
0.0
 30
0.0
  3
*D39
  1
*D39
  0
LINE
  5
419664
330
419662
100
AcDbEntity
  8
寸法線
 62
     8
370
    -2
100
AcDbLine
 10
53027.85069950453
 20
-31502.36484949373
 30
0.0
 11
53027.85069950453
 21
-31499.75857786028
 31
0.0
  0
LINE
  5
419665
330
419662
100
AcDbEntity
  8
寸法線
 62
     8
370
    -2
100
AcDbLine
 10
53033.45069950454
 20
-31502.36484949374
 30
0.0
 11
53033.45069950454
 21
-31499.75857786028
 31
0.0
  0
LINE
  5
419666
330
419662
100
AcDbEntity
  8
寸法線
 62
     8
370
    -2
100
AcDbLine
 10
53025.85069950453
 20
-31500.45857786028
 30
0.0
 11
53023.85069950453
 21
-31500.45857786028
 31
0.0
  0
LINE
  5
419667
330
419662
100
AcDbEntity
  8
寸法線
 62
     8
370
    -2
100
AcDbLine
 10
53035.45069950454
 20
-31500.45857786028
 30
0.0
 11
53037.45069950454
 21
-31500.45857786028
 31
0.0
  0
LINE
  5
419668
330
419662
100
AcDbEntity
  8
寸法線
 62
     8
370
    -2
100
AcDbLine
 10
53027.85069950453
 20
-31500.45857786028
 30
0.0
 11
53033.45069950454
 21
-31500.45857786028
 31
0.0
  0
INSERT
  5
419669
330
419662
100
AcDbEntity
  8
寸法線
 62
     8
370
    -2
100
AcDbBlockReference
  2
_OPEN
 10
53027.85069950453
 20
-31500.45857786028
 30
0.0
 41
2.0
 42
2.0
 43
2.0
  0
INSERT
  5
41966A
330
419662
100
AcDbEntity
  8
寸法線
 62
     8
370
    -2
100
AcDbBlockReference
  2
_OPEN
 10
53033.45069950454
 20
-31500.45857786028
 30
0.0
 41
2.0
 42
2.0
 43
2.0
 50
180.0
  0
MTEXT
  5
41966B
330
419662
100
AcDbEntity
  8
寸法線
 62
     0
100
AcDbMText
 10
53030.65069950453
 20
-31498.55857786028
 30
0.0
 40
2.0
 41
0.0
 71
     5
 72
     1
  1
\A1;5.6
 73
     1
 44
1.0
  0
POINT
  5
41966C
330
419662
100
AcDbEntity
  8
DEFPOINTS
 62
     0
100
AcDbPoint
 10
53027.85069950453
 20
-31502.86484949373
 30
-0.0000000000005691
  0
POINT
  5
41966D
330
419662
100
AcDbEntity
  8
DEFPOINTS
 62
     0
100
AcDbPoint
 10
53033.45069950454
 20
-31502.86484949374
 30
-0.0000000000005691
  0
POINT
  5
41966E
330
419662
100
AcDbEntity
  8
DEFPOINTS
 62
     0
100
AcDbPoint
 10
53033.45069950454
 20
-31500.45857786028
 30
0.0
  0
ENDBLK
  5
41966F
330
419662
100
AcDbEntity
  8
0
100
AcDbBlockEnd
  0
BLOCK
  5
419671
330
419670
100
AcDbEntity
  8
0
100
AcDbBlockBegin
  2
*D40
 70
     1
 10
0.0
 20
0.0
 30
0.0
  3
*D40
  1
*D40
  0
LINE
  5
419672
330
419670
100
AcDbEntity
  8
寸法線
 62
     8
370
    -2
100
AcDbLine
 10
52994.44714139513
 20
-31508.13869837792
 30
0.0
 11
52994.44714139513
 21
-31519.55682834259
 31
0.0
  0
LINE
  5
419673
330
419670
100
AcDbEntity
  8
寸法線
 62
     8
370
    -2
100
AcDbLine
 10
53006.24901417849
 20
-31506.36484949377
 30
0.0
 11
53006.24901417849
 21
-31519.55682834259
 31
0.0
  0
LINE
  5
419674
330
419670
100
AcDbEntity
  8
寸法線
 62
     8
370
    -2
100
AcDbLine
 10
52992.44714139513
 20
-31518.85682834259
 30
0.0
 11
52990.44714139513
 21
-31518.85682834259
 31
0.0
  0
LINE
  5
419675
330
419670
100
AcDbEntity
  8
寸法線
 62
     8
370
    -2
100
AcDbLine
 10
53008.24901417849
 20
-31518.85682834259
 30
0.0
 11
53010.24901417849
 21
-31518.85682834259
 31
0.0
  0
LINE
  5
419676
330
419670
100
AcDbEntity
  8
寸法線
 62
     8
370
    -2
100
AcDbLine
 10
52994.44714139513
 20
-31518.85682834259
 30
0.0
 11
53006.24901417849
 21
-31518.85682834259
 31
0.0
  0
INSERT
  5
419677
330
419670
100
AcDbEntity
  8
寸法線
 62
     8
370
    -2
100
AcDbBlockReference
  2
_OPEN
 10
52994.44714139513
 20
-31518.85682834259
 30
0.0
 41
2.0
 42
2.0
 43
2.0
  0
INSERT
  5
419678
330
419670
100
AcDbEntity
  8
寸法線
 62
     8
370
    -2
100
AcDbBlockReference
  2
_OPEN
 10
53006.24901417849
 20
-31518.85682834259
 30
0.0
 41
2.0
 42
2.0
 43
2.0
 50
180.0
  0
MTEXT
  5
419679
330
419670
100
AcDbEntity
  8
寸法線
 62
     0
100
AcDbMText
 10
53000.34807778681
 20
-31516.95682834259
 30
0.0
 40
2.0
 41
0.0
 71
     5
 72
     1
  1
\A1;（11.8）
 73
     1
 44
1.0
  0
POINT
  5
41967A
330
419670
100
AcDbEntity
  8
DEFPOINTS
 62
     0
100
AcDbPoint
 10
52994.44714139513
 20
-31507.63869837792
 30
-0.0000000006599858
  0
POINT
  5
41967B
330
419670
100
AcDbEntity
  8
DEFPOINTS
 62
     0
100
AcDbPoint
 10
53006.24901417849
 20
-31505.86484949377
 30
-0.0000000000004022
  0
POINT
  5
41967C
330
419670
100
AcDbEntity
  8
DEFPOINTS
 62
     0
100
AcDbPoint
 10
53006.24901417849
 20
-31518.85682834259
 30
0.0
  0
ENDBLK
  5
41967D
330
419670
100
AcDbEntity
  8
0
100
AcDbBlockEnd
  0
BLOCK
  5
41967F
330
41967E
100
AcDbEntity
  8
0
100
AcDbBlockBegin
  2
*D41
 70
     1
 10
0.0
 20
0.0
 30
0.0
  3
*D41
  1
*D41
  0
LINE
  5
419680
330
41967E
100
AcDbEntity
  8
寸法線
 62
     8
370
    -2
100
AcDbLine
 10
53061.88610627674
 20
-31438.2632021411
 30
0.0
 11
53080.5206113909
 21
-31438.2632021411
 31
0.0
  0
LINE
  5
419681
330
41967E
100
AcDbEntity
  8
寸法線
 62
     8
370
    -2
100
AcDbLine
 10
53059.7479057742
 20
-31427.86484930419
 30
0.0
 11
53080.5206113909
 21
-31427.86484930419
 31
0.0
  0
LINE
  5
419682
330
41967E
100
AcDbEntity
  8
寸法線
 62
     8
370
    -2
100
AcDbLine
 10
53079.8206113909
 20
-31436.2632021411
 30
0.0
 11
53079.8206113909
 21
-31429.86484930419
 31
0.0
  0
INSERT
  5
419683
330
41967E
100
AcDbEntity
  8
寸法線
 62
     8
370
    -2
100
AcDbBlockReference
  2
_OPEN
 10
53079.8206113909
 20
-31438.2632021411
 30
0.0
 41
2.0
 42
2.0
 43
2.0
 50
270.0
  0
INSERT
  5
419684
330
41967E
100
AcDbEntity
  8
寸法線
 62
     8
370
    -2
100
AcDbBlockReference
  2
_OPEN
 10
53079.8206113909
 20
-31427.86484930419
 30
0.0
 41
2.0
 42
2.0
 43
2.0
 50
90.0
  0
MTEXT
  5
419685
330
41967E
100
AcDbEntity
  8
寸法線
 62
     0
100
AcDbMText
 10
53077.92061139091
 20
-31433.06402572264
 30
0.0
 40
2.0
 41
0.0
 71
     5
 72
     1
  1
\A1;10.4
 11
6.123031769111886E-17
 21
1.0
 31
0.0
 73
     1
 44
1.0
  0
POINT
  5
419686
330
41967E
100
AcDbEntity
  8
DEFPOINTS
 62
     0
100
AcDbPoint
 10
53061.38610627674
 20
-31438.2632021411
 30
-0.0000000000005699
  0
POINT
  5
419687
330
41967E
100
AcDbEntity
  8
DEFPOINTS
 62
     0
100
AcDbPoint
 10
53059.2479057742
 20
-31427.86484930419
 30
-0.0000000000004464
  0
POINT
  5
419688
330
41967E
100
AcDbEntity
  8
DEFPOINTS
 62
     0
100
AcDbPoint
 10
53079.8206113909
 20
-31427.86484930419
 30
0.0
  0
ENDBLK
  5
419689
330
41967E
100
AcDbEntity
  8
0
100
AcDbBlockEnd
  0
BLOCK
  5
41968B
330
41968A
100
AcDbEntity
  8
0
100
AcDbBlockBegin
  2
*D42
 70
     1
 10
0.0
 20
0.0
 30
0.0
  3
*D42
  1
*D42
  0
LINE
  5
41968C
330
41968A
100
AcDbEntity
  8
寸法線
 62
     8
370
    -2
100
AcDbLine
 10
53059.74790577422
 20
-31408.76484930419
 30
0.0
 11
53080.51840522383
 21
-31408.76484930419
 31
0.0
  0
LINE
  5
41968D
330
41968A
100
AcDbEntity
  8
寸法線
 62
     8
370
    -2
100
AcDbLine
 10
53059.7479057742
 20
-31427.86484930419
 30
0.0
 11
53080.51840522383
 21
-31427.86484930419
 31
0.0
  0
LINE
  5
41968E
330
41968A
100
AcDbEntity
  8
寸法線
 62
     8
370
    -2
100
AcDbLine
 10
53079.81840522384
 20
-31410.76484930419
 30
0.0
 11
53079.81840522384
 21
-31425.86484930419
 31
0.0
  0
INSERT
  5
41968F
330
41968A
100
AcDbEntity
  8
寸法線
 62
     8
370
    -2
100
AcDbBlockReference
  2
_OPEN
 10
53079.81840522384
 20
-31408.76484930419
 30
0.0
 41
2.0
 42
2.0
 43
2.0
 50
90.0
  0
INSERT
  5
419690
330
41968A
100
AcDbEntity
  8
寸法線
 62
     8
370
    -2
100
AcDbBlockReference
  2
_OPEN
 10
53079.81840522384
 20
-31427.86484930419
 30
0.0
 41
2.0
 42
2.0
 43
2.0
 50
270.0
  0
MTEXT
  5
419691
330
41968A
100
AcDbEntity
  8
寸法線
 62
     0
100
AcDbMText
 10
53077.91840522384
 20
-31418.31484930418
 30
0.0
 40
2.0
 41
0.0
 71
     5
 72
     1
  1
\A1;19.1
 11
6.123031769111886E-17
 21
1.0
 31
0.0
 73
     1
 44
1.0
  0
POINT
  5
419692
330
41968A
100
AcDbEntity
  8
DEFPOINTS
 62
     0
100
AcDbPoint
 10
53059.24790577422
 20
-31408.76484930419
 30
-0.0000000000004698
  0
POINT
  5
419693
330
41968A
100
AcDbEntity
  8
DEFPOINTS
 62
     0
100
AcDbPoint
 10
53059.2479057742
 20
-31427.86484930419
 30
-0.0000000000004464
  0
POINT
  5
419694
330
41968A
100
AcDbEntity
  8
DEFPOINTS
 62
     0
100
AcDbPoint
 10
53079.81840522384
 20
-31427.86484930419
 30
0.0
  0
ENDBLK
  5
419695
330
41968A
100
AcDbEntity
  8
0
100
AcDbBlockEnd
  0
BLOCK
  5
419697
330
419696
100
AcDbEntity
  8
0
100
AcDbBlockBegin
  2
*D43
 70
     1
 10
0.0
 20
0.0
 30
0.0
  3
*D43
  1
*D43
  0
LINE
  5
419698
330
419696
100
AcDbEntity
  8
寸法線
 62
     8
370
    -2
100
AcDbLine
 10
53053.14790577419
 20
-31393.06484938051
 30
0.0
 11
53053.14790577419
 21
-31388.2057892074
 31
0.0
  0
LINE
  5
419699
330
419696
100
AcDbEntity
  8
寸法線
 62
     8
370
    -2
100
AcDbLine
 10
53059.24790577419
 20
-31393.06484938049
 30
0.0
 11
53059.24790577419
 21
-31388.2057892074
 31
0.0
  0
LINE
  5
41969A
330
419696
100
AcDbEntity
  8
寸法線
 62
     8
370
    -2
100
AcDbLine
 10
53051.14790577419
 20
-31388.90578920741
 30
0.0
 11
53049.14790577419
 21
-31388.90578920741
 31
0.0
  0
LINE
  5
41969B
330
419696
100
AcDbEntity
  8
寸法線
 62
     8
370
    -2
100
AcDbLine
 10
53061.24790577419
 20
-31388.90578920741
 30
0.0
 11
53063.24790577419
 21
-31388.90578920741
 31
0.0
  0
LINE
  5
41969C
330
419696
100
AcDbEntity
  8
寸法線
 62
     8
370
    -2
100
AcDbLine
 10
53053.14790577419
 20
-31388.90578920741
 30
0.0
 11
53059.24790577419
 21
-31388.90578920741
 31
0.0
  0
INSERT
  5
41969D
330
419696
100
AcDbEntity
  8
寸法線
 62
     8
370
    -2
100
AcDbBlockReference
  2
_OPEN
 10
53053.14790577419
 20
-31388.90578920741
 30
0.0
 41
2.0
 42
2.0
 43
2.0
  0
INSERT
  5
41969E
330
419696
100
AcDbEntity
  8
寸法線
 62
     8
370
    -2
100
AcDbBlockReference
  2
_OPEN
 10
53059.24790577419
 20
-31388.90578920741
 30
0.0
 41
2.0
 42
2.0
 43
2.0
 50
180.0
  0
MTEXT
  5
41969F
330
419696
100
AcDbEntity
  8
寸法線
 62
     0
100
AcDbMText
 10
53056.19790577418
 20
-31387.0057892074
 30
0.0
 40
2.0
 41
0.0
 71
     5
 72
     1
  1
\A1;6.1
 73
     1
 44
1.0
  0
POINT
  5
4196A0
330
419696
100
AcDbEntity
  8
DEFPOINTS
 62
     0
100
AcDbPoint
 10
53053.14790577419
 20
-31393.56484938051
 30
-0.0000000000005757
  0
POINT
  5
4196A1
330
419696
100
AcDbEntity
  8
DEFPOINTS
 62
     0
100
AcDbPoint
 10
53059.24790577419
 20
-31393.56484938049
 30
-0.0000000000005805
  0
POINT
  5
4196A2
330
419696
100
AcDbEntity
  8
DEFPOINTS
 62
     0
100
AcDbPoint
 10
53059.24790577419
 20
-31388.90578920741
 30
0.0
  0
ENDBLK
  5
4196A3
330
419696
100
AcDbEntity
  8
0
100
AcDbBlockEnd
  0
BLOCK
  5
4196A5
330
4196A4
100
AcDbEntity
  8
0
100
AcDbBlockBegin
  2
*D44
 70
     1
 10
0.0
 20
0.0
 30
0.0
  3
*D44
  1
*D44
  0
LINE
  5
4196A6
330
4196A4
100
AcDbEntity
  8
寸法線
 62
     8
370
    -2
100
AcDbLine
 10
53058.94790577421
 20
-31424.2648493042
 30
0.0
 11
53065.0283022923
 21
-31424.2648493042
 31
0.0
  0
LINE
  5
4196A7
330
4196A4
100
AcDbEntity
  8
寸法線
 62
     8
370
    -2
100
AcDbLine
 10
53058.94790577423
 20
-31412.66484930419
 30
0.0
 11
53065.0283022923
 21
-31412.66484930419
 31
0.0
  0
LINE
  5
4196A8
330
4196A4
100
AcDbEntity
  8
寸法線
 62
     8
370
    -2
100
AcDbLine
 10
53064.32830229231
 20
-31422.2648493042
 30
0.0
 11
53064.32830229231
 21
-31414.66484930419
 31
0.0
  0
INSERT
  5
4196A9
330
4196A4
100
AcDbEntity
  8
寸法線
 62
     8
370
    -2
100
AcDbBlockReference
  2
_OPEN
 10
53064.32830229231
 20
-31424.2648493042
 30
0.0
 41
2.0
 42
2.0
 43
2.0
 50
270.0
  0
INSERT
  5
4196AA
330
4196A4
100
AcDbEntity
  8
寸法線
 62
     8
370
    -2
100
AcDbBlockReference
  2
_OPEN
 10
53064.32830229231
 20
-31412.66484930419
 30
0.0
 41
2.0
 42
2.0
 43
2.0
 50
90.0
  0
MTEXT
  5
4196AB
330
4196A4
100
AcDbEntity
  8
寸法線
 62
     0
100
AcDbMText
 10
53062.42830229231
 20
-31418.46484930419
 30
0.0
 40
2.0
 41
0.0
 71
     5
 72
     1
  1
\A1;11.6
 11
6.123031769111886E-17
 21
1.0
 31
0.0
 73
     1
 44
1.0
  0
POINT
  5
4196AC
330
4196A4
100
AcDbEntity
  8
DEFPOINTS
 62
     0
100
AcDbPoint
 10
53058.44790577421
 20
-31424.2648493042
 30
-0.0000000000004464
  0
POINT
  5
4196AD
330
4196A4
100
AcDbEntity
  8
DEFPOINTS
 62
     0
100
AcDbPoint
 10
53058.44790577423
 20
-31412.66484930419
 30
-0.0000000000004464
  0
POINT
  5
4196AE
330
4196A4
100
AcDbEntity
  8
DEFPOINTS
 62
     0
100
AcDbPoint
 10
53064.32830229231
 20
-31412.66484930419
 30
0.0
  0
ENDBLK
  5
4196AF
330
4196A4
100
AcDbEntity
  8
0
100
AcDbBlockEnd
  0
BLOCK
  5
4196B1
330
4196B0
100
AcDbEntity
  8
0
100
AcDbBlockBegin
  2
*D45
 70
     1
 10
0.0
 20
0.0
 30
0.0
  3
*D45
  1
*D45
  0
LINE
  5
4196B2
330
4196B0
100
AcDbEntity
  8
寸法線
 62
     8
370
    -2
100
AcDbLine
 10
53059.74790577422
 20
-31411.86484930422
 30
0.0
 11
53069.92434136843
 21
-31411.86484930422
 31
0.0
  0
LINE
  5
4196B3
330
4196B0
100
AcDbEntity
  8
寸法線
 62
     8
370
    -2
100
AcDbLine
 10
53059.74790577422
 20
-31425.06484930421
 30
0.0
 11
53069.92434136843
 21
-31425.06484930421
 31
0.0
  0
LINE
  5
4196B4
330
4196B0
100
AcDbEntity
  8
寸法線
 62
     8
370
    -2
100
AcDbLine
 10
53069.22434136843
 20
-31413.86484930422
 30
0.0
 11
53069.22434136843
 21
-31423.06484930421
 31
0.0
  0
INSERT
  5
4196B5
330
4196B0
100
AcDbEntity
  8
寸法線
 62
     8
370
    -2
100
AcDbBlockReference
  2
_OPEN
 10
53069.22434136843
 20
-31411.86484930422
 30
0.0
 41
2.0
 42
2.0
 43
2.0
 50
90.0
  0
INSERT
  5
4196B6
330
4196B0
100
AcDbEntity
  8
寸法線
 62
     8
370
    -2
100
AcDbBlockReference
  2
_OPEN
 10
53069.22434136843
 20
-31425.06484930421
 30
0.0
 41
2.0
 42
2.0
 43
2.0
 50
270.0
  0
MTEXT
  5
4196B7
330
4196B0
100
AcDbEntity
  8
寸法線
 62
     0
100
AcDbMText
 10
53067.32434136844
 20
-31418.46484930421
 30
0.0
 40
2.0
 41
0.0
 71
     5
 72
     1
  1
\A1;13.2
 11
6.123031769111886E-17
 21
1.0
 31
0.0
 73
     1
 44
1.0
  0
POINT
  5
4196B8
330
4196B0
100
AcDbEntity
  8
DEFPOINTS
 62
     0
100
AcDbPoint
 10
53059.24790577422
 20
-31411.86484930422
 30
-0.0000000000004464
  0
POINT
  5
4196B9
330
4196B0
100
AcDbEntity
  8
DEFPOINTS
 62
     0
100
AcDbPoint
 10
53059.24790577422
 20
-31425.06484930421
 30
-0.0000000000004464
  0
POINT
  5
4196BA
330
4196B0
100
AcDbEntity
  8
DEFPOINTS
 62
     0
100
AcDbPoint
 10
53069.22434136843
 20
-31425.06484930421
 30
0.0
  0
ENDBLK
  5
4196BB
330
4196B0
100
AcDbEntity
  8
0
100
AcDbBlockEnd
  0
BLOCK
  5
4196BD
330
4196BC
100
AcDbEntity
  8
0
100
AcDbBlockBegin
  2
*D46
 70
     1
 10
0.0
 20
0.0
 30
0.0
  3
*D46
  1
*D46
  0
LINE
  5
4196BE
330
4196BC
100
AcDbEntity
  8
寸法線
 62
     8
370
    -2
100
AcDbLine
 10
53055.64790577423
 20
-31410.46484930419
 30
0.0
 11
53050.64980992341
 21
-31410.46484930419
 31
0.0
  0
LINE
  5
4196BF
330
4196BC
100
AcDbEntity
  8
寸法線
 62
     8
370
    -2
100
AcDbLine
 10
53055.64790577423
 20
-31426.26484930419
 30
0.0
 11
53050.64980992341
 21
-31426.26484930419
 31
0.0
  0
LINE
  5
4196C0
330
4196BC
100
AcDbEntity
  8
寸法線
 62
     8
370
    -2
100
AcDbLine
 10
53051.34980992341
 20
-31412.46484930419
 30
0.0
 11
53051.34980992341
 21
-31424.26484930419
 31
0.0
  0
INSERT
  5
4196C1
330
4196BC
100
AcDbEntity
  8
寸法線
 62
     8
370
    -2
100
AcDbBlockReference
  2
_OPEN
 10
53051.34980992341
 20
-31410.46484930419
 30
0.0
 41
2.0
 42
2.0
 43
2.0
 50
90.0
  0
INSERT
  5
4196C2
330
4196BC
100
AcDbEntity
  8
寸法線
 62
     8
370
    -2
100
AcDbBlockReference
  2
_OPEN
 10
53051.34980992341
 20
-31426.26484930419
 30
0.0
 41
2.0
 42
2.0
 43
2.0
 50
270.0
  0
MTEXT
  5
4196C3
330
4196BC
100
AcDbEntity
  8
寸法線
 62
     0
100
AcDbMText
 10
53049.16647659008
 20
-31418.36484930418
 30
0.0
 40
2.0
 41
0.0
 71
     5
 72
     1
  1
\A1;15.8{\H1.100000;\S+0.3^ -0;}
 11
6.123031769111886E-17
 21
1.0
 31
0.0
 73
     1
 44
1.0
  0
POINT
  5
4196C4
330
4196BC
100
AcDbEntity
  8
DEFPOINTS
 62
     0
100
AcDbPoint
 10
53056.14790577423
 20
-31410.46484930419
 30
-0.0000000000004464
  0
POINT
  5
4196C5
330
4196BC
100
AcDbEntity
  8
DEFPOINTS
 62
     0
100
AcDbPoint
 10
53056.14790577423
 20
-31426.26484930419
 30
-0.0000000000004464
  0
POINT
  5
4196C6
330
4196BC
100
AcDbEntity
  8
DEFPOINTS
 62
     0
100
AcDbPoint
 10
53051.34980992341
 20
-31426.26484930419
 30
0.0
  0
ENDBLK
  5
4196C7
330
4196BC
100
AcDbEntity
  8
0
100
AcDbBlockEnd
  0
BLOCK
  5
4196C9
330
4196C8
100
AcDbEntity
  8
0
100
AcDbBlockBegin
  2
*D47
 70
     1
 10
0.0
 20
0.0
 30
0.0
  3
*D47
  1
*D47
  0
LINE
  5
4196CA
330
4196C8
100
AcDbEntity
  8
寸法線
 62
     8
100
AcDbLine
 10
52969.27617970178
 20
-31539.49189307303
 30
0.0000000000003726
 11
52982.71482700483
 21
-31539.49189307303
 31
0.0000000000003726
  0
LINE
  5
4196CB
330
4196C8
100
AcDbEntity
  8
寸法線
 62
     8
100
AcDbLine
 10
52974.08123567996
 20
-31534.99189296527
 30
0.0000000000003726
 11
52982.71482700483
 21
-31534.99189296527
 31
0.0000000000003726
  0
LINE
  5
4196CC
330
4196C8
100
AcDbEntity
  8
寸法線
 62
     8
100
AcDbLine
 10
52982.01482700484
 20
-31541.49189307303
 30
0.0000000000003726
 11
52982.01482700484
 21
-31543.49189307303
 31
0.0000000000003726
  0
LINE
  5
4196CD
330
4196C8
100
AcDbEntity
  8
寸法線
 62
     8
100
AcDbLine
 10
52982.01482700484
 20
-31532.99189296527
 30
0.0000000000003726
 11
52982.01482700484
 21
-31524.05855963193
 31
0.0000000000003726
  0
LINE
  5
4196CE
330
4196C8
100
AcDbEntity
  8
寸法線
 62
     8
100
AcDbLine
 10
52982.01482700484
 20
-31539.49189307303
 30
0.0000000000003726
 11
52982.01482700484
 21
-31534.99189296527
 31
0.0000000000003726
  0
INSERT
  5
4196CF
330
4196C8
100
AcDbEntity
  8
寸法線
 62
     8
100
AcDbBlockReference
  2
_OPEN
 10
52982.01482700484
 20
-31539.49189307303
 30
0.0000000000003726
 41
2.0
 42
2.0
 43
2.0
 50
90.0
  0
INSERT
  5
4196D0
330
4196C8
100
AcDbEntity
  8
寸法線
 62
     8
100
AcDbBlockReference
  2
_OPEN
 10
52982.01482700484
 20
-31534.99189296527
 30
0.0000000000003726
 41
2.0
 42
2.0
 43
2.0
 50
270.0
  0
MTEXT
  5
4196D1
330
4196C8
100
AcDbEntity
  8
寸法線
100
AcDbMText
 10
52980.21482700484
 20
-31527.52522629859
 30
0.0000000000003726
 40
2.0
 41
0.0
 71
     5
 72
     1
  1
\A1;1.5
 11
6.123031769111886E-17
 21
1.0
 31
0.0
 73
     1
 44
1.0
  0
POINT
  5
4196D2
330
4196C8
100
AcDbEntity
  8
DEFPOINTS
 62
     0
100
AcDbPoint
 10
52968.47617970178
 20
-31539.49189307303
 30
-0.0000000000013345
  0
POINT
  5
4196D3
330
4196C8
100
AcDbEntity
  8
DEFPOINTS
 62
     0
100
AcDbPoint
 10
52973.28123567995
 20
-31534.99189296527
 30
-0.0000000000013345
  0
POINT
  5
4196D4
330
4196C8
100
AcDbEntity
  8
DEFPOINTS
 62
     0
100
AcDbPoint
 10
52982.01482700484
 20
-31534.99189296527
 30
0.0000000000003726
  0
ENDBLK
  5
4196D5
330
4196C8
100
AcDbEntity
  8
0
100
AcDbBlockEnd
  0
BLOCK
  5
4196D7
330
4196D6
100
AcDbEntity
  8
0
100
AcDbBlockBegin
  2
*D48
 70
     1
 10
0.0
 20
0.0
 30
0.0
  3
*D48
  1
*D48
  0
LINE
  5
4196D8
330
4196D6
100
AcDbEntity
  8
寸法線
 62
     8
370
    -2
100
AcDbLine
 10
53053.14790577421
 20
-31408.82034862596
 30
0.0
 11
53053.14790577422
 21
-31418.67095757728
 31
0.0
  0
LINE
  5
4196D9
330
4196D6
100
AcDbEntity
  8
寸法線
 62
     8
370
    -2
100
AcDbLine
 10
53005.44901417848
 20
-31505.86484949382
 30
0.0
 11
52963.9540138601
 21
-31505.86484949588
 31
0.0
  0
ARC
  5
4196DA
330
4196D6
100
AcDbEntity
  8
寸法線
 62
     8
370
    -2
100
AcDbCircle
 10
53053.14790577425
 20
-31505.86484949145
 30
0.0
 40
88.19389191415924
100
AcDbArc
 50
91.6241968897877
 51
178.3758031130888
  0
INSERT
  5
4196DB
330
4196D6
100
AcDbEntity
  8
寸法線
 62
     8
370
    -2
100
AcDbBlockReference
  2
_OPEN
 10
53053.14790577421
 20
-31417.67095757728
 30
0.0
 41
2.5
 42
2.5
 43
2.5
 50
0.8120984449082669
  0
INSERT
  5
4196DC
330
4196D6
100
AcDbEntity
  8
寸法線
 62
     8
370
    -2
100
AcDbBlockReference
  2
_OPEN
 10
52964.9540138601
 20
-31505.86484949583
 30
0.0
 41
2.5
 42
2.5
 43
2.5
 50
269.1879015579682
  0
MTEXT
  5
4196DD
330
4196D6
100
AcDbEntity
  8
寸法線
 62
     0
100
AcDbMText
 10
52988.98228444888
 20
-31441.69922816929
 30
0.0
 40
3.5
 41
0.0
 71
     5
 72
     1
  1
\A1;90°
 11
0.7071067811690507
 21
0.7071067812040444
 31
0.0
 73
     1
 44
1.0
  0
POINT
  5
4196DE
330
4196D6
100
AcDbEntity
  8
DEFPOINTS
 62
     0
100
AcDbPoint
 10
53009.05095981589
 20
-31429.48669863591
 30
0.0
  0
POINT
  5
4196DF
330
4196D6
100
AcDbEntity
  8
DEFPOINTS
 62
     0
100
AcDbPoint
 10
53026.24901417848
 20
-31505.86484949278
 30
-0.0000000000004977
  0
POINT
  5
4196E0
330
4196D6
100
AcDbEntity
  8
DEFPOINTS
 62
     0
100
AcDbPoint
 10
53053.1479057742
 20
-31401.01484938051
 30
-0.0000000000005757
  0
POINT
  5
4196E1
330
4196D6
100
AcDbEntity
  8
DEFPOINTS
 62
     0
100
AcDbPoint
 10
53053.14790577421
 20
-31408.02034862596
 30
-0.0000000000005757
  0
POINT
  5
4196E2
330
4196D6
100
AcDbEntity
  8
DEFPOINTS
 62
     0
100
AcDbPoint
 10
53006.24901417847
 20
-31505.86484949377
 30
-0.0000000000004022
  0
ENDBLK
  5
4196E3
330
4196D6
100
AcDbEntity
  8
0
100
AcDbBlockEnd
  0
ENDSEC
  0
SECTION
  2
ENTITIES
  0
TEXT
  5
11B04
330
18
100
AcDbEntity
  8
文字
100
AcDbText
 10
-1240.183388714458
 20
-1416.837204555437
 30
0.0
 40
6.75
  1

 41
1.0228
100
AcDbText
  0
MTEXT
  5
12B3E
330
18
100
AcDbEntity
  8
0
100
AcDbMText
 10
-974.1891318600246
 20
-2072.131137572738
 30
0.0
 40
2.500000000000003
 41
0.0
 71
     9
 72
     1
  1
\A1;
 73
     1
 44
1.0
  0
MTEXT
  5
CD161
330
18
100
AcDbEntity
  8
寸法線
100
AcDbMText
 10
790.7551244589424
 20
-5735.183918242472
 30
0.0
 40
2.500000000000003
 41
0.0
 71
     6
 72
     1
  1
\A1;\P　　　　
 73
     1
 44
1.0
  0
MTEXT
  5
D3E27
330
18
100
AcDbEntity
  8
0
100
AcDbMText
 10
2439.336910391245
 20
667.075356397309
 30
0.0
 40
2.5
 41
0.0
 71
     9
 72
     1
  1
\A1;
 73
     1
 44
1.0
  0
MTEXT
  5
1420C2
330
18
100
AcDbEntity
  8
寸法線
100
AcDbMText
 10
-8174.409940395288
 20
1453.836710937994
 30
0.0
 40
2.5
 41
0.0
 71
     1
 72
     1
  1

  7
EXTFONT
 73
     1
 44
1.0
  0
TEXT
  5
18CEEC
330
18
100
AcDbEntity
  8
文字
100
AcDbText
 10
4713.45528577579
 20
-10991.74774079692
 30
0.0
 40
17.0
  1

 72
     1
 11
4713.45528577579
 21
-10991.74774079692
 31
0.0
100
AcDbText
  0
TEXT
  5
1D03BD
330
18
100
AcDbEntity
  8
文字
100
AcDbText
 10
9339.350494841161
 20
-6691.468753201214
 30
0.0
 40
15.0
  1

 72
     1
 11
9339.350494841161
 21
-6691.468753201214
 31
0.0
100
AcDbText
  0
TEXT
  5
36B148
330
18
100
AcDbEntity
  8
文字
100
AcDbText
 10
49394.64127479332
 20
-30205.80622202081
 30
0.0
 40
2.5
  1

100
AcDbText
  0
LINE
  5
47BE8B
330
18
100
AcDbEntity
  8
姿図
100
AcDbLine
 10
67813.38640684923
 20
-34506.15351224373
 30
0.0
 11
67817.77745353656
 21
-34509.11487589225
 31
0.0
  0
LINE
  5
47BE8C
330
18
100
AcDbEntity
  8
姿図
100
AcDbLine
 10
67817.77745353656
 20
-34509.11487589225
 30
0.0
 11
67817.77745353655
 21
-34513.74645752556
 31
0.0
  0
LINE
  5
47BE8D
330
18
100
AcDbEntity
  8
姿図
100
AcDbLine
 10
67812.77895901832
 20
-34506.37614551739
 30
0.0
 11
67813.38640684923
 21
-34506.15351224373
 31
0.0
  0
LINE
  5
47BE8E
330
18
100
AcDbEntity
  8
姿図
100
AcDbLine
 10
67813.13057131687
 20
-34510.54588327925
 30
0.0
 11
67813.38640684923
 21
-34506.15351224373
 31
0.0
  0
LINE
  5
47BE8F
330
18
100
AcDbEntity
  8
姿図
100
AcDbLine
 10
67812.55891428617
 20
-34510.15403398762
 30
0.0
 11
67812.77895901832
 21
-34506.37614551739
 31
0.0
  0
LINE
  5
47BE90
330
18
100
AcDbEntity
  8
姿図
100
AcDbLine
 10
67788.64081374063
 20
-34488.65520881158
 30
0.0
 11
67788.64081374063
 21
-34493.75907992809
 31
0.0
  0
LINE
  5
47BE91
330
18
100
AcDbEntity
  8
姿図
100
AcDbLine
 10
67781.20292353105
 20
-34488.66068726711
 30
0.0
 11
67781.4489206338
 21
-34484.43722956748
 31
0.0
  0
LINE
  5
47BE92
330
18
100
AcDbEntity
  8
姿図
100
AcDbLine
 10
67781.77458056173
 20
-34489.05253655873
 30
0.0
 11
67782.0563684647
 21
-34484.21459629383
 31
0.0
  0
LINE
  5
47BE93
330
18
100
AcDbEntity
  8
姿図
100
AcDbLine
 10
67781.44892063382
 20
-34484.43722956748
 30
0.0
 11
67782.05636846469
 21
-34484.21459629383
 31
0.0
  0
LINE
  5
47BE94
330
18
100
AcDbEntity
  8
姿図
100
AcDbLine
 10
67782.05636846469
 20
-34484.21459629382
 30
0.0
 11
67788.64081374063
 21
-34488.65520881158
 31
0.0
  0
LINE
  5
47BE95
330
18
100
AcDbEntity
  8
姿図
100
AcDbLine
 10
67754.89117974523
 20
-34464.38915737794
 30
0.0
 11
67754.89117974523
 21
-34470.62498122209
 31
0.0
  0
LINE
  5
47BE96
330
18
100
AcDbEntity
  8
姿図
100
AcDbLine
 10
67748.30673446931
 20
-34459.94854486019
 30
0.0
 11
67754.89117974523
 21
-34464.38915737794
 31
0.0
  0
LINE
  5
47BE97
330
18
100
AcDbEntity
  8
姿図
100
AcDbLine
 10
67747.69928663841
 20
-34460.17117813385
 30
0.0
 11
67748.30673446931
 21
-34459.94854486019
 31
0.0
  0
LINE
  5
47BE98
330
18
100
AcDbEntity
  8
姿図
100
AcDbLine
 10
67747.74605548782
 20
-34469.5746905946
 30
0.0
 11
67748.30673446931
 21
-34459.94854486019
 31
0.0
  0
LINE
  5
47BE99
330
18
100
AcDbEntity
  8
姿図
100
AcDbLine
 10
67747.15157502732
 20
-34469.5746905946
 30
0.0
 11
67747.69928663841
 21
-34460.17117813385
 31
0.0
  0
LINE
  5
47BEA9
330
18
100
AcDbEntity
  8
寸法線
 62
     8
100
AcDbLine
 10
67678.92732859335
 20
-34482.39762810439
 30
0.0
 11
67670.9126749683
 21
-34483.82148099375
 31
0.0
  0
LINE
  5
47C438
330
18
100
AcDbEntity
  8
寸法線
 62
     8
100
AcDbLine
 10
67762.6238387675
 20
-34535.57736411216
 30
0.0
 11
67759.72814786727
 21
-34536.08271266312
 31
0.0
  0
LINE
  5
47C439
330
18
100
AcDbEntity
  8
寸法線
 62
     8
100
AcDbLine
 10
67670.9126749683
 20
-34483.82148099375
 30
0.0
 11
67759.72814786725
 21
-34536.08271266312
 31
0.0
  0
LINE
  5
47C43A
330
18
100
AcDbEntity
  8
寸法線
 62
     8
100
AcDbLine
 10
67744.96930840194
 20
-34434.89830977112
 30
0.0
 11
67819.1933908661
 21
-34491.95550064875
 31
0.0
  0
LINE
  5
47C43B
330
18
100
AcDbEntity
  8
寸法線
 62
     8
100
AcDbLine
 10
67819.1933908661
 20
-34491.95550064875
 30
0.0
 11
67819.1933908661
 21
-34495.47411226873
 31
0.0
  0
LINE
  5
47C43C
330
18
100
AcDbEntity
  8
寸法線
 62
     8
100
AcDbLine
 10
67821.94319715851
 20
-34525.80916256161
 30
0.0
 11
67821.03319395224
 21
-34525.80916256161
 31
0.0
  0
LINE
  5
47C43D
330
18
100
AcDbEntity
  8
寸法線
 62
     8
100
AcDbLine
 10
67821.94319715851
 20
-34525.80916256161
 30
0.0
 11
67821.94319715851
 21
-34525.1393061901
 31
0.0
  0
LINE
  5
47C43E
330
18
100
AcDbEntity
  8
寸法線
 62
     8
100
AcDbLine
 10
67821.94319715851
 20
-34498.43287614031
 30
0.0
 11
67821.94319715851
 21
-34497.62092902333
 31
0.0
  0
LINE
  5
47C43F
330
18
100
AcDbEntity
  8
寸法線
 62
     8
100
AcDbLine
 10
67821.94319715851
 20
-34514.38100689011
 30
0.0
 11
67821.94319715851
 21
-34507.78022340895
 31
0.0
  0
LINE
  5
47C440
330
18
100
AcDbEntity
  8
寸法線
 62
     8
100
AcDbLine
 10
67821.94319715851
 20
-34516.06579715785
 30
0.0
 11
67821.94319715851
 21
-34515.39594078634
 31
0.0
  0
LINE
  5
47C441
330
18
100
AcDbEntity
  8
寸法線
 62
     8
100
AcDbLine
 10
67821.94319715851
 20
-34523.86048948086
 30
0.0
 11
67821.94319715851
 21
-34523.19063310935
 31
0.0
  0
LINE
  5
47C442
330
18
100
AcDbEntity
  8
寸法線
 62
     8
100
AcDbLine
 10
67821.94319715851
 20
-34498.43287614031
 30
0.0
 11
67821.5205797395
 21
-34498.43287614031
 31
0.0
  0
LINE
  5
47C443
330
18
100
AcDbEntity
  8
寸法線
 62
     8
100
AcDbLine
 10
67821.42402605165
 20
-34514.4374461889
 30
0.0
 11
67821.42402605165
 21
-34514.99061578807
 31
0.0
  0
LINE
  5
47C444
330
18
100
AcDbEntity
  8
寸法線
 62
     8
100
AcDbLine
 10
67821.94319715851
 20
-34523.86048948086
 30
0.0
 11
67821.21569066605
 21
-34524.57133049981
 31
0.0
  0
LINE
  5
47C445
330
18
100
AcDbEntity
  8
寸法線
 62
     8
100
AcDbLine
 10
67821.94319715851
 20
-34514.38100689011
 30
0.0
 11
67821.42402605165
 21
-34514.4374461889
 31
0.0
  0
LINE
  5
47C446
330
18
100
AcDbEntity
  8
寸法線
 62
     8
100
AcDbLine
 10
67821.94319715851
 20
-34516.06579715785
 30
0.0
 11
67821.62993940234
 21
-34516.37187891094
 31
0.0
  0
LINE
  5
47C447
330
18
100
AcDbEntity
  8
寸法線
 62
   253
100
AcDbLine
 10
67821.5205797395
 20
-34498.43287614031
 30
0.0
 11
67811.4992837063
 21
-34490.60909368476
 31
0.0
  0
LINE
  5
47C448
330
18
100
AcDbEntity
  8
寸法線
 62
   253
100
AcDbLine
 10
67821.42402605165
 20
-34514.4374461889
 30
0.0
 11
67817.77745353656
 21
-34511.59051002693
 31
0.0
  0
LINE
  5
47C449
330
18
100
AcDbEntity
  8
寸法線
 62
     8
100
AcDbLine
 10
67821.94319715851
 20
-34497.62092902333
 30
0.0
 11
67811.4992837063
 21
-34489.46720254284
 31
0.0
  0
LINE
  5
47C44A
330
18
100
AcDbEntity
  8
寸法線
 62
   253
100
AcDbLine
 10
67821.94319715851
 20
-34498.43287614031
 30
0.0
 11
67811.4992837063
 21
-34490.27914965983
 31
0.0
  0
LINE
  5
47C44B
330
18
100
AcDbEntity
  8
寸法線
 62
   253
100
AcDbLine
 10
67821.94319715851
 20
-34500.38242493547
 30
0.0
 11
67811.4992837063
 21
-34492.70873125627
 31
0.0
  0
LINE
  5
47C44C
330
18
100
AcDbEntity
  8
寸法線
 62
   253
100
AcDbLine
 10
67821.94319715851
 20
-34514.38100689011
 30
0.0
 11
67817.77745353658
 21
-34511.12874572988
 31
0.0
  0
LINE
  5
47C44D
330
18
100
AcDbEntity
  8
寸法線
 62
   253
100
AcDbLine
 10
67821.94319715851
 20
-34515.39594078634
 30
0.0
 11
67817.77745353655
 21
-34512.14367962613
 31
0.0
  0
LINE
  5
47C44E
330
18
100
AcDbEntity
  8
寸法線
 62
   253
100
AcDbLine
 10
67821.94319715851
 20
-34516.06579715785
 30
0.0
 11
67817.77745353655
 21
-34512.81353599763
 31
0.0
  0
LINE
  5
47C44F
330
18
100
AcDbEntity
  8
寸法線
 62
   253
100
AcDbLine
 10
67821.94319715851
 20
-34523.19063310935
 30
0.0
 11
67817.52294672136
 21
-34519.63531657566
 31
0.0
  0
LINE
  5
47C450
330
18
100
AcDbEntity
  8
寸法線
 62
   253
100
AcDbLine
 10
67821.94319715851
 20
-34523.86048948086
 30
0.0
 11
67811.54740682055
 21
-34515.74433346788
 31
0.0
  0
LINE
  5
47C451
330
18
100
AcDbEntity
  8
寸法線
 62
   253
100
AcDbLine
 10
67821.94319715851
 20
-34525.1393061901
 30
0.0
 11
67811.54740682055
 21
-34517.02315017713
 31
0.0
  0
LINE
  5
47C452
330
18
100
AcDbEntity
  8
寸法線
 62
   253
100
AcDbLine
 10
67821.94319715851
 20
-34525.80916256161
 30
0.0
 11
67811.54740682055
 21
-34517.69300654864
 31
0.0
  0
LINE
  5
47C453
330
18
100
AcDbEntity
  8
寸法線
 62
   253
100
AcDbLine
 10
67821.94319715851
 20
-34526.51961628897
 30
0.0
 11
67811.54740682055
 21
-34518.40346027599
 31
0.0
  0
LINE
  5
47C454
330
18
100
AcDbEntity
  8
寸法線
 62
   253
100
AcDbLine
 10
67747.64274261199
 20
-34461.1419672248
 30
0.0
 11
67744.96930840194
 21
-34459.05477534868
 31
0.0
  0
LINE
  5
47C455
330
18
100
AcDbEntity
  8
寸法線
 62
   253
100
AcDbLine
 10
67747.6735608126
 20
-34460.61285787657
 30
0.0
 11
67744.96930840194
 21
-34458.50160574952
 31
0.0
  0
LINE
  5
47C456
330
18
100
AcDbEntity
  8
寸法線
 62
   253
100
AcDbLine
 10
67747.69928663841
 20
-34460.17117813384
 30
0.0
 11
67744.96930840194
 21
-34458.03984145246
 31
0.0
  0
LINE
  5
47C457
330
18
100
AcDbEntity
  8
寸法線
 62
   253
100
AcDbLine
 10
67755.15958991833
 20
-34452.40206940557
 30
0.0
 11
67744.96930840194
 21
-34444.44635734191
 31
0.0
  0
LINE
  5
47C458
330
18
100
AcDbEntity
  8
寸法線
 62
   253
100
AcDbLine
 10
67811.4992837063
 20
-34490.60909368476
 30
0.0
 11
67744.96930840194
 21
-34442.4216547276
 31
0.0
  0
LINE
  5
47C459
330
18
100
AcDbEntity
  8
寸法線
 62
   253
100
AcDbLine
 10
67811.4992837063
 20
-34490.27914965983
 30
0.0
 11
67744.96930840194
 21
-34442.09171070265
 31
0.0
  0
LINE
  5
47C45A
330
18
100
AcDbEntity
  8
寸法線
 62
     8
100
AcDbLine
 10
67811.4992837063
 20
-34489.46720254284
 30
0.0
 11
67744.96930840194
 21
-34441.27976358568
 31
0.0
  0
LINE
  5
47C45B
330
18
100
AcDbEntity
  8
寸法線
 62
   253
100
AcDbLine
 10
67747.42561355053
 20
-34464.86979733409
 30
0.0
 11
67744.96930840194
 21
-34462.95212151019
 31
0.0
  0
LINE
  5
47C45C
330
18
100
AcDbEntity
  8
寸法線
 62
   253
100
AcDbLine
 10
67747.49685902383
 20
-34463.64660307948
 30
0.0
 11
67744.96930840194
 21
-34461.67330480095
 31
0.0
  0
LINE
  5
47C45D
330
18
100
AcDbEntity
  8
寸法線
 62
   253
100
AcDbLine
 10
67747.53417808126
 20
-34463.00588227945
 30
0.0
 11
67744.96930840194
 21
-34461.00344842944
 31
0.0
  0
LINE
  5
47C45E
330
18
100
AcDbEntity
  8
寸法線
 62
   253
100
AcDbLine
 10
67747.60542355455
 20
-34461.78268802483
 30
0.0
 11
67744.96930840194
 21
-34459.72463172019
 31
0.0
  0
LINE
  5
47C45F
330
18
100
AcDbEntity
  8
寸法線
 62
   253
100
AcDbLine
 10
67747.27972996236
 20
-34467.37443318876
 30
0.0
 11
67744.96930840194
 21
-34465.57065096245
 31
0.0
  0
LINE
  5
47C460
330
18
100
AcDbEntity
  8
寸法線
 62
   253
100
AcDbLine
 10
67747.38829449308
 20
-34465.51051813411
 30
0.0
 11
67744.96930840194
 21
-34463.6219778817
 31
0.0
  0
LINE
  5
47C461
330
18
100
AcDbEntity
  8
寸法線
 62
   253
100
AcDbLine
 10
67747.17116543162
 20
-34469.23834824341
 30
0.0
 11
67744.96930840194
 21
-34467.51932404321
 31
0.0
  0
LINE
  5
47C462
330
18
100
AcDbEntity
  8
寸法線
 62
   253
100
AcDbLine
 10
67746.15562350256
 20
-34469.72431549474
 30
0.0
 11
67744.96930840194
 21
-34468.79814075244
 31
0.0
  0
LINE
  5
47C463
330
18
100
AcDbEntity
  8
寸法線
 62
   253
100
AcDbLine
 10
67755.28930834896
 20
-34477.52498239405
 30
0.0
 11
67749.53126722429
 21
-34473.02958968433
 31
0.0
  0
LINE
  5
47C464
330
18
100
AcDbEntity
  8
寸法線
 62
   253
100
AcDbLine
 10
67755.28930834896
 20
-34478.23543612141
 30
0.0
 11
67744.96930840194
 21
-34470.17845085132
 31
0.0
  0
LINE
  5
47C465
330
18
100
AcDbEntity
  8
寸法線
 62
   253
100
AcDbLine
 10
67755.28930834896
 20
-34478.94588984876
 30
0.0
 11
67744.96930840194
 21
-34470.88890457867
 31
0.0
  0
LINE
  5
47C466
330
18
100
AcDbEntity
  8
寸法線
 62
   253
100
AcDbLine
 10
67755.28930834896
 20
-34479.31365999189
 30
0.0
 11
67744.96930840194
 21
-34471.25667472179
 31
0.0
  0
LINE
  5
47C467
330
18
100
AcDbEntity
  8
寸法線
 62
   253
100
AcDbLine
 10
67747.20848448906
 20
-34468.59762744337
 30
0.0
 11
67744.96930840194
 21
-34466.84946767169
 31
0.0
  0
LINE
  5
47C468
330
18
100
AcDbEntity
  8
寸法線
 62
   253
100
AcDbLine
 10
67747.3170490198
 20
-34466.73371238872
 30
0.0
 11
67744.96930840194
 21
-34464.90079459094
 31
0.0
  0
LINE
  5
47C469
330
18
100
AcDbEntity
  8
寸法線
 62
     8
100
AcDbLine
 10
67767.43783389693
 20
-34525.04253260624
 30
0.0
 11
67766.53746505716
 21
-34524.07320045958
 31
0.0
  0
LINE
  5
47C46A
330
18
100
AcDbEntity
  8
寸法線
 62
     8
100
AcDbLine
 10
67766.53746505716
 20
-34524.07320045958
 30
0.0
 11
67787.61255048975
 21
-34521.91313146766
 31
0.0
  0
LINE
  5
47C46B
330
18
100
AcDbEntity
  8
寸法線
 62
     8
100
AcDbLine
 10
67767.43783389693
 20
-34525.04253260624
 30
0.0
 11
67788.85955289323
 21
-34522.84693576726
 31
0.0
  0
LINE
  5
47C46C
330
18
100
AcDbEntity
  8
寸法線
 62
     8
100
AcDbLine
 10
67736.22385193981
 20
-34488.7986802731
 30
0.0
 11
67712.96860209515
 21
-34492.93011953835
 31
0.0
  0
LINE
  5
47C46D
330
18
100
AcDbEntity
  8
寸法線
 62
     8
100
AcDbLine
 10
67713.34750019439
 20
-34492.86280594271
 30
0.0
 11
67766.53746505716
 21
-34524.07320045958
 31
0.0
  0
LINE
  5
47C46E
330
18
100
AcDbEntity
  8
寸法線
 62
     8
100
AcDbLine
 10
67712.96860209515
 20
-34492.93011953835
 30
0.0
 11
67767.43783389693
 21
-34525.04253260624
 31
0.0
  0
LINE
  5
47C46F
330
18
100
AcDbEntity
  8
寸法線
 62
     8
100
AcDbLine
 10
67736.22385193981
 20
-34488.7986802731
 30
0.0
 11
67788.85955289323
 21
-34522.84693576726
 31
0.0
  0
LINE
  5
47C470
330
18
100
AcDbEntity
  8
寸法線
 62
   253
100
AcDbLine
 10
67811.54740682055
 20
-34519.48168414648
 30
0.0
 11
67755.28930834896
 21
-34479.31365999189
 31
0.0
  0
LINE
  5
47C471
330
18
100
AcDbEntity
  8
寸法線
 62
   253
100
AcDbLine
 10
67811.54740682055
 20
-34519.11391400335
 30
0.0
 11
67755.28930834896
 21
-34478.94588984877
 31
0.0
  0
LINE
  5
47C472
330
18
100
AcDbEntity
  8
寸法線
 62
   253
100
AcDbLine
 10
67811.54740682055
 20
-34518.40346027599
 30
0.0
 11
67755.28930834896
 21
-34478.23543612141
 31
0.0
  0
LINE
  5
47C473
330
18
100
AcDbEntity
  8
寸法線
 62
   253
100
AcDbLine
 10
67811.54740682055
 20
-34517.69300654864
 30
0.0
 11
67755.28930834896
 21
-34477.52498239405
 31
0.0
  0
LINE
  5
47C474
330
18
100
AcDbEntity
  8
寸法線
 62
   253
100
AcDbLine
 10
67811.54740682055
 20
-34517.02315017713
 30
0.0
 11
67759.5434141375
 21
-34479.89253803455
 31
0.0
  0
LINE
  5
47C475
330
18
100
AcDbEntity
  8
寸法線
 62
   253
100
AcDbLine
 10
67811.54740682055
 20
-34515.74433346788
 30
0.0
 11
67804.36196425237
 21
-34510.61396044632
 31
0.0
  0
LINE
  5
47C476
330
18
100
AcDbEntity
  8
寸法線
 62
   253
100
AcDbLine
 10
67811.4992837063
 20
-34492.70873125627
 30
0.0
 11
67755.15958991833
 21
-34452.40206940557
 31
0.0
  0
LINE
  5
47C477
330
18
100
AcDbEntity
  8
寸法線
 62
     8
100
AcDbLine
 10
67744.96930840194
 20
-34474.3475982455
 30
0.0
 11
67744.96930840192
 21
-34434.89830977112
 31
0.0
  0
LINE
  5
47C478
330
18
100
AcDbEntity
  8
寸法線
 62
     8
100
AcDbLine
 10
67679.50883913194
 20
-34481.58263826341
 30
0.0
 11
67679.50883913194
 21
-34481.80790892512
 31
0.0
  0
LINE
  5
47C479
330
18
100
AcDbEntity
  8
寸法線
 62
     8
100
AcDbLine
 10
67678.92732859335
 20
-34482.62167160372
 30
0.0
 11
67679.36811523483
 21
-34482.9111332681
 31
0.0
  0
LINE
  5
47C47A
330
18
100
AcDbEntity
  8
寸法線
 62
     8
100
AcDbLine
 10
67678.92732859335
 20
-34481.20076414901
 30
0.0
 11
67679.50883913194
 21
-34481.58263826341
 31
0.0
  0
LINE
  5
47C47B
330
18
100
AcDbEntity
  8
寸法線
 62
     8
100
AcDbLine
 10
67678.92732859335
 20
-34481.91121787636
 30
0.0
 11
67678.92732859335
 21
-34482.62167160372
 31
0.0
  0
LINE
  5
47C47C
330
18
100
AcDbEntity
  8
寸法線
 62
     8
100
AcDbLine
 10
67679.65483508582
 20
-34479.9629320872
 30
0.0
 11
67678.92732859335
 21
-34480.53090777749
 31
0.0
  0
LINE
  5
47C47D
330
18
100
AcDbEntity
  8
寸法線
 62
     8
100
AcDbLine
 10
67679.65483508582
 20
-34478.01425900646
 30
0.0
 11
67678.92732859335
 21
-34478.58223469674
 31
0.0
  0
LINE
  5
47C47E
330
18
100
AcDbEntity
  8
寸法線
 62
     8
100
AcDbLine
 10
67679.65483508582
 20
-34476.06558592569
 30
0.0
 11
67678.92732859335
 21
-34476.63356161599
 31
0.0
  0
LINE
  5
47C47F
330
18
100
AcDbEntity
  8
寸法線
 62
     8
100
AcDbLine
 10
67679.65483508582
 20
-34474.11691284495
 30
0.0
 11
67678.92732859335
 21
-34474.68488853524
 31
0.0
  0
LINE
  5
47C480
330
18
100
AcDbEntity
  8
寸法線
 62
     8
100
AcDbLine
 10
67679.65483508582
 20
-34472.16823976419
 30
0.0
 11
67678.92732859335
 21
-34472.73621545448
 31
0.0
  0
LINE
  5
47C481
330
18
100
AcDbEntity
  8
寸法線
 62
     8
100
AcDbLine
 10
67679.50883913194
 20
-34470.15448259191
 30
0.0
 11
67679.50883913194
 21
-34470.68423342249
 31
0.0
  0
LINE
  5
47C482
330
18
100
AcDbEntity
  8
寸法線
 62
     8
100
AcDbLine
 10
67678.92732859335
 20
-34469.77260847751
 30
0.0
 11
67679.50883913194
 21
-34470.15448259191
 31
0.0
  0
LINE
  5
47C483
330
18
100
AcDbEntity
  8
寸法線
 62
     8
100
AcDbLine
 10
67679.79496288253
 20
-34454.15552018449
 30
0.0
 11
67679.79496288253
 21
-34456.02498375808
 31
0.0
  0
LINE
  5
47C484
330
18
100
AcDbEntity
  8
寸法線
 62
     8
100
AcDbLine
 10
67678.92732859335
 20
-34453.82447772771
 30
0.0
 11
67679.50883913194
 21
-34454.20635184211
 31
0.0
  0
LINE
  5
47C485
330
18
100
AcDbEntity
  8
寸法線
 62
     8
100
AcDbLine
 10
67678.92732859335
 20
-34453.82447772771
 30
0.0
 11
67678.92732859335
 21
-34453.01253061072
 31
0.0
  0
LINE
  5
47C486
330
18
100
AcDbEntity
  8
寸法線
 62
     8
100
AcDbLine
 10
67678.92732859335
 20
-34471.45739874525
 30
0.0
 11
67679.65483508582
 21
-34472.16823976419
 31
0.0
  0
LINE
  5
47C487
330
18
100
AcDbEntity
  8
寸法線
 62
     8
100
AcDbLine
 10
67678.92732859335
 20
-34473.40607182599
 30
0.0
 11
67679.65483508582
 21
-34474.11691284495
 31
0.0
  0
LINE
  5
47C488
330
18
100
AcDbEntity
  8
寸法線
 62
     8
100
AcDbLine
 10
67678.92732859335
 20
-34475.35474490675
 30
0.0
 11
67679.65483508582
 21
-34476.06558592569
 31
0.0
  0
LINE
  5
47C489
330
18
100
AcDbEntity
  8
寸法線
 62
     8
100
AcDbLine
 10
67678.92732859335
 20
-34475.35474490675
 30
0.0
 11
67678.92732859335
 21
-34474.68488853524
 31
0.0
  0
LINE
  5
47C48A
330
18
100
AcDbEntity
  8
寸法線
 62
     8
100
AcDbLine
 10
67678.92732859335
 20
-34473.40607182599
 30
0.0
 11
67678.92732859335
 21
-34472.73621545448
 31
0.0
  0
LINE
  5
47C48B
330
18
100
AcDbEntity
  8
寸法線
 62
     8
100
AcDbLine
 10
67678.92732859335
 20
-34471.45739874525
 30
0.0
 11
67678.92732859335
 21
-34470.78754237374
 31
0.0
  0
LINE
  5
47C48C
330
18
100
AcDbEntity
  8
寸法線
 62
     8
100
AcDbLine
 10
67678.92732859335
 20
-34469.77260847751
 30
0.0
 11
67678.92732859335
 21
-34456.17912436694
 31
0.0
  0
LINE
  5
47C48D
330
18
100
AcDbEntity
  8
寸法線
 62
     8
100
AcDbLine
 10
67678.92732859335
 20
-34477.3034179875
 30
0.0
 11
67679.65483508582
 21
-34478.01425900646
 31
0.0
  0
LINE
  5
47C48E
330
18
100
AcDbEntity
  8
寸法線
 62
     8
100
AcDbLine
 10
67678.92732859335
 20
-34479.25209106825
 30
0.0
 11
67679.65483508582
 21
-34479.9629320872
 31
0.0
  0
LINE
  5
47C48F
330
18
100
AcDbEntity
  8
寸法線
 62
     8
100
AcDbLine
 10
67678.92732859335
 20
-34479.25209106825
 30
0.0
 11
67678.92732859335
 21
-34478.58223469674
 31
0.0
  0
LINE
  5
47C490
330
18
100
AcDbEntity
  8
寸法線
 62
     8
100
AcDbLine
 10
67678.92732859335
 20
-34481.20076414901
 30
0.0
 11
67678.92732859335
 21
-34480.53090777749
 31
0.0
  0
LINE
  5
47C491
330
18
100
AcDbEntity
  8
寸法線
 62
     8
100
AcDbLine
 10
67678.92732859335
 20
-34477.3034179875
 30
0.0
 11
67678.92732859335
 21
-34476.63356161599
 31
0.0
  0
LINE
  5
47C492
330
18
100
AcDbEntity
  8
寸法線
 62
     8
100
AcDbLine
 10
67678.92732859335
 20
-34486.08036527055
 30
0.0
 11
67678.92732859335
 21
-34484.97631824296
 31
0.0
  0
LINE
  5
47C493
330
18
100
AcDbEntity
  8
寸法線
 62
     8
100
AcDbLine
 10
67679.36811523483
 20
-34482.9111332681
 30
0.0
 11
67679.36811523483
 21
-34484.89800976422
 31
0.0
  0
LINE
  5
47C494
330
18
100
AcDbEntity
  8
寸法線
 62
     8
100
AcDbLine
 10
67681.13518654136
 20
-34452.6202909625
 30
0.0
 11
67681.13518654136
 21
-34446.23883714793
 31
0.0
  0
LINE
  5
47C495
330
18
100
AcDbEntity
  8
寸法線
 62
     8
100
AcDbLine
 10
67744.96930840194
 20
-34434.89830977112
 30
0.0
 11
67681.13518654136
 21
-34446.23883714793
 31
0.0
  0
LINE
  5
47C496
330
18
100
AcDbEntity
  8
寸法線
 62
   253
100
AcDbLine
 10
67744.96930840194
 20
-34471.25667472179
 30
0.0
 11
67679.36811523483
 21
-34482.9111332681
 31
0.0
  0
LINE
  5
47C497
330
18
100
AcDbEntity
  8
寸法線
 62
   253
100
AcDbLine
 10
67744.96930840194
 20
-34470.88890457867
 30
0.0
 11
67678.92732859335
 21
-34482.62167160372
 31
0.0
  0
LINE
  5
47C498
330
18
100
AcDbEntity
  8
寸法線
 62
   253
100
AcDbLine
 10
67744.96930840194
 20
-34466.41073801871
 30
0.0
 11
67679.65483508582
 21
-34478.01425900646
 31
0.0
  0
LINE
  5
47C499
330
18
100
AcDbEntity
  8
寸法線
 62
   253
100
AcDbLine
 10
67744.96930840194
 20
-34468.35941109945
 30
0.0
 11
67679.65483508582
 21
-34479.9629320872
 31
0.0
  0
LINE
  5
47C49A
330
18
100
AcDbEntity
  8
寸法線
 62
   253
100
AcDbLine
 10
67744.96930840194
 20
-34464.46206493794
 30
0.0
 11
67679.65483508582
 21
-34476.06558592569
 31
0.0
  0
LINE
  5
47C49B
330
18
100
AcDbEntity
  8
寸法線
 62
   253
100
AcDbLine
 10
67744.96930840194
 20
-34462.5133918572
 30
0.0
 11
67679.65483508582
 21
-34474.11691284495
 31
0.0
  0
LINE
  5
47C49C
330
18
100
AcDbEntity
  8
寸法線
 62
   253
100
AcDbLine
 10
67744.96930840194
 20
-34460.56471877644
 30
0.0
 11
67679.65483508582
 21
-34472.16823976419
 31
0.0
  0
LINE
  5
47C49D
330
18
100
AcDbEntity
  8
寸法線
 62
   253
100
AcDbLine
 10
67744.96930840194
 20
-34458.52502451811
 30
0.0
 11
67679.50883913194
 21
-34470.15448259191
 31
0.0
  0
LINE
  5
47C49E
330
18
100
AcDbEntity
  8
寸法線
 62
   253
100
AcDbLine
 10
67744.96930840194
 20
-34442.57689376831
 30
0.0
 11
67679.50883913194
 21
-34454.20635184211
 31
0.0
  0
LINE
  5
47C49F
330
18
100
AcDbEntity
  8
寸法線
 62
     8
100
AcDbLine
 10
67744.96930840194
 20
-34441.27976358568
 30
0.0
 11
67678.92732859335
 21
-34453.01253061072
 31
0.0
  0
LINE
  5
47C4A0
330
18
100
AcDbEntity
  8
寸法線
 62
   253
100
AcDbLine
 10
67744.96930840194
 20
-34442.09171070265
 30
0.0
 11
67678.92732859335
 21
-34453.82447772771
 31
0.0
  0
LINE
  5
47C4A1
330
18
100
AcDbEntity
  8
寸法線
 62
   253
100
AcDbLine
 10
67744.96930840194
 20
-34444.44635734191
 30
0.0
 11
67678.92732859335
 21
-34456.17912436694
 31
0.0
  0
LINE
  5
47C4A2
330
18
100
AcDbEntity
  8
寸法線
 62
   253
100
AcDbLine
 10
67744.96930840194
 20
-34458.03984145246
 30
0.0
 11
67678.92732859335
 21
-34469.77260847751
 31
0.0
  0
LINE
  5
47C4A3
330
18
100
AcDbEntity
  8
寸法線
 62
   253
100
AcDbLine
 10
67744.96930840194
 20
-34459.05477534868
 30
0.0
 11
67678.92732859335
 21
-34470.78754237374
 31
0.0
  0
LINE
  5
47C4A4
330
18
100
AcDbEntity
  8
寸法線
 62
   253
100
AcDbLine
 10
67744.96930840194
 20
-34459.72463172019
 30
0.0
 11
67678.92732859335
 21
-34471.45739874525
 31
0.0
  0
LINE
  5
47C4A5
330
18
100
AcDbEntity
  8
寸法線
 62
   253
100
AcDbLine
 10
67744.96930840194
 20
-34461.00344842944
 30
0.0
 11
67678.92732859335
 21
-34472.73621545448
 31
0.0
  0
LINE
  5
47C4A6
330
18
100
AcDbEntity
  8
寸法線
 62
   253
100
AcDbLine
 10
67744.96930840194
 20
-34461.67330480095
 30
0.0
 11
67678.92732859335
 21
-34473.40607182599
 31
0.0
  0
LINE
  5
47C4A7
330
18
100
AcDbEntity
  8
寸法線
 62
   253
100
AcDbLine
 10
67744.96930840194
 20
-34462.95212151019
 30
0.0
 11
67678.92732859335
 21
-34474.68488853524
 31
0.0
  0
LINE
  5
47C4A8
330
18
100
AcDbEntity
  8
寸法線
 62
   253
100
AcDbLine
 10
67744.96930840194
 20
-34463.6219778817
 30
0.0
 11
67678.92732859335
 21
-34475.35474490675
 31
0.0
  0
LINE
  5
47C4A9
330
18
100
AcDbEntity
  8
寸法線
 62
   253
100
AcDbLine
 10
67744.96930840194
 20
-34464.90079459094
 30
0.0
 11
67678.92732859335
 21
-34476.63356161599
 31
0.0
  0
LINE
  5
47C4AA
330
18
100
AcDbEntity
  8
寸法線
 62
   253
100
AcDbLine
 10
67744.96930840194
 20
-34465.57065096245
 30
0.0
 11
67678.92732859335
 21
-34477.3034179875
 31
0.0
  0
LINE
  5
47C4AB
330
18
100
AcDbEntity
  8
寸法線
 62
   253
100
AcDbLine
 10
67744.96930840194
 20
-34466.84946767169
 30
0.0
 11
67678.92732859335
 21
-34478.58223469674
 31
0.0
  0
LINE
  5
47C4AC
330
18
100
AcDbEntity
  8
寸法線
 62
   253
100
AcDbLine
 10
67744.96930840194
 20
-34467.51932404321
 30
0.0
 11
67678.92732859335
 21
-34479.25209106825
 31
0.0
  0
LINE
  5
47C4AD
330
18
100
AcDbEntity
  8
寸法線
 62
   253
100
AcDbLine
 10
67744.96930840194
 20
-34468.79814075244
 30
0.0
 11
67678.92732859335
 21
-34480.53090777749
 31
0.0
  0
LINE
  5
47C4AE
330
18
100
AcDbEntity
  8
寸法線
 62
   253
100
AcDbLine
 10
67744.96930840194
 20
-34469.46799712395
 30
0.0
 11
67678.92732859335
 21
-34481.20076414901
 31
0.0
  0
LINE
  5
47C4AF
330
18
100
AcDbEntity
  8
寸法線
 62
   253
100
AcDbLine
 10
67744.96930840194
 20
-34470.88890457867
 30
0.0
 11
67678.92732859335
 21
-34482.62167160372
 31
0.0
  0
LINE
  5
47C4B0
330
18
100
AcDbEntity
  8
寸法線
 62
   253
100
AcDbLine
 10
67744.96930840194
 20
-34470.17845085132
 30
0.0
 11
67678.92732859335
 21
-34481.91121787636
 31
0.0
  0
LINE
  5
47C4B1
330
18
100
AcDbEntity
  8
寸法線
 62
     8
100
AcDbLine
 10
67744.96930840194
 20
-34473.24355121791
 30
0.0
 11
67678.92732859335
 21
-34484.97631824296
 31
0.0
  0
LINE
  5
47C4B2
330
18
100
AcDbEntity
  8
寸法線
 62
     8
100
AcDbLine
 10
67744.96930840194
 20
-34474.3475982455
 30
0.0
 11
67678.92732859335
 21
-34486.08036527055
 31
0.0
  0
LINE
  5
47C4B3
330
18
100
AcDbEntity
  8
寸法線
 62
     8
100
AcDbLine
 10
67821.01129780384
 20
-34526.87029176678
 30
0.0
 11
67821.01129780384
 21
-34528.8571682629
 31
0.0
  0
LINE
  5
47C4B4
330
18
100
AcDbEntity
  8
寸法線
 62
     8
100
AcDbLine
 10
67821.94319715851
 20
-34527.23007001633
 30
0.0
 11
67821.4721291684
 21
-34527.23007001633
 31
0.0
  0
LINE
  5
47C4B5
330
18
100
AcDbEntity
  8
寸法線
 62
     8
100
AcDbLine
 10
67821.94319715851
 20
-34530.68876368315
 30
0.0
 11
67821.94319715851
 21
-34529.58471665557
 31
0.0
  0
LINE
  5
47C4B6
330
18
100
AcDbEntity
  8
寸法線
 62
     8
100
AcDbLine
 10
67764.70681527891
 20
-34536.55514719568
 30
0.0
 11
67821.94319715851
 21
-34530.68876368315
 31
0.0
  0
LINE
  5
47C4B7
330
18
100
AcDbEntity
  8
寸法線
 62
     8
100
AcDbLine
 10
67821.94319715851
 20
-34527.23007001633
 30
0.0
 11
67821.94319715851
 21
-34526.51961628897
 31
0.0
  0
LINE
  5
47C4B8
330
18
100
AcDbEntity
  8
寸法線
 62
   253
100
AcDbLine
 10
67821.4721291684
 20
-34527.23007001633
 30
0.0
 11
67811.54740682055
 21
-34519.48168414648
 31
0.0
  0
LINE
  5
47C4B9
330
18
100
AcDbEntity
  8
寸法線
 62
   253
100
AcDbLine
 10
67821.94319715851
 20
-34527.23007001633
 30
0.0
 11
67811.54740682055
 21
-34519.11391400335
 31
0.0
  0
LINE
  5
47C4BA
330
18
100
AcDbEntity
  8
寸法線
 62
     8
100
AcDbLine
 10
67821.94319715851
 20
-34529.58471665557
 30
0.0
 11
67744.96930840194
 21
-34473.24355121791
 31
0.0
  0
LINE
  5
47C4BB
330
18
100
AcDbEntity
  8
寸法線
 62
     8
100
AcDbLine
 10
67821.94319715851
 20
-34530.68876368315
 30
0.0
 11
67744.96930840194
 21
-34474.3475982455
 31
0.0
  0
LINE
  5
47C4BC
330
18
100
AcDbEntity
  8
寸法線
 62
     8
100
AcDbLine
 10
67678.92732859335
 20
-34486.08036527055
 30
0.0
 11
67764.70681527891
 21
-34536.55514719568
 31
0.0
  0
LINE
  5
47C4BD
330
18
100
AcDbEntity
  8
寸法線
 62
   253
100
AcDbLine
 10
67821.28498169394
 20
-34499.91348176386
 30
0.0
 11
67821.28498169394
 21
-34498.24894106352
 31
0.0
  0
LINE
  5
47C4BE
330
18
100
AcDbEntity
  8
姿図
100
AcDbLine
 10
67744.96930840194
 20
-34469.90253930794
 30
0.0
 11
67752.2430429328
 21
-34468.8097835102
 31
0.0
  0
LINE
  5
47C4BF
330
18
100
AcDbEntity
  8
姿図
100
AcDbLine
 10
67821.94319715853
 20
-34523.19063310936
 30
0.0
 11
67829.84563198758
 21
-34522.00342570731
 31
0.0
  0
LINE
  5
47C4C0
330
18
100
AcDbEntity
  8
寸法線
 62
   253
100
AcDbLine
 10
67781.43013450963
 20
-34484.75976345067
 30
0.0
 11
67754.89117974523
 21
-34465.81258746802
 31
0.0
  0
LINE
  5
47C4C1
330
18
100
AcDbEntity
  8
寸法線
 62
   253
100
AcDbLine
 10
67781.40431261863
 20
-34485.20309251101
 30
0.0
 11
67754.89117974523
 21
-34466.27435176507
 31
0.0
  0
LINE
  5
47C4C2
330
18
100
AcDbEntity
  8
寸法線
 62
   253
100
AcDbLine
 10
67781.37337933689
 20
-34485.73417765589
 30
0.0
 11
67754.89117974523
 21
-34466.82752136424
 31
0.0
  0
LINE
  5
47C4C3
330
18
100
AcDbEntity
  8
寸法線
 62
   253
100
AcDbLine
 10
67781.33577509326
 20
-34486.3797947403
 30
0.0
 11
67754.89117974523
 21
-34467.49733787435
 31
0.0
  0
LINE
  5
47C4C4
330
18
100
AcDbEntity
  8
寸法線
 62
   253
100
AcDbLine
 10
67781.26432643514
 20
-34487.60647742031
 30
0.0
 11
67754.89117974523
 21
-34468.77617170338
 31
0.0
  0
LINE
  5
47C4C5
330
18
100
AcDbEntity
  8
寸法線
 62
   253
100
AcDbLine
 10
67781.22686814077
 20
-34488.24958874151
 30
0.0
 11
67754.89117974523
 21
-34469.44602807489
 31
0.0
  0
LINE
  5
47C4C6
330
18
100
AcDbEntity
  8
寸法線
 62
     8
100
AcDbLine
 10
67821.94319715851
 20
-34507.78022340895
 30
0.0
 11
67821.94319715851
 21
-34500.38242493547
 31
0.0
  0
LINE
  5
47C4C7
330
18
100
AcDbEntity
  8
寸法線
 62
   253
100
AcDbLine
 10
67745.43608187982
 20
-34469.83241447424
 30
0.0
 11
67744.96930840194
 21
-34469.46799712395
 31
0.0
  0
LINE
  5
47C4C8
330
18
100
AcDbEntity
  8
姿図
100
AcDbLine
 10
67829.84563198758
 20
-34522.00342570731
 30
0.0
 11
67752.2430429328
 21
-34468.80978351019
 31
0.0
  0
LINE
  5
47C4C9
330
18
100
AcDbEntity
  8
寸法線
 62
   253
100
AcDbLine
 10
67817.52294672135
 20
-34519.63531657565
 30
0.0
 11
67744.96930840192
 21
-34469.90253930794
 31
0.0
  0
LINE
  5
47C4CA
330
18
100
AcDbEntity
  8
寸法線
 62
   253
100
AcDbLine
 10
67812.73619447625
 20
-34507.11035836946
 30
0.0
 11
67788.64081374063
 21
-34489.90774345053
 31
0.0
  0
LINE
  5
47C4CB
330
18
100
AcDbEntity
  8
寸法線
 62
   253
100
AcDbLine
 10
67812.71037258525
 20
-34507.55368742996
 30
0.0
 11
67788.64081374063
 21
-34490.36950774757
 31
0.0
  0
LINE
  5
47C4CC
330
18
100
AcDbEntity
  8
寸法線
 62
   253
100
AcDbLine
 10
67812.6794393035
 20
-34508.0847725748
 30
0.0
 11
67788.56618140417
 21
-34490.86939446408
 31
0.0
  0
LINE
  5
47C4CD
330
18
100
AcDbEntity
  8
寸法線
 62
   253
100
AcDbLine
 10
67812.64165978372
 20
-34508.73339892796
 30
0.0
 11
67788.64081374063
 21
-34491.59587293501
 31
0.0
  0
LINE
  5
47C4CE
330
18
100
AcDbEntity
  8
寸法線
 62
   253
100
AcDbLine
 10
67812.52630054065
 20
-34509.92738347877
 30
0.0
 11
67788.64081374063
 21
-34492.87325550757
 31
0.0
  0
TEXT
  5
47D648
330
18
100
AcDbEntity
  8
文字
100
AcDbText
 10
67696.42963714845
 20
-34580.81843312853
 30
0.0
 40
15.0
  1
SX-LF083
  7
EXTFONT
100
AcDbText
  0
ENDSEC
  0
SECTION
  2
OBJECTS
  0
DICTIONARY
  5
C
330
0
100
AcDbDictionary
281
     1
  3
ACAD_GROUP
350
D
  3
ACAD_IMAGE_VARS
350
48460D
  3
ACAD_LAYOUT
350
617
  3
ACAD_MLINESTYLE
350
E
  3
ACAD_PLOTSETTINGS
350
618
  3
ACAD_PLOTSTYLENAME
350
615
  3
ACAD_SCALELIST
350
46AC36
  3
AcadDim
350
44DDA5
  3
AcDbVariableDictionary
350
6DE
  3
APPDATA
350
48460C
  3
ASE_INDEX_DICTIONARY
350
44CC62
  3
DWGPROPS
350
484632
  0
DICTIONARY
  5
6A835
330
2
100
AcDbDictionary
280
     1
281
     1
  3
ACAD_LAYERFILTERS
360
DBFD3
  3
ACAD_LAYERSTATES
360
6A836
  0
DICTIONARY
  5
46AC61
330
F
100
AcDbDictionary
280
     1
281
     1
  3
ADSK_XREC_LAYER_RECONCILED
360
46AC62
  0
DICTIONARY
  5
46AC63
330
2C
100
AcDbDictionary
280
     1
281
     1
  3
ADSK_XREC_LAYER_RECONCILED
360
46AC64
  0
DICTIONARY
  5
46AC65
330
34
100
AcDbDictionary
280
     1
281
     1
  3
ADSK_XREC_LAYER_RECONCILED
360
46AC66
  0
DICTIONARY
  5
46AC67
330
280
100
AcDbDictionary
280
     1
281
     1
  3
ADSK_XREC_LAYER_RECONCILED
360
46AC68
  0
DICTIONARY
  5
46AC69
330
2F4
100
AcDbDictionary
280
     1
281
     1
  3
ADSK_XREC_LAYER_RECONCILED
360
46AC6A
  0
DICTIONARY
  5
46AC6B
330
301
100
AcDbDictionary
280
     1
281
     1
  3
ADSK_XREC_LAYER_RECONCILED
360
46AC6C
  0
DICTIONARY
  5
46AC6D
330
305
100
AcDbDictionary
280
     1
281
     1
  3
ADSK_XREC_LAYER_RECONCILED
360
46AC6E
  0
DICTIONARY
  5
46AC6F
330
1616FA
100
AcDbDictionary
280
     1
281
     1
  3
ADSK_XREC_LAYER_RECONCILED
360
46AC70
  0
DICTIONARY
  5
46AC77
330
198684
100
AcDbDictionary
280
     1
281
     1
  3
ADSK_XREC_LAYER_RECONCILED
360
46AC78
  0
DICTIONARY
  5
46AC87
330
3AC0FB
100
AcDbDictionary
280
     1
281
     1
  3
ADSK_XREC_LAYER_RECONCILED
360
46AC88
  0
DICTIONARY
  5
D
102
{ACAD_REACTORS
330
C
102
}
330
C
100
AcDbDictionary
281
     1
  0
RASTERVARIABLES
  5
48460D
102
{ACAD_REACTORS
330
C
102
}
330
C
100
AcDbRasterVariables
 90
        0
 70
     1
 71
     1
 72
     0
  0
DICTIONARY
  5
617
102
{ACAD_REACTORS
330
C
102
}
330
C
100
AcDbDictionary
281
     1
  3
Model
350
619
  3
ﾚｲｱｳﾄ1
350
61A
  0
DICTIONARY
  5
E
102
{ACAD_REACTORS
330
C
102
}
330
C
100
AcDbDictionary
281
     1
  3
STANDARD
350
1B
  0
DICTIONARY
  5
618
102
{ACAD_REACTORS
330
C
102
}
330
C
100
AcDbDictionary
281
     1
  0
ACDBDICTIONARYWDFLT
  5
615
102
{ACAD_REACTORS
330
C
102
}
330
C
100
AcDbDictionary
281
     1
  3
Normal
350
616
100
AcDbDictionaryWithDefault
340
616
  0
DICTIONARY
  5
46AC36
102
{ACAD_REACTORS
330
C
102
}
330
C
100
AcDbDictionary
281
     1
  3
A0
350
46AC37
  3
A1
350
46AC38
  3
A2
350
46AC39
  3
A3
350
46AC3A
  3
A4
350
46AC3B
  3
A5
350
46AC3C
  3
A6
350
46AC3D
  3
A7
350
46AC3E
  3
A8
350
46AC3F
  3
A9
350
46AC40
  3
B0
350
46AC41
  3
B1
350
46AC42
  3
B2
350
46AC43
  3
B3
350
46AC44
  3
B4
350
46AC45
  3
B5
350
46AC46
  3
B6
350
46AC47
  3
B7
350
46AC48
  3
B8
350
46AC49
  3
B9
350
46AC4A
  3
C0
350
46AC4B
  3
C1
350
46AC4C
  3
C2
350
46AC4D
  3
C3
350
46AC4E
  3
C4
350
46AC4F
  3
C5
350
46AC50
  3
C6
350
46AC51
  3
C7
350
46AC52
  3
C8
350
46AC53
  3
C9
350
46AC54
  3
D0
350
46AC55
  3
D1
350
46AC56
  3
D2
350
46AC57
  0
XRECORD
  5
44DDA5
102
{ACAD_REACTORS
330
C
102
}
330
C
100
AcDbXrecord
280
     1
 90
   990106
  3
OPEN
 60
     0
 61
     0
 62
     4
 63
     4
 64
     1
 65
     0
 66
     0
 67
     3
 68
     1
 69
     0
 70
     0
 71
     0
 72
     0
 40
0.0
170
     2
  0
DICTIONARY
  5
6DE
102
{ACAD_REACTORS
330
C
102
}
330
C
100
AcDbDictionary
281
     1
  3
DIMASSOC
350
6DF
  3
INDEXCTL
350
46ACE7
  3
PROJECTNAME
350
6E0
  3
SORTENTS
350
46ACE6
  0
DICTIONARY
  5
48460C
102
{ACAD_REACTORS
330
C
102
}
330
C
100
AcDbDictionary
281
     1
  0
DICTIONARY
  5
44CC62
102
{ACAD_REACTORS
330
C
102
}
330
C
100
AcDbDictionary
281
     1
  3
ASEBlockHierarchyIndexRecord
350
44CC64
1001
DCO15
1040
1604398629.359
  0
XRECORD
  5
484632
102
{ACAD_REACTORS
330
C
102
}
330
C
100
AcDbXrecord
280
     1
  1
DWGPROPS COOKIE
  2

  3

  4

  6

  7

  8
SPAX
  9

300
=
301
=
302
=
303
=
304
=
305
=
306
=
307
=
308
=
309
=
 40
0.0
 41
2448636.244629629
 42
2456822.105621123
  1

 90
        0
  0
DICTIONARY
  5
DBFD3
102
{ACAD_REACTORS
330
6A835
102
}
330
6A835
100
AcDbDictionary
281
     1
  0
DICTIONARY
  5
6A836
102
{ACAD_REACTORS
330
6A835
102
}
330
6A835
100
AcDbDictionary
281
     1
  0
XRECORD
  5
46AC62
102
{ACAD_REACTORS
330
46AC61
102
}
330
46AC61
100
AcDbXrecord
280
     1
290
     1
  0
XRECORD
  5
46AC64
102
{ACAD_REACTORS
330
46AC63
102
}
330
46AC63
100
AcDbXrecord
280
     1
290
     1
  0
XRECORD
  5
46AC66
102
{ACAD_REACTORS
330
46AC65
102
}
330
46AC65
100
AcDbXrecord
280
     1
290
     1
  0
XRECORD
  5
46AC68
102
{ACAD_REACTORS
330
46AC67
102
}
330
46AC67
100
AcDbXrecord
280
     1
290
     1
  0
XRECORD
  5
46AC6A
102
{ACAD_REACTORS
330
46AC69
102
}
330
46AC69
100
AcDbXrecord
280
     1
290
     1
  0
XRECORD
  5
46AC6C
102
{ACAD_REACTORS
330
46AC6B
102
}
330
46AC6B
100
AcDbXrecord
280
     1
290
     1
  0
XRECORD
  5
46AC6E
102
{ACAD_REACTORS
330
46AC6D
102
}
330
46AC6D
100
AcDbXrecord
280
     1
290
     1
  0
XRECORD
  5
46AC70
102
{ACAD_REACTORS
330
46AC6F
102
}
330
46AC6F
100
AcDbXrecord
280
     1
290
     1
  0
XRECORD
  5
46AC78
102
{ACAD_REACTORS
330
46AC77
102
}
330
46AC77
100
AcDbXrecord
280
     1
290
     1
  0
XRECORD
  5
46AC88
102
{ACAD_REACTORS
330
46AC87
102
}
330
46AC87
100
AcDbXrecord
280
     1
290
     1
  0
LAYOUT
  5
619
102
{ACAD_REACTORS
330
617
102
}
330
617
100
AcDbPlotSettings
  1

  2
JUST PDF 2.pc3
  4
A4
  6

 40
3.174999952316284
 41
3.174999952316284
 42
3.175003051757812
 43
3.17498779296875
 44
209.8886566162109
 45
297.0530090332031
 46
14.27
 47
9.86
 48
67635.89555986915
 49
-34265.02016306728
140
68510.87165234369
141
-32910.05678737395
142
1.0
143
5.0
 70
 11940
 72
     1
 73
     0
 74
     4
  7
spax form.ctb
 75
     0
147
0.2
148
-67635.89555986915
149
34265.02016306728
100
AcDbLayout
  1
Model
 70
     1
 71
     0
 10
0.0
 20
0.0
 11
12.0
 21
9.0
 12
0.0
 22
0.0
 32
0.0
 14
67670.9126749683
 24
-34580.81843312853
 34
0.0
 15
67829.84563198758
 25
-34434.89830977112
 35
0.0
146
0.0
 13
0.0
 23
0.0
 33
0.0
 16
1.0
 26
0.0
 36
0.0
 17
0.0
 27
1.0
 37
0.0
 76
     0
330
18
331
479B9C
1001
ACAD_PSEXT
1000
クセロPDF2
1000
XeloPDF2
1000
Xelo PDF Port2
1000

1070
     0
  0
LAYOUT
  5
61A
102
{ACAD_REACTORS
330
617
102
}
330
617
100
AcDbPlotSettings
  1

  2
Canon LASER SHOT LBP-750
  4

  6

 40
0.0
 41
0.0
 42
0.0
 43
0.0
 44
0.0
 45
0.0
 46
0.0
 47
0.0
 48
0.0
 49
0.0
140
0.0
141
0.0
142
1.0
143
1.0
 70
   688
 72
     0
 73
     0
 74
     5
  7
spax form.ctb
 75
    16
147
1.0
148
0.0
149
0.0
100
AcDbLayout
  1
ﾚｲｱｳﾄ1
 70
     0
 71
     1
 10
0.0
 20
0.0
 11
12.0
 21
9.0
 12
0.0
 22
0.0
 32
0.0
 14
1.000000000000000E+20
 24
1.000000000000000E+20
 34
1.000000000000000E+20
 15
-1.000000000000000E+20
 25
-1.000000000000000E+20
 35
-1.000000000000000E+20
146
0.0
 13
0.0
 23
0.0
 33
0.0
 16
1.0
 26
0.0
 36
0.0
 17
0.0
 27
1.0
 37
0.0
 76
     0
330
15
  0
MLINESTYLE
  5
1B
102
{ACAD_REACTORS
330
E
102
}
330
E
100
AcDbMlineStyle
  2
STANDARD
 70
     0
  3

 62
     0
 51
90.0
 52
90.0
 71
     2
 49
0.5
 62
   256
  6
BYLAYER
 49
-0.5
 62
   256
  6
BYLAYER
  0
ACDBPLACEHOLDER
  5
616
102
{ACAD_REACTORS
330
615
102
}
330
615
  0
SCALE
  5
46AC37
102
{ACAD_REACTORS
330
46AC36
102
}
330
46AC36
100
AcDbScale
 70
     0
300
1:1
140
1.0
141
1.0
290
     1
1001
ACAD
1000
AcRTDxfName
1000
SCALE
1000
AcRTDxfName
1000
SCALE
  0
SCALE
  5
46AC38
102
{ACAD_REACTORS
330
46AC36
102
}
330
46AC36
100
AcDbScale
 70
     0
300
1:2
140
1.0
141
2.0
290
     0
1001
ACAD
1000
AcRTDxfName
1000
SCALE
1000
AcRTDxfName
1000
SCALE
  0
SCALE
  5
46AC39
102
{ACAD_REACTORS
330
46AC36
102
}
330
46AC36
100
AcDbScale
 70
     0
300
1:4
140
1.0
141
4.0
290
     0
1001
ACAD
1000
AcRTDxfName
1000
SCALE
1000
AcRTDxfName
1000
SCALE
  0
SCALE
  5
46AC3A
102
{ACAD_REACTORS
330
46AC36
102
}
330
46AC36
100
AcDbScale
 70
     0
300
1:5
140
1.0
141
5.0
290
     0
1001
ACAD
1000
AcRTDxfName
1000
SCALE
1000
AcRTDxfName
1000
SCALE
  0
SCALE
  5
46AC3B
102
{ACAD_REACTORS
330
46AC36
102
}
330
46AC36
100
AcDbScale
 70
     0
300
1:8
140
1.0
141
8.0
290
     0
1001
ACAD
1000
AcRTDxfName
1000
SCALE
1000
AcRTDxfName
1000
SCALE
  0
SCALE
  5
46AC3C
102
{ACAD_REACTORS
330
46AC36
102
}
330
46AC36
100
AcDbScale
 70
     0
300
1:10
140
1.0
141
10.0
290
     0
1001
ACAD
1000
AcRTDxfName
1000
SCALE
1000
AcRTDxfName
1000
SCALE
  0
SCALE
  5
46AC3D
102
{ACAD_REACTORS
330
46AC36
102
}
330
46AC36
100
AcDbScale
 70
     0
300
1:16
140
1.0
141
16.0
290
     0
1001
ACAD
1000
AcRTDxfName
1000
SCALE
1000
AcRTDxfName
1000
SCALE
  0
SCALE
  5
46AC3E
102
{ACAD_REACTORS
330
46AC36
102
}
330
46AC36
100
AcDbScale
 70
     0
300
1:20
140
1.0
141
20.0
290
     0
1001
ACAD
1000
AcRTDxfName
1000
SCALE
1000
AcRTDxfName
1000
SCALE
  0
SCALE
  5
46AC3F
102
{ACAD_REACTORS
330
46AC36
102
}
330
46AC36
100
AcDbScale
 70
     0
300
1:30
140
1.0
141
30.0
290
     0
1001
ACAD
1000
AcRTDxfName
1000
SCALE
1000
AcRTDxfName
1000
SCALE
  0
SCALE
  5
46AC40
102
{ACAD_REACTORS
330
46AC36
102
}
330
46AC36
100
AcDbScale
 70
     0
300
1:40
140
1.0
141
40.0
290
     0
1001
ACAD
1000
AcRTDxfName
1000
SCALE
1000
AcRTDxfName
1000
SCALE
  0
SCALE
  5
46AC41
102
{ACAD_REACTORS
330
46AC36
102
}
330
46AC36
100
AcDbScale
 70
     0
300
1:50
140
1.0
141
50.0
290
     0
1001
ACAD
1000
AcRTDxfName
1000
SCALE
1000
AcRTDxfName
1000
SCALE
  0
SCALE
  5
46AC42
102
{ACAD_REACTORS
330
46AC36
102
}
330
46AC36
100
AcDbScale
 70
     0
300
1:100
140
1.0
141
100.0
290
     0
1001
ACAD
1000
AcRTDxfName
1000
SCALE
1000
AcRTDxfName
1000
SCALE
  0
SCALE
  5
46AC43
102
{ACAD_REACTORS
330
46AC36
102
}
330
46AC36
100
AcDbScale
 70
     0
300
2:1
140
2.0
141
1.0
290
     0
1001
ACAD
1000
AcRTDxfName
1000
SCALE
1000
AcRTDxfName
1000
SCALE
  0
SCALE
  5
46AC44
102
{ACAD_REACTORS
330
46AC36
102
}
330
46AC36
100
AcDbScale
 70
     0
300
4:1
140
4.0
141
1.0
290
     0
1001
ACAD
1000
AcRTDxfName
1000
SCALE
1000
AcRTDxfName
1000
SCALE
  0
SCALE
  5
46AC45
102
{ACAD_REACTORS
330
46AC36
102
}
330
46AC36
100
AcDbScale
 70
     0
300
8:1
140
8.0
141
1.0
290
     0
1001
ACAD
1000
AcRTDxfName
1000
SCALE
1000
AcRTDxfName
1000
SCALE
  0
SCALE
  5
46AC46
102
{ACAD_REACTORS
330
46AC36
102
}
330
46AC36
100
AcDbScale
 70
     0
300
10:1
140
10.0
141
1.0
290
     0
1001
ACAD
1000
AcRTDxfName
1000
SCALE
1000
AcRTDxfName
1000
SCALE
  0
SCALE
  5
46AC47
102
{ACAD_REACTORS
330
46AC36
102
}
330
46AC36
100
AcDbScale
 70
     0
300
100:1
140
100.0
141
1.0
290
     0
1001
ACAD
1000
AcRTDxfName
1000
SCALE
1000
AcRTDxfName
1000
SCALE
  0
SCALE
  5
46AC48
102
{ACAD_REACTORS
330
46AC36
102
}
330
46AC36
100
AcDbScale
 70
     0
300
1/128" = 1'-0"
140
0.0078125
141
12.0
290
     0
1001
ACAD
1000
AcRTDxfName
1000
SCALE
1000
AcRTDxfName
1000
SCALE
  0
SCALE
  5
46AC49
102
{ACAD_REACTORS
330
46AC36
102
}
330
46AC36
100
AcDbScale
 70
     0
300
1/64" = 1'-0"
140
0.015625
141
12.0
290
     0
1001
ACAD
1000
AcRTDxfName
1000
SCALE
1000
AcRTDxfName
1000
SCALE
  0
SCALE
  5
46AC4A
102
{ACAD_REACTORS
330
46AC36
102
}
330
46AC36
100
AcDbScale
 70
     0
300
1/32" = 1'-0"
140
0.03125
141
12.0
290
     0
1001
ACAD
1000
AcRTDxfName
1000
SCALE
1000
AcRTDxfName
1000
SCALE
  0
SCALE
  5
46AC4B
102
{ACAD_REACTORS
330
46AC36
102
}
330
46AC36
100
AcDbScale
 70
     0
300
1/16" = 1'-0"
140
0.0625
141
12.0
290
     0
1001
ACAD
1000
AcRTDxfName
1000
SCALE
1000
AcRTDxfName
1000
SCALE
  0
SCALE
  5
46AC4C
102
{ACAD_REACTORS
330
46AC36
102
}
330
46AC36
100
AcDbScale
 70
     0
300
3/32" = 1'-0"
140
0.09375
141
12.0
290
     0
1001
ACAD
1000
AcRTDxfName
1000
SCALE
1000
AcRTDxfName
1000
SCALE
  0
SCALE
  5
46AC4D
102
{ACAD_REACTORS
330
46AC36
102
}
330
46AC36
100
AcDbScale
 70
     0
300
1/8" = 1'-0"
140
0.125
141
12.0
290
     0
1001
ACAD
1000
AcRTDxfName
1000
SCALE
1000
AcRTDxfName
1000
SCALE
  0
SCALE
  5
46AC4E
102
{ACAD_REACTORS
330
46AC36
102
}
330
46AC36
100
AcDbScale
 70
     0
300
3/16" = 1'-0"
140
0.1875
141
12.0
290
     0
1001
ACAD
1000
AcRTDxfName
1000
SCALE
1000
AcRTDxfName
1000
SCALE
  0
SCALE
  5
46AC4F
102
{ACAD_REACTORS
330
46AC36
102
}
330
46AC36
100
AcDbScale
 70
     0
300
1/4" = 1'-0"
140
0.25
141
12.0
290
     0
1001
ACAD
1000
AcRTDxfName
1000
SCALE
1000
AcRTDxfName
1000
SCALE
  0
SCALE
  5
46AC50
102
{ACAD_REACTORS
330
46AC36
102
}
330
46AC36
100
AcDbScale
 70
     0
300
3/8" = 1'-0"
140
0.375
141
12.0
290
     0
1001
ACAD
1000
AcRTDxfName
1000
SCALE
1000
AcRTDxfName
1000
SCALE
  0
SCALE
  5
46AC51
102
{ACAD_REACTORS
330
46AC36
102
}
330
46AC36
100
AcDbScale
 70
     0
300
1/2" = 1'-0"
140
0.5
141
12.0
290
     0
1001
ACAD
1000
AcRTDxfName
1000
SCALE
1000
AcRTDxfName
1000
SCALE
  0
SCALE
  5
46AC52
102
{ACAD_REACTORS
330
46AC36
102
}
330
46AC36
100
AcDbScale
 70
     0
300
3/4" = 1'-0"
140
0.75
141
12.0
290
     0
1001
ACAD
1000
AcRTDxfName
1000
SCALE
1000
AcRTDxfName
1000
SCALE
  0
SCALE
  5
46AC53
102
{ACAD_REACTORS
330
46AC36
102
}
330
46AC36
100
AcDbScale
 70
     0
300
1" = 1'-0"
140
1.0
141
12.0
290
     0
1001
ACAD
1000
AcRTDxfName
1000
SCALE
1000
AcRTDxfName
1000
SCALE
  0
SCALE
  5
46AC54
102
{ACAD_REACTORS
330
46AC36
102
}
330
46AC36
100
AcDbScale
 70
     0
300
1-1/2" = 1'-0"
140
1.5
141
12.0
290
     0
1001
ACAD
1000
AcRTDxfName
1000
SCALE
1000
AcRTDxfName
1000
SCALE
  0
SCALE
  5
46AC55
102
{ACAD_REACTORS
330
46AC36
102
}
330
46AC36
100
AcDbScale
 70
     0
300
3" = 1'-0"
140
3.0
141
12.0
290
     0
1001
ACAD
1000
AcRTDxfName
1000
SCALE
1000
AcRTDxfName
1000
SCALE
  0
SCALE
  5
46AC56
102
{ACAD_REACTORS
330
46AC36
102
}
330
46AC36
100
AcDbScale
 70
     0
300
6" = 1'-0"
140
6.0
141
12.0
290
     0
1001
ACAD
1000
AcRTDxfName
1000
SCALE
1000
AcRTDxfName
1000
SCALE
  0
SCALE
  5
46AC57
102
{ACAD_REACTORS
330
46AC36
102
}
330
46AC36
100
AcDbScale
 70
     0
300
1'-0" = 1'-0"
140
12.0
141
12.0
290
     0
1001
ACAD
1000
AcRTDxfName
1000
SCALE
1000
AcRTDxfName
1000
SCALE
  0
DICTIONARYVAR
  5
6DF
102
{ACAD_REACTORS
330
6DE
102
}
330
6DE
100
DictionaryVariables
280
     0
  1
1
  0
DICTIONARYVAR
  5
46ACE7
102
{ACAD_REACTORS
330
6DE
102
}
330
6DE
100
DictionaryVariables
280
     0
  1
0
  0
DICTIONARYVAR
  5
6E0
102
{ACAD_REACTORS
330
6DE
102
}
330
6DE
100
DictionaryVariables
280
     0
  1

  0
DICTIONARYVAR
  5
46ACE6
102
{ACAD_REACTORS
330
6DE
102
}
330
6DE
100
DictionaryVariables
280
     0
  1
1
  0
XRECORD
  5
44CC64
102
{ACAD_REACTORS
330
44CC62
102
}
330
44CC62
100
AcDbXrecord
280
     1
330
0
330
0
330
0
330
0
330
0
330
0
330
0
330
0
330
0
330
0
330
0
330
0
330
0
330
0
330
0
330
0
330
0
330
0
330
0
330
0
330
0
330
0
330
0
330
0
330
0
330
0
330
0
330
0
330
0
330
0
330
0
330
0
330
0
330
0
330
0
330
0
330
0
330
0
330
0
330
0
330
0
330
0
330
0
330
0
330
0
330
0
330
0
330
0
330
0
330
0
330
0
330
0
330
0
330
0
330
0
330
0
330
0
330
0
330
0
330
0
330
0
330
0
330
0
330
0
330
0
330
0
330
0
330
0
330
0
330
0
330
0
330
0
330
0
330
0
330
0
330
0
330
0
330
0
330
0
330
0
330
0
330
0
330
0
330
0
330
0
330
0
330
0
330
0
330
0
330
0
330
0
330
0
330
0
330
0
330
0
330
0
330
0
330
0
330
0
330
0
330
0
330
0
330
0
330
0
330
0
330
0
330
0
330
0
330
0
330
0
330
0
330
0
330
0
330
0
330
0
330
0
330
0
330
0
330
0
330
0
330
0
330
0
330
0
330
0
330
0
330
0
330
0
330
0
330
0
330
0
330
0
330
0
330
0
330
0
330
0
330
0
330
0
330
0
330
0
330
0
330
0
330
0
330
0
330
0
330
0
330
0
330
0
330
0
330
0
330
0
330
0
330
0
330
0
330
0
330
0
330
0
330
0
330
0
330
0
330
0
330
0
330
0
330
0
330
0
330
0
330
0
330
0
330
0
330
0
330
0
330
0
330
0
330
0
330
0
330
0
330
0
330
0
330
0
330
0
330
0
330
0
330
0
330
0
330
0
330
0
330
0
330
0
330
0
330
0
330
0
330
0
330
0
330
0
330
0
330
0
330
0
330
0
330
0
330
0
330
0
330
0
330
0
330
0
330
0
330
0
330
0
330
0
330
0
330
0
330
0
330
0
330
0
330
0
330
0
330
0
330
0
330
0
330
0
330
0
330
0
330
0
330
0
330
0
330
0
330
0
330
0
330
0
330
0
330
0
330
0
330
0
330
0
330
0
330
0
330
0
330
0
330
0
330
0
330
0
330
0
330
0
330
0
330
0
330
0
330
0
330
0
330
0
330
0
330
0
330
0
330
0
330
0
330
0
330
0
330
0
330
0
330
0
330
0
330
0
330
0
330
0
330
0
330
0
330
0
330
0
330
0
330
0
330
0
330
0
330
0
330
0
330
0
330
0
330
0
330
0
330
0
330
0
330
0
330
0
330
0
330
0
330
0
330
0
330
0
330
0
330
0
330
0
330
0
330
0
330
0
330
0
330
0
330
0
330
0
330
0
330
0
330
0
330
0
330
0
330
0
330
0
330
0
330
0
330
0
330
0
330
0
330
0
330
0
330
0
330
0
330
0
330
0
330
0
330
0
330
0
330
0
330
0
330
0
330
0
330
0
330
0
330
0
330
0
330
0
330
0
330
0
330
0
330
0
330
0
330
0
330
0
330
0
330
0
330
0
330
0
330
0
330
0
330
0
330
0
330
0
330
0
330
0
330
0
330
0
330
0
330
0
330
0
330
0
330
0
330
0
330
0
330
0
330
0
330
0
330
0
330
0
330
0
330
0
330
0
330
0
330
0
330
0
330
0
330
0
330
0
330
0
330
0
330
0
330
0
330
0
330
0
330
0
330
0
330
0
330
0
330
0
330
0
330
0
330
0
330
0
330
0
330
0
330
0
330
0
330
0
330
0
330
0
330
0
330
0
330
0
330
0
330
0
330
0
330
0
330
0
330
0
330
0
330
0
330
0
330
0
330
0
330
0
330
0
330
0
330
0
330
0
330
0
330
0
330
0
330
0
330
0
330
0
330
0
330
0
330
0
330
0
330
0
330
0
330
0
330
0
330
0
330
0
330
0
330
0
330
0
330
0
330
0
330
0
330
0
330
0
330
0
330
0
330
0
330
0
330
0
330
0
330
0
330
0
330
0
330
0
330
0
330
0
330
0
330
0
330
0
330
0
330
0
330
0
330
0
330
0
330
0
330
0
330
0
330
0
330
0
330
0
330
0
330
0
330
0
330
0
330
0
330
0
330
0
330
0
330
0
330
0
330
0
330
0
330
0
330
0
330
0
330
0
330
0
330
0
330
0
330
0
330
0
330
0
330
0
330
0
330
0
330
0
330
0
330
0
330
0
330
0
330
0
330
0
330
0
330
0
330
0
330
0
330
0
330
0
330
0
330
0
330
0
330
0
330
0
330
0
330
0
330
0
330
0
330
0
330
0
330
0
330
0
330
0
330
0
330
0
330
0
330
0
330
0
330
0
330
0
330
0
330
0
330
0
330
0
330
0
330
0
330
0
330
0
330
0
330
0
330
0
330
0
330
0
330
0
330
0
330
0
330
0
330
0
330
0
330
0
330
0
330
0
330
0
330
0
330
0
330
0
330
0
330
0
330
0
330
0
330
0
330
0
330
0
330
0
330
0
330
0
330
0
330
0
330
0
330
0
330
0
330
0
330
0
330
0
330
0
330
0
330
0
330
0
330
0
330
0
330
0
330
0
330
0
330
0
330
0
330
0
330
0
330
0
330
0
330
0
330
0
330
0
330
0
330
0
330
0
330
0
330
0
330
0
330
0
330
0
330
0
330
0
330
0
330
0
330
0
330
0
330
0
330
0
330
0
330
0
330
0
330
0
330
0
330
0
330
0
330
0
330
0
330
0
330
0
330
0
330
0
330
0
330
0
330
0
330
0
330
0
330
0
330
0
330
0
330
0
330
0
330
0
330
0
330
0
330
0
330
0
330
0
330
0
330
0
330
0
330
0
330
0
330
0
330
0
330
0
330
0
330
0
330
0
330
0
330
0
330
0
330
0
330
0
330
0
330
0
330
0
330
0
330
0
330
0
330
0
330
0
330
0
330
0
330
0
330
0
330
0
330
0
330
0
330
0
330
0
330
0
330
0
330
0
330
0
330
0
330
0
330
0
330
0
330
0
330
0
330
0
330
0
330
0
330
0
330
0
330
0
330
0
330
0
330
0
330
0
330
0
330
0
330
0
330
0
330
0
330
0
330
0
330
0
330
0
330
0
330
0
330
0
330
0
330
0
330
0
330
0
330
0
330
0
330
0
330
0
330
0
330
0
330
0
330
0
330
0
330
0
330
0
330
0
330
0
330
0
330
0
330
0
330
0
330
0
330
0
330
0
330
0
330
0
330
0
330
0
330
0
330
0
330
0
330
0
330
0
330
0
330
0
330
0
330
0
330
0
330
0
330
0
330
0
330
0
330
0
330
0
330
0
330
0
330
0
330
0
330
0
330
0
330
0
330
0
330
0
330
0
330
0
330
0
330
0
330
0
330
0
330
0
330
0
330
0
330
0
330
0
330
0
330
0
330
0
330
0
330
0
330
0
330
0
330
0
330
0
330
0
330
0
330
0
330
0
330
0
330
0
330
0
330
0
330
0
330
0
330
0
330
0
330
0
330
0
330
0
330
0
330
0
330
0
330
0
330
0
330
0
330
0
330
0
330
0
330
0
330
0
330
0
330
0
330
0
330
0
330
0
330
0
330
0
330
0
330
0
330
0
330
0
330
0
330
0
330
0
330
0
330
0
330
0
330
0
330
0
330
0
330
0
330
0
330
0
330
0
330
0
330
0
330
0
330
0
330
0
330
0
330
0
330
0
330
0
330
0
330
0
330
0
330
0
330
0
330
0
330
0
330
0
330
0
330
0
330
0
330
0
330
0
330
0
330
0
330
0
330
0
330
0
330
0
330
0
330
0
330
0
330
0
330
0
330
0
330
0
330
0
330
0
330
0
330
0
330
0
330
0
330
0
330
0
330
0
330
0
330
0
330
0
330
0
330
0
330
0
330
0
330
0
330
0
330
0
330
0
330
0
330
0
330
0
330
0
330
0
330
0
330
0
330
0
330
0
330
0
330
0
330
0
330
0
330
0
330
0
330
0
330
0
330
0
330
0
330
0
330
0
330
0
330
0
330
0
330
0
330
0
330
0
330
0
330
0
330
0
330
0
330
0
330
0
330
0
330
0
330
0
330
0
330
0
330
0
330
0
330
0
330
0
330
0
330
0
330
0
330
0
330
0
330
0
330
0
330
0
330
0
330
0
330
0
330
0
330
0
330
0
330
0
330
0
330
0
330
0
330
0
330
0
330
0
330
0
330
0
330
0
330
0
330
0
330
0
330
0
330
0
330
0
330
0
330
0
330
0
330
0
330
0
330
0
330
0
330
0
330
0
330
0
330
0
330
0
330
0
330
0
330
0
330
0
330
0
330
0
330
0
330
0
330
0
330
0
330
0
330
0
330
0
330
0
330
0
330
0
330
0
330
0
330
0
330
0
330
0
330
0
330
0
330
0
330
0
330
0
330
0
330
0
330
0
330
0
330
0
330
0
330
0
330
0
330
0
330
0
330
0
330
0
330
0
330
0
330
0
330
0
330
0
330
0
330
0
330
0
330
0
330
0
330
0
330
0
330
0
330
0
330
0
330
0
330
0
330
0
330
0
330
0
330
0
330
0
330
0
330
0
330
0
330
0
330
0
330
0
330
0
330
0
330
0
330
0
330
0
330
0
330
0
330
0
330
0
330
0
330
0
330
0
330
0
330
0
330
0
330
0
330
0
330
0
330
0
330
0
330
0
330
0
330
0
330
0
330
0
330
0
330
0
330
0
330
0
330
0
330
0
330
0
330
0
330
0
330
0
330
0
330
0
330
0
330
0
330
0
330
0
330
0
330
0
330
0
330
0
330
0
330
0
330
0
330
0
330
0
330
0
330
0
330
0
330
0
330
0
330
0
330
0
330
0
330
0
330
0
330
0
330
0
330
0
330
0
330
0
330
0
330
0
330
0
330
0
330
0
330
0
330
0
330
0
330
0
330
0
330
0
330
0
330
0
330
0
330
0
330
0
330
0
330
0
330
0
330
0
330
0
330
0
330
0
330
0
330
0
330
0
330
0
330
0
330
0
330
0
330
0
330
0
330
0
330
0
330
0
330
0
330
0
330
0
330
0
330
0
330
0
330
0
330
0
330
0
330
0
330
0
330
0
330
0
330
0
330
0
330
0
330
0
330
0
330
0
330
0
330
0
330
0
330
0
330
0
330
0
330
0
330
0
330
0
330
0
330
0
330
0
330
0
330
0
330
0
330
0
330
0
330
0
330
0
330
0
330
0
330
0
330
0
330
0
330
0
330
0
330
0
330
0
330
0
330
0
330
0
330
0
330
0
330
0
330
0
330
0
330
0
330
0
330
0
330
0
330
0
330
0
330
0
330
0
330
0
330
0
330
0
330
0
330
0
330
0
330
0
330
0
330
0
330
0
330
0
330
0
330
0
330
0
330
0
330
0
330
0
330
0
330
0
330
0
330
0
330
0
330
0
330
0
330
0
330
0
330
0
330
0
330
0
330
0
330
0
330
0
330
0
330
0
330
0
330
0
330
0
330
0
330
0
330
0
330
0
330
0
330
0
330
0
330
0
330
0
330
0
330
0
330
0
330
0
330
0
330
0
330
0
330
0
330
0
330
0
330
0
330
0
330
0
330
0
330
0
330
0
330
0
330
0
330
0
330
0
330
0
330
0
330
0
330
0
330
0
330
0
330
0
330
0
330
0
330
0
330
0
330
0
330
0
330
0
330
0
330
0
330
0
330
0
330
0
330
0
330
0
330
0
330
0
330
0
330
0
330
0
330
0
330
0
330
0
330
0
330
0
330
0
330
0
330
0
330
0
330
0
330
0
330
0
330
0
330
0
330
0
330
0
330
0
330
0
330
0
330
0
330
0
330
0
330
0
330
0
330
0
330
0
330
0
330
0
330
0
330
0
330
0
330
0
330
0
330
0
330
0
330
0
330
0
330
0
330
0
330
0
330
0
330
0
330
0
330
0
330
0
330
0
330
0
330
0
330
0
330
0
330
0
330
0
330
0
330
0
330
0
330
0
330
0
330
0
330
0
330
0
330
0
330
0
330
0
330
0
330
0
330
0
330
0
330
0
330
0
330
0
330
0
330
0
330
0
330
0
330
0
330
0
330
0
330
0
330
0
330
0
330
0
330
0
330
0
330
0
330
0
330
0
330
0
330
0
330
0
330
0
330
0
330
0
330
0
330
0
330
0
330
0
330
0
330
0
330
0
330
0
330
0
330
0
330
0
330
0
330
0
330
0
330
0
330
0
330
0
330
0
330
0
330
0
330
0
330
0
330
0
330
0
330
0
330
0
330
0
330
0
330
0
330
0
330
0
330
0
330
0
330
0
330
0
330
0
330
0
330
0
330
0
330
0
330
0
330
0
330
0
330
0
330
0
330
0
330
0
330
0
330
0
330
0
330
0
330
0
330
0
330
0
330
0
330
0
330
0
330
0
330
0
330
0
330
0
330
0
330
0
330
0
330
0
330
0
330
0
330
0
330
0
330
0
330
0
330
0
330
0
330
0
330
0
330
0
330
0
330
0
330
0
330
0
330
0
330
0
330
0
330
0
330
0
330
0
330
0
330
0
330
0
330
0
330
0
330
0
330
0
330
0
330
0
330
0
330
0
330
0
330
0
330
0
330
0
330
0
330
0
330
0
330
0
330
0
330
0
330
0
330
0
330
0
330
0
330
0
330
0
330
0
330
0
330
0
330
0
330
0
330
0
330
0
330
0
330
0
330
0
330
0
330
0
330
0
330
0
330
0
330
0
330
0
330
0
330
0
330
0
330
0
330
0
330
0
330
0
330
0
330
0
330
0
330
0
330
0
330
0
330
0
330
0
330
0
330
0
330
0
330
0
330
0
330
0
330
0
330
0
330
0
330
0
330
0
330
0
330
0
330
0
330
0
330
0
330
0
330
0
330
0
330
0
330
0
330
0
330
0
330
0
330
0
330
0
330
0
330
0
330
0
330
0
330
0
330
0
330
0
330
0
330
0
330
0
330
0
330
0
330
0
330
0
330
0
330
0
330
0
330
0
330
0
330
0
330
0
330
0
330
0
330
0
330
0
330
0
330
0
330
0
330
0
330
0
330
0
330
0
330
0
330
0
330
0
330
0
330
0
330
0
330
0
330
0
330
0
330
0
330
0
330
0
330
0
330
0
330
0
330
0
330
0
330
0
330
0
330
0
330
0
330
0
330
0
330
0
330
0
330
0
330
0
330
0
330
0
330
0
330
0
330
0
330
0
330
0
330
0
330
0
330
0
330
0
330
0
330
0
330
0
330
0
330
0
330
0
330
0
330
0
330
0
330
0
330
0
330
0
330
0
330
0
330
0
330
0
330
0
330
0
330
0
330
0
330
0
330
0
330
0
330
0
330
0
330
0
330
0
330
0
330
0
330
0
330
0
330
0
330
0
330
0
330
0
330
0
330
0
330
0
330
0
330
0
330
0
330
0
330
0
330
0
330
0
330
0
330
0
330
0
330
0
330
0
330
0
330
0
330
0
330
0
330
0
330
0
330
0
330
0
330
0
330
0
330
0
330
0
330
0
330
0
330
0
330
0
330
0
330
0
330
0
330
0
330
0
330
0
330
0
330
0
330
0
330
0
330
0
330
0
330
0
330
0
330
0
330
0
330
0
330
0
330
0
330
0
330
0
330
0
330
0
330
0
330
0
330
0
330
0
330
0
330
0
330
0
330
0
330
0
330
0
330
0
330
0
330
0
330
0
330
0
330
0
330
0
330
0
330
0
330
0
330
0
330
0
330
0
330
0
330
0
330
0
330
0
330
0
330
0
330
0
330
0
330
0
330
0
330
0
330
0
330
0
330
0
330
0
330
0
330
0
330
0
330
0
330
0
330
0
330
0
330
0
330
0
330
0
330
0
330
0
330
0
330
0
330
0
330
0
330
0
330
0
330
0
330
0
330
0
330
0
330
0
330
0
330
0
330
0
330
0
330
0
330
0
330
0
330
0
330
0
330
0
330
0
330
0
330
0
330
0
330
0
330
0
330
0
330
0
330
0
330
0
330
0
330
0
330
0
330
0
330
0
330
0
330
0
330
0
330
0
330
0
330
0
330
0
330
0
330
0
330
0
330
0
330
0
330
0
330
0
330
0
330
0
330
0
330
0
330
0
330
0
330
0
330
0
330
0
330
0
330
0
330
0
330
0
330
0
330
0
330
0
330
0
330
0
330
0
330
0
330
0
330
0
330
0
330
0
330
0
330
0
330
0
330
0
330
0
330
0
330
0
330
0
330
0
330
0
330
0
330
0
330
0
330
0
330
0
330
0
330
0
330
0
330
0
330
0
330
0
330
0
330
0
330
0
330
0
330
0
330
0
330
0
330
0
330
0
330
0
330
0
330
0
330
0
330
0
330
0
330
0
330
0
330
0
330
0
330
0
330
0
330
0
330
0
330
0
330
0
330
0
330
0
330
0
330
0
330
0
330
0
330
0
330
0
330
0
330
0
330
0
330
0
330
0
330
0
330
0
330
0
330
0
330
0
330
0
330
0
330
0
330
0
330
0
330
0
330
0
330
0
330
0
330
0
330
0
330
0
330
0
330
0
330
0
330
0
330
0
330
0
330
0
330
0
330
0
330
0
330
0
330
0
330
0
330
0
330
0
330
0
330
0
330
0
330
0
330
0
330
0
330
0
330
0
330
0
330
0
330
0
330
0
330
0
330
0
330
0
330
0
330
0
330
0
330
0
330
0
330
0
330
0
330
0
330
0
330
0
330
0
330
0
330
0
330
0
330
0
330
0
330
0
330
0
330
0
330
0
330
0
330
0
330
0
330
0
330
0
330
0
330
0
330
0
330
0
330
0
330
0
330
0
330
0
330
0
330
0
330
0
330
0
330
0
330
0
330
0
330
0
330
0
330
0
330
0
330
0
330
0
330
0
330
0
330
0
330
0
330
0
330
0
330
0
330
0
330
0
330
0
330
0
330
0
330
0
330
0
330
0
330
0
330
0
330
0
330
0
330
0
330
0
330
0
330
0
330
0
330
0
330
0
330
0
330
0
330
0
330
0
330
0
330
0
330
0
330
0
330
0
330
0
330
0
330
0
330
0
330
0
330
0
330
0
330
0
330
0
330
0
330
0
330
0
330
0
330
0
330
0
330
0
330
0
330
0
330
0
330
0
330
0
330
0
330
0
330
0
330
0
330
0
330
0
330
0
330
0
330
0
330
0
330
0
330
0
330
0
330
0
330
0
330
0
330
0
330
0
330
0
330
0
330
0
330
0
330
0
330
0
330
0
330
0
330
0
330
0
330
0
330
0
330
0
330
0
330
0
330
0
330
0
330
0
330
0
330
0
330
0
330
0
330
0
330
0
330
0
330
0
330
0
330
0
330
0
330
0
330
0
330
0
330
0
330
0
330
0
330
0
330
0
330
0
330
0
330
0
330
0
330
0
330
0
330
0
330
0
330
0
330
0
330
0
330
0
330
0
330
0
330
0
330
0
330
0
330
0
330
0
330
0
330
0
330
0
330
0
330
0
330
0
330
0
330
0
330
0
330
0
330
0
330
0
330
0
330
0
330
0
330
0
330
0
330
0
330
0
330
0
330
0
330
0
330
0
330
0
330
0
330
0
330
0
330
0
330
0
330
0
330
0
330
0
330
0
330
0
330
0
330
0
330
0
330
0
330
0
330
0
330
0
330
0
330
0
330
0
330
0
330
0
330
0
330
0
330
0
330
0
330
0
330
0
330
0
330
0
330
0
330
0
330
0
330
0
330
0
330
0
330
0
330
0
330
0
330
0
330
0
330
0
330
0
330
0
330
0
330
0
330
0
330
0
330
0
330
0
330
0
330
0
330
0
330
0
330
0
330
0
330
0
330
0
330
0
330
0
330
0
330
0
330
0
330
0
330
0
330
0
330
0
330
0
330
0
330
0
330
0
330
0
330
0
330
0
330
0
330
0
330
0
330
0
330
0
330
0
330
0
330
0
330
0
330
0
330
0
330
0
330
0
330
0
330
0
330
0
330
0
330
0
330
0
330
0
330
0
330
0
330
0
330
0
330
0
330
0
330
0
330
0
330
0
330
0
330
0
330
0
330
0
330
0
330
0
330
0
330
0
330
0
330
0
330
0
330
0
330
0
330
0
330
0
330
0
330
0
330
0
330
0
330
0
330
0
330
0
330
0
330
0
330
0
330
0
330
0
330
0
330
0
330
0
330
0
330
0
330
0
330
0
330
0
330
0
330
0
330
0
330
0
330
0
330
0
330
0
330
0
330
0
330
0
330
0
330
0
330
0
330
0
330
0
330
0
330
0
330
0
330
0
330
0
330
0
330
0
330
0
330
0
330
0
330
0
330
0
330
0
330
0
330
0
330
0
330
0
330
0
330
0
330
0
330
0
330
0
330
0
330
0
330
0
330
0
330
0
330
0
330
0
330
0
330
0
330
0
330
0
330
0
330
0
330
0
330
0
330
0
330
0
330
0
330
0
330
0
330
0
330
0
330
0
330
0
330
0
330
0
330
0
330
0
330
0
330
0
330
0
330
0
330
0
330
0
330
0
330
0
330
0
330
0
330
0
330
0
330
0
330
0
330
0
330
0
330
0
330
0
330
0
330
0
330
0
330
0
330
0
330
0
330
0
330
0
330
0
330
0
330
0
330
0
330
0
330
0
330
0
330
0
330
0
330
0
330
0
330
0
330
0
330
0
330
0
330
0
330
0
330
0
330
0
330
0
330
0
330
0
330
0
330
0
330
0
330
0
330
0
330
0
330
0
330
0
330
0
330
0
330
0
330
0
330
0
330
0
330
0
330
0
330
0
330
0
330
0
330
0
330
0
330
0
330
0
330
0
330
0
330
0
330
0
330
0
330
0
330
0
330
0
330
0
330
0
330
0
330
0
330
0
330
0
330
0
330
0
330
0
330
0
330
0
330
0
330
0
330
0
330
0
330
0
330
0
330
0
330
0
330
0
330
0
330
0
330
0
330
0
330
0
330
0
330
0
330
0
330
0
330
0
330
0
330
0
330
0
330
0
330
0
330
0
330
0
330
0
330
0
330
0
330
0
330
0
330
0
330
0
330
0
330
0
330
0
330
0
330
0
330
0
330
0
330
0
330
0
330
0
330
0
330
0
330
0
330
0
330
0
330
0
330
0
330
0
330
0
330
0
330
0
330
0
330
0
330
0
330
0
330
0
330
0
330
0
330
0
330
0
330
0
330
0
330
0
330
0
330
0
330
0
330
0
330
0
330
0
330
0
330
0
330
0
330
0
330
0
330
0
330
0
330
0
330
0
330
0
330
0
330
0
330
0
330
0
330
0
330
0
330
0
330
0
330
0
330
0
330
0
330
0
330
0
330
0
330
0
330
0
330
0
330
0
330
0
330
0
330
0
330
0
330
0
330
0
330
0
330
0
330
0
330
0
330
0
330
0
330
0
330
0
330
0
330
0
330
0
330
0
330
0
330
0
330
0
330
0
330
0
330
0
330
0
330
0
330
0
330
0
330
0
330
0
330
0
330
0
330
0
330
0
330
0
330
0
330
0
330
0
330
0
330
0
330
0
330
0
330
0
330
0
330
0
330
0
330
0
330
0
330
0
330
0
330
0
330
0
330
0
330
0
330
0
330
0
330
0
330
0
330
0
330
0
330
0
330
0
330
0
330
0
330
0
330
0
330
0
330
0
330
0
330
0
330
0
330
0
330
0
330
0
330
0
330
0
330
0
330
0
330
0
330
0
330
0
330
0
330
0
330
0
330
0
330
0
330
0
330
0
330
0
330
0
330
0
330
0
330
0
330
0
330
0
330
0
330
0
330
0
330
0
330
0
330
0
330
0
330
0
330
0
330
0
330
0
330
0
330
0
330
0
330
0
330
0
330
0
330
0
330
0
330
0
330
0
330
0
330
0
330
0
330
0
330
0
330
0
330
0
330
0
330
0
330
0
330
0
330
0
330
0
330
0
330
0
330
0
330
0
330
0
330
0
330
0
330
0
330
0
330
0
330
0
330
0
330
0
330
0
330
0
330
0
330
0
330
0
330
0
330
0
330
0
330
0
330
0
330
0
330
0
330
0
330
0
330
0
330
0
330
0
330
0
330
0
330
0
330
0
330
0
330
0
330
0
330
0
330
0
330
0
330
0
330
0
330
0
330
0
330
0
330
0
330
0
330
0
330
0
330
0
330
0
330
0
330
0
330
0
330
0
330
0
330
0
330
0
330
0
330
0
330
0
330
0
330
0
330
0
330
0
330
0
330
0
330
0
330
0
330
0
330
0
330
0
330
0
330
0
330
0
330
0
330
0
330
0
330
0
330
0
330
0
330
0
330
0
330
0
330
0
330
0
330
0
330
0
330
0
330
0
330
0
330
0
330
0
330
0
330
0
330
0
330
0
330
0
330
0
330
0
330
0
330
0
330
0
330
0
330
0
330
0
330
0
330
0
330
0
330
0
330
0
330
3E349F
330
3E34A0
330
3E34AB
330
3E34AC
330
3E34B7
330
3E34B8
330
0
330
0
330
0
330
0
330
0
330
0
330
0
330
0
330
0
330
0
330
0
330
0
330
0
330
0
330
0
330
0
330
0
330
0
330
0
330
0
330
0
330
0
330
0
330
0
330
0
330
0
330
0
330
0
330
0
330
0
330
0
330
0
330
0
330
0
330
0
330
0
330
0
330
0
330
0
330
0
330
0
330
0
330
0
330
0
330
0
330
0
330
0
330
0
330
0
330
0
330
0
330
0
330
0
330
0
330
0
330
0
330
0
330
0
330
0
330
0
330
0
330
0
330
0
330
0
330
0
330
0
330
0
330
0
330
0
330
0
330
0
330
0
330
0
330
0
330
0
330
0
330
0
330
0
330
0
330
0
330
0
330
0
330
0
330
0
330
0
330
0
330
0
330
3E406D
330
3E406E
330
3E4079
330
3E407A
330
3E4085
330
3E4086
330
3E4092
330
3E4093
330
3E409D
330
3E409E
330
0
330
0
330
0
330
0
330
0
330
0
330
0
330
0
330
0
330
0
330
0
330
0
330
0
330
0
330
0
330
0
330
0
330
0
330
0
330
0
330
0
330
0
330
0
330
0
330
0
330
0
330
0
330
0
330
0
330
0
330
0
330
0
330
0
330
0
330
0
330
0
330
0
330
0
330
0
330
0
330
0
330
0
330
0
330
0
330
0
330
0
330
0
330
0
330
0
330
0
330
0
330
0
330
0
330
0
330
0
330
0
330
0
330
0
330
0
330
0
330
0
330
0
330
0
330
0
330
0
330
0
330
0
330
0
330
0
330
0
330
0
330
0
330
0
330
0
330
0
330
0
330
0
330
0
330
0
330
0
330
0
330
0
330
0
330
0
330
0
330
0
330
0
330
0
330
0
330
0
330
0
330
0
330
0
330
0
330
0
330
0
330
0
330
0
330
0
330
0
330
0
330
0
330
0
330
0
330
0
330
0
330
0
330
0
330
0
330
0
330
0
330
0
330
0
330
0
330
0
330
0
330
0
330
0
330
0
330
0
330
0
330
0
330
0
330
0
330
0
330
0
330
0
330
0
330
0
330
0
330
0
330
0
330
0
330
0
330
0
330
0
330
0
330
0
330
0
330
0
330
0
330
0
330
0
330
0
330
0
330
0
330
0
330
0
330
0
330
0
330
0
330
0
330
0
330
0
330
0
330
0
330
0
330
0
330
0
330
0
330
0
330
0
330
0
330
0
330
0
330
0
330
0
330
0
330
0
330
0
330
0
330
0
330
0
330
0
330
0
330
0
330
0
330
0
330
0
330
0
330
0
330
0
330
0
330
0
330
0
330
0
330
0
330
0
330
0
330
0
330
0
330
0
330
0
330
0
330
0
330
0
330
0
330
0
330
0
330
0
330
0
330
0
330
0
330
0
330
0
330
0
330
0
330
0
330
0
330
0
330
0
330
0
330
0
330
0
330
0
330
0
330
0
330
0
330
0
330
0
330
0
330
0
330
0
330
0
330
0
330
0
330
0
330
0
330
0
330
0
330
0
330
0
330
0
330
0
330
0
330
0
330
0
330
0
330
0
330
0
330
0
330
0
330
0
330
0
330
0
330
0
330
0
330
0
330
0
330
0
330
0
330
0
330
0
330
0
330
0
330
0
330
0
330
0
330
0
330
0
330
0
330
0
330
0
330
0
330
0
330
0
330
0
330
0
330
0
330
0
330
0
330
0
330
0
330
0
330
0
330
0
330
0
330
0
330
0
330
0
330
0
330
0
330
0
330
0
330
0
330
0
330
0
330
0
330
0
330
0
330
0
330
0
330
0
330
0
330
0
330
0
330
0
330
0
330
0
330
0
330
0
330
0
330
0
330
0
330
0
330
0
330
0
330
0
330
0
330
0
330
0
330
0
330
0
330
0
330
0
330
0
330
0
330
0
330
0
330
0
330
0
330
0
330
0
330
0
330
0
330
0
330
0
330
0
330
0
330
0
330
0
330
0
330
0
330
0
330
0
330
0
330
0
330
0
330
0
330
0
330
0
330
0
330
0
330
0
330
0
330
0
330
0
330
0
330
0
330
0
330
0
330
0
330
0
330
0
330
0
330
0
330
0
330
0
330
0
330
0
330
0
330
0
330
0
330
0
330
0
330
0
330
0
330
0
330
0
330
0
330
0
330
0
330
0
330
0
330
0
330
0
330
0
330
0
330
0
330
0
330
0
330
0
330
0
330
0
330
0
330
0
330
0
330
0
330
0
330
0
330
0
330
0
330
0
330
0
330
0
330
0
330
0
330
0
330
0
330
0
330
0
330
0
330
0
330
0
330
0
330
0
330
0
330
0
330
0
330
0
330
0
330
0
330
0
330
0
330
0
330
0
330
0
330
0
330
0
330
0
330
0
330
0
330
0
330
0
330
0
330
0
330
0
330
0
330
0
330
0
330
0
330
0
330
0
330
0
330
0
330
0
330
0
330
0
330
0
330
0
330
0
330
0
330
0
330
0
330
0
330
0
330
0
330
0
330
0
330
0
330
0
330
0
330
0
330
0
330
0
330
0
330
0
330
0
330
0
330
0
330
0
330
0
330
0
330
0
330
0
330
0
330
0
330
0
330
0
330
0
330
0
330
0
330
0
330
0
330
0
330
0
330
0
330
0
330
0
330
0
330
0
330
0
330
0
330
0
330
0
330
0
330
0
330
0
330
0
330
0
330
0
330
0
330
0
330
0
330
0
330
0
330
0
330
0
330
0
330
0
330
0
330
0
330
0
330
0
330
0
330
0
330
0
330
0
330
0
330
0
330
0
330
0
330
0
330
0
330
0
330
0
330
0
330
0
330
0
330
0
330
0
330
0
330
419565
330
419566
330
419571
330
419572
330
41957D
330
41957E
330
419589
330
41958A
330
419595
330
419596
330
4195A1
330
4195A2
330
4195AD
330
4195AE
330
4195B9
330
4195BA
330
4195C5
330
4195C6
330
4195D1
330
4195D2
330
4195DF
330
4195E0
330
4195EC
330
4195ED
330
4195F8
330
4195F9
330
419604
330
419605
330
419612
330
419613
330
41961E
330
41961F
330
41962A
330
41962B
330
419636
330
419637
330
419641
330
419642
330
41964F
330
419650
330
41965B
330
41965C
330
419669
330
41966A
330
419677
330
419678
330
419683
330
419684
330
41968F
330
419690
330
41969D
330
41969E
330
4196A9
330
4196AA
330
4196B5
330
4196B6
330
4196C1
330
4196C2
330
4196CF
330
4196D0
330
4196DB
330
4196DC
330
0
330
0
330
0
330
0
330
0
330
0
330
0
330
0
330
0
330
0
330
0
330
0
330
0
330
0
330
0
330
0
330
0
330
0
330
0
330
0
330
0
330
0
330
0
330
0
330
0
330
0
330
0
330
0
330
0
330
0
330
0
330
0
330
0
330
0
330
0
330
0
330
0
330
0
330
0
330
0
330
0
330
0
330
0
330
0
330
0
330
0
330
0
330
0
330
0
330
0
330
0
330
0
330
0
330
0
330
0
330
0
330
0
330
0
330
0
330
0
330
0
330
0
330
0
330
0
330
0
330
0
330
0
330
0
330
0
330
0
330
0
330
0
330
0
330
0
330
0
330
0
330
0
330
0
330
0
330
0
330
0
330
0
330
0
330
0
330
0
330
0
330
0
330
0
330
0
330
0
330
0
330
0
330
0
330
0
330
0
330
0
330
0
330
0
330
0
330
0
330
0
330
0
330
0
330
0
330
0
330
0
330
0
330
0
330
0
330
0
330
0
330
0
330
0
330
0
330
0
330
0
330
0
330
0
330
0
330
0
330
0
330
0
330
0
330
0
330
0
330
0
330
0
330
0
330
0
330
0
330
0
330
0
330
0
330
0
330
0
330
0
330
0
330
0
330
0
330
0
330
0
330
0
330
0
330
0
330
0
330
0
330
0
330
0
330
0
330
0
330
0
330
0
330
0
330
0
330
0
330
0
330
0
330
0
330
0
330
0
330
0
330
0
  0
ENDSEC
  0
EOF
