  0
SECTION
  2
HEADER
  9
$ACADVER
  1
AC1015
  9
$ACADMAINTVER
 70
     6
  9
$DWGCODEPAGE
  3
ANSI_932
  9
$INSBASE
 10
0.0
 20
0.0
 30
0.0
  9
$EXTMIN
 10
66341.62215732445
 20
-34657.59050649733
 30
0.0
  9
$EXTMAX
 10
66463.09135109597
 20
-34513.93543097297
 30
0.0
  9
$LIMMIN
 10
0.0
 20
0.0
  9
$LIMMAX
 10
420.0
 20
297.0
  9
$ORTHOMODE
 70
     0
  9
$REGENMODE
 70
     1
  9
$FILLMODE
 70
     1
  9
$QTEXTMODE
 70
     0
  9
$MIRRTEXT
 70
     1
  9
$LTSCALE
 40
5.0
  9
$ATTMODE
 70
     0
  9
$TEXTSIZE
 40
3.5
  9
$TRACEWID
 40
1.0
  9
$TEXTSTYLE
  7
STANDARD
  9
$CLAYER
  8
0
  9
$CELTYPE
  6
BYLAYER
  9
$CECOLOR
 62
   256
  9
$CELTSCALE
 40
1.0
  9
$DISPSILH
 70
     0
  9
$DIMSCALE
 40
1.0
  9
$DIMASZ
 40
1.5
  9
$DIMEXO
 40
1.5
  9
$DIMDLI
 40
0.38
  9
$DIMRND
 40
0.0
  9
$DIMDLE
 40
0.0
  9
$DIMEXE
 40
1.0
  9
$DIMTP
 40
0.0
  9
$DIMTM
 40
0.0
  9
$DIMTXT
 40
2.500000000000003
  9
$DIMCEN
 40
0.0
  9
$DIMTSZ
 40
0.0
  9
$DIMTOL
 70
     0
  9
$DIMLIM
 70
     0
  9
$DIMTIH
 70
     0
  9
$DIMTOH
 70
     0
  9
$DIMSE1
 70
     0
  9
$DIMSE2
 70
     0
  9
$DIMTAD
 70
     3
  9
$DIMZIN
 70
     8
  9
$DIMBLK
  1

  9
$DIMASO
 70
     1
  9
$DIMSHO
 70
     0
  9
$DIMPOST
  1

  9
$DIMAPOST
  1

  9
$DIMALT
 70
     0
  9
$DIMALTD
 70
     0
  9
$DIMALTF
 40
25.4
  9
$DIMLFAC
 40
1.0
  9
$DIMTOFL
 70
     0
  9
$DIMTVP
 40
0.0
  9
$DIMTIX
 70
     0
  9
$DIMSOXD
 70
     0
  9
$DIMSAH
 70
     1
  9
$DIMBLK1
  1
OPEN
  9
$DIMBLK2
  1
OPEN
  9
$DIMSTYLE
  2
STANDARD
  9
$DIMCLRD
 70
     8
  9
$DIMCLRE
 70
     8
  9
$DIMCLRT
 70
   256
  9
$DIMTFAC
 40
1.0
  9
$DIMGAP
 40
1.0
  9
$DIMJUST
 70
     0
  9
$DIMSD1
 70
     0
  9
$DIMSD2
 70
     0
  9
$DIMTOLJ
 70
     1
  9
$DIMTZIN
 70
     0
  9
$DIMALTZ
 70
     0
  9
$DIMALTTZ
 70
     0
  9
$DIMUPT
 70
     0
  9
$DIMDEC
 70
     2
  9
$DIMTDEC
 70
     2
  9
$DIMALTU
 70
     2
  9
$DIMALTTD
 70
     0
  9
$DIMTXSTY
  7
STANDARD
  9
$DIMAUNIT
 70
     0
  9
$DIMADEC
 70
     2
  9
$DIMALTRND
 40
0.0
  9
$DIMAZIN
 70
     2
  9
$DIMDSEP
 70
    46
  9
$DIMATFIT
 70
     3
  9
$DIMFRAC
 70
     0
  9
$DIMLDRBLK
  1
OPEN
  9
$DIMLUNIT
 70
     2
  9
$DIMLWD
 70
    -2
  9
$DIMLWE
 70
    -2
  9
$DIMTMOVE
 70
     0
  9
$LUNITS
 70
     2
  9
$LUPREC
 70
     2
  9
$SKETCHINC
 40
0.1
  9
$FILLETRAD
 40
5.0
  9
$AUNITS
 70
     0
  9
$AUPREC
 70
     1
  9
$MENU
  1
FM
  9
$ELEVATION
 40
0.0
  9
$PELEVATION
 40
0.0
  9
$THICKNESS
 40
0.0
  9
$LIMCHECK
 70
     0
  9
$CHAMFERA
 40
0.0
  9
$CHAMFERB
 40
0.0
  9
$CHAMFERC
 40
0.0
  9
$CHAMFERD
 40
0.0
  9
$SKPOLY
 70
     0
  9
$TDCREATE
 40
2448636.619629629
  9
$TDUCREATE
 40
2448636.244629629
  9
$TDUPDATE
 40
2456822.477949989
  9
$TDUUPDATE
 40
2456822.102949989
  9
$TDINDWG
 40
45.3322436574
  9
$TDUSRTIMER
 40
2456822.102811204
  9
$USRTIMER
 70
     1
  9
$ANGBASE
 50
0.0
  9
$ANGDIR
 70
     0
  9
$PDMODE
 70
     3
  9
$PDSIZE
 40
0.0
  9
$PLINEWID
 40
0.0
  9
$SPLFRAME
 70
     0
  9
$SPLINETYPE
 70
     6
  9
$SPLINESEGS
 70
     8
  9
$HANDSEED
  5
481294
  9
$SURFTAB1
 70
     6
  9
$SURFTAB2
 70
     6
  9
$SURFTYPE
 70
     6
  9
$SURFU
 70
     6
  9
$SURFV
 70
     6
  9
$UCSBASE
  2

  9
$UCSNAME
  2

  9
$UCSORG
 10
0.0
 20
0.0
 30
0.0
  9
$UCSXDIR
 10
1.0
 20
0.0
 30
0.0
  9
$UCSYDIR
 10
0.0
 20
1.0
 30
0.0
  9
$UCSORTHOREF
  2

  9
$UCSORTHOVIEW
 70
     0
  9
$UCSORGTOP
 10
0.0
 20
0.0
 30
0.0
  9
$UCSORGBOTTOM
 10
0.0
 20
0.0
 30
0.0
  9
$UCSORGLEFT
 10
0.0
 20
0.0
 30
0.0
  9
$UCSORGRIGHT
 10
0.0
 20
0.0
 30
0.0
  9
$UCSORGFRONT
 10
0.0
 20
0.0
 30
0.0
  9
$UCSORGBACK
 10
0.0
 20
0.0
 30
0.0
  9
$PUCSBASE
  2

  9
$PUCSNAME
  2

  9
$PUCSORG
 10
0.0
 20
0.0
 30
0.0
  9
$PUCSXDIR
 10
1.0
 20
0.0
 30
0.0
  9
$PUCSYDIR
 10
0.0
 20
1.0
 30
0.0
  9
$PUCSORTHOREF
  2

  9
$PUCSORTHOVIEW
 70
     0
  9
$PUCSORGTOP
 10
0.0
 20
0.0
 30
0.0
  9
$PUCSORGBOTTOM
 10
0.0
 20
0.0
 30
0.0
  9
$PUCSORGLEFT
 10
0.0
 20
0.0
 30
0.0
  9
$PUCSORGRIGHT
 10
0.0
 20
0.0
 30
0.0
  9
$PUCSORGFRONT
 10
0.0
 20
0.0
 30
0.0
  9
$PUCSORGBACK
 10
0.0
 20
0.0
 30
0.0
  9
$USERI1
 70
     0
  9
$USERI2
 70
     0
  9
$USERI3
 70
     0
  9
$USERI4
 70
     0
  9
$USERI5
 70
     0
  9
$USERR1
 40
0.0
  9
$USERR2
 40
0.0
  9
$USERR3
 40
0.0
  9
$USERR4
 40
0.0
  9
$USERR5
 40
0.0
  9
$WORLDVIEW
 70
     0
  9
$SHADEDGE
 70
     3
  9
$SHADEDIF
 70
    70
  9
$TILEMODE
 70
     1
  9
$MAXACTVP
 70
    16
  9
$PINSBASE
 10
0.0
 20
0.0
 30
0.0
  9
$PLIMCHECK
 70
     0
  9
$PEXTMIN
 10
1.000000000000000E+20
 20
1.000000000000000E+20
 30
1.000000000000000E+20
  9
$PEXTMAX
 10
-1.000000000000000E+20
 20
-1.000000000000000E+20
 30
-1.000000000000000E+20
  9
$PLIMMIN
 10
0.0
 20
0.0
  9
$PLIMMAX
 10
0.0
 20
0.0
  9
$UNITMODE
 70
     0
  9
$VISRETAIN
 70
     0
  9
$PLINEGEN
 70
     0
  9
$PSLTSCALE
 70
     0
  9
$TREEDEPTH
 70
  3020
  9
$CMLSTYLE
  2
STANDARD
  9
$CMLJUST
 70
     0
  9
$CMLSCALE
 40
1.0
  9
$PROXYGRAPHICS
 70
     1
  9
$MEASUREMENT
 70
     0
  9
$CELWEIGHT
370
    -1
  9
$ENDCAPS
280
     0
  9
$JOINSTYLE
280
     0
  9
$LWDISPLAY
290
     0
  9
$INSUNITS
 70
     0
  9
$HYPERLINKBASE
  1

  9
$STYLESHEET
  1
spax form.ctb
  9
$XEDIT
290
     1
  9
$CEPSNTYPE
380
     0
  9
$PSTYLEMODE
290
     1
  9
$FINGERPRINTGUID
  2
{BBAEEBA6-8B94-11D3-9160-00E0294F7E09}
  9
$VERSIONGUID
  2
{1657C3C9-1AB1-40E3-8A18-6A9E41BB7B3C}
  9
$EXTNAMES
290
     1
  9
$PSVPSCALE
 40
0.0
  9
$OLESTARTUP
290
     0
  0
ENDSEC
  0
SECTION
  2
CLASSES
  0
CLASS
  1
LWPOLYLINE
  2
AcDbPolyline
  3
ObjectDBX Classes
 90
        0
280
     0
281
     1
  0
CLASS
  1
ACDBDICTIONARYWDFLT
  2
AcDbDictionaryWithDefault
  3
ObjectDBX Classes
 90
        0
280
     0
281
     0
  0
CLASS
  1
ACDBPLACEHOLDER
  2
AcDbPlaceHolder
  3
ObjectDBX Classes
 90
        0
280
     0
281
     0
  0
CLASS
  1
LAYOUT
  2
AcDbLayout
  3
ObjectDBX Classes
 90
        0
280
     0
281
     0
  0
CLASS
  1
DICTIONARYVAR
  2
AcDbDictionaryVar
  3
ObjectDBX Classes
 90
        0
280
     0
281
     0
  0
CLASS
  1
DIMASSOC
  2
AcDbDimAssoc
  3
"AcDbDimAssoc|Product Desc:     AcDim ARX App For Dimension|Company:          Autodesk, Inc.|WEB Address:      www.autodesk.com"
 90
        0
280
     0
281
     0
  0
CLASS
  1
SORTENTSTABLE
  2
AcDbSortentsTable
  3
ObjectDBX Classes
 90
        0
280
     0
281
     0
  0
CLASS
  1
MATERIAL
  2
AcDbMaterial
  3
ObjectDBX Classes
 90
     1153
280
     0
281
     0
  0
CLASS
  1
VISUALSTYLE
  2
AcDbVisualStyle
  3
ObjectDBX Classes
 90
     4095
280
     0
281
     0
  0
CLASS
  1
TABLESTYLE
  2
AcDbTableStyle
  3
ObjectDBX Classes
 90
     4095
280
     0
281
     0
  0
CLASS
  1
SCALE
  2
AcDbScale
  3
ObjectDBX Classes
 90
     1153
280
     0
281
     0
  0
CLASS
  1
MLEADERSTYLE
  2
AcDbMLeaderStyle
  3
ACDB_MLEADERSTYLE_CLASS
 90
     4095
280
     0
281
     0
  0
CLASS
  1
CELLSTYLEMAP
  2
AcDbCellStyleMap
  3
ObjectDBX Classes
 90
     1152
280
     0
281
     0
  0
CLASS
  1
RASTERVARIABLES
  2
AcDbRasterVariables
  3
ISM
 90
        0
280
     0
281
     0
  0
CLASS
  1
SUN
  2
AcDbSun
  3
SCENEOE
 90
     1153
280
     0
281
     0
  0
ENDSEC
  0
SECTION
  2
TABLES
  0
TABLE
  2
VPORT
  5
8
330
0
100
AcDbSymbolTable
 70
     1
  0
VPORT
  5
48121D
330
8
100
AcDbSymbolTableRecord
100
AcDbViewportTableRecord
  2
*Active
 70
     0
 10
0.0
 20
0.0
 11
1.0
 21
1.0
 12
66402.35675421021
 22
-34585.76296873514
 13
0.0
 23
0.0
 14
1.0
 24
1.0
 15
20.0
 25
20.0
 16
0.0
 26
0.0
 36
1.0
 17
0.0
 27
0.0
 37
0.0
 40
146.528177034846
 41
1.731829573934837
 42
50.0
 43
0.0
 44
0.0
 50
0.0
 51
0.0
 71
    16
 72
   100
 73
     1
 74
     0
 75
     0
 76
     0
 77
     0
 78
     0
281
     0
 65
     1
110
0.0
120
0.0
130
0.0
111
1.0
121
0.0
131
0.0
112
0.0
122
1.0
132
0.0
 79
     0
146
0.0
  0
ENDTAB
  0
TABLE
  2
LTYPE
  5
5
330
0
100
AcDbSymbolTable
 70
     1
  0
LTYPE
  5
12
330
5
100
AcDbSymbolTableRecord
100
AcDbLinetypeTableRecord
  2
BYBLOCK
 70
     0
  3

 72
    65
 73
     0
 40
0.0
  0
LTYPE
  5
13
330
5
100
AcDbSymbolTableRecord
100
AcDbLinetypeTableRecord
  2
BYLAYER
 70
     0
  3

 72
    65
 73
     0
 40
0.0
  0
LTYPE
  5
14
330
5
100
AcDbSymbolTableRecord
100
AcDbLinetypeTableRecord
  2
CONTINUOUS
 70
     0
  3
Solid line
 72
    65
 73
     0
 40
0.0
  0
ENDTAB
  0
TABLE
  2
LAYER
  5
2
102
{ACAD_XDICTIONARY
360
6A835
102
}
330
0
100
AcDbSymbolTable
 70
     8
  0
LAYER
  5
F
102
{ACAD_XDICTIONARY
360
44E404
102
}
330
2
100
AcDbSymbolTableRecord
100
AcDbLayerTableRecord
  2
0
 70
     0
 62
     7
  6
CONTINUOUS
370
    -3
390
616
  0
LAYER
  5
34
102
{ACAD_XDICTIONARY
360
44E408
102
}
330
2
100
AcDbSymbolTableRecord
100
AcDbLayerTableRecord
  2
寸法線
 70
     0
 62
     7
  6
CONTINUOUS
370
    -3
390
616
  0
LAYER
  5
2F4
102
{ACAD_XDICTIONARY
360
44E40C
102
}
330
2
100
AcDbSymbolTableRecord
100
AcDbLayerTableRecord
  2
文字
 70
     0
 62
     7
  6
CONTINUOUS
370
    -3
390
616
  0
LAYER
  5
305
102
{ACAD_XDICTIONARY
360
44E410
102
}
330
2
100
AcDbSymbolTableRecord
100
AcDbLayerTableRecord
  2
姿図
 70
     0
 62
     8
  6
CONTINUOUS
370
    -3
390
616
  0
ENDTAB
  0
TABLE
  2
STYLE
  5
3
330
0
100
AcDbSymbolTable
 70
     2
  0
STYLE
  5
10
330
3
100
AcDbSymbolTableRecord
100
AcDbTextStyleTableRecord
  2
STANDARD
 70
     0
 40
0.0
 41
1.0
 50
0.0
 71
     0
 42
3.5
  3
MONOTXT
  4
BIGFONT
  0
STYLE
  5
113DD
330
3
100
AcDbSymbolTableRecord
100
AcDbTextStyleTableRecord
  2
EXTFONT
 70
     0
 40
2.5
 41
1.0
 50
0.0
 71
     0
 42
2.5
  3
txt.shx
  4
extfont
  0
ENDTAB
  0
TABLE
  2
VIEW
  5
6
330
0
100
AcDbSymbolTable
 70
     0
  0
ENDTAB
  0
TABLE
  2
UCS
  5
7
330
0
100
AcDbSymbolTable
 70
     0
  0
ENDTAB
  0
TABLE
  2
APPID
  5
9
330
0
100
AcDbSymbolTable
 70
     8
  0
APPID
  5
11
330
9
100
AcDbSymbolTableRecord
100
AcDbRegAppTableRecord
  2
ACAD
 70
     0
  0
APPID
  5
100B4C
330
9
100
AcDbSymbolTableRecord
100
AcDbRegAppTableRecord
  2
GENIUS_GENODEF_13
 70
     0
  0
APPID
  5
100B4D
330
9
100
AcDbSymbolTableRecord
100
AcDbRegAppTableRecord
  2
GENIUS_GENREC_14
 70
     0
  0
APPID
  5
100B4E
330
9
100
AcDbSymbolTableRecord
100
AcDbRegAppTableRecord
  2
GENIUS_GENOBJ-N-REC_13
 70
     0
  0
APPID
  5
44CC63
330
9
100
AcDbSymbolTableRecord
100
AcDbRegAppTableRecord
  2
DCO15
 70
     0
  0
APPID
  5
44E3FD
330
9
100
AcDbSymbolTableRecord
100
AcDbRegAppTableRecord
  2
ACAD_MLEADERVER
 70
     0
  0
APPID
  5
473795
330
9
100
AcDbSymbolTableRecord
100
AcDbRegAppTableRecord
  2
ACAD_PSEXT
 70
     0
  0
APPID
  5
47A4C4
330
9
100
AcDbSymbolTableRecord
100
AcDbRegAppTableRecord
  2
ACAD_EXEMPT_FROM_CAD_STANDARDS
 70
     0
  0
ENDTAB
  0
TABLE
  2
DIMSTYLE
  5
A
330
0
100
AcDbSymbolTable
 70
     1
100
AcDbDimStyleTable
  0
DIMSTYLE
105
1CC
330
A
100
AcDbSymbolTableRecord
100
AcDbDimStyleTableRecord
  2
STANDARD
 70
     0
 41
1.5
 42
1.5
 44
1.0
 73
     0
 74
     0
 77
     3
 78
     8
 79
     2
140
2.500000000000003
141
0.0
147
1.0
171
     0
173
     1
176
     8
177
     8
271
     2
178
   256
179
     2
271
     2
272
     2
274
     0
340
10
341
608
343
608
344
608
  0
ENDTAB
  0
TABLE
  2
BLOCK_RECORD
  5
1
330
0
100
AcDbSymbolTable
 70
     1
  0
BLOCK_RECORD
  5
18
330
1
100
AcDbSymbolTableRecord
100
AcDbBlockTableRecord
  2
*MODEL_SPACE
340
619
  0
BLOCK_RECORD
  5
15
330
1
100
AcDbSymbolTableRecord
100
AcDbBlockTableRecord
  2
*PAPER_SPACE
340
61A
  0
BLOCK_RECORD
  5
608
330
1
100
AcDbSymbolTableRecord
100
AcDbBlockTableRecord
  2
_OPEN
340
0
  0
ENDTAB
  0
ENDSEC
  0
SECTION
  2
BLOCKS
  0
BLOCK
  5
39
330
18
100
AcDbEntity
  8
0
100
AcDbBlockBegin
  2
*MODEL_SPACE
 70
     0
 10
0.0
 20
0.0
 30
0.0
  3
*MODEL_SPACE
  1
*MODEL_SPACE
  0
ENDBLK
  5
3A
330
18
100
AcDbEntity
  8
0
100
AcDbBlockEnd
  0
BLOCK
  5
37
330
15
100
AcDbEntity
 67
     1
  8
0
100
AcDbBlockBegin
  2
*PAPER_SPACE
 70
     0
 10
0.0
 20
0.0
 30
0.0
  3
*PAPER_SPACE
  1
*PAPER_SPACE
  0
ENDBLK
  5
38
330
15
100
AcDbEntity
 67
     1
  8
0
100
AcDbBlockEnd
  0
BLOCK
  5
609
330
608
100
AcDbEntity
  8
0
100
AcDbBlockBegin
  2
_OPEN
 70
     0
 10
0.0
 20
0.0
 30
0.0
  3
_OPEN
  1
_OPEN
  0
LINE
  5
60A
330
608
100
AcDbEntity
  8
0
  6
ByBlock
 62
     0
100
AcDbLine
 10
-1.0
 20
0.1666666666666667
 30
0.0
 11
0.0
 21
0.0
 31
0.0
  0
LINE
  5
60B
330
608
100
AcDbEntity
  8
0
  6
ByBlock
 62
     0
100
AcDbLine
 10
0.0
 20
0.0
 30
0.0
 11
-1.0
 21
-0.1666666666666667
 31
0.0
  0
LINE
  5
60C
330
608
100
AcDbEntity
  8
0
  6
ByBlock
 62
     0
100
AcDbLine
 10
0.0
 20
0.0
 30
0.0
 11
-1.0
 21
0.0
 31
0.0
  0
ENDBLK
  5
60D
330
608
100
AcDbEntity
  8
0
100
AcDbBlockEnd
  0
ENDSEC
  0
SECTION
  2
ENTITIES
  0
TEXT
  5
11B04
330
18
100
AcDbEntity
  8
文字
100
AcDbText
 10
-1240.183388714458
 20
-1416.837204555437
 30
0.0
 40
6.75
  1

 41
1.0228
100
AcDbText
  0
MTEXT
  5
12B3E
330
18
100
AcDbEntity
  8
0
100
AcDbMText
 10
-974.1891318600246
 20
-2072.131137572738
 30
0.0
 40
2.500000000000003
 41
0.0
 71
     9
 72
     1
  1
\A1;
 73
     1
 44
1.0
  0
MTEXT
  5
CD161
330
18
100
AcDbEntity
  8
寸法線
100
AcDbMText
 10
790.7551244589424
 20
-5735.183918242472
 30
0.0
 40
2.500000000000003
 41
0.0
 71
     6
 72
     1
  1
\A1;\P　　　　
 73
     1
 44
1.0
  0
MTEXT
  5
D3E27
330
18
100
AcDbEntity
  8
0
100
AcDbMText
 10
2439.336910391245
 20
667.075356397309
 30
0.0
 40
2.5
 41
0.0
 71
     9
 72
     1
  1
\A1;
 73
     1
 44
1.0
  0
MTEXT
  5
1420C2
330
18
100
AcDbEntity
  8
寸法線
100
AcDbMText
 10
-8174.409940395288
 20
1453.836710937994
 30
0.0
 40
2.5
 41
0.0
 71
     1
 72
     1
  1

  7
EXTFONT
 73
     1
 44
1.0
  0
TEXT
  5
18CEEC
330
18
100
AcDbEntity
  8
文字
100
AcDbText
 10
4713.45528577579
 20
-10991.74774079692
 30
0.0
 40
17.0
  1

 72
     1
 11
4713.45528577579
 21
-10991.74774079692
 31
0.0
100
AcDbText
  0
TEXT
  5
1D03BD
330
18
100
AcDbEntity
  8
文字
100
AcDbText
 10
9339.350494841161
 20
-6691.468753201214
 30
0.0
 40
15.0
  1

 72
     1
 11
9339.350494841161
 21
-6691.468753201214
 31
0.0
100
AcDbText
  0
TEXT
  5
36B148
330
18
100
AcDbEntity
  8
文字
100
AcDbText
 10
49394.64127479332
 20
-30205.80622202081
 30
0.0
 40
2.5
  1

100
AcDbText
  0
TEXT
  5
47E080
330
18
100
AcDbEntity
  8
文字
100
AcDbText
 10
66341.62215732445
 20
-34657.59050649733
 30
0.0
 40
15.0
  1
SX-LF101
  7
EXTFONT
100
AcDbText
  0
LINE
  5
47E1AE
330
18
100
AcDbEntity
  8
寸法線
 62
   253
100
AcDbLine
 10
66424.92977628765
 20
-34557.36151428382
 30
0.0
 11
66416.448958691
 21
-34550.66874047572
 31
0.0
  0
LINE
  5
47E1AF
330
18
100
AcDbEntity
  8
寸法線
 62
   253
100
AcDbLine
 10
66424.8924747915
 20
-34558.00193357882
 30
0.0
 11
66416.448958691
 21
-34551.33859684722
 31
0.0
  0
LINE
  5
47E1B0
330
18
100
AcDbEntity
  8
寸法線
 62
   253
100
AcDbLine
 10
66424.82126284431
 20
-34559.22455223292
 30
0.0
 11
66416.448958691
 21
-34552.61741355647
 31
0.0
  0
LINE
  5
47E1B1
330
18
100
AcDbEntity
  8
寸法線
 62
   253
100
AcDbLine
 10
66424.78396134816
 20
-34559.86497152791
 30
0.0
 11
66416.448958691
 21
-34553.28726992797
 31
0.0
  0
LINE
  5
47E1B2
330
18
100
AcDbEntity
  8
寸法線
 62
   253
100
AcDbLine
 10
66424.71274940098
 20
-34561.08759018202
 30
0.0
 11
66416.448958691
 21
-34554.56608663722
 31
0.0
  0
LINE
  5
47E1B3
330
18
100
AcDbEntity
  8
寸法線
 62
   253
100
AcDbLine
 10
66424.48447677992
 20
-34561.5773015378
 30
0.0
 11
66416.448958691
 21
-34555.23594300873
 31
0.0
  0
LINE
  5
47E1B4
330
18
100
AcDbEntity
  8
寸法線
 62
   253
100
AcDbLine
 10
66423.12316342257
 20
-34561.78181588424
 30
0.0
 11
66416.448958691
 21
-34556.51475971797
 31
0.0
  0
LINE
  5
47E1B5
330
18
100
AcDbEntity
  8
寸法線
 62
   253
100
AcDbLine
 10
66422.41009452112
 20
-34561.88894244667
 30
0.0
 11
66416.448958691
 21
-34557.18461608948
 31
0.0
  0
LINE
  5
47E1B6
330
18
100
AcDbEntity
  8
寸法線
 62
   253
100
AcDbLine
 10
66425.00098823485
 20
-34556.13889562974
 30
0.0
 11
66416.448958691
 21
-34549.38992376647
 31
0.0
  0
LINE
  5
47E1B7
330
18
100
AcDbEntity
  8
寸法線
 62
   253
100
AcDbLine
 10
66425.03828973099
 20
-34555.49847633473
 30
0.0
 11
66416.448958691
 21
-34548.72006739496
 31
0.0
  0
LINE
  5
47E1B8
330
18
100
AcDbEntity
  8
寸法線
 62
   253
100
AcDbLine
 10
66425.10950575343
 20
-34554.27578771414
 30
0.0
 11
66416.448958691
 21
-34547.44125068572
 31
0.0
  0
LINE
  5
47E1B9
330
18
100
AcDbEntity
  8
寸法線
 62
   253
100
AcDbLine
 10
66425.09287854418
 20
-34553.59298000324
 30
0.0
 11
66416.448958691
 21
-34546.77139431421
 31
0.0
  0
LINE
  5
47E1BA
330
18
100
AcDbEntity
  8
寸法線
 62
   253
100
AcDbLine
 10
66425.17661174378
 20
-34553.12366312215
 30
0.0
 11
66416.448958691
 21
-34546.24164348363
 31
0.0
  0
LINE
  5
47E1BB
330
18
100
AcDbEntity
  8
寸法線
 62
   253
100
AcDbLine
 10
66425.19991183122
 20
-34552.72363022494
 30
0.0
 11
66416.36540016357
 21
-34545.77130510826
 31
0.0
  0
LINE
  5
47E1BC
330
18
100
AcDbEntity
  8
姿図
100
AcDbLine
 10
66422.09051196266
 20
-34561.93695432998
 30
0.0
 11
66430.72962682198
 21
-34560.63907319206
 31
0.0
  0
LINE
  5
47E1BD
330
18
100
AcDbEntity
  8
寸法線
 62
   253
100
AcDbLine
 10
66452.536247573
 20
-34584.19581454524
 30
0.0
 11
66422.09051196266
 21
-34561.93695432998
 31
0.0
  0
LINE
  5
47E1BE
330
18
100
AcDbEntity
  8
姿図
100
AcDbLine
 10
66452.536247573
 20
-34584.19581454524
 30
0.0
 11
66459.70738636315
 21
-34583.11847202524
 31
0.0
  0
LINE
  5
47E1BF
330
18
100
AcDbEntity
  8
姿図
100
AcDbLine
 10
66459.70738636315
 20
-34583.11847202524
 30
0.0
 11
66430.72962682198
 21
-34560.63907319206
 31
0.0
  0
LINE
  5
47E1C0
330
18
100
AcDbEntity
  8
寸法線
 62
     8
100
AcDbLine
 10
66463.09135109597
 20
-34598.78496307426
 30
0.0
 11
66416.448958691
 21
-34562.06421721102
 31
0.0
  0
LINE
  5
47E1C1
330
18
100
AcDbEntity
  8
寸法線
 62
     8
100
AcDbLine
 10
66463.09135109597
 20
-34598.78496307426
 30
0.0
 11
66463.09135109597
 21
-34597.68091604668
 31
0.0
  0
LINE
  5
47E1C2
330
18
100
AcDbEntity
  8
寸法線
 62
     8
100
AcDbLine
 10
66463.09135109597
 20
-34597.68091604668
 30
0.0
 11
66416.448958691
 21
-34560.96017018344
 31
0.0
  0
LINE
  5
47E1C3
330
18
100
AcDbEntity
  8
寸法線
 62
     8
100
AcDbLine
 10
66416.448958691
 20
-34513.93543097297
 30
0.0
 11
66460.34154480355
 21
-34551.89260347452
 31
0.0
  0
LINE
  5
47E1C4
330
18
100
AcDbEntity
  8
寸法線
 62
     8
100
AcDbLine
 10
66460.34154480355
 20
-34551.89260347452
 30
0.0
 11
66460.34154480355
 21
-34563.57031165985
 31
0.0
  0
LINE
  5
47E1C5
330
18
100
AcDbEntity
  8
寸法線
 62
     8
100
AcDbLine
 10
66463.09135109597
 20
-34593.90536195272
 30
0.0
 11
66462.1813478897
 21
-34593.90536195272
 31
0.0
  0
LINE
  5
47E1C6
330
18
100
AcDbEntity
  8
寸法線
 62
     8
100
AcDbLine
 10
66463.09135109597
 20
-34593.90536195272
 30
0.0
 11
66463.09135109597
 21
-34593.23550558121
 31
0.0
  0
LINE
  5
47E1C7
330
18
100
AcDbEntity
  8
寸法線
 62
     8
100
AcDbLine
 10
66463.09135109597
 20
-34566.52907553142
 30
0.0
 11
66463.09135109597
 21
-34565.71712841444
 31
0.0
  0
LINE
  5
47E1C8
330
18
100
AcDbEntity
  8
寸法線
 62
     8
100
AcDbLine
 10
66463.09135109597
 20
-34582.47720628123
 30
0.0
 11
66463.09135109597
 21
-34568.47862432658
 31
0.0
  0
LINE
  5
47E1C9
330
18
100
AcDbEntity
  8
寸法線
 62
     8
100
AcDbLine
 10
66463.09135109597
 20
-34584.16199654896
 30
0.0
 11
66463.09135109597
 21
-34583.49214017745
 31
0.0
  0
LINE
  5
47E1CA
330
18
100
AcDbEntity
  8
寸法線
 62
     8
100
AcDbLine
 10
66463.09135109597
 20
-34586.11066962971
 30
0.0
 11
66463.09135109597
 21
-34585.4408132582
 31
0.0
  0
LINE
  5
47E1CB
330
18
100
AcDbEntity
  8
寸法線
 62
     8
100
AcDbLine
 10
66463.09135109597
 20
-34588.05934271046
 30
0.0
 11
66463.09135109597
 21
-34587.38948633896
 31
0.0
  0
LINE
  5
47E1CC
330
18
100
AcDbEntity
  8
寸法線
 62
     8
100
AcDbLine
 10
66463.09135109597
 20
-34590.00801579122
 30
0.0
 11
66463.09135109597
 21
-34589.33815941971
 31
0.0
  0
LINE
  5
47E1CD
330
18
100
AcDbEntity
  8
寸法線
 62
     8
100
AcDbLine
 10
66463.09135109597
 20
-34591.95668887197
 30
0.0
 11
66463.09135109597
 21
-34591.28683250046
 31
0.0
  0
LINE
  5
47E1CE
330
18
100
AcDbEntity
  8
寸法線
 62
     8
100
AcDbLine
 10
66463.09135109597
 20
-34566.52907553142
 30
0.0
 11
66462.66873367695
 21
-34566.52907553142
 31
0.0
  0
LINE
  5
47E1CF
330
18
100
AcDbEntity
  8
寸法線
 62
     8
100
AcDbLine
 10
66462.5721799891
 20
-34582.53364558001
 30
0.0
 11
66462.5721799891
 21
-34583.08681517918
 31
0.0
  0
LINE
  5
47E1D0
330
18
100
AcDbEntity
  8
寸法線
 62
     8
100
AcDbLine
 10
66463.09135109597
 20
-34591.95668887197
 30
0.0
 11
66462.3638446035
 21
-34592.66752989092
 31
0.0
  0
LINE
  5
47E1D1
330
18
100
AcDbEntity
  8
寸法線
 62
     8
100
AcDbLine
 10
66463.09135109597
 20
-34590.00801579122
 30
0.0
 11
66462.3638446035
 21
-34590.71885681017
 31
0.0
  0
LINE
  5
47E1D2
330
18
100
AcDbEntity
  8
寸法線
 62
     8
100
AcDbLine
 10
66463.09135109597
 20
-34588.05934271046
 30
0.0
 11
66462.3638446035
 21
-34588.77018372942
 31
0.0
  0
LINE
  5
47E1D3
330
18
100
AcDbEntity
  8
寸法線
 62
     8
100
AcDbLine
 10
66463.09135109597
 20
-34586.11066962971
 30
0.0
 11
66462.3638446035
 21
-34586.82151064866
 31
0.0
  0
LINE
  5
47E1D4
330
18
100
AcDbEntity
  8
寸法線
 62
     8
100
AcDbLine
 10
66463.09135109597
 20
-34582.47720628123
 30
0.0
 11
66462.5721799891
 21
-34582.53364558001
 31
0.0
  0
LINE
  5
47E1D5
330
18
100
AcDbEntity
  8
寸法線
 62
     8
100
AcDbLine
 10
66463.09135109597
 20
-34584.16199654896
 30
0.0
 11
66462.3638446035
 21
-34584.87283756791
 31
0.0
  0
LINE
  5
47E1D6
330
18
100
AcDbEntity
  8
寸法線
 62
   253
100
AcDbLine
 10
66462.66873367695
 20
-34566.52907553142
 30
0.0
 11
66452.64743764375
 21
-34558.70529307587
 31
0.0
  0
LINE
  5
47E1D7
330
18
100
AcDbEntity
  8
寸法線
 62
   253
100
AcDbLine
 10
66462.5721799891
 20
-34582.53364558001
 30
0.0
 11
66456.13355635064
 21
-34577.50691146365
 31
0.0
  0
LINE
  5
47E1D8
330
18
100
AcDbEntity
  8
寸法線
 62
     8
100
AcDbLine
 10
66463.09135109597
 20
-34565.71712841444
 30
0.0
 11
66452.64743764375
 21
-34557.56340193395
 31
0.0
  0
LINE
  5
47E1D9
330
18
100
AcDbEntity
  8
寸法線
 62
   253
100
AcDbLine
 10
66463.09135109597
 20
-34566.52907553142
 30
0.0
 11
66452.64743764375
 21
-34558.37534905094
 31
0.0
  0
LINE
  5
47E1DA
330
18
100
AcDbEntity
  8
寸法線
 62
   253
100
AcDbLine
 10
66463.09135109597
 20
-34568.47862432658
 30
0.0
 11
66452.64743764375
 21
-34560.80493064738
 31
0.0
  0
LINE
  5
47E1DB
330
18
100
AcDbEntity
  8
寸法線
 62
   253
100
AcDbLine
 10
66463.09135109597
 20
-34582.47720628123
 30
0.0
 11
66456.13355635064
 21
-34577.04514716658
 31
0.0
  0
LINE
  5
47E1DC
330
18
100
AcDbEntity
  8
寸法線
 62
   253
100
AcDbLine
 10
66463.09135109597
 20
-34583.49214017745
 30
0.0
 11
66456.13355635064
 21
-34578.06008106281
 31
0.0
  0
LINE
  5
47E1DD
330
18
100
AcDbEntity
  8
寸法線
 62
   253
100
AcDbLine
 10
66463.09135109597
 20
-34584.16199654896
 30
0.0
 11
66460.6994119962
 21
-34582.29457230549
 31
0.0
  0
LINE
  5
47E1DE
330
18
100
AcDbEntity
  8
寸法線
 62
   253
100
AcDbLine
 10
66463.09135109597
 20
-34585.4408132582
 30
0.0
 11
66456.13355635064
 21
-34580.00875414355
 31
0.0
  0
LINE
  5
47E1DF
330
18
100
AcDbEntity
  8
寸法線
 62
   253
100
AcDbLine
 10
66463.09135109597
 20
-34586.11066962971
 30
0.0
 11
66459.33112134921
 21
-34583.17499949044
 31
0.0
  0
LINE
  5
47E1E0
330
18
100
AcDbEntity
  8
寸法線
 62
   253
100
AcDbLine
 10
66463.09135109597
 20
-34587.38948633896
 30
0.0
 11
66457.95745097852
 21
-34583.38137026949
 31
0.0
  0
LINE
  5
47E1E1
330
18
100
AcDbEntity
  8
寸法線
 62
   253
100
AcDbLine
 10
66463.09135109597
 20
-34588.05934271046
 30
0.0
 11
66457.23790935575
 21
-34583.48946924899
 31
0.0
  0
LINE
  5
47E1E2
330
18
100
AcDbEntity
  8
寸法線
 62
   253
100
AcDbLine
 10
66463.09135109597
 20
-34589.33815941971
 30
0.0
 11
66455.86423898506
 21
-34583.69584002804
 31
0.0
  0
LINE
  5
47E1E3
330
18
100
AcDbEntity
  8
寸法線
 62
   253
100
AcDbLine
 10
66463.09135109597
 20
-34590.00801579122
 30
0.0
 11
66455.1446973623
 21
-34583.80393900755
 31
0.0
  0
LINE
  5
47E1E4
330
18
100
AcDbEntity
  8
寸法線
 62
   253
100
AcDbLine
 10
66463.09135109597
 20
-34591.28683250046
 30
0.0
 11
66453.77102699157
 21
-34584.01030978659
 31
0.0
  0
LINE
  5
47E1E5
330
18
100
AcDbEntity
  8
寸法線
 62
   253
100
AcDbLine
 10
66463.09135109597
 20
-34591.95668887197
 30
0.0
 11
66453.05148536882
 21
-34584.1184087661
 31
0.0
  0
LINE
  5
47E1E6
330
18
100
AcDbEntity
  8
寸法線
 62
   253
100
AcDbLine
 10
66463.09135109597
 20
-34593.23550558121
 30
0.0
 11
66452.695560758
 21
-34585.11934956824
 31
0.0
  0
LINE
  5
47E1E7
330
18
100
AcDbEntity
  8
寸法線
 62
   253
100
AcDbLine
 10
66463.09135109597
 20
-34593.90536195272
 30
0.0
 11
66452.695560758
 21
-34585.78920593974
 31
0.0
  0
LINE
  5
47E1E8
330
18
100
AcDbEntity
  8
寸法線
 62
   253
100
AcDbLine
 10
66463.09135109597
 20
-34594.61581568008
 30
0.0
 11
66452.695560758
 21
-34586.4996596671
 31
0.0
  0
LINE
  5
47E1E9
330
18
100
AcDbEntity
  8
寸法線
 62
   253
100
AcDbLine
 10
66452.64743764375
 20
-34558.70529307587
 30
0.0
 11
66416.448958691
 21
-34530.29351273383
 31
0.0
  0
LINE
  5
47E1EA
330
18
100
AcDbEntity
  8
寸法線
 62
   253
100
AcDbLine
 10
66452.64743764375
 20
-34558.37534905094
 30
0.0
 11
66416.448958691
 21
-34529.80832966818
 31
0.0
  0
LINE
  5
47E1EB
330
18
100
AcDbEntity
  8
寸法線
 62
     8
100
AcDbLine
 10
66452.64743764375
 20
-34557.56340193395
 30
0.0
 11
66416.448958691
 21
-34528.9963825512
 31
0.0
  0
LINE
  5
47E1EC
330
18
100
AcDbEntity
  8
寸法線
100
AcDbLine
 10
66408.58598783438
 20
-34593.13873199735
 30
0.0
 11
66407.68561899463
 21
-34592.16939985068
 31
0.0
  0
LINE
  5
47E1ED
330
18
100
AcDbEntity
  8
寸法線
 62
     8
100
AcDbLine
 10
66407.68561899463
 20
-34592.16939985068
 30
0.0
 11
66428.7607044272
 21
-34590.00933085877
 31
0.0
  0
LINE
  5
47E1EE
330
18
100
AcDbEntity
  8
寸法線
 62
     8
100
AcDbLine
 10
66408.58598783438
 20
-34593.13873199735
 30
0.0
 11
66430.0077068307
 21
-34590.94313515836
 31
0.0
  0
LINE
  5
47E1EF
330
18
100
AcDbEntity
  8
寸法線
 62
     8
100
AcDbLine
 10
66410.42567691243
 20
-34578.27618201298
 30
0.0
 11
66387.42557492272
 21
-34580.81960129219
 31
0.0
  0
LINE
  5
47E1F0
330
18
100
AcDbEntity
  8
寸法線
 62
     8
100
AcDbLine
 10
66388.04620586493
 20
-34580.75097008767
 30
0.0
 11
66407.68561899463
 21
-34592.16939985068
 31
0.0
  0
LINE
  5
47E1F1
330
18
100
AcDbEntity
  8
寸法線
 62
     8
100
AcDbLine
 10
66387.42557492272
 20
-34580.81960129219
 30
0.0
 11
66408.58598783438
 21
-34593.13873199735
 31
0.0
  0
LINE
  5
47E1F2
330
18
100
AcDbEntity
  8
寸法線
 62
     8
100
AcDbLine
 10
66410.42567691243
 20
-34578.27618201298
 30
0.0
 11
66430.0077068307
 21
-34590.94313515836
 31
0.0
  0
LINE
  5
47E1F3
330
18
100
AcDbEntity
  8
寸法線
 62
   253
100
AcDbLine
 10
66452.695560758
 20
-34587.57788353759
 30
0.0
 11
66416.448958691
 21
-34558.97329368732
 31
0.0
  0
LINE
  5
47E1F4
330
18
100
AcDbEntity
  8
寸法線
 62
   253
100
AcDbLine
 10
66452.695560758
 20
-34587.21011339446
 30
0.0
 11
66416.448958691
 21
-34558.60552354419
 31
0.0
  0
LINE
  5
47E1F5
330
18
100
AcDbEntity
  8
寸法線
 62
   253
100
AcDbLine
 10
66452.695560758
 20
-34586.4996596671
 30
0.0
 11
66416.448958691
 21
-34557.89506981684
 31
0.0
  0
LINE
  5
47E1F6
330
18
100
AcDbEntity
  8
寸法線
 62
   253
100
AcDbLine
 10
66452.695560758
 20
-34585.78920593974
 30
0.0
 11
66424.98544277277
 21
-34563.92132000095
 31
0.0
  0
LINE
  5
47E1F7
330
18
100
AcDbEntity
  8
寸法線
 62
   253
100
AcDbLine
 10
66452.695560758
 20
-34585.11934956824
 30
0.0
 11
66438.79668788615
 21
-34574.15083017031
 31
0.0
  0
LINE
  5
47E1F8
330
18
100
AcDbEntity
  8
寸法線
 62
   253
100
AcDbLine
 10
66440.47887248725
 20
-34567.68366092045
 30
0.0
 11
66432.47609039626
 21
-34561.36813653142
 31
0.0
  0
LINE
  5
47E1F9
330
18
100
AcDbEntity
  8
寸法線
 62
   253
100
AcDbLine
 10
66451.59653581415
 20
-34575.1782302987
 30
0.0
 11
66432.47609039626
 21
-34560.08918439125
 31
0.0
  0
LINE
  5
47E1FA
330
18
100
AcDbEntity
  8
寸法線
 62
   253
100
AcDbLine
 10
66451.63379876033
 20
-34574.53847285779
 30
0.0
 11
66432.47609039626
 21
-34559.41964350367
 31
0.0
  0
LINE
  5
47E1FB
330
18
100
AcDbEntity
  8
寸法線
 62
   253
100
AcDbLine
 10
66451.66456703046
 20
-34574.01022075282
 30
0.0
 11
66432.47609039626
 21
-34558.87952384823
 31
0.0
  0
LINE
  5
47E1FC
330
18
100
AcDbEntity
  8
寸法線
 62
   253
100
AcDbLine
 10
66451.69019745286
 20
-34573.5701789651
 30
0.0
 11
66432.47523670932
 21
-34558.44895221043
 31
0.0
  0
LINE
  5
47E1FD
330
18
100
AcDbEntity
  8
寸法線
 62
   253
100
AcDbLine
 10
66452.64743764375
 20
-34560.80493064738
 30
0.0
 11
66416.448958691
 21
-34532.16297630742
 31
0.0
  0
LINE
  5
47E1FE
330
18
100
AcDbEntity
  8
寸法線
 62
     8
100
AcDbLine
 10
66416.448958691
 20
-34562.06421721102
 30
0.0
 11
66416.448958691
 21
-34513.93543097297
 31
0.0
  0
LINE
  5
47E1FF
330
18
100
AcDbEntity
  8
寸法線
 62
     8
100
AcDbLine
 10
66350.98848942103
 20
-34569.29925722894
 30
0.0
 11
66350.98848942103
 21
-34569.52452789064
 31
0.0
  0
LINE
  5
47E200
330
18
100
AcDbEntity
  8
寸法線
 62
     8
100
AcDbLine
 10
66350.40697888241
 20
-34570.33829056924
 30
0.0
 11
66350.8477655239
 21
-34570.62775223362
 31
0.0
  0
LINE
  5
47E201
330
18
100
AcDbEntity
  8
寸法線
 62
     8
100
AcDbLine
 10
66350.40697888241
 20
-34568.91738311452
 30
0.0
 11
66350.98848942103
 21
-34569.29925722894
 31
0.0
  0
LINE
  5
47E202
330
18
100
AcDbEntity
  8
寸法線
 62
     8
100
AcDbLine
 10
66350.40697888241
 20
-34569.62783684189
 30
0.0
 11
66350.40697888241
 21
-34570.33829056924
 31
0.0
  0
LINE
  5
47E203
330
18
100
AcDbEntity
  8
寸法線
 62
     8
100
AcDbLine
 10
66351.13448537487
 20
-34567.67955105272
 30
0.0
 11
66350.40697888241
 21
-34568.24752674301
 31
0.0
  0
LINE
  5
47E204
330
18
100
AcDbEntity
  8
寸法線
 62
     8
100
AcDbLine
 10
66351.13448537487
 20
-34565.73087797198
 30
0.0
 11
66350.40697888241
 21
-34566.29885366227
 31
0.0
  0
LINE
  5
47E205
330
18
100
AcDbEntity
  8
寸法線
 62
     8
100
AcDbLine
 10
66351.13448537487
 20
-34563.78220489122
 30
0.0
 11
66350.40697888241
 21
-34564.35018058151
 31
0.0
  0
LINE
  5
47E206
330
18
100
AcDbEntity
  8
寸法線
 62
     8
100
AcDbLine
 10
66351.13448537487
 20
-34561.83353181047
 30
0.0
 11
66350.40697888241
 21
-34562.40150750076
 31
0.0
  0
LINE
  5
47E207
330
18
100
AcDbEntity
  8
寸法線
 62
     8
100
AcDbLine
 10
66351.13448537487
 20
-34559.88485872972
 30
0.0
 11
66350.40697888241
 21
-34560.45283442001
 31
0.0
  0
LINE
  5
47E208
330
18
100
AcDbEntity
  8
寸法線
 62
     8
100
AcDbLine
 10
66350.98848942103
 20
-34557.87110155743
 30
0.0
 11
66350.98848942103
 21
-34558.400852388
 31
0.0
  0
LINE
  5
47E209
330
18
100
AcDbEntity
  8
寸法線
 62
     8
100
AcDbLine
 10
66350.40697888241
 20
-34557.48922744303
 30
0.0
 11
66350.98848942103
 21
-34557.87110155743
 31
0.0
  0
LINE
  5
47E20A
330
18
100
AcDbEntity
  8
寸法線
 62
     8
100
AcDbLine
 10
66351.27461317161
 20
-34541.87213915001
 30
0.0
 11
66351.27461317161
 21
-34543.7416027236
 31
0.0
  0
LINE
  5
47E20B
330
18
100
AcDbEntity
  8
寸法線
 62
     8
100
AcDbLine
 10
66350.40697888241
 20
-34541.54109669322
 30
0.0
 11
66350.98848942103
 21
-34541.92297080764
 31
0.0
  0
LINE
  5
47E20C
330
18
100
AcDbEntity
  8
寸法線
 62
     8
100
AcDbLine
 10
66350.40697888241
 20
-34541.54109669322
 30
0.0
 11
66350.40697888241
 21
-34540.72914957625
 31
0.0
  0
LINE
  5
47E20D
330
18
100
AcDbEntity
  8
寸法線
 62
     8
100
AcDbLine
 10
66350.40697888241
 20
-34559.17401771076
 30
0.0
 11
66351.13448537487
 21
-34559.88485872972
 31
0.0
  0
LINE
  5
47E20E
330
18
100
AcDbEntity
  8
寸法線
 62
     8
100
AcDbLine
 10
66350.40697888241
 20
-34561.12269079152
 30
0.0
 11
66351.13448537487
 21
-34561.83353181047
 31
0.0
  0
LINE
  5
47E20F
330
18
100
AcDbEntity
  8
寸法線
 62
     8
100
AcDbLine
 10
66350.40697888241
 20
-34563.07136387227
 30
0.0
 11
66351.13448537487
 21
-34563.78220489122
 31
0.0
  0
LINE
  5
47E210
330
18
100
AcDbEntity
  8
寸法線
 62
     8
100
AcDbLine
 10
66350.40697888241
 20
-34563.07136387227
 30
0.0
 11
66350.40697888241
 21
-34562.40150750076
 31
0.0
  0
LINE
  5
47E211
330
18
100
AcDbEntity
  8
寸法線
 62
     8
100
AcDbLine
 10
66350.40697888241
 20
-34561.12269079152
 30
0.0
 11
66350.40697888241
 21
-34560.45283442001
 31
0.0
  0
LINE
  5
47E212
330
18
100
AcDbEntity
  8
寸法線
 62
     8
100
AcDbLine
 10
66350.40697888241
 20
-34559.17401771076
 30
0.0
 11
66350.40697888241
 21
-34558.50416133925
 31
0.0
  0
LINE
  5
47E213
330
18
100
AcDbEntity
  8
寸法線
 62
     8
100
AcDbLine
 10
66350.40697888241
 20
-34557.48922744303
 30
0.0
 11
66350.40697888241
 21
-34543.89574333247
 31
0.0
  0
LINE
  5
47E214
330
18
100
AcDbEntity
  8
寸法線
 62
     8
100
AcDbLine
 10
66350.40697888241
 20
-34565.02003695302
 30
0.0
 11
66351.13448537487
 21
-34565.73087797198
 31
0.0
  0
LINE
  5
47E215
330
18
100
AcDbEntity
  8
寸法線
 62
     8
100
AcDbLine
 10
66350.40697888241
 20
-34566.96871003378
 30
0.0
 11
66351.13448537487
 21
-34567.67955105272
 31
0.0
  0
LINE
  5
47E216
330
18
100
AcDbEntity
  8
寸法線
 62
     8
100
AcDbLine
 10
66350.40697888241
 20
-34566.96871003378
 30
0.0
 11
66350.40697888241
 21
-34566.29885366227
 31
0.0
  0
LINE
  5
47E217
330
18
100
AcDbEntity
  8
寸法線
 62
     8
100
AcDbLine
 10
66350.40697888241
 20
-34568.91738311452
 30
0.0
 11
66350.40697888241
 21
-34568.24752674301
 31
0.0
  0
LINE
  5
47E218
330
18
100
AcDbEntity
  8
寸法線
 62
     8
100
AcDbLine
 10
66350.40697888241
 20
-34565.02003695302
 30
0.0
 11
66350.40697888241
 21
-34564.35018058151
 31
0.0
  0
LINE
  5
47E219
330
18
100
AcDbEntity
  8
寸法線
 62
     8
100
AcDbLine
 10
66350.40697888241
 20
-34573.79698423608
 30
0.0
 11
66350.40697888241
 21
-34572.69293720849
 31
0.0
  0
LINE
  5
47E21A
330
18
100
AcDbEntity
  8
寸法線
 62
     8
100
AcDbLine
 10
66350.8477655239
 20
-34570.62775223362
 30
0.0
 11
66350.8477655239
 21
-34572.61462872974
 31
0.0
  0
LINE
  5
47E21B
330
18
100
AcDbEntity
  8
寸法線
 62
     8
100
AcDbLine
 10
66352.61483683043
 20
-34540.33690992802
 30
0.0
 11
66352.61483683043
 21
-34525.27595834978
 31
0.0
  0
LINE
  5
47E21C
330
18
100
AcDbEntity
  8
寸法線
 62
     8
100
AcDbLine
 10
66416.448958691
 20
-34513.93543097297
 30
0.0
 11
66352.61483683043
 21
-34525.27595834978
 31
0.0
  0
LINE
  5
47E21D
330
18
100
AcDbEntity
  8
寸法線
 62
   253
100
AcDbLine
 10
66416.448958691
 20
-34558.97329368732
 30
0.0
 11
66350.8477655239
 21
-34570.62775223362
 31
0.0
  0
LINE
  5
47E21E
330
18
100
AcDbEntity
  8
寸法線
 62
   253
100
AcDbLine
 10
66416.448958691
 20
-34558.60552354419
 30
0.0
 11
66350.40697888241
 21
-34570.33829056924
 31
0.0
  0
LINE
  5
47E21F
330
18
100
AcDbEntity
  8
寸法線
 62
   253
100
AcDbLine
 10
66416.448958691
 20
-34554.12735698422
 30
0.0
 11
66351.13448537487
 21
-34565.73087797198
 31
0.0
  0
LINE
  5
47E220
330
18
100
AcDbEntity
  8
寸法線
 62
   253
100
AcDbLine
 10
66416.448958691
 20
-34556.07603006497
 30
0.0
 11
66351.13448537487
 21
-34567.67955105272
 31
0.0
  0
LINE
  5
47E221
330
18
100
AcDbEntity
  8
寸法線
 62
   253
100
AcDbLine
 10
66416.448958691
 20
-34552.17868390347
 30
0.0
 11
66351.13448537487
 21
-34563.78220489122
 31
0.0
  0
LINE
  5
47E222
330
18
100
AcDbEntity
  8
寸法線
 62
   253
100
AcDbLine
 10
66416.448958691
 20
-34550.23001082272
 30
0.0
 11
66351.13448537487
 21
-34561.83353181047
 31
0.0
  0
LINE
  5
47E223
330
18
100
AcDbEntity
  8
寸法線
 62
   253
100
AcDbLine
 10
66416.448958691
 20
-34548.28133774197
 30
0.0
 11
66351.13448537487
 21
-34559.88485872972
 31
0.0
  0
LINE
  5
47E224
330
18
100
AcDbEntity
  8
寸法線
 62
   253
100
AcDbLine
 10
66416.448958691
 20
-34546.24164348363
 30
0.0
 11
66350.98848942103
 21
-34557.87110155744
 31
0.0
  0
LINE
  5
47E225
330
18
100
AcDbEntity
  8
寸法線
 62
   253
100
AcDbLine
 10
66416.448958691
 20
-34530.29351273383
 30
0.0
 11
66350.98848942103
 21
-34541.92297080764
 31
0.0
  0
LINE
  5
47E226
330
18
100
AcDbEntity
  8
寸法線
 62
     8
100
AcDbLine
 10
66416.448958691
 20
-34528.9963825512
 30
0.0
 11
66350.40697888241
 21
-34540.72914957625
 31
0.0
  0
LINE
  5
47E227
330
18
100
AcDbEntity
  8
寸法線
 62
   253
100
AcDbLine
 10
66416.448958691
 20
-34529.80832966818
 30
0.0
 11
66350.40697888241
 21
-34541.54109669322
 31
0.0
  0
LINE
  5
47E228
330
18
100
AcDbEntity
  8
寸法線
 62
   253
100
AcDbLine
 10
66416.448958691
 20
-34532.16297630742
 30
0.0
 11
66350.40697888241
 21
-34543.89574333247
 31
0.0
  0
LINE
  5
47E229
330
18
100
AcDbEntity
  8
寸法線
 62
   253
100
AcDbLine
 10
66416.448958691
 20
-34545.75646041799
 30
0.0
 11
66350.40697888241
 21
-34557.48922744303
 31
0.0
  0
LINE
  5
47E22A
330
18
100
AcDbEntity
  8
寸法線
 62
   253
100
AcDbLine
 10
66416.448958691
 20
-34546.77139431421
 30
0.0
 11
66350.40697888241
 21
-34558.50416133925
 31
0.0
  0
LINE
  5
47E22B
330
18
100
AcDbEntity
  8
寸法線
 62
   253
100
AcDbLine
 10
66416.448958691
 20
-34547.44125068572
 30
0.0
 11
66350.40697888241
 21
-34559.17401771076
 31
0.0
  0
LINE
  5
47E22C
330
18
100
AcDbEntity
  8
寸法線
 62
   253
100
AcDbLine
 10
66416.448958691
 20
-34548.72006739496
 30
0.0
 11
66350.40697888241
 21
-34560.45283442001
 31
0.0
  0
LINE
  5
47E22D
330
18
100
AcDbEntity
  8
寸法線
 62
   253
100
AcDbLine
 10
66416.448958691
 20
-34549.38992376647
 30
0.0
 11
66350.40697888241
 21
-34561.12269079152
 31
0.0
  0
LINE
  5
47E22E
330
18
100
AcDbEntity
  8
寸法線
 62
   253
100
AcDbLine
 10
66416.448958691
 20
-34550.66874047572
 30
0.0
 11
66350.40697888241
 21
-34562.40150750076
 31
0.0
  0
LINE
  5
47E22F
330
18
100
AcDbEntity
  8
寸法線
 62
   253
100
AcDbLine
 10
66416.448958691
 20
-34551.33859684722
 30
0.0
 11
66350.40697888241
 21
-34563.07136387227
 31
0.0
  0
LINE
  5
47E230
330
18
100
AcDbEntity
  8
寸法線
 62
   253
100
AcDbLine
 10
66416.448958691
 20
-34552.61741355647
 30
0.0
 11
66350.40697888241
 21
-34564.35018058151
 31
0.0
  0
LINE
  5
47E231
330
18
100
AcDbEntity
  8
寸法線
 62
   253
100
AcDbLine
 10
66416.448958691
 20
-34553.28726992797
 30
0.0
 11
66350.40697888241
 21
-34565.02003695302
 31
0.0
  0
LINE
  5
47E232
330
18
100
AcDbEntity
  8
寸法線
 62
   253
100
AcDbLine
 10
66416.448958691
 20
-34554.56608663722
 30
0.0
 11
66350.40697888241
 21
-34566.29885366227
 31
0.0
  0
LINE
  5
47E233
330
18
100
AcDbEntity
  8
寸法線
 62
   253
100
AcDbLine
 10
66416.448958691
 20
-34555.23594300873
 30
0.0
 11
66350.40697888241
 21
-34566.96871003378
 31
0.0
  0
LINE
  5
47E234
330
18
100
AcDbEntity
  8
寸法線
 62
   253
100
AcDbLine
 10
66416.448958691
 20
-34556.51475971797
 30
0.0
 11
66350.40697888241
 21
-34568.24752674301
 31
0.0
  0
LINE
  5
47E235
330
18
100
AcDbEntity
  8
寸法線
 62
   253
100
AcDbLine
 10
66416.448958691
 20
-34557.18461608948
 30
0.0
 11
66350.40697888241
 21
-34568.91738311452
 31
0.0
  0
LINE
  5
47E236
330
18
100
AcDbEntity
  8
寸法線
 62
   253
100
AcDbLine
 10
66416.448958691
 20
-34558.60552354419
 30
0.0
 11
66350.40697888241
 21
-34570.33829056924
 31
0.0
  0
LINE
  5
47E237
330
18
100
AcDbEntity
  8
寸法線
 62
   253
100
AcDbLine
 10
66416.448958691
 20
-34557.89506981684
 30
0.0
 11
66350.40697888241
 21
-34569.62783684189
 31
0.0
  0
LINE
  5
47E238
330
18
100
AcDbEntity
  8
寸法線
 62
     8
100
AcDbLine
 10
66416.448958691
 20
-34560.96017018344
 30
0.0
 11
66350.40697888241
 21
-34572.69293720849
 31
0.0
  0
LINE
  5
47E239
330
18
100
AcDbEntity
  8
寸法線
 62
     8
100
AcDbLine
 10
66416.448958691
 20
-34562.06421721102
 30
0.0
 11
66350.40697888241
 21
-34573.79698423608
 31
0.0
  0
LINE
  5
47E23A
330
18
100
AcDbEntity
  8
寸法線
 62
     8
100
AcDbLine
 10
66462.1594517413
 20
-34594.96649115789
 30
0.0
 11
66462.1594517413
 21
-34596.95336765401
 31
0.0
  0
LINE
  5
47E23B
330
18
100
AcDbEntity
  8
寸法線
 62
     8
100
AcDbLine
 10
66463.09135109597
 20
-34595.32626940744
 30
0.0
 11
66462.62028310586
 21
-34595.32626940744
 31
0.0
  0
LINE
  5
47E23C
330
18
100
AcDbEntity
  8
寸法線
 62
     8
100
AcDbLine
 10
66463.09135109597
 20
-34598.78496307426
 30
0.0
 11
66463.09135109597
 21
-34597.68091604668
 31
0.0
  0
LINE
  5
47E23D
330
18
100
AcDbEntity
  8
寸法線
 62
     8
100
AcDbLine
 10
66405.85496921637
 20
-34604.65134658679
 30
0.0
 11
66463.09135109597
 21
-34598.78496307426
 31
0.0
  0
LINE
  5
47E23E
330
18
100
AcDbEntity
  8
寸法線
 62
     8
100
AcDbLine
 10
66463.09135109597
 20
-34595.32626940744
 30
0.0
 11
66463.09135109597
 21
-34594.61581568008
 31
0.0
  0
LINE
  5
47E23F
330
18
100
AcDbEntity
  8
寸法線
 62
   253
100
AcDbLine
 10
66462.62028310586
 20
-34595.32626940744
 30
0.0
 11
66452.695560758
 21
-34587.57788353759
 31
0.0
  0
LINE
  5
47E240
330
18
100
AcDbEntity
  8
寸法線
 62
   253
100
AcDbLine
 10
66463.09135109597
 20
-34595.32626940744
 30
0.0
 11
66452.695560758
 21
-34587.21011339446
 31
0.0
  0
LINE
  5
47E241
330
18
100
AcDbEntity
  8
寸法線
 62
     8
100
AcDbLine
 10
66350.40697888241
 20
-34573.79698423608
 30
0.0
 11
66405.85496921637
 21
-34604.65134658679
 31
0.0
  0
LINE
  5
47E242
330
18
100
AcDbEntity
  8
寸法線
 62
   253
100
AcDbLine
 10
66462.43313563139
 20
-34568.00968115497
 30
0.0
 11
66462.43313563139
 21
-34566.34514045463
 31
0.0
  0
LINE
  5
480F14
330
18
100
AcDbEntity
  8
姿図
100
AcDbLine
 10
66425.89164512034
 20
-34551.05392272363
 30
0.0
 11
66432.47609039626
 21
-34555.49453524138
 31
0.0
  0
LINE
  5
480F15
330
18
100
AcDbEntity
  8
姿図
100
AcDbLine
 10
66425.28419728944
 20
-34551.27655599729
 30
0.0
 11
66425.89164512034
 21
-34551.05392272363
 31
0.0
  0
LINE
  5
480F16
330
18
100
AcDbEntity
  8
姿図
100
AcDbLine
 10
66425.28571758505
 20
-34561.45692863561
 30
0.0
 11
66425.89164512034
 21
-34551.05392272363
 31
0.0
  0
LINE
  5
480F17
330
18
100
AcDbEntity
  8
姿図
100
AcDbLine
 10
66424.68598926657
 20
-34561.54702768917
 30
0.0
 11
66425.28419728944
 21
-34551.27655599729
 31
0.0
  0
LINE
  5
480F18
330
18
100
AcDbEntity
  8
姿図
100
AcDbLine
 10
66432.47609039626
 20
-34555.49453524138
 30
0.0
 11
66432.47609039626
 21
-34561.90102886391
 31
0.0
  0
LINE
  5
480F19
330
18
100
AcDbEntity
  8
姿図
100
AcDbLine
 10
66451.50468153683
 20
-34576.75525153403
 30
0.0
 11
66451.8131347961
 21
-34571.45950098129
 31
0.0
  0
LINE
  5
480F1A
330
18
100
AcDbEntity
  8
姿図
100
AcDbLine
 10
66452.07346237796
 20
-34577.19648134542
 30
0.0
 11
66452.420582627
 21
-34571.23686770763
 31
0.0
  0
LINE
  5
480F1B
330
18
100
AcDbEntity
  8
姿図
100
AcDbLine
 10
66451.8131347961
 20
-34571.45950098129
 30
0.0
 11
66452.420582627
 21
-34571.23686770763
 31
0.0
  0
LINE
  5
480F1C
330
18
100
AcDbEntity
  8
姿図
100
AcDbLine
 10
66452.420582627
 20
-34571.23686770763
 30
0.0
 11
66456.13355635064
 21
-34574.20083445065
 31
0.0
  0
LINE
  5
480F1D
330
18
100
AcDbEntity
  8
姿図
100
AcDbLine
 10
66456.13355635064
 20
-34574.20083445065
 30
0.0
 11
66456.13355635064
 21
-34580.37758501909
 31
0.0
  0
LINE
  5
480F1E
330
18
100
AcDbEntity
  8
寸法線
 62
   253
100
AcDbLine
 10
66460.6994119962
 20
-34582.29457230549
 30
0.0
 11
66456.13355635066
 21
-34578.72993743427
 31
0.0
  0
ENDSEC
  0
SECTION
  2
OBJECTS
  0
DICTIONARY
  5
C
330
0
100
AcDbDictionary
281
     1
  3
ACAD_GROUP
350
D
  3
ACAD_IMAGE_VARS
350
481240
  3
ACAD_LAYOUT
350
617
  3
ACAD_MLINESTYLE
350
E
  3
ACAD_PLOTSETTINGS
350
618
  3
ACAD_PLOTSTYLENAME
350
615
  3
ACAD_SCALELIST
350
44E3D9
  3
AcadDim
350
44DDA5
  3
AcDbVariableDictionary
350
6DE
  3
APPDATA
350
48123F
  3
ASE_INDEX_DICTIONARY
350
44CC62
  3
DWGPROPS
350
481293
  0
DICTIONARY
  5
6A835
330
2
100
AcDbDictionary
280
     1
281
     1
  3
ACAD_LAYERFILTERS
360
DBFD3
  3
ACAD_LAYERSTATES
360
6A836
  0
DICTIONARY
  5
44E404
330
F
100
AcDbDictionary
280
     1
281
     1
  3
ADSK_XREC_LAYER_RECONCILED
360
44E405
  0
DICTIONARY
  5
44E408
330
34
100
AcDbDictionary
280
     1
281
     1
  3
ADSK_XREC_LAYER_RECONCILED
360
44E409
  0
DICTIONARY
  5
44E40C
330
2F4
100
AcDbDictionary
280
     1
281
     1
  3
ADSK_XREC_LAYER_RECONCILED
360
44E40D
  0
DICTIONARY
  5
44E410
330
305
100
AcDbDictionary
280
     1
281
     1
  3
ADSK_XREC_LAYER_RECONCILED
360
44E411
  0
DICTIONARY
  5
D
102
{ACAD_REACTORS
330
C
102
}
330
C
100
AcDbDictionary
281
     1
  0
RASTERVARIABLES
  5
481240
102
{ACAD_REACTORS
330
C
102
}
330
C
100
AcDbRasterVariables
 90
        0
 70
     1
 71
     1
 72
     0
  0
DICTIONARY
  5
617
102
{ACAD_REACTORS
330
C
102
}
330
C
100
AcDbDictionary
281
     1
  3
Model
350
619
  3
ﾚｲｱｳﾄ1
350
61A
  0
DICTIONARY
  5
E
102
{ACAD_REACTORS
330
C
102
}
330
C
100
AcDbDictionary
281
     1
  3
STANDARD
350
1B
  0
DICTIONARY
  5
618
102
{ACAD_REACTORS
330
C
102
}
330
C
100
AcDbDictionary
281
     1
  0
ACDBDICTIONARYWDFLT
  5
615
102
{ACAD_REACTORS
330
C
102
}
330
C
100
AcDbDictionary
281
     1
  3
Normal
350
616
100
AcDbDictionaryWithDefault
340
616
  0
DICTIONARY
  5
44E3D9
102
{ACAD_REACTORS
330
C
102
}
330
C
100
AcDbDictionary
281
     1
  3
A0
350
44E3DA
  3
A1
350
44E3DB
  3
A2
350
44E3DC
  3
A3
350
44E3DD
  3
A4
350
44E3DE
  3
A5
350
44E3DF
  3
A6
350
44E3E0
  3
A7
350
44E3E1
  3
A8
350
44E3E2
  3
A9
350
44E3E3
  3
B0
350
44E3E4
  3
B1
350
44E3E5
  3
B2
350
44E3E6
  3
B3
350
44E3E7
  3
B4
350
44E3E8
  3
B5
350
44E3E9
  3
B6
350
44E3EA
  3
B7
350
44E3EB
  3
B8
350
44E3EC
  3
B9
350
44E3ED
  3
C0
350
44E3EE
  3
C1
350
44E3EF
  3
C2
350
44E3F0
  3
C3
350
44E3F1
  3
C4
350
44E3F2
  3
C5
350
44E3F3
  3
C6
350
44E3F4
  3
C7
350
44E3F5
  3
C8
350
44E3F6
  3
C9
350
44E3F7
  3
D0
350
44E3F8
  3
D1
350
44E3F9
  3
D2
350
44E3FA
  0
XRECORD
  5
44DDA5
102
{ACAD_REACTORS
330
C
102
}
330
C
100
AcDbXrecord
280
     1
 90
   990106
  3
OPEN
 60
     0
 61
     0
 62
     4
 63
     4
 64
     1
 65
     0
 66
     0
 67
     3
 68
     1
 69
     0
 70
     0
 71
     0
 72
     0
 40
0.0
170
     2
  0
DICTIONARY
  5
6DE
102
{ACAD_REACTORS
330
C
102
}
330
C
100
AcDbDictionary
281
     1
  3
DIMASSOC
350
6DF
  3
INDEXCTL
350
44E446
  3
PROJECTNAME
350
6E0
  3
SORTENTS
350
44E445
  0
DICTIONARY
  5
48123F
102
{ACAD_REACTORS
330
C
102
}
330
C
100
AcDbDictionary
281
     1
  0
DICTIONARY
  5
44CC62
102
{ACAD_REACTORS
330
C
102
}
330
C
100
AcDbDictionary
281
     1
  3
ASEBlockHierarchyIndexRecord
350
44CC64
1001
DCO15
1040
1604398629.359
  0
XRECORD
  5
481293
102
{ACAD_REACTORS
330
C
102
}
330
C
100
AcDbXrecord
280
     1
  1
DWGPROPS COOKIE
  2

  3

  4

  6

  7

  8
SPAX
  9

300
=
301
=
302
=
303
=
304
=
305
=
306
=
307
=
308
=
309
=
 40
0.0
 41
2448636.244629629
 42
2456822.102949989
  1

 90
        0
  0
DICTIONARY
  5
DBFD3
102
{ACAD_REACTORS
330
6A835
102
}
330
6A835
100
AcDbDictionary
281
     1
  0
DICTIONARY
  5
6A836
102
{ACAD_REACTORS
330
6A835
102
}
330
6A835
100
AcDbDictionary
281
     1
  0
XRECORD
  5
44E405
102
{ACAD_REACTORS
330
44E404
102
}
330
44E404
100
AcDbXrecord
280
     1
290
     1
  0
XRECORD
  5
44E409
102
{ACAD_REACTORS
330
44E408
102
}
330
44E408
100
AcDbXrecord
280
     1
290
     1
  0
XRECORD
  5
44E40D
102
{ACAD_REACTORS
330
44E40C
102
}
330
44E40C
100
AcDbXrecord
280
     1
290
     1
  0
XRECORD
  5
44E411
102
{ACAD_REACTORS
330
44E410
102
}
330
44E410
100
AcDbXrecord
280
     1
290
     1
  0
LAYOUT
  5
619
102
{ACAD_REACTORS
330
617
102
}
330
617
100
AcDbPlotSettings
  1

  2
JUST PDF 2.pc3
  4
A4
  6

 40
3.174999952316284
 41
3.174999952316284
 42
3.175003051757812
 43
3.17498779296875
 44
209.8886566162109
 45
297.0530090332031
 46
14.27
 47
9.86
 48
66305.99893169863
 49
-35772.90800057422
140
67180.97502417317
141
-34417.94462488089
142
1.0
143
5.0
 70
 11940
 72
     1
 73
     0
 74
     4
  7
spax form.ctb
 75
     0
147
0.2
148
-66305.99893169863
149
35772.90800057422
100
AcDbLayout
  1
Model
 70
     1
 71
     0
 10
0.0
 20
0.0
 11
12.0
 21
9.0
 12
0.0
 22
0.0
 32
0.0
 14
66341.62215732445
 24
-34657.59050649733
 34
0.0
 15
66463.09135109597
 25
-34513.93543097297
 35
0.0
146
0.0
 13
0.0
 23
0.0
 33
0.0
 16
1.0
 26
0.0
 36
0.0
 17
0.0
 27
1.0
 37
0.0
 76
     0
330
18
331
48121D
1001
ACAD_PSEXT
1000
DWG To PDF.pc3
1000
PDF
1000
ファイル
1000

1070
     0
  0
LAYOUT
  5
61A
102
{ACAD_REACTORS
330
617
102
}
330
617
100
AcDbPlotSettings
  1

  2
Canon LASER SHOT LBP-750
  4

  6

 40
0.0
 41
0.0
 42
0.0
 43
0.0
 44
0.0
 45
0.0
 46
0.0
 47
0.0
 48
0.0
 49
0.0
140
0.0
141
0.0
142
1.0
143
1.0
 70
   688
 72
     0
 73
     0
 74
     5
  7
spax form.ctb
 75
    16
147
1.0
148
0.0
149
0.0
100
AcDbLayout
  1
ﾚｲｱｳﾄ1
 70
     0
 71
     1
 10
0.0
 20
0.0
 11
12.0
 21
9.0
 12
0.0
 22
0.0
 32
0.0
 14
1.000000000000000E+20
 24
1.000000000000000E+20
 34
1.000000000000000E+20
 15
-1.000000000000000E+20
 25
-1.000000000000000E+20
 35
-1.000000000000000E+20
146
0.0
 13
0.0
 23
0.0
 33
0.0
 16
1.0
 26
0.0
 36
0.0
 17
0.0
 27
1.0
 37
0.0
 76
     0
330
15
  0
MLINESTYLE
  5
1B
102
{ACAD_REACTORS
330
E
102
}
330
E
100
AcDbMlineStyle
  2
STANDARD
 70
     0
  3

 62
     0
 51
90.0
 52
90.0
 71
     2
 49
0.5
 62
   256
  6
BYLAYER
 49
-0.5
 62
   256
  6
BYLAYER
  0
ACDBPLACEHOLDER
  5
616
102
{ACAD_REACTORS
330
615
102
}
330
615
  0
SCALE
  5
44E3DA
102
{ACAD_REACTORS
330
44E3D9
102
}
330
44E3D9
100
AcDbScale
 70
     0
300
1:1
140
1.0
141
1.0
290
     1
1001
ACAD
1000
AcRTDxfName
1000
SCALE
1000
AcRTDxfName
1000
SCALE
  0
SCALE
  5
44E3DB
102
{ACAD_REACTORS
330
44E3D9
102
}
330
44E3D9
100
AcDbScale
 70
     0
300
1:2
140
1.0
141
2.0
290
     0
1001
ACAD
1000
AcRTDxfName
1000
SCALE
1000
AcRTDxfName
1000
SCALE
  0
SCALE
  5
44E3DC
102
{ACAD_REACTORS
330
44E3D9
102
}
330
44E3D9
100
AcDbScale
 70
     0
300
1:4
140
1.0
141
4.0
290
     0
1001
ACAD
1000
AcRTDxfName
1000
SCALE
1000
AcRTDxfName
1000
SCALE
  0
SCALE
  5
44E3DD
102
{ACAD_REACTORS
330
44E3D9
102
}
330
44E3D9
100
AcDbScale
 70
     0
300
1:5
140
1.0
141
5.0
290
     0
1001
ACAD
1000
AcRTDxfName
1000
SCALE
1000
AcRTDxfName
1000
SCALE
  0
SCALE
  5
44E3DE
102
{ACAD_REACTORS
330
44E3D9
102
}
330
44E3D9
100
AcDbScale
 70
     0
300
1:8
140
1.0
141
8.0
290
     0
1001
ACAD
1000
AcRTDxfName
1000
SCALE
1000
AcRTDxfName
1000
SCALE
  0
SCALE
  5
44E3DF
102
{ACAD_REACTORS
330
44E3D9
102
}
330
44E3D9
100
AcDbScale
 70
     0
300
1:10
140
1.0
141
10.0
290
     0
1001
ACAD
1000
AcRTDxfName
1000
SCALE
1000
AcRTDxfName
1000
SCALE
  0
SCALE
  5
44E3E0
102
{ACAD_REACTORS
330
44E3D9
102
}
330
44E3D9
100
AcDbScale
 70
     0
300
1:16
140
1.0
141
16.0
290
     0
1001
ACAD
1000
AcRTDxfName
1000
SCALE
1000
AcRTDxfName
1000
SCALE
  0
SCALE
  5
44E3E1
102
{ACAD_REACTORS
330
44E3D9
102
}
330
44E3D9
100
AcDbScale
 70
     0
300
1:20
140
1.0
141
20.0
290
     0
1001
ACAD
1000
AcRTDxfName
1000
SCALE
1000
AcRTDxfName
1000
SCALE
  0
SCALE
  5
44E3E2
102
{ACAD_REACTORS
330
44E3D9
102
}
330
44E3D9
100
AcDbScale
 70
     0
300
1:30
140
1.0
141
30.0
290
     0
1001
ACAD
1000
AcRTDxfName
1000
SCALE
1000
AcRTDxfName
1000
SCALE
  0
SCALE
  5
44E3E3
102
{ACAD_REACTORS
330
44E3D9
102
}
330
44E3D9
100
AcDbScale
 70
     0
300
1:40
140
1.0
141
40.0
290
     0
1001
ACAD
1000
AcRTDxfName
1000
SCALE
1000
AcRTDxfName
1000
SCALE
  0
SCALE
  5
44E3E4
102
{ACAD_REACTORS
330
44E3D9
102
}
330
44E3D9
100
AcDbScale
 70
     0
300
1:50
140
1.0
141
50.0
290
     0
1001
ACAD
1000
AcRTDxfName
1000
SCALE
1000
AcRTDxfName
1000
SCALE
  0
SCALE
  5
44E3E5
102
{ACAD_REACTORS
330
44E3D9
102
}
330
44E3D9
100
AcDbScale
 70
     0
300
1:100
140
1.0
141
100.0
290
     0
1001
ACAD
1000
AcRTDxfName
1000
SCALE
1000
AcRTDxfName
1000
SCALE
  0
SCALE
  5
44E3E6
102
{ACAD_REACTORS
330
44E3D9
102
}
330
44E3D9
100
AcDbScale
 70
     0
300
2:1
140
2.0
141
1.0
290
     0
1001
ACAD
1000
AcRTDxfName
1000
SCALE
1000
AcRTDxfName
1000
SCALE
  0
SCALE
  5
44E3E7
102
{ACAD_REACTORS
330
44E3D9
102
}
330
44E3D9
100
AcDbScale
 70
     0
300
4:1
140
4.0
141
1.0
290
     0
1001
ACAD
1000
AcRTDxfName
1000
SCALE
1000
AcRTDxfName
1000
SCALE
  0
SCALE
  5
44E3E8
102
{ACAD_REACTORS
330
44E3D9
102
}
330
44E3D9
100
AcDbScale
 70
     0
300
8:1
140
8.0
141
1.0
290
     0
1001
ACAD
1000
AcRTDxfName
1000
SCALE
1000
AcRTDxfName
1000
SCALE
  0
SCALE
  5
44E3E9
102
{ACAD_REACTORS
330
44E3D9
102
}
330
44E3D9
100
AcDbScale
 70
     0
300
10:1
140
10.0
141
1.0
290
     0
1001
ACAD
1000
AcRTDxfName
1000
SCALE
1000
AcRTDxfName
1000
SCALE
  0
SCALE
  5
44E3EA
102
{ACAD_REACTORS
330
44E3D9
102
}
330
44E3D9
100
AcDbScale
 70
     0
300
100:1
140
100.0
141
1.0
290
     0
1001
ACAD
1000
AcRTDxfName
1000
SCALE
1000
AcRTDxfName
1000
SCALE
  0
SCALE
  5
44E3EB
102
{ACAD_REACTORS
330
44E3D9
102
}
330
44E3D9
100
AcDbScale
 70
     0
300
1/128" = 1'-0"
140
0.0078125
141
12.0
290
     0
1001
ACAD
1000
AcRTDxfName
1000
SCALE
1000
AcRTDxfName
1000
SCALE
  0
SCALE
  5
44E3EC
102
{ACAD_REACTORS
330
44E3D9
102
}
330
44E3D9
100
AcDbScale
 70
     0
300
1/64" = 1'-0"
140
0.015625
141
12.0
290
     0
1001
ACAD
1000
AcRTDxfName
1000
SCALE
1000
AcRTDxfName
1000
SCALE
  0
SCALE
  5
44E3ED
102
{ACAD_REACTORS
330
44E3D9
102
}
330
44E3D9
100
AcDbScale
 70
     0
300
1/32" = 1'-0"
140
0.03125
141
12.0
290
     0
1001
ACAD
1000
AcRTDxfName
1000
SCALE
1000
AcRTDxfName
1000
SCALE
  0
SCALE
  5
44E3EE
102
{ACAD_REACTORS
330
44E3D9
102
}
330
44E3D9
100
AcDbScale
 70
     0
300
1/16" = 1'-0"
140
0.0625
141
12.0
290
     0
1001
ACAD
1000
AcRTDxfName
1000
SCALE
1000
AcRTDxfName
1000
SCALE
  0
SCALE
  5
44E3EF
102
{ACAD_REACTORS
330
44E3D9
102
}
330
44E3D9
100
AcDbScale
 70
     0
300
3/32" = 1'-0"
140
0.09375
141
12.0
290
     0
1001
ACAD
1000
AcRTDxfName
1000
SCALE
1000
AcRTDxfName
1000
SCALE
  0
SCALE
  5
44E3F0
102
{ACAD_REACTORS
330
44E3D9
102
}
330
44E3D9
100
AcDbScale
 70
     0
300
1/8" = 1'-0"
140
0.125
141
12.0
290
     0
1001
ACAD
1000
AcRTDxfName
1000
SCALE
1000
AcRTDxfName
1000
SCALE
  0
SCALE
  5
44E3F1
102
{ACAD_REACTORS
330
44E3D9
102
}
330
44E3D9
100
AcDbScale
 70
     0
300
3/16" = 1'-0"
140
0.1875
141
12.0
290
     0
1001
ACAD
1000
AcRTDxfName
1000
SCALE
1000
AcRTDxfName
1000
SCALE
  0
SCALE
  5
44E3F2
102
{ACAD_REACTORS
330
44E3D9
102
}
330
44E3D9
100
AcDbScale
 70
     0
300
1/4" = 1'-0"
140
0.25
141
12.0
290
     0
1001
ACAD
1000
AcRTDxfName
1000
SCALE
1000
AcRTDxfName
1000
SCALE
  0
SCALE
  5
44E3F3
102
{ACAD_REACTORS
330
44E3D9
102
}
330
44E3D9
100
AcDbScale
 70
     0
300
3/8" = 1'-0"
140
0.375
141
12.0
290
     0
1001
ACAD
1000
AcRTDxfName
1000
SCALE
1000
AcRTDxfName
1000
SCALE
  0
SCALE
  5
44E3F4
102
{ACAD_REACTORS
330
44E3D9
102
}
330
44E3D9
100
AcDbScale
 70
     0
300
1/2" = 1'-0"
140
0.5
141
12.0
290
     0
1001
ACAD
1000
AcRTDxfName
1000
SCALE
1000
AcRTDxfName
1000
SCALE
  0
SCALE
  5
44E3F5
102
{ACAD_REACTORS
330
44E3D9
102
}
330
44E3D9
100
AcDbScale
 70
     0
300
3/4" = 1'-0"
140
0.75
141
12.0
290
     0
1001
ACAD
1000
AcRTDxfName
1000
SCALE
1000
AcRTDxfName
1000
SCALE
  0
SCALE
  5
44E3F6
102
{ACAD_REACTORS
330
44E3D9
102
}
330
44E3D9
100
AcDbScale
 70
     0
300
1" = 1'-0"
140
1.0
141
12.0
290
     0
1001
ACAD
1000
AcRTDxfName
1000
SCALE
1000
AcRTDxfName
1000
SCALE
  0
SCALE
  5
44E3F7
102
{ACAD_REACTORS
330
44E3D9
102
}
330
44E3D9
100
AcDbScale
 70
     0
300
1-1/2" = 1'-0"
140
1.5
141
12.0
290
     0
1001
ACAD
1000
AcRTDxfName
1000
SCALE
1000
AcRTDxfName
1000
SCALE
  0
SCALE
  5
44E3F8
102
{ACAD_REACTORS
330
44E3D9
102
}
330
44E3D9
100
AcDbScale
 70
     0
300
3" = 1'-0"
140
3.0
141
12.0
290
     0
1001
ACAD
1000
AcRTDxfName
1000
SCALE
1000
AcRTDxfName
1000
SCALE
  0
SCALE
  5
44E3F9
102
{ACAD_REACTORS
330
44E3D9
102
}
330
44E3D9
100
AcDbScale
 70
     0
300
6" = 1'-0"
140
6.0
141
12.0
290
     0
1001
ACAD
1000
AcRTDxfName
1000
SCALE
1000
AcRTDxfName
1000
SCALE
  0
SCALE
  5
44E3FA
102
{ACAD_REACTORS
330
44E3D9
102
}
330
44E3D9
100
AcDbScale
 70
     0
300
1'-0" = 1'-0"
140
12.0
141
12.0
290
     0
1001
ACAD
1000
AcRTDxfName
1000
SCALE
1000
AcRTDxfName
1000
SCALE
  0
DICTIONARYVAR
  5
6DF
102
{ACAD_REACTORS
330
6DE
102
}
330
6DE
100
DictionaryVariables
280
     0
  1
1
  0
DICTIONARYVAR
  5
44E446
102
{ACAD_REACTORS
330
6DE
102
}
330
6DE
100
DictionaryVariables
280
     0
  1
0
  0
DICTIONARYVAR
  5
6E0
102
{ACAD_REACTORS
330
6DE
102
}
330
6DE
100
DictionaryVariables
280
     0
  1

  0
DICTIONARYVAR
  5
44E445
102
{ACAD_REACTORS
330
6DE
102
}
330
6DE
100
DictionaryVariables
280
     0
  1
1
  0
XRECORD
  5
44CC64
102
{ACAD_REACTORS
330
44CC62
102
}
330
44CC62
100
AcDbXrecord
280
     1
330
0
330
0
330
0
330
0
330
0
330
0
330
0
330
0
330
0
330
0
330
0
330
0
330
0
330
0
330
0
330
0
330
0
330
0
330
0
330
0
330
0
330
0
330
0
330
0
330
0
330
0
330
0
330
0
330
0
330
0
330
0
330
0
330
0
330
0
330
0
330
0
330
0
330
0
330
0
330
0
330
0
330
0
330
0
330
0
330
0
330
0
330
0
330
0
330
0
330
0
330
0
330
0
330
0
330
0
330
0
330
0
330
0
330
0
330
0
330
0
330
0
330
0
330
0
330
0
330
0
330
0
330
0
330
0
330
0
330
0
330
0
330
0
330
0
330
0
330
0
330
0
330
0
330
0
330
0
330
0
330
0
330
0
330
0
330
0
330
0
330
0
330
0
330
0
330
0
330
0
330
0
330
0
330
0
330
0
330
0
330
0
330
0
330
0
330
0
330
0
330
0
330
0
330
0
330
0
330
0
330
0
330
0
330
0
330
0
330
0
330
0
330
0
330
0
330
0
330
0
330
0
330
0
330
0
330
0
330
0
330
0
330
0
330
0
330
0
330
0
330
0
330
0
330
0
330
0
330
0
330
0
330
0
330
0
330
0
330
0
330
0
330
0
330
0
330
0
330
0
330
0
330
0
330
0
330
0
330
0
330
0
330
0
330
0
330
0
330
0
330
0
330
0
330
0
330
0
330
0
330
0
330
0
330
0
330
0
330
0
330
0
330
0
330
0
330
0
330
0
330
0
330
0
330
0
330
0
330
0
330
0
330
0
330
0
330
0
330
0
330
0
330
0
330
0
330
0
330
0
330
0
330
0
330
0
330
0
330
0
330
0
330
0
330
0
330
0
330
0
330
0
330
0
330
0
330
0
330
0
330
0
330
0
330
0
330
0
330
0
330
0
330
0
330
0
330
0
330
0
330
0
330
0
330
0
330
0
330
0
330
0
330
0
330
0
330
0
330
0
330
0
330
0
330
0
330
0
330
0
330
0
330
0
330
0
330
0
330
0
330
0
330
0
330
0
330
0
330
0
330
0
330
0
330
0
330
0
330
0
330
0
330
0
330
0
330
0
330
0
330
0
330
0
330
0
330
0
330
0
330
0
330
0
330
0
330
0
330
0
330
0
330
0
330
0
330
0
330
0
330
0
330
0
330
0
330
0
330
0
330
0
330
0
330
0
330
0
330
0
330
0
330
0
330
0
330
0
330
0
330
0
330
0
330
0
330
0
330
0
330
0
330
0
330
0
330
0
330
0
330
0
330
0
330
0
330
0
330
0
330
0
330
0
330
0
330
0
330
0
330
0
330
0
330
0
330
0
330
0
330
0
330
0
330
0
330
0
330
0
330
0
330
0
330
0
330
0
330
0
330
0
330
0
330
0
330
0
330
0
330
0
330
0
330
0
330
0
330
0
330
0
330
0
330
0
330
0
330
0
330
0
330
0
330
0
330
0
330
0
330
0
330
0
330
0
330
0
330
0
330
0
330
0
330
0
330
0
330
0
330
0
330
0
330
0
330
0
330
0
330
0
330
0
330
0
330
0
330
0
330
0
330
0
330
0
330
0
330
0
330
0
330
0
330
0
330
0
330
0
330
0
330
0
330
0
330
0
330
0
330
0
330
0
330
0
330
0
330
0
330
0
330
0
330
0
330
0
330
0
330
0
330
0
330
0
330
0
330
0
330
0
330
0
330
0
330
0
330
0
330
0
330
0
330
0
330
0
330
0
330
0
330
0
330
0
330
0
330
0
330
0
330
0
330
0
330
0
330
0
330
0
330
0
330
0
330
0
330
0
330
0
330
0
330
0
330
0
330
0
330
0
330
0
330
0
330
0
330
0
330
0
330
0
330
0
330
0
330
0
330
0
330
0
330
0
330
0
330
0
330
0
330
0
330
0
330
0
330
0
330
0
330
0
330
0
330
0
330
0
330
0
330
0
330
0
330
0
330
0
330
0
330
0
330
0
330
0
330
0
330
0
330
0
330
0
330
0
330
0
330
0
330
0
330
0
330
0
330
0
330
0
330
0
330
0
330
0
330
0
330
0
330
0
330
0
330
0
330
0
330
0
330
0
330
0
330
0
330
0
330
0
330
0
330
0
330
0
330
0
330
0
330
0
330
0
330
0
330
0
330
0
330
0
330
0
330
0
330
0
330
0
330
0
330
0
330
0
330
0
330
0
330
0
330
0
330
0
330
0
330
0
330
0
330
0
330
0
330
0
330
0
330
0
330
0
330
0
330
0
330
0
330
0
330
0
330
0
330
0
330
0
330
0
330
0
330
0
330
0
330
0
330
0
330
0
330
0
330
0
330
0
330
0
330
0
330
0
330
0
330
0
330
0
330
0
330
0
330
0
330
0
330
0
330
0
330
0
330
0
330
0
330
0
330
0
330
0
330
0
330
0
330
0
330
0
330
0
330
0
330
0
330
0
330
0
330
0
330
0
330
0
330
0
330
0
330
0
330
0
330
0
330
0
330
0
330
0
330
0
330
0
330
0
330
0
330
0
330
0
330
0
330
0
330
0
330
0
330
0
330
0
330
0
330
0
330
0
330
0
330
0
330
0
330
0
330
0
330
0
330
0
330
0
330
0
330
0
330
0
330
0
330
0
330
0
330
0
330
0
330
0
330
0
330
0
330
0
330
0
330
0
330
0
330
0
330
0
330
0
330
0
330
0
330
0
330
0
330
0
330
0
330
0
330
0
330
0
330
0
330
0
330
0
330
0
330
0
330
0
330
0
330
0
330
0
330
0
330
0
330
0
330
0
330
0
330
0
330
0
330
0
330
0
330
0
330
0
330
0
330
0
330
0
330
0
330
0
330
0
330
0
330
0
330
0
330
0
330
0
330
0
330
0
330
0
330
0
330
0
330
0
330
0
330
0
330
0
330
0
330
0
330
0
330
0
330
0
330
0
330
0
330
0
330
0
330
0
330
0
330
0
330
0
330
0
330
0
330
0
330
0
330
0
330
0
330
0
330
0
330
0
330
0
330
0
330
0
330
0
330
0
330
0
330
0
330
0
330
0
330
0
330
0
330
0
330
0
330
0
330
0
330
0
330
0
330
0
330
0
330
0
330
0
330
0
330
0
330
0
330
0
330
0
330
0
330
0
330
0
330
0
330
0
330
0
330
0
330
0
330
0
330
0
330
0
330
0
330
0
330
0
330
0
330
0
330
0
330
0
330
0
330
0
330
0
330
0
330
0
330
0
330
0
330
0
330
0
330
0
330
0
330
0
330
0
330
0
330
0
330
0
330
0
330
0
330
0
330
0
330
0
330
0
330
0
330
0
330
0
330
0
330
0
330
0
330
0
330
0
330
0
330
0
330
0
330
0
330
0
330
0
330
0
330
0
330
0
330
0
330
0
330
0
330
0
330
0
330
0
330
0
330
0
330
0
330
0
330
0
330
0
330
0
330
0
330
0
330
0
330
0
330
0
330
0
330
0
330
0
330
0
330
0
330
0
330
0
330
0
330
0
330
0
330
0
330
0
330
0
330
0
330
0
330
0
330
0
330
0
330
0
330
0
330
0
330
0
330
0
330
0
330
0
330
0
330
0
330
0
330
0
330
0
330
0
330
0
330
0
330
0
330
0
330
0
330
0
330
0
330
0
330
0
330
0
330
0
330
0
330
0
330
0
330
0
330
0
330
0
330
0
330
0
330
0
330
0
330
0
330
0
330
0
330
0
330
0
330
0
330
0
330
0
330
0
330
0
330
0
330
0
330
0
330
0
330
0
330
0
330
0
330
0
330
0
330
0
330
0
330
0
330
0
330
0
330
0
330
0
330
0
330
0
330
0
330
0
330
0
330
0
330
0
330
0
330
0
330
0
330
0
330
0
330
0
330
0
330
0
330
0
330
0
330
0
330
0
330
0
330
0
330
0
330
0
330
0
330
0
330
0
330
0
330
0
330
0
330
0
330
0
330
0
330
0
330
0
330
0
330
0
330
0
330
0
330
0
330
0
330
0
330
0
330
0
330
0
330
0
330
0
330
0
330
0
330
0
330
0
330
0
330
0
330
0
330
0
330
0
330
0
330
0
330
0
330
0
330
0
330
0
330
0
330
0
330
0
330
0
330
0
330
0
330
0
330
0
330
0
330
0
330
0
330
0
330
0
330
0
330
0
330
0
330
0
330
0
330
0
330
0
330
0
330
0
330
0
330
0
330
0
330
0
330
0
330
0
330
0
330
0
330
0
330
0
330
0
330
0
330
0
330
0
330
0
330
0
330
0
330
0
330
0
330
0
330
0
330
0
330
0
330
0
330
0
330
0
330
0
330
0
330
0
330
0
330
0
330
0
330
0
330
0
330
0
330
0
330
0
330
0
330
0
330
0
330
0
330
0
330
0
330
0
330
0
330
0
330
0
330
0
330
0
330
0
330
0
330
0
330
0
330
0
330
0
330
0
330
0
330
0
330
0
330
0
330
0
330
0
330
0
330
0
330
0
330
0
330
0
330
0
330
0
330
0
330
0
330
0
330
0
330
0
330
0
330
0
330
0
330
0
330
0
330
0
330
0
330
0
330
0
330
0
330
0
330
0
330
0
330
0
330
0
330
0
330
0
330
0
330
0
330
0
330
0
330
0
330
0
330
0
330
0
330
0
330
0
330
0
330
0
330
0
330
0
330
0
330
0
330
0
330
0
330
0
330
0
330
0
330
0
330
0
330
0
330
0
330
0
330
0
330
0
330
0
330
0
330
0
330
0
330
0
330
0
330
0
330
0
330
0
330
0
330
0
330
0
330
0
330
0
330
0
330
0
330
0
330
0
330
0
330
0
330
0
330
0
330
0
330
0
330
0
330
0
330
0
330
0
330
0
330
0
330
0
330
0
330
0
330
0
330
0
330
0
330
0
330
0
330
0
330
0
330
0
330
0
330
0
330
0
330
0
330
0
330
0
330
0
330
0
330
0
330
0
330
0
330
0
330
0
330
0
330
0
330
0
330
0
330
0
330
0
330
0
330
0
330
0
330
0
330
0
330
0
330
0
330
0
330
0
330
0
330
0
330
0
330
0
330
0
330
0
330
0
330
0
330
0
330
0
330
0
330
0
330
0
330
0
330
0
330
0
330
0
330
0
330
0
330
0
330
0
330
0
330
0
330
0
330
0
330
0
330
0
330
0
330
0
330
0
330
0
330
0
330
0
330
0
330
0
330
0
330
0
330
0
330
0
330
0
330
0
330
0
330
0
330
0
330
0
330
0
330
0
330
0
330
0
330
0
330
0
330
0
330
0
330
0
330
0
330
0
330
0
330
0
330
0
330
0
330
0
330
0
330
0
330
0
330
0
330
0
330
0
330
0
330
0
330
0
330
0
330
0
330
0
330
0
330
0
330
0
330
0
330
0
330
0
330
0
330
0
330
0
330
0
330
0
330
0
330
0
330
0
330
0
330
0
330
0
330
0
330
0
330
0
330
0
330
0
330
0
330
0
330
0
330
0
330
0
330
0
330
0
330
0
330
0
330
0
330
0
330
0
330
0
330
0
330
0
330
0
330
0
330
0
330
0
330
0
330
0
330
0
330
0
330
0
330
0
330
0
330
0
330
0
330
0
330
0
330
0
330
0
330
0
330
0
330
0
330
0
330
0
330
0
330
0
330
0
330
0
330
0
330
0
330
0
330
0
330
0
330
0
330
0
330
0
330
0
330
0
330
0
330
0
330
0
330
0
330
0
330
0
330
0
330
0
330
0
330
0
330
0
330
0
330
0
330
0
330
0
330
0
330
0
330
0
330
0
330
0
330
0
330
0
330
0
330
0
330
0
330
0
330
0
330
0
330
0
330
0
330
0
330
0
330
0
330
0
330
0
330
0
330
0
330
0
330
0
330
0
330
0
330
0
330
0
330
0
330
0
330
0
330
0
330
0
330
0
330
0
330
0
330
0
330
0
330
0
330
0
330
0
330
0
330
0
330
0
330
0
330
0
330
0
330
0
330
0
330
0
330
0
330
0
330
0
330
0
330
0
330
0
330
0
330
0
330
0
330
0
330
0
330
0
330
0
330
0
330
0
330
0
330
0
330
0
330
0
330
0
330
0
330
0
330
0
330
0
330
0
330
0
330
0
330
0
330
0
330
0
330
0
330
0
330
0
330
0
330
0
330
0
330
0
330
0
330
0
330
0
330
0
330
0
330
0
330
0
330
0
330
0
330
0
330
0
330
0
330
0
330
0
330
0
330
0
330
0
330
0
330
0
330
0
330
0
330
0
330
0
330
0
330
0
330
0
330
0
330
0
330
0
330
0
330
0
330
0
330
0
330
0
330
0
330
0
330
0
330
0
330
0
330
0
330
0
330
0
330
0
330
0
330
0
330
0
330
0
330
0
330
0
330
0
330
0
330
0
330
0
330
0
330
0
330
0
330
0
330
0
330
0
330
0
330
0
330
0
330
0
330
0
330
0
330
0
330
0
330
0
330
0
330
0
330
0
330
0
330
0
330
0
330
0
330
0
330
0
330
0
330
0
330
0
330
0
330
0
330
0
330
0
330
0
330
0
330
0
330
0
330
0
330
0
330
0
330
0
330
0
330
0
330
0
330
0
330
0
330
0
330
0
330
0
330
0
330
0
330
0
330
0
330
0
330
0
330
0
330
0
330
0
330
0
330
0
330
0
330
0
330
0
330
0
330
0
330
0
330
0
330
0
330
0
330
0
330
0
330
0
330
0
330
0
330
0
330
0
330
0
330
0
330
0
330
0
330
0
330
0
330
0
330
0
330
0
330
0
330
0
330
0
330
0
330
0
330
0
330
0
330
0
330
0
330
0
330
0
330
0
330
0
330
0
330
0
330
0
330
0
330
0
330
0
330
0
330
0
330
0
330
0
330
0
330
0
330
0
330
0
330
0
330
0
330
0
330
0
330
0
330
0
330
0
330
0
330
0
330
0
330
0
330
0
330
0
330
0
330
0
330
0
330
0
330
0
330
0
330
0
330
0
330
0
330
0
330
0
330
0
330
0
330
0
330
0
330
0
330
0
330
0
330
0
330
0
330
0
330
0
330
0
330
0
330
0
330
0
330
0
330
0
330
0
330
0
330
0
330
0
330
0
330
0
330
0
330
0
330
0
330
0
330
0
330
0
330
0
330
0
330
0
330
0
330
0
330
0
330
0
330
0
330
0
330
0
330
0
330
0
330
0
330
0
330
0
330
0
330
0
330
0
330
0
330
0
330
0
330
0
330
0
330
0
330
0
330
0
330
0
330
0
330
0
330
0
330
0
330
0
330
0
330
0
330
0
330
0
330
0
330
0
330
0
330
0
330
0
330
0
330
0
330
0
330
0
330
0
330
0
330
0
330
0
330
0
330
0
330
0
330
0
330
0
330
0
330
0
330
0
330
0
330
0
330
0
330
0
330
0
330
0
330
0
330
0
330
0
330
0
330
0
330
0
330
0
330
0
330
0
330
0
330
0
330
0
330
0
330
0
330
0
330
0
330
0
330
0
330
0
330
0
330
0
330
0
330
0
330
0
330
0
330
0
330
0
330
0
330
0
330
0
330
0
330
0
330
0
330
0
330
0
330
0
330
0
330
0
330
0
330
0
330
0
330
0
330
0
330
0
330
0
330
0
330
0
330
0
330
0
330
0
330
0
330
0
330
0
330
0
330
0
330
0
330
0
330
0
330
0
330
0
330
0
330
0
330
0
330
0
330
0
330
0
330
0
330
0
330
0
330
0
330
0
330
0
330
0
330
0
330
0
330
0
330
0
330
0
330
0
330
0
330
0
330
0
330
0
330
0
330
0
330
0
330
0
330
0
330
0
330
0
330
0
330
0
330
0
330
0
330
0
330
0
330
0
330
0
330
0
330
0
330
0
330
0
330
0
330
0
330
0
330
0
330
0
330
0
330
0
330
0
330
0
330
0
330
0
330
0
330
0
330
0
330
0
330
0
330
0
330
0
330
0
330
0
330
0
330
0
330
0
330
0
330
0
330
0
330
0
330
0
330
0
330
0
330
0
330
0
330
0
330
0
330
0
330
0
330
0
330
0
330
0
330
0
330
0
330
0
330
0
330
0
330
0
330
0
330
0
330
0
330
0
330
0
330
0
330
0
330
0
330
0
330
0
330
0
330
0
330
0
330
0
330
0
330
0
330
0
330
0
330
0
330
0
330
0
330
0
330
0
330
0
330
0
330
0
330
0
330
0
330
0
330
0
330
0
330
0
330
0
330
0
330
0
330
0
330
0
330
0
330
0
330
0
330
0
330
0
330
0
330
0
330
0
330
0
330
0
330
0
330
0
330
0
330
0
330
0
330
0
330
0
330
0
330
0
330
0
330
0
330
0
330
0
330
0
330
0
330
0
330
0
330
0
330
0
330
0
330
0
330
0
330
0
330
0
330
0
330
0
330
0
330
0
330
0
330
0
330
0
330
0
330
0
330
0
330
0
330
0
330
0
330
0
330
0
330
0
330
0
330
0
330
0
330
0
330
0
330
0
330
0
330
0
330
0
330
0
330
0
330
0
330
0
330
0
330
0
330
0
330
0
330
0
330
0
330
0
330
0
330
0
330
0
330
0
330
0
330
0
330
0
330
0
330
0
330
0
330
0
330
0
330
0
330
0
330
0
330
0
330
0
330
0
330
0
330
0
330
0
330
0
330
0
330
0
330
0
330
0
330
0
330
0
330
0
330
0
330
0
330
0
330
0
330
0
330
0
330
0
330
0
330
0
330
0
330
0
330
0
330
0
330
0
330
0
330
0
330
0
330
0
330
0
330
0
330
0
330
0
330
0
330
0
330
0
330
0
330
0
330
0
330
0
330
0
330
0
330
0
330
0
330
0
330
0
330
0
330
0
330
0
330
0
330
0
330
0
330
0
330
0
330
0
330
0
330
0
330
0
330
0
330
0
330
0
330
0
330
0
330
0
330
0
330
0
330
0
330
0
330
0
330
0
330
0
330
0
330
0
330
0
330
0
330
0
330
0
330
0
330
0
330
0
330
0
330
0
330
0
330
0
330
0
330
0
330
0
330
0
330
0
330
0
330
0
330
0
330
0
330
0
330
0
330
0
330
0
330
0
330
0
330
0
330
0
330
0
330
0
330
0
330
0
330
0
330
0
330
0
330
0
330
0
330
0
330
0
330
0
330
0
330
0
330
0
330
0
330
0
330
0
330
0
330
0
330
0
330
0
330
0
330
0
330
0
330
0
330
0
330
0
330
0
330
0
330
0
330
0
330
0
330
0
330
0
330
0
330
0
330
0
330
0
330
0
330
0
330
0
330
0
330
0
330
0
330
0
330
0
330
0
330
0
330
0
330
0
330
0
330
0
330
0
330
0
330
0
330
0
330
0
330
0
330
0
330
0
330
0
330
0
330
0
330
0
330
0
330
0
330
0
330
0
330
0
330
0
330
0
330
0
330
0
330
0
330
0
330
0
330
0
330
0
330
0
330
0
330
0
330
0
330
0
330
0
330
0
330
0
330
0
330
0
330
0
330
0
330
0
330
0
330
0
330
0
330
0
330
0
330
0
330
0
330
0
330
0
330
0
330
0
330
0
330
0
330
0
330
0
330
0
330
0
330
0
330
0
330
0
330
0
330
0
330
0
330
0
330
0
330
0
330
0
330
0
330
0
330
0
330
0
330
0
330
0
330
0
330
0
330
0
330
0
330
0
330
0
330
0
330
0
330
0
330
0
330
0
330
0
330
0
330
0
330
0
330
0
330
0
330
0
330
0
330
0
330
0
330
0
330
0
330
0
330
0
330
0
330
0
330
0
330
0
330
0
330
0
330
0
330
0
330
0
330
0
330
0
330
0
330
0
330
0
330
0
330
0
330
0
330
0
330
0
330
0
330
0
330
0
330
0
330
0
330
0
330
0
330
0
330
0
330
0
330
0
330
0
330
0
330
0
330
0
330
0
330
0
330
0
330
0
330
0
330
0
330
0
330
0
330
0
330
0
330
0
330
0
330
0
330
0
330
0
330
0
330
0
330
0
330
0
330
0
330
0
330
0
330
0
330
0
330
0
330
0
330
0
330
0
330
0
330
0
330
0
330
0
330
0
330
0
330
0
330
0
330
0
330
0
330
0
330
0
330
0
330
0
330
0
330
0
330
0
330
0
330
0
330
0
330
0
330
0
330
0
330
0
330
0
330
0
330
0
330
0
330
0
330
0
330
0
330
0
330
0
330
0
330
0
330
0
330
0
330
0
330
0
330
0
330
0
330
0
330
0
330
0
330
0
330
0
330
0
330
0
330
0
330
0
330
0
330
0
330
0
330
0
330
0
330
0
330
0
330
0
330
0
330
0
330
0
330
0
330
0
330
0
330
0
330
0
330
0
330
0
330
0
330
0
330
0
330
0
330
0
330
0
330
0
330
0
330
0
330
0
330
0
330
0
330
0
330
0
330
0
330
0
330
0
330
0
330
0
330
0
330
0
330
0
330
0
330
0
330
0
330
0
330
0
330
0
330
0
330
0
330
0
330
0
330
0
330
0
330
0
330
0
330
0
330
0
330
0
330
0
330
0
330
0
330
0
330
0
330
0
330
0
330
0
330
0
330
0
330
0
330
0
330
0
330
0
330
0
330
0
330
0
330
0
330
0
330
0
330
0
330
0
330
0
330
0
330
0
330
0
330
0
330
0
330
0
330
0
330
0
330
0
330
0
330
0
330
0
330
0
330
0
330
0
330
0
330
0
330
0
330
0
330
0
330
0
330
0
330
0
330
0
330
0
330
0
330
0
330
0
330
0
330
0
330
0
330
0
330
0
330
0
330
0
330
0
330
0
330
0
330
0
330
0
330
0
330
0
330
0
330
0
330
0
330
0
330
0
330
0
330
0
330
0
330
0
330
0
330
0
330
0
330
0
330
0
330
0
330
0
330
0
330
0
330
0
330
0
330
0
330
0
330
0
330
0
330
0
330
0
330
0
330
0
330
0
330
0
330
0
330
0
330
0
330
0
330
0
330
0
330
0
330
0
330
0
330
0
330
0
330
0
330
0
330
0
330
0
330
0
330
0
330
0
330
0
330
0
330
0
330
0
330
0
330
0
330
0
330
0
330
0
330
0
330
0
330
0
330
0
330
0
330
0
330
0
330
0
330
0
330
0
330
0
330
0
330
0
330
0
330
0
330
0
330
0
330
0
330
0
330
0
330
0
330
0
330
0
330
0
330
0
330
0
330
0
330
0
330
0
330
0
330
0
330
0
330
0
330
0
330
0
330
0
330
0
330
0
330
0
330
0
330
0
330
0
330
0
330
0
330
0
330
0
330
0
330
0
330
0
330
0
330
0
330
0
330
0
330
0
330
0
330
0
330
0
330
0
330
0
330
0
330
0
330
0
330
0
330
0
330
0
330
0
330
0
330
0
330
0
330
0
330
0
330
0
330
0
330
0
330
0
330
0
330
0
330
0
330
0
330
0
330
0
330
0
330
0
330
0
330
0
330
0
330
0
330
0
330
0
330
0
330
0
330
0
330
0
330
0
330
0
330
0
330
0
330
0
330
0
330
0
330
0
330
0
330
0
330
0
330
0
330
0
330
0
330
0
330
0
330
0
330
0
330
0
330
0
330
0
330
0
330
0
330
0
330
0
330
0
330
0
330
0
330
0
330
0
330
0
330
0
330
0
330
0
330
0
330
0
330
0
330
0
330
0
330
0
330
0
330
0
330
0
330
0
330
0
330
0
330
0
330
0
330
0
330
0
330
0
330
0
330
0
330
0
330
0
330
0
330
0
330
0
330
0
330
0
330
0
330
0
330
0
330
0
330
0
330
0
330
0
330
0
330
0
330
0
330
0
330
0
330
0
330
0
330
0
330
0
330
0
330
0
330
0
330
0
330
0
330
0
330
0
330
0
330
0
330
0
330
0
330
0
330
0
330
0
330
0
330
0
330
0
330
0
330
0
330
0
330
0
330
0
330
0
330
0
330
0
330
0
330
0
330
0
330
0
330
0
330
0
330
0
330
0
330
0
330
0
330
0
330
0
330
0
330
0
330
0
330
0
330
0
330
0
330
0
330
0
330
0
330
0
330
0
330
0
330
0
330
0
330
0
330
0
330
0
330
0
330
0
330
0
330
0
330
0
330
0
330
0
330
0
330
0
330
0
330
0
330
0
330
0
330
0
330
0
330
0
330
0
330
0
330
0
330
0
330
0
330
0
330
0
330
0
330
0
330
0
330
0
330
0
330
0
330
0
330
0
330
0
330
0
330
0
330
0
330
0
330
0
330
0
330
0
330
0
330
0
330
0
330
0
330
0
330
0
330
0
330
0
330
0
330
0
330
0
330
0
330
0
330
0
330
0
330
0
330
0
330
0
330
0
330
0
330
0
330
0
330
0
330
0
330
0
330
0
330
0
330
0
330
0
330
0
330
0
330
0
330
0
330
0
330
0
330
0
330
0
330
0
330
0
330
0
330
0
330
0
330
0
330
0
330
0
330
0
330
0
330
0
330
0
330
0
330
0
330
0
330
0
330
0
330
0
330
0
330
0
330
0
330
0
330
0
330
0
330
0
330
0
330
0
330
0
330
0
330
0
330
0
330
0
330
0
330
0
330
0
330
0
330
0
330
0
330
0
330
0
330
0
330
0
330
0
330
0
330
0
330
0
330
0
330
0
330
0
330
0
330
0
330
0
330
0
330
0
330
0
330
0
330
0
330
0
330
0
330
0
330
0
330
0
330
0
330
0
330
0
330
0
330
0
330
0
330
0
330
0
330
0
330
0
330
0
330
0
330
0
330
0
330
0
330
0
330
0
330
0
330
0
330
0
330
0
330
0
330
0
330
0
330
0
330
0
330
0
330
0
330
0
330
0
330
0
330
0
330
0
330
0
330
0
330
0
330
0
330
0
330
0
330
0
330
0
330
0
330
0
330
0
330
0
330
0
330
0
330
0
330
0
330
0
330
0
330
0
330
0
330
0
330
0
330
0
330
0
330
0
330
0
330
0
330
0
330
0
330
0
330
0
330
0
330
0
330
0
330
0
330
0
330
0
330
0
330
0
330
0
330
0
330
0
330
0
330
0
330
0
330
0
330
0
330
0
330
0
330
0
330
0
330
0
330
0
330
0
330
0
330
0
330
0
330
0
330
0
330
0
330
0
330
0
330
0
330
0
330
0
330
0
330
0
330
0
330
0
330
0
330
0
330
0
330
0
330
0
330
0
330
0
330
0
330
0
330
0
330
0
330
0
330
0
330
0
330
0
330
0
330
0
330
0
330
0
330
0
330
0
330
0
330
0
330
0
330
0
330
0
330
0
330
0
330
0
330
0
330
0
330
0
330
0
330
0
330
0
330
0
330
0
330
0
330
0
330
0
330
0
330
0
330
0
330
0
330
0
330
0
330
0
330
0
330
0
330
0
330
0
330
0
330
0
330
0
330
0
330
0
330
0
330
0
330
0
330
0
330
0
330
0
330
0
330
0
330
0
330
0
330
0
330
0
330
0
330
0
330
0
330
0
330
0
330
0
330
0
330
0
330
0
330
0
330
0
330
0
330
0
330
0
330
0
330
0
330
0
330
0
330
0
330
0
330
0
330
0
330
0
330
0
330
0
330
0
330
0
330
0
330
0
330
0
330
0
330
0
330
0
330
0
330
0
330
0
330
0
330
0
330
0
330
0
330
0
330
0
330
0
330
0
330
0
330
0
330
0
330
0
330
0
330
0
330
0
330
0
330
0
330
0
330
0
330
0
330
0
330
0
330
0
330
0
330
0
330
0
330
0
330
0
330
0
330
0
330
0
330
0
330
0
330
0
330
0
330
0
330
0
330
0
330
0
330
0
330
0
330
0
330
0
330
0
330
0
330
0
330
0
330
0
330
0
330
0
330
0
330
0
330
0
330
0
330
0
330
0
330
0
330
0
330
0
330
0
330
0
330
0
330
0
330
0
330
0
330
0
330
0
330
0
330
0
330
0
330
0
330
0
330
0
330
0
330
0
330
0
330
0
330
0
330
0
330
0
330
0
330
0
330
0
330
0
330
0
330
0
330
0
330
0
330
0
330
0
330
0
330
0
330
0
330
0
330
0
330
0
330
0
330
0
330
0
330
0
330
0
330
0
330
0
330
0
330
0
330
0
330
0
330
0
330
0
330
0
330
0
330
0
330
0
330
0
330
0
330
0
330
0
330
0
330
0
330
0
330
0
330
0
330
0
330
0
330
0
330
0
330
0
330
0
330
0
330
0
330
0
330
0
330
0
330
0
330
0
330
0
330
0
330
0
330
0
330
0
330
0
330
0
330
0
330
0
330
0
330
0
330
0
330
0
330
0
330
0
330
0
330
0
330
0
330
0
330
0
330
0
330
0
330
0
330
0
330
0
330
0
330
0
330
0
330
0
330
0
330
0
330
0
330
0
330
0
330
0
330
0
330
0
330
0
330
0
330
0
330
0
330
0
330
0
330
0
330
0
330
0
330
0
330
0
330
0
330
0
330
0
330
0
330
0
330
0
330
0
330
0
330
0
330
0
330
0
330
0
330
0
330
0
330
0
330
0
330
0
330
0
330
0
330
0
330
0
330
0
330
0
330
0
330
0
330
0
330
0
330
0
330
0
330
0
330
0
330
0
330
0
330
0
330
0
330
0
330
0
330
0
330
0
330
0
330
0
330
0
330
0
330
0
330
0
330
0
330
0
330
0
330
0
330
0
330
0
330
0
330
0
330
0
330
0
330
0
330
0
330
0
330
0
330
0
330
0
330
0
330
0
330
0
330
0
330
0
330
0
330
0
330
0
330
0
330
0
330
0
330
0
330
0
330
0
330
0
330
0
330
0
330
0
330
0
330
0
330
0
330
0
330
0
330
0
330
0
330
0
330
0
330
0
330
0
330
0
330
0
330
0
330
0
330
0
330
0
330
0
330
0
330
0
330
0
330
0
330
0
330
0
330
0
330
0
330
0
330
0
330
0
330
0
330
0
330
0
330
0
330
0
330
0
330
0
330
0
330
0
330
0
330
0
330
0
330
0
330
0
330
0
330
0
330
0
330
0
330
0
330
0
330
0
330
0
330
0
330
0
330
0
330
0
330
0
330
0
330
0
330
0
330
0
330
0
330
0
330
0
330
0
330
0
330
0
330
0
330
0
330
0
330
0
330
0
330
0
330
0
330
0
330
0
330
0
330
0
330
0
330
0
330
0
330
0
330
0
330
0
330
0
330
0
330
0
330
0
330
0
330
0
330
0
330
0
330
0
330
0
330
0
330
0
330
0
330
0
330
0
330
0
330
0
330
0
330
0
330
0
330
0
330
0
330
0
330
0
330
0
330
0
330
0
330
0
330
0
330
0
330
0
330
0
330
0
330
0
330
0
330
0
330
0
330
0
330
0
330
0
330
0
330
0
330
0
330
0
330
0
330
0
330
0
330
0
330
0
330
0
330
0
330
0
330
0
330
0
330
0
330
0
330
0
330
0
330
0
330
0
330
0
330
0
330
0
330
0
330
0
330
0
330
0
330
0
330
0
330
0
330
0
330
0
330
0
330
0
330
0
330
0
330
0
330
0
330
0
330
0
330
0
330
0
330
0
330
0
330
0
330
0
330
0
330
0
330
0
330
0
330
0
330
0
330
0
330
0
330
0
330
0
330
0
330
0
330
0
330
0
330
0
330
0
330
0
330
0
330
0
330
0
330
0
330
0
330
0
330
0
330
0
330
0
330
0
330
0
330
0
330
0
330
0
330
0
330
0
330
0
330
0
330
0
330
0
330
0
330
0
330
0
330
0
330
0
330
0
330
0
330
0
330
0
330
0
330
0
330
0
330
0
330
0
330
0
330
0
330
0
330
0
330
0
330
0
330
0
330
0
330
0
330
0
330
0
330
0
330
0
330
0
330
0
330
0
330
0
330
0
330
0
330
0
330
0
330
0
330
0
330
0
330
0
330
0
330
0
330
0
330
0
330
0
330
0
330
0
330
0
330
0
330
0
330
0
330
0
330
0
330
0
330
0
330
0
330
0
330
0
330
0
330
0
330
0
330
0
330
0
330
0
330
0
330
0
330
0
330
0
330
0
330
0
330
0
330
0
330
0
330
0
330
0
330
0
330
0
330
0
330
0
330
0
330
0
330
0
330
0
330
0
330
0
330
0
330
0
330
0
330
0
330
0
330
0
330
0
330
0
330
0
330
0
330
0
330
0
330
0
330
0
330
0
330
0
330
0
330
0
330
0
330
0
330
0
330
0
330
0
330
0
330
0
330
0
330
0
330
0
  0
ENDSEC
  0
EOF
