  0
SECTION
  2
HEADER
  9
$ACADVER
  1
AC1015
  9
$ACADMAINTVER
 70
     6
  9
$DWGCODEPAGE
  3
ANSI_932
  9
$INSBASE
 10
0.0
 20
0.0
 30
0.0
  9
$EXTMIN
 10
63477.40311664049
 20
-35774.00868925302
 30
-151.3271844208811
  9
$EXTMAX
 10
68313.93543100668
 20
-34417.3143443305
 30
4.183576504006624
  9
$LIMMIN
 10
0.0
 20
0.0
  9
$LIMMAX
 10
420.0
 20
297.0
  9
$ORTHOMODE
 70
     0
  9
$REGENMODE
 70
     1
  9
$FILLMODE
 70
     1
  9
$QTEXTMODE
 70
     0
  9
$MIRRTEXT
 70
     1
  9
$LTSCALE
 40
5.0
  9
$ATTMODE
 70
     0
  9
$TEXTSIZE
 40
3.5
  9
$TRACEWID
 40
1.0
  9
$TEXTSTYLE
  7
STANDARD
  9
$CLAYER
  8
0
  9
$CELTYPE
  6
BYLAYER
  9
$CECOLOR
 62
   256
  9
$CELTSCALE
 40
1.0
  9
$DISPSILH
 70
     0
  9
$DIMSCALE
 40
1.0
  9
$DIMASZ
 40
1.5
  9
$DIMEXO
 40
1.5
  9
$DIMDLI
 40
0.38
  9
$DIMRND
 40
0.0
  9
$DIMDLE
 40
0.0
  9
$DIMEXE
 40
1.0
  9
$DIMTP
 40
0.0
  9
$DIMTM
 40
0.0
  9
$DIMTXT
 40
2.500000000000003
  9
$DIMCEN
 40
0.0
  9
$DIMTSZ
 40
0.0
  9
$DIMTOL
 70
     0
  9
$DIMLIM
 70
     0
  9
$DIMTIH
 70
     0
  9
$DIMTOH
 70
     0
  9
$DIMSE1
 70
     0
  9
$DIMSE2
 70
     0
  9
$DIMTAD
 70
     3
  9
$DIMZIN
 70
     8
  9
$DIMBLK
  1

  9
$DIMASO
 70
     1
  9
$DIMSHO
 70
     0
  9
$DIMPOST
  1

  9
$DIMAPOST
  1

  9
$DIMALT
 70
     0
  9
$DIMALTD
 70
     0
  9
$DIMALTF
 40
25.4
  9
$DIMLFAC
 40
1.0
  9
$DIMTOFL
 70
     0
  9
$DIMTVP
 40
0.0
  9
$DIMTIX
 70
     0
  9
$DIMSOXD
 70
     0
  9
$DIMSAH
 70
     1
  9
$DIMBLK1
  1
OPEN
  9
$DIMBLK2
  1
OPEN
  9
$DIMSTYLE
  2
STANDARD
  9
$DIMCLRD
 70
     8
  9
$DIMCLRE
 70
     8
  9
$DIMCLRT
 70
   256
  9
$DIMTFAC
 40
1.0
  9
$DIMGAP
 40
1.0
  9
$DIMJUST
 70
     0
  9
$DIMSD1
 70
     0
  9
$DIMSD2
 70
     0
  9
$DIMTOLJ
 70
     1
  9
$DIMTZIN
 70
     0
  9
$DIMALTZ
 70
     0
  9
$DIMALTTZ
 70
     0
  9
$DIMUPT
 70
     0
  9
$DIMDEC
 70
     2
  9
$DIMTDEC
 70
     2
  9
$DIMALTU
 70
     2
  9
$DIMALTTD
 70
     0
  9
$DIMTXSTY
  7
STANDARD
  9
$DIMAUNIT
 70
     0
  9
$DIMADEC
 70
     2
  9
$DIMALTRND
 40
0.0
  9
$DIMAZIN
 70
     2
  9
$DIMDSEP
 70
    46
  9
$DIMATFIT
 70
     3
  9
$DIMFRAC
 70
     0
  9
$DIMLDRBLK
  1
OPEN
  9
$DIMLUNIT
 70
     2
  9
$DIMLWD
 70
    -2
  9
$DIMLWE
 70
    -2
  9
$DIMTMOVE
 70
     0
  9
$LUNITS
 70
     2
  9
$LUPREC
 70
     2
  9
$SKETCHINC
 40
0.1
  9
$FILLETRAD
 40
30.0
  9
$AUNITS
 70
     0
  9
$AUPREC
 70
     1
  9
$MENU
  1
FM
  9
$ELEVATION
 40
0.0
  9
$PELEVATION
 40
0.0
  9
$THICKNESS
 40
0.0
  9
$LIMCHECK
 70
     0
  9
$CHAMFERA
 40
0.0
  9
$CHAMFERB
 40
0.0
  9
$CHAMFERC
 40
0.0
  9
$CHAMFERD
 40
0.0
  9
$SKPOLY
 70
     0
  9
$TDCREATE
 40
2448636.619629629
  9
$TDUCREATE
 40
2448636.244629629
  9
$TDUPDATE
 40
2456822.478533275
  9
$TDUUPDATE
 40
2456822.103533275
  9
$TDINDWG
 40
45.3145004398
  9
$TDUSRTIMER
 40
2456822.10303559
  9
$USRTIMER
 70
     1
  9
$ANGBASE
 50
0.0
  9
$ANGDIR
 70
     0
  9
$PDMODE
 70
     3
  9
$PDSIZE
 40
0.0
  9
$PLINEWID
 40
0.0
  9
$SPLFRAME
 70
     0
  9
$SPLINETYPE
 70
     6
  9
$SPLINESEGS
 70
     8
  9
$HANDSEED
  5
47B299
  9
$SURFTAB1
 70
     6
  9
$SURFTAB2
 70
     6
  9
$SURFTYPE
 70
     6
  9
$SURFU
 70
     6
  9
$SURFV
 70
     6
  9
$UCSBASE
  2

  9
$UCSNAME
  2

  9
$UCSORG
 10
0.0
 20
0.0
 30
0.0
  9
$UCSXDIR
 10
1.0
 20
0.0
 30
0.0
  9
$UCSYDIR
 10
0.0
 20
1.0
 30
0.0
  9
$UCSORTHOREF
  2

  9
$UCSORTHOVIEW
 70
     0
  9
$UCSORGTOP
 10
0.0
 20
0.0
 30
0.0
  9
$UCSORGBOTTOM
 10
0.0
 20
0.0
 30
0.0
  9
$UCSORGLEFT
 10
0.0
 20
0.0
 30
0.0
  9
$UCSORGRIGHT
 10
0.0
 20
0.0
 30
0.0
  9
$UCSORGFRONT
 10
0.0
 20
0.0
 30
0.0
  9
$UCSORGBACK
 10
0.0
 20
0.0
 30
0.0
  9
$PUCSBASE
  2

  9
$PUCSNAME
  2

  9
$PUCSORG
 10
0.0
 20
0.0
 30
0.0
  9
$PUCSXDIR
 10
1.0
 20
0.0
 30
0.0
  9
$PUCSYDIR
 10
0.0
 20
1.0
 30
0.0
  9
$PUCSORTHOREF
  2

  9
$PUCSORTHOVIEW
 70
     0
  9
$PUCSORGTOP
 10
0.0
 20
0.0
 30
0.0
  9
$PUCSORGBOTTOM
 10
0.0
 20
0.0
 30
0.0
  9
$PUCSORGLEFT
 10
0.0
 20
0.0
 30
0.0
  9
$PUCSORGRIGHT
 10
0.0
 20
0.0
 30
0.0
  9
$PUCSORGFRONT
 10
0.0
 20
0.0
 30
0.0
  9
$PUCSORGBACK
 10
0.0
 20
0.0
 30
0.0
  9
$USERI1
 70
     0
  9
$USERI2
 70
     0
  9
$USERI3
 70
     0
  9
$USERI4
 70
     0
  9
$USERI5
 70
     0
  9
$USERR1
 40
0.0
  9
$USERR2
 40
0.0
  9
$USERR3
 40
0.0
  9
$USERR4
 40
0.0
  9
$USERR5
 40
0.0
  9
$WORLDVIEW
 70
     0
  9
$SHADEDGE
 70
     3
  9
$SHADEDIF
 70
    70
  9
$TILEMODE
 70
     1
  9
$MAXACTVP
 70
    16
  9
$PINSBASE
 10
0.0
 20
0.0
 30
0.0
  9
$PLIMCHECK
 70
     0
  9
$PEXTMIN
 10
1.000000000000000E+20
 20
1.000000000000000E+20
 30
1.000000000000000E+20
  9
$PEXTMAX
 10
-1.000000000000000E+20
 20
-1.000000000000000E+20
 30
-1.000000000000000E+20
  9
$PLIMMIN
 10
0.0
 20
0.0
  9
$PLIMMAX
 10
0.0
 20
0.0
  9
$UNITMODE
 70
     0
  9
$VISRETAIN
 70
     0
  9
$PLINEGEN
 70
     0
  9
$PSLTSCALE
 70
     0
  9
$TREEDEPTH
 70
  3020
  9
$CMLSTYLE
  2
STANDARD
  9
$CMLJUST
 70
     0
  9
$CMLSCALE
 40
1.0
  9
$PROXYGRAPHICS
 70
     1
  9
$MEASUREMENT
 70
     0
  9
$CELWEIGHT
370
    -1
  9
$ENDCAPS
280
     0
  9
$JOINSTYLE
280
     0
  9
$LWDISPLAY
290
     0
  9
$INSUNITS
 70
     0
  9
$HYPERLINKBASE
  1

  9
$STYLESHEET
  1
spax form.ctb
  9
$XEDIT
290
     1
  9
$CEPSNTYPE
380
     0
  9
$PSTYLEMODE
290
     1
  9
$FINGERPRINTGUID
  2
{BBAEEBA6-8B94-11D3-9160-00E0294F7E09}
  9
$VERSIONGUID
  2
{F4D39CC9-494F-47C2-9810-7049A6D6A313}
  9
$EXTNAMES
290
     1
  9
$PSVPSCALE
 40
0.0
  9
$OLESTARTUP
290
     0
  0
ENDSEC
  0
SECTION
  2
CLASSES
  0
CLASS
  1
LWPOLYLINE
  2
AcDbPolyline
  3
ObjectDBX Classes
 90
        0
280
     0
281
     1
  0
CLASS
  1
ACDBDICTIONARYWDFLT
  2
AcDbDictionaryWithDefault
  3
ObjectDBX Classes
 90
        0
280
     0
281
     0
  0
CLASS
  1
ACDBPLACEHOLDER
  2
AcDbPlaceHolder
  3
ObjectDBX Classes
 90
        0
280
     0
281
     0
  0
CLASS
  1
LAYOUT
  2
AcDbLayout
  3
ObjectDBX Classes
 90
        0
280
     0
281
     0
  0
CLASS
  1
DICTIONARYVAR
  2
AcDbDictionaryVar
  3
ObjectDBX Classes
 90
        0
280
     0
281
     0
  0
CLASS
  1
DIMASSOC
  2
AcDbDimAssoc
  3
"AcDbDimAssoc|Product Desc:     AcDim ARX App For Dimension|Company:          Autodesk, Inc.|WEB Address:      www.autodesk.com"
 90
        0
280
     0
281
     0
  0
CLASS
  1
SORTENTSTABLE
  2
AcDbSortentsTable
  3
ObjectDBX Classes
 90
        0
280
     0
281
     0
  0
CLASS
  1
MATERIAL
  2
AcDbMaterial
  3
ObjectDBX Classes
 90
     1153
280
     0
281
     0
  0
CLASS
  1
VISUALSTYLE
  2
AcDbVisualStyle
  3
ObjectDBX Classes
 90
     4095
280
     0
281
     0
  0
CLASS
  1
TABLESTYLE
  2
AcDbTableStyle
  3
ObjectDBX Classes
 90
     4095
280
     0
281
     0
  0
CLASS
  1
SCALE
  2
AcDbScale
  3
ObjectDBX Classes
 90
     1153
280
     0
281
     0
  0
CLASS
  1
MLEADERSTYLE
  2
AcDbMLeaderStyle
  3
ACDB_MLEADERSTYLE_CLASS
 90
     4095
280
     0
281
     0
  0
CLASS
  1
CELLSTYLEMAP
  2
AcDbCellStyleMap
  3
ObjectDBX Classes
 90
     1152
280
     0
281
     0
  0
CLASS
  1
RASTERVARIABLES
  2
AcDbRasterVariables
  3
ISM
 90
        0
280
     0
281
     0
  0
CLASS
  1
SUN
  2
AcDbSun
  3
SCENEOE
 90
     1153
280
     0
281
     0
  0
ENDSEC
  0
SECTION
  2
TABLES
  0
TABLE
  2
VPORT
  5
8
330
0
100
AcDbSymbolTable
 70
     2
  0
VPORT
  5
47B26B
330
8
100
AcDbSymbolTableRecord
100
AcDbViewportTableRecord
  2
*Active
 70
     0
 10
0.0
 20
0.0
 11
1.0
 21
1.0
 12
67566.81597838
 22
-34585.94347488417
 13
0.0
 23
0.0
 14
1.0
 24
1.0
 15
20.0
 25
20.0
 16
0.0
 26
0.0
 36
1.0
 17
0.0
 27
0.0
 37
0.0
 40
396.068141279857
 41
1.300662251655629
 42
50.0
 43
0.0
 44
0.0
 50
0.0
 51
0.0
 71
    16
 72
   100
 73
     1
 74
     0
 75
     0
 76
     0
 77
     0
 78
     0
281
     0
 65
     1
110
0.0
120
0.0
130
0.0
111
1.0
121
0.0
131
0.0
112
0.0
122
1.0
132
0.0
 79
     0
146
0.0
  0
ENDTAB
  0
TABLE
  2
LTYPE
  5
5
330
0
100
AcDbSymbolTable
 70
     5
  0
LTYPE
  5
12
330
5
100
AcDbSymbolTableRecord
100
AcDbLinetypeTableRecord
  2
BYBLOCK
 70
     0
  3

 72
    65
 73
     0
 40
0.0
  0
LTYPE
  5
13
330
5
100
AcDbSymbolTableRecord
100
AcDbLinetypeTableRecord
  2
BYLAYER
 70
     0
  3

 72
    65
 73
     0
 40
0.0
  0
LTYPE
  5
14
330
5
100
AcDbSymbolTableRecord
100
AcDbLinetypeTableRecord
  2
CONTINUOUS
 70
     0
  3
Solid line
 72
    65
 73
     0
 40
0.0
  0
LTYPE
  5
26
330
5
100
AcDbSymbolTableRecord
100
AcDbLinetypeTableRecord
  2
PHANTOM
 70
     0
  3
_____ _ _ _____ _ _ _____ _ _ _____ _ _ ____
 72
    65
 73
     6
 40
2.5
 49
1.25
 74
     0
 49
-0.25
 74
     0
 49
0.25
 74
     0
 49
-0.25
 74
     0
 49
0.25
 74
     0
 49
-0.25
 74
     0
  0
LTYPE
  5
27
330
5
100
AcDbSymbolTableRecord
100
AcDbLinetypeTableRecord
  2
HIDDEN
 70
     0
  3
_ _ _ _ _ _ _ _ _ _ _ _ _ _ _ _ _ _ _ _ _ _ _
 72
    65
 73
     2
 40
0.375
 49
0.25
 74
     0
 49
-0.125
 74
     0
  0
LTYPE
  5
514
330
5
100
AcDbSymbolTableRecord
100
AcDbLinetypeTableRecord
  2
CENTER
 70
     0
  3
Center ____ _ ____ _ ____ _ ____ _ ____ _ ____
 72
    65
 73
     4
 40
2.0
 49
1.25
 74
     0
 49
-0.25
 74
     0
 49
0.25
 74
     0
 49
-0.25
 74
     0
  0
ENDTAB
  0
TABLE
  2
LAYER
  5
2
102
{ACAD_XDICTIONARY
360
6A835
102
}
330
0
100
AcDbSymbolTable
 70
    16
  0
LAYER
  5
F
102
{ACAD_XDICTIONARY
360
44E926
102
}
330
2
100
AcDbSymbolTableRecord
100
AcDbLayerTableRecord
  2
0
 70
     0
 62
     7
  6
CONTINUOUS
370
    -3
390
616
  0
LAYER
  5
34
102
{ACAD_XDICTIONARY
360
44E92A
102
}
330
2
100
AcDbSymbolTableRecord
100
AcDbLayerTableRecord
  2
寸法線
 70
     0
 62
     7
  6
CONTINUOUS
370
    -3
390
616
  0
LAYER
  5
2F4
102
{ACAD_XDICTIONARY
360
44E92E
102
}
330
2
100
AcDbSymbolTableRecord
100
AcDbLayerTableRecord
  2
文字
 70
     0
 62
     7
  6
CONTINUOUS
370
    -3
390
616
  0
LAYER
  5
305
102
{ACAD_XDICTIONARY
360
44E932
102
}
330
2
100
AcDbSymbolTableRecord
100
AcDbLayerTableRecord
  2
姿図
 70
     0
 62
     8
  6
CONTINUOUS
370
    -3
390
616
  0
ENDTAB
  0
TABLE
  2
STYLE
  5
3
330
0
100
AcDbSymbolTable
 70
     2
  0
STYLE
  5
10
330
3
100
AcDbSymbolTableRecord
100
AcDbTextStyleTableRecord
  2
STANDARD
 70
     0
 40
0.0
 41
1.0
 50
0.0
 71
     0
 42
3.5
  3
MONOTXT
  4
BIGFONT
  0
STYLE
  5
113DD
330
3
100
AcDbSymbolTableRecord
100
AcDbTextStyleTableRecord
  2
EXTFONT
 70
     0
 40
2.5
 41
1.0
 50
0.0
 71
     0
 42
2.5
  3
txt.shx
  4
extfont
  0
ENDTAB
  0
TABLE
  2
VIEW
  5
6
330
0
100
AcDbSymbolTable
 70
     0
  0
ENDTAB
  0
TABLE
  2
UCS
  5
7
330
0
100
AcDbSymbolTable
 70
     0
  0
ENDTAB
  0
TABLE
  2
APPID
  5
9
330
0
100
AcDbSymbolTable
 70
     7
  0
APPID
  5
11
330
9
100
AcDbSymbolTableRecord
100
AcDbRegAppTableRecord
  2
ACAD
 70
     0
  0
APPID
  5
100B4C
330
9
100
AcDbSymbolTableRecord
100
AcDbRegAppTableRecord
  2
GENIUS_GENODEF_13
 70
     0
  0
APPID
  5
100B4D
330
9
100
AcDbSymbolTableRecord
100
AcDbRegAppTableRecord
  2
GENIUS_GENREC_14
 70
     0
  0
APPID
  5
100B4E
330
9
100
AcDbSymbolTableRecord
100
AcDbRegAppTableRecord
  2
GENIUS_GENOBJ-N-REC_13
 70
     0
  0
APPID
  5
44CC63
330
9
100
AcDbSymbolTableRecord
100
AcDbRegAppTableRecord
  2
DCO15
 70
     0
  0
APPID
  5
44E91F
330
9
100
AcDbSymbolTableRecord
100
AcDbRegAppTableRecord
  2
ACAD_MLEADERVER
 70
     0
  0
APPID
  5
464F88
330
9
100
AcDbSymbolTableRecord
100
AcDbRegAppTableRecord
  2
ACAD_PSEXT
 70
     0
  0
ENDTAB
  0
TABLE
  2
DIMSTYLE
  5
A
330
0
100
AcDbSymbolTable
 70
     5
100
AcDbDimStyleTable
  0
DIMSTYLE
105
1CC
330
A
100
AcDbSymbolTableRecord
100
AcDbDimStyleTableRecord
  2
STANDARD
 70
     0
 41
1.5
 42
1.5
 44
1.0
 73
     0
 74
     0
 77
     3
 78
     8
 79
     2
140
2.500000000000003
141
0.0
147
1.0
171
     0
173
     1
176
     8
177
     8
271
     2
178
   256
179
     2
271
     2
272
     2
274
     0
340
10
341
608
343
608
344
608
  0
DIMSTYLE
105
44E997
330
A
100
AcDbSymbolTableRecord
100
AcDbDimStyleTableRecord
  2
STANDARD2
 70
     0
 41
5.0
 42
3.0
 43
10.0
 44
2.0
 73
     0
 74
     0
 77
     3
 78
     8
 79
     2
140
6.0
141
0.0
146
0.8800000000000001
147
2.0
171
     0
172
     1
176
     8
177
     8
271
     2
178
   256
179
     2
271
     2
272
     2
274
     0
284
     8
285
     8
286
     8
340
10
341
44E991
342
44E991
  0
DIMSTYLE
105
45062C
330
A
100
AcDbSymbolTableRecord
100
AcDbDimStyleTableRecord
  2
3-1
 70
     0
 41
3.0
 42
0.8
 43
0.6300000000000001
 44
0.6999999999999997
 73
     0
 74
     0
 77
     3
 78
     8
 79
     2
140
2.5
141
0.0
144
0.333333333333333
147
0.7999999999999998
171
     0
172
     1
173
     1
176
     8
177
     8
271
     2
178
   256
179
     2
271
     2
272
     2
274
     0
340
10
341
608
343
608
344
608
371
    -1
372
    -1
  0
ENDTAB
  0
TABLE
  2
BLOCK_RECORD
  5
1
330
0
100
AcDbSymbolTable
 70
    38
  0
BLOCK_RECORD
  5
18
330
1
100
AcDbSymbolTableRecord
100
AcDbBlockTableRecord
  2
*MODEL_SPACE
340
619
  0
BLOCK_RECORD
  5
15
330
1
100
AcDbSymbolTableRecord
100
AcDbBlockTableRecord
  2
*PAPER_SPACE
340
61A
  0
BLOCK_RECORD
  5
608
330
1
100
AcDbSymbolTableRecord
100
AcDbBlockTableRecord
  2
_OPEN
340
0
102
{BLKREFS
331
4505CC
331
4505CD
331
4505D5
331
4505D6
331
4505E7
331
4505E8
331
4505EF
331
4505F0
331
4505FA
331
4505FB
331
450603
331
450604
331
45060C
331
45060D
331
464E7E
331
464E7F
331
464E87
331
464E88
331
464E90
331
464E91
331
464E99
331
464E9A
331
464EA2
331
464EA3
331
464EAA
331
464EAB
331
464EB5
331
464EB6
331
473B97
331
473B98
331
473BA0
331
473BA1
331
473BA9
331
473BAA
331
473BB2
331
473BB3
331
473BBB
331
473BBC
331
473BC3
331
473BC4
331
473BCE
331
473BCF
331
4776DA
331
4776DB
331
4776E3
331
4776E4
331
4776EC
331
4776ED
331
4776F5
331
4776F6
331
4776FE
331
4776FF
331
477706
331
477707
331
477711
331
477712
331
47B20E
331
47B20F
331
47B216
331
47B217
331
47B221
331
47B222
331
47B22A
331
47B22B
331
47B233
331
47B234
331
47B23C
331
47B23D
331
47B245
331
47B246
102
}
  0
BLOCK_RECORD
  5
A48
330
1
100
AcDbSymbolTableRecord
100
AcDbBlockTableRecord
  2
SUN
340
0
  0
BLOCK_RECORD
  5
44E991
330
1
100
AcDbSymbolTableRecord
100
AcDbBlockTableRecord
  2
_Open30
340
0
  0
ENDTAB
  0
ENDSEC
  0
SECTION
  2
BLOCKS
  0
BLOCK
  5
39
330
18
100
AcDbEntity
  8
0
100
AcDbBlockBegin
  2
*MODEL_SPACE
 70
     0
 10
0.0
 20
0.0
 30
0.0
  3
*MODEL_SPACE
  1
*MODEL_SPACE
  0
ENDBLK
  5
3A
330
18
100
AcDbEntity
  8
0
100
AcDbBlockEnd
  0
BLOCK
  5
37
330
15
100
AcDbEntity
 67
     1
  8
0
100
AcDbBlockBegin
  2
*PAPER_SPACE
 70
     0
 10
0.0
 20
0.0
 30
0.0
  3
*PAPER_SPACE
  1
*PAPER_SPACE
  0
ENDBLK
  5
38
330
15
100
AcDbEntity
 67
     1
  8
0
100
AcDbBlockEnd
  0
BLOCK
  5
609
330
608
100
AcDbEntity
  8
0
100
AcDbBlockBegin
  2
_OPEN
 70
     0
 10
0.0
 20
0.0
 30
0.0
  3
_OPEN
  1
_OPEN
  0
LINE
  5
60A
330
608
100
AcDbEntity
  8
0
  6
ByBlock
 62
     0
100
AcDbLine
 10
-1.0
 20
0.1666666666666667
 30
0.0
 11
0.0
 21
0.0
 31
0.0
  0
LINE
  5
60B
330
608
100
AcDbEntity
  8
0
  6
ByBlock
 62
     0
100
AcDbLine
 10
0.0
 20
0.0
 30
0.0
 11
-1.0
 21
-0.1666666666666667
 31
0.0
  0
LINE
  5
60C
330
608
100
AcDbEntity
  8
0
  6
ByBlock
 62
     0
100
AcDbLine
 10
0.0
 20
0.0
 30
0.0
 11
-1.0
 21
0.0
 31
0.0
  0
ENDBLK
  5
60D
330
608
100
AcDbEntity
  8
0
100
AcDbBlockEnd
  0
BLOCK
  5
A49
330
A48
100
AcDbEntity
  8
0
100
AcDbBlockBegin
  2
SUN
 70
     0
 10
0.0
 20
0.0
 30
0.0
  3
SUN
  1
SUN
  0
LINE
  5
A4A
330
A48
100
AcDbEntity
  8
0
100
AcDbLine
 10
-0.0000000000000568
 20
0.0
 30
0.0
 11
-1.500000000000057
 21
0.0
 31
0.0
  0
LINE
  5
A4B
330
A48
100
AcDbEntity
  8
0
100
AcDbLine
 10
-0.0000000000000568
 20
0.0000000000000284
 30
0.0
 11
-1.500000000000057
 21
0.401923788646684
 31
0.0
  0
LINE
  5
A4C
330
A48
100
AcDbEntity
  8
0
100
AcDbLine
 10
-0.0000000000000568
 20
0.0000000000000284
 30
0.0
 11
-1.500000000000057
 21
-0.4019237886466556
 31
0.0
  0
ENDBLK
  5
A4D
330
A48
100
AcDbEntity
  8
0
100
AcDbBlockEnd
  0
BLOCK
  5
44E992
330
44E991
100
AcDbEntity
  8
0
100
AcDbBlockBegin
  2
_Open30
 70
     0
 10
0.0
 20
0.0
 30
0.0
  3
_Open30
  1
_Open30
  0
LINE
  5
44E993
330
44E991
100
AcDbEntity
  8
0
  6
ByBlock
 62
     0
370
    -2
100
AcDbLine
 10
-1.0
 20
0.26794919
 30
0.0
 11
0.0
 21
0.0
 31
0.0
  0
LINE
  5
44E994
330
44E991
100
AcDbEntity
  8
0
  6
ByBlock
 62
     0
370
    -2
100
AcDbLine
 10
0.0
 20
0.0
 30
0.0
 11
-1.0
 21
-0.26794919
 31
0.0
  0
LINE
  5
44E995
330
44E991
100
AcDbEntity
  8
0
  6
ByBlock
 62
     0
370
    -2
100
AcDbLine
 10
0.0
 20
0.0
 30
0.0
 11
-1.0
 21
0.0
 31
0.0
  0
ENDBLK
  5
44E996
330
44E991
100
AcDbEntity
  8
0
100
AcDbBlockEnd
  0
ENDSEC
  0
SECTION
  2
ENTITIES
  0
TEXT
  5
11B04
330
18
100
AcDbEntity
  8
文字
100
AcDbText
 10
-1240.183388714458
 20
-1416.837204555437
 30
0.0
 40
6.75
  1

 41
1.0228
100
AcDbText
  0
MTEXT
  5
12B3E
330
18
100
AcDbEntity
  8
0
100
AcDbMText
 10
-974.1891318600246
 20
-2072.131137572738
 30
0.0
 40
2.500000000000003
 41
0.0
 71
     9
 72
     1
  1
\A1;
 73
     1
 44
1.0
  0
MTEXT
  5
CD161
330
18
100
AcDbEntity
  8
寸法線
100
AcDbMText
 10
790.7551244589424
 20
-5735.183918242472
 30
0.0
 40
2.500000000000003
 41
0.0
 71
     6
 72
     1
  1
\A1;\P　　　　
 73
     1
 44
1.0
  0
MTEXT
  5
D3E27
330
18
100
AcDbEntity
  8
0
100
AcDbMText
 10
2439.336910391245
 20
667.075356397309
 30
0.0
 40
2.5
 41
0.0
 71
     9
 72
     1
  1
\A1;
 73
     1
 44
1.0
  0
MTEXT
  5
1420C2
330
18
100
AcDbEntity
  8
寸法線
100
AcDbMText
 10
-8174.409940395288
 20
1453.836710937994
 30
0.0
 40
2.5
 41
0.0
 71
     1
 72
     1
  1

  7
EXTFONT
 73
     1
 44
1.0
  0
TEXT
  5
18CEEC
330
18
100
AcDbEntity
  8
文字
100
AcDbText
 10
4713.45528577579
 20
-10991.74774079692
 30
0.0
 40
17.0
  1

 72
     1
 11
4713.45528577579
 21
-10991.74774079692
 31
0.0
100
AcDbText
  0
TEXT
  5
1D03BD
330
18
100
AcDbEntity
  8
文字
100
AcDbText
 10
9339.350494841161
 20
-6691.468753201214
 30
0.0
 40
15.0
  1

 72
     1
 11
9339.350494841161
 21
-6691.468753201214
 31
0.0
100
AcDbText
  0
TEXT
  5
36B148
330
18
100
AcDbEntity
  8
文字
100
AcDbText
 10
49394.64127479332
 20
-30205.80622202081
 30
0.0
 40
2.5
  1

100
AcDbText
  0
TEXT
  5
47772B
330
18
100
AcDbEntity
  8
文字
100
AcDbText
 10
67488.1309637211
 20
-34671.3755425592
 30
0.0
 40
15.0
  1
SX-LF102
  7
EXTFONT
100
AcDbText
  0
LINE
  5
477854
330
18
100
AcDbEntity
  8
寸法線
 62
     8
100
AcDbLine
 10
67605.97974138756
 20
-34589.42958897622
 30
0.0
 11
67605.97974138756
 21
-34583.80040113073
 31
0.0
  0
LINE
  5
477855
330
18
100
AcDbEntity
  8
寸法線
 62
   253
100
AcDbLine
 10
67596.38589598743
 20
-34590.7706823176
 30
0.0
 11
67595.53582793535
 21
-34590.10702090195
 31
0.0
  0
LINE
  5
477856
330
18
100
AcDbEntity
  8
寸法線
 62
   253
100
AcDbLine
 10
67596.41162181324
 20
-34590.32900257486
 30
0.0
 11
67595.53582793535
 21
-34589.64525660489
 31
0.0
  0
LINE
  5
477857
330
18
100
AcDbEntity
  8
寸法線
 62
   253
100
AcDbLine
 10
67582.60052752789
 20
-34580.9387137071
 30
0.0
 11
67558.86318271587
 21
-34563.09900071454
 31
0.0
  0
LINE
  5
477858
330
18
100
AcDbEntity
  8
寸法線
 62
   253
100
AcDbLine
 10
67582.41029253486
 20
-34581.4674019451
 30
0.0
 11
67558.86318271587
 21
-34563.76948331756
 31
0.0
  0
LINE
  5
477859
330
18
100
AcDbEntity
  8
寸法線
 62
   253
100
AcDbLine
 10
67582.75548007787
 20
-34580.50808005068
 30
0.0
 11
67558.86318271587
 21
-34562.56328294992
 31
0.0
  0
LINE
  5
47785A
330
18
100
AcDbEntity
  8
寸法線
 62
   253
100
AcDbLine
 10
67582.88798894327
 20
-34580.13982036587
 30
0.0
 11
67558.87202312626
 21
-34562.09071079578
 31
0.0
  0
LINE
  5
47785B
330
18
100
AcDbEntity
  8
寸法線
 62
   253
100
AcDbLine
 10
67551.57619626315
 20
-34556.60755931814
 30
0.0
 11
67546.32448632369
 21
-34552.66065629332
 31
0.0
  0
LINE
  5
47785C
330
18
100
AcDbEntity
  8
寸法線
 62
   253
100
AcDbLine
 10
67551.5492604782
 20
-34557.07001252154
 30
0.0
 11
67546.32448632369
 21
-34553.14583935896
 31
0.0
  0
LINE
  5
47785D
330
18
100
AcDbEntity
  8
寸法線
 62
   253
100
AcDbLine
 10
67551.4821660211
 20
-34558.22193910273
 30
0.0
 11
67546.32448632369
 21
-34554.34544656105
 31
0.0
  0
LINE
  5
47785E
330
18
100
AcDbEntity
  8
寸法線
 62
   253
100
AcDbLine
 10
67551.51956019834
 20
-34557.57992859103
 30
0.0
 11
67546.32448632369
 21
-34553.67559018954
 31
0.0
  0
LINE
  5
47785F
330
18
100
AcDbEntity
  8
寸法線
 62
   253
100
AcDbLine
 10
67551.37343112244
 20
-34560.08877915816
 30
0.0
 11
67546.32448632369
 21
-34556.2941196418
 31
0.0
  0
LINE
  5
477860
330
18
100
AcDbEntity
  8
寸法線
 62
   253
100
AcDbLine
 10
67551.41081086577
 20
-34559.44701645857
 30
0.0
 11
67546.32448632369
 21
-34555.62426327029
 31
0.0
  0
LINE
  5
477861
330
18
100
AcDbEntity
  8
寸法線
 62
   253
100
AcDbLine
 10
67551.30206979427
 20
-34561.31396249373
 30
0.0
 11
67546.32448632369
 21
-34557.57293635105
 31
0.0
  0
LINE
  5
477862
330
18
100
AcDbEntity
  8
寸法線
 62
   253
100
AcDbLine
 10
67551.26469005094
 20
-34561.95572519332
 30
0.0
 11
67546.32448632369
 21
-34558.24279272255
 31
0.0
  0
LINE
  5
477863
330
18
100
AcDbEntity
  8
寸法線
 62
   253
100
AcDbLine
 10
67551.19332872277
 20
-34563.18090852889
 30
0.0
 11
67546.32448632369
 21
-34559.52160943179
 31
0.0
  0
LINE
  5
477864
330
18
100
AcDbEntity
  8
寸法線
 62
   253
100
AcDbLine
 10
67549.94286954546
 20
-34564.85962441493
 30
0.0
 11
67546.32448632369
 21
-34562.14013888406
 31
0.0
  0
LINE
  5
477865
330
18
100
AcDbEntity
  8
寸法線
 62
   253
100
AcDbLine
 10
67550.68566231088
 20
-34564.74803234384
 30
0.0
 11
67546.32448632369
 21
-34561.47028251255
 31
0.0
  0
LINE
  5
477866
330
18
100
AcDbEntity
  8
寸法線
 62
   253
100
AcDbLine
 10
67551.15594897946
 20
-34563.82267122847
 30
0.0
 11
67546.32448632369
 21
-34560.1914658033
 31
0.0
  0
LINE
  5
477867
330
18
100
AcDbEntity
  8
姿図
100
AcDbLine
 10
67602.03625159951
 20
-34601.62500781618
 30
0.0
 11
67607.70133217797
 21
-34599.58037320529
 31
0.0
  0
LINE
  5
477868
330
18
100
AcDbEntity
  8
姿図
100
AcDbLine
 10
67548.67764934029
 20
-34565.04970238778
 30
0.0
 11
67549.35407260267
 21
-34564.94808121388
 31
0.0
  0
LINE
  5
477869
330
18
100
AcDbEntity
  8
姿図
100
AcDbLine
 10
67607.70133217797
 20
-34599.58037320529
 30
0.0
 11
67557.07027970863
 21
-34563.78885138279
 31
0.0
  0
LINE
  5
47786A
330
18
100
AcDbEntity
  8
姿図
100
AcDbLine
 10
67548.67764934029
 20
-34565.04970238778
 30
0.0
 11
67557.07027970863
 21
-34563.78885138279
 31
0.0
  0
LINE
  5
47786B
330
18
100
AcDbEntity
  8
寸法線
 62
   253
100
AcDbLine
 10
67602.03625159952
 20
-34601.62500781618
 30
0.0
 11
67548.67764934029
 21
-34565.04970238778
 31
0.0
  0
LINE
  5
47786C
330
18
100
AcDbEntity
  8
寸法線
 62
     8
100
AcDbLine
 10
67546.32448632369
 20
-34520.8396268483
 30
0.0
 11
67603.22993509514
 21
-34570.14080038223
 31
0.0
  0
LINE
  5
47786D
330
18
100
AcDbEntity
  8
寸法線
 62
     8
100
AcDbLine
 10
67603.22993509514
 20
-34570.14080038223
 30
0.0
 11
67603.22993509514
 21
-34578.892088464
 31
0.0
  0
LINE
  5
47786E
330
18
100
AcDbEntity
  8
寸法線
 62
     8
100
AcDbLine
 10
67605.97974138756
 20
-34609.22713875687
 30
0.0
 11
67605.06973818128
 21
-34609.22713875687
 31
0.0
  0
LINE
  5
47786F
330
18
100
AcDbEntity
  8
寸法線
 62
     8
100
AcDbLine
 10
67605.97974138756
 20
-34609.22713875687
 30
0.0
 11
67605.97974138756
 21
-34608.55728238536
 31
0.0
  0
LINE
  5
477870
330
18
100
AcDbEntity
  8
寸法線
 62
     8
100
AcDbLine
 10
67605.97974138756
 20
-34581.85085233557
 30
0.0
 11
67605.97974138756
 21
-34581.03890521859
 31
0.0
  0
LINE
  5
477871
330
18
100
AcDbEntity
  8
寸法線
 62
     8
100
AcDbLine
 10
67605.97974138756
 20
-34597.79898308538
 30
0.0
 11
67605.97974138756
 21
-34589.42958897622
 31
0.0
  0
LINE
  5
477872
330
18
100
AcDbEntity
  8
寸法線
 62
     8
100
AcDbLine
 10
67605.97974138756
 20
-34601.43244643386
 30
0.0
 11
67605.97974138756
 21
-34601.03256506056
 31
0.0
  0
LINE
  5
477873
330
18
100
AcDbEntity
  8
寸法線
 62
     8
100
AcDbLine
 10
67605.97974138756
 20
-34603.38111951461
 30
0.0
 11
67605.97974138756
 21
-34602.71126314311
 31
0.0
  0
LINE
  5
477874
330
18
100
AcDbEntity
  8
寸法線
 62
     8
100
AcDbLine
 10
67605.97974138756
 20
-34605.32979259537
 30
0.0
 11
67605.97974138756
 21
-34604.65993622386
 31
0.0
  0
LINE
  5
477875
330
18
100
AcDbEntity
  8
寸法線
 62
     8
100
AcDbLine
 10
67605.97974138756
 20
-34607.27846567612
 30
0.0
 11
67605.97974138756
 21
-34606.60860930461
 31
0.0
  0
LINE
  5
477876
330
18
100
AcDbEntity
  8
寸法線
 62
     8
100
AcDbLine
 10
67605.97974138756
 20
-34581.85085233557
 30
0.0
 11
67605.55712396854
 21
-34581.85085233557
 31
0.0
  0
LINE
  5
477877
330
18
100
AcDbEntity
  8
寸法線
 62
     8
100
AcDbLine
 10
67605.4605702807
 20
-34597.85542238416
 30
0.0
 11
67605.4605702807
 21
-34597.89362292285
 31
0.0
  0
LINE
  5
477878
330
18
100
AcDbEntity
  8
寸法線
 62
     8
100
AcDbLine
 10
67605.97974138756
 20
-34607.27846567612
 30
0.0
 11
67605.25223489509
 21
-34607.98930669508
 31
0.0
  0
LINE
  5
477879
330
18
100
AcDbEntity
  8
寸法線
 62
     8
100
AcDbLine
 10
67605.97974138756
 20
-34605.32979259537
 30
0.0
 11
67605.25223489509
 21
-34606.04063361432
 31
0.0
  0
LINE
  5
47787A
330
18
100
AcDbEntity
  8
寸法線
 62
     8
100
AcDbLine
 10
67605.97974138756
 20
-34603.38111951461
 30
0.0
 11
67605.25223489509
 21
-34604.09196053357
 31
0.0
  0
LINE
  5
47787B
330
18
100
AcDbEntity
  8
寸法線
 62
     8
100
AcDbLine
 10
67605.97974138756
 20
-34601.43244643386
 30
0.0
 11
67605.25223489509
 21
-34602.14328745281
 31
0.0
  0
LINE
  5
47787C
330
18
100
AcDbEntity
  8
寸法線
 62
     8
100
AcDbLine
 10
67605.97974138756
 20
-34597.79898308538
 30
0.0
 11
67605.4605702807
 21
-34597.85542238416
 31
0.0
  0
LINE
  5
47787D
330
18
100
AcDbEntity
  8
寸法線
 62
   253
100
AcDbLine
 10
67605.55712396854
 20
-34581.85085233557
 30
0.0
 11
67595.53582793535
 21
-34574.02706988002
 31
0.0
  0
LINE
  5
47787E
330
18
100
AcDbEntity
  8
寸法線
 62
   253
100
AcDbLine
 10
67605.4605702807
 20
-34597.85542238416
 30
0.0
 11
67603.79904243982
 21
-34596.55824162752
 31
0.0
  0
LINE
  5
47787F
330
18
100
AcDbEntity
  8
寸法線
 62
     8
100
AcDbLine
 10
67605.97974138756
 20
-34581.03890521859
 30
0.0
 11
67595.53582793535
 21
-34572.8851787381
 31
0.0
  0
LINE
  5
477880
330
18
100
AcDbEntity
  8
寸法線
 62
   253
100
AcDbLine
 10
67605.97974138756
 20
-34581.85085233557
 30
0.0
 11
67595.53582793534
 21
-34573.69712585509
 31
0.0
  0
LINE
  5
477881
330
18
100
AcDbEntity
  8
寸法線
 62
   253
100
AcDbLine
 10
67605.97974138756
 20
-34583.80040113073
 30
0.0
 11
67595.53582793534
 21
-34576.12670745153
 31
0.0
  0
LINE
  5
477882
330
18
100
AcDbEntity
  8
寸法線
 62
   253
100
AcDbLine
 10
67605.97974138756
 20
-34597.79898308538
 30
0.0
 11
67603.79904243982
 21
-34596.09647733048
 31
0.0
  0
LINE
  5
477883
330
18
100
AcDbEntity
  8
寸法線
 62
   253
100
AcDbLine
 10
67596.35507778681
 20
-34591.29979166582
 30
0.0
 11
67595.53582793535
 21
-34590.66019050111
 31
0.0
  0
LINE
  5
477884
330
18
100
AcDbEntity
  8
寸法線
 62
   253
100
AcDbLine
 10
67605.97974138756
 20
-34601.43244643386
 30
0.0
 11
67604.9017093549
 21
-34600.59080997529
 31
0.0
  0
LINE
  5
477885
330
18
100
AcDbEntity
  8
寸法線
 62
   253
100
AcDbLine
 10
67605.97974138756
 20
-34602.71126314311
 30
0.0
 11
67603.78154639338
 21
-34600.99509795128
 31
0.0
  0
LINE
  5
477886
330
18
100
AcDbEntity
  8
寸法線
 62
   253
100
AcDbLine
 10
67605.97974138756
 20
-34603.38111951461
 30
0.0
 11
67603.19479436595
 21
-34601.20686784347
 31
0.0
  0
LINE
  5
477887
330
18
100
AcDbEntity
  8
寸法線
 62
   253
100
AcDbLine
 10
67605.97974138756
 20
-34604.65993622386
 30
0.0
 11
67602.0833172522
 21
-34601.61793699656
 31
0.0
  0
LINE
  5
477888
330
18
100
AcDbEntity
  8
寸法線
 62
   253
100
AcDbLine
 10
67605.97974138756
 20
-34605.32979259537
 30
0.0
 11
67595.5839510496
 21
-34597.21363658239
 31
0.0
  0
LINE
  5
477889
330
18
100
AcDbEntity
  8
寸法線
 62
   253
100
AcDbLine
 10
67605.97974138756
 20
-34606.60860930461
 30
0.0
 11
67595.5839510496
 21
-34598.49245329163
 31
0.0
  0
LINE
  5
47788A
330
18
100
AcDbEntity
  8
寸法線
 62
   253
100
AcDbLine
 10
67605.97974138756
 20
-34607.27846567612
 30
0.0
 11
67595.5839510496
 21
-34599.16230966314
 31
0.0
  0
LINE
  5
47788B
330
18
100
AcDbEntity
  8
寸法線
 62
   253
100
AcDbLine
 10
67605.97974138756
 20
-34608.55728238536
 30
0.0
 11
67595.5839510496
 21
-34600.44112637239
 31
0.0
  0
LINE
  5
47788C
330
18
100
AcDbEntity
  8
寸法線
 62
   253
100
AcDbLine
 10
67605.97974138756
 20
-34609.22713875687
 30
0.0
 11
67595.5839510496
 21
-34601.1109827439
 31
0.0
  0
LINE
  5
47788D
330
18
100
AcDbEntity
  8
寸法線
 62
   253
100
AcDbLine
 10
67605.97974138756
 20
-34609.93759248423
 30
0.0
 11
67595.5839510496
 21
-34601.82143647125
 31
0.0
  0
LINE
  5
47788E
330
18
100
AcDbEntity
  8
寸法線
 62
   253
100
AcDbLine
 10
67595.53582793535
 20
-34574.02706988002
 30
0.0
 11
67546.32448632369
 21
-34537.19770860916
 31
0.0
  0
LINE
  5
47788F
330
18
100
AcDbEntity
  8
寸法線
 62
   253
100
AcDbLine
 10
67595.53582793535
 20
-34573.69712585509
 30
0.0
 11
67546.32448632369
 21
-34536.71252554351
 31
0.0
  0
LINE
  5
477890
330
18
100
AcDbEntity
  8
寸法線
 62
     8
100
AcDbLine
 10
67595.53582793535
 20
-34572.8851787381
 30
0.0
 11
67546.32448632369
 21
-34535.90057842653
 31
0.0
  0
LINE
  5
477891
330
18
100
AcDbEntity
  8
寸法線
100
AcDbLine
 10
67551.47437812597
 20
-34608.4605088015
 30
0.0
 11
67550.57400928621
 21
-34607.49117665484
 31
0.0
  0
LINE
  5
477892
330
18
100
AcDbEntity
  8
寸法線
 62
     8
100
AcDbLine
 10
67550.57400928621
 20
-34607.49117665484
 30
0.0
 11
67571.64909471878
 21
-34605.33110766293
 31
0.0
  0
LINE
  5
477893
330
18
100
AcDbEntity
  8
寸法線
 62
     8
100
AcDbLine
 10
67551.47437812597
 20
-34608.4605088015
 30
0.0
 11
67572.89609712228
 21
-34606.26491196252
 31
0.0
  0
LINE
  5
477894
330
18
100
AcDbEntity
  8
寸法線
 62
     8
100
AcDbLine
 10
67537.57902986156
 20
-34583.41949511395
 30
0.0
 11
67512.4585413081
 21
-34586.50111689086
 31
0.0
  0
LINE
  5
477895
330
18
100
AcDbEntity
  8
寸法線
 62
     8
100
AcDbLine
 10
67513.54429865109
 20
-34586.36792308512
 30
0.0
 11
67550.57400928621
 21
-34607.49117665484
 31
0.0
  0
LINE
  5
477896
330
18
100
AcDbEntity
  8
寸法線
 62
     8
100
AcDbLine
 10
67512.4585413081
 20
-34586.50111689086
 30
0.0
 11
67551.47437812597
 21
-34608.4605088015
 31
0.0
  0
LINE
  5
477897
330
18
100
AcDbEntity
  8
寸法線
 62
     8
100
AcDbLine
 10
67537.57902986153
 20
-34583.41949511395
 30
0.0
 11
67572.89609712228
 21
-34606.26491196252
 31
0.0
  0
LINE
  5
477898
330
18
100
AcDbEntity
  8
寸法線
 62
   253
100
AcDbLine
 10
67595.5839510496
 20
-34602.89966034174
 30
0.0
 11
67546.32448632369
 21
-34565.87748956265
 31
0.0
  0
LINE
  5
477899
330
18
100
AcDbEntity
  8
寸法線
 62
   253
100
AcDbLine
 10
67595.5839510496
 20
-34602.53189019861
 30
0.0
 11
67546.32448632369
 21
-34565.50971941952
 31
0.0
  0
LINE
  5
47789A
330
18
100
AcDbEntity
  8
寸法線
 62
   253
100
AcDbLine
 10
67595.5839510496
 20
-34601.82143647125
 30
0.0
 11
67546.32448632369
 21
-34564.79926569217
 31
0.0
  0
LINE
  5
47789B
330
18
100
AcDbEntity
  8
寸法線
 62
   253
100
AcDbLine
 10
67595.5839510496
 20
-34601.1109827439
 30
0.0
 11
67546.32448632369
 21
-34564.08881196481
 31
0.0
  0
LINE
  5
47789C
330
18
100
AcDbEntity
  8
寸法線
 62
   253
100
AcDbLine
 10
67595.5839510496
 20
-34600.44112637239
 30
0.0
 11
67546.32448632369
 21
-34563.4189555933
 31
0.0
  0
LINE
  5
47789D
330
18
100
AcDbEntity
  8
寸法線
 62
   253
100
AcDbLine
 10
67595.5839510496
 20
-34599.16230966314
 30
0.0
 11
67565.93587664289
 21
-34576.8795650157
 31
0.0
  0
LINE
  5
47789E
330
18
100
AcDbEntity
  8
寸法線
 62
   253
100
AcDbLine
 10
67595.5839510496
 20
-34598.49245329163
 30
0.0
 11
67576.0679361306
 21
-34583.82470890426
 31
0.0
  0
LINE
  5
47789F
330
18
100
AcDbEntity
  8
寸法線
 62
   253
100
AcDbLine
 10
67595.5839510496
 20
-34597.21363658239
 30
0.0
 11
67595.41095878869
 21
-34597.08361996401
 31
0.0
  0
LINE
  5
4778A0
330
18
100
AcDbEntity
  8
寸法線
 62
   253
100
AcDbLine
 10
67559.0476322602
 20
-34565.18665872726
 30
0.0
 11
67558.86318271587
 21
-34565.04803110374
 31
0.0
  0
LINE
  5
4778A1
330
18
100
AcDbEntity
  8
寸法線
 62
   253
100
AcDbLine
 10
67587.6582711887
 20
-34585.41176284072
 30
0.0
 11
67582.41029253489
 21
-34581.4674019451
 31
0.0
  0
LINE
  5
4778A2
330
18
100
AcDbEntity
  8
寸法線
 62
   253
100
AcDbLine
 10
67595.53582793535
 20
-34590.66019050111
 30
0.0
 11
67582.60052752789
 21
-34580.9387137071
 31
0.0
  0
LINE
  5
4778A3
330
18
100
AcDbEntity
  8
寸法線
 62
   253
100
AcDbLine
 10
67595.53582793535
 20
-34590.10702090195
 30
0.0
 11
67582.75548007789
 21
-34580.50808005068
 31
0.0
  0
LINE
  5
4778A4
330
18
100
AcDbEntity
  8
寸法線
 62
   253
100
AcDbLine
 10
67595.53582793535
 20
-34589.64525660489
 30
0.0
 11
67582.88798894329
 21
-34580.13982036587
 31
0.0
  0
LINE
  5
4778A5
330
18
100
AcDbEntity
  8
寸法線
 62
   253
100
AcDbLine
 10
67595.53582793534
 20
-34576.12670745153
 30
0.0
 11
67546.32448632369
 21
-34539.06717218275
 31
0.0
  0
LINE
  5
4778A6
330
18
100
AcDbEntity
  8
寸法線
 62
     8
100
AcDbLine
 10
67546.32448632369
 20
-34568.96841308635
 30
0.0
 11
67546.32448632369
 21
-34520.8396268483
 31
0.0
  0
LINE
  5
4778A7
330
18
100
AcDbEntity
  8
寸法線
 62
     8
100
AcDbLine
 10
67480.86401705371
 20
-34576.20345310427
 30
0.0
 11
67480.86401705371
 21
-34576.42872376597
 31
0.0
  0
LINE
  5
4778A8
330
18
100
AcDbEntity
  8
寸法線
 62
     8
100
AcDbLine
 10
67480.2825065151
 20
-34577.24248644457
 30
0.0
 11
67480.72329315657
 21
-34577.53194810895
 31
0.0
  0
LINE
  5
4778A9
330
18
100
AcDbEntity
  8
寸法線
 62
     8
100
AcDbLine
 10
67480.2825065151
 20
-34575.82157898985
 30
0.0
 11
67480.86401705371
 21
-34576.20345310427
 31
0.0
  0
LINE
  5
4778AA
330
18
100
AcDbEntity
  8
寸法線
 62
     8
100
AcDbLine
 10
67480.2825065151
 20
-34576.53203271722
 30
0.0
 11
67480.2825065151
 21
-34577.24248644457
 31
0.0
  0
LINE
  5
4778AB
330
18
100
AcDbEntity
  8
寸法線
 62
     8
100
AcDbLine
 10
67481.01001300756
 20
-34574.58374692805
 30
0.0
 11
67480.2825065151
 21
-34575.15172261834
 31
0.0
  0
LINE
  5
4778AC
330
18
100
AcDbEntity
  8
寸法線
 62
     8
100
AcDbLine
 10
67481.01001300756
 20
-34572.6350738473
 30
0.0
 11
67480.2825065151
 21
-34573.20304953759
 31
0.0
  0
LINE
  5
4778AD
330
18
100
AcDbEntity
  8
寸法線
 62
     8
100
AcDbLine
 10
67481.01001300756
 20
-34570.68640076655
 30
0.0
 11
67480.2825065151
 21
-34571.25437645684
 31
0.0
  0
LINE
  5
4778AE
330
18
100
AcDbEntity
  8
寸法線
 62
     8
100
AcDbLine
 10
67481.01001300756
 20
-34568.7377276858
 30
0.0
 11
67480.2825065151
 21
-34569.30570337609
 31
0.0
  0
LINE
  5
4778AF
330
18
100
AcDbEntity
  8
寸法線
 62
     8
100
AcDbLine
 10
67481.01001300756
 20
-34566.78905460505
 30
0.0
 11
67480.2825065151
 21
-34567.35703029534
 31
0.0
  0
LINE
  5
4778B0
330
18
100
AcDbEntity
  8
寸法線
 62
     8
100
AcDbLine
 10
67480.86401705371
 20
-34564.77529743276
 30
0.0
 11
67480.86401705371
 21
-34565.30504826333
 31
0.0
  0
LINE
  5
4778B1
330
18
100
AcDbEntity
  8
寸法線
 62
     8
100
AcDbLine
 10
67480.2825065151
 20
-34564.39342331836
 30
0.0
 11
67480.86401705371
 21
-34564.77529743276
 31
0.0
  0
LINE
  5
4778B2
330
18
100
AcDbEntity
  8
寸法線
 62
     8
100
AcDbLine
 10
67481.15014080428
 20
-34548.77633502534
 30
0.0
 11
67481.15014080428
 21
-34550.64579859893
 31
0.0
  0
LINE
  5
4778B3
330
18
100
AcDbEntity
  8
寸法線
 62
     8
100
AcDbLine
 10
67480.2825065151
 20
-34548.44529256855
 30
0.0
 11
67480.86401705371
 21
-34548.82716668297
 31
0.0
  0
LINE
  5
4778B4
330
18
100
AcDbEntity
  8
寸法線
 62
     8
100
AcDbLine
 10
67480.2825065151
 20
-34548.44529256855
 30
0.0
 11
67480.2825065151
 21
-34547.63334545158
 31
0.0
  0
LINE
  5
4778B5
330
18
100
AcDbEntity
  8
寸法線
 62
     8
100
AcDbLine
 10
67480.2825065151
 20
-34566.07821358609
 30
0.0
 11
67481.01001300756
 21
-34566.78905460505
 31
0.0
  0
LINE
  5
4778B6
330
18
100
AcDbEntity
  8
寸法線
 62
     8
100
AcDbLine
 10
67480.2825065151
 20
-34568.02688666685
 30
0.0
 11
67481.01001300756
 21
-34568.7377276858
 31
0.0
  0
LINE
  5
4778B7
330
18
100
AcDbEntity
  8
寸法線
 62
     8
100
AcDbLine
 10
67480.2825065151
 20
-34569.9755597476
 30
0.0
 11
67481.01001300756
 21
-34570.68640076655
 31
0.0
  0
LINE
  5
4778B8
330
18
100
AcDbEntity
  8
寸法線
 62
     8
100
AcDbLine
 10
67480.2825065151
 20
-34569.9755597476
 30
0.0
 11
67480.2825065151
 21
-34569.30570337609
 31
0.0
  0
LINE
  5
4778B9
330
18
100
AcDbEntity
  8
寸法線
 62
     8
100
AcDbLine
 10
67480.2825065151
 20
-34568.02688666685
 30
0.0
 11
67480.2825065151
 21
-34567.35703029534
 31
0.0
  0
LINE
  5
4778BA
330
18
100
AcDbEntity
  8
寸法線
 62
     8
100
AcDbLine
 10
67480.2825065151
 20
-34566.07821358609
 30
0.0
 11
67480.2825065151
 21
-34565.40835721458
 31
0.0
  0
LINE
  5
4778BB
330
18
100
AcDbEntity
  8
寸法線
 62
     8
100
AcDbLine
 10
67480.2825065151
 20
-34564.39342331836
 30
0.0
 11
67480.2825065151
 21
-34550.7999392078
 31
0.0
  0
LINE
  5
4778BC
330
18
100
AcDbEntity
  8
寸法線
 62
     8
100
AcDbLine
 10
67480.2825065151
 20
-34571.92423282835
 30
0.0
 11
67481.01001300756
 21
-34572.6350738473
 31
0.0
  0
LINE
  5
4778BD
330
18
100
AcDbEntity
  8
寸法線
 62
     8
100
AcDbLine
 10
67480.2825065151
 20
-34573.87290590911
 30
0.0
 11
67481.01001300756
 21
-34574.58374692805
 31
0.0
  0
LINE
  5
4778BE
330
18
100
AcDbEntity
  8
寸法線
 62
     8
100
AcDbLine
 10
67480.2825065151
 20
-34573.87290590911
 30
0.0
 11
67480.2825065151
 21
-34573.20304953759
 31
0.0
  0
LINE
  5
4778BF
330
18
100
AcDbEntity
  8
寸法線
 62
     8
100
AcDbLine
 10
67480.2825065151
 20
-34575.82157898985
 30
0.0
 11
67480.2825065151
 21
-34575.15172261834
 31
0.0
  0
LINE
  5
4778C0
330
18
100
AcDbEntity
  8
寸法線
 62
     8
100
AcDbLine
 10
67480.2825065151
 20
-34571.92423282835
 30
0.0
 11
67480.2825065151
 21
-34571.25437645684
 31
0.0
  0
LINE
  5
4778C1
330
18
100
AcDbEntity
  8
寸法線
 62
     8
100
AcDbLine
 10
67480.2825065151
 20
-34580.70118011141
 30
0.0
 11
67480.2825065151
 21
-34579.59713308381
 31
0.0
  0
LINE
  5
4778C2
330
18
100
AcDbEntity
  8
寸法線
 62
     8
100
AcDbLine
 10
67480.72329315657
 20
-34577.53194810895
 30
0.0
 11
67480.72329315657
 21
-34579.51882460507
 31
0.0
  0
LINE
  5
4778C3
330
18
100
AcDbEntity
  8
寸法線
 62
     8
100
AcDbLine
 10
67482.49036446311
 20
-34547.24110580335
 30
0.0
 11
67482.49036446311
 21
-34532.18015422511
 31
0.0
  0
LINE
  5
4778C4
330
18
100
AcDbEntity
  8
寸法線
 62
     8
100
AcDbLine
 10
67546.32448632369
 20
-34520.8396268483
 30
0.0
 11
67482.49036446311
 21
-34532.18015422511
 31
0.0
  0
LINE
  5
4778C5
330
18
100
AcDbEntity
  8
寸法線
 62
   253
100
AcDbLine
 10
67546.32448632369
 20
-34565.87748956265
 30
0.0
 11
67480.72329315657
 21
-34577.53194810895
 31
0.0
  0
LINE
  5
4778C6
330
18
100
AcDbEntity
  8
寸法線
 62
   253
100
AcDbLine
 10
67546.32448632369
 20
-34565.50971941952
 30
0.0
 11
67480.2825065151
 21
-34577.24248644457
 31
0.0
  0
LINE
  5
4778C7
330
18
100
AcDbEntity
  8
寸法線
 62
   253
100
AcDbLine
 10
67546.32448632369
 20
-34561.03155285955
 30
0.0
 11
67481.01001300756
 21
-34572.6350738473
 31
0.0
  0
LINE
  5
4778C8
330
18
100
AcDbEntity
  8
寸法線
 62
   253
100
AcDbLine
 10
67546.32448632369
 20
-34562.9802259403
 30
0.0
 11
67481.01001300756
 21
-34574.58374692805
 31
0.0
  0
LINE
  5
4778C9
330
18
100
AcDbEntity
  8
寸法線
 62
   253
100
AcDbLine
 10
67546.32448632369
 20
-34559.0828797788
 30
0.0
 11
67481.01001300756
 21
-34570.68640076655
 31
0.0
  0
LINE
  5
4778CA
330
18
100
AcDbEntity
  8
寸法線
 62
   253
100
AcDbLine
 10
67546.32448632369
 20
-34557.13420669805
 30
0.0
 11
67481.01001300756
 21
-34568.7377276858
 31
0.0
  0
LINE
  5
4778CB
330
18
100
AcDbEntity
  8
寸法線
 62
   253
100
AcDbLine
 10
67546.32448632369
 20
-34555.1855336173
 30
0.0
 11
67481.01001300756
 21
-34566.78905460505
 31
0.0
  0
LINE
  5
4778CC
330
18
100
AcDbEntity
  8
寸法線
 62
   253
100
AcDbLine
 10
67546.32448632369
 20
-34553.14583935896
 30
0.0
 11
67480.86401705371
 21
-34564.77529743277
 31
0.0
  0
LINE
  5
4778CD
330
18
100
AcDbEntity
  8
寸法線
 62
   253
100
AcDbLine
 10
67546.32448632369
 20
-34537.19770860916
 30
0.0
 11
67480.86401705371
 21
-34548.82716668297
 31
0.0
  0
LINE
  5
4778CE
330
18
100
AcDbEntity
  8
寸法線
 62
     8
100
AcDbLine
 10
67546.32448632369
 20
-34535.90057842653
 30
0.0
 11
67480.2825065151
 21
-34547.63334545158
 31
0.0
  0
LINE
  5
4778CF
330
18
100
AcDbEntity
  8
寸法線
 62
   253
100
AcDbLine
 10
67546.32448632369
 20
-34536.71252554351
 30
0.0
 11
67480.2825065151
 21
-34548.44529256855
 31
0.0
  0
LINE
  5
4778D0
330
18
100
AcDbEntity
  8
寸法線
 62
   253
100
AcDbLine
 10
67546.32448632369
 20
-34539.06717218275
 30
0.0
 11
67480.2825065151
 21
-34550.7999392078
 31
0.0
  0
LINE
  5
4778D1
330
18
100
AcDbEntity
  8
寸法線
 62
   253
100
AcDbLine
 10
67546.32448632369
 20
-34552.66065629332
 30
0.0
 11
67480.2825065151
 21
-34564.39342331836
 31
0.0
  0
LINE
  5
4778D2
330
18
100
AcDbEntity
  8
寸法線
 62
   253
100
AcDbLine
 10
67546.32448632369
 20
-34553.67559018954
 30
0.0
 11
67480.2825065151
 21
-34565.40835721458
 31
0.0
  0
LINE
  5
4778D3
330
18
100
AcDbEntity
  8
寸法線
 62
   253
100
AcDbLine
 10
67546.32448632369
 20
-34554.34544656105
 30
0.0
 11
67480.2825065151
 21
-34566.07821358609
 31
0.0
  0
LINE
  5
4778D4
330
18
100
AcDbEntity
  8
寸法線
 62
   253
100
AcDbLine
 10
67546.32448632369
 20
-34555.62426327029
 30
0.0
 11
67480.2825065151
 21
-34567.35703029534
 31
0.0
  0
LINE
  5
4778D5
330
18
100
AcDbEntity
  8
寸法線
 62
   253
100
AcDbLine
 10
67546.32448632369
 20
-34556.2941196418
 30
0.0
 11
67480.2825065151
 21
-34568.02688666685
 31
0.0
  0
LINE
  5
4778D6
330
18
100
AcDbEntity
  8
寸法線
 62
   253
100
AcDbLine
 10
67546.32448632369
 20
-34557.57293635105
 30
0.0
 11
67480.2825065151
 21
-34569.30570337609
 31
0.0
  0
LINE
  5
4778D7
330
18
100
AcDbEntity
  8
寸法線
 62
   253
100
AcDbLine
 10
67546.32448632369
 20
-34558.24279272255
 30
0.0
 11
67480.2825065151
 21
-34569.9755597476
 31
0.0
  0
LINE
  5
4778D8
330
18
100
AcDbEntity
  8
寸法線
 62
   253
100
AcDbLine
 10
67546.32448632369
 20
-34559.52160943179
 30
0.0
 11
67480.2825065151
 21
-34571.25437645684
 31
0.0
  0
LINE
  5
4778D9
330
18
100
AcDbEntity
  8
寸法線
 62
   253
100
AcDbLine
 10
67546.32448632369
 20
-34560.1914658033
 30
0.0
 11
67480.2825065151
 21
-34571.92423282835
 31
0.0
  0
LINE
  5
4778DA
330
18
100
AcDbEntity
  8
寸法線
 62
   253
100
AcDbLine
 10
67546.32448632369
 20
-34561.47028251255
 30
0.0
 11
67480.2825065151
 21
-34573.20304953759
 31
0.0
  0
LINE
  5
4778DB
330
18
100
AcDbEntity
  8
寸法線
 62
   253
100
AcDbLine
 10
67546.32448632369
 20
-34562.14013888406
 30
0.0
 11
67480.2825065151
 21
-34573.87290590911
 31
0.0
  0
LINE
  5
4778DC
330
18
100
AcDbEntity
  8
寸法線
 62
   253
100
AcDbLine
 10
67546.32448632369
 20
-34563.4189555933
 30
0.0
 11
67480.2825065151
 21
-34575.15172261834
 31
0.0
  0
LINE
  5
4778DD
330
18
100
AcDbEntity
  8
寸法線
 62
   253
100
AcDbLine
 10
67546.32448632369
 20
-34564.08881196481
 30
0.0
 11
67480.2825065151
 21
-34575.82157898985
 31
0.0
  0
LINE
  5
4778DE
330
18
100
AcDbEntity
  8
寸法線
 62
   253
100
AcDbLine
 10
67546.32448632369
 20
-34565.50971941952
 30
0.0
 11
67480.2825065151
 21
-34577.24248644457
 31
0.0
  0
LINE
  5
4778DF
330
18
100
AcDbEntity
  8
寸法線
 62
   253
100
AcDbLine
 10
67546.32448632369
 20
-34564.79926569217
 30
0.0
 11
67480.2825065151
 21
-34576.53203271722
 31
0.0
  0
LINE
  5
4778E0
330
18
100
AcDbEntity
  8
寸法線
 62
     8
100
AcDbLine
 10
67546.32448632369
 20
-34567.86436605877
 30
0.0
 11
67480.2825065151
 21
-34579.59713308381
 31
0.0
  0
LINE
  5
4778E1
330
18
100
AcDbEntity
  8
寸法線
 62
     8
100
AcDbLine
 10
67546.32448632369
 20
-34568.96841308635
 30
0.0
 11
67480.2825065151
 21
-34580.70118011141
 31
0.0
  0
LINE
  5
4778E2
330
18
100
AcDbEntity
  8
寸法線
 62
     8
100
AcDbLine
 10
67605.04784203289
 20
-34610.28826796205
 30
0.0
 11
67605.04784203289
 21
-34612.27514445816
 31
0.0
  0
LINE
  5
4778E3
330
18
100
AcDbEntity
  8
寸法線
 62
     8
100
AcDbLine
 10
67605.97974138756
 20
-34610.64804621159
 30
0.0
 11
67605.50867339745
 21
-34610.64804621159
 31
0.0
  0
LINE
  5
4778E4
330
18
100
AcDbEntity
  8
寸法線
 62
     8
100
AcDbLine
 10
67605.97974138756
 20
-34614.10673987841
 30
0.0
 11
67605.97974138756
 21
-34613.00269285083
 31
0.0
  0
LINE
  5
4778E5
330
18
100
AcDbEntity
  8
寸法線
 62
     8
100
AcDbLine
 10
67548.74335950795
 20
-34619.97312339094
 30
0.0
 11
67605.97974138756
 21
-34614.10673987841
 31
0.0
  0
LINE
  5
4778E6
330
18
100
AcDbEntity
  8
寸法線
 62
     8
100
AcDbLine
 10
67605.97974138756
 20
-34610.64804621159
 30
0.0
 11
67605.97974138756
 21
-34609.93759248423
 31
0.0
  0
LINE
  5
4778E7
330
18
100
AcDbEntity
  8
寸法線
 62
   253
100
AcDbLine
 10
67605.50867339745
 20
-34610.64804621159
 30
0.0
 11
67595.5839510496
 21
-34602.89966034174
 31
0.0
  0
LINE
  5
4778E8
330
18
100
AcDbEntity
  8
寸法線
 62
   253
100
AcDbLine
 10
67605.97974138756
 20
-34610.64804621159
 30
0.0
 11
67595.5839510496
 21
-34602.53189019861
 31
0.0
  0
LINE
  5
4778E9
330
18
100
AcDbEntity
  8
寸法線
 62
     8
100
AcDbLine
 10
67605.97974138756
 20
-34613.00269285083
 30
0.0
 11
67546.32448632369
 21
-34567.86436605877
 31
0.0
  0
LINE
  5
4778EA
330
18
100
AcDbEntity
  8
寸法線
 62
     8
100
AcDbLine
 10
67605.97974138756
 20
-34614.10673987841
 30
0.0
 11
67546.32448632369
 21
-34568.96841308635
 31
0.0
  0
LINE
  5
4778EB
330
18
100
AcDbEntity
  8
寸法線
 62
     8
100
AcDbLine
 10
67480.2825065151
 20
-34580.70118011141
 30
0.0
 11
67548.74335950795
 21
-34619.97312339094
 31
0.0
  0
LINE
  5
4778EC
330
18
100
AcDbEntity
  8
寸法線
 62
   253
100
AcDbLine
 10
67605.32152592298
 20
-34583.33145795912
 30
0.0
 11
67605.32152592298
 21
-34581.66691725878
 31
0.0
  0
LINE
  5
478D37
330
18
100
AcDbEntity
  8
姿図
100
AcDbLine
 10
67552.27873743993
 20
-34554.75229411737
 30
0.0
 11
67558.86318271587
 21
-34559.19290663513
 31
0.0
  0
LINE
  5
478D38
330
18
100
AcDbEntity
  8
姿図
100
AcDbLine
 10
67551.67128960905
 20
-34554.97492739103
 30
0.0
 11
67552.27873743993
 21
-34554.75229411738
 31
0.0
  0
LINE
  5
478D39
330
18
100
AcDbEntity
  8
姿図
100
AcDbLine
 10
67551.70545497113
 20
-34564.59482571562
 30
0.0
 11
67552.27873743993
 21
-34554.75229411738
 31
0.0
  0
LINE
  5
478D3A
330
18
100
AcDbEntity
  8
姿図
100
AcDbLine
 10
67551.10572665263
 20
-34564.68492476919
 30
0.0
 11
67551.67128960903
 21
-34554.97492739103
 31
0.0
  0
LINE
  5
478D3B
330
18
100
AcDbEntity
  8
姿図
100
AcDbLine
 10
67558.86318271587
 20
-34559.19290663513
 30
0.0
 11
67558.86318271587
 21
-34565.05626977485
 31
0.0
  0
LINE
  5
478D3C
330
18
100
AcDbEntity
  8
姿図
100
AcDbLine
 10
67596.34054304611
 20
-34591.54933469627
 30
0.0
 11
67596.607149333
 21
-34586.97204349066
 31
0.0
  0
LINE
  5
478D3D
330
18
100
AcDbEntity
  8
姿図
100
AcDbLine
 10
67596.91151423121
 20
-34591.95295908555
 30
0.0
 11
67597.2145971639
 21
-34586.749410217
 31
0.0
  0
LINE
  5
478D3E
330
18
100
AcDbEntity
  8
姿図
100
AcDbLine
 10
67596.607149333
 20
-34586.97204349066
 30
0.0
 11
67597.21459716388
 21
-34586.749410217
 31
0.0
  0
LINE
  5
478D3F
330
18
100
AcDbEntity
  8
姿図
100
AcDbLine
 10
67597.21459716388
 20
-34586.74941021699
 30
0.0
 11
67603.79904243982
 21
-34591.19002273474
 31
0.0
  0
LINE
  5
478D40
330
18
100
AcDbEntity
  8
姿図
100
AcDbLine
 10
67603.79904243982
 20
-34591.19002273474
 30
0.0
 11
67603.79904243983
 21
-34596.82181138386
 31
0.0
  0
LINE
  5
478D41
330
18
100
AcDbEntity
  8
寸法線
 62
   253
100
AcDbLine
 10
67605.97974138756
 20
-34601.03256506056
 30
0.0
 11
67605.25198027343
 21
-34600.46439058315
 31
0.0
  0
ENDSEC
  0
SECTION
  2
OBJECTS
  0
DICTIONARY
  5
C
330
0
100
AcDbDictionary
281
     1
  3
ACAD_GROUP
350
D
  3
ACAD_IMAGE_VARS
350
47B275
  3
ACAD_LAYOUT
350
617
  3
ACAD_MLINESTYLE
350
E
  3
ACAD_PLOTSETTINGS
350
618
  3
ACAD_PLOTSTYLENAME
350
615
  3
ACAD_SCALELIST
350
44E8FB
  3
AcadDim
350
44DDA5
  3
AcDbVariableDictionary
350
6DE
  3
APPDATA
350
47B274
  3
ASE_INDEX_DICTIONARY
350
44CC62
  3
DWGPROPS
350
47B298
  0
DICTIONARY
  5
6A835
330
2
100
AcDbDictionary
280
     1
281
     1
  3
ACAD_LAYERFILTERS
360
DBFD3
  3
ACAD_LAYERSTATES
360
6A836
  0
DICTIONARY
  5
44E926
330
F
100
AcDbDictionary
280
     1
281
     1
  3
ADSK_XREC_LAYER_RECONCILED
360
44E927
  0
DICTIONARY
  5
44E92A
330
34
100
AcDbDictionary
280
     1
281
     1
  3
ADSK_XREC_LAYER_RECONCILED
360
44E92B
  0
DICTIONARY
  5
44E92E
330
2F4
100
AcDbDictionary
280
     1
281
     1
  3
ADSK_XREC_LAYER_RECONCILED
360
44E92F
  0
DICTIONARY
  5
44E932
330
305
100
AcDbDictionary
280
     1
281
     1
  3
ADSK_XREC_LAYER_RECONCILED
360
44E933
  0
DICTIONARY
  5
D
102
{ACAD_REACTORS
330
C
102
}
330
C
100
AcDbDictionary
281
     1
  0
RASTERVARIABLES
  5
47B275
102
{ACAD_REACTORS
330
C
102
}
330
C
100
AcDbRasterVariables
 90
        0
 70
     1
 71
     1
 72
     0
  0
DICTIONARY
  5
617
102
{ACAD_REACTORS
330
C
102
}
330
C
100
AcDbDictionary
281
     1
  3
Model
350
619
  3
ﾚｲｱｳﾄ1
350
61A
  0
DICTIONARY
  5
E
102
{ACAD_REACTORS
330
C
102
}
330
C
100
AcDbDictionary
281
     1
  3
STANDARD
350
1B
  0
DICTIONARY
  5
618
102
{ACAD_REACTORS
330
C
102
}
330
C
100
AcDbDictionary
281
     1
  0
ACDBDICTIONARYWDFLT
  5
615
102
{ACAD_REACTORS
330
C
102
}
330
C
100
AcDbDictionary
281
     1
  3
Normal
350
616
100
AcDbDictionaryWithDefault
340
616
  0
DICTIONARY
  5
44E8FB
102
{ACAD_REACTORS
330
C
102
}
330
C
100
AcDbDictionary
281
     1
  3
A0
350
44E8FC
  3
A1
350
44E8FD
  3
A2
350
44E8FE
  3
A3
350
44E8FF
  3
A4
350
44E900
  3
A5
350
44E901
  3
A6
350
44E902
  3
A7
350
44E903
  3
A8
350
44E904
  3
A9
350
44E905
  3
B0
350
44E906
  3
B1
350
44E907
  3
B2
350
44E908
  3
B3
350
44E909
  3
B4
350
44E90A
  3
B5
350
44E90B
  3
B6
350
44E90C
  3
B7
350
44E90D
  3
B8
350
44E90E
  3
B9
350
44E90F
  3
C0
350
44E910
  3
C1
350
44E911
  3
C2
350
44E912
  3
C3
350
44E913
  3
C4
350
44E914
  3
C5
350
44E915
  3
C6
350
44E916
  3
C7
350
44E917
  3
C8
350
44E918
  3
C9
350
44E919
  3
D0
350
44E91A
  3
D1
350
44E91B
  3
D2
350
44E91C
  0
XRECORD
  5
44DDA5
102
{ACAD_REACTORS
330
C
102
}
330
C
100
AcDbXrecord
280
     1
 90
   990106
  3
OPEN
 60
     0
 61
     0
 62
     4
 63
     4
 64
     1
 65
     0
 66
     0
 67
     3
 68
     1
 69
     0
 70
     0
 71
     0
 72
     0
 40
0.0
170
     2
  0
DICTIONARY
  5
6DE
102
{ACAD_REACTORS
330
C
102
}
330
C
100
AcDbDictionary
281
     1
  3
DIMASSOC
350
6DF
  3
INDEXCTL
350
44E96B
  3
PROJECTNAME
350
6E0
  3
SORTENTS
350
44E96A
  0
DICTIONARY
  5
47B274
102
{ACAD_REACTORS
330
C
102
}
330
C
100
AcDbDictionary
281
     1
  0
DICTIONARY
  5
44CC62
102
{ACAD_REACTORS
330
C
102
}
330
C
100
AcDbDictionary
281
     1
  3
ASEBlockHierarchyIndexRecord
350
44CC64
1001
DCO15
1040
1604398629.359
  0
XRECORD
  5
47B298
102
{ACAD_REACTORS
330
C
102
}
330
C
100
AcDbXrecord
280
     1
  1
DWGPROPS COOKIE
  2

  3

  4

  6

  7

  8
SPAX
  9

300
=
301
=
302
=
303
=
304
=
305
=
306
=
307
=
308
=
309
=
 40
0.0
 41
2448636.244629629
 42
2456822.103533275
  1

 90
        0
  0
DICTIONARY
  5
DBFD3
102
{ACAD_REACTORS
330
6A835
102
}
330
6A835
100
AcDbDictionary
281
     1
  0
DICTIONARY
  5
6A836
102
{ACAD_REACTORS
330
6A835
102
}
330
6A835
100
AcDbDictionary
281
     1
  0
XRECORD
  5
44E927
102
{ACAD_REACTORS
330
44E926
102
}
330
44E926
100
AcDbXrecord
280
     1
290
     1
  0
XRECORD
  5
44E92B
102
{ACAD_REACTORS
330
44E92A
102
}
330
44E92A
100
AcDbXrecord
280
     1
290
     1
  0
XRECORD
  5
44E92F
102
{ACAD_REACTORS
330
44E92E
102
}
330
44E92E
100
AcDbXrecord
280
     1
290
     1
  0
XRECORD
  5
44E933
102
{ACAD_REACTORS
330
44E932
102
}
330
44E932
100
AcDbXrecord
280
     1
290
     1
  0
LAYOUT
  5
619
102
{ACAD_REACTORS
330
617
102
}
330
617
100
AcDbPlotSettings
  1

  2
JUST PDF 2.pc3
  4
A4
  6

 40
3.174999952316284
 41
3.174999952316284
 42
3.175003051757812
 43
3.17498779296875
 44
209.8886566162109
 45
297.0530090332031
 46
14.27
 47
9.86
 48
67436.8744672425
 49
-35772.90800699797
140
68311.85055971702
141
-34417.94463130464
142
1.0
143
5.0
 70
 11940
 72
     1
 73
     0
 74
     4
  7
spax form.ctb
 75
     0
147
0.2
148
-67436.8744672425
149
35772.90800699797
100
AcDbLayout
  1
Model
 70
     1
 71
     0
 10
0.0
 20
0.0
 11
12.0
 21
9.0
 12
0.0
 22
0.0
 32
0.0
 14
0.0
 24
0.0
 34
0.0
 15
0.0
 25
0.0
 35
0.0
146
0.0
 13
0.0
 23
0.0
 33
0.0
 16
1.0
 26
0.0
 36
0.0
 17
0.0
 27
1.0
 37
0.0
 76
     0
330
18
331
47B26B
1001
ACAD_PSEXT
1000
DWG To PDF.pc3
1000
PDF
1000
ファイル
1000

1070
     0
  0
LAYOUT
  5
61A
102
{ACAD_REACTORS
330
617
102
}
330
617
100
AcDbPlotSettings
  1

  2
Canon LASER SHOT LBP-750
  4

  6

 40
0.0
 41
0.0
 42
0.0
 43
0.0
 44
0.0
 45
0.0
 46
0.0
 47
0.0
 48
0.0
 49
0.0
140
0.0
141
0.0
142
1.0
143
1.0
 70
   688
 72
     0
 73
     0
 74
     5
  7
spax form.ctb
 75
    16
147
1.0
148
0.0
149
0.0
100
AcDbLayout
  1
ﾚｲｱｳﾄ1
 70
     0
 71
     1
 10
0.0
 20
0.0
 11
12.0
 21
9.0
 12
0.0
 22
0.0
 32
0.0
 14
1.000000000000000E+20
 24
1.000000000000000E+20
 34
1.000000000000000E+20
 15
-1.000000000000000E+20
 25
-1.000000000000000E+20
 35
-1.000000000000000E+20
146
0.0
 13
0.0
 23
0.0
 33
0.0
 16
1.0
 26
0.0
 36
0.0
 17
0.0
 27
1.0
 37
0.0
 76
     0
330
15
  0
MLINESTYLE
  5
1B
102
{ACAD_REACTORS
330
E
102
}
330
E
100
AcDbMlineStyle
  2
STANDARD
 70
     0
  3

 62
     0
 51
90.0
 52
90.0
 71
     2
 49
0.5
 62
   256
  6
BYLAYER
 49
-0.5
 62
   256
  6
BYLAYER
  0
ACDBPLACEHOLDER
  5
616
102
{ACAD_REACTORS
330
615
102
}
330
615
  0
SCALE
  5
44E8FC
102
{ACAD_REACTORS
330
44E8FB
102
}
330
44E8FB
100
AcDbScale
 70
     0
300
1:1
140
1.0
141
1.0
290
     1
1001
ACAD
1000
AcRTDxfName
1000
SCALE
1000
AcRTDxfName
1000
SCALE
  0
SCALE
  5
44E8FD
102
{ACAD_REACTORS
330
44E8FB
102
}
330
44E8FB
100
AcDbScale
 70
     0
300
1:2
140
1.0
141
2.0
290
     0
1001
ACAD
1000
AcRTDxfName
1000
SCALE
1000
AcRTDxfName
1000
SCALE
  0
SCALE
  5
44E8FE
102
{ACAD_REACTORS
330
44E8FB
102
}
330
44E8FB
100
AcDbScale
 70
     0
300
1:4
140
1.0
141
4.0
290
     0
1001
ACAD
1000
AcRTDxfName
1000
SCALE
1000
AcRTDxfName
1000
SCALE
  0
SCALE
  5
44E8FF
102
{ACAD_REACTORS
330
44E8FB
102
}
330
44E8FB
100
AcDbScale
 70
     0
300
1:5
140
1.0
141
5.0
290
     0
1001
ACAD
1000
AcRTDxfName
1000
SCALE
1000
AcRTDxfName
1000
SCALE
  0
SCALE
  5
44E900
102
{ACAD_REACTORS
330
44E8FB
102
}
330
44E8FB
100
AcDbScale
 70
     0
300
1:8
140
1.0
141
8.0
290
     0
1001
ACAD
1000
AcRTDxfName
1000
SCALE
1000
AcRTDxfName
1000
SCALE
  0
SCALE
  5
44E901
102
{ACAD_REACTORS
330
44E8FB
102
}
330
44E8FB
100
AcDbScale
 70
     0
300
1:10
140
1.0
141
10.0
290
     0
1001
ACAD
1000
AcRTDxfName
1000
SCALE
1000
AcRTDxfName
1000
SCALE
  0
SCALE
  5
44E902
102
{ACAD_REACTORS
330
44E8FB
102
}
330
44E8FB
100
AcDbScale
 70
     0
300
1:16
140
1.0
141
16.0
290
     0
1001
ACAD
1000
AcRTDxfName
1000
SCALE
1000
AcRTDxfName
1000
SCALE
  0
SCALE
  5
44E903
102
{ACAD_REACTORS
330
44E8FB
102
}
330
44E8FB
100
AcDbScale
 70
     0
300
1:20
140
1.0
141
20.0
290
     0
1001
ACAD
1000
AcRTDxfName
1000
SCALE
1000
AcRTDxfName
1000
SCALE
  0
SCALE
  5
44E904
102
{ACAD_REACTORS
330
44E8FB
102
}
330
44E8FB
100
AcDbScale
 70
     0
300
1:30
140
1.0
141
30.0
290
     0
1001
ACAD
1000
AcRTDxfName
1000
SCALE
1000
AcRTDxfName
1000
SCALE
  0
SCALE
  5
44E905
102
{ACAD_REACTORS
330
44E8FB
102
}
330
44E8FB
100
AcDbScale
 70
     0
300
1:40
140
1.0
141
40.0
290
     0
1001
ACAD
1000
AcRTDxfName
1000
SCALE
1000
AcRTDxfName
1000
SCALE
  0
SCALE
  5
44E906
102
{ACAD_REACTORS
330
44E8FB
102
}
330
44E8FB
100
AcDbScale
 70
     0
300
1:50
140
1.0
141
50.0
290
     0
1001
ACAD
1000
AcRTDxfName
1000
SCALE
1000
AcRTDxfName
1000
SCALE
  0
SCALE
  5
44E907
102
{ACAD_REACTORS
330
44E8FB
102
}
330
44E8FB
100
AcDbScale
 70
     0
300
1:100
140
1.0
141
100.0
290
     0
1001
ACAD
1000
AcRTDxfName
1000
SCALE
1000
AcRTDxfName
1000
SCALE
  0
SCALE
  5
44E908
102
{ACAD_REACTORS
330
44E8FB
102
}
330
44E8FB
100
AcDbScale
 70
     0
300
2:1
140
2.0
141
1.0
290
     0
1001
ACAD
1000
AcRTDxfName
1000
SCALE
1000
AcRTDxfName
1000
SCALE
  0
SCALE
  5
44E909
102
{ACAD_REACTORS
330
44E8FB
102
}
330
44E8FB
100
AcDbScale
 70
     0
300
4:1
140
4.0
141
1.0
290
     0
1001
ACAD
1000
AcRTDxfName
1000
SCALE
1000
AcRTDxfName
1000
SCALE
  0
SCALE
  5
44E90A
102
{ACAD_REACTORS
330
44E8FB
102
}
330
44E8FB
100
AcDbScale
 70
     0
300
8:1
140
8.0
141
1.0
290
     0
1001
ACAD
1000
AcRTDxfName
1000
SCALE
1000
AcRTDxfName
1000
SCALE
  0
SCALE
  5
44E90B
102
{ACAD_REACTORS
330
44E8FB
102
}
330
44E8FB
100
AcDbScale
 70
     0
300
10:1
140
10.0
141
1.0
290
     0
1001
ACAD
1000
AcRTDxfName
1000
SCALE
1000
AcRTDxfName
1000
SCALE
  0
SCALE
  5
44E90C
102
{ACAD_REACTORS
330
44E8FB
102
}
330
44E8FB
100
AcDbScale
 70
     0
300
100:1
140
100.0
141
1.0
290
     0
1001
ACAD
1000
AcRTDxfName
1000
SCALE
1000
AcRTDxfName
1000
SCALE
  0
SCALE
  5
44E90D
102
{ACAD_REACTORS
330
44E8FB
102
}
330
44E8FB
100
AcDbScale
 70
     0
300
1/128" = 1'-0"
140
0.0078125
141
12.0
290
     0
1001
ACAD
1000
AcRTDxfName
1000
SCALE
1000
AcRTDxfName
1000
SCALE
  0
SCALE
  5
44E90E
102
{ACAD_REACTORS
330
44E8FB
102
}
330
44E8FB
100
AcDbScale
 70
     0
300
1/64" = 1'-0"
140
0.015625
141
12.0
290
     0
1001
ACAD
1000
AcRTDxfName
1000
SCALE
1000
AcRTDxfName
1000
SCALE
  0
SCALE
  5
44E90F
102
{ACAD_REACTORS
330
44E8FB
102
}
330
44E8FB
100
AcDbScale
 70
     0
300
1/32" = 1'-0"
140
0.03125
141
12.0
290
     0
1001
ACAD
1000
AcRTDxfName
1000
SCALE
1000
AcRTDxfName
1000
SCALE
  0
SCALE
  5
44E910
102
{ACAD_REACTORS
330
44E8FB
102
}
330
44E8FB
100
AcDbScale
 70
     0
300
1/16" = 1'-0"
140
0.0625
141
12.0
290
     0
1001
ACAD
1000
AcRTDxfName
1000
SCALE
1000
AcRTDxfName
1000
SCALE
  0
SCALE
  5
44E911
102
{ACAD_REACTORS
330
44E8FB
102
}
330
44E8FB
100
AcDbScale
 70
     0
300
3/32" = 1'-0"
140
0.09375
141
12.0
290
     0
1001
ACAD
1000
AcRTDxfName
1000
SCALE
1000
AcRTDxfName
1000
SCALE
  0
SCALE
  5
44E912
102
{ACAD_REACTORS
330
44E8FB
102
}
330
44E8FB
100
AcDbScale
 70
     0
300
1/8" = 1'-0"
140
0.125
141
12.0
290
     0
1001
ACAD
1000
AcRTDxfName
1000
SCALE
1000
AcRTDxfName
1000
SCALE
  0
SCALE
  5
44E913
102
{ACAD_REACTORS
330
44E8FB
102
}
330
44E8FB
100
AcDbScale
 70
     0
300
3/16" = 1'-0"
140
0.1875
141
12.0
290
     0
1001
ACAD
1000
AcRTDxfName
1000
SCALE
1000
AcRTDxfName
1000
SCALE
  0
SCALE
  5
44E914
102
{ACAD_REACTORS
330
44E8FB
102
}
330
44E8FB
100
AcDbScale
 70
     0
300
1/4" = 1'-0"
140
0.25
141
12.0
290
     0
1001
ACAD
1000
AcRTDxfName
1000
SCALE
1000
AcRTDxfName
1000
SCALE
  0
SCALE
  5
44E915
102
{ACAD_REACTORS
330
44E8FB
102
}
330
44E8FB
100
AcDbScale
 70
     0
300
3/8" = 1'-0"
140
0.375
141
12.0
290
     0
1001
ACAD
1000
AcRTDxfName
1000
SCALE
1000
AcRTDxfName
1000
SCALE
  0
SCALE
  5
44E916
102
{ACAD_REACTORS
330
44E8FB
102
}
330
44E8FB
100
AcDbScale
 70
     0
300
1/2" = 1'-0"
140
0.5
141
12.0
290
     0
1001
ACAD
1000
AcRTDxfName
1000
SCALE
1000
AcRTDxfName
1000
SCALE
  0
SCALE
  5
44E917
102
{ACAD_REACTORS
330
44E8FB
102
}
330
44E8FB
100
AcDbScale
 70
     0
300
3/4" = 1'-0"
140
0.75
141
12.0
290
     0
1001
ACAD
1000
AcRTDxfName
1000
SCALE
1000
AcRTDxfName
1000
SCALE
  0
SCALE
  5
44E918
102
{ACAD_REACTORS
330
44E8FB
102
}
330
44E8FB
100
AcDbScale
 70
     0
300
1" = 1'-0"
140
1.0
141
12.0
290
     0
1001
ACAD
1000
AcRTDxfName
1000
SCALE
1000
AcRTDxfName
1000
SCALE
  0
SCALE
  5
44E919
102
{ACAD_REACTORS
330
44E8FB
102
}
330
44E8FB
100
AcDbScale
 70
     0
300
1-1/2" = 1'-0"
140
1.5
141
12.0
290
     0
1001
ACAD
1000
AcRTDxfName
1000
SCALE
1000
AcRTDxfName
1000
SCALE
  0
SCALE
  5
44E91A
102
{ACAD_REACTORS
330
44E8FB
102
}
330
44E8FB
100
AcDbScale
 70
     0
300
3" = 1'-0"
140
3.0
141
12.0
290
     0
1001
ACAD
1000
AcRTDxfName
1000
SCALE
1000
AcRTDxfName
1000
SCALE
  0
SCALE
  5
44E91B
102
{ACAD_REACTORS
330
44E8FB
102
}
330
44E8FB
100
AcDbScale
 70
     0
300
6" = 1'-0"
140
6.0
141
12.0
290
     0
1001
ACAD
1000
AcRTDxfName
1000
SCALE
1000
AcRTDxfName
1000
SCALE
  0
SCALE
  5
44E91C
102
{ACAD_REACTORS
330
44E8FB
102
}
330
44E8FB
100
AcDbScale
 70
     0
300
1'-0" = 1'-0"
140
12.0
141
12.0
290
     0
1001
ACAD
1000
AcRTDxfName
1000
SCALE
1000
AcRTDxfName
1000
SCALE
  0
DICTIONARYVAR
  5
6DF
102
{ACAD_REACTORS
330
6DE
102
}
330
6DE
100
DictionaryVariables
280
     0
  1
1
  0
DICTIONARYVAR
  5
44E96B
102
{ACAD_REACTORS
330
6DE
102
}
330
6DE
100
DictionaryVariables
280
     0
  1
0
  0
DICTIONARYVAR
  5
6E0
102
{ACAD_REACTORS
330
6DE
102
}
330
6DE
100
DictionaryVariables
280
     0
  1

  0
DICTIONARYVAR
  5
44E96A
102
{ACAD_REACTORS
330
6DE
102
}
330
6DE
100
DictionaryVariables
280
     0
  1
1
  0
XRECORD
  5
44CC64
102
{ACAD_REACTORS
330
44CC62
102
}
330
44CC62
100
AcDbXrecord
280
     1
330
0
330
0
330
0
330
0
330
0
330
0
330
0
330
0
330
0
330
0
330
0
330
0
330
0
330
0
330
0
330
0
330
0
330
0
330
0
330
0
330
0
330
0
330
0
330
0
330
0
330
0
330
0
330
0
330
0
330
0
330
0
330
0
330
0
330
0
330
0
330
0
330
0
330
0
330
0
330
0
330
0
330
0
330
0
330
0
330
0
330
0
330
0
330
0
330
0
330
0
330
0
330
0
330
0
330
0
330
0
330
0
330
0
330
0
330
0
330
0
330
0
330
0
330
0
330
0
330
0
330
0
330
0
330
0
330
0
330
0
330
0
330
0
330
0
330
0
330
0
330
0
330
0
330
0
330
0
330
0
330
0
330
0
330
0
330
0
330
0
330
0
330
0
330
0
330
0
330
0
330
0
330
0
330
0
330
0
330
0
330
0
330
0
330
0
330
0
330
0
330
0
330
0
330
0
330
0
330
0
330
0
330
0
330
0
330
0
330
0
330
0
330
0
330
0
330
0
330
0
330
0
330
0
330
0
330
0
330
0
330
0
330
0
330
0
330
0
330
0
330
0
330
0
330
0
330
0
330
0
330
0
330
0
330
0
330
0
330
0
330
0
330
0
330
0
330
0
330
0
330
0
330
0
330
0
330
0
330
0
330
0
330
0
330
0
330
0
330
0
330
0
330
0
330
0
330
0
330
0
330
0
330
0
330
0
330
0
330
0
330
0
330
0
330
0
330
0
330
0
330
0
330
0
330
0
330
0
330
0
330
0
330
0
330
0
330
0
330
0
330
0
330
0
330
0
330
0
330
0
330
0
330
0
330
0
330
0
330
0
330
0
330
0
330
0
330
0
330
0
330
0
330
0
330
0
330
0
330
0
330
0
330
0
330
0
330
0
330
0
330
0
330
0
330
0
330
0
330
0
330
0
330
0
330
0
330
0
330
0
330
0
330
0
330
0
330
0
330
0
330
0
330
0
330
0
330
0
330
0
330
0
330
0
330
0
330
0
330
0
330
0
330
0
330
0
330
0
330
0
330
0
330
0
330
0
330
0
330
0
330
0
330
0
330
0
330
0
330
0
330
0
330
0
330
0
330
0
330
0
330
0
330
0
330
0
330
0
330
0
330
0
330
0
330
0
330
0
330
0
330
0
330
0
330
0
330
0
330
0
330
0
330
0
330
0
330
0
330
0
330
0
330
0
330
0
330
0
330
0
330
0
330
0
330
0
330
0
330
0
330
0
330
0
330
0
330
0
330
0
330
0
330
0
330
0
330
0
330
0
330
0
330
0
330
0
330
0
330
0
330
0
330
0
330
0
330
0
330
0
330
0
330
0
330
0
330
0
330
0
330
0
330
0
330
0
330
0
330
0
330
0
330
0
330
0
330
0
330
0
330
0
330
0
330
0
330
0
330
0
330
0
330
0
330
0
330
0
330
0
330
0
330
0
330
0
330
0
330
0
330
0
330
0
330
0
330
0
330
0
330
0
330
0
330
0
330
0
330
0
330
0
330
0
330
0
330
0
330
0
330
0
330
0
330
0
330
0
330
0
330
0
330
0
330
0
330
0
330
0
330
0
330
0
330
0
330
0
330
0
330
0
330
0
330
0
330
0
330
0
330
0
330
0
330
0
330
0
330
0
330
0
330
0
330
0
330
0
330
0
330
0
330
0
330
0
330
0
330
0
330
0
330
0
330
0
330
0
330
0
330
0
330
0
330
0
330
0
330
0
330
0
330
0
330
0
330
0
330
0
330
0
330
0
330
0
330
0
330
0
330
0
330
0
330
0
330
0
330
0
330
0
330
0
330
0
330
0
330
0
330
0
330
0
330
0
330
0
330
0
330
0
330
0
330
0
330
0
330
0
330
0
330
0
330
0
330
0
330
0
330
0
330
0
330
0
330
0
330
0
330
0
330
0
330
0
330
0
330
0
330
0
330
0
330
0
330
0
330
0
330
0
330
0
330
0
330
0
330
0
330
0
330
0
330
0
330
0
330
0
330
0
330
0
330
0
330
0
330
0
330
0
330
0
330
0
330
0
330
0
330
0
330
0
330
0
330
0
330
0
330
0
330
0
330
0
330
0
330
0
330
0
330
0
330
0
330
0
330
0
330
0
330
0
330
0
330
0
330
0
330
0
330
0
330
0
330
0
330
0
330
0
330
0
330
0
330
0
330
0
330
0
330
0
330
0
330
0
330
0
330
0
330
0
330
0
330
0
330
0
330
0
330
0
330
0
330
0
330
0
330
0
330
0
330
0
330
0
330
0
330
0
330
0
330
0
330
0
330
0
330
0
330
0
330
0
330
0
330
0
330
0
330
0
330
0
330
0
330
0
330
0
330
0
330
0
330
0
330
0
330
0
330
0
330
0
330
0
330
0
330
0
330
0
330
0
330
0
330
0
330
0
330
0
330
0
330
0
330
0
330
0
330
0
330
0
330
0
330
0
330
0
330
0
330
0
330
0
330
0
330
0
330
0
330
0
330
0
330
0
330
0
330
0
330
0
330
0
330
0
330
0
330
0
330
0
330
0
330
0
330
0
330
0
330
0
330
0
330
0
330
0
330
0
330
0
330
0
330
0
330
0
330
0
330
0
330
0
330
0
330
0
330
0
330
0
330
0
330
0
330
0
330
0
330
0
330
0
330
0
330
0
330
0
330
0
330
0
330
0
330
0
330
0
330
0
330
0
330
0
330
0
330
0
330
0
330
0
330
0
330
0
330
0
330
0
330
0
330
0
330
0
330
0
330
0
330
0
330
0
330
0
330
0
330
0
330
0
330
0
330
0
330
0
330
0
330
0
330
0
330
0
330
0
330
0
330
0
330
0
330
0
330
0
330
0
330
0
330
0
330
0
330
0
330
0
330
0
330
0
330
0
330
0
330
0
330
0
330
0
330
0
330
0
330
0
330
0
330
0
330
0
330
0
330
0
330
0
330
0
330
0
330
0
330
0
330
0
330
0
330
0
330
0
330
0
330
0
330
0
330
0
330
0
330
0
330
0
330
0
330
0
330
0
330
0
330
0
330
0
330
0
330
0
330
0
330
0
330
0
330
0
330
0
330
0
330
0
330
0
330
0
330
0
330
0
330
0
330
0
330
0
330
0
330
0
330
0
330
0
330
0
330
0
330
0
330
0
330
0
330
0
330
0
330
0
330
0
330
0
330
0
330
0
330
0
330
0
330
0
330
0
330
0
330
0
330
0
330
0
330
0
330
0
330
0
330
0
330
0
330
0
330
0
330
0
330
0
330
0
330
0
330
0
330
0
330
0
330
0
330
0
330
0
330
0
330
0
330
0
330
0
330
0
330
0
330
0
330
0
330
0
330
0
330
0
330
0
330
0
330
0
330
0
330
0
330
0
330
0
330
0
330
0
330
0
330
0
330
0
330
0
330
0
330
0
330
0
330
0
330
0
330
0
330
0
330
0
330
0
330
0
330
0
330
0
330
0
330
0
330
0
330
0
330
0
330
0
330
0
330
0
330
0
330
0
330
0
330
0
330
0
330
0
330
0
330
0
330
0
330
0
330
0
330
0
330
0
330
0
330
0
330
0
330
0
330
0
330
0
330
0
330
0
330
0
330
0
330
0
330
0
330
0
330
0
330
0
330
0
330
0
330
0
330
0
330
0
330
0
330
0
330
0
330
0
330
0
330
0
330
0
330
0
330
0
330
0
330
0
330
0
330
0
330
0
330
0
330
0
330
0
330
0
330
0
330
0
330
0
330
0
330
0
330
0
330
0
330
0
330
0
330
0
330
0
330
0
330
0
330
0
330
0
330
0
330
0
330
0
330
0
330
0
330
0
330
0
330
0
330
0
330
0
330
0
330
0
330
0
330
0
330
0
330
0
330
0
330
0
330
0
330
0
330
0
330
0
330
0
330
0
330
0
330
0
330
0
330
0
330
0
330
0
330
0
330
0
330
0
330
0
330
0
330
0
330
0
330
0
330
0
330
0
330
0
330
0
330
0
330
0
330
0
330
0
330
0
330
0
330
0
330
0
330
0
330
0
330
0
330
0
330
0
330
0
330
0
330
0
330
0
330
0
330
0
330
0
330
0
330
0
330
0
330
0
330
0
330
0
330
0
330
0
330
0
330
0
330
0
330
0
330
0
330
0
330
0
330
0
330
0
330
0
330
0
330
0
330
0
330
0
330
0
330
0
330
0
330
0
330
0
330
0
330
0
330
0
330
0
330
0
330
0
330
0
330
0
330
0
330
0
330
0
330
0
330
0
330
0
330
0
330
0
330
0
330
0
330
0
330
0
330
0
330
0
330
0
330
0
330
0
330
0
330
0
330
0
330
0
330
0
330
0
330
0
330
0
330
0
330
0
330
0
330
0
330
0
330
0
330
0
330
0
330
0
330
0
330
0
330
0
330
0
330
0
330
0
330
0
330
0
330
0
330
0
330
0
330
0
330
0
330
0
330
0
330
0
330
0
330
0
330
0
330
0
330
0
330
0
330
0
330
0
330
0
330
0
330
0
330
0
330
0
330
0
330
0
330
0
330
0
330
0
330
0
330
0
330
0
330
0
330
0
330
0
330
0
330
0
330
0
330
0
330
0
330
0
330
0
330
0
330
0
330
0
330
0
330
0
330
0
330
0
330
0
330
0
330
0
330
0
330
0
330
0
330
0
330
0
330
0
330
0
330
0
330
0
330
0
330
0
330
0
330
0
330
0
330
0
330
0
330
0
330
0
330
0
330
0
330
0
330
0
330
0
330
0
330
0
330
0
330
0
330
0
330
0
330
0
330
0
330
0
330
0
330
0
330
0
330
0
330
0
330
0
330
0
330
0
330
0
330
0
330
0
330
0
330
0
330
0
330
0
330
0
330
0
330
0
330
0
330
0
330
0
330
0
330
0
330
0
330
0
330
0
330
0
330
0
330
0
330
0
330
0
330
0
330
0
330
0
330
0
330
0
330
0
330
0
330
0
330
0
330
0
330
0
330
0
330
0
330
0
330
0
330
0
330
0
330
0
330
0
330
0
330
0
330
0
330
0
330
0
330
0
330
0
330
0
330
0
330
0
330
0
330
0
330
0
330
0
330
0
330
0
330
0
330
0
330
0
330
0
330
0
330
0
330
0
330
0
330
0
330
0
330
0
330
0
330
0
330
0
330
0
330
0
330
0
330
0
330
0
330
0
330
0
330
0
330
0
330
0
330
0
330
0
330
0
330
0
330
0
330
0
330
0
330
0
330
0
330
0
330
0
330
0
330
0
330
0
330
0
330
0
330
0
330
0
330
0
330
0
330
0
330
0
330
0
330
0
330
0
330
0
330
0
330
0
330
0
330
0
330
0
330
0
330
0
330
0
330
0
330
0
330
0
330
0
330
0
330
0
330
0
330
0
330
0
330
0
330
0
330
0
330
0
330
0
330
0
330
0
330
0
330
0
330
0
330
0
330
0
330
0
330
0
330
0
330
0
330
0
330
0
330
0
330
0
330
0
330
0
330
0
330
0
330
0
330
0
330
0
330
0
330
0
330
0
330
0
330
0
330
0
330
0
330
0
330
0
330
0
330
0
330
0
330
0
330
0
330
0
330
0
330
0
330
0
330
0
330
0
330
0
330
0
330
0
330
0
330
0
330
0
330
0
330
0
330
0
330
0
330
0
330
0
330
0
330
0
330
0
330
0
330
0
330
0
330
0
330
0
330
0
330
0
330
0
330
0
330
0
330
0
330
0
330
0
330
0
330
0
330
0
330
0
330
0
330
0
330
0
330
0
330
0
330
0
330
0
330
0
330
0
330
0
330
0
330
0
330
0
330
0
330
0
330
0
330
0
330
0
330
0
330
0
330
0
330
0
330
0
330
0
330
0
330
0
330
0
330
0
330
0
330
0
330
0
330
0
330
0
330
0
330
0
330
0
330
0
330
0
330
0
330
0
330
0
330
0
330
0
330
0
330
0
330
0
330
0
330
0
330
0
330
0
330
0
330
0
330
0
330
0
330
0
330
0
330
0
330
0
330
0
330
0
330
0
330
0
330
0
330
0
330
0
330
0
330
0
330
0
330
0
330
0
330
0
330
0
330
0
330
0
330
0
330
0
330
0
330
0
330
0
330
0
330
0
330
0
330
0
330
0
330
0
330
0
330
0
330
0
330
0
330
0
330
0
330
0
330
0
330
0
330
0
330
0
330
0
330
0
330
0
330
0
330
0
330
0
330
0
330
0
330
0
330
0
330
0
330
0
330
0
330
0
330
0
330
0
330
0
330
0
330
0
330
0
330
0
330
0
330
0
330
0
330
0
330
0
330
0
330
0
330
0
330
0
330
0
330
0
330
0
330
0
330
0
330
0
330
0
330
0
330
0
330
0
330
0
330
0
330
0
330
0
330
0
330
0
330
0
330
0
330
0
330
0
330
0
330
0
330
0
330
0
330
0
330
0
330
0
330
0
330
0
330
0
330
0
330
0
330
0
330
0
330
0
330
0
330
0
330
0
330
0
330
0
330
0
330
0
330
0
330
0
330
0
330
0
330
0
330
0
330
0
330
0
330
0
330
0
330
0
330
0
330
0
330
0
330
0
330
0
330
0
330
0
330
0
330
0
330
0
330
0
330
0
330
0
330
0
330
0
330
0
330
0
330
0
330
0
330
0
330
0
330
0
330
0
330
0
330
0
330
0
330
0
330
0
330
0
330
0
330
0
330
0
330
0
330
0
330
0
330
0
330
0
330
0
330
0
330
0
330
0
330
0
330
0
330
0
330
0
330
0
330
0
330
0
330
0
330
0
330
0
330
0
330
0
330
0
330
0
330
0
330
0
330
0
330
0
330
0
330
0
330
0
330
0
330
0
330
0
330
0
330
0
330
0
330
0
330
0
330
0
330
0
330
0
330
0
330
0
330
0
330
0
330
0
330
0
330
0
330
0
330
0
330
0
330
0
330
0
330
0
330
0
330
0
330
0
330
0
330
0
330
0
330
0
330
0
330
0
330
0
330
0
330
0
330
0
330
0
330
0
330
0
330
0
330
0
330
0
330
0
330
0
330
0
330
0
330
0
330
0
330
0
330
0
330
0
330
0
330
0
330
0
330
0
330
0
330
0
330
0
330
0
330
0
330
0
330
0
330
0
330
0
330
0
330
0
330
0
330
0
330
0
330
0
330
0
330
0
330
0
330
0
330
0
330
0
330
0
330
0
330
0
330
0
330
0
330
0
330
0
330
0
330
0
330
0
330
0
330
0
330
0
330
0
330
0
330
0
330
0
330
0
330
0
330
0
330
0
330
0
330
0
330
0
330
0
330
0
330
0
330
0
330
0
330
0
330
0
330
0
330
0
330
0
330
0
330
0
330
0
330
0
330
0
330
0
330
0
330
0
330
0
330
0
330
0
330
0
330
0
330
0
330
0
330
0
330
0
330
0
330
0
330
0
330
0
330
0
330
0
330
0
330
0
330
0
330
0
330
0
330
0
330
0
330
0
330
0
330
0
330
0
330
0
330
0
330
0
330
0
330
0
330
0
330
0
330
0
330
0
330
0
330
0
330
0
330
0
330
0
330
0
330
0
330
0
330
0
330
0
330
0
330
0
330
0
330
0
330
0
330
0
330
0
330
0
330
0
330
0
330
0
330
0
330
0
330
0
330
0
330
0
330
0
330
0
330
0
330
0
330
0
330
0
330
0
330
0
330
0
330
0
330
0
330
0
330
0
330
0
330
0
330
0
330
0
330
0
330
0
330
0
330
0
330
0
330
0
330
0
330
0
330
0
330
0
330
0
330
0
330
0
330
0
330
0
330
0
330
0
330
0
330
0
330
0
330
0
330
0
330
0
330
0
330
0
330
0
330
0
330
0
330
0
330
0
330
0
330
0
330
0
330
0
330
0
330
0
330
0
330
0
330
0
330
0
330
0
330
0
330
0
330
0
330
0
330
0
330
0
330
0
330
0
330
0
330
0
330
0
330
0
330
0
330
0
330
0
330
0
330
0
330
0
330
0
330
0
330
0
330
0
330
0
330
0
330
0
330
0
330
0
330
0
330
0
330
0
330
0
330
0
330
0
330
0
330
0
330
0
330
0
330
0
330
0
330
0
330
0
330
0
330
0
330
0
330
0
330
0
330
0
330
0
330
0
330
0
330
0
330
0
330
0
330
0
330
0
330
0
330
0
330
0
330
0
330
0
330
0
330
0
330
0
330
0
330
0
330
0
330
0
330
0
330
0
330
0
330
0
330
0
330
0
330
0
330
0
330
0
330
0
330
0
330
0
330
0
330
0
330
0
330
0
330
0
330
0
330
0
330
0
330
0
330
0
330
0
330
0
330
0
330
0
330
0
330
0
330
0
330
0
330
0
330
0
330
0
330
0
330
0
330
0
330
0
330
0
330
0
330
0
330
0
330
0
330
0
330
0
330
0
330
0
330
0
330
0
330
0
330
0
330
0
330
0
330
0
330
0
330
0
330
0
330
0
330
0
330
0
330
0
330
0
330
0
330
0
330
0
330
0
330
0
330
0
330
0
330
0
330
0
330
0
330
0
330
0
330
0
330
0
330
0
330
0
330
0
330
0
330
0
330
0
330
0
330
0
330
0
330
0
330
0
330
0
330
0
330
0
330
0
330
0
330
0
330
0
330
0
330
0
330
0
330
0
330
0
330
0
330
0
330
0
330
0
330
0
330
0
330
0
330
0
330
0
330
0
330
0
330
0
330
0
330
0
330
0
330
0
330
0
330
0
330
0
330
0
330
0
330
0
330
0
330
0
330
0
330
0
330
0
330
0
330
0
330
0
330
0
330
0
330
0
330
0
330
0
330
0
330
0
330
0
330
0
330
0
330
0
330
0
330
0
330
0
330
0
330
0
330
0
330
0
330
0
330
0
330
0
330
0
330
0
330
0
330
0
330
0
330
0
330
0
330
0
330
0
330
0
330
0
330
0
330
0
330
0
330
0
330
0
330
0
330
0
330
0
330
0
330
0
330
0
330
0
330
0
330
0
330
0
330
0
330
0
330
0
330
0
330
0
330
0
330
0
330
0
330
0
330
0
330
0
330
0
330
0
330
0
330
0
330
0
330
0
330
0
330
0
330
0
330
0
330
0
330
0
330
0
330
0
330
0
330
0
330
0
330
0
330
0
330
0
330
0
330
0
330
0
330
0
330
0
330
0
330
0
330
0
330
0
330
0
330
0
330
0
330
0
330
0
330
0
330
0
330
0
330
0
330
0
330
0
330
0
330
0
330
0
330
0
330
0
330
0
330
0
330
0
330
0
330
0
330
0
330
0
330
0
330
0
330
0
330
0
330
0
330
0
330
0
330
0
330
0
330
0
330
0
330
0
330
0
330
0
330
0
330
0
330
0
330
0
330
0
330
0
330
0
330
0
330
0
330
0
330
0
330
0
330
0
330
0
330
0
330
0
330
0
330
0
330
0
330
0
330
0
330
0
330
0
330
0
330
0
330
0
330
0
330
0
330
0
330
0
330
0
330
0
330
0
330
0
330
0
330
0
330
0
330
0
330
0
330
0
330
0
330
0
330
0
330
0
330
0
330
0
330
0
330
0
330
0
330
0
330
0
330
0
330
0
330
0
330
0
330
0
330
0
330
0
330
0
330
0
330
0
330
0
330
0
330
0
330
0
330
0
330
0
330
0
330
0
330
0
330
0
330
0
330
0
330
0
330
0
330
0
330
0
330
0
330
0
330
0
330
0
330
0
330
0
330
0
330
0
330
0
330
0
330
0
330
0
330
0
330
0
330
0
330
0
330
0
330
0
330
0
330
0
330
0
330
0
330
0
330
0
330
0
330
0
330
0
330
0
330
0
330
0
330
0
330
0
330
0
330
0
330
0
330
0
330
0
330
0
330
0
330
0
330
0
330
0
330
0
330
0
330
0
330
0
330
0
330
0
330
0
330
0
330
0
330
0
330
0
330
0
330
0
330
0
330
0
330
0
330
0
330
0
330
0
330
0
330
0
330
0
330
0
330
0
330
0
330
0
330
0
330
0
330
0
330
0
330
0
330
0
330
0
330
0
330
0
330
0
330
0
330
0
330
0
330
0
330
0
330
0
330
0
330
0
330
0
330
0
330
0
330
0
330
0
330
0
330
0
330
0
330
0
330
0
330
0
330
0
330
0
330
0
330
0
330
0
330
0
330
0
330
0
330
0
330
0
330
0
330
0
330
0
330
0
330
0
330
0
330
0
330
0
330
0
330
0
330
0
330
0
330
0
330
0
330
0
330
0
330
0
330
0
330
0
330
0
330
0
330
0
330
0
330
0
330
0
330
0
330
0
330
0
330
0
330
0
330
0
330
0
330
0
330
0
330
0
330
0
330
0
330
0
330
0
330
0
330
0
330
0
330
0
330
0
330
0
330
0
330
0
330
0
330
0
330
0
330
0
330
0
330
0
330
0
330
0
330
0
330
0
330
0
330
0
330
0
330
0
330
0
330
0
330
0
330
0
330
0
330
0
330
0
330
0
330
0
330
0
330
0
330
0
330
0
330
0
330
0
330
0
330
0
330
0
330
0
330
0
330
0
330
0
330
0
330
0
330
0
330
0
330
0
330
0
330
0
330
0
330
0
330
0
330
0
330
0
330
0
330
0
330
0
330
0
330
0
330
0
330
0
330
0
330
0
330
0
330
0
330
0
330
0
330
0
330
0
330
0
330
0
330
0
330
0
330
0
330
0
330
0
330
0
330
0
330
0
330
0
330
0
330
0
330
0
330
0
330
0
330
0
330
0
330
0
330
0
330
0
330
0
330
0
330
0
330
0
330
0
330
0
330
0
330
0
330
0
330
0
330
0
330
0
330
0
330
0
330
0
330
0
330
0
330
0
330
0
330
0
330
0
330
0
330
0
330
0
330
0
330
0
330
0
330
0
330
0
330
0
330
0
330
0
330
0
330
0
330
0
330
0
330
0
330
0
330
0
330
0
330
0
330
0
330
0
330
0
330
0
330
0
330
0
330
0
330
0
330
0
330
0
330
0
330
0
330
0
330
0
330
0
330
0
330
0
330
0
330
0
330
0
330
0
330
0
330
0
330
0
330
0
330
0
330
0
330
0
330
0
330
0
330
0
330
0
330
0
330
0
330
0
330
0
330
0
330
0
330
0
330
0
330
0
330
0
330
0
330
0
330
0
330
0
330
0
330
0
330
0
330
0
330
0
330
0
330
0
330
0
330
0
330
0
330
0
330
0
330
0
330
0
330
0
330
0
330
0
330
0
330
0
330
0
330
0
330
0
330
0
330
0
330
0
330
0
330
0
330
0
330
0
330
0
330
0
330
0
330
0
330
0
330
0
330
0
330
0
330
0
330
0
330
0
330
0
330
0
330
0
330
0
330
0
330
0
330
0
330
0
330
0
330
0
330
0
330
0
330
0
330
0
330
0
330
0
330
0
330
0
330
0
330
0
330
0
330
0
330
0
330
0
330
0
330
0
330
0
330
0
330
0
330
0
330
0
330
0
330
0
330
0
330
0
330
0
330
0
330
0
330
0
330
0
330
0
330
0
330
0
330
0
330
0
330
0
330
0
330
0
330
0
330
0
330
0
330
0
330
0
330
0
330
0
330
0
330
0
330
0
330
0
330
0
330
0
330
0
330
0
330
0
330
0
330
0
330
0
330
0
330
0
330
0
330
0
330
0
330
0
330
0
330
0
330
0
330
0
330
0
330
0
330
0
330
0
330
0
330
0
330
0
330
0
330
0
330
0
330
0
330
0
330
0
330
0
330
0
330
0
330
0
330
0
330
0
330
0
330
0
330
0
330
0
330
0
330
0
330
0
330
0
330
0
330
0
330
0
330
0
330
0
330
0
330
0
330
0
330
0
330
0
330
0
330
0
330
0
330
0
330
0
330
0
330
0
330
0
330
0
330
0
330
0
330
0
330
0
330
0
330
0
330
0
330
0
330
0
330
0
330
0
330
0
330
0
330
0
330
0
330
0
330
0
330
0
330
0
330
0
330
0
330
0
330
0
330
0
330
0
330
0
330
0
330
0
330
0
330
0
330
0
330
0
330
0
330
0
330
0
330
0
330
0
330
0
330
0
330
0
330
0
330
0
330
0
330
0
330
0
330
0
330
0
330
0
330
0
330
0
330
0
330
0
330
0
330
0
330
0
330
0
330
0
330
0
330
0
330
0
330
0
330
0
330
0
330
0
330
0
330
0
330
0
330
0
330
0
330
0
330
0
330
0
330
0
330
0
330
0
330
0
330
0
330
0
330
0
330
0
330
0
330
0
330
0
330
0
330
0
330
0
330
0
330
0
330
0
330
0
330
0
330
0
330
0
330
0
330
0
330
0
330
0
330
0
330
0
330
0
330
0
330
0
330
0
330
0
330
0
330
0
330
0
330
0
330
0
330
0
330
0
330
0
330
0
330
0
330
0
330
0
330
0
330
0
330
0
330
0
330
0
330
0
330
0
330
0
330
0
330
0
330
0
330
0
330
0
330
0
330
0
330
0
330
0
330
0
330
0
330
0
330
0
330
0
330
0
330
0
330
0
330
0
330
0
330
0
330
0
330
0
330
0
330
0
330
0
330
0
330
0
330
0
330
0
330
0
330
0
330
0
330
0
330
0
330
0
330
0
330
0
330
0
330
0
330
0
330
0
330
0
330
0
330
0
330
0
330
0
330
0
330
0
330
0
330
0
330
0
330
0
330
0
330
0
330
0
330
0
330
0
330
0
330
0
330
0
330
0
330
0
330
0
330
0
330
0
330
0
330
0
330
0
330
0
330
0
330
0
330
0
330
0
330
0
330
0
330
0
330
0
330
0
330
0
330
0
330
0
330
0
330
0
330
0
330
0
330
0
330
0
330
0
330
0
330
0
330
0
330
0
330
0
330
0
330
0
330
0
330
0
330
0
330
0
330
0
330
0
330
0
330
0
330
0
330
0
330
0
330
0
330
0
330
0
330
0
330
0
330
0
330
0
330
0
330
0
330
0
330
0
330
0
330
0
330
0
330
0
330
0
330
0
330
0
330
0
330
0
330
0
330
0
330
0
330
0
330
0
330
0
330
0
330
0
330
0
330
0
330
0
330
0
330
0
330
0
330
0
330
0
330
0
330
0
330
0
330
0
330
0
330
0
330
0
330
0
330
0
330
0
330
0
330
0
330
0
330
0
330
0
330
0
330
0
330
0
330
0
330
0
330
0
330
0
330
0
330
0
330
0
330
0
330
0
330
0
330
0
330
0
330
0
330
0
330
0
330
0
330
0
330
0
330
0
330
0
330
0
330
0
330
0
330
0
330
0
330
0
330
0
330
0
330
0
330
0
330
0
330
0
330
0
330
0
330
0
330
0
330
0
330
0
330
0
330
0
330
0
330
0
330
0
330
0
330
0
330
0
330
0
330
0
330
0
330
0
330
0
330
0
330
0
330
0
330
0
330
0
330
0
330
0
330
0
330
0
330
0
330
0
330
0
330
0
330
0
330
0
330
0
330
0
330
0
330
0
330
0
330
0
330
0
330
0
330
0
330
0
330
0
330
0
330
0
330
0
330
0
330
0
330
0
330
0
330
0
330
0
330
0
330
0
330
0
330
0
330
0
330
0
330
0
330
0
330
0
330
0
330
0
330
0
330
0
330
0
330
0
330
0
330
0
330
0
330
0
330
0
330
0
330
0
330
0
330
0
330
0
330
0
330
0
330
0
330
0
330
0
330
0
330
0
330
0
330
0
330
0
330
0
330
0
330
0
330
0
330
0
330
0
330
0
330
0
330
0
330
0
330
0
330
0
330
0
330
0
330
0
330
0
330
0
330
0
330
0
330
0
330
0
330
0
330
0
330
0
330
0
330
0
330
0
330
0
330
0
330
0
330
0
330
0
330
0
330
0
330
0
330
0
330
0
330
0
330
0
330
0
330
0
330
0
330
0
330
0
330
0
330
0
330
0
330
0
330
0
330
0
330
0
330
0
330
0
330
0
330
0
330
0
330
0
330
0
330
0
330
0
330
0
330
0
330
0
330
0
330
0
330
0
330
0
330
0
330
0
330
0
330
0
330
0
330
0
330
0
330
0
330
0
330
0
330
0
330
0
330
0
330
0
330
0
330
0
330
0
330
0
330
0
330
0
330
0
330
0
330
0
330
0
330
0
330
0
330
0
330
0
330
0
330
0
330
0
330
0
330
0
330
0
330
0
330
0
330
0
330
0
330
0
330
0
330
0
330
0
330
0
330
0
330
0
330
0
330
0
330
0
330
0
330
0
330
0
330
0
330
0
330
0
330
0
330
0
330
0
330
0
330
0
330
0
330
0
330
0
330
0
330
0
330
0
330
0
330
0
330
0
330
0
330
0
330
0
330
0
330
0
330
0
330
0
330
0
330
0
330
0
330
0
330
0
330
0
330
0
330
0
330
0
330
0
330
0
330
0
330
0
330
0
330
0
330
0
330
0
330
0
330
0
330
0
330
0
330
0
330
0
330
0
330
0
330
0
330
0
330
0
330
0
330
0
330
0
330
0
330
0
330
0
330
0
330
0
330
0
330
0
330
0
330
0
330
0
330
0
330
0
330
0
330
0
330
0
330
0
330
0
330
0
330
0
330
0
330
0
330
0
330
0
330
0
330
0
330
0
330
0
330
0
330
0
330
0
330
0
330
0
330
0
330
0
330
0
330
0
330
0
330
0
330
0
330
0
330
0
330
0
330
0
330
0
330
0
330
0
330
0
330
0
330
0
330
0
330
0
330
0
330
0
330
0
330
0
330
0
330
0
330
0
330
0
330
0
330
0
330
0
330
0
330
0
330
0
330
0
330
0
330
0
330
0
330
0
330
0
330
0
330
0
330
0
330
0
330
0
330
0
330
0
330
0
330
0
330
0
330
0
330
0
330
0
330
0
330
0
330
0
330
0
330
0
330
0
330
0
330
0
330
0
330
0
330
0
330
0
330
0
330
0
330
0
330
0
330
0
330
0
330
0
330
0
330
0
330
0
330
0
330
0
330
0
330
0
330
0
330
0
330
0
330
0
330
0
330
0
330
0
330
0
330
0
330
0
330
0
330
0
330
0
330
0
330
0
330
0
330
0
330
0
330
0
330
0
330
0
330
0
330
0
330
0
330
0
330
0
330
0
330
0
330
0
330
0
330
0
330
0
330
0
330
0
330
0
330
0
330
0
330
0
330
0
330
0
330
0
330
0
330
0
330
0
330
0
330
0
330
0
330
0
330
0
330
0
330
0
330
0
330
0
330
0
330
0
330
0
330
0
330
0
330
0
330
0
330
0
330
0
330
0
330
0
330
0
330
0
330
0
330
0
330
0
330
0
330
0
330
0
330
0
330
0
330
0
330
0
330
0
330
0
330
0
330
0
330
0
330
0
330
0
330
0
330
0
330
0
330
0
330
0
330
0
330
0
330
0
330
0
330
0
330
0
330
0
330
0
330
0
330
0
330
0
330
0
330
0
330
0
330
0
330
0
330
0
330
0
330
0
330
0
330
0
330
0
330
0
330
0
330
0
330
0
330
0
330
0
330
0
330
0
330
0
330
0
330
0
330
0
330
0
330
0
330
0
330
0
330
0
330
0
330
0
330
0
330
0
330
0
330
0
330
0
330
0
330
0
330
0
330
0
330
0
330
0
330
0
330
0
330
0
330
0
330
0
330
0
330
0
330
0
330
0
330
0
330
0
330
0
330
0
330
0
330
0
330
0
330
0
330
0
330
0
330
0
330
0
330
0
330
0
330
0
330
0
330
0
330
0
330
0
330
0
330
0
330
0
330
0
330
0
330
0
330
0
330
0
330
0
330
0
330
0
330
0
330
0
330
0
330
0
330
0
330
0
330
0
330
0
330
0
330
0
330
0
330
0
330
0
330
0
330
0
330
0
330
0
330
0
330
0
330
0
330
0
330
0
330
0
330
0
330
0
330
0
330
0
330
0
330
0
330
0
330
0
330
0
330
0
330
0
330
0
330
0
330
0
330
0
330
0
330
0
330
0
330
0
330
0
330
0
330
0
330
0
330
0
330
0
330
0
330
0
330
0
330
0
330
0
330
0
330
0
330
0
330
0
330
0
330
0
330
0
330
0
330
0
330
0
330
0
330
0
330
0
330
0
330
0
330
0
330
0
330
0
330
0
330
0
330
0
330
0
330
0
330
0
330
0
330
0
330
0
330
0
330
0
330
0
330
0
330
0
330
0
330
0
330
0
330
0
330
0
330
0
330
0
330
0
330
0
330
0
330
0
330
0
330
0
330
0
330
0
  0
ENDSEC
  0
EOF
