  0
SECTION
  2
HEADER
  9
$ACADVER
  1
AC1015
  9
$ACADMAINTVER
 70
     6
  9
$DWGCODEPAGE
  3
ANSI_932
  9
$INSBASE
 10
0.0
 20
0.0
 30
0.0
  9
$EXTMIN
 10
69204.14762579276
 20
-34698.34280902029
 30
0.0
  9
$EXTMAX
 10
69387.53049585404
 20
-34508.19038020383
 30
0.0
  9
$LIMMIN
 10
0.0
 20
0.0
  9
$LIMMAX
 10
420.0
 20
297.0
  9
$ORTHOMODE
 70
     0
  9
$REGENMODE
 70
     1
  9
$FILLMODE
 70
     1
  9
$QTEXTMODE
 70
     0
  9
$MIRRTEXT
 70
     1
  9
$LTSCALE
 40
5.0
  9
$ATTMODE
 70
     0
  9
$TEXTSIZE
 40
3.5
  9
$TRACEWID
 40
1.0
  9
$TEXTSTYLE
  7
STANDARD
  9
$CLAYER
  8
寸法線
  9
$CELTYPE
  6
BYLAYER
  9
$CECOLOR
 62
   256
  9
$CELTSCALE
 40
1.0
  9
$DISPSILH
 70
     0
  9
$DIMSCALE
 40
1.0
  9
$DIMASZ
 40
1.5
  9
$DIMEXO
 40
1.5
  9
$DIMDLI
 40
0.38
  9
$DIMRND
 40
0.0
  9
$DIMDLE
 40
0.0
  9
$DIMEXE
 40
1.0
  9
$DIMTP
 40
0.0
  9
$DIMTM
 40
0.0
  9
$DIMTXT
 40
2.500000000000003
  9
$DIMCEN
 40
0.0
  9
$DIMTSZ
 40
0.0
  9
$DIMTOL
 70
     0
  9
$DIMLIM
 70
     0
  9
$DIMTIH
 70
     0
  9
$DIMTOH
 70
     0
  9
$DIMSE1
 70
     0
  9
$DIMSE2
 70
     0
  9
$DIMTAD
 70
     3
  9
$DIMZIN
 70
     8
  9
$DIMBLK
  1

  9
$DIMASO
 70
     1
  9
$DIMSHO
 70
     0
  9
$DIMPOST
  1

  9
$DIMAPOST
  1

  9
$DIMALT
 70
     0
  9
$DIMALTD
 70
     0
  9
$DIMALTF
 40
25.4
  9
$DIMLFAC
 40
1.0
  9
$DIMTOFL
 70
     0
  9
$DIMTVP
 40
0.0
  9
$DIMTIX
 70
     0
  9
$DIMSOXD
 70
     0
  9
$DIMSAH
 70
     1
  9
$DIMBLK1
  1
OPEN
  9
$DIMBLK2
  1
OPEN
  9
$DIMSTYLE
  2
STANDARD
  9
$DIMCLRD
 70
     8
  9
$DIMCLRE
 70
     8
  9
$DIMCLRT
 70
   256
  9
$DIMTFAC
 40
1.0
  9
$DIMGAP
 40
1.0
  9
$DIMJUST
 70
     0
  9
$DIMSD1
 70
     0
  9
$DIMSD2
 70
     0
  9
$DIMTOLJ
 70
     1
  9
$DIMTZIN
 70
     0
  9
$DIMALTZ
 70
     0
  9
$DIMALTTZ
 70
     0
  9
$DIMUPT
 70
     0
  9
$DIMDEC
 70
     2
  9
$DIMTDEC
 70
     2
  9
$DIMALTU
 70
     2
  9
$DIMALTTD
 70
     0
  9
$DIMTXSTY
  7
STANDARD
  9
$DIMAUNIT
 70
     0
  9
$DIMADEC
 70
     2
  9
$DIMALTRND
 40
0.0
  9
$DIMAZIN
 70
     2
  9
$DIMDSEP
 70
    46
  9
$DIMATFIT
 70
     3
  9
$DIMFRAC
 70
     0
  9
$DIMLDRBLK
  1
OPEN
  9
$DIMLUNIT
 70
     2
  9
$DIMLWD
 70
    -2
  9
$DIMLWE
 70
    -2
  9
$DIMTMOVE
 70
     0
  9
$LUNITS
 70
     2
  9
$LUPREC
 70
     2
  9
$SKETCHINC
 40
0.1
  9
$FILLETRAD
 40
20.0
  9
$AUNITS
 70
     0
  9
$AUPREC
 70
     1
  9
$MENU
  1
FM
  9
$ELEVATION
 40
0.0
  9
$PELEVATION
 40
0.0
  9
$THICKNESS
 40
0.0
  9
$LIMCHECK
 70
     0
  9
$CHAMFERA
 40
0.0
  9
$CHAMFERB
 40
0.0
  9
$CHAMFERC
 40
0.0
  9
$CHAMFERD
 40
0.0
  9
$SKPOLY
 70
     0
  9
$TDCREATE
 40
2448636.619629629
  9
$TDUCREATE
 40
2448636.244629629
  9
$TDUPDATE
 40
2456822.478708148
  9
$TDUUPDATE
 40
2456822.103708148
  9
$TDINDWG
 40
45.7453822454
  9
$TDUSRTIMER
 40
2456822.103580914
  9
$USRTIMER
 70
     1
  9
$ANGBASE
 50
0.0
  9
$ANGDIR
 70
     0
  9
$PDMODE
 70
     3
  9
$PDSIZE
 40
0.0
  9
$PLINEWID
 40
0.0
  9
$SPLFRAME
 70
     0
  9
$SPLINETYPE
 70
     6
  9
$SPLINESEGS
 70
     8
  9
$HANDSEED
  5
47F4DE
  9
$SURFTAB1
 70
     6
  9
$SURFTAB2
 70
     6
  9
$SURFTYPE
 70
     6
  9
$SURFU
 70
     6
  9
$SURFV
 70
     6
  9
$UCSBASE
  2

  9
$UCSNAME
  2

  9
$UCSORG
 10
0.0
 20
0.0
 30
0.0
  9
$UCSXDIR
 10
1.0
 20
0.0
 30
0.0
  9
$UCSYDIR
 10
0.0
 20
1.0
 30
0.0
  9
$UCSORTHOREF
  2

  9
$UCSORTHOVIEW
 70
     0
  9
$UCSORGTOP
 10
0.0
 20
0.0
 30
0.0
  9
$UCSORGBOTTOM
 10
0.0
 20
0.0
 30
0.0
  9
$UCSORGLEFT
 10
0.0
 20
0.0
 30
0.0
  9
$UCSORGRIGHT
 10
0.0
 20
0.0
 30
0.0
  9
$UCSORGFRONT
 10
0.0
 20
0.0
 30
0.0
  9
$UCSORGBACK
 10
0.0
 20
0.0
 30
0.0
  9
$PUCSBASE
  2

  9
$PUCSNAME
  2

  9
$PUCSORG
 10
0.0
 20
0.0
 30
0.0
  9
$PUCSXDIR
 10
1.0
 20
0.0
 30
0.0
  9
$PUCSYDIR
 10
0.0
 20
1.0
 30
0.0
  9
$PUCSORTHOREF
  2

  9
$PUCSORTHOVIEW
 70
     0
  9
$PUCSORGTOP
 10
0.0
 20
0.0
 30
0.0
  9
$PUCSORGBOTTOM
 10
0.0
 20
0.0
 30
0.0
  9
$PUCSORGLEFT
 10
0.0
 20
0.0
 30
0.0
  9
$PUCSORGRIGHT
 10
0.0
 20
0.0
 30
0.0
  9
$PUCSORGFRONT
 10
0.0
 20
0.0
 30
0.0
  9
$PUCSORGBACK
 10
0.0
 20
0.0
 30
0.0
  9
$USERI1
 70
     0
  9
$USERI2
 70
     0
  9
$USERI3
 70
     0
  9
$USERI4
 70
     0
  9
$USERI5
 70
     0
  9
$USERR1
 40
0.0
  9
$USERR2
 40
0.0
  9
$USERR3
 40
0.0
  9
$USERR4
 40
0.0
  9
$USERR5
 40
0.0
  9
$WORLDVIEW
 70
     0
  9
$SHADEDGE
 70
     3
  9
$SHADEDIF
 70
    70
  9
$TILEMODE
 70
     1
  9
$MAXACTVP
 70
    16
  9
$PINSBASE
 10
0.0
 20
0.0
 30
0.0
  9
$PLIMCHECK
 70
     0
  9
$PEXTMIN
 10
1.000000000000000E+20
 20
1.000000000000000E+20
 30
1.000000000000000E+20
  9
$PEXTMAX
 10
-1.000000000000000E+20
 20
-1.000000000000000E+20
 30
-1.000000000000000E+20
  9
$PLIMMIN
 10
0.0
 20
0.0
  9
$PLIMMAX
 10
0.0
 20
0.0
  9
$UNITMODE
 70
     0
  9
$VISRETAIN
 70
     0
  9
$PLINEGEN
 70
     0
  9
$PSLTSCALE
 70
     0
  9
$TREEDEPTH
 70
  3020
  9
$CMLSTYLE
  2
STANDARD
  9
$CMLJUST
 70
     0
  9
$CMLSCALE
 40
1.0
  9
$PROXYGRAPHICS
 70
     1
  9
$MEASUREMENT
 70
     0
  9
$CELWEIGHT
370
    -1
  9
$ENDCAPS
280
     0
  9
$JOINSTYLE
280
     0
  9
$LWDISPLAY
290
     0
  9
$INSUNITS
 70
     0
  9
$HYPERLINKBASE
  1

  9
$STYLESHEET
  1
spax form.ctb
  9
$XEDIT
290
     1
  9
$CEPSNTYPE
380
     0
  9
$PSTYLEMODE
290
     1
  9
$FINGERPRINTGUID
  2
{BBAEEBA6-8B94-11D3-9160-00E0294F7E09}
  9
$VERSIONGUID
  2
{FE2415AA-7D07-4AF3-B4F0-B7921BD9FFF4}
  9
$EXTNAMES
290
     1
  9
$PSVPSCALE
 40
0.0
  9
$OLESTARTUP
290
     0
  0
ENDSEC
  0
SECTION
  2
CLASSES
  0
CLASS
  1
LWPOLYLINE
  2
AcDbPolyline
  3
ObjectDBX Classes
 90
        0
280
     0
281
     1
  0
CLASS
  1
ACDBDICTIONARYWDFLT
  2
AcDbDictionaryWithDefault
  3
ObjectDBX Classes
 90
        0
280
     0
281
     0
  0
CLASS
  1
ACDBPLACEHOLDER
  2
AcDbPlaceHolder
  3
ObjectDBX Classes
 90
        0
280
     0
281
     0
  0
CLASS
  1
LAYOUT
  2
AcDbLayout
  3
ObjectDBX Classes
 90
        0
280
     0
281
     0
  0
CLASS
  1
DICTIONARYVAR
  2
AcDbDictionaryVar
  3
ObjectDBX Classes
 90
        0
280
     0
281
     0
  0
CLASS
  1
DIMASSOC
  2
AcDbDimAssoc
  3
"AcDbDimAssoc|Product Desc:     AcDim ARX App For Dimension|Company:          Autodesk, Inc.|WEB Address:      www.autodesk.com"
 90
        0
280
     0
281
     0
  0
CLASS
  1
SORTENTSTABLE
  2
AcDbSortentsTable
  3
ObjectDBX Classes
 90
        0
280
     0
281
     0
  0
CLASS
  1
MATERIAL
  2
AcDbMaterial
  3
ObjectDBX Classes
 90
     1153
280
     0
281
     0
  0
CLASS
  1
VISUALSTYLE
  2
AcDbVisualStyle
  3
ObjectDBX Classes
 90
     4095
280
     0
281
     0
  0
CLASS
  1
TABLESTYLE
  2
AcDbTableStyle
  3
ObjectDBX Classes
 90
     4095
280
     0
281
     0
  0
CLASS
  1
SCALE
  2
AcDbScale
  3
ObjectDBX Classes
 90
     1153
280
     0
281
     0
  0
CLASS
  1
MLEADERSTYLE
  2
AcDbMLeaderStyle
  3
ACDB_MLEADERSTYLE_CLASS
 90
     4095
280
     0
281
     0
  0
CLASS
  1
CELLSTYLEMAP
  2
AcDbCellStyleMap
  3
ObjectDBX Classes
 90
     1152
280
     0
281
     0
  0
CLASS
  1
RASTERVARIABLES
  2
AcDbRasterVariables
  3
ISM
 90
        0
280
     0
281
     0
  0
CLASS
  1
SUN
  2
AcDbSun
  3
SCENEOE
 90
     1153
280
     0
281
     0
  0
ENDSEC
  0
SECTION
  2
TABLES
  0
TABLE
  2
VPORT
  5
8
330
0
100
AcDbSymbolTable
 70
     2
  0
VPORT
  5
47F4B0
330
8
100
AcDbSymbolTableRecord
100
AcDbViewportTableRecord
  2
*Active
 70
     0
 10
0.0
 20
0.0
 11
1.0
 21
1.0
 12
69295.8390608234
 22
-34603.26659461206
 13
0.0
 23
0.0
 14
1.0
 24
1.0
 15
20.0
 25
20.0
 16
0.0
 26
0.0
 36
1.0
 17
0.0
 27
0.0
 37
0.0
 40
193.9554773927948
 41
1.731829573934837
 42
50.0
 43
0.0
 44
0.0
 50
0.0
 51
0.0
 71
    16
 72
   100
 73
     1
 74
     0
 75
     0
 76
     0
 77
     0
 78
     0
281
     0
 65
     1
110
0.0
120
0.0
130
0.0
111
1.0
121
0.0
131
0.0
112
0.0
122
1.0
132
0.0
 79
     0
146
0.0
  0
ENDTAB
  0
TABLE
  2
LTYPE
  5
5
330
0
100
AcDbSymbolTable
 70
     5
  0
LTYPE
  5
12
330
5
100
AcDbSymbolTableRecord
100
AcDbLinetypeTableRecord
  2
BYBLOCK
 70
     0
  3

 72
    65
 73
     0
 40
0.0
  0
LTYPE
  5
13
330
5
100
AcDbSymbolTableRecord
100
AcDbLinetypeTableRecord
  2
BYLAYER
 70
     0
  3

 72
    65
 73
     0
 40
0.0
  0
LTYPE
  5
14
330
5
100
AcDbSymbolTableRecord
100
AcDbLinetypeTableRecord
  2
CONTINUOUS
 70
     0
  3
Solid line
 72
    65
 73
     0
 40
0.0
  0
LTYPE
  5
26
330
5
100
AcDbSymbolTableRecord
100
AcDbLinetypeTableRecord
  2
PHANTOM
 70
     0
  3
_____ _ _ _____ _ _ _____ _ _ _____ _ _ ____
 72
    65
 73
     6
 40
2.5
 49
1.25
 74
     0
 49
-0.25
 74
     0
 49
0.25
 74
     0
 49
-0.25
 74
     0
 49
0.25
 74
     0
 49
-0.25
 74
     0
  0
LTYPE
  5
27
330
5
100
AcDbSymbolTableRecord
100
AcDbLinetypeTableRecord
  2
HIDDEN
 70
     0
  3
_ _ _ _ _ _ _ _ _ _ _ _ _ _ _ _ _ _ _ _ _ _ _
 72
    65
 73
     2
 40
0.375
 49
0.25
 74
     0
 49
-0.125
 74
     0
  0
LTYPE
  5
514
330
5
100
AcDbSymbolTableRecord
100
AcDbLinetypeTableRecord
  2
CENTER
 70
     0
  3
Center ____ _ ____ _ ____ _ ____ _ ____ _ ____
 72
    65
 73
     4
 40
2.0
 49
1.25
 74
     0
 49
-0.25
 74
     0
 49
0.25
 74
     0
 49
-0.25
 74
     0
  0
ENDTAB
  0
TABLE
  2
LAYER
  5
2
102
{ACAD_XDICTIONARY
360
6A835
102
}
330
0
100
AcDbSymbolTable
 70
    16
  0
LAYER
  5
F
102
{ACAD_XDICTIONARY
360
44EDBC
102
}
330
2
100
AcDbSymbolTableRecord
100
AcDbLayerTableRecord
  2
0
 70
     0
 62
     7
  6
CONTINUOUS
370
    -3
390
616
  0
LAYER
  5
34
102
{ACAD_XDICTIONARY
360
44EDC0
102
}
330
2
100
AcDbSymbolTableRecord
100
AcDbLayerTableRecord
  2
寸法線
 70
     0
 62
     7
  6
CONTINUOUS
370
    -3
390
616
  0
LAYER
  5
2F4
102
{ACAD_XDICTIONARY
360
44EDC4
102
}
330
2
100
AcDbSymbolTableRecord
100
AcDbLayerTableRecord
  2
文字
 70
     0
 62
     7
  6
CONTINUOUS
370
    -3
390
616
  0
LAYER
  5
305
102
{ACAD_XDICTIONARY
360
44EDC8
102
}
330
2
100
AcDbSymbolTableRecord
100
AcDbLayerTableRecord
  2
姿図
 70
     0
 62
     8
  6
CONTINUOUS
370
    -3
390
616
  0
ENDTAB
  0
TABLE
  2
STYLE
  5
3
330
0
100
AcDbSymbolTable
 70
     2
  0
STYLE
  5
10
330
3
100
AcDbSymbolTableRecord
100
AcDbTextStyleTableRecord
  2
STANDARD
 70
     0
 40
0.0
 41
1.0
 50
0.0
 71
     0
 42
3.5
  3
MONOTXT
  4
BIGFONT
  0
STYLE
  5
113DD
330
3
100
AcDbSymbolTableRecord
100
AcDbTextStyleTableRecord
  2
EXTFONT
 70
     0
 40
2.5
 41
1.0
 50
0.0
 71
     0
 42
2.5
  3
txt.shx
  4
extfont
  0
ENDTAB
  0
TABLE
  2
VIEW
  5
6
330
0
100
AcDbSymbolTable
 70
     0
  0
ENDTAB
  0
TABLE
  2
UCS
  5
7
330
0
100
AcDbSymbolTable
 70
     0
  0
ENDTAB
  0
TABLE
  2
APPID
  5
9
330
0
100
AcDbSymbolTable
 70
     8
  0
APPID
  5
11
330
9
100
AcDbSymbolTableRecord
100
AcDbRegAppTableRecord
  2
ACAD
 70
     0
  0
APPID
  5
100B4C
330
9
100
AcDbSymbolTableRecord
100
AcDbRegAppTableRecord
  2
GENIUS_GENODEF_13
 70
     0
  0
APPID
  5
100B4D
330
9
100
AcDbSymbolTableRecord
100
AcDbRegAppTableRecord
  2
GENIUS_GENREC_14
 70
     0
  0
APPID
  5
100B4E
330
9
100
AcDbSymbolTableRecord
100
AcDbRegAppTableRecord
  2
GENIUS_GENOBJ-N-REC_13
 70
     0
  0
APPID
  5
44CC63
330
9
100
AcDbSymbolTableRecord
100
AcDbRegAppTableRecord
  2
DCO15
 70
     0
  0
APPID
  5
44EDB5
330
9
100
AcDbSymbolTableRecord
100
AcDbRegAppTableRecord
  2
ACAD_MLEADERVER
 70
     0
  0
APPID
  5
46F2BD
330
9
100
AcDbSymbolTableRecord
100
AcDbRegAppTableRecord
  2
ACAD_EXEMPT_FROM_CAD_STANDARDS
 70
     0
  0
APPID
  5
46F35E
330
9
100
AcDbSymbolTableRecord
100
AcDbRegAppTableRecord
  2
ACAD_PSEXT
 70
     0
  0
ENDTAB
  0
TABLE
  2
DIMSTYLE
  5
A
330
0
100
AcDbSymbolTable
 70
     4
100
AcDbDimStyleTable
  0
DIMSTYLE
105
1CC
330
A
100
AcDbSymbolTableRecord
100
AcDbDimStyleTableRecord
  2
STANDARD
 70
     0
 41
1.5
 42
1.5
 44
1.0
 73
     0
 74
     0
 77
     3
 78
     8
 79
     2
140
2.500000000000003
141
0.0
147
1.0
171
     0
173
     1
176
     8
177
     8
271
     2
178
   256
179
     2
271
     2
272
     2
274
     0
340
10
341
608
343
608
344
608
  0
DIMSTYLE
105
45609A
330
A
100
AcDbSymbolTableRecord
100
AcDbDimStyleTableRecord
  2
3-1
 70
     0
 41
3.0
 42
0.8
 43
0.6300000000000001
 44
0.6999999999999997
 73
     0
 74
     0
 77
     3
 78
     8
 79
     2
140
2.5
141
0.0
144
0.333333333333333
147
0.7999999999999998
171
     0
172
     1
173
     1
176
     8
177
     8
271
     2
178
   256
179
     2
271
     2
272
     2
274
     0
340
10
341
608
343
608
344
608
371
    -1
372
    -1
  0
ENDTAB
  0
TABLE
  2
BLOCK_RECORD
  5
1
330
0
100
AcDbSymbolTable
 70
    42
  0
BLOCK_RECORD
  5
18
330
1
100
AcDbSymbolTableRecord
100
AcDbBlockTableRecord
  2
*MODEL_SPACE
340
619
  0
BLOCK_RECORD
  5
15
330
1
100
AcDbSymbolTableRecord
100
AcDbBlockTableRecord
  2
*PAPER_SPACE
340
61A
  0
BLOCK_RECORD
  5
608
330
1
100
AcDbSymbolTableRecord
100
AcDbBlockTableRecord
  2
_OPEN
340
0
102
{BLKREFS
331
44E38F
331
44E390
331
45604B
331
45604C
331
456054
331
456055
331
45605C
331
45605D
331
456067
331
456068
331
456070
331
456071
331
456079
331
45607A
331
456094
331
456095
331
46F276
331
46F277
331
46F27F
331
46F280
331
46F288
331
46F289
331
46F291
331
46F292
331
46F299
331
46F29A
331
46F2A4
331
46F2A5
331
46F2AD
331
46F2AE
331
46F2B6
331
46F2B7
331
477348
331
477349
331
477351
331
477352
331
47735A
331
47735B
331
477363
331
477364
331
47736B
331
47736C
331
477376
331
477377
331
47737F
331
477380
331
477388
331
477389
331
47B408
331
47B409
331
47B411
331
47B412
331
47B41A
331
47B41B
331
47B423
331
47B424
331
47B42B
331
47B42C
331
47B436
331
47B437
331
47B43F
331
47B440
331
47B448
331
47B449
331
47F44B
331
47F44C
331
47F454
331
47F455
331
47F45D
331
47F45E
331
47F465
331
47F466
331
47F470
331
47F471
331
47F479
331
47F47A
331
47F482
331
47F483
331
47F48B
331
47F48C
102
}
  0
BLOCK_RECORD
  5
A48
330
1
100
AcDbSymbolTableRecord
100
AcDbBlockTableRecord
  2
SUN
340
0
  0
ENDTAB
  0
ENDSEC
  0
SECTION
  2
BLOCKS
  0
BLOCK
  5
39
330
18
100
AcDbEntity
  8
0
100
AcDbBlockBegin
  2
*MODEL_SPACE
 70
     0
 10
0.0
 20
0.0
 30
0.0
  3
*MODEL_SPACE
  1
*MODEL_SPACE
  0
ENDBLK
  5
3A
330
18
100
AcDbEntity
  8
0
100
AcDbBlockEnd
  0
BLOCK
  5
37
330
15
100
AcDbEntity
 67
     1
  8
0
100
AcDbBlockBegin
  2
*PAPER_SPACE
 70
     0
 10
0.0
 20
0.0
 30
0.0
  3
*PAPER_SPACE
  1
*PAPER_SPACE
  0
ENDBLK
  5
38
330
15
100
AcDbEntity
 67
     1
  8
0
100
AcDbBlockEnd
  0
BLOCK
  5
609
330
608
100
AcDbEntity
  8
0
100
AcDbBlockBegin
  2
_OPEN
 70
     0
 10
0.0
 20
0.0
 30
0.0
  3
_OPEN
  1
_OPEN
  0
LINE
  5
60A
330
608
100
AcDbEntity
  8
0
  6
ByBlock
 62
     0
100
AcDbLine
 10
-1.0
 20
0.1666666666666667
 30
0.0
 11
0.0
 21
0.0
 31
0.0
  0
LINE
  5
60B
330
608
100
AcDbEntity
  8
0
  6
ByBlock
 62
     0
100
AcDbLine
 10
0.0
 20
0.0
 30
0.0
 11
-1.0
 21
-0.1666666666666667
 31
0.0
  0
LINE
  5
60C
330
608
100
AcDbEntity
  8
0
  6
ByBlock
 62
     0
100
AcDbLine
 10
0.0
 20
0.0
 30
0.0
 11
-1.0
 21
0.0
 31
0.0
  0
ENDBLK
  5
60D
330
608
100
AcDbEntity
  8
0
100
AcDbBlockEnd
  0
BLOCK
  5
A49
330
A48
100
AcDbEntity
  8
0
100
AcDbBlockBegin
  2
SUN
 70
     0
 10
0.0
 20
0.0
 30
0.0
  3
SUN
  1
SUN
  0
LINE
  5
A4A
330
A48
100
AcDbEntity
  8
0
100
AcDbLine
 10
-0.0000000000000568
 20
0.0
 30
0.0
 11
-1.500000000000057
 21
0.0
 31
0.0
  0
LINE
  5
A4B
330
A48
100
AcDbEntity
  8
0
100
AcDbLine
 10
-0.0000000000000568
 20
0.0000000000000284
 30
0.0
 11
-1.500000000000057
 21
0.401923788646684
 31
0.0
  0
LINE
  5
A4C
330
A48
100
AcDbEntity
  8
0
100
AcDbLine
 10
-0.0000000000000568
 20
0.0000000000000284
 30
0.0
 11
-1.500000000000057
 21
-0.4019237886466556
 31
0.0
  0
ENDBLK
  5
A4D
330
A48
100
AcDbEntity
  8
0
100
AcDbBlockEnd
  0
ENDSEC
  0
SECTION
  2
ENTITIES
  0
TEXT
  5
11B04
330
18
100
AcDbEntity
  8
文字
100
AcDbText
 10
-1240.183388714458
 20
-1416.837204555437
 30
0.0
 40
6.75
  1

 41
1.0228
100
AcDbText
  0
MTEXT
  5
12B3E
330
18
100
AcDbEntity
  8
0
100
AcDbMText
 10
-974.1891318600246
 20
-2072.131137572738
 30
0.0
 40
2.500000000000003
 41
0.0
 71
     9
 72
     1
  1
\A1;
 73
     1
 44
1.0
  0
MTEXT
  5
CD161
330
18
100
AcDbEntity
  8
寸法線
100
AcDbMText
 10
790.7551244589424
 20
-5735.183918242472
 30
0.0
 40
2.500000000000003
 41
0.0
 71
     6
 72
     1
  1
\A1;\P　　　　
 73
     1
 44
1.0
  0
MTEXT
  5
D3E27
330
18
100
AcDbEntity
  8
0
100
AcDbMText
 10
2439.336910391245
 20
667.075356397309
 30
0.0
 40
2.5
 41
0.0
 71
     9
 72
     1
  1
\A1;
 73
     1
 44
1.0
  0
MTEXT
  5
1420C2
330
18
100
AcDbEntity
  8
寸法線
100
AcDbMText
 10
-8174.409940395288
 20
1453.836710937994
 30
0.0
 40
2.5
 41
0.0
 71
     1
 72
     1
  1

  7
EXTFONT
 73
     1
 44
1.0
  0
TEXT
  5
18CEEC
330
18
100
AcDbEntity
  8
文字
100
AcDbText
 10
4713.45528577579
 20
-10991.74774079692
 30
0.0
 40
17.0
  1

 72
     1
 11
4713.45528577579
 21
-10991.74774079692
 31
0.0
100
AcDbText
  0
TEXT
  5
1D03BD
330
18
100
AcDbEntity
  8
文字
100
AcDbText
 10
9339.350494841161
 20
-6691.468753201214
 30
0.0
 40
15.0
  1

 72
     1
 11
9339.350494841161
 21
-6691.468753201214
 31
0.0
100
AcDbText
  0
TEXT
  5
36B148
330
18
100
AcDbEntity
  8
文字
100
AcDbText
 10
49394.64127479332
 20
-30205.80622202081
 30
0.0
 40
2.5
  1

100
AcDbText
  0
LINE
  5
47B669
330
18
100
AcDbEntity
  8
寸法線
 62
   253
100
AcDbLine
 10
69374.17766868538
 20
-34610.04185330788
 30
0.0
 11
69343.85937052907
 21
-34588.39472754685
 31
0.0
  0
LINE
  5
47B66A
330
18
100
AcDbEntity
  8
寸法線
 62
     8
100
AcDbLine
 10
69384.09293637914
 20
-34616.91417572607
 30
0.0
 11
69384.09293637914
 21
-34617.57797924506
 31
0.0
  0
LINE
  5
47B66B
330
18
100
AcDbEntity
  8
寸法線
 62
     8
100
AcDbLine
 10
69384.71594170737
 20
-34618.8681968888
 30
0.0
 11
69384.71594170737
 21
-34618.06436924299
 31
0.0
  0
LINE
  5
47B66C
330
18
100
AcDbEntity
  8
寸法線
 62
     8
100
AcDbLine
 10
69384.71594170737
 20
-34618.8681968888
 30
0.0
 11
69384.34003239997
 21
-34619.23549499251
 31
0.0
  0
LINE
  5
47B66D
330
18
100
AcDbEntity
  8
寸法線
 62
   253
100
AcDbLine
 10
69384.71594170737
 20
-34618.06436924299
 30
0.0
 11
69381.40980696473
 21
-34615.48321817134
 31
0.0
  0
LINE
  5
47B66E
330
18
100
AcDbEntity
  8
寸法線
 62
   253
100
AcDbLine
 10
69384.71594170737
 20
-34618.8681968888
 30
0.0
 11
69381.40980696473
 21
-34616.28704581716
 31
0.0
  0
LINE
  5
47B66F
330
18
100
AcDbEntity
  8
寸法線
 62
   253
100
AcDbLine
 10
69384.7858873533
 20
-34617.45662153692
 30
0.0
 11
69381.47975261064
 21
-34614.87547046528
 31
0.0
  0
LINE
  5
47B670
330
18
100
AcDbEntity
  8
寸法線
 62
   253
100
AcDbLine
 10
69384.7858873533
 20
-34616.65279389111
 30
0.0
 11
69381.47975261064
 21
-34614.07164281946
 31
0.0
  0
LINE
  5
47B671
330
18
100
AcDbEntity
  8
寸法線
 62
     8
100
AcDbLine
 10
69384.7858873533
 20
-34617.45662153692
 30
0.0
 11
69384.40997804588
 21
-34617.82391964064
 31
0.0
  0
LINE
  5
47B672
330
18
100
AcDbEntity
  8
寸法線
 62
     8
100
AcDbLine
 10
69384.16288202506
 20
-34615.50260037419
 30
0.0
 11
69384.16288202506
 21
-34616.16640389319
 31
0.0
  0
LINE
  5
47B673
330
18
100
AcDbEntity
  8
寸法線
 62
     8
100
AcDbLine
 10
69384.7858873533
 20
-34617.45662153692
 30
0.0
 11
69384.7858873533
 21
-34616.65279389111
 31
0.0
  0
LINE
  5
47B674
330
18
100
AcDbEntity
  8
姿図
100
AcDbLine
 10
69292.47413237221
 20
-34560.61085296441
 30
0.0
 11
69382.41615986564
 21
-34623.46587816263
 31
0.0
  0
LINE
  5
47B675
330
18
100
AcDbEntity
  8
姿図
100
AcDbLine
 10
69382.41615986564
 20
-34623.46587816263
 30
0.0
 11
69387.53049585404
 21
-34622.09503982688
 31
0.0
  0
LINE
  5
47B676
330
18
100
AcDbEntity
  8
姿図
100
AcDbLine
 10
69381.53666413744
 20
-34608.39582249965
 30
0.0
 11
69381.53666413744
 21
-34617.73508550388
 31
0.0
  0
LINE
  5
47B677
330
18
100
AcDbEntity
  8
姿図
100
AcDbLine
 10
69373.87954156939
 20
-34612.16524200131
 30
0.0
 11
69374.34477103062
 21
-34604.17784325556
 31
0.0
  0
LINE
  5
47B678
330
18
100
AcDbEntity
  8
姿図
100
AcDbLine
 10
69374.44985876032
 20
-34612.58009463975
 30
0.0
 11
69374.95221886154
 21
-34603.9552099819
 31
0.0
  0
LINE
  5
47B679
330
18
100
AcDbEntity
  8
姿図
100
AcDbLine
 10
69374.34477103064
 20
-34604.17784325556
 30
0.0
 11
69374.95221886152
 21
-34603.9552099819
 31
0.0
  0
LINE
  5
47B67A
330
18
100
AcDbEntity
  8
姿図
100
AcDbLine
 10
69374.95221886152
 20
-34603.9552099819
 30
0.0
 11
69381.53666413744
 21
-34608.39582249965
 31
0.0
  0
LINE
  5
47B67B
330
18
100
AcDbEntity
  8
姿図
100
AcDbLine
 10
69343.74488132643
 20
-34580.98307568447
 30
0.0
 11
69343.74488132643
 21
-34590.24508334312
 31
0.0
  0
LINE
  5
47B67C
330
18
100
AcDbEntity
  8
姿図
100
AcDbLine
 10
69337.1604360505
 20
-34576.54246316673
 30
0.0
 11
69343.74488132643
 21
-34580.98307568447
 31
0.0
  0
LINE
  5
47B67D
330
18
100
AcDbEntity
  8
姿図
100
AcDbLine
 10
69336.55298821961
 20
-34576.76509644039
 30
0.0
 11
69337.1604360505
 21
-34576.54246316673
 31
0.0
  0
LINE
  5
47B67E
330
18
100
AcDbEntity
  8
姿図
100
AcDbLine
 10
69336.66239282218
 20
-34585.09323260194
 30
0.0
 11
69337.1604360505
 21
-34576.54246316673
 31
0.0
  0
LINE
  5
47B67F
330
18
100
AcDbEntity
  8
姿図
100
AcDbLine
 10
69336.09207563127
 20
-34584.6783799635
 30
0.0
 11
69336.55298821961
 21
-34576.76509644039
 31
0.0
  0
LINE
  5
47B680
330
18
100
AcDbEntity
  8
姿図
100
AcDbLine
 10
69305.37390848043
 20
-34553.38543593245
 30
0.0
 11
69305.37390848043
 21
-34562.15881087111
 31
0.0
  0
LINE
  5
47B681
330
18
100
AcDbEntity
  8
姿図
100
AcDbLine
 10
69297.55999313197
 20
-34559.84678825898
 30
0.0
 11
69298.1820153736
 21
-34549.16745668835
 31
0.0
  0
LINE
  5
47B682
330
18
100
AcDbEntity
  8
姿図
100
AcDbLine
 10
69298.15972145046
 20
-34559.75668920542
 30
0.0
 11
69298.7894632045
 21
-34548.9448234147
 31
0.0
  0
LINE
  5
47B683
330
18
100
AcDbEntity
  8
姿図
100
AcDbLine
 10
69298.1820153736
 20
-34549.16745668835
 30
0.0
 11
69298.7894632045
 21
-34548.9448234147
 31
0.0
  0
LINE
  5
47B684
330
18
100
AcDbEntity
  8
姿図
100
AcDbLine
 10
69298.7894632045
 20
-34548.94482341469
 30
0.0
 11
69305.37390848043
 21
-34553.38543593245
 31
0.0
  0
LINE
  5
47D00E
330
18
100
AcDbEntity
  8
姿図
100
AcDbLine
 10
69204.14762579277
 20
-34576.03656996028
 30
0.0
 11
69213.84873519825
 21
-34574.57914207336
 31
0.0
  0
LINE
  5
47D00F
330
18
100
AcDbEntity
  8
寸法線
 62
     8
100
AcDbLine
 10
69204.14762579276
 20
-34576.03656996028
 30
0.0
 11
69306.58528636162
 21
-34636.31343541982
 31
0.0
  0
LINE
  5
47E8E2
330
18
100
AcDbEntity
  8
寸法線
 62
     8
100
AcDbLine
 10
69292.47413237221
 20
-34508.19038020383
 30
0.0
 11
69381.5430313292
 21
-34580.79519481926
 31
0.0
  0
LINE
  5
47E8E3
330
18
100
AcDbEntity
  8
寸法線
 62
     8
100
AcDbLine
 10
69381.5430313292
 20
-34580.79519481926
 30
0.0
 11
69381.5430313292
 21
-34591.29674051738
 31
0.0
  0
LINE
  5
47E8E4
330
18
100
AcDbEntity
  8
寸法線
 62
     8
100
AcDbLine
 10
69384.84279888011
 20
-34627.69880086882
 30
0.0
 11
69383.75079503258
 21
-34627.69880086882
 31
0.0
  0
LINE
  5
47E8E5
330
18
100
AcDbEntity
  8
寸法線
 62
     8
100
AcDbLine
 10
69384.84279888011
 20
-34627.69880086882
 30
0.0
 11
69384.84279888011
 21
-34626.89497322301
 31
0.0
  0
LINE
  5
47E8E6
330
18
100
AcDbEntity
  8
寸法線
 62
     8
100
AcDbLine
 10
69384.84279888011
 20
-34594.84725716327
 30
0.0
 11
69384.84279888011
 21
-34593.87292062289
 31
0.0
  0
LINE
  5
47E8E7
330
18
100
AcDbEntity
  8
寸法線
 62
     8
100
AcDbLine
 10
69384.84279888011
 20
-34613.98501406303
 30
0.0
 11
69384.84279888013
 21
-34606.06407388563
 31
0.0
  0
LINE
  5
47E8E8
330
18
100
AcDbEntity
  8
寸法線
 62
     8
100
AcDbLine
 10
69384.84279888011
 20
-34616.00676238431
 30
0.0
 11
69384.84279888011
 21
-34615.2029347385
 31
0.0
  0
LINE
  5
47E8E9
330
18
100
AcDbEntity
  8
寸法線
 62
     8
100
AcDbLine
 10
69384.84279888011
 20
-34625.36039317193
 30
0.0
 11
69384.84279888011
 21
-34624.55656552612
 31
0.0
  0
LINE
  5
47E8EA
330
18
100
AcDbEntity
  8
寸法線
 62
     8
100
AcDbLine
 10
69384.84279888011
 20
-34594.84725716327
 30
0.0
 11
69384.3356579773
 21
-34594.84725716327
 31
0.0
  0
LINE
  5
47E8EB
330
18
100
AcDbEntity
  8
寸法線
 62
     8
100
AcDbLine
 10
69384.21979355186
 20
-34614.05274122157
 30
0.0
 11
69384.21979355186
 21
-34614.71654474058
 31
0.0
  0
LINE
  5
47E8EC
330
18
100
AcDbEntity
  8
寸法線
 62
     8
100
AcDbLine
 10
69384.84279888011
 20
-34625.36039317193
 30
0.0
 11
69383.96979108914
 21
-34626.21340239467
 31
0.0
  0
LINE
  5
47E8ED
330
18
100
AcDbEntity
  8
寸法線
 62
     8
100
AcDbLine
 10
69384.84279888011
 20
-34613.98501406303
 30
0.0
 11
69384.21979355186
 21
-34614.05274122157
 31
0.0
  0
LINE
  5
47E8EE
330
18
100
AcDbEntity
  8
寸法線
 62
     8
100
AcDbLine
 10
69384.84279888011
 20
-34616.00676238431
 30
0.0
 11
69384.4668895727
 21
-34616.37406048802
 31
0.0
  0
LINE
  5
47E8EF
330
18
100
AcDbEntity
  8
寸法線
 62
   253
100
AcDbLine
 10
69384.3356579773
 20
-34594.84725716327
 30
0.0
 11
69372.31010273745
 21
-34585.45871821661
 31
0.0
  0
LINE
  5
47E8F0
330
18
100
AcDbEntity
  8
寸法線
 62
   253
100
AcDbLine
 10
69384.21979355186
 20
-34614.05274122157
 30
0.0
 11
69381.53666413746
 21
-34611.95798014786
 31
0.0
  0
LINE
  5
47E8F1
330
18
100
AcDbEntity
  8
寸法線
 62
     8
100
AcDbLine
 10
69384.84279888011
 20
-34593.87292062289
 30
0.0
 11
69372.31010273745
 21
-34584.0884488463
 31
0.0
  0
LINE
  5
47E8F2
330
18
100
AcDbEntity
  8
寸法線
 62
   253
100
AcDbLine
 10
69384.84279888011
 20
-34594.84725716327
 30
0.0
 11
69372.31010273745
 21
-34585.06278538669
 31
0.0
  0
LINE
  5
47E8F3
330
18
100
AcDbEntity
  8
寸法線
 62
   253
100
AcDbLine
 10
69384.84279888011
 20
-34597.18671571745
 30
0.0
 11
69372.31010273745
 21
-34587.97828330242
 31
0.0
  0
LINE
  5
47E8F4
330
18
100
AcDbEntity
  8
寸法線
 62
   253
100
AcDbLine
 10
69384.84279888011
 20
-34613.98501406303
 30
0.0
 11
69381.53666413744
 21
-34611.40386299137
 31
0.0
  0
LINE
  5
47E8F5
330
18
100
AcDbEntity
  8
寸法線
 62
   253
100
AcDbLine
 10
69384.84279888011
 20
-34615.2029347385
 30
0.0
 11
69381.53666413746
 21
-34612.62178366685
 31
0.0
  0
LINE
  5
47E8F6
330
18
100
AcDbEntity
  8
寸法線
 62
   253
100
AcDbLine
 10
69384.84279888011
 20
-34616.00676238431
 30
0.0
 11
69381.53666413746
 21
-34613.42561131267
 31
0.0
  0
LINE
  5
47E8F7
330
18
100
AcDbEntity
  8
寸法線
 62
   253
100
AcDbLine
 10
69384.84279888011
 20
-34624.55656552612
 30
0.0
 11
69383.21916989336
 21
-34623.25064065528
 31
0.0
  0
LINE
  5
47E8F8
330
18
100
AcDbEntity
  8
寸法線
 62
   253
100
AcDbLine
 10
69384.84279888011
 20
-34626.89497322301
 30
0.0
 11
69372.36785047455
 21
-34617.15558600744
 31
0.0
  0
LINE
  5
47E8F9
330
18
100
AcDbEntity
  8
寸法線
 62
   253
100
AcDbLine
 10
69384.84279888011
 20
-34627.69880086882
 30
0.0
 11
69372.36785047455
 21
-34617.95941365325
 31
0.0
  0
LINE
  5
47E8FA
330
18
100
AcDbEntity
  8
寸法線
 62
   253
100
AcDbLine
 10
69384.84279888011
 20
-34628.55134534166
 30
0.0
 11
69372.36785047455
 21
-34618.81195812608
 31
0.0
  0
LINE
  5
47E8FB
330
18
100
AcDbEntity
  8
寸法線
 62
   253
100
AcDbLine
 10
69298.02143586864
 20
-34551.92440276261
 30
0.0
 11
69292.47413237221
 21
-34547.59353621332
 31
0.0
  0
LINE
  5
47E8FC
330
18
100
AcDbEntity
  8
寸法線
 62
   253
100
AcDbLine
 10
69298.05841770937
 20
-34551.28947154474
 30
0.0
 11
69292.47413237221
 21
-34546.92973269433
 31
0.0
  0
LINE
  5
47E8FD
330
18
100
AcDbEntity
  8
寸法線
 62
   253
100
AcDbLine
 10
69298.08928870033
 20
-34550.75945585346
 30
0.0
 11
69292.47413237221
 21
-34546.37561553785
 31
0.0
  0
LINE
  5
47E8FE
330
18
100
AcDbEntity
  8
寸法線
 62
   253
100
AcDbLine
 10
69304.70247019187
 20
-34539.61028908158
 30
0.0
 11
69292.47413237221
 21
-34530.06343460518
 31
0.0
  0
LINE
  5
47E8FF
330
18
100
AcDbEntity
  8
寸法線
 62
   253
100
AcDbLine
 10
69372.31010273745
 20
-34585.45871821661
 30
0.0
 11
69292.47413237221
 21
-34527.63379146801
 31
0.0
  0
LINE
  5
47E900
330
18
100
AcDbEntity
  8
寸法線
 62
   253
100
AcDbLine
 10
69372.31010273745
 20
-34585.06278538669
 30
0.0
 11
69292.47413237221
 21
-34527.23785863808
 31
0.0
  0
LINE
  5
47E901
330
18
100
AcDbEntity
  8
寸法線
 62
     8
100
AcDbLine
 10
69372.31010273745
 20
-34584.0884488463
 30
0.0
 11
69292.47413237221
 21
-34526.26352209771
 31
0.0
  0
LINE
  5
47E902
330
18
100
AcDbEntity
  8
寸法線
 62
   253
100
AcDbLine
 10
69297.76088099487
 20
-34556.39779889374
 30
0.0
 11
69292.47413237221
 21
-34552.27035160713
 31
0.0
  0
LINE
  5
47E903
330
18
100
AcDbEntity
  8
寸法線
 62
   253
100
AcDbLine
 10
69297.84637556282
 20
-34554.92996578823
 30
0.0
 11
69292.47413237221
 21
-34550.73577155603
 31
0.0
  0
LINE
  5
47E904
330
18
100
AcDbEntity
  8
寸法線
 62
   253
100
AcDbLine
 10
69297.89115843175
 20
-34554.16110082818
 30
0.0
 11
69292.47413237221
 21
-34549.93194391022
 31
0.0
  0
LINE
  5
47E905
330
18
100
AcDbEntity
  8
寸法線
 62
   253
100
AcDbLine
 10
69297.83892319133
 20
-34552.58573990841
 30
0.0
 11
69292.47413237221
 21
-34548.39736385913
 31
0.0
  0
LINE
  5
47E906
330
18
100
AcDbEntity
  8
寸法線
 62
   253
100
AcDbLine
 10
69297.58582068906
 20
-34559.40336191935
 30
0.0
 11
69292.47413237221
 21
-34555.41258694984
 31
0.0
  0
LINE
  5
47E907
330
18
100
AcDbEntity
  8
寸法線
 62
   253
100
AcDbLine
 10
69297.71609812595
 20
-34557.1666638538
 30
0.0
 11
69292.47413237221
 21
-34553.07417925293
 31
0.0
  0
LINE
  5
47E908
330
18
100
AcDbEntity
  8
寸法線
 62
   253
100
AcDbLine
 10
69295.54611493781
 20
-34560.14933945372
 30
0.0
 11
69292.47413237221
 21
-34557.75099464674
 31
0.0
  0
LINE
  5
47E909
330
18
100
AcDbEntity
  8
寸法線
 62
   253
100
AcDbLine
 10
69293.89771049298
 20
-34560.39698438859
 30
0.0
 11
69292.47413237221
 21
-34559.28557469782
 31
0.0
  0
LINE
  5
47E90A
330
18
100
AcDbEntity
  8
寸法線
 62
   253
100
AcDbLine
 10
69304.85813230864
 20
-34569.75778466776
 30
0.0
 11
69297.94848295904
 21
-34564.36331341609
 31
0.0
  0
LINE
  5
47E90B
330
18
100
AcDbEntity
  8
寸法線
 62
   253
100
AcDbLine
 10
69304.85813230864
 20
-34570.61032914058
 30
0.0
 11
69292.47413237221
 21
-34560.94194681647
 31
0.0
  0
LINE
  5
47E90C
330
18
100
AcDbEntity
  8
寸法線
 62
   253
100
AcDbLine
 10
69304.85813230864
 20
-34571.46287361342
 30
0.0
 11
69292.47413237221
 21
-34561.7944912893
 31
0.0
  0
LINE
  5
47E90D
330
18
100
AcDbEntity
  8
寸法線
 62
   253
100
AcDbLine
 10
69304.85813230864
 20
-34571.90419778517
 30
0.0
 11
69292.47413237221
 21
-34562.23581546105
 31
0.0
  0
LINE
  5
47E90E
330
18
100
AcDbEntity
  8
寸法線
 62
   253
100
AcDbLine
 10
69296.40956488512
 20
-34560.01962067831
 30
0.0
 11
69292.47413237221
 21
-34556.94716700093
 31
0.0
  0
LINE
  5
47E90F
330
18
100
AcDbEntity
  8
寸法線
 62
   253
100
AcDbLine
 10
69297.63060355799
 20
-34558.63449695933
 30
0.0
 11
69292.47413237221
 21
-34554.60875930402
 31
0.0
  0
LINE
  5
47E910
330
18
100
AcDbEntity
  8
寸法線
 62
     8
100
AcDbLine
 10
69319.4363629662
 20
-34626.77884492239
 30
0.0
 11
69318.3559203585
 21
-34625.61564634638
 31
0.0
  0
LINE
  5
47E911
330
18
100
AcDbEntity
  8
寸法線
 62
     8
100
AcDbLine
 10
69318.3559203585
 20
-34625.61564634638
 30
0.0
 11
69343.6460228776
 21
-34623.0235635561
 31
0.0
  0
LINE
  5
47E912
330
18
100
AcDbEntity
  8
寸法線
 62
     8
100
AcDbLine
 10
69319.4363629662
 20
-34626.77884492239
 30
0.0
 11
69345.14242576179
 21
-34624.1441287156
 31
0.0
  0
LINE
  5
47E913
330
18
100
AcDbEntity
  8
寸法線
 62
     8
100
AcDbLine
 10
69281.97958461766
 20
-34583.28622212262
 30
0.0
 11
69254.07328480406
 21
-34588.24394924092
 31
0.0
  0
LINE
  5
47E914
330
18
100
AcDbEntity
  8
寸法線
 62
     8
100
AcDbLine
 10
69254.52796252316
 20
-34588.16317292614
 30
0.0
 11
69318.3559203585
 21
-34625.61564634638
 31
0.0
  0
LINE
  5
47E915
330
18
100
AcDbEntity
  8
寸法線
 62
     8
100
AcDbLine
 10
69254.07328480406
 20
-34588.24394924092
 30
0.0
 11
69319.4363629662
 21
-34626.77884492239
 31
0.0
  0
LINE
  5
47E916
330
18
100
AcDbEntity
  8
寸法線
 62
     8
100
AcDbLine
 10
69281.97958461766
 20
-34583.28622212262
 30
0.0
 11
69345.14242576179
 21
-34624.1441287156
 31
0.0
  0
LINE
  5
47E917
330
18
100
AcDbEntity
  8
寸法線
 62
   253
100
AcDbLine
 10
69372.36785047455
 20
-34620.10582677067
 30
0.0
 11
69304.85813230864
 21
-34571.90419778517
 31
0.0
  0
LINE
  5
47E918
330
18
100
AcDbEntity
  8
寸法線
 62
   253
100
AcDbLine
 10
69372.36785047455
 20
-34619.66450259891
 30
0.0
 11
69304.85813230864
 21
-34571.46287361342
 31
0.0
  0
LINE
  5
47E919
330
18
100
AcDbEntity
  8
寸法線
 62
   253
100
AcDbLine
 10
69372.36785047455
 20
-34618.81195812608
 30
0.0
 11
69304.85813230864
 21
-34570.61032914058
 31
0.0
  0
LINE
  5
47E91A
330
18
100
AcDbEntity
  8
寸法線
 62
   253
100
AcDbLine
 10
69372.36785047455
 20
-34617.95941365325
 30
0.0
 11
69304.85813230864
 21
-34569.75778466776
 31
0.0
  0
LINE
  5
47E91B
330
18
100
AcDbEntity
  8
寸法線
 62
   253
100
AcDbLine
 10
69372.36785047455
 20
-34617.15558600744
 30
0.0
 11
69309.96305925488
 21
-34572.59885143636
 31
0.0
  0
LINE
  5
47E91C
330
18
100
AcDbEntity
  8
寸法線
 62
   253
100
AcDbLine
 10
69372.31010273745
 20
-34587.97828330242
 30
0.0
 11
69304.70247019187
 21
-34539.61028908158
 31
0.0
  0
LINE
  5
47E91D
330
18
100
AcDbEntity
  8
寸法線
 62
     8
100
AcDbLine
 10
69292.47413237221
 20
-34565.94492368949
 30
0.0
 11
69292.47413237221
 21
-34508.19038020383
 31
0.0
  0
LINE
  5
47E91E
330
18
100
AcDbEntity
  8
寸法線
 62
     8
100
AcDbLine
 10
69213.92156924824
 20
-34574.62697171098
 30
0.0
 11
69213.92156924824
 21
-34574.89729650503
 31
0.0
  0
LINE
  5
47E91F
330
18
100
AcDbEntity
  8
寸法線
 62
     8
100
AcDbLine
 10
69213.2237566019
 20
-34575.87381171936
 30
0.0
 11
69213.75270057167
 21
-34576.22116571661
 31
0.0
  0
LINE
  5
47E920
330
18
100
AcDbEntity
  8
寸法線
 62
     8
100
AcDbLine
 10
69213.2237566019
 20
-34574.1687227737
 30
0.0
 11
69213.92156924824
 21
-34574.62697171098
 31
0.0
  0
LINE
  5
47E921
330
18
100
AcDbEntity
  8
寸法線
 62
     8
100
AcDbLine
 10
69213.2237566019
 20
-34575.02126724653
 30
0.0
 11
69213.2237566019
 21
-34575.87381171936
 31
0.0
  0
LINE
  5
47E922
330
18
100
AcDbEntity
  8
寸法線
 62
     8
100
AcDbLine
 10
69214.09676439286
 20
-34572.68332429953
 30
0.0
 11
69213.2237566019
 21
-34573.36489512789
 31
0.0
  0
LINE
  5
47E923
330
18
100
AcDbEntity
  8
寸法線
 62
     8
100
AcDbLine
 10
69214.09676439286
 20
-34570.34491660264
 30
0.0
 11
69213.2237566019
 21
-34571.02648743098
 31
0.0
  0
LINE
  5
47E924
330
18
100
AcDbEntity
  8
寸法線
 62
     8
100
AcDbLine
 10
69214.09676439286
 20
-34568.00650890573
 30
0.0
 11
69213.2237566019
 21
-34568.68807973409
 31
0.0
  0
LINE
  5
47E925
330
18
100
AcDbEntity
  8
寸法線
 62
     8
100
AcDbLine
 10
69214.09676439286
 20
-34565.66810120884
 30
0.0
 11
69213.2237566019
 21
-34566.34967203718
 31
0.0
  0
LINE
  5
47E926
330
18
100
AcDbEntity
  8
寸法線
 62
     8
100
AcDbLine
 10
69214.09676439286
 20
-34563.32969351193
 30
0.0
 11
69213.2237566019
 21
-34564.01126434028
 31
0.0
  0
LINE
  5
47E927
330
18
100
AcDbEntity
  8
寸法線
 62
     8
100
AcDbLine
 10
69213.92156924824
 20
-34560.91318490518
 30
0.0
 11
69213.92156924824
 21
-34561.54888590188
 31
0.0
  0
LINE
  5
47E928
330
18
100
AcDbEntity
  8
寸法線
 62
     8
100
AcDbLine
 10
69213.2237566019
 20
-34560.4549359679
 30
0.0
 11
69213.92156924824
 21
-34560.91318490518
 31
0.0
  0
LINE
  5
47E929
330
18
100
AcDbEntity
  8
寸法線
 62
     8
100
AcDbLine
 10
69214.26491774894
 20
-34541.71443001628
 30
0.0
 11
69214.26491774894
 21
-34543.9577863046
 31
0.0
  0
LINE
  5
47E92A
330
18
100
AcDbEntity
  8
寸法線
 62
     8
100
AcDbLine
 10
69213.2237566019
 20
-34541.31717906814
 30
0.0
 11
69213.92156924824
 21
-34541.77542800543
 31
0.0
  0
LINE
  5
47E92B
330
18
100
AcDbEntity
  8
寸法線
 62
     8
100
AcDbLine
 10
69213.2237566019
 20
-34541.31717906814
 30
0.0
 11
69213.2237566019
 21
-34540.34284252776
 31
0.0
  0
LINE
  5
47E92C
330
18
100
AcDbEntity
  8
寸法線
 62
     8
100
AcDbLine
 10
69213.2237566019
 20
-34562.47668428918
 30
0.0
 11
69214.09676439286
 21
-34563.32969351193
 31
0.0
  0
LINE
  5
47E92D
330
18
100
AcDbEntity
  8
寸法線
 62
     8
100
AcDbLine
 10
69213.2237566019
 20
-34564.81509198609
 30
0.0
 11
69214.09676439286
 21
-34565.66810120884
 31
0.0
  0
LINE
  5
47E92E
330
18
100
AcDbEntity
  8
寸法線
 62
     8
100
AcDbLine
 10
69213.2237566019
 20
-34567.15349968299
 30
0.0
 11
69214.09676439286
 21
-34568.00650890573
 31
0.0
  0
LINE
  5
47E92F
330
18
100
AcDbEntity
  8
寸法線
 62
     8
100
AcDbLine
 10
69213.2237566019
 20
-34567.15349968299
 30
0.0
 11
69213.2237566019
 21
-34566.34967203718
 31
0.0
  0
LINE
  5
47E930
330
18
100
AcDbEntity
  8
寸法線
 62
     8
100
AcDbLine
 10
69213.2237566019
 20
-34564.81509198609
 30
0.0
 11
69213.2237566019
 21
-34564.01126434028
 31
0.0
  0
LINE
  5
47E931
330
18
100
AcDbEntity
  8
寸法線
 62
     8
100
AcDbLine
 10
69213.2237566019
 20
-34562.47668428918
 30
0.0
 11
69213.2237566019
 21
-34561.67285664337
 31
0.0
  0
LINE
  5
47E932
330
18
100
AcDbEntity
  8
寸法線
 62
     8
100
AcDbLine
 10
69213.2237566019
 20
-34560.4549359679
 30
0.0
 11
69213.2237566019
 21
-34544.14275503523
 31
0.0
  0
LINE
  5
47E933
330
18
100
AcDbEntity
  8
寸法線
 62
     8
100
AcDbLine
 10
69213.2237566019
 20
-34569.4919073799
 30
0.0
 11
69214.09676439286
 21
-34570.34491660264
 31
0.0
  0
LINE
  5
47E934
330
18
100
AcDbEntity
  8
寸法線
 62
     8
100
AcDbLine
 10
69213.2237566019
 20
-34571.83031507679
 30
0.0
 11
69214.09676439286
 21
-34572.68332429953
 31
0.0
  0
LINE
  5
47E935
330
18
100
AcDbEntity
  8
寸法線
 62
     8
100
AcDbLine
 10
69213.2237566019
 20
-34571.83031507679
 30
0.0
 11
69213.2237566019
 21
-34571.02648743098
 31
0.0
  0
LINE
  5
47E936
330
18
100
AcDbEntity
  8
寸法線
 62
     8
100
AcDbLine
 10
69213.2237566019
 20
-34574.1687227737
 30
0.0
 11
69213.2237566019
 21
-34573.36489512789
 31
0.0
  0
LINE
  5
47E937
330
18
100
AcDbEntity
  8
寸法線
 62
     8
100
AcDbLine
 10
69213.2237566019
 20
-34569.4919073799
 30
0.0
 11
69213.2237566019
 21
-34568.68807973409
 31
0.0
  0
LINE
  5
47E938
330
18
100
AcDbEntity
  8
寸法線
 62
     8
100
AcDbLine
 10
69213.2237566019
 20
-34580.02424411955
 30
0.0
 11
69213.2237566019
 21
-34578.69938768644
 31
0.0
  0
LINE
  5
47E939
330
18
100
AcDbEntity
  8
寸法線
 62
     8
100
AcDbLine
 10
69213.75270057167
 20
-34576.22116571661
 30
0.0
 11
69213.75270057167
 21
-34578.60541751196
 31
0.0
  0
LINE
  5
47E93A
330
18
100
AcDbEntity
  8
寸法線
 62
     8
100
AcDbLine
 10
69215.87318613952
 20
-34539.87215494989
 30
0.0
 11
69215.87318613952
 21
-34521.79901305601
 31
0.0
  0
LINE
  5
47E93B
330
18
100
AcDbEntity
  8
寸法線
 62
     8
100
AcDbLine
 10
69292.47413237221
 20
-34508.19038020383
 30
0.0
 11
69215.87318613952
 21
-34521.79901305601
 31
0.0
  0
LINE
  5
47E93C
330
18
100
AcDbEntity
  8
寸法線
 62
   253
100
AcDbLine
 10
69292.47413237221
 20
-34562.23581546105
 30
0.0
 11
69213.75270057167
 21
-34576.22116571661
 31
0.0
  0
LINE
  5
47E93D
330
18
100
AcDbEntity
  8
寸法線
 62
   253
100
AcDbLine
 10
69292.47413237221
 20
-34561.7944912893
 30
0.0
 11
69213.2237566019
 21
-34575.87381171936
 31
0.0
  0
LINE
  5
47E93E
330
18
100
AcDbEntity
  8
寸法線
 62
   253
100
AcDbLine
 10
69292.47413237221
 20
-34556.42069141734
 30
0.0
 11
69214.09676439286
 21
-34570.34491660264
 31
0.0
  0
LINE
  5
47E93F
330
18
100
AcDbEntity
  8
寸法線
 62
   253
100
AcDbLine
 10
69292.47413237221
 20
-34558.75909911424
 30
0.0
 11
69214.09676439286
 21
-34572.68332429953
 31
0.0
  0
LINE
  5
47E940
330
18
100
AcDbEntity
  8
寸法線
 62
   253
100
AcDbLine
 10
69292.47413237221
 20
-34554.08228372043
 30
0.0
 11
69214.09676439286
 21
-34568.00650890573
 31
0.0
  0
LINE
  5
47E941
330
18
100
AcDbEntity
  8
寸法線
 62
   253
100
AcDbLine
 10
69292.47413237221
 20
-34551.74387602353
 30
0.0
 11
69214.09676439286
 21
-34565.66810120884
 31
0.0
  0
LINE
  5
47E942
330
18
100
AcDbEntity
  8
寸法線
 62
   253
100
AcDbLine
 10
69292.47413237221
 20
-34549.40546832662
 30
0.0
 11
69214.09676439286
 21
-34563.32969351193
 31
0.0
  0
LINE
  5
47E943
330
18
100
AcDbEntity
  8
寸法線
 62
   253
100
AcDbLine
 10
69292.47413237221
 20
-34546.95783521662
 30
0.0
 11
69213.92156924824
 21
-34560.91318490519
 31
0.0
  0
LINE
  5
47E944
330
18
100
AcDbEntity
  8
寸法線
 62
   253
100
AcDbLine
 10
69292.47413237221
 20
-34527.82007831686
 30
0.0
 11
69213.92156924824
 21
-34541.77542800543
 31
0.0
  0
LINE
  5
47E945
330
18
100
AcDbEntity
  8
寸法線
 62
     8
100
AcDbLine
 10
69292.47413237221
 20
-34526.26352209771
 30
0.0
 11
69213.2237566019
 21
-34540.34284252776
 31
0.0
  0
LINE
  5
47E946
330
18
100
AcDbEntity
  8
寸法線
 62
   253
100
AcDbLine
 10
69292.47413237221
 20
-34527.23785863808
 30
0.0
 11
69213.2237566019
 21
-34541.31717906814
 31
0.0
  0
LINE
  5
47E947
330
18
100
AcDbEntity
  8
寸法線
 62
   253
100
AcDbLine
 10
69292.47413237221
 20
-34530.06343460518
 30
0.0
 11
69213.2237566019
 21
-34544.14275503523
 31
0.0
  0
LINE
  5
47E948
330
18
100
AcDbEntity
  8
寸法線
 62
   253
100
AcDbLine
 10
69292.47413237221
 20
-34546.37561553785
 30
0.0
 11
69213.2237566019
 21
-34560.4549359679
 31
0.0
  0
LINE
  5
47E949
330
18
100
AcDbEntity
  8
寸法線
 62
   253
100
AcDbLine
 10
69292.47413237221
 20
-34547.59353621332
 30
0.0
 11
69213.2237566019
 21
-34561.67285664337
 31
0.0
  0
LINE
  5
47E94A
330
18
100
AcDbEntity
  8
寸法線
 62
   253
100
AcDbLine
 10
69292.47413237221
 20
-34548.39736385913
 30
0.0
 11
69213.2237566019
 21
-34562.47668428918
 31
0.0
  0
LINE
  5
47E94B
330
18
100
AcDbEntity
  8
寸法線
 62
   253
100
AcDbLine
 10
69292.47413237221
 20
-34549.93194391022
 30
0.0
 11
69213.2237566019
 21
-34564.01126434028
 31
0.0
  0
LINE
  5
47E94C
330
18
100
AcDbEntity
  8
寸法線
 62
   253
100
AcDbLine
 10
69292.47413237221
 20
-34550.73577155603
 30
0.0
 11
69213.2237566019
 21
-34564.81509198609
 31
0.0
  0
LINE
  5
47E94D
330
18
100
AcDbEntity
  8
寸法線
 62
   253
100
AcDbLine
 10
69292.47413237221
 20
-34552.27035160713
 30
0.0
 11
69213.2237566019
 21
-34566.34967203718
 31
0.0
  0
LINE
  5
47E94E
330
18
100
AcDbEntity
  8
寸法線
 62
   253
100
AcDbLine
 10
69292.47413237221
 20
-34553.07417925293
 30
0.0
 11
69213.2237566019
 21
-34567.15349968299
 31
0.0
  0
LINE
  5
47E94F
330
18
100
AcDbEntity
  8
寸法線
 62
   253
100
AcDbLine
 10
69292.47413237221
 20
-34554.60875930402
 30
0.0
 11
69213.2237566019
 21
-34568.68807973409
 31
0.0
  0
LINE
  5
47E950
330
18
100
AcDbEntity
  8
寸法線
 62
   253
100
AcDbLine
 10
69292.47413237221
 20
-34555.41258694984
 30
0.0
 11
69213.2237566019
 21
-34569.4919073799
 31
0.0
  0
LINE
  5
47E951
330
18
100
AcDbEntity
  8
寸法線
 62
   253
100
AcDbLine
 10
69292.47413237221
 20
-34556.94716700093
 30
0.0
 11
69213.2237566019
 21
-34571.02648743098
 31
0.0
  0
LINE
  5
47E952
330
18
100
AcDbEntity
  8
寸法線
 62
   253
100
AcDbLine
 10
69292.47413237221
 20
-34557.75099464674
 30
0.0
 11
69213.2237566019
 21
-34571.83031507679
 31
0.0
  0
LINE
  5
47E953
330
18
100
AcDbEntity
  8
寸法線
 62
   253
100
AcDbLine
 10
69292.47413237221
 20
-34559.28557469782
 30
0.0
 11
69213.2237566019
 21
-34573.36489512789
 31
0.0
  0
LINE
  5
47E954
330
18
100
AcDbEntity
  8
寸法線
 62
   253
100
AcDbLine
 10
69292.47413237221
 20
-34560.08940234363
 30
0.0
 11
69213.2237566019
 21
-34574.1687227737
 31
0.0
  0
LINE
  5
47E955
330
18
100
AcDbEntity
  8
寸法線
 62
   253
100
AcDbLine
 10
69292.47413237221
 20
-34561.7944912893
 30
0.0
 11
69213.2237566019
 21
-34575.87381171936
 31
0.0
  0
LINE
  5
47E956
330
18
100
AcDbEntity
  8
寸法線
 62
   253
100
AcDbLine
 10
69292.47413237221
 20
-34560.94194681647
 30
0.0
 11
69213.2237566019
 21
-34575.02126724653
 31
0.0
  0
LINE
  5
47E957
330
18
100
AcDbEntity
  8
寸法線
 62
     8
100
AcDbLine
 10
69292.47413237221
 20
-34564.62006725639
 30
0.0
 11
69213.2237566019
 21
-34578.69938768644
 31
0.0
  0
LINE
  5
47E958
330
18
100
AcDbEntity
  8
寸法線
 62
     8
100
AcDbLine
 10
69292.47413237221
 20
-34565.94492368949
 30
0.0
 11
69213.2237566019
 21
-34580.02424411955
 31
0.0
  0
LINE
  5
47E959
330
18
100
AcDbEntity
  8
寸法線
 62
     8
100
AcDbLine
 10
69383.72451965451
 20
-34628.97215591503
 30
0.0
 11
69383.72451965451
 21
-34631.35640771037
 31
0.0
  0
LINE
  5
47E95A
330
18
100
AcDbEntity
  8
寸法線
 62
     8
100
AcDbLine
 10
69384.84279888011
 20
-34629.40388981449
 30
0.0
 11
69384.27751729198
 21
-34629.40388981449
 31
0.0
  0
LINE
  5
47E95B
330
18
100
AcDbEntity
  8
寸法線
 62
     8
100
AcDbLine
 10
69384.84279888011
 20
-34633.55432221468
 30
0.0
 11
69384.84279888011
 21
-34632.22946578158
 31
0.0
  0
LINE
  5
47E95C
330
18
100
AcDbEntity
  8
寸法線
 62
     8
100
AcDbLine
 10
69316.15914062457
 20
-34640.59398242971
 30
0.0
 11
69384.84279888011
 21
-34633.55432221468
 31
0.0
  0
LINE
  5
47E95D
330
18
100
AcDbEntity
  8
寸法線
 62
     8
100
AcDbLine
 10
69384.84279888011
 20
-34629.40388981449
 30
0.0
 11
69384.84279888011
 21
-34628.55134534166
 31
0.0
  0
LINE
  5
47E95E
330
18
100
AcDbEntity
  8
寸法線
 62
   253
100
AcDbLine
 10
69384.27751729198
 20
-34629.40388981449
 30
0.0
 11
69372.36785047455
 21
-34620.10582677067
 31
0.0
  0
LINE
  5
47E95F
330
18
100
AcDbEntity
  8
寸法線
 62
   253
100
AcDbLine
 10
69384.84279888011
 20
-34629.40388981449
 30
0.0
 11
69372.36785047455
 21
-34619.66450259891
 31
0.0
  0
LINE
  5
47E960
330
18
100
AcDbEntity
  8
寸法線
 62
     8
100
AcDbLine
 10
69384.84279888011
 20
-34632.22946578158
 30
0.0
 11
69292.47413237221
 21
-34564.62006725639
 31
0.0
  0
LINE
  5
47E961
330
18
100
AcDbEntity
  8
寸法線
 62
     8
100
AcDbLine
 10
69384.84279888011
 20
-34633.55432221468
 30
0.0
 11
69292.47413237221
 21
-34565.94492368949
 31
0.0
  0
LINE
  5
47E962
330
18
100
AcDbEntity
  8
寸法線
 62
     8
100
AcDbLine
 10
69213.2237566019
 20
-34580.02424411955
 30
0.0
 11
69316.15914062457
 21
-34640.59398242971
 31
0.0
  0
LINE
  5
47E963
330
18
100
AcDbEntity
  8
寸法線
 62
   253
100
AcDbLine
 10
69384.05294032262
 20
-34596.62398391153
 30
0.0
 11
69384.05294032262
 21
-34594.62653507112
 31
0.0
  0
LINE
  5
47E964
330
18
100
AcDbEntity
  8
姿図
100
AcDbLine
 10
69292.47413237221
 20
-34560.61085296441
 30
0.0
 11
69301.20261380922
 21
-34559.29954600713
 31
0.0
  0
LINE
  5
47E965
330
18
100
AcDbEntity
  8
姿図
100
AcDbLine
 10
69306.58528636163
 20
-34636.31343541983
 30
0.0
 11
69308.41691458883
 21
-34636.03826420535
 31
0.0
  0
LINE
  5
47E966
330
18
100
AcDbEntity
  8
寸法線
 62
   253
100
AcDbLine
 10
69336.42264009814
 20
-34578.57910857761
 30
0.0
 11
69305.37390848044
 21
-34556.41223022007
 31
0.0
  0
LINE
  5
47E967
330
18
100
AcDbEntity
  8
寸法線
 62
   253
100
AcDbLine
 10
69336.4153583175
 20
-34579.12802699205
 30
0.0
 11
69305.37390848043
 21
-34556.96634737652
 31
0.0
  0
LINE
  5
47E968
330
18
100
AcDbEntity
  8
寸法線
 62
   253
100
AcDbLine
 10
69336.37823837943
 20
-34579.76532916593
 30
0.0
 11
69305.37390848043
 21
-34557.63015089553
 31
0.0
  0
LINE
  5
47E969
330
18
100
AcDbEntity
  8
寸法線
 62
   253
100
AcDbLine
 10
69336.33311205968
 20
-34580.54009073963
 30
0.0
 11
69305.37390848043
 21
-34558.43403018184
 31
0.0
  0
LINE
  5
47E96A
330
18
100
AcDbEntity
  8
寸法線
 62
   253
100
AcDbLine
 10
69336.24737419708
 20
-34582.01210090541
 30
0.0
 11
69305.37390848043
 21
-34559.96858805422
 31
0.0
  0
LINE
  5
47E96B
330
18
100
AcDbEntity
  8
寸法線
 62
   253
100
AcDbLine
 10
69336.20242424382
 20
-34582.78383449087
 30
0.0
 11
69305.37390848044
 21
-34560.77241570003
 31
0.0
  0
LINE
  5
47E96C
330
18
100
AcDbEntity
  8
寸法線
 62
     8
100
AcDbLine
 10
69384.84279888013
 20
-34606.06407388563
 30
0.0
 11
69384.84279888011
 21
-34597.18671571745
 31
0.0
  0
LINE
  5
47E96D
330
18
100
AcDbEntity
  8
寸法線
 62
   253
100
AcDbLine
 10
69293.03426054568
 20
-34560.526703164
 30
0.0
 11
69292.47413237221
 21
-34560.08940234363
 31
0.0
  0
LINE
  5
47E96E
330
18
100
AcDbEntity
  8
姿図
100
AcDbLine
 10
69387.53049585404
 20
-34622.09503982688
 30
0.0
 11
69301.20261380922
 21
-34559.29954600713
 31
0.0
  0
LINE
  5
47E96F
330
18
100
AcDbEntity
  8
寸法線
 62
   253
100
AcDbLine
 10
69374.26227066462
 20
-34605.59426971793
 30
0.0
 11
69343.74488132643
 21
-34583.80673695908
 31
0.0
  0
LINE
  5
47E970
330
18
100
AcDbEntity
  8
寸法線
 62
   253
100
AcDbLine
 10
69374.23128439538
 20
-34606.12626459057
 30
0.0
 11
69343.74488132643
 21
-34584.36085411552
 31
0.0
  0
LINE
  5
47E971
330
18
100
AcDbEntity
  8
寸法線
 62
   253
100
AcDbLine
 10
69374.2130879589
 20
-34606.77707697678
 30
0.0
 11
69343.74488132643
 21
-34585.02465763451
 31
0.0
  0
LINE
  5
47E972
330
18
100
AcDbEntity
  8
寸法線
 62
   253
100
AcDbLine
 10
69374.14882641405
 20
-34607.5419633623
 30
0.0
 11
69343.74488132643
 21
-34585.83237869629
 31
0.0
  0
LINE
  5
47E973
330
18
100
AcDbEntity
  8
寸法線
 62
   253
100
AcDbLine
 10
69374.06317948276
 20
-34609.01241235263
 30
0.0
 11
69343.74488132643
 21
-34587.36528659159
 31
0.0
  0
TEXT
  5
47EACF
330
18
100
AcDbEntity
  8
文字
100
AcDbText
 10
69237.92853537075
 20
-34698.34280902029
 30
0.0
 40
17.9982
  1
SX-LF103
100
AcDbText
  0
ENDSEC
  0
SECTION
  2
OBJECTS
  0
DICTIONARY
  5
C
330
0
100
AcDbDictionary
281
     1
  3
ACAD_GROUP
350
D
  3
ACAD_IMAGE_VARS
350
47F4BA
  3
ACAD_LAYOUT
350
617
  3
ACAD_MLINESTYLE
350
E
  3
ACAD_PLOTSETTINGS
350
618
  3
ACAD_PLOTSTYLENAME
350
615
  3
ACAD_SCALELIST
350
44ED91
  3
AcadDim
350
44DDA5
  3
AcDbVariableDictionary
350
6DE
  3
APPDATA
350
47F4B9
  3
ASE_INDEX_DICTIONARY
350
44CC62
  3
DWGPROPS
350
47F4DD
  0
DICTIONARY
  5
6A835
330
2
100
AcDbDictionary
280
     1
281
     1
  3
ACAD_LAYERFILTERS
360
DBFD3
  3
ACAD_LAYERSTATES
360
6A836
  0
DICTIONARY
  5
44EDBC
330
F
100
AcDbDictionary
280
     1
281
     1
  3
ADSK_XREC_LAYER_RECONCILED
360
44EDBD
  0
DICTIONARY
  5
44EDC0
330
34
100
AcDbDictionary
280
     1
281
     1
  3
ADSK_XREC_LAYER_RECONCILED
360
44EDC1
  0
DICTIONARY
  5
44EDC4
330
2F4
100
AcDbDictionary
280
     1
281
     1
  3
ADSK_XREC_LAYER_RECONCILED
360
44EDC5
  0
DICTIONARY
  5
44EDC8
330
305
100
AcDbDictionary
280
     1
281
     1
  3
ADSK_XREC_LAYER_RECONCILED
360
44EDC9
  0
DICTIONARY
  5
D
102
{ACAD_REACTORS
330
C
102
}
330
C
100
AcDbDictionary
281
     1
  0
RASTERVARIABLES
  5
47F4BA
102
{ACAD_REACTORS
330
C
102
}
330
C
100
AcDbRasterVariables
 90
        0
 70
     1
 71
     1
 72
     0
  0
DICTIONARY
  5
617
102
{ACAD_REACTORS
330
C
102
}
330
C
100
AcDbDictionary
281
     1
  3
Model
350
619
  3
ﾚｲｱｳﾄ1
350
61A
  0
DICTIONARY
  5
E
102
{ACAD_REACTORS
330
C
102
}
330
C
100
AcDbDictionary
281
     1
  3
STANDARD
350
1B
  0
DICTIONARY
  5
618
102
{ACAD_REACTORS
330
C
102
}
330
C
100
AcDbDictionary
281
     1
  0
ACDBDICTIONARYWDFLT
  5
615
102
{ACAD_REACTORS
330
C
102
}
330
C
100
AcDbDictionary
281
     1
  3
Normal
350
616
100
AcDbDictionaryWithDefault
340
616
  0
DICTIONARY
  5
44ED91
102
{ACAD_REACTORS
330
C
102
}
330
C
100
AcDbDictionary
281
     1
  3
A0
350
44ED92
  3
A1
350
44ED93
  3
A2
350
44ED94
  3
A3
350
44ED95
  3
A4
350
44ED96
  3
A5
350
44ED97
  3
A6
350
44ED98
  3
A7
350
44ED99
  3
A8
350
44ED9A
  3
A9
350
44ED9B
  3
B0
350
44ED9C
  3
B1
350
44ED9D
  3
B2
350
44ED9E
  3
B3
350
44ED9F
  3
B4
350
44EDA0
  3
B5
350
44EDA1
  3
B6
350
44EDA2
  3
B7
350
44EDA3
  3
B8
350
44EDA4
  3
B9
350
44EDA5
  3
C0
350
44EDA6
  3
C1
350
44EDA7
  3
C2
350
44EDA8
  3
C3
350
44EDA9
  3
C4
350
44EDAA
  3
C5
350
44EDAB
  3
C6
350
44EDAC
  3
C7
350
44EDAD
  3
C8
350
44EDAE
  3
C9
350
44EDAF
  3
D0
350
44EDB0
  3
D1
350
44EDB1
  3
D2
350
44EDB2
  0
XRECORD
  5
44DDA5
102
{ACAD_REACTORS
330
C
102
}
330
C
100
AcDbXrecord
280
     1
 90
   990106
  3
OPEN
 60
     0
 61
     0
 62
     4
 63
     4
 64
     1
 65
     0
 66
     0
 67
     3
 68
     1
 69
     0
 70
     0
 71
     0
 72
     0
 40
0.0
170
     2
  0
DICTIONARY
  5
6DE
102
{ACAD_REACTORS
330
C
102
}
330
C
100
AcDbDictionary
281
     1
  3
DIMASSOC
350
6DF
  3
INDEXCTL
350
44EDFB
  3
PROJECTNAME
350
6E0
  3
SORTENTS
350
44EDFA
  0
DICTIONARY
  5
47F4B9
102
{ACAD_REACTORS
330
C
102
}
330
C
100
AcDbDictionary
281
     1
  0
DICTIONARY
  5
44CC62
102
{ACAD_REACTORS
330
C
102
}
330
C
100
AcDbDictionary
281
     1
  3
ASEBlockHierarchyIndexRecord
350
44CC64
1001
DCO15
1040
1604398629.359
  0
XRECORD
  5
47F4DD
102
{ACAD_REACTORS
330
C
102
}
330
C
100
AcDbXrecord
280
     1
  1
DWGPROPS COOKIE
  2

  3

  4

  6

  7

  8
SPAX
  9

300
=
301
=
302
=
303
=
304
=
305
=
306
=
307
=
308
=
309
=
 40
0.0
 41
2448636.244629629
 42
2456822.103708148
  1

 90
        0
  0
DICTIONARY
  5
DBFD3
102
{ACAD_REACTORS
330
6A835
102
}
330
6A835
100
AcDbDictionary
281
     1
  0
DICTIONARY
  5
6A836
102
{ACAD_REACTORS
330
6A835
102
}
330
6A835
100
AcDbDictionary
281
     1
  0
XRECORD
  5
44EDBD
102
{ACAD_REACTORS
330
44EDBC
102
}
330
44EDBC
100
AcDbXrecord
280
     1
290
     1
  0
XRECORD
  5
44EDC1
102
{ACAD_REACTORS
330
44EDC0
102
}
330
44EDC0
100
AcDbXrecord
280
     1
290
     1
  0
XRECORD
  5
44EDC5
102
{ACAD_REACTORS
330
44EDC4
102
}
330
44EDC4
100
AcDbXrecord
280
     1
290
     1
  0
XRECORD
  5
44EDC9
102
{ACAD_REACTORS
330
44EDC8
102
}
330
44EDC8
100
AcDbXrecord
280
     1
290
     1
  0
LAYOUT
  5
619
102
{ACAD_REACTORS
330
617
102
}
330
617
100
AcDbPlotSettings
  1

  2
JUST PDF 2.pc3
  4
A4
  6

 40
3.174999952316284
 41
3.174999952316284
 42
3.175003051757812
 43
3.17498779296875
 44
209.8886566162109
 45
297.0530090332031
 46
14.27
 47
9.86
 48
69174.77824674163
 49
-36013.39036349027
140
70224.74955771105
141
-34387.43431265828
142
1.0
143
6.0
 70
 11940
 72
     1
 73
     0
 74
     4
  7
spax form.ctb
 75
     0
147
0.1666666666666667
148
-69174.77824674163
149
36013.39036349027
100
AcDbLayout
  1
Model
 70
     1
 71
     0
 10
0.0
 20
0.0
 11
12.0
 21
9.0
 12
0.0
 22
0.0
 32
0.0
 14
69204.14762579276
 24
-34698.34280902029
 34
0.0
 15
69387.53049585404
 25
-34508.19038020383
 35
0.0
146
0.0
 13
0.0
 23
0.0
 33
0.0
 16
1.0
 26
0.0
 36
0.0
 17
0.0
 27
1.0
 37
0.0
 76
     0
330
18
331
47F4B0
1001
ACAD_PSEXT
1000
DWG To PDF.pc3
1000
PDF
1000
ファイル
1000

1070
     0
  0
LAYOUT
  5
61A
102
{ACAD_REACTORS
330
617
102
}
330
617
100
AcDbPlotSettings
  1

  2
Canon LASER SHOT LBP-750
  4

  6

 40
0.0
 41
0.0
 42
0.0
 43
0.0
 44
0.0
 45
0.0
 46
0.0
 47
0.0
 48
0.0
 49
0.0
140
0.0
141
0.0
142
1.0
143
1.0
 70
   688
 72
     0
 73
     0
 74
     5
  7
spax form.ctb
 75
    16
147
1.0
148
0.0
149
0.0
100
AcDbLayout
  1
ﾚｲｱｳﾄ1
 70
     0
 71
     1
 10
0.0
 20
0.0
 11
12.0
 21
9.0
 12
0.0
 22
0.0
 32
0.0
 14
1.000000000000000E+20
 24
1.000000000000000E+20
 34
1.000000000000000E+20
 15
-1.000000000000000E+20
 25
-1.000000000000000E+20
 35
-1.000000000000000E+20
146
0.0
 13
0.0
 23
0.0
 33
0.0
 16
1.0
 26
0.0
 36
0.0
 17
0.0
 27
1.0
 37
0.0
 76
     0
330
15
  0
MLINESTYLE
  5
1B
102
{ACAD_REACTORS
330
E
102
}
330
E
100
AcDbMlineStyle
  2
STANDARD
 70
     0
  3

 62
     0
 51
90.0
 52
90.0
 71
     2
 49
0.5
 62
   256
  6
BYLAYER
 49
-0.5
 62
   256
  6
BYLAYER
  0
ACDBPLACEHOLDER
  5
616
102
{ACAD_REACTORS
330
615
102
}
330
615
  0
SCALE
  5
44ED92
102
{ACAD_REACTORS
330
44ED91
102
}
330
44ED91
100
AcDbScale
 70
     0
300
1:1
140
1.0
141
1.0
290
     1
1001
ACAD
1000
AcRTDxfName
1000
SCALE
1000
AcRTDxfName
1000
SCALE
  0
SCALE
  5
44ED93
102
{ACAD_REACTORS
330
44ED91
102
}
330
44ED91
100
AcDbScale
 70
     0
300
1:2
140
1.0
141
2.0
290
     0
1001
ACAD
1000
AcRTDxfName
1000
SCALE
1000
AcRTDxfName
1000
SCALE
  0
SCALE
  5
44ED94
102
{ACAD_REACTORS
330
44ED91
102
}
330
44ED91
100
AcDbScale
 70
     0
300
1:4
140
1.0
141
4.0
290
     0
1001
ACAD
1000
AcRTDxfName
1000
SCALE
1000
AcRTDxfName
1000
SCALE
  0
SCALE
  5
44ED95
102
{ACAD_REACTORS
330
44ED91
102
}
330
44ED91
100
AcDbScale
 70
     0
300
1:5
140
1.0
141
5.0
290
     0
1001
ACAD
1000
AcRTDxfName
1000
SCALE
1000
AcRTDxfName
1000
SCALE
  0
SCALE
  5
44ED96
102
{ACAD_REACTORS
330
44ED91
102
}
330
44ED91
100
AcDbScale
 70
     0
300
1:8
140
1.0
141
8.0
290
     0
1001
ACAD
1000
AcRTDxfName
1000
SCALE
1000
AcRTDxfName
1000
SCALE
  0
SCALE
  5
44ED97
102
{ACAD_REACTORS
330
44ED91
102
}
330
44ED91
100
AcDbScale
 70
     0
300
1:10
140
1.0
141
10.0
290
     0
1001
ACAD
1000
AcRTDxfName
1000
SCALE
1000
AcRTDxfName
1000
SCALE
  0
SCALE
  5
44ED98
102
{ACAD_REACTORS
330
44ED91
102
}
330
44ED91
100
AcDbScale
 70
     0
300
1:16
140
1.0
141
16.0
290
     0
1001
ACAD
1000
AcRTDxfName
1000
SCALE
1000
AcRTDxfName
1000
SCALE
  0
SCALE
  5
44ED99
102
{ACAD_REACTORS
330
44ED91
102
}
330
44ED91
100
AcDbScale
 70
     0
300
1:20
140
1.0
141
20.0
290
     0
1001
ACAD
1000
AcRTDxfName
1000
SCALE
1000
AcRTDxfName
1000
SCALE
  0
SCALE
  5
44ED9A
102
{ACAD_REACTORS
330
44ED91
102
}
330
44ED91
100
AcDbScale
 70
     0
300
1:30
140
1.0
141
30.0
290
     0
1001
ACAD
1000
AcRTDxfName
1000
SCALE
1000
AcRTDxfName
1000
SCALE
  0
SCALE
  5
44ED9B
102
{ACAD_REACTORS
330
44ED91
102
}
330
44ED91
100
AcDbScale
 70
     0
300
1:40
140
1.0
141
40.0
290
     0
1001
ACAD
1000
AcRTDxfName
1000
SCALE
1000
AcRTDxfName
1000
SCALE
  0
SCALE
  5
44ED9C
102
{ACAD_REACTORS
330
44ED91
102
}
330
44ED91
100
AcDbScale
 70
     0
300
1:50
140
1.0
141
50.0
290
     0
1001
ACAD
1000
AcRTDxfName
1000
SCALE
1000
AcRTDxfName
1000
SCALE
  0
SCALE
  5
44ED9D
102
{ACAD_REACTORS
330
44ED91
102
}
330
44ED91
100
AcDbScale
 70
     0
300
1:100
140
1.0
141
100.0
290
     0
1001
ACAD
1000
AcRTDxfName
1000
SCALE
1000
AcRTDxfName
1000
SCALE
  0
SCALE
  5
44ED9E
102
{ACAD_REACTORS
330
44ED91
102
}
330
44ED91
100
AcDbScale
 70
     0
300
2:1
140
2.0
141
1.0
290
     0
1001
ACAD
1000
AcRTDxfName
1000
SCALE
1000
AcRTDxfName
1000
SCALE
  0
SCALE
  5
44ED9F
102
{ACAD_REACTORS
330
44ED91
102
}
330
44ED91
100
AcDbScale
 70
     0
300
4:1
140
4.0
141
1.0
290
     0
1001
ACAD
1000
AcRTDxfName
1000
SCALE
1000
AcRTDxfName
1000
SCALE
  0
SCALE
  5
44EDA0
102
{ACAD_REACTORS
330
44ED91
102
}
330
44ED91
100
AcDbScale
 70
     0
300
8:1
140
8.0
141
1.0
290
     0
1001
ACAD
1000
AcRTDxfName
1000
SCALE
1000
AcRTDxfName
1000
SCALE
  0
SCALE
  5
44EDA1
102
{ACAD_REACTORS
330
44ED91
102
}
330
44ED91
100
AcDbScale
 70
     0
300
10:1
140
10.0
141
1.0
290
     0
1001
ACAD
1000
AcRTDxfName
1000
SCALE
1000
AcRTDxfName
1000
SCALE
  0
SCALE
  5
44EDA2
102
{ACAD_REACTORS
330
44ED91
102
}
330
44ED91
100
AcDbScale
 70
     0
300
100:1
140
100.0
141
1.0
290
     0
1001
ACAD
1000
AcRTDxfName
1000
SCALE
1000
AcRTDxfName
1000
SCALE
  0
SCALE
  5
44EDA3
102
{ACAD_REACTORS
330
44ED91
102
}
330
44ED91
100
AcDbScale
 70
     0
300
1/128" = 1'-0"
140
0.0078125
141
12.0
290
     0
1001
ACAD
1000
AcRTDxfName
1000
SCALE
1000
AcRTDxfName
1000
SCALE
  0
SCALE
  5
44EDA4
102
{ACAD_REACTORS
330
44ED91
102
}
330
44ED91
100
AcDbScale
 70
     0
300
1/64" = 1'-0"
140
0.015625
141
12.0
290
     0
1001
ACAD
1000
AcRTDxfName
1000
SCALE
1000
AcRTDxfName
1000
SCALE
  0
SCALE
  5
44EDA5
102
{ACAD_REACTORS
330
44ED91
102
}
330
44ED91
100
AcDbScale
 70
     0
300
1/32" = 1'-0"
140
0.03125
141
12.0
290
     0
1001
ACAD
1000
AcRTDxfName
1000
SCALE
1000
AcRTDxfName
1000
SCALE
  0
SCALE
  5
44EDA6
102
{ACAD_REACTORS
330
44ED91
102
}
330
44ED91
100
AcDbScale
 70
     0
300
1/16" = 1'-0"
140
0.0625
141
12.0
290
     0
1001
ACAD
1000
AcRTDxfName
1000
SCALE
1000
AcRTDxfName
1000
SCALE
  0
SCALE
  5
44EDA7
102
{ACAD_REACTORS
330
44ED91
102
}
330
44ED91
100
AcDbScale
 70
     0
300
3/32" = 1'-0"
140
0.09375
141
12.0
290
     0
1001
ACAD
1000
AcRTDxfName
1000
SCALE
1000
AcRTDxfName
1000
SCALE
  0
SCALE
  5
44EDA8
102
{ACAD_REACTORS
330
44ED91
102
}
330
44ED91
100
AcDbScale
 70
     0
300
1/8" = 1'-0"
140
0.125
141
12.0
290
     0
1001
ACAD
1000
AcRTDxfName
1000
SCALE
1000
AcRTDxfName
1000
SCALE
  0
SCALE
  5
44EDA9
102
{ACAD_REACTORS
330
44ED91
102
}
330
44ED91
100
AcDbScale
 70
     0
300
3/16" = 1'-0"
140
0.1875
141
12.0
290
     0
1001
ACAD
1000
AcRTDxfName
1000
SCALE
1000
AcRTDxfName
1000
SCALE
  0
SCALE
  5
44EDAA
102
{ACAD_REACTORS
330
44ED91
102
}
330
44ED91
100
AcDbScale
 70
     0
300
1/4" = 1'-0"
140
0.25
141
12.0
290
     0
1001
ACAD
1000
AcRTDxfName
1000
SCALE
1000
AcRTDxfName
1000
SCALE
  0
SCALE
  5
44EDAB
102
{ACAD_REACTORS
330
44ED91
102
}
330
44ED91
100
AcDbScale
 70
     0
300
3/8" = 1'-0"
140
0.375
141
12.0
290
     0
1001
ACAD
1000
AcRTDxfName
1000
SCALE
1000
AcRTDxfName
1000
SCALE
  0
SCALE
  5
44EDAC
102
{ACAD_REACTORS
330
44ED91
102
}
330
44ED91
100
AcDbScale
 70
     0
300
1/2" = 1'-0"
140
0.5
141
12.0
290
     0
1001
ACAD
1000
AcRTDxfName
1000
SCALE
1000
AcRTDxfName
1000
SCALE
  0
SCALE
  5
44EDAD
102
{ACAD_REACTORS
330
44ED91
102
}
330
44ED91
100
AcDbScale
 70
     0
300
3/4" = 1'-0"
140
0.75
141
12.0
290
     0
1001
ACAD
1000
AcRTDxfName
1000
SCALE
1000
AcRTDxfName
1000
SCALE
  0
SCALE
  5
44EDAE
102
{ACAD_REACTORS
330
44ED91
102
}
330
44ED91
100
AcDbScale
 70
     0
300
1" = 1'-0"
140
1.0
141
12.0
290
     0
1001
ACAD
1000
AcRTDxfName
1000
SCALE
1000
AcRTDxfName
1000
SCALE
  0
SCALE
  5
44EDAF
102
{ACAD_REACTORS
330
44ED91
102
}
330
44ED91
100
AcDbScale
 70
     0
300
1-1/2" = 1'-0"
140
1.5
141
12.0
290
     0
1001
ACAD
1000
AcRTDxfName
1000
SCALE
1000
AcRTDxfName
1000
SCALE
  0
SCALE
  5
44EDB0
102
{ACAD_REACTORS
330
44ED91
102
}
330
44ED91
100
AcDbScale
 70
     0
300
3" = 1'-0"
140
3.0
141
12.0
290
     0
1001
ACAD
1000
AcRTDxfName
1000
SCALE
1000
AcRTDxfName
1000
SCALE
  0
SCALE
  5
44EDB1
102
{ACAD_REACTORS
330
44ED91
102
}
330
44ED91
100
AcDbScale
 70
     0
300
6" = 1'-0"
140
6.0
141
12.0
290
     0
1001
ACAD
1000
AcRTDxfName
1000
SCALE
1000
AcRTDxfName
1000
SCALE
  0
SCALE
  5
44EDB2
102
{ACAD_REACTORS
330
44ED91
102
}
330
44ED91
100
AcDbScale
 70
     0
300
1'-0" = 1'-0"
140
12.0
141
12.0
290
     0
1001
ACAD
1000
AcRTDxfName
1000
SCALE
1000
AcRTDxfName
1000
SCALE
  0
DICTIONARYVAR
  5
6DF
102
{ACAD_REACTORS
330
6DE
102
}
330
6DE
100
DictionaryVariables
280
     0
  1
1
  0
DICTIONARYVAR
  5
44EDFB
102
{ACAD_REACTORS
330
6DE
102
}
330
6DE
100
DictionaryVariables
280
     0
  1
0
  0
DICTIONARYVAR
  5
6E0
102
{ACAD_REACTORS
330
6DE
102
}
330
6DE
100
DictionaryVariables
280
     0
  1

  0
DICTIONARYVAR
  5
44EDFA
102
{ACAD_REACTORS
330
6DE
102
}
330
6DE
100
DictionaryVariables
280
     0
  1
1
  0
XRECORD
  5
44CC64
102
{ACAD_REACTORS
330
44CC62
102
}
330
44CC62
100
AcDbXrecord
280
     1
330
0
330
0
330
0
330
0
330
0
330
0
330
0
330
0
330
0
330
0
330
0
330
0
330
0
330
0
330
0
330
0
330
0
330
0
330
0
330
0
330
0
330
0
330
0
330
0
330
0
330
0
330
0
330
0
330
0
330
0
330
0
330
0
330
0
330
0
330
0
330
0
330
0
330
0
330
0
330
0
330
0
330
0
330
0
330
0
330
0
330
0
330
0
330
0
330
0
330
0
330
0
330
0
330
0
330
0
330
0
330
0
330
0
330
0
330
0
330
0
330
0
330
0
330
0
330
0
330
0
330
0
330
0
330
0
330
0
330
0
330
0
330
0
330
0
330
0
330
0
330
0
330
0
330
0
330
0
330
0
330
0
330
0
330
0
330
0
330
0
330
0
330
0
330
0
330
0
330
0
330
0
330
0
330
0
330
0
330
0
330
0
330
0
330
0
330
0
330
0
330
0
330
0
330
0
330
0
330
0
330
0
330
0
330
0
330
0
330
0
330
0
330
0
330
0
330
0
330
0
330
0
330
0
330
0
330
0
330
0
330
0
330
0
330
0
330
0
330
0
330
0
330
0
330
0
330
0
330
0
330
0
330
0
330
0
330
0
330
0
330
0
330
0
330
0
330
0
330
0
330
0
330
0
330
0
330
0
330
0
330
0
330
0
330
0
330
0
330
0
330
0
330
0
330
0
330
0
330
0
330
0
330
0
330
0
330
0
330
0
330
0
330
0
330
0
330
0
330
0
330
0
330
0
330
0
330
0
330
0
330
0
330
0
330
0
330
0
330
0
330
0
330
0
330
0
330
0
330
0
330
0
330
0
330
0
330
0
330
0
330
0
330
0
330
0
330
0
330
0
330
0
330
0
330
0
330
0
330
0
330
0
330
0
330
0
330
0
330
0
330
0
330
0
330
0
330
0
330
0
330
0
330
0
330
0
330
0
330
0
330
0
330
0
330
0
330
0
330
0
330
0
330
0
330
0
330
0
330
0
330
0
330
0
330
0
330
0
330
0
330
0
330
0
330
0
330
0
330
0
330
0
330
0
330
0
330
0
330
0
330
0
330
0
330
0
330
0
330
0
330
0
330
0
330
0
330
0
330
0
330
0
330
0
330
0
330
0
330
0
330
0
330
0
330
0
330
0
330
0
330
0
330
0
330
0
330
0
330
0
330
0
330
0
330
0
330
0
330
0
330
0
330
0
330
0
330
0
330
0
330
0
330
0
330
0
330
0
330
0
330
0
330
0
330
0
330
0
330
0
330
0
330
0
330
0
330
0
330
0
330
0
330
0
330
0
330
0
330
0
330
0
330
0
330
0
330
0
330
0
330
0
330
0
330
0
330
0
330
0
330
0
330
0
330
0
330
0
330
0
330
0
330
0
330
0
330
0
330
0
330
0
330
0
330
0
330
0
330
0
330
0
330
0
330
0
330
0
330
0
330
0
330
0
330
0
330
0
330
0
330
0
330
0
330
0
330
0
330
0
330
0
330
0
330
0
330
0
330
0
330
0
330
0
330
0
330
0
330
0
330
0
330
0
330
0
330
0
330
0
330
0
330
0
330
0
330
0
330
0
330
0
330
0
330
0
330
0
330
0
330
0
330
0
330
0
330
0
330
0
330
0
330
0
330
0
330
0
330
0
330
0
330
0
330
0
330
0
330
0
330
0
330
0
330
0
330
0
330
0
330
0
330
0
330
0
330
0
330
0
330
0
330
0
330
0
330
0
330
0
330
0
330
0
330
0
330
0
330
0
330
0
330
0
330
0
330
0
330
0
330
0
330
0
330
0
330
0
330
0
330
0
330
0
330
0
330
0
330
0
330
0
330
0
330
0
330
0
330
0
330
0
330
0
330
0
330
0
330
0
330
0
330
0
330
0
330
0
330
0
330
0
330
0
330
0
330
0
330
0
330
0
330
0
330
0
330
0
330
0
330
0
330
0
330
0
330
0
330
0
330
0
330
0
330
0
330
0
330
0
330
0
330
0
330
0
330
0
330
0
330
0
330
0
330
0
330
0
330
0
330
0
330
0
330
0
330
0
330
0
330
0
330
0
330
0
330
0
330
0
330
0
330
0
330
0
330
0
330
0
330
0
330
0
330
0
330
0
330
0
330
0
330
0
330
0
330
0
330
0
330
0
330
0
330
0
330
0
330
0
330
0
330
0
330
0
330
0
330
0
330
0
330
0
330
0
330
0
330
0
330
0
330
0
330
0
330
0
330
0
330
0
330
0
330
0
330
0
330
0
330
0
330
0
330
0
330
0
330
0
330
0
330
0
330
0
330
0
330
0
330
0
330
0
330
0
330
0
330
0
330
0
330
0
330
0
330
0
330
0
330
0
330
0
330
0
330
0
330
0
330
0
330
0
330
0
330
0
330
0
330
0
330
0
330
0
330
0
330
0
330
0
330
0
330
0
330
0
330
0
330
0
330
0
330
0
330
0
330
0
330
0
330
0
330
0
330
0
330
0
330
0
330
0
330
0
330
0
330
0
330
0
330
0
330
0
330
0
330
0
330
0
330
0
330
0
330
0
330
0
330
0
330
0
330
0
330
0
330
0
330
0
330
0
330
0
330
0
330
0
330
0
330
0
330
0
330
0
330
0
330
0
330
0
330
0
330
0
330
0
330
0
330
0
330
0
330
0
330
0
330
0
330
0
330
0
330
0
330
0
330
0
330
0
330
0
330
0
330
0
330
0
330
0
330
0
330
0
330
0
330
0
330
0
330
0
330
0
330
0
330
0
330
0
330
0
330
0
330
0
330
0
330
0
330
0
330
0
330
0
330
0
330
0
330
0
330
0
330
0
330
0
330
0
330
0
330
0
330
0
330
0
330
0
330
0
330
0
330
0
330
0
330
0
330
0
330
0
330
0
330
0
330
0
330
0
330
0
330
0
330
0
330
0
330
0
330
0
330
0
330
0
330
0
330
0
330
0
330
0
330
0
330
0
330
0
330
0
330
0
330
0
330
0
330
0
330
0
330
0
330
0
330
0
330
0
330
0
330
0
330
0
330
0
330
0
330
0
330
0
330
0
330
0
330
0
330
0
330
0
330
0
330
0
330
0
330
0
330
0
330
0
330
0
330
0
330
0
330
0
330
0
330
0
330
0
330
0
330
0
330
0
330
0
330
0
330
0
330
0
330
0
330
0
330
0
330
0
330
0
330
0
330
0
330
0
330
0
330
0
330
0
330
0
330
0
330
0
330
0
330
0
330
0
330
0
330
0
330
0
330
0
330
0
330
0
330
0
330
0
330
0
330
0
330
0
330
0
330
0
330
0
330
0
330
0
330
0
330
0
330
0
330
0
330
0
330
0
330
0
330
0
330
0
330
0
330
0
330
0
330
0
330
0
330
0
330
0
330
0
330
0
330
0
330
0
330
0
330
0
330
0
330
0
330
0
330
0
330
0
330
0
330
0
330
0
330
0
330
0
330
0
330
0
330
0
330
0
330
0
330
0
330
0
330
0
330
0
330
0
330
0
330
0
330
0
330
0
330
0
330
0
330
0
330
0
330
0
330
0
330
0
330
0
330
0
330
0
330
0
330
0
330
0
330
0
330
0
330
0
330
0
330
0
330
0
330
0
330
0
330
0
330
0
330
0
330
0
330
0
330
0
330
0
330
0
330
0
330
0
330
0
330
0
330
0
330
0
330
0
330
0
330
0
330
0
330
0
330
0
330
0
330
0
330
0
330
0
330
0
330
0
330
0
330
0
330
0
330
0
330
0
330
0
330
0
330
0
330
0
330
0
330
0
330
0
330
0
330
0
330
0
330
0
330
0
330
0
330
0
330
0
330
0
330
0
330
0
330
0
330
0
330
0
330
0
330
0
330
0
330
0
330
0
330
0
330
0
330
0
330
0
330
0
330
0
330
0
330
0
330
0
330
0
330
0
330
0
330
0
330
0
330
0
330
0
330
0
330
0
330
0
330
0
330
0
330
0
330
0
330
0
330
0
330
0
330
0
330
0
330
0
330
0
330
0
330
0
330
0
330
0
330
0
330
0
330
0
330
0
330
0
330
0
330
0
330
0
330
0
330
0
330
0
330
0
330
0
330
0
330
0
330
0
330
0
330
0
330
0
330
0
330
0
330
0
330
0
330
0
330
0
330
0
330
0
330
0
330
0
330
0
330
0
330
0
330
0
330
0
330
0
330
0
330
0
330
0
330
0
330
0
330
0
330
0
330
0
330
0
330
0
330
0
330
0
330
0
330
0
330
0
330
0
330
0
330
0
330
0
330
0
330
0
330
0
330
0
330
0
330
0
330
0
330
0
330
0
330
0
330
0
330
0
330
0
330
0
330
0
330
0
330
0
330
0
330
0
330
0
330
0
330
0
330
0
330
0
330
0
330
0
330
0
330
0
330
0
330
0
330
0
330
0
330
0
330
0
330
0
330
0
330
0
330
0
330
0
330
0
330
0
330
0
330
0
330
0
330
0
330
0
330
0
330
0
330
0
330
0
330
0
330
0
330
0
330
0
330
0
330
0
330
0
330
0
330
0
330
0
330
0
330
0
330
0
330
0
330
0
330
0
330
0
330
0
330
0
330
0
330
0
330
0
330
0
330
0
330
0
330
0
330
0
330
0
330
0
330
0
330
0
330
0
330
0
330
0
330
0
330
0
330
0
330
0
330
0
330
0
330
0
330
0
330
0
330
0
330
0
330
0
330
0
330
0
330
0
330
0
330
0
330
0
330
0
330
0
330
0
330
0
330
0
330
0
330
0
330
0
330
0
330
0
330
0
330
0
330
0
330
0
330
0
330
0
330
0
330
0
330
0
330
0
330
0
330
0
330
0
330
0
330
0
330
0
330
0
330
0
330
0
330
0
330
0
330
0
330
0
330
0
330
0
330
0
330
0
330
0
330
0
330
0
330
0
330
0
330
0
330
0
330
0
330
0
330
0
330
0
330
0
330
0
330
0
330
0
330
0
330
0
330
0
330
0
330
0
330
0
330
0
330
0
330
0
330
0
330
0
330
0
330
0
330
0
330
0
330
0
330
0
330
0
330
0
330
0
330
0
330
0
330
0
330
0
330
0
330
0
330
0
330
0
330
0
330
0
330
0
330
0
330
0
330
0
330
0
330
0
330
0
330
0
330
0
330
0
330
0
330
0
330
0
330
0
330
0
330
0
330
0
330
0
330
0
330
0
330
0
330
0
330
0
330
0
330
0
330
0
330
0
330
0
330
0
330
0
330
0
330
0
330
0
330
0
330
0
330
0
330
0
330
0
330
0
330
0
330
0
330
0
330
0
330
0
330
0
330
0
330
0
330
0
330
0
330
0
330
0
330
0
330
0
330
0
330
0
330
0
330
0
330
0
330
0
330
0
330
0
330
0
330
0
330
0
330
0
330
0
330
0
330
0
330
0
330
0
330
0
330
0
330
0
330
0
330
0
330
0
330
0
330
0
330
0
330
0
330
0
330
0
330
0
330
0
330
0
330
0
330
0
330
0
330
0
330
0
330
0
330
0
330
0
330
0
330
0
330
0
330
0
330
0
330
0
330
0
330
0
330
0
330
0
330
0
330
0
330
0
330
0
330
0
330
0
330
0
330
0
330
0
330
0
330
0
330
0
330
0
330
0
330
0
330
0
330
0
330
0
330
0
330
0
330
0
330
0
330
0
330
0
330
0
330
0
330
0
330
0
330
0
330
0
330
0
330
0
330
0
330
0
330
0
330
0
330
0
330
0
330
0
330
0
330
0
330
0
330
0
330
0
330
0
330
0
330
0
330
0
330
0
330
0
330
0
330
0
330
0
330
0
330
0
330
0
330
0
330
0
330
0
330
0
330
0
330
0
330
0
330
0
330
0
330
0
330
0
330
0
330
0
330
0
330
0
330
0
330
0
330
0
330
0
330
0
330
0
330
0
330
0
330
0
330
0
330
0
330
0
330
0
330
0
330
0
330
0
330
0
330
0
330
0
330
0
330
0
330
0
330
0
330
0
330
0
330
0
330
0
330
0
330
0
330
0
330
0
330
0
330
0
330
0
330
0
330
0
330
0
330
0
330
0
330
0
330
0
330
0
330
0
330
0
330
0
330
0
330
0
330
0
330
0
330
0
330
0
330
0
330
0
330
0
330
0
330
0
330
0
330
0
330
0
330
0
330
0
330
0
330
0
330
0
330
0
330
0
330
0
330
0
330
0
330
0
330
0
330
0
330
0
330
0
330
0
330
0
330
0
330
0
330
0
330
0
330
0
330
0
330
0
330
0
330
0
330
0
330
0
330
0
330
0
330
0
330
0
330
0
330
0
330
0
330
0
330
0
330
0
330
0
330
0
330
0
330
0
330
0
330
0
330
0
330
0
330
0
330
0
330
0
330
0
330
0
330
0
330
0
330
0
330
0
330
0
330
0
330
0
330
0
330
0
330
0
330
0
330
0
330
0
330
0
330
0
330
0
330
0
330
0
330
0
330
0
330
0
330
0
330
0
330
0
330
0
330
0
330
0
330
0
330
0
330
0
330
0
330
0
330
0
330
0
330
0
330
0
330
0
330
0
330
0
330
0
330
0
330
0
330
0
330
0
330
0
330
0
330
0
330
0
330
0
330
0
330
0
330
0
330
0
330
0
330
0
330
0
330
0
330
0
330
0
330
0
330
0
330
0
330
0
330
0
330
0
330
0
330
0
330
0
330
0
330
0
330
0
330
0
330
0
330
0
330
0
330
0
330
0
330
0
330
0
330
0
330
0
330
0
330
0
330
0
330
0
330
0
330
0
330
0
330
0
330
0
330
0
330
0
330
0
330
0
330
0
330
0
330
0
330
0
330
0
330
0
330
0
330
0
330
0
330
0
330
0
330
0
330
0
330
0
330
0
330
0
330
0
330
0
330
0
330
0
330
0
330
0
330
0
330
0
330
0
330
0
330
0
330
0
330
0
330
0
330
0
330
0
330
0
330
0
330
0
330
0
330
0
330
0
330
0
330
0
330
0
330
0
330
0
330
0
330
0
330
0
330
0
330
0
330
0
330
0
330
0
330
0
330
0
330
0
330
0
330
0
330
0
330
0
330
0
330
0
330
0
330
0
330
0
330
0
330
0
330
0
330
0
330
0
330
0
330
0
330
0
330
0
330
0
330
0
330
0
330
0
330
0
330
0
330
0
330
0
330
0
330
0
330
0
330
0
330
0
330
0
330
0
330
0
330
0
330
0
330
0
330
0
330
0
330
0
330
0
330
0
330
0
330
0
330
0
330
0
330
0
330
0
330
0
330
0
330
0
330
0
330
0
330
0
330
0
330
0
330
0
330
0
330
0
330
0
330
0
330
0
330
0
330
0
330
0
330
0
330
0
330
0
330
0
330
0
330
0
330
0
330
0
330
0
330
0
330
0
330
0
330
0
330
0
330
0
330
0
330
0
330
0
330
0
330
0
330
0
330
0
330
0
330
0
330
0
330
0
330
0
330
0
330
0
330
0
330
0
330
0
330
0
330
0
330
0
330
0
330
0
330
0
330
0
330
0
330
0
330
0
330
0
330
0
330
0
330
0
330
0
330
0
330
0
330
0
330
0
330
0
330
0
330
0
330
0
330
0
330
0
330
0
330
0
330
0
330
0
330
0
330
0
330
0
330
0
330
0
330
0
330
0
330
0
330
0
330
0
330
0
330
0
330
0
330
0
330
0
330
0
330
0
330
0
330
0
330
0
330
0
330
0
330
0
330
0
330
0
330
0
330
0
330
0
330
0
330
0
330
0
330
0
330
0
330
0
330
0
330
0
330
0
330
0
330
0
330
0
330
0
330
0
330
0
330
0
330
0
330
0
330
0
330
0
330
0
330
0
330
0
330
0
330
0
330
0
330
0
330
0
330
0
330
0
330
0
330
0
330
0
330
0
330
0
330
0
330
0
330
0
330
0
330
0
330
0
330
0
330
0
330
0
330
0
330
0
330
0
330
0
330
0
330
0
330
0
330
0
330
0
330
0
330
0
330
0
330
0
330
0
330
0
330
0
330
0
330
0
330
0
330
0
330
0
330
0
330
0
330
0
330
0
330
0
330
0
330
0
330
0
330
0
330
0
330
0
330
0
330
0
330
0
330
0
330
0
330
0
330
0
330
0
330
0
330
0
330
0
330
0
330
0
330
0
330
0
330
0
330
0
330
0
330
0
330
0
330
0
330
0
330
0
330
0
330
0
330
0
330
0
330
0
330
0
330
0
330
0
330
0
330
0
330
0
330
0
330
0
330
0
330
0
330
0
330
0
330
0
330
0
330
0
330
0
330
0
330
0
330
0
330
0
330
0
330
0
330
0
330
0
330
0
330
0
330
0
330
0
330
0
330
0
330
0
330
0
330
0
330
0
330
0
330
0
330
0
330
0
330
0
330
0
330
0
330
0
330
0
330
0
330
0
330
0
330
0
330
0
330
0
330
0
330
0
330
0
330
0
330
0
330
0
330
0
330
0
330
0
330
0
330
0
330
0
330
0
330
0
330
0
330
0
330
0
330
0
330
0
330
0
330
0
330
0
330
0
330
0
330
0
330
0
330
0
330
0
330
0
330
0
330
0
330
0
330
0
330
0
330
0
330
0
330
0
330
0
330
0
330
0
330
0
330
0
330
0
330
0
330
0
330
0
330
0
330
0
330
0
330
0
330
0
330
0
330
0
330
0
330
0
330
0
330
0
330
0
330
0
330
0
330
0
330
0
330
0
330
0
330
0
330
0
330
0
330
0
330
0
330
0
330
0
330
0
330
0
330
0
330
0
330
0
330
0
330
0
330
0
330
0
330
0
330
0
330
0
330
0
330
0
330
0
330
0
330
0
330
0
330
0
330
0
330
0
330
0
330
0
330
0
330
0
330
0
330
0
330
0
330
0
330
0
330
0
330
0
330
0
330
0
330
0
330
0
330
0
330
0
330
0
330
0
330
0
330
0
330
0
330
0
330
0
330
0
330
0
330
0
330
0
330
0
330
0
330
0
330
0
330
0
330
0
330
0
330
0
330
0
330
0
330
0
330
0
330
0
330
0
330
0
330
0
330
0
330
0
330
0
330
0
330
0
330
0
330
0
330
0
330
0
330
0
330
0
330
0
330
0
330
0
330
0
330
0
330
0
330
0
330
0
330
0
330
0
330
0
330
0
330
0
330
0
330
0
330
0
330
0
330
0
330
0
330
0
330
0
330
0
330
0
330
0
330
0
330
0
330
0
330
0
330
0
330
0
330
0
330
0
330
0
330
0
330
0
330
0
330
0
330
0
330
0
330
0
330
0
330
0
330
0
330
0
330
0
330
0
330
0
330
0
330
0
330
0
330
0
330
0
330
0
330
0
330
0
330
0
330
0
330
0
330
0
330
0
330
0
330
0
330
0
330
0
330
0
330
0
330
0
330
0
330
0
330
0
330
0
330
0
330
0
330
0
330
0
330
0
330
0
330
0
330
0
330
0
330
0
330
0
330
0
330
0
330
0
330
0
330
0
330
0
330
0
330
0
330
0
330
0
330
0
330
0
330
0
330
0
330
0
330
0
330
0
330
0
330
0
330
0
330
0
330
0
330
0
330
0
330
0
330
0
330
0
330
0
330
0
330
0
330
0
330
0
330
0
330
0
330
0
330
0
330
0
330
0
330
0
330
0
330
0
330
0
330
0
330
0
330
0
330
0
330
0
330
0
330
0
330
0
330
0
330
0
330
0
330
0
330
0
330
0
330
0
330
0
330
0
330
0
330
0
330
0
330
0
330
0
330
0
330
0
330
0
330
0
330
0
330
0
330
0
330
0
330
0
330
0
330
0
330
0
330
0
330
0
330
0
330
0
330
0
330
0
330
0
330
0
330
0
330
0
330
0
330
0
330
0
330
0
330
0
330
0
330
0
330
0
330
0
330
0
330
0
330
0
330
0
330
0
330
0
330
0
330
0
330
0
330
0
330
0
330
0
330
0
330
0
330
0
330
0
330
0
330
0
330
0
330
0
330
0
330
0
330
0
330
0
330
0
330
0
330
0
330
0
330
0
330
0
330
0
330
0
330
0
330
0
330
0
330
0
330
0
330
0
330
0
330
0
330
0
330
0
330
0
330
0
330
0
330
0
330
0
330
0
330
0
330
0
330
0
330
0
330
0
330
0
330
0
330
0
330
0
330
0
330
0
330
0
330
0
330
0
330
0
330
0
330
0
330
0
330
0
330
0
330
0
330
0
330
0
330
0
330
0
330
0
330
0
330
0
330
0
330
0
330
0
330
0
330
0
330
0
330
0
330
0
330
0
330
0
330
0
330
0
330
0
330
0
330
0
330
0
330
0
330
0
330
0
330
0
330
0
330
0
330
0
330
0
330
0
330
0
330
0
330
0
330
0
330
0
330
0
330
0
330
0
330
0
330
0
330
0
330
0
330
0
330
0
330
0
330
0
330
0
330
0
330
0
330
0
330
0
330
0
330
0
330
0
330
0
330
0
330
0
330
0
330
0
330
0
330
0
330
0
330
0
330
0
330
0
330
0
330
0
330
0
330
0
330
0
330
0
330
0
330
0
330
0
330
0
330
0
330
0
330
0
330
0
330
0
330
0
330
0
330
0
330
0
330
0
330
0
330
0
330
0
330
0
330
0
330
0
330
0
330
0
330
0
330
0
330
0
330
0
330
0
330
0
330
0
330
0
330
0
330
0
330
0
330
0
330
0
330
0
330
0
330
0
330
0
330
0
330
0
330
0
330
0
330
0
330
0
330
0
330
0
330
0
330
0
330
0
330
0
330
0
330
0
330
0
330
0
330
0
330
0
330
0
330
0
330
0
330
0
330
0
330
0
330
0
330
0
330
0
330
0
330
0
330
0
330
0
330
0
330
0
330
0
330
0
330
0
330
0
330
0
330
0
330
0
330
0
330
0
330
0
330
0
330
0
330
0
330
0
330
0
330
0
330
0
330
0
330
0
330
0
330
0
330
0
330
0
330
0
330
0
330
0
330
0
330
0
330
0
330
0
330
0
330
0
330
0
330
0
330
0
330
0
330
0
330
0
330
0
330
0
330
0
330
0
330
0
330
0
330
0
330
0
330
0
330
0
330
0
330
0
330
0
330
0
330
0
330
0
330
0
330
0
330
0
330
0
330
0
330
0
330
0
330
0
330
0
330
0
330
0
330
0
330
0
330
0
330
0
330
0
330
0
330
0
330
0
330
0
330
0
330
0
330
0
330
0
330
0
330
0
330
0
330
0
330
0
330
0
330
0
330
0
330
0
330
0
330
0
330
0
330
0
330
0
330
0
330
0
330
0
330
0
330
0
330
0
330
0
330
0
330
0
330
0
330
0
330
0
330
0
330
0
330
0
330
0
330
0
330
0
330
0
330
0
330
0
330
0
330
0
330
0
330
0
330
0
330
0
330
0
330
0
330
0
330
0
330
0
330
0
330
0
330
0
330
0
330
0
330
0
330
0
330
0
330
0
330
0
330
0
330
0
330
0
330
0
330
0
330
0
330
0
330
0
330
0
330
0
330
0
330
0
330
0
330
0
330
0
330
0
330
0
330
0
330
0
330
0
330
0
330
0
330
0
330
0
330
0
330
0
330
0
330
0
330
0
330
0
330
0
330
0
330
0
330
0
330
0
330
0
330
0
330
0
330
0
330
0
330
0
330
0
330
0
330
0
330
0
330
0
330
0
330
0
330
0
330
0
330
0
330
0
330
0
330
0
330
0
330
0
330
0
330
0
330
0
330
0
330
0
330
0
330
0
330
0
330
0
330
0
330
0
330
0
330
0
330
0
330
0
330
0
330
0
330
0
330
0
330
0
330
0
330
0
330
0
330
0
330
0
330
0
330
0
330
0
330
0
330
0
330
0
330
0
330
0
330
0
330
0
330
0
330
0
330
0
330
0
330
0
330
0
330
0
330
0
330
0
330
0
330
0
330
0
330
0
330
0
330
0
330
0
330
0
330
0
330
0
330
0
330
0
330
0
330
0
330
0
330
0
330
0
330
0
330
0
330
0
330
0
330
0
330
0
330
0
330
0
330
0
330
0
330
0
330
0
330
0
330
0
330
0
330
0
330
0
330
0
330
0
330
0
330
0
330
0
330
0
330
0
330
0
330
0
330
0
330
0
330
0
330
0
330
0
330
0
330
0
330
0
330
0
330
0
330
0
330
0
330
0
330
0
330
0
330
0
330
0
330
0
330
0
330
0
330
0
330
0
330
0
330
0
330
0
330
0
330
0
330
0
330
0
330
0
330
0
330
0
330
0
330
0
330
0
330
0
330
0
330
0
330
0
330
0
330
0
330
0
330
0
330
0
330
0
330
0
330
0
330
0
330
0
330
0
330
0
330
0
330
0
330
0
330
0
330
0
330
0
330
0
330
0
330
0
330
0
330
0
330
0
330
0
330
0
330
0
330
0
330
0
330
0
330
0
330
0
330
0
330
0
330
0
330
0
330
0
330
0
330
0
330
0
330
0
330
0
330
0
330
0
330
0
330
0
330
0
330
0
330
0
330
0
330
0
330
0
330
0
330
0
330
0
330
0
330
0
330
0
330
0
330
0
330
0
330
0
330
0
330
0
330
0
330
0
330
0
330
0
330
0
330
0
330
0
330
0
330
0
330
0
330
0
330
0
330
0
330
0
330
0
330
0
330
0
330
0
330
0
330
0
330
0
330
0
330
0
330
0
330
0
330
0
330
0
330
0
330
0
330
0
330
0
330
0
330
0
330
0
330
0
330
0
330
0
330
0
330
0
330
0
330
0
330
0
330
0
330
0
330
0
330
0
330
0
330
0
330
0
330
0
330
0
330
0
330
0
330
0
330
0
330
0
330
0
330
0
330
0
330
0
330
0
330
0
330
0
330
0
330
0
330
0
330
0
330
0
330
0
330
0
330
0
330
0
330
0
330
0
330
0
330
0
330
0
330
0
330
0
330
0
330
0
330
0
330
0
330
0
330
0
330
0
330
0
330
0
330
0
330
0
330
0
330
0
330
0
330
0
330
0
330
0
330
0
330
0
330
0
330
0
330
0
330
0
330
0
330
0
330
0
330
0
330
0
330
0
330
0
330
0
330
0
330
0
330
0
330
0
330
0
330
0
330
0
330
0
330
0
330
0
330
0
330
0
330
0
330
0
330
0
330
0
330
0
330
0
330
0
330
0
330
0
330
0
330
0
330
0
330
0
330
0
330
0
330
0
330
0
330
0
330
0
330
0
330
0
330
0
330
0
330
0
330
0
330
0
330
0
330
0
330
0
330
0
330
0
330
0
330
0
330
0
330
0
330
0
330
0
330
0
330
0
330
0
330
0
330
0
330
0
330
0
330
0
330
0
330
0
330
0
330
0
330
0
330
0
330
0
330
0
330
0
330
0
330
0
330
0
330
0
330
0
330
0
330
0
330
0
330
0
330
0
330
0
330
0
330
0
330
0
330
0
330
0
330
0
330
0
330
0
330
0
330
0
330
0
330
0
330
0
330
0
330
0
330
0
330
0
330
0
330
0
330
0
330
0
330
0
330
0
330
0
330
0
330
0
330
0
330
0
330
0
330
0
330
0
330
0
330
0
330
0
330
0
330
0
330
0
330
0
330
0
330
0
330
0
330
0
330
0
330
0
330
0
330
0
330
0
330
0
330
0
330
0
330
0
330
0
330
0
330
0
330
0
330
0
330
0
330
0
330
0
330
0
330
0
330
0
330
0
330
0
330
0
330
0
330
0
330
0
330
0
330
0
330
0
330
0
330
0
330
0
330
0
330
0
330
0
330
0
330
0
330
0
330
0
330
0
330
0
330
0
330
0
330
0
330
0
330
0
330
0
330
0
330
0
330
0
330
0
330
0
330
0
330
0
330
0
330
0
330
0
330
0
330
0
330
0
330
0
330
0
330
0
330
0
330
0
330
0
330
0
330
0
330
0
330
0
330
0
330
0
330
0
330
0
330
0
330
0
330
0
330
0
330
0
330
0
330
0
330
0
330
0
330
0
330
0
330
0
330
0
330
0
330
0
330
0
330
0
330
0
330
0
330
0
330
0
330
0
330
0
330
0
330
0
330
0
330
0
330
0
330
0
330
0
330
0
330
0
330
0
330
0
330
0
330
0
330
0
330
0
330
0
330
0
330
0
330
0
330
0
330
0
330
0
330
0
330
0
330
0
330
0
330
0
330
0
330
0
330
0
330
0
330
0
330
0
330
0
330
0
330
0
330
0
330
0
330
0
330
0
330
0
330
0
330
0
330
0
330
0
330
0
330
0
330
0
330
0
330
0
330
0
330
0
330
0
330
0
330
0
330
0
330
0
330
0
330
0
330
0
330
0
330
0
330
0
330
0
330
0
330
0
330
0
330
0
330
0
330
0
330
0
330
0
330
0
330
0
330
0
330
0
330
0
330
0
330
0
330
0
330
0
330
0
330
0
330
0
330
0
330
0
330
0
330
0
330
0
330
0
330
0
330
0
330
0
330
0
330
0
330
0
330
0
330
0
330
0
330
0
330
0
330
0
330
0
330
0
330
0
330
0
330
0
330
0
330
0
330
0
330
0
330
0
330
0
330
0
330
0
330
0
330
0
330
0
330
0
330
0
330
0
330
0
330
0
330
0
330
0
330
0
330
0
330
0
330
0
330
0
330
0
330
0
330
0
330
0
330
0
330
0
330
0
330
0
330
0
330
0
330
0
330
0
330
0
330
0
330
0
330
0
330
0
330
0
330
0
330
0
330
0
330
0
330
0
330
0
330
0
330
0
330
0
330
0
330
0
330
0
330
0
330
0
330
0
330
0
330
0
330
0
330
0
330
0
330
0
330
0
330
0
330
0
330
0
330
0
330
0
330
0
330
0
330
0
330
0
330
0
330
0
330
0
330
0
330
0
330
0
330
0
330
0
330
0
330
0
330
0
330
0
330
0
330
0
330
0
330
0
330
0
330
0
330
0
330
0
330
0
330
0
330
0
330
0
330
0
330
0
330
0
330
0
330
0
330
0
330
0
330
0
330
0
330
0
330
0
330
0
330
0
330
0
330
0
330
0
330
0
330
0
330
0
330
0
330
0
330
0
330
0
330
0
330
0
330
0
330
0
330
0
330
0
330
0
330
0
330
0
330
0
330
0
330
0
330
0
330
0
330
0
330
0
330
0
330
0
330
0
330
0
330
0
330
0
330
0
330
0
330
0
330
0
330
0
330
0
330
0
330
0
330
0
330
0
330
0
330
0
330
0
330
0
330
0
330
0
330
0
330
0
330
0
330
0
330
0
330
0
330
0
330
0
330
0
330
0
330
0
330
0
330
0
330
0
330
0
330
0
330
0
330
0
330
0
330
0
330
0
330
0
330
0
330
0
330
0
330
0
330
0
330
0
330
0
330
0
330
0
330
0
330
0
330
0
330
0
330
0
330
0
330
0
330
0
330
0
330
0
330
0
330
0
330
0
330
0
330
0
330
0
330
0
330
0
330
0
330
0
330
0
330
0
330
0
330
0
330
0
330
0
330
0
330
0
330
0
330
0
330
0
330
0
330
0
330
0
330
0
330
0
330
0
330
0
330
0
330
0
330
0
330
0
330
0
330
0
330
0
330
0
330
0
330
0
330
0
330
0
330
0
330
0
330
0
330
0
330
0
330
0
330
0
330
0
330
0
330
0
330
0
330
0
330
0
330
0
330
0
330
0
330
0
330
0
330
0
330
0
330
0
330
0
330
0
330
0
330
0
330
0
330
0
330
0
330
0
330
0
330
0
330
0
330
0
330
0
330
0
330
0
330
0
330
0
330
0
330
0
330
0
330
0
330
0
330
0
330
0
330
0
330
0
330
0
330
0
330
0
330
0
330
0
330
0
330
0
330
0
330
0
330
0
330
0
330
0
330
0
330
0
330
0
330
0
330
0
330
0
330
0
330
0
330
0
330
0
330
0
330
0
330
0
330
0
330
0
330
0
330
0
330
0
330
0
330
0
330
0
330
0
330
0
330
0
330
0
330
0
330
0
330
0
330
0
330
0
330
0
330
0
330
0
330
0
330
0
330
0
330
0
330
0
330
0
330
0
330
0
330
0
330
0
330
0
330
0
330
0
330
0
330
0
330
0
330
0
330
0
330
0
330
0
330
0
330
0
330
0
330
0
330
0
330
0
330
0
330
0
330
0
330
0
330
0
330
0
330
0
330
0
330
0
330
0
330
0
330
0
330
0
330
0
330
0
330
0
330
0
330
0
330
0
330
0
330
0
330
0
330
0
330
0
330
0
330
0
330
0
330
0
330
0
  0
ENDSEC
  0
EOF
