  0
SECTION
  2
HEADER
  9
$ACADVER
  1
AC1015
  9
$ACADMAINTVER
 70
     6
  9
$DWGCODEPAGE
  3
ANSI_932
  9
$INSBASE
 10
0.0
 20
0.0
 30
0.0
  9
$EXTMIN
 10
815.3086623289801
 20
-6532.343066932045
 30
0.0
  9
$EXTMAX
 10
962.8325018230262
 20
-6409.173206920249
 30
0.0
  9
$LIMMIN
 10
0.0
 20
0.0
  9
$LIMMAX
 10
840.0
 20
594.0
  9
$ORTHOMODE
 70
     1
  9
$REGENMODE
 70
     1
  9
$FILLMODE
 70
     1
  9
$QTEXTMODE
 70
     0
  9
$MIRRTEXT
 70
     1
  9
$LTSCALE
 40
7.0
  9
$ATTMODE
 70
     0
  9
$TEXTSIZE
 40
6.0
  9
$TRACEWID
 40
1.0
  9
$TEXTSTYLE
  7
STANDARD
  9
$CLAYER
  8
寸法線
  9
$CELTYPE
  6
BYLAYER
  9
$CECOLOR
 62
   256
  9
$CELTSCALE
 40
1.0
  9
$DISPSILH
 70
     0
  9
$DIMSCALE
 40
3.0
  9
$DIMASZ
 40
2.5
  9
$DIMEXO
 40
1.5
  9
$DIMDLI
 40
7.0
  9
$DIMRND
 40
0.0
  9
$DIMDLE
 40
0.0
  9
$DIMEXE
 40
1.0
  9
$DIMTP
 40
0.0
  9
$DIMTM
 40
0.0
  9
$DIMTXT
 40
3.0
  9
$DIMCEN
 40
0.0
  9
$DIMTSZ
 40
0.0
  9
$DIMTOL
 70
     0
  9
$DIMLIM
 70
     0
  9
$DIMTIH
 70
     0
  9
$DIMTOH
 70
     0
  9
$DIMSE1
 70
     0
  9
$DIMSE2
 70
     0
  9
$DIMTAD
 70
     3
  9
$DIMZIN
 70
     8
  9
$DIMBLK
  1
Open30
  9
$DIMASO
 70
     1
  9
$DIMSHO
 70
     0
  9
$DIMPOST
  1

  9
$DIMAPOST
  1

  9
$DIMALT
 70
     0
  9
$DIMALTD
 70
     2
  9
$DIMALTF
 40
25.4
  9
$DIMLFAC
 40
1.0
  9
$DIMTOFL
 70
     1
  9
$DIMTVP
 40
0.0
  9
$DIMTIX
 70
     0
  9
$DIMSOXD
 70
     0
  9
$DIMSAH
 70
     0
  9
$DIMBLK1
  1

  9
$DIMBLK2
  1

  9
$DIMSTYLE
  2
STANDARD
  9
$DIMCLRD
 70
     8
  9
$DIMCLRE
 70
     8
  9
$DIMCLRT
 70
   256
  9
$DIMTFAC
 40
0.6
  9
$DIMGAP
 40
1.0
  9
$DIMJUST
 70
     0
  9
$DIMSD1
 70
     0
  9
$DIMSD2
 70
     0
  9
$DIMTOLJ
 70
     1
  9
$DIMTZIN
 70
     0
  9
$DIMALTZ
 70
     0
  9
$DIMALTTZ
 70
     0
  9
$DIMUPT
 70
     0
  9
$DIMDEC
 70
     2
  9
$DIMTDEC
 70
     2
  9
$DIMALTU
 70
     2
  9
$DIMALTTD
 70
     2
  9
$DIMTXSTY
  7
STANDARD
  9
$DIMAUNIT
 70
     0
  9
$DIMADEC
 70
     2
  9
$DIMALTRND
 40
0.0
  9
$DIMAZIN
 70
     2
  9
$DIMDSEP
 70
    46
  9
$DIMATFIT
 70
     0
  9
$DIMFRAC
 70
     0
  9
$DIMLDRBLK
  1
Open30
  9
$DIMLUNIT
 70
     2
  9
$DIMLWD
 70
    -2
  9
$DIMLWE
 70
    -1
  9
$DIMTMOVE
 70
     0
  9
$LUNITS
 70
     2
  9
$LUPREC
 70
     2
  9
$SKETCHINC
 40
0.1
  9
$FILLETRAD
 40
0.4
  9
$AUNITS
 70
     0
  9
$AUPREC
 70
     2
  9
$MENU
  1
ACAD
  9
$ELEVATION
 40
0.0
  9
$PELEVATION
 40
0.0
  9
$THICKNESS
 40
0.0
  9
$LIMCHECK
 70
     0
  9
$CHAMFERA
 40
0.0
  9
$CHAMFERB
 40
0.0
  9
$CHAMFERC
 40
0.0
  9
$CHAMFERD
 40
0.0
  9
$SKPOLY
 70
     0
  9
$TDCREATE
 40
2449505.922222222
  9
$TDUCREATE
 40
2449505.547222222
  9
$TDUPDATE
 40
2456822.474217164
  9
$TDUUPDATE
 40
2456822.099217164
  9
$TDINDWG
 40
9.2436894676
  9
$TDUSRTIMER
 40
2456822.099092072
  9
$USRTIMER
 70
     1
  9
$ANGBASE
 50
0.0
  9
$ANGDIR
 70
     0
  9
$PDMODE
 70
     3
  9
$PDSIZE
 40
0.0
  9
$PLINEWID
 40
0.0
  9
$SPLFRAME
 70
     0
  9
$SPLINETYPE
 70
     6
  9
$SPLINESEGS
 70
     8
  9
$HANDSEED
  5
BA46B
  9
$SURFTAB1
 70
     6
  9
$SURFTAB2
 70
     6
  9
$SURFTYPE
 70
     6
  9
$SURFU
 70
     6
  9
$SURFV
 70
     6
  9
$UCSBASE
  2

  9
$UCSNAME
  2

  9
$UCSORG
 10
0.0
 20
0.0
 30
0.0
  9
$UCSXDIR
 10
1.0
 20
0.0
 30
0.0
  9
$UCSYDIR
 10
0.0
 20
1.0
 30
0.0
  9
$UCSORTHOREF
  2

  9
$UCSORTHOVIEW
 70
     0
  9
$UCSORGTOP
 10
0.0
 20
0.0
 30
0.0
  9
$UCSORGBOTTOM
 10
0.0
 20
0.0
 30
0.0
  9
$UCSORGLEFT
 10
0.0
 20
0.0
 30
0.0
  9
$UCSORGRIGHT
 10
0.0
 20
0.0
 30
0.0
  9
$UCSORGFRONT
 10
0.0
 20
0.0
 30
0.0
  9
$UCSORGBACK
 10
0.0
 20
0.0
 30
0.0
  9
$PUCSBASE
  2

  9
$PUCSNAME
  2

  9
$PUCSORG
 10
0.0
 20
0.0
 30
0.0
  9
$PUCSXDIR
 10
1.0
 20
0.0
 30
0.0
  9
$PUCSYDIR
 10
0.0
 20
1.0
 30
0.0
  9
$PUCSORTHOREF
  2

  9
$PUCSORTHOVIEW
 70
     0
  9
$PUCSORGTOP
 10
0.0
 20
0.0
 30
0.0
  9
$PUCSORGBOTTOM
 10
0.0
 20
0.0
 30
0.0
  9
$PUCSORGLEFT
 10
0.0
 20
0.0
 30
0.0
  9
$PUCSORGRIGHT
 10
0.0
 20
0.0
 30
0.0
  9
$PUCSORGFRONT
 10
0.0
 20
0.0
 30
0.0
  9
$PUCSORGBACK
 10
0.0
 20
0.0
 30
0.0
  9
$USERI1
 70
     0
  9
$USERI2
 70
     0
  9
$USERI3
 70
     0
  9
$USERI4
 70
     0
  9
$USERI5
 70
     0
  9
$USERR1
 40
0.0
  9
$USERR2
 40
0.0
  9
$USERR3
 40
0.0
  9
$USERR4
 40
0.0
  9
$USERR5
 40
0.0
  9
$WORLDVIEW
 70
     0
  9
$SHADEDGE
 70
     3
  9
$SHADEDIF
 70
    70
  9
$TILEMODE
 70
     1
  9
$MAXACTVP
 70
    16
  9
$PINSBASE
 10
0.0
 20
0.0
 30
0.0
  9
$PLIMCHECK
 70
     0
  9
$PEXTMIN
 10
0.0
 20
0.0
 30
0.0
  9
$PEXTMAX
 10
0.0
 20
0.0
 30
0.0
  9
$PLIMMIN
 10
0.0
 20
0.0
  9
$PLIMMAX
 10
0.0
 20
0.0
  9
$UNITMODE
 70
     0
  9
$VISRETAIN
 70
     0
  9
$PLINEGEN
 70
     0
  9
$PSLTSCALE
 70
     0
  9
$TREEDEPTH
 70
  3020
  9
$CMLSTYLE
  2
STANDARD
  9
$CMLJUST
 70
     0
  9
$CMLSCALE
 40
1.0
  9
$PROXYGRAPHICS
 70
     1
  9
$MEASUREMENT
 70
     0
  9
$CELWEIGHT
370
    -1
  9
$ENDCAPS
280
     0
  9
$JOINSTYLE
280
     0
  9
$LWDISPLAY
290
     0
  9
$INSUNITS
 70
     0
  9
$HYPERLINKBASE
  1

  9
$STYLESHEET
  1
spax form.ctb
  9
$XEDIT
290
     1
  9
$CEPSNTYPE
380
     0
  9
$PSTYLEMODE
290
     1
  9
$FINGERPRINTGUID
  2
{C1CFCF3E-DF91-11D3-B30C-0060B0FA8DFC}
  9
$VERSIONGUID
  2
{C17CD573-CCFF-4F8E-AA63-A6A48818A048}
  9
$EXTNAMES
290
     1
  9
$PSVPSCALE
 40
0.0
  9
$OLESTARTUP
290
     0
  0
ENDSEC
  0
SECTION
  2
CLASSES
  0
CLASS
  1
LWPOLYLINE
  2
AcDbPolyline
  3
ObjectDBX Classes
 90
        0
280
     0
281
     1
  0
CLASS
  1
ACDBDICTIONARYWDFLT
  2
AcDbDictionaryWithDefault
  3
ObjectDBX Classes
 90
        0
280
     0
281
     0
  0
CLASS
  1
ACDBPLACEHOLDER
  2
AcDbPlaceHolder
  3
ObjectDBX Classes
 90
        0
280
     0
281
     0
  0
CLASS
  1
LAYOUT
  2
AcDbLayout
  3
ObjectDBX Classes
 90
        0
280
     0
281
     0
  0
CLASS
  1
DICTIONARYVAR
  2
AcDbDictionaryVar
  3
ObjectDBX Classes
 90
        0
280
     0
281
     0
  0
CLASS
  1
MATERIAL
  2
AcDbMaterial
  3
ObjectDBX Classes
 90
     1153
280
     0
281
     0
  0
CLASS
  1
VISUALSTYLE
  2
AcDbVisualStyle
  3
ObjectDBX Classes
 90
     4095
280
     0
281
     0
  0
CLASS
  1
TABLESTYLE
  2
AcDbTableStyle
  3
ObjectDBX Classes
 90
     4095
280
     0
281
     0
  0
CLASS
  1
SCALE
  2
AcDbScale
  3
ObjectDBX Classes
 90
     1153
280
     0
281
     0
  0
CLASS
  1
MLEADERSTYLE
  2
AcDbMLeaderStyle
  3
ACDB_MLEADERSTYLE_CLASS
 90
     4095
280
     0
281
     0
  0
CLASS
  1
CELLSTYLEMAP
  2
AcDbCellStyleMap
  3
ObjectDBX Classes
 90
     1152
280
     0
281
     0
  0
CLASS
  1
SORTENTSTABLE
  2
AcDbSortentsTable
  3
ObjectDBX Classes
 90
        0
280
     0
281
     0
  0
CLASS
  1
RASTERVARIABLES
  2
AcDbRasterVariables
  3
ISM
 90
        0
280
     0
281
     0
  0
CLASS
  1
SUN
  2
AcDbSun
  3
SCENEOE
 90
     1153
280
     0
281
     0
  0
ENDSEC
  0
SECTION
  2
TABLES
  0
TABLE
  2
VPORT
  5
8
330
0
100
AcDbSymbolTable
 70
     1
  0
VPORT
  5
B6CAF
330
8
100
AcDbSymbolTableRecord
100
AcDbViewportTableRecord
  2
*Active
 70
     0
 10
0.0
 20
0.0
 11
1.0
 21
1.0
 12
889.0705820760031
 22
-6470.758136926147
 13
0.0
 23
0.0
 14
1.0
 24
1.0
 15
20.0
 25
20.0
 16
0.0
 26
0.0
 36
1.0
 17
0.0
 27
0.0
 37
0.0
 40
125.633257212032
 41
1.731829573934837
 42
50.0
 43
0.0
 44
0.0
 50
0.0
 51
0.0
 71
    16
 72
  2000
 73
     1
 74
     0
 75
     0
 76
     0
 77
     0
 78
     1
281
     0
 65
     1
110
0.0
120
0.0
130
0.0
111
1.0
121
0.0
131
0.0
112
0.0
122
1.0
132
0.0
 79
     0
146
0.0
  0
ENDTAB
  0
TABLE
  2
LTYPE
  5
5
330
0
100
AcDbSymbolTable
 70
     4
  0
LTYPE
  5
12
330
5
100
AcDbSymbolTableRecord
100
AcDbLinetypeTableRecord
  2
BYBLOCK
 70
     0
  3

 72
    65
 73
     0
 40
0.0
  0
LTYPE
  5
13
330
5
100
AcDbSymbolTableRecord
100
AcDbLinetypeTableRecord
  2
BYLAYER
 70
     0
  3

 72
    65
 73
     0
 40
0.0
  0
LTYPE
  5
14
330
5
100
AcDbSymbolTableRecord
100
AcDbLinetypeTableRecord
  2
CONTINUOUS
 70
     0
  3
Solid line
 72
    65
 73
     0
 40
0.0
  0
LTYPE
  5
3D
330
5
100
AcDbSymbolTableRecord
100
AcDbLinetypeTableRecord
  2
PHANTOM
 70
     0
  3
_____ _ _ _____ _ _ _____ _ _ _____ _ _ ____
 72
    65
 73
     6
 40
2.5
 49
1.25
 74
     0
 49
-0.25
 74
     0
 49
0.25
 74
     0
 49
-0.25
 74
     0
 49
0.25
 74
     0
 49
-0.25
 74
     0
  0
LTYPE
  5
40D2
330
5
100
AcDbSymbolTableRecord
100
AcDbLinetypeTableRecord
  2
CENTER
 70
     0
  3
____ _ ____ _ ____ _ ____ _ ____ _ ____ _ ____ 
 72
    65
 73
     4
 40
2.0
 49
1.25
 74
     0
 49
-0.25
 74
     0
 49
0.25
 74
     0
 49
-0.25
 74
     0
  0
LTYPE
  5
4FFAC
330
5
100
AcDbSymbolTableRecord
100
AcDbLinetypeTableRecord
  2
HIDDEN
 70
     0
  3
_ _ _ _ _ _ _ _ _ _ _ _ _ _ _ _ _ _ _ _ _ _ _
 72
    65
 73
     2
 40
0.375
 49
0.25
 74
     0
 49
-0.125
 74
     0
  0
ENDTAB
  0
TABLE
  2
LAYER
  5
2
102
{ACAD_XDICTIONARY
360
B1183
102
}
330
0
100
AcDbSymbolTable
 70
    11
  0
LAYER
  5
F
102
{ACAD_XDICTIONARY
360
B6267
102
}
330
2
100
AcDbSymbolTableRecord
100
AcDbLayerTableRecord
  2
0
 70
     0
 62
     7
  6
CONTINUOUS
370
    -3
390
40CA
  0
LAYER
  5
4C
102
{ACAD_XDICTIONARY
360
B626F
102
}
330
2
100
AcDbSymbolTableRecord
100
AcDbLayerTableRecord
  2
寸法線
 70
     0
 62
     7
  6
CONTINUOUS
370
    -3
390
40CA
  0
LAYER
  5
40D4
102
{ACAD_XDICTIONARY
360
B6273
102
}
330
2
100
AcDbSymbolTableRecord
100
AcDbLayerTableRecord
  2
文字
 70
     0
 62
     7
  6
CONTINUOUS
370
    -3
390
40CA
  0
LAYER
  5
4F9B7
102
{ACAD_XDICTIONARY
360
B6277
102
}
330
2
100
AcDbSymbolTableRecord
100
AcDbLayerTableRecord
  2
姿図
 70
     0
 62
     8
  6
CONTINUOUS
370
    -3
390
40CA
  0
ENDTAB
  0
TABLE
  2
STYLE
  5
3
330
0
100
AcDbSymbolTable
 70
     1
  0
STYLE
  5
10
330
3
100
AcDbSymbolTableRecord
100
AcDbTextStyleTableRecord
  2
STANDARD
 70
     0
 40
0.0
 41
1.0
 50
0.0
 71
     0
 42
6.0
  3
MONOTXT
  4
BIGFONT
  0
ENDTAB
  0
TABLE
  2
VIEW
  5
6
330
0
100
AcDbSymbolTable
 70
     1
  0
VIEW
  5
41
330
6
100
AcDbSymbolTableRecord
100
AcDbViewTableRecord
  2
CUT1
 70
     0
 40
612.7795527156796
 10
420.0000000000169
 20
306.3897763578398
 41
840.0000000000338
 11
0.0
 21
0.0
 31
1.0
 12
0.0
 22
0.0
 32
0.0
 42
50.0
 43
0.0
 44
0.0
 50
0.0
 71
     0
281
     0
 72
     0
  0
ENDTAB
  0
TABLE
  2
UCS
  5
7
330
0
100
AcDbSymbolTable
 70
     0
  0
ENDTAB
  0
TABLE
  2
APPID
  5
9
330
0
100
AcDbSymbolTable
 70
     9
  0
APPID
  5
11
330
9
100
AcDbSymbolTableRecord
100
AcDbRegAppTableRecord
  2
ACAD
 70
     0
  0
APPID
  5
B1180
330
9
100
AcDbSymbolTableRecord
100
AcDbRegAppTableRecord
  2
GENIUS_GENODEF_13
 70
     0
  0
APPID
  5
B1181
330
9
100
AcDbSymbolTableRecord
100
AcDbRegAppTableRecord
  2
GENIUS_GENREC_14
 70
     0
  0
APPID
  5
B1182
330
9
100
AcDbSymbolTableRecord
100
AcDbRegAppTableRecord
  2
GENIUS_GENOBJ-N-REC_13
 70
     0
  0
APPID
  5
B593E
330
9
100
AcDbSymbolTableRecord
100
AcDbRegAppTableRecord
  2
ACAD_MLEADERVER
 70
     0
  0
APPID
  5
B625C
330
9
100
AcDbSymbolTableRecord
100
AcDbRegAppTableRecord
  2
ACAD_EXEMPT_FROM_CAD_STANDARDS
 70
     0
  0
APPID
  5
B62A8
330
9
100
AcDbSymbolTableRecord
100
AcDbRegAppTableRecord
  2
ACAD_PSEXT
 70
     0
  0
APPID
  5
B801C
330
9
100
AcDbSymbolTableRecord
100
AcDbRegAppTableRecord
  2
ACAD_DSTYLE_DIMJAG
 70
     0
  0
APPID
  5
B801D
330
9
100
AcDbSymbolTableRecord
100
AcDbRegAppTableRecord
  2
ACAD_DSTYLE_DIMTALN
 70
     0
  0
ENDTAB
  0
TABLE
  2
DIMSTYLE
  5
A
330
0
100
AcDbSymbolTable
 70
     3
100
AcDbDimStyleTable
  0
DIMSTYLE
105
1B3A
330
A
100
AcDbSymbolTableRecord
100
AcDbDimStyleTableRecord
  2
STANDARD
 70
     0
 40
3.0
 41
2.5
 42
1.5
 43
7.0
 44
1.0
 73
     0
 74
     0
 77
     3
 78
     8
 79
     2
140
3.0
141
0.0
146
0.6
147
1.0
172
     1
176
     8
177
     8
271
     2
178
   256
179
     2
271
     2
272
     2
289
     0
340
10
341
B4255
342
B4255
372
    -1
1001
ACAD_DSTYLE_DIMJAG
1070
   388
1040
1.5
1001
ACAD_DSTYLE_DIMTALN
1070
   392
1070
     0
  0
ENDTAB
  0
TABLE
  2
BLOCK_RECORD
  5
1
330
0
100
AcDbSymbolTable
 70
    25
  0
BLOCK_RECORD
  5
18
102
{ACAD_XDICTIONARY
360
B7666
102
}
330
1
100
AcDbSymbolTableRecord
100
AcDbBlockTableRecord
  2
*MODEL_SPACE
340
40CD
  0
BLOCK_RECORD
  5
15
330
1
100
AcDbSymbolTableRecord
100
AcDbBlockTableRecord
  2
*PAPER_SPACE
340
40CE
  0
BLOCK_RECORD
  5
B4255
330
1
100
AcDbSymbolTableRecord
100
AcDbBlockTableRecord
  2
_Open30
340
0
102
{BLKREFS
331
B9708
331
B9709
331
B9711
331
B9712
331
B971A
331
B971B
331
B9723
331
B9724
331
B9754
331
B9755
331
B975F
331
B9760
331
B9768
331
B9769
331
B9773
331
B9774
331
B9787
331
B9788
331
B9790
331
B9791
331
B97BF
331
B97C0
331
BA341
331
BA342
331
BA34A
331
BA34B
331
BA353
331
BA354
331
BA35E
331
BA35F
331
BA367
331
BA368
331
BA370
331
BA371
331
BA379
331
BA37A
331
BA384
331
BA385
331
BA38D
331
BA38E
331
BA398
331
BA399
331
BA3A1
331
BA3A2
331
BA3AC
331
BA3AD
102
}
  0
BLOCK_RECORD
  5
B8006
330
1
100
AcDbSymbolTableRecord
100
AcDbBlockTableRecord
  2
SUN
340
0
  0
ENDTAB
  0
ENDSEC
  0
SECTION
  2
BLOCKS
  0
BLOCK
  5
52
330
18
100
AcDbEntity
  8
0
100
AcDbBlockBegin
  2
*MODEL_SPACE
 70
     0
 10
0.0
 20
0.0
 30
0.0
  3
*MODEL_SPACE
  1
*MODEL_SPACE
  0
ENDBLK
  5
53
330
18
100
AcDbEntity
  8
0
100
AcDbBlockEnd
  0
BLOCK
  5
50
330
15
100
AcDbEntity
 67
     1
  8
0
100
AcDbBlockBegin
  2
*PAPER_SPACE
 70
     0
 10
0.0
 20
0.0
 30
0.0
  3
*PAPER_SPACE
  1
*PAPER_SPACE
  0
ENDBLK
  5
51
330
15
100
AcDbEntity
 67
     1
  8
0
100
AcDbBlockEnd
  0
BLOCK
  5
B4256
330
B4255
100
AcDbEntity
  8
0
100
AcDbBlockBegin
  2
_Open30
 70
     0
 10
0.0
 20
0.0
 30
0.0
  3
_Open30
  1
_Open30
  0
LINE
  5
B4257
330
B4255
100
AcDbEntity
  8
寸法線
 62
     0
370
    -2
100
AcDbLine
 10
-1.0
 20
0.26794919
 30
0.0
 11
0.0
 21
0.0
 31
0.0
  0
LINE
  5
B4258
330
B4255
100
AcDbEntity
  8
寸法線
 62
     0
370
    -2
100
AcDbLine
 10
0.0
 20
0.0
 30
0.0
 11
-1.0
 21
-0.26794919
 31
0.0
  0
LINE
  5
B4259
330
B4255
100
AcDbEntity
  8
寸法線
 62
     0
370
    -2
100
AcDbLine
 10
0.0
 20
0.0
 30
0.0
 11
-1.0
 21
0.0
 31
0.0
  0
ENDBLK
  5
B425A
330
B4255
100
AcDbEntity
  8
0
100
AcDbBlockEnd
  0
BLOCK
  5
B8007
330
B8006
100
AcDbEntity
  8
0
100
AcDbBlockBegin
  2
SUN
 70
     0
 10
0.0
 20
0.0
 30
0.0
  3
SUN
  1
SUN
  0
LINE
  5
B8008
330
B8006
100
AcDbEntity
  8
0
100
AcDbLine
 10
-0.0000000000000568
 20
0.0
 30
0.0
 11
-1.500000000000057
 21
0.0
 31
0.0
  0
LINE
  5
B8009
330
B8006
100
AcDbEntity
  8
0
100
AcDbLine
 10
-0.0000000000000568
 20
0.0000000000000284
 30
0.0
 11
-1.500000000000057
 21
0.401923788646684
 31
0.0
  0
LINE
  5
B800A
330
B8006
100
AcDbEntity
  8
0
100
AcDbLine
 10
-0.0000000000000568
 20
0.0000000000000284
 30
0.0
 11
-1.500000000000057
 21
-0.4019237886466556
 31
0.0
  0
ENDBLK
  5
B800B
330
B8006
100
AcDbEntity
  8
0
100
AcDbBlockEnd
  0
ENDSEC
  0
SECTION
  2
ENTITIES
  0
LINE
  5
B7A5C
330
18
100
AcDbEntity
  8
姿図
100
AcDbLine
 10
953.2717585739938
 20
-6463.04644440773
 30
0.0
 11
961.1910907858455
 21
-6458.212212466514
 31
0.0
  0
LINE
  5
B7A5D
330
18
100
AcDbEntity
  8
姿図
100
AcDbLine
 10
962.182505282135
 20
-6458.568389759619
 30
0.0
 11
955.4110327080507
 21
-6456.135658766879
 31
0.0
  0
LINE
  5
B7A5E
330
18
100
AcDbEntity
  8
姿図
100
AcDbLine
 10
962.4904773513135
 20
-6457.419022350135
 30
0.0
 11
955.7190047772292
 21
-6454.986291357394
 31
0.0
  0
LINE
  5
B7A5F
330
18
100
AcDbEntity
  8
姿図
100
AcDbLine
 10
962.8325018230262
 20
-6474.641664245417
 30
0.0
 11
846.9623106606141
 21
-6440.677633703142
 31
0.0
  0
LINE
  5
B7A60
330
18
100
AcDbEntity
  8
姿図
100
AcDbLine
 10
962.8325018230262
 20
-6473.967104392457
 30
0.0
 11
846.9623106606141
 21
-6439.500039345207
 31
0.0
  0
LINE
  5
B7A61
330
18
100
AcDbEntity
  8
姿図
100
AcDbLine
 10
928.9108535768773
 20
-6483.083335413263
 30
0.0
 11
962.8325018230262
 21
-6474.641664245417
 31
0.0
  0
LINE
  5
B7A74
330
18
100
AcDbEntity
  8
姿図
100
AcDbLine
 10
956.8735441849258
 20
-6448.19124110483
 30
0.0
 11
847.9534233273262
 21
-6409.173206920249
 31
0.0
  0
LINE
  5
B7A75
330
18
100
AcDbEntity
  8
姿図
100
AcDbLine
 10
956.5433665009241
 20
-6452.908477960128
 30
0.0
 11
847.9232456433292
 21
-6415.551955342381
 31
0.0
  0
LINE
  5
B7A76
330
18
100
AcDbEntity
  8
姿図
100
AcDbLine
 10
956.8735441849258
 20
-6452.806401379013
 30
0.0
 11
848.2534233273273
 21
-6415.354971040245
 31
0.0
  0
LINE
  5
B7A77
330
18
100
AcDbEntity
  8
姿図
100
AcDbLine
 10
956.4972618167503
 20
-6474.622250254975
 30
0.0
 11
847.9534233273225
 21
-6444.04984527897
 31
0.0
  0
LINE
  5
B7A7E
330
18
100
AcDbEntity
  8
姿図
100
AcDbLine
 10
928.9108535768773
 20
-6483.083335413263
 30
0.0
 11
815.3086623289801
 21
-6458.331187281049
 31
0.0
  0
LINE
  5
B7A7F
330
18
100
AcDbEntity
  8
姿図
100
AcDbLine
 10
928.9127380964583
 20
-6481.567365116789
 30
0.0
 11
822.9402908443972
 21
-6457.722100410047
 31
0.0
  0
LINE
  5
B7A89
330
18
100
AcDbEntity
  8
姿図
100
AcDbLine
 10
862.0996163907421
 20
-6444.216962210216
 30
0.0
 11
865.820087834587
 21
-6437.016879364995
 31
0.0
  0
LINE
  5
B7A8A
330
18
100
AcDbEntity
  8
姿図
100
AcDbLine
 10
858.9133772930563
 20
-6434.535562545288
 30
0.0
 11
868.3961364695697
 21
-6428.532507733065
 31
0.0
  0
LINE
  5
B7A8B
330
18
100
AcDbEntity
  8
姿図
100
AcDbLine
 10
865.8200878345851
 20
-6437.016879364997
 30
0.0
 11
858.9133772930563
 21
-6434.535562545288
 31
0.0
  0
LINE
  5
B7A96
330
18
100
AcDbEntity
  8
姿図
100
AcDbLine
 10
847.9232456433219
 20
-6439.797144066765
 30
0.0
 11
847.9232456433238
 21
-6415.551955342377
 31
0.0
  0
LINE
  5
B7A97
330
18
100
AcDbEntity
  8
姿図
100
AcDbLine
 10
847.9232456433183
 20
-6439.797144066765
 30
0.0
 11
847.9232456433201
 21
-6420.685213219321
 31
0.0
  0
LINE
  5
B7A98
330
18
100
AcDbEntity
  8
姿図
100
AcDbLine
 10
846.9623106606141
 20
-6440.677633703142
 30
0.0
 11
846.9623106606141
 21
-6439.500039345207
 31
0.0
  0
LINE
  5
B7A99
330
18
100
AcDbEntity
  8
姿図
100
AcDbLine
 10
847.9534233273225
 20
-6444.04984527897
 30
0.0
 11
846.9623106606141
 21
-6440.677633703142
 31
0.0
  0
LINE
  5
B7A9A
330
18
100
AcDbEntity
  8
姿図
100
AcDbLine
 10
847.9534233273262
 20
-6415.239104389465
 30
0.0
 11
847.9534233273262
 21
-6409.173206920249
 31
0.0
  0
LINE
  5
B7A9B
330
18
100
AcDbEntity
  8
姿図
100
AcDbLine
 10
848.2534233273273
 20
-6415.354971040245
 30
0.0
 11
847.9534233273262
 21
-6415.239104389465
 31
0.0
  0
LINE
  5
B7A9C
330
18
100
AcDbEntity
  8
姿図
100
AcDbLine
 10
855.0464253390946
 20
-6442.019123391609
 30
0.0
 11
858.9133772930563
 21
-6434.535562545287
 31
0.0
  0
LINE
  5
B7AA6
330
18
100
AcDbEntity
  8
姿図
100
AcDbLine
 10
875.5240023370261
 20
-6431.093277199108
 30
0.0
 11
868.3961364695697
 21
-6428.532507733065
 31
0.0
  0
LINE
  5
B7AA7
330
18
100
AcDbEntity
  8
姿図
100
AcDbLine
 10
875.1998212115741
 20
-6432.303137630144
 30
0.0
 11
868.0719553441177
 21
-6429.742368164101
 31
0.0
  0
LINE
  5
B7AA8
330
18
100
AcDbEntity
  8
姿図
100
AcDbLine
 10
865.8200878345851
 20
-6437.016879364997
 30
0.0
 11
874.1562270049562
 21
-6431.928214163718
 31
0.0
  0
LINE
  5
B7AA9
330
18
100
AcDbEntity
  8
姿図
100
AcDbLine
 10
868.3961364695697
 20
-6428.532507733065
 30
0.0
 11
868.0719553441177
 21
-6429.742368164101
 31
0.0
  0
LINE
  5
B7AAA
330
18
100
AcDbEntity
  8
姿図
100
AcDbLine
 10
875.5240023370261
 20
-6431.093277199108
 30
0.0
 11
875.1998212115741
 21
-6432.303137630144
 31
0.0
  0
LINE
  5
B7AAB
330
18
100
AcDbEntity
  8
姿図
100
AcDbLine
 10
821.6727284173194
 20
-6432.208788893429
 30
0.0
 11
821.6727284173157
 21
-6427.036740713182
 31
0.0
  0
LINE
  5
B7AAC
330
18
100
AcDbEntity
  8
姿図
100
AcDbLine
 10
821.9727284173186
 20
-6432.324655544209
 30
0.0
 11
821.6727284173194
 21
-6432.208788893429
 31
0.0
  0
LINE
  5
B7AAD
330
18
100
AcDbEntity
  8
姿図
100
AcDbLine
 10
815.3086623289801
 20
-6458.331187281049
 30
0.0
 11
815.3086623289801
 21
-6457.259370605295
 31
0.0
  0
LINE
  5
B7AAE
330
18
100
AcDbEntity
  8
姿図
100
AcDbLine
 10
822.9402908443972
 20
-6457.722100410047
 30
0.0
 11
815.3086623289837
 21
-6458.331187281049
 31
0.0
  0
LINE
  5
B7AAF
330
18
100
AcDbEntity
  8
姿図
100
AcDbLine
 10
821.9727284173186
 20
-6453.520485407549
 30
0.0
 11
821.9727284173186
 21
-6432.324655544209
 31
0.0
  0
LINE
  5
B7AB0
330
18
100
AcDbEntity
  8
姿図
100
AcDbLine
 10
821.6727284173157
 20
-6427.036740713182
 30
0.0
 11
847.9534233273262
 21
-6409.173206920249
 31
0.0
  0
LINE
  5
B7AB1
330
18
100
AcDbEntity
  8
姿図
100
AcDbLine
 10
821.6727284173194
 20
-6432.208788893429
 30
0.0
 11
847.9534233273262
 21
-6415.239104389465
 31
0.0
  0
LINE
  5
B7AB2
330
18
100
AcDbEntity
  8
姿図
100
AcDbLine
 10
821.9727284173186
 20
-6432.324655544209
 30
0.0
 11
848.2534233273254
 21
-6415.354971040238
 31
0.0
  0
LINE
  5
B7AB3
330
18
100
AcDbEntity
  8
姿図
100
AcDbLine
 10
815.3086623289837
 20
-6458.331187281049
 30
0.0
 11
846.9623106606141
 21
-6440.677633703142
 31
0.0
  0
LINE
  5
B7AB4
330
18
100
AcDbEntity
  8
姿図
100
AcDbLine
 10
822.9402908443972
 20
-6457.722100410047
 30
0.0
 11
847.9534233273225
 21
-6444.04984527897
 31
0.0
  0
LINE
  5
B7AB5
330
18
100
AcDbEntity
  8
姿図
100
AcDbLine
 10
815.3086623289837
 20
-6457.259370605295
 30
0.0
 11
846.9623106606141
 21
-6439.500039345207
 31
0.0
  0
LINE
  5
B7AB6
330
18
100
AcDbEntity
  8
姿図
100
AcDbLine
 10
956.5433665009241
 20
-6455.282452981402
 30
0.0
 11
956.5433665009241
 21
-6452.908477960128
 31
0.0
  0
LINE
  5
B7AB7
330
18
100
AcDbEntity
  8
姿図
100
AcDbLine
 10
956.8735441849258
 20
-6452.806401379013
 30
0.0
 11
956.8735441849258
 21
-6448.19124110483
 31
0.0
  0
LINE
  5
B7AB8
330
18
100
AcDbEntity
  8
姿図
100
AcDbLine
 10
956.5433665009241
 20
-6452.908477960128
 30
0.0
 11
956.8735441849221
 21
-6452.806401379014
 31
0.0
  0
LINE
  5
B7AB9
330
18
100
AcDbEntity
  8
姿図
100
AcDbLine
 10
949.737310702345
 20
-6469.886523110687
 30
0.0
 11
953.2717585739938
 21
-6463.04644440773
 31
0.0
  0
LINE
  5
B7ABA
330
18
100
AcDbEntity
  8
姿図
100
AcDbLine
 10
956.5433665009241
 20
-6472.007352324895
 30
0.0
 11
956.5433665009241
 21
-6461.049342743549
 31
0.0
  0
LINE
  5
B7ABB
330
18
100
AcDbEntity
  8
姿図
100
AcDbLine
 10
955.7190047772292
 20
-6454.986291357394
 30
0.0
 11
955.4110327080507
 21
-6456.135658766879
 31
0.0
  0
LINE
  5
B7AD0
330
18
100
AcDbEntity
  8
姿図
100
AcDbLine
 10
943.0367792032794
 20
-6467.798576233011
 30
0.0
 11
946.7103835595426
 21
-6460.689193429006
 31
0.0
  0
LINE
  5
B7AE6
330
18
100
AcDbEntity
  8
姿図
100
AcDbLine
 10
928.9127380964583
 20
-6481.567365116789
 30
0.0
 11
928.9127380964583
 21
-6466.852806664411
 31
0.0
  0
LINE
  5
B7AF0
330
18
100
AcDbEntity
  8
姿図
100
AcDbLine
 10
953.2717585739938
 20
-6463.04644440773
 30
0.0
 11
946.7103835595408
 21
-6460.689193429008
 31
0.0
  0
LINE
  5
B7AF3
330
18
100
AcDbEntity
  8
姿図
100
AcDbLine
 10
928.9127380964583
 20
-6481.567365116789
 30
0.0
 11
956.4972618167503
 21
-6474.622250254975
 31
0.0
  0
LINE
  5
B7B01
330
18
100
AcDbEntity
  8
姿図
100
AcDbLine
 10
946.7103835595408
 20
-6460.689193429007
 30
0.0
 11
955.7190047772292
 21
-6454.986291357394
 31
0.0
  0
LINE
  5
B7B0C
330
18
100
AcDbEntity
  8
姿図
100
AcDbLine
 10
962.4904773513135
 20
-6457.419022350135
 30
0.0
 11
962.182505282135
 21
-6458.568389759619
 31
0.0
  0
LINE
  5
B7B0D
330
18
100
AcDbEntity
  8
姿図
100
AcDbLine
 10
962.8325018230262
 20
-6474.641664245417
 30
0.0
 11
962.8325018230262
 21
-6473.967104392457
 31
0.0
  0
TEXT
  5
B7E80
330
18
100
AcDbEntity
  8
文字
100
AcDbText
 10
831.6659227287066
 20
-6532.343066932045
 30
0.0
 40
14.4
  1
SX-LG083
100
AcDbText
  0
LINE
  5
BA247
330
18
100
AcDbEntity
  8
姿図
100
AcDbLine
 10
956.4972618167503
 20
-6474.622250254975
 30
0.0
 11
962.8325018230262
 21
-6474.641664245417
 31
0.0
  0
LINE
  5
BA248
330
18
100
AcDbEntity
  8
姿図
100
AcDbLine
 10
928.9127380964583
 20
-6481.567365116789
 30
0.0
 11
928.9108535768773
 21
-6483.083335413263
 31
0.0
  0
LINE
  5
BA3D5
330
18
100
AcDbEntity
  8
姿図
100
AcDbLine
 10
928.9127380964583
 20
-6481.054863600396
 30
0.0
 11
823.6044825211331
 21
-6457.35905119714
 31
0.0
  0
LINE
  5
BA3D6
330
18
100
AcDbEntity
  8
姿図
100
AcDbLine
 10
928.9127380964583
 20
-6480.542362084002
 30
0.0
 11
824.2686741978694
 21
-6456.996001984232
 31
0.0
  0
LINE
  5
BA3D7
330
18
100
AcDbEntity
  8
姿図
100
AcDbLine
 10
928.9127380964582
 20
-6480.02986056761
 30
0.0
 11
824.9328658746056
 21
-6456.632952771324
 31
0.0
  0
LINE
  5
BA3D8
330
18
100
AcDbEntity
  8
姿図
100
AcDbLine
 10
928.9127380964582
 20
-6479.51735905122
 30
0.0
 11
825.5970575513418
 21
-6456.269903558418
 31
0.0
  0
LINE
  5
BA3D9
330
18
100
AcDbEntity
  8
姿図
100
AcDbLine
 10
928.9127380964583
 20
-6479.004857534825
 30
0.0
 11
826.261249228078
 21
-6455.906854345511
 31
0.0
  0
LINE
  5
BA3DA
330
18
100
AcDbEntity
  8
姿図
100
AcDbLine
 10
928.9127380964583
 20
-6478.492356018432
 30
0.0
 11
826.9254409048142
 21
-6455.543805132603
 31
0.0
  0
LINE
  5
BA3DB
330
18
100
AcDbEntity
  8
姿図
100
AcDbLine
 10
928.9127380964583
 20
-6477.979854502039
 30
0.0
 11
827.5896325815513
 21
-6455.180755919695
 31
0.0
  0
LINE
  5
BA3DC
330
18
100
AcDbEntity
  8
姿図
100
AcDbLine
 10
928.9127380964583
 20
-6477.467352985647
 30
0.0
 11
828.2538242582875
 21
-6454.817706706787
 31
0.0
  0
LINE
  5
BA3DD
330
18
100
AcDbEntity
  8
姿図
100
AcDbLine
 10
928.9127380964583
 20
-6476.954851469253
 30
0.0
 11
828.9180159350237
 21
-6454.45465749388
 31
0.0
  0
LINE
  5
BA3DE
330
18
100
AcDbEntity
  8
姿図
100
AcDbLine
 10
928.9127380964582
 20
-6476.442349952862
 30
0.0
 11
829.582207611759
 21
-6454.091608280973
 31
0.0
  0
LINE
  5
BA3DF
330
18
100
AcDbEntity
  8
姿図
100
AcDbLine
 10
928.9127380964583
 20
-6475.929848436469
 30
0.0
 11
830.2463992884952
 21
-6453.728559068066
 31
0.0
  0
LINE
  5
BA3E0
330
18
100
AcDbEntity
  8
姿図
100
AcDbLine
 10
928.9127380964583
 20
-6475.417346920076
 30
0.0
 11
830.9105909652314
 21
-6453.365509855158
 31
0.0
  0
LINE
  5
BA3E1
330
18
100
AcDbEntity
  8
姿図
100
AcDbLine
 10
928.9127380964584
 20
-6474.904845403684
 30
0.0
 11
831.5747826419677
 21
-6453.00246064225
 31
0.0
  0
LINE
  5
BA3E2
330
18
100
AcDbEntity
  8
姿図
100
AcDbLine
 10
928.9127380964583
 20
-6474.39234388729
 30
0.0
 11
832.2389743187039
 21
-6452.639411429343
 31
0.0
  0
LINE
  5
BA3E3
330
18
100
AcDbEntity
  8
姿図
100
AcDbLine
 10
928.9127380964583
 20
-6473.879842370898
 30
0.0
 11
832.9031659954401
 21
-6452.276362216436
 31
0.0
  0
LINE
  5
BA3E4
330
18
100
AcDbEntity
  8
姿図
100
AcDbLine
 10
928.9127380964582
 20
-6473.367340854504
 30
0.0
 11
833.5673576721772
 21
-6451.913313003528
 31
0.0
  0
LINE
  5
BA3E5
330
18
100
AcDbEntity
  8
姿図
100
AcDbLine
 10
928.9127380964582
 20
-6472.854839338112
 30
0.0
 11
834.2315493489134
 21
-6451.55026379062
 31
0.0
  0
LINE
  5
BA3E6
330
18
100
AcDbEntity
  8
姿図
100
AcDbLine
 10
928.9127380964583
 20
-6472.34233782172
 30
0.0
 11
834.8957410256496
 21
-6451.187214577712
 31
0.0
  0
LINE
  5
BA3E7
330
18
100
AcDbEntity
  8
姿図
100
AcDbLine
 10
928.9127380964583
 20
-6471.829836305326
 30
0.0
 11
835.5599327023858
 21
-6450.824165364806
 31
0.0
  0
LINE
  5
BA3E8
330
18
100
AcDbEntity
  8
姿図
100
AcDbLine
 10
928.9127380964583
 20
-6471.317334788935
 30
0.0
 11
836.2241243791211
 21
-6450.461116151899
 31
0.0
  0
LINE
  5
BA3E9
330
18
100
AcDbEntity
  8
姿図
100
AcDbLine
 10
928.9127380964583
 20
-6470.804833272543
 30
0.0
 11
836.8883160558564
 21
-6450.098066938992
 31
0.0
  0
LINE
  5
BA3EA
330
18
100
AcDbEntity
  8
姿図
100
AcDbLine
 10
928.9127380964584
 20
-6470.292331756151
 30
0.0
 11
837.5525077325926
 21
-6449.735017726084
 31
0.0
  0
LINE
  5
BA3EB
330
18
100
AcDbEntity
  8
姿図
100
AcDbLine
 10
928.9127380964583
 20
-6469.779830239757
 30
0.0
 11
838.2166994093279
 21
-6449.371968513176
 31
0.0
  0
LINE
  5
BA3EC
330
18
100
AcDbEntity
  8
姿図
100
AcDbLine
 10
928.9127380964584
 20
-6469.267328723366
 30
0.0
 11
838.880891086066
 21
-6449.008919300269
 31
0.0
  0
LINE
  5
BA3ED
330
18
100
AcDbEntity
  8
姿図
100
AcDbLine
 10
928.9127380964582
 20
-6468.754827206972
 30
0.0
 11
839.5450827628022
 21
-6448.645870087362
 31
0.0
  0
LINE
  5
BA3EE
330
18
100
AcDbEntity
  8
姿図
100
AcDbLine
 10
928.9127380964582
 20
-6468.242325690579
 30
0.0
 11
840.2092744395384
 21
-6448.282820874454
 31
0.0
  0
LINE
  5
BA3EF
330
18
100
AcDbEntity
  8
姿図
100
AcDbLine
 10
928.9127380964582
 20
-6467.729824174186
 30
0.0
 11
840.8734661162737
 21
-6447.919771661547
 31
0.0
  0
LINE
  5
BA3F0
330
18
100
AcDbEntity
  8
姿図
100
AcDbLine
 10
928.9127380964582
 20
-6467.217322657793
 30
0.0
 11
841.5376577930099
 21
-6447.556722448639
 31
0.0
  0
LINE
  5
BA3F1
330
18
100
AcDbEntity
  8
姿図
100
AcDbLine
 10
926.3002622523461
 20
-6466.116977983498
 30
0.0
 11
842.2018494697461
 21
-6447.193673235732
 31
0.0
  0
LINE
  5
BA3F2
330
18
100
AcDbEntity
  8
姿図
100
AcDbLine
 10
917.2527702786161
 20
-6463.568665776311
 30
0.0
 11
842.8660411464823
 21
-6446.830624022824
 31
0.0
  0
LINE
  5
BA3F3
330
18
100
AcDbEntity
  8
姿図
100
AcDbLine
 10
908.2052783049369
 20
-6461.020353569134
 30
0.0
 11
843.5302328232185
 21
-6446.467574809917
 31
0.0
  0
LINE
  5
BA3F4
330
18
100
AcDbEntity
  8
姿図
100
AcDbLine
 10
899.157786331221
 20
-6458.472041361953
 30
0.0
 11
844.1944244999556
 21
-6446.104525597009
 31
0.0
  0
LINE
  5
BA3F5
330
18
100
AcDbEntity
  8
姿図
100
AcDbLine
 10
890.1102943574949
 20
-6455.923729154757
 30
0.0
 11
844.8586161766918
 21
-6445.741476384102
 31
0.0
  0
LINE
  5
BA3F6
330
18
100
AcDbEntity
  8
姿図
100
AcDbLine
 10
881.0628023838078
 20
-6453.375416947579
 30
0.0
 11
845.522807853428
 21
-6445.378427171194
 31
0.0
  0
LINE
  5
BA3F7
330
18
100
AcDbEntity
  8
姿図
100
AcDbLine
 10
872.0153104100958
 20
-6450.82710474039
 30
0.0
 11
846.1869995301643
 21
-6445.015377958287
 31
0.0
  0
LINE
  5
BA3F8
330
18
100
AcDbEntity
  8
姿図
100
AcDbLine
 10
862.9678184364119
 20
-6448.278792533214
 30
0.0
 11
846.8511912069005
 21
-6444.65232874538
 31
0.0
  0
LINE
  5
BA3F9
330
18
100
AcDbEntity
  8
姿図
100
AcDbLine
 10
853.9203264627012
 20
-6445.730480326027
 30
0.0
 11
847.5153828836358
 21
-6444.289279532472
 31
0.0
  0
LINE
  5
BA3FD
330
18
100
AcDbEntity
  8
姿図
100
AcDbLine
 10
928.9127380964583
 20
-6481.054863600396
 30
0.0
 11
955.5365051429177
 21
-6474.351643995564
 31
0.0
  0
LINE
  5
BA3FE
330
18
100
AcDbEntity
  8
姿図
100
AcDbLine
 10
928.9127380964583
 20
-6480.542362084002
 30
0.0
 11
954.5757484690816
 21
-6474.081037736151
 31
0.0
  0
LINE
  5
BA3FF
330
18
100
AcDbEntity
  8
姿図
100
AcDbLine
 10
928.9127380964583
 20
-6480.02986056761
 30
0.0
 11
953.6149917952504
 21
-6473.81043147674
 31
0.0
  0
LINE
  5
BA400
330
18
100
AcDbEntity
  8
姿図
100
AcDbLine
 10
928.9127380964583
 20
-6479.51735905122
 30
0.0
 11
952.6542351214237
 21
-6473.53982521733
 31
0.0
  0
LINE
  5
BA401
330
18
100
AcDbEntity
  8
姿図
100
AcDbLine
 10
928.9127380964583
 20
-6479.004857534825
 30
0.0
 11
951.6934784475877
 21
-6473.269218957917
 31
0.0
  0
LINE
  5
BA402
330
18
100
AcDbEntity
  8
姿図
100
AcDbLine
 10
928.9127380964583
 20
-6478.492356018432
 30
0.0
 11
950.7327217737563
 21
-6472.998612698506
 31
0.0
  0
LINE
  5
BA403
330
18
100
AcDbEntity
  8
姿図
100
AcDbLine
 10
928.9127380964583
 20
-6477.979854502039
 30
0.0
 11
949.7719650999227
 21
-6472.728006439094
 31
0.0
  0
LINE
  5
BA404
330
18
100
AcDbEntity
  8
姿図
100
AcDbLine
 10
928.9127380964583
 20
-6477.467352985647
 30
0.0
 11
948.8112084260914
 21
-6472.457400179683
 31
0.0
  0
LINE
  5
BA405
330
18
100
AcDbEntity
  8
姿図
100
AcDbLine
 10
928.9127380964583
 20
-6476.954851469253
 30
0.0
 11
947.8504517522554
 21
-6472.18679392027
 31
0.0
  0
LINE
  5
BA406
330
18
100
AcDbEntity
  8
姿図
100
AcDbLine
 10
928.9127380964583
 20
-6476.442349952862
 30
0.0
 11
946.8896950784264
 21
-6471.916187660859
 31
0.0
  0
LINE
  5
BA407
330
18
100
AcDbEntity
  8
姿図
100
AcDbLine
 10
928.9127380964583
 20
-6475.929848436469
 30
0.0
 11
945.9289384045927
 21
-6471.645581401448
 31
0.0
  0
LINE
  5
BA408
330
18
100
AcDbEntity
  8
姿図
100
AcDbLine
 10
928.9127380964583
 20
-6475.417346920076
 30
0.0
 11
944.968181730759
 21
-6471.374975142036
 31
0.0
  0
LINE
  5
BA409
330
18
100
AcDbEntity
  8
姿図
100
AcDbLine
 10
928.9127380964584
 20
-6474.904845403684
 30
0.0
 11
944.0074250569301
 21
-6471.104368882625
 31
0.0
  0
LINE
  5
BA40A
330
18
100
AcDbEntity
  8
姿図
100
AcDbLine
 10
928.9127380964583
 20
-6474.39234388729
 30
0.0
 11
943.0466683830941
 21
-6470.833762623212
 31
0.0
  0
LINE
  5
BA40B
330
18
100
AcDbEntity
  8
姿図
100
AcDbLine
 10
928.9127380964583
 20
-6473.879842370898
 30
0.0
 11
942.0859117092627
 21
-6470.563156363801
 31
0.0
  0
LINE
  5
BA40C
330
18
100
AcDbEntity
  8
姿図
100
AcDbLine
 10
928.9127380964582
 20
-6473.367340854504
 30
0.0
 11
941.1251550354268
 21
-6470.292550104388
 31
0.0
  0
LINE
  5
BA40D
330
18
100
AcDbEntity
  8
姿図
100
AcDbLine
 10
928.9127380964582
 20
-6472.854839338112
 30
0.0
 11
940.1643983615978
 21
-6470.021943844978
 31
0.0
  0
LINE
  5
BA40E
330
18
100
AcDbEntity
  8
姿図
100
AcDbLine
 10
928.9127380964583
 20
-6472.34233782172
 30
0.0
 11
939.2036416877665
 21
-6469.751337585566
 31
0.0
  0
LINE
  5
BA40F
330
18
100
AcDbEntity
  8
姿図
100
AcDbLine
 10
928.9127380964583
 20
-6471.829836305326
 30
0.0
 11
938.2428850139305
 21
-6469.480731326154
 31
0.0
  0
LINE
  5
BA410
330
18
100
AcDbEntity
  8
姿図
100
AcDbLine
 10
928.9127380964583
 20
-6471.317334788935
 30
0.0
 11
937.2821283401015
 21
-6469.210125066743
 31
0.0
  0
LINE
  5
BA411
330
18
100
AcDbEntity
  8
姿図
100
AcDbLine
 10
928.9127380964583
 20
-6470.804833272543
 30
0.0
 11
936.3213716662702
 21
-6468.939518807332
 31
0.0
  0
LINE
  5
BA412
330
18
100
AcDbEntity
  8
姿図
100
AcDbLine
 10
928.9127380964584
 20
-6470.292331756151
 30
0.0
 11
935.3606149924389
 21
-6468.66891254792
 31
0.0
  0
LINE
  5
BA413
330
18
100
AcDbEntity
  8
姿図
100
AcDbLine
 10
928.9127380964583
 20
-6469.779830239757
 30
0.0
 11
934.3998583186052
 21
-6468.398306288508
 31
0.0
  0
LINE
  5
BA414
330
18
100
AcDbEntity
  8
姿図
100
AcDbLine
 10
928.9127380964584
 20
-6469.267328723366
 30
0.0
 11
933.4391016447762
 21
-6468.127700029097
 31
0.0
  0
LINE
  5
BA415
330
18
100
AcDbEntity
  8
姿図
100
AcDbLine
 10
928.9127380964582
 20
-6468.754827206972
 30
0.0
 11
932.4783449709403
 21
-6467.857093769684
 31
0.0
  0
LINE
  5
BA416
330
18
100
AcDbEntity
  8
姿図
100
AcDbLine
 10
928.9127380964582
 20
-6468.242325690579
 30
0.0
 11
931.5175882971089
 21
-6467.586487510274
 31
0.0
  0
LINE
  5
BA417
330
18
100
AcDbEntity
  8
姿図
100
AcDbLine
 10
928.9127380964582
 20
-6467.729824174186
 30
0.0
 11
930.556831623273
 21
-6467.315881250861
 31
0.0
  0
LINE
  5
BA418
330
18
100
AcDbEntity
  8
姿図
100
AcDbLine
 10
928.9127380964582
 20
-6467.217322657793
 30
0.0
 11
929.5960749494416
 21
-6467.04527499145
 31
0.0
  0
VIEWPORT
  5
3DEAB
102
{ACAD_XDICTIONARY
360
BA43A
102
}
330
15
100
AcDbEntity
 67
     1
  8
0
100
AcDbViewport
 10
0.0
 20
0.0
 30
0.0
 40
0.0
 41
0.0
 68
     1
 69
     1
 12
0.0
 22
0.0
 13
0.0
 23
0.0
 14
10.0
 24
10.0
 15
10.0
 25
10.0
 16
0.0
 26
0.0
 36
1.0
 17
0.0
 27
0.0
 37
0.0
 42
50.0
 43
0.0
 44
0.0
 45
0.0
 50
0.0
 51
0.0
 72
  2000
 90
    32800
  1

281
     0
 71
     1
 74
     0
110
0.0
120
0.0
130
0.0
111
1.0
121
0.0
131
0.0
112
0.0
122
1.0
132
0.0
 79
     0
146
0.0
  0
VIEWPORT
  5
3DEAD
102
{ACAD_XDICTIONARY
360
BA43C
102
}
330
15
100
AcDbEntity
 67
     1
  8
0
100
AcDbViewport
 10
0.0
 20
0.0
 30
0.0
 40
1.0
 41
1.0
 68
     2
 69
     2
 12
971.241193259797
 22
-1741.641485065708
 13
0.0
 23
0.0
 14
1.0
 24
1.0
 15
20.0
 25
20.0
 16
0.0
 26
0.0
 36
1.0
 17
0.0
 27
0.0
 37
0.0
 42
50.0
 43
0.0
 44
0.0
 45
403.5416950968178
 50
0.0
 51
0.0
 72
  2000
 90
    36864
  1

281
     0
 71
     1
 74
     0
110
0.0
120
0.0
130
0.0
111
1.0
121
0.0
131
0.0
112
0.0
122
1.0
132
0.0
 79
     0
146
0.0
  0
ENDSEC
  0
SECTION
  2
OBJECTS
  0
DICTIONARY
  5
C
330
0
100
AcDbDictionary
281
     1
  3
ACAD_GROUP
350
D
  3
ACAD_IMAGE_VARS
350
BA443
  3
ACAD_LAYOUT
350
40CB
  3
ACAD_MLINESTYLE
350
E
  3
ACAD_PLOTSETTINGS
350
40CC
  3
ACAD_PLOTSTYLENAME
350
40C9
  3
ACAD_SCALELIST
350
B591A
  3
AcadDim
350
8297D
  3
AcDbVariableDictionary
350
6377
  3
APPDATA
350
BA442
  3
DWGPROPS
350
BA46A
  0
DICTIONARY
  5
B1183
330
2
100
AcDbDictionary
280
     1
281
     1
  3
ACAD_LAYERSTATES
360
B1184
  0
DICTIONARY
  5
B6267
330
F
100
AcDbDictionary
280
     1
281
     1
  3
ADSK_XREC_LAYER_RECONCILED
360
B6268
  0
DICTIONARY
  5
B626F
330
4C
100
AcDbDictionary
280
     1
281
     1
  3
ADSK_XREC_LAYER_RECONCILED
360
B6270
  0
DICTIONARY
  5
B6273
330
40D4
100
AcDbDictionary
280
     1
281
     1
  3
ADSK_XREC_LAYER_RECONCILED
360
B6274
  0
DICTIONARY
  5
B6277
330
4F9B7
100
AcDbDictionary
280
     1
281
     1
  3
ADSK_XREC_LAYER_RECONCILED
360
B6278
  0
DICTIONARY
  5
B7666
330
18
100
AcDbDictionary
280
     1
281
     1
  3
ACAD_SORTENTS
360
B7667
  0
DICTIONARY
  5
BA43A
330
3DEAB
100
AcDbDictionary
280
     1
281
     1
  3
ACAD_XREC_ROUNDTRIP
360
BA43B
  0
DICTIONARY
  5
BA43C
330
3DEAD
100
AcDbDictionary
280
     1
281
     1
  3
ACAD_XREC_ROUNDTRIP
360
BA43D
  0
DICTIONARY
  5
D
102
{ACAD_REACTORS
330
C
102
}
330
C
100
AcDbDictionary
281
     1
  0
RASTERVARIABLES
  5
BA443
102
{ACAD_REACTORS
330
C
102
}
330
C
100
AcDbRasterVariables
 90
        0
 70
     1
 71
     1
 72
     0
  0
DICTIONARY
  5
40CB
102
{ACAD_REACTORS
330
C
102
}
330
C
100
AcDbDictionary
281
     1
  3
Model
350
40CD
  3
ﾚｲｱｳﾄ1
350
40CE
  0
DICTIONARY
  5
E
102
{ACAD_REACTORS
330
C
102
}
330
C
100
AcDbDictionary
281
     1
  3
STANDARD
350
1B
  0
DICTIONARY
  5
40CC
102
{ACAD_REACTORS
330
C
102
}
330
C
100
AcDbDictionary
281
     1
  0
ACDBDICTIONARYWDFLT
  5
40C9
102
{ACAD_REACTORS
330
C
102
}
330
C
100
AcDbDictionary
281
     1
  3
Normal
350
40CA
100
AcDbDictionaryWithDefault
340
40CA
  0
DICTIONARY
  5
B591A
102
{ACAD_REACTORS
330
C
102
}
330
C
100
AcDbDictionary
281
     1
  3
A0
350
B591B
  3
A1
350
B591C
  3
A2
350
B591D
  3
A3
350
B591E
  3
A4
350
B591F
  3
A5
350
B5920
  3
A6
350
B5921
  3
A7
350
B5922
  3
A8
350
B5923
  3
A9
350
B5924
  3
B0
350
B5925
  3
B1
350
B5926
  3
B2
350
B5927
  3
B3
350
B5928
  3
B4
350
B5929
  3
B5
350
B592A
  3
B6
350
B592B
  3
B7
350
B592C
  3
B8
350
B592D
  3
B9
350
B592E
  3
C0
350
B592F
  3
C1
350
B5930
  3
C2
350
B5931
  3
C3
350
B5932
  3
C4
350
B5933
  3
C5
350
B5934
  3
C6
350
B5935
  3
C7
350
B5936
  3
C8
350
B5937
  3
C9
350
B5938
  3
D0
350
B5939
  3
D1
350
B593A
  3
D2
350
B593B
  0
XRECORD
  5
8297D
102
{ACAD_REACTORS
330
C
102
}
330
C
100
AcDbXrecord
280
     1
 90
   990106
  3

 60
     0
 61
     0
 62
     1
 63
     3
 64
     1
 65
     0
 66
     0
 67
     3
 68
     1
 69
     0
 70
     0
 71
     0
 72
     0
 40
0.0
170
     2
340
0
  0
DICTIONARY
  5
6377
102
{ACAD_REACTORS
330
C
102
}
330
C
100
AcDbDictionary
281
     1
  3
DIMASSOC
350
7F318
  3
INDEXCTL
350
B62C4
  3
PROJECTNAME
350
AD411
  3
SORTENTS
350
6378
  0
DICTIONARY
  5
BA442
102
{ACAD_REACTORS
330
C
102
}
330
C
100
AcDbDictionary
281
     1
  0
XRECORD
  5
BA46A
102
{ACAD_REACTORS
330
C
102
}
330
C
100
AcDbXrecord
280
     1
  1
DWGPROPS COOKIE
  2

  3

  4

  6

  7

  8
SPAX
  9

300
=
301
=
302
=
303
=
304
=
305
=
306
=
307
=
308
=
309
=
 40
0.0
 41
2449505.547222222
 42
2456822.099217164
  1

 90
        0
  0
DICTIONARY
  5
B1184
102
{ACAD_REACTORS
330
B1183
102
}
330
B1183
100
AcDbDictionary
281
     1
  0
XRECORD
  5
B6268
102
{ACAD_REACTORS
330
B6267
102
}
330
B6267
100
AcDbXrecord
280
     1
290
     1
  0
XRECORD
  5
B6270
102
{ACAD_REACTORS
330
B626F
102
}
330
B626F
100
AcDbXrecord
280
     1
290
     1
  0
XRECORD
  5
B6274
102
{ACAD_REACTORS
330
B6273
102
}
330
B6273
100
AcDbXrecord
280
     1
290
     1
  0
XRECORD
  5
B6278
102
{ACAD_REACTORS
330
B6277
102
}
330
B6277
100
AcDbXrecord
280
     1
290
     1
  0
SORTENTSTABLE
  5
B7667
102
{ACAD_REACTORS
330
B7666
102
}
330
B7666
100
AcDbSortentsTable
330
18
331
0
  5
B6CBC
331
B7A5C
  5
B7A5E
331
B7A5D
  5
B7A5F
331
B7A5E
  5
B7A60
331
B7A5F
  5
B7A61
331
B7A60
  5
B7A62
331
B7A61
  5
B7A63
331
0
  5
B7A64
331
B7A74
  5
B7A76
331
B7A75
  5
B7A77
331
B7A76
  5
B7A78
331
B7A77
  5
B7A79
331
B7A7E
  5
B7A80
331
B7A7F
  5
B7A81
331
B7A89
  5
B7AA8
331
B7A8A
  5
B7AA9
331
B7A8B
  5
B7AAA
331
B7A96
  5
B7AAB
331
B7A97
  5
B7AAC
331
B7A98
  5
B7AAD
331
B7A99
  5
B7AAE
331
B7A9A
  5
B7AAF
331
B7A9B
  5
B7AB0
331
B7A9C
  5
B7AB1
331
B7AA6
  5
B7AB2
331
B7AA7
  5
B7AB3
331
B7AA8
  5
B7AB4
331
B7AA9
  5
B7AB5
331
B7AAA
  5
B7AB6
331
B7AAB
  5
B7AB7
331
B7AAC
  5
B7AB8
331
B7AAD
  5
B7AB9
331
B7AAE
  5
B7ABA
331
B7AAF
  5
B7ABB
331
B7AB0
  5
B7ABC
331
B7AB1
  5
B7ABD
331
B7AB2
  5
B7AD2
331
B7AB3
  5
B7AE8
331
B7AB4
  5
B7AF2
331
B7AB5
  5
B7AF5
331
B7AB6
  5
B7B03
331
B7AB7
  5
B7B04
331
B7AB8
  5
B7B05
331
B7AB9
  5
B7B06
331
B7ABA
  5
B7B07
331
B7ABB
  5
B7B08
331
B7AD0
  5
B7B09
331
B7AE6
  5
B7B0A
331
B7AF0
  5
B7B0B
331
B7AF3
  5
B7B0C
331
B7B01
  5
B7B0D
331
B7B0C
  5
B7E82
331
B7B0D
  5
B8FF9
331
B7E80
  5
B982A
331
BA247
  5
BA282
331
BA248
  5
BA283
331
BA3D5
  5
B7A8B
331
BA3D6
  5
B7A8C
331
BA3D7
  5
B7A8D
331
BA3D8
  5
B7A98
331
BA3D9
  5
B7A99
331
BA3DA
  5
B7A9A
331
BA3DB
  5
B7A9B
331
BA3DC
  5
B7A9C
331
BA3DD
  5
B7A9D
331
BA3DE
  5
B7A9E
  0
XRECORD
  5
BA43B
102
{ACAD_REACTORS
330
BA43A
102
}
330
BA43A
100
AcDbXrecord
280
     1
102
VISUALSTYLE
340
0
102
GRIDDISPLAY
 70
     0
102
GRIDMAJOR
 70
     5
102
DEFAULTLIGHTING
280
     1
102
DEFAULTLIGHTINGTYPE
 70
     1
102
BRIGHTNESS
141
0.0
102
CONTRAST
142
0.0
  0
XRECORD
  5
BA43D
102
{ACAD_REACTORS
330
BA43C
102
}
330
BA43C
100
AcDbXrecord
280
     1
102
VISUALSTYLE
340
0
102
GRIDDISPLAY
 70
     0
102
GRIDMAJOR
 70
     5
102
DEFAULTLIGHTING
280
     1
102
DEFAULTLIGHTINGTYPE
 70
     1
102
BRIGHTNESS
141
0.0
102
CONTRAST
142
0.0
  0
LAYOUT
  5
40CD
102
{ACAD_REACTORS
330
40CB
102
}
330
40CB
100
AcDbPlotSettings
  1

  2
DocuWide2055
  4
A4
  6

 40
3.174999952316284
 41
3.174999952316284
 42
3.175003051757812
 43
3.17498779296875
 44
210.0156707763672
 45
297.0106506347656
 46
14.33522463869349
 47
9.833993875407032
 48
800.0
 49
-7363.862574153331
140
1499.980873979624
141
-6279.891873598664
142
1.0
143
4.0
 70
  3748
 72
     1
 73
     0
 74
     4
  7
spax form.ctb
 75
    16
147
1.0
148
-800.0
149
7363.862574153331
100
AcDbLayout
  1
Model
 70
     1
 71
     0
 10
0.0
 20
0.0
 11
12.0
 21
9.0
 12
0.0
 22
0.0
 32
0.0
 14
815.3086623289801
 24
-6532.343066932045
 34
0.0
 15
962.8325018230262
 25
-6409.173206920249
 35
0.0
146
0.0
 13
0.0
 23
0.0
 33
0.0
 16
1.0
 26
0.0
 36
0.0
 17
0.0
 27
1.0
 37
0.0
 76
     0
330
18
331
B6CAF
1001
ACAD_PSEXT
1000
DocuWide2055
1000
FX DocuWide 2055
1000
192.168.6.115:plt00t
1000

1070
     0
  0
LAYOUT
  5
40CE
102
{ACAD_REACTORS
330
40CB
102
}
330
40CB
100
AcDbPlotSettings
  1

  2
なし
  4

  6

 40
0.0
 41
0.0
 42
0.0
 43
0.0
 44
0.0
 45
0.0
 46
0.0
 47
0.0
 48
0.0
 49
0.0
140
0.0
141
0.0
142
1.0
143
1.0
 70
   688
 72
     0
 73
     1
 74
     5
  7
spax form.ctb
 75
    16
147
1.0
148
0.0
149
0.0
100
AcDbLayout
  1
ﾚｲｱｳﾄ1
 70
     0
 71
     1
 10
0.0
 20
0.0
 11
0.0
 21
0.0
 12
0.0
 22
0.0
 32
0.0
 14
0.0
 24
0.0
 34
0.0
 15
0.0
 25
0.0
 35
0.0
146
0.0
 13
0.0
 23
0.0
 33
0.0
 16
1.0
 26
0.0
 36
0.0
 17
0.0
 27
1.0
 37
0.0
 76
     0
330
15
331
3DEAB
  0
MLINESTYLE
  5
1B
102
{ACAD_REACTORS
330
E
102
}
330
E
100
AcDbMlineStyle
  2
STANDARD
 70
     0
  3

 62
     0
 51
90.0
 52
90.0
 71
     2
 49
0.5
 62
   256
  6
BYLAYER
 49
-0.5
 62
   256
  6
BYLAYER
  0
ACDBPLACEHOLDER
  5
40CA
102
{ACAD_REACTORS
330
40C9
102
}
330
40C9
  0
SCALE
  5
B591B
102
{ACAD_REACTORS
330
B591A
102
}
330
B591A
100
AcDbScale
 70
     0
300
1:1
140
1.0
141
1.0
290
     1
1001
ACAD
1000
AcRTDxfName
1000
SCALE
1000
AcRTDxfName
1000
SCALE
  0
SCALE
  5
B591C
102
{ACAD_REACTORS
330
B591A
102
}
330
B591A
100
AcDbScale
 70
     0
300
1:2
140
1.0
141
2.0
290
     0
1001
ACAD
1000
AcRTDxfName
1000
SCALE
1000
AcRTDxfName
1000
SCALE
  0
SCALE
  5
B591D
102
{ACAD_REACTORS
330
B591A
102
}
330
B591A
100
AcDbScale
 70
     0
300
1:4
140
1.0
141
4.0
290
     0
1001
ACAD
1000
AcRTDxfName
1000
SCALE
1000
AcRTDxfName
1000
SCALE
  0
SCALE
  5
B591E
102
{ACAD_REACTORS
330
B591A
102
}
330
B591A
100
AcDbScale
 70
     0
300
1:5
140
1.0
141
5.0
290
     0
1001
ACAD
1000
AcRTDxfName
1000
SCALE
1000
AcRTDxfName
1000
SCALE
  0
SCALE
  5
B591F
102
{ACAD_REACTORS
330
B591A
102
}
330
B591A
100
AcDbScale
 70
     0
300
1:8
140
1.0
141
8.0
290
     0
1001
ACAD
1000
AcRTDxfName
1000
SCALE
1000
AcRTDxfName
1000
SCALE
  0
SCALE
  5
B5920
102
{ACAD_REACTORS
330
B591A
102
}
330
B591A
100
AcDbScale
 70
     0
300
1:10
140
1.0
141
10.0
290
     0
1001
ACAD
1000
AcRTDxfName
1000
SCALE
1000
AcRTDxfName
1000
SCALE
  0
SCALE
  5
B5921
102
{ACAD_REACTORS
330
B591A
102
}
330
B591A
100
AcDbScale
 70
     0
300
1:16
140
1.0
141
16.0
290
     0
1001
ACAD
1000
AcRTDxfName
1000
SCALE
1000
AcRTDxfName
1000
SCALE
  0
SCALE
  5
B5922
102
{ACAD_REACTORS
330
B591A
102
}
330
B591A
100
AcDbScale
 70
     0
300
1:20
140
1.0
141
20.0
290
     0
1001
ACAD
1000
AcRTDxfName
1000
SCALE
1000
AcRTDxfName
1000
SCALE
  0
SCALE
  5
B5923
102
{ACAD_REACTORS
330
B591A
102
}
330
B591A
100
AcDbScale
 70
     0
300
1:30
140
1.0
141
30.0
290
     0
1001
ACAD
1000
AcRTDxfName
1000
SCALE
1000
AcRTDxfName
1000
SCALE
  0
SCALE
  5
B5924
102
{ACAD_REACTORS
330
B591A
102
}
330
B591A
100
AcDbScale
 70
     0
300
1:40
140
1.0
141
40.0
290
     0
1001
ACAD
1000
AcRTDxfName
1000
SCALE
1000
AcRTDxfName
1000
SCALE
  0
SCALE
  5
B5925
102
{ACAD_REACTORS
330
B591A
102
}
330
B591A
100
AcDbScale
 70
     0
300
1:50
140
1.0
141
50.0
290
     0
1001
ACAD
1000
AcRTDxfName
1000
SCALE
1000
AcRTDxfName
1000
SCALE
  0
SCALE
  5
B5926
102
{ACAD_REACTORS
330
B591A
102
}
330
B591A
100
AcDbScale
 70
     0
300
1:100
140
1.0
141
100.0
290
     0
1001
ACAD
1000
AcRTDxfName
1000
SCALE
1000
AcRTDxfName
1000
SCALE
  0
SCALE
  5
B5927
102
{ACAD_REACTORS
330
B591A
102
}
330
B591A
100
AcDbScale
 70
     0
300
2:1
140
2.0
141
1.0
290
     0
1001
ACAD
1000
AcRTDxfName
1000
SCALE
1000
AcRTDxfName
1000
SCALE
  0
SCALE
  5
B5928
102
{ACAD_REACTORS
330
B591A
102
}
330
B591A
100
AcDbScale
 70
     0
300
4:1
140
4.0
141
1.0
290
     0
1001
ACAD
1000
AcRTDxfName
1000
SCALE
1000
AcRTDxfName
1000
SCALE
  0
SCALE
  5
B5929
102
{ACAD_REACTORS
330
B591A
102
}
330
B591A
100
AcDbScale
 70
     0
300
8:1
140
8.0
141
1.0
290
     0
1001
ACAD
1000
AcRTDxfName
1000
SCALE
1000
AcRTDxfName
1000
SCALE
  0
SCALE
  5
B592A
102
{ACAD_REACTORS
330
B591A
102
}
330
B591A
100
AcDbScale
 70
     0
300
10:1
140
10.0
141
1.0
290
     0
1001
ACAD
1000
AcRTDxfName
1000
SCALE
1000
AcRTDxfName
1000
SCALE
  0
SCALE
  5
B592B
102
{ACAD_REACTORS
330
B591A
102
}
330
B591A
100
AcDbScale
 70
     0
300
100:1
140
100.0
141
1.0
290
     0
1001
ACAD
1000
AcRTDxfName
1000
SCALE
1000
AcRTDxfName
1000
SCALE
  0
SCALE
  5
B592C
102
{ACAD_REACTORS
330
B591A
102
}
330
B591A
100
AcDbScale
 70
     0
300
1/128" = 1'-0"
140
0.0078125
141
12.0
290
     0
1001
ACAD
1000
AcRTDxfName
1000
SCALE
1000
AcRTDxfName
1000
SCALE
  0
SCALE
  5
B592D
102
{ACAD_REACTORS
330
B591A
102
}
330
B591A
100
AcDbScale
 70
     0
300
1/64" = 1'-0"
140
0.015625
141
12.0
290
     0
1001
ACAD
1000
AcRTDxfName
1000
SCALE
1000
AcRTDxfName
1000
SCALE
  0
SCALE
  5
B592E
102
{ACAD_REACTORS
330
B591A
102
}
330
B591A
100
AcDbScale
 70
     0
300
1/32" = 1'-0"
140
0.03125
141
12.0
290
     0
1001
ACAD
1000
AcRTDxfName
1000
SCALE
1000
AcRTDxfName
1000
SCALE
  0
SCALE
  5
B592F
102
{ACAD_REACTORS
330
B591A
102
}
330
B591A
100
AcDbScale
 70
     0
300
1/16" = 1'-0"
140
0.0625
141
12.0
290
     0
1001
ACAD
1000
AcRTDxfName
1000
SCALE
1000
AcRTDxfName
1000
SCALE
  0
SCALE
  5
B5930
102
{ACAD_REACTORS
330
B591A
102
}
330
B591A
100
AcDbScale
 70
     0
300
3/32" = 1'-0"
140
0.09375
141
12.0
290
     0
1001
ACAD
1000
AcRTDxfName
1000
SCALE
1000
AcRTDxfName
1000
SCALE
  0
SCALE
  5
B5931
102
{ACAD_REACTORS
330
B591A
102
}
330
B591A
100
AcDbScale
 70
     0
300
1/8" = 1'-0"
140
0.125
141
12.0
290
     0
1001
ACAD
1000
AcRTDxfName
1000
SCALE
1000
AcRTDxfName
1000
SCALE
  0
SCALE
  5
B5932
102
{ACAD_REACTORS
330
B591A
102
}
330
B591A
100
AcDbScale
 70
     0
300
3/16" = 1'-0"
140
0.1875
141
12.0
290
     0
1001
ACAD
1000
AcRTDxfName
1000
SCALE
1000
AcRTDxfName
1000
SCALE
  0
SCALE
  5
B5933
102
{ACAD_REACTORS
330
B591A
102
}
330
B591A
100
AcDbScale
 70
     0
300
1/4" = 1'-0"
140
0.25
141
12.0
290
     0
1001
ACAD
1000
AcRTDxfName
1000
SCALE
1000
AcRTDxfName
1000
SCALE
  0
SCALE
  5
B5934
102
{ACAD_REACTORS
330
B591A
102
}
330
B591A
100
AcDbScale
 70
     0
300
3/8" = 1'-0"
140
0.375
141
12.0
290
     0
1001
ACAD
1000
AcRTDxfName
1000
SCALE
1000
AcRTDxfName
1000
SCALE
  0
SCALE
  5
B5935
102
{ACAD_REACTORS
330
B591A
102
}
330
B591A
100
AcDbScale
 70
     0
300
1/2" = 1'-0"
140
0.5
141
12.0
290
     0
1001
ACAD
1000
AcRTDxfName
1000
SCALE
1000
AcRTDxfName
1000
SCALE
  0
SCALE
  5
B5936
102
{ACAD_REACTORS
330
B591A
102
}
330
B591A
100
AcDbScale
 70
     0
300
3/4" = 1'-0"
140
0.75
141
12.0
290
     0
1001
ACAD
1000
AcRTDxfName
1000
SCALE
1000
AcRTDxfName
1000
SCALE
  0
SCALE
  5
B5937
102
{ACAD_REACTORS
330
B591A
102
}
330
B591A
100
AcDbScale
 70
     0
300
1" = 1'-0"
140
1.0
141
12.0
290
     0
1001
ACAD
1000
AcRTDxfName
1000
SCALE
1000
AcRTDxfName
1000
SCALE
  0
SCALE
  5
B5938
102
{ACAD_REACTORS
330
B591A
102
}
330
B591A
100
AcDbScale
 70
     0
300
1-1/2" = 1'-0"
140
1.5
141
12.0
290
     0
1001
ACAD
1000
AcRTDxfName
1000
SCALE
1000
AcRTDxfName
1000
SCALE
  0
SCALE
  5
B5939
102
{ACAD_REACTORS
330
B591A
102
}
330
B591A
100
AcDbScale
 70
     0
300
3" = 1'-0"
140
3.0
141
12.0
290
     0
1001
ACAD
1000
AcRTDxfName
1000
SCALE
1000
AcRTDxfName
1000
SCALE
  0
SCALE
  5
B593A
102
{ACAD_REACTORS
330
B591A
102
}
330
B591A
100
AcDbScale
 70
     0
300
6" = 1'-0"
140
6.0
141
12.0
290
     0
1001
ACAD
1000
AcRTDxfName
1000
SCALE
1000
AcRTDxfName
1000
SCALE
  0
SCALE
  5
B593B
102
{ACAD_REACTORS
330
B591A
102
}
330
B591A
100
AcDbScale
 70
     0
300
1'-0" = 1'-0"
140
12.0
141
12.0
290
     0
1001
ACAD
1000
AcRTDxfName
1000
SCALE
1000
AcRTDxfName
1000
SCALE
  0
DICTIONARYVAR
  5
7F318
102
{ACAD_REACTORS
330
6377
102
}
330
6377
100
DictionaryVariables
280
     0
  1
1
  0
DICTIONARYVAR
  5
B62C4
102
{ACAD_REACTORS
330
6377
102
}
330
6377
100
DictionaryVariables
280
     0
  1
0
  0
DICTIONARYVAR
  5
AD411
102
{ACAD_REACTORS
330
6377
102
}
330
6377
100
DictionaryVariables
280
     0
  1

  0
DICTIONARYVAR
  5
6378
102
{ACAD_REACTORS
330
6377
102
}
330
6377
100
DictionaryVariables
280
     0
  1
96
  0
ENDSEC
  0
EOF
