  0
SECTION
  2
HEADER
  9
$ACADVER
  1
AC1015
  9
$ACADMAINTVER
 70
     6
  9
$DWGCODEPAGE
  3
ANSI_932
  9
$INSBASE
 10
0.0
 20
0.0
 30
0.0
  9
$EXTMIN
 10
6447.230385528233
 20
1296.334262517911
 30
0.0
  9
$EXTMAX
 10
6614.738241499826
 20
1423.910666316542
 30
0.0
  9
$LIMMIN
 10
0.0
 20
0.0
  9
$LIMMAX
 10
594.0
 20
420.0
  9
$ORTHOMODE
 70
     1
  9
$REGENMODE
 70
     1
  9
$FILLMODE
 70
     1
  9
$QTEXTMODE
 70
     0
  9
$MIRRTEXT
 70
     1
  9
$LTSCALE
 40
7.0
  9
$ATTMODE
 70
     0
  9
$TEXTSIZE
 40
10.0
  9
$TRACEWID
 40
1.0
  9
$TEXTSTYLE
  7
STANDARD
  9
$CLAYER
  8
寸法線
  9
$CELTYPE
  6
BYLAYER
  9
$CECOLOR
 62
   256
  9
$CELTSCALE
 40
1.0
  9
$DISPSILH
 70
     0
  9
$DIMSCALE
 40
1.0
  9
$DIMASZ
 40
2.5
  9
$DIMEXO
 40
1.5
  9
$DIMDLI
 40
5.0
  9
$DIMRND
 40
0.0
  9
$DIMDLE
 40
0.0
  9
$DIMEXE
 40
1.0
  9
$DIMTP
 40
0.0
  9
$DIMTM
 40
0.0
  9
$DIMTXT
 40
3.0
  9
$DIMCEN
 40
0.0
  9
$DIMTSZ
 40
0.0
  9
$DIMTOL
 70
     0
  9
$DIMLIM
 70
     0
  9
$DIMTIH
 70
     0
  9
$DIMTOH
 70
     0
  9
$DIMSE1
 70
     0
  9
$DIMSE2
 70
     0
  9
$DIMTAD
 70
     3
  9
$DIMZIN
 70
     8
  9
$DIMBLK
  1
Open30
  9
$DIMASO
 70
     1
  9
$DIMSHO
 70
     0
  9
$DIMPOST
  1

  9
$DIMAPOST
  1

  9
$DIMALT
 70
     0
  9
$DIMALTD
 70
     0
  9
$DIMALTF
 40
25.4
  9
$DIMLFAC
 40
1.0
  9
$DIMTOFL
 70
     1
  9
$DIMTVP
 40
0.0
  9
$DIMTIX
 70
     0
  9
$DIMSOXD
 70
     0
  9
$DIMSAH
 70
     0
  9
$DIMBLK1
  1

  9
$DIMBLK2
  1

  9
$DIMSTYLE
  2
STANDARD
  9
$DIMCLRD
 70
     8
  9
$DIMCLRE
 70
     8
  9
$DIMCLRT
 70
   256
  9
$DIMTFAC
 40
1.0
  9
$DIMGAP
 40
1.0
  9
$DIMJUST
 70
     0
  9
$DIMSD1
 70
     0
  9
$DIMSD2
 70
     0
  9
$DIMTOLJ
 70
     1
  9
$DIMTZIN
 70
     8
  9
$DIMALTZ
 70
     0
  9
$DIMALTTZ
 70
     0
  9
$DIMUPT
 70
     0
  9
$DIMDEC
 70
     2
  9
$DIMTDEC
 70
     2
  9
$DIMALTU
 70
     2
  9
$DIMALTTD
 70
     0
  9
$DIMTXSTY
  7
STANDARD
  9
$DIMAUNIT
 70
     0
  9
$DIMADEC
 70
     2
  9
$DIMALTRND
 40
0.0
  9
$DIMAZIN
 70
     2
  9
$DIMDSEP
 70
    46
  9
$DIMATFIT
 70
     3
  9
$DIMFRAC
 70
     0
  9
$DIMLDRBLK
  1
Open30
  9
$DIMLUNIT
 70
     2
  9
$DIMLWD
 70
    -2
  9
$DIMLWE
 70
    -2
  9
$DIMTMOVE
 70
     0
  9
$LUNITS
 70
     2
  9
$LUPREC
 70
     1
  9
$SKETCHINC
 40
0.1
  9
$FILLETRAD
 40
0.5
  9
$AUNITS
 70
     0
  9
$AUPREC
 70
     1
  9
$MENU
  1
FM
  9
$ELEVATION
 40
0.0
  9
$PELEVATION
 40
0.0
  9
$THICKNESS
 40
0.0
  9
$LIMCHECK
 70
     0
  9
$CHAMFERA
 40
0.0
  9
$CHAMFERB
 40
0.0
  9
$CHAMFERC
 40
0.0
  9
$CHAMFERD
 40
0.0
  9
$SKPOLY
 70
     0
  9
$TDCREATE
 40
2448499.608101852
  9
$TDUCREATE
 40
2448499.233101852
  9
$TDUPDATE
 40
2456821.657212917
  9
$TDUUPDATE
 40
2456821.282212917
  9
$TDINDWG
 40
13.9967940856
  9
$TDUSRTIMER
 40
2456821.282090417
  9
$USRTIMER
 70
     1
  9
$ANGBASE
 50
0.0
  9
$ANGDIR
 70
     0
  9
$PDMODE
 70
     3
  9
$PDSIZE
 40
0.0
  9
$PLINEWID
 40
0.0
  9
$SPLFRAME
 70
     0
  9
$SPLINETYPE
 70
     6
  9
$SPLINESEGS
 70
     8
  9
$HANDSEED
  5
ADEDF
  9
$SURFTAB1
 70
     6
  9
$SURFTAB2
 70
     6
  9
$SURFTYPE
 70
     6
  9
$SURFU
 70
     6
  9
$SURFV
 70
     6
  9
$UCSBASE
  2

  9
$UCSNAME
  2

  9
$UCSORG
 10
0.0
 20
0.0
 30
0.0
  9
$UCSXDIR
 10
1.0
 20
0.0
 30
0.0
  9
$UCSYDIR
 10
0.0
 20
1.0
 30
0.0
  9
$UCSORTHOREF
  2

  9
$UCSORTHOVIEW
 70
     0
  9
$UCSORGTOP
 10
0.0
 20
0.0
 30
0.0
  9
$UCSORGBOTTOM
 10
0.0
 20
0.0
 30
0.0
  9
$UCSORGLEFT
 10
0.0
 20
0.0
 30
0.0
  9
$UCSORGRIGHT
 10
0.0
 20
0.0
 30
0.0
  9
$UCSORGFRONT
 10
0.0
 20
0.0
 30
0.0
  9
$UCSORGBACK
 10
0.0
 20
0.0
 30
0.0
  9
$PUCSBASE
  2

  9
$PUCSNAME
  2

  9
$PUCSORG
 10
0.0
 20
0.0
 30
0.0
  9
$PUCSXDIR
 10
1.0
 20
0.0
 30
0.0
  9
$PUCSYDIR
 10
0.0
 20
1.0
 30
0.0
  9
$PUCSORTHOREF
  2

  9
$PUCSORTHOVIEW
 70
     0
  9
$PUCSORGTOP
 10
0.0
 20
0.0
 30
0.0
  9
$PUCSORGBOTTOM
 10
0.0
 20
0.0
 30
0.0
  9
$PUCSORGLEFT
 10
0.0
 20
0.0
 30
0.0
  9
$PUCSORGRIGHT
 10
0.0
 20
0.0
 30
0.0
  9
$PUCSORGFRONT
 10
0.0
 20
0.0
 30
0.0
  9
$PUCSORGBACK
 10
0.0
 20
0.0
 30
0.0
  9
$USERI1
 70
     0
  9
$USERI2
 70
     0
  9
$USERI3
 70
     0
  9
$USERI4
 70
     0
  9
$USERI5
 70
     0
  9
$USERR1
 40
0.0
  9
$USERR2
 40
0.0
  9
$USERR3
 40
0.0
  9
$USERR4
 40
0.0
  9
$USERR5
 40
0.0
  9
$WORLDVIEW
 70
     0
  9
$SHADEDGE
 70
     3
  9
$SHADEDIF
 70
    70
  9
$TILEMODE
 70
     1
  9
$MAXACTVP
 70
    16
  9
$PINSBASE
 10
0.0
 20
0.0
 30
0.0
  9
$PLIMCHECK
 70
     0
  9
$PEXTMIN
 10
1.000000000000000E+20
 20
1.000000000000000E+20
 30
1.000000000000000E+20
  9
$PEXTMAX
 10
-1.000000000000000E+20
 20
-1.000000000000000E+20
 30
-1.000000000000000E+20
  9
$PLIMMIN
 10
0.0
 20
0.0
  9
$PLIMMAX
 10
0.0
 20
0.0
  9
$UNITMODE
 70
     0
  9
$VISRETAIN
 70
     0
  9
$PLINEGEN
 70
     0
  9
$PSLTSCALE
 70
     0
  9
$TREEDEPTH
 70
  3020
  9
$CMLSTYLE
  2
STANDARD
  9
$CMLJUST
 70
     0
  9
$CMLSCALE
 40
1.0
  9
$PROXYGRAPHICS
 70
     1
  9
$MEASUREMENT
 70
     0
  9
$CELWEIGHT
370
    -1
  9
$ENDCAPS
280
     0
  9
$JOINSTYLE
280
     0
  9
$LWDISPLAY
290
     0
  9
$INSUNITS
 70
     0
  9
$HYPERLINKBASE
  1

  9
$STYLESHEET
  1
spax form.ctb
  9
$XEDIT
290
     1
  9
$CEPSNTYPE
380
     0
  9
$PSTYLEMODE
290
     1
  9
$FINGERPRINTGUID
  2
{47009D22-CDDF-11D3-A113-00A0C90652EE}
  9
$VERSIONGUID
  2
{F5A9C99C-BCD0-4594-93E6-80CAC1A01F7C}
  9
$EXTNAMES
290
     1
  9
$PSVPSCALE
 40
0.0
  9
$OLESTARTUP
290
     0
  0
ENDSEC
  0
SECTION
  2
CLASSES
  0
CLASS
  1
LWPOLYLINE
  2
AcDbPolyline
  3
ObjectDBX Classes
 90
        0
280
     0
281
     1
  0
CLASS
  1
ACDBDICTIONARYWDFLT
  2
AcDbDictionaryWithDefault
  3
ObjectDBX Classes
 90
        0
280
     0
281
     0
  0
CLASS
  1
ACDBPLACEHOLDER
  2
AcDbPlaceHolder
  3
ObjectDBX Classes
 90
        0
280
     0
281
     0
  0
CLASS
  1
LAYOUT
  2
AcDbLayout
  3
ObjectDBX Classes
 90
        0
280
     0
281
     0
  0
CLASS
  1
DICTIONARYVAR
  2
AcDbDictionaryVar
  3
ObjectDBX Classes
 90
        0
280
     0
281
     0
  0
CLASS
  1
SORTENTSTABLE
  2
AcDbSortentsTable
  3
ObjectDBX Classes
 90
        0
280
     0
281
     0
  0
CLASS
  1
MATERIAL
  2
AcDbMaterial
  3
ObjectDBX Classes
 90
     1153
280
     0
281
     0
  0
CLASS
  1
VISUALSTYLE
  2
AcDbVisualStyle
  3
ObjectDBX Classes
 90
     4095
280
     0
281
     0
  0
CLASS
  1
TABLESTYLE
  2
AcDbTableStyle
  3
ObjectDBX Classes
 90
     4095
280
     0
281
     0
  0
CLASS
  1
SCALE
  2
AcDbScale
  3
ObjectDBX Classes
 90
     1153
280
     0
281
     0
  0
CLASS
  1
MLEADERSTYLE
  2
AcDbMLeaderStyle
  3
ACDB_MLEADERSTYLE_CLASS
 90
     4095
280
     0
281
     0
  0
CLASS
  1
CELLSTYLEMAP
  2
AcDbCellStyleMap
  3
ObjectDBX Classes
 90
     1152
280
     0
281
     0
  0
CLASS
  1
RASTERVARIABLES
  2
AcDbRasterVariables
  3
ISM
 90
        0
280
     0
281
     0
  0
CLASS
  1
SUN
  2
AcDbSun
  3
SCENEOE
 90
     1153
280
     0
281
     0
  0
ENDSEC
  0
SECTION
  2
TABLES
  0
TABLE
  2
VPORT
  5
8
330
0
100
AcDbSymbolTable
 70
     1
  0
VPORT
  5
ABF5D
330
8
100
AcDbSymbolTableRecord
100
AcDbViewportTableRecord
  2
*Active
 70
     0
 10
0.0
 20
0.0
 11
1.0
 21
1.0
 12
6530.98431351403
 22
1360.122464417227
 13
0.0
 23
0.0
 14
1.0
 24
1.0
 15
20.0
 25
20.0
 16
0.0
 26
0.0
 36
1.0
 17
0.0
 27
0.0
 37
0.0
 40
130.1279318746033
 41
1.731829573934837
 42
50.0
 43
0.0
 44
0.0
 50
0.0
 51
0.0
 71
    16
 72
   100
 73
     1
 74
     0
 75
     0
 76
     0
 77
     0
 78
     2
281
     0
 65
     1
110
0.0
120
0.0
130
0.0
111
1.0
121
0.0
131
0.0
112
0.0
122
1.0
132
0.0
 79
     0
146
0.0
  0
ENDTAB
  0
TABLE
  2
LTYPE
  5
5
330
0
100
AcDbSymbolTable
 70
     4
  0
LTYPE
  5
12
330
5
100
AcDbSymbolTableRecord
100
AcDbLinetypeTableRecord
  2
BYBLOCK
 70
     0
  3

 72
    65
 73
     0
 40
0.0
  0
LTYPE
  5
13
330
5
100
AcDbSymbolTableRecord
100
AcDbLinetypeTableRecord
  2
BYLAYER
 70
     0
  3

 72
    65
 73
     0
 40
0.0
  0
LTYPE
  5
14
330
5
100
AcDbSymbolTableRecord
100
AcDbLinetypeTableRecord
  2
CONTINUOUS
 70
     0
  3
Solid line
 72
    65
 73
     0
 40
0.0
  0
LTYPE
  5
27
330
5
100
AcDbSymbolTableRecord
100
AcDbLinetypeTableRecord
  2
CENTER
 70
     0
  3
____ _ ____ _ ____ _ ____ _ ____ _ ____ _ ____
 72
    65
 73
     4
 40
2.0
 49
1.25
 74
     0
 49
-0.25
 74
     0
 49
0.25
 74
     0
 49
-0.25
 74
     0
  0
LTYPE
  5
28
330
5
100
AcDbSymbolTableRecord
100
AcDbLinetypeTableRecord
  2
PHANTOM
 70
     0
  3
_____ _ _ _____ _ _ _____ _ _ _____ _ _ ____
 72
    65
 73
     6
 40
2.5
 49
1.25
 74
     0
 49
-0.25
 74
     0
 49
0.25
 74
     0
 49
-0.25
 74
     0
 49
0.25
 74
     0
 49
-0.25
 74
     0
  0
LTYPE
  5
29
330
5
100
AcDbSymbolTableRecord
100
AcDbLinetypeTableRecord
  2
HIDDEN
 70
     0
  3
_ _ _ _ _ _ _ _ _ _ _ _ _ _ _ _ _ _ _ _ _ _ _
 72
    65
 73
     2
 40
0.375
 49
0.25
 74
     0
 49
-0.125
 74
     0
  0
ENDTAB
  0
TABLE
  2
LAYER
  5
2
102
{ACAD_XDICTIONARY
360
47F70
102
}
330
0
100
AcDbSymbolTable
 70
    11
  0
LAYER
  5
F
102
{ACAD_XDICTIONARY
360
AB7F8
102
}
330
2
100
AcDbSymbolTableRecord
100
AcDbLayerTableRecord
  2
0
 70
     0
 62
     7
  6
CONTINUOUS
370
    -3
390
1EE
  0
LAYER
  5
635
102
{ACAD_XDICTIONARY
360
AB7FE
102
}
330
2
100
AcDbSymbolTableRecord
100
AcDbLayerTableRecord
  2
寸法線
 70
     0
 62
     7
  6
CONTINUOUS
370
    -3
390
1EE
  0
LAYER
  5
639
102
{ACAD_XDICTIONARY
360
AB804
102
}
330
2
100
AcDbSymbolTableRecord
100
AcDbLayerTableRecord
  2
文字
 70
     0
 62
     7
  6
CONTINUOUS
370
    -3
390
1EE
  0
LAYER
  5
63B
102
{ACAD_XDICTIONARY
360
AB808
102
}
330
2
100
AcDbSymbolTableRecord
100
AcDbLayerTableRecord
  2
姿図
 70
     0
 62
     8
  6
CONTINUOUS
370
    -3
390
1EE
  0
ENDTAB
  0
TABLE
  2
STYLE
  5
3
330
0
100
AcDbSymbolTable
 70
     1
  0
STYLE
  5
10
330
3
100
AcDbSymbolTableRecord
100
AcDbTextStyleTableRecord
  2
STANDARD
 70
     0
 40
0.0
 41
1.0
 50
0.0
 71
     0
 42
10.0
  3
MONOTXT
  4
BIGFONT
  0
ENDTAB
  0
TABLE
  2
VIEW
  5
6
330
0
100
AcDbSymbolTable
 70
     0
  0
ENDTAB
  0
TABLE
  2
UCS
  5
7
330
0
100
AcDbSymbolTable
 70
     0
  0
ENDTAB
  0
TABLE
  2
APPID
  5
9
330
0
100
AcDbSymbolTable
 70
     5
  0
APPID
  5
11
330
9
100
AcDbSymbolTableRecord
100
AcDbRegAppTableRecord
  2
ACAD
 70
     0
  0
APPID
  5
2A913
330
9
100
AcDbSymbolTableRecord
100
AcDbRegAppTableRecord
  2
DCO15
 70
     0
  0
APPID
  5
AB7F4
330
9
100
AcDbSymbolTableRecord
100
AcDbRegAppTableRecord
  2
ACAD_MLEADERVER
 70
     0
  0
APPID
  5
AC725
330
9
100
AcDbSymbolTableRecord
100
AcDbRegAppTableRecord
  2
ACAD_EXEMPT_FROM_CAD_STANDARDS
 70
     0
  0
APPID
  5
ACFF6
330
9
100
AcDbSymbolTableRecord
100
AcDbRegAppTableRecord
  2
ACAD_PSEXT
 70
     0
  0
ENDTAB
  0
TABLE
  2
DIMSTYLE
  5
A
330
0
100
AcDbSymbolTable
 70
     2
100
AcDbDimStyleTable
  0
DIMSTYLE
105
166
330
A
100
AcDbSymbolTableRecord
100
AcDbDimStyleTableRecord
  2
STANDARD
 70
     0
 41
2.5
 42
1.5
 43
5.0
 44
1.0
 73
     0
 74
     0
 77
     3
 78
     8
 79
     2
140
3.0
141
0.0
147
1.0
171
     0
172
     1
176
     8
177
     8
271
     2
178
   256
179
     2
271
     2
272
     2
274
     0
284
     8
340
10
341
3621E
342
3621E
  0
ENDTAB
  0
TABLE
  2
BLOCK_RECORD
  5
1
330
0
100
AcDbSymbolTable
 70
   150
  0
BLOCK_RECORD
  5
18
330
1
100
AcDbSymbolTableRecord
100
AcDbBlockTableRecord
  2
*MODEL_SPACE
340
1F1
  0
BLOCK_RECORD
  5
15
330
1
100
AcDbSymbolTableRecord
100
AcDbBlockTableRecord
  2
*PAPER_SPACE
340
1F2
  0
BLOCK_RECORD
  5
3621E
330
1
100
AcDbSymbolTableRecord
100
AcDbBlockTableRecord
  2
_Open30
340
0
102
{BLKREFS
331
A9E4B
331
A9E4C
331
A9E54
331
A9E55
331
A9E5D
331
A9E5E
331
A9E67
331
A9E68
331
A9E6F
331
A9E70
331
A9E76
331
A9E77
331
A9E81
331
A9E82
331
A9E8A
331
A9E8B
331
A9E93
331
A9E94
331
A9E9E
331
A9E9F
331
A9EA7
331
A9EA8
331
A9EB0
331
A9EB1
331
A9EB9
331
A9EBA
331
A9EC2
331
A9EC3
331
A9ECB
331
A9ECC
331
A9ED4
331
A9ED5
331
A9EDD
331
A9EDE
331
A9F23
331
AAC29
331
AAC2A
331
AAC32
331
AAC33
331
AAC3C
331
AAC3D
331
AAC44
331
AAC45
331
AAC4B
331
AAC4C
331
AAC54
331
AAC55
331
AAC5D
331
AAC5E
331
AAC66
331
AAC67
331
AAC6F
331
AAC70
331
AAC78
331
AAC79
331
AAC81
331
AAC82
331
AAC8B
331
AAC95
331
AAC96
331
AAC9E
331
AAC9F
331
AACA9
331
AACAA
331
AACB2
331
AACB3
331
AACBB
331
AACBC
331
AACC6
331
AACC7
331
AB30F
331
AB310
331
AB31A
331
AB31B
331
AB323
331
AB324
331
AB32D
331
AB32E
331
AB335
331
AB336
331
AB33C
331
AB33D
331
AB345
331
AB346
331
AB34E
331
AB34F
331
AB357
331
AB358
331
AB360
331
AB361
331
AB36B
331
AB36C
331
AB375
331
AB37D
331
AB37E
331
AB386
331
AB387
331
AB391
331
AB392
331
AB39A
331
AB39B
331
AB3A3
331
AB3A4
331
AB3AC
331
AB3AD
331
ABEA4
331
ABEA5
331
ABEB3
331
ABEB4
331
ABEBC
331
ABEBD
331
ABEC5
331
ABEC6
331
ABECE
331
ABECF
331
ABED7
331
ABED8
331
ABEE0
331
ABEE1
331
ABEE9
331
ABEEA
331
ABEF2
331
ABEF3
331
ABEFB
331
ABEFC
331
ABF04
331
ABF05
331
ABF0F
331
ABF10
331
ABF18
331
ABF19
331
ABF23
331
ABF24
331
ABF2C
331
ABF2D
331
ABF37
331
ABF38
331
ABF41
331
ABF59
331
ABF5A
331
AC5C6
331
AC5C7
331
AC5CF
331
AC5D0
331
AC5DA
331
AC5DB
331
AC5E4
331
AC5E5
331
AC5EB
331
AC5EC
331
AC5F4
331
AC5F5
331
AC5FD
331
AC5FE
331
AC606
331
AC607
331
AC60F
331
AC610
331
AC618
331
AC619
331
AC621
331
AC622
331
AC62B
331
AC635
331
AC636
331
AC63E
331
AC63F
331
AC647
331
AC648
331
AC650
331
AC651
331
AC659
331
AC65A
331
AC662
331
AC663
331
ACE51
331
ACE52
331
ACE58
331
ACE59
331
ACE61
331
ACE62
331
ACE6A
331
ACE6B
331
ACE73
331
ACE74
331
ACE7C
331
ACE7D
331
ACE85
331
ACE86
331
ACE8E
331
ACE8F
331
ACEAB
331
ACEAC
331
ACEB4
331
ACEB5
331
ACEBD
331
ACEBE
331
ACEC6
331
ACEC7
331
ACECF
331
ACED0
331
ACEDA
331
ACEDB
331
ACEE5
331
ACEE6
331
ACEEF
331
ACEF0
331
ACEFB
331
ACF91
331
ADA12
331
ADA13
331
ADA1B
331
ADA1C
331
ADA24
331
ADA25
331
ADA2D
331
ADA2E
331
ADA36
331
ADA37
331
ADA42
331
ADA4D
331
ADA55
331
ADA56
331
ADA5E
331
ADA5F
331
ADA67
331
ADA68
331
ADA70
331
ADA71
331
ADA79
331
ADA7A
331
ADA83
331
ADA84
331
ADA8A
331
ADA8B
331
ADA93
331
ADA94
331
ADA9E
331
ADA9F
331
ADAA9
331
ADAAA
331
ADAB3
331
ADAB4
331
ADE24
331
ADE25
102
}
  0
ENDTAB
  0
ENDSEC
  0
SECTION
  2
BLOCKS
  0
BLOCK
  5
3B
330
18
100
AcDbEntity
  8
0
100
AcDbBlockBegin
  2
*MODEL_SPACE
 70
     0
 10
0.0
 20
0.0
 30
0.0
  3
*MODEL_SPACE
  1
*MODEL_SPACE
  0
ENDBLK
  5
3C
330
18
100
AcDbEntity
  8
0
100
AcDbBlockEnd
  0
BLOCK
  5
39
330
15
100
AcDbEntity
 67
     1
  8
0
100
AcDbBlockBegin
  2
*PAPER_SPACE
 70
     0
 10
0.0
 20
0.0
 30
0.0
  3
*PAPER_SPACE
  1
*PAPER_SPACE
  0
ENDBLK
  5
3A
330
15
100
AcDbEntity
 67
     1
  8
0
100
AcDbBlockEnd
  0
BLOCK
  5
36222
330
3621E
100
AcDbEntity
  8
0
100
AcDbBlockBegin
  2
_Open30
 70
     0
 10
0.0
 20
0.0
 30
0.0
  3
_Open30
  1
_Open30
  0
LINE
  5
3621F
330
3621E
100
AcDbEntity
  8
0
  6
ByBlock
 62
     0
370
    -2
100
AcDbLine
 10
-1.0
 20
0.26794919
 30
0.0
 11
0.0
 21
0.0
 31
0.0
  0
LINE
  5
36220
330
3621E
100
AcDbEntity
  8
0
  6
ByBlock
 62
     0
370
    -2
100
AcDbLine
 10
0.0
 20
0.0
 30
0.0
 11
-1.0
 21
-0.26794919
 31
0.0
  0
LINE
  5
36221
330
3621E
100
AcDbEntity
  8
0
  6
ByBlock
 62
     0
370
    -2
100
AcDbLine
 10
0.0
 20
0.0
 30
0.0
 11
-1.0
 21
0.0
 31
0.0
  0
ENDBLK
  5
36223
330
3621E
100
AcDbEntity
  8
0
100
AcDbBlockEnd
  0
ENDSEC
  0
SECTION
  2
ENTITIES
  0
TEXT
  5
23700
330
18
100
AcDbEntity
  8
文字
100
AcDbText
 10
7285.192438095743
 20
-755.4069862600319
 30
0.0
 40
2.3625
  1

100
AcDbText
  0
TEXT
  5
239F8
330
18
100
AcDbEntity
  8
文字
100
AcDbText
 10
7318.333642539328
 20
-535.2891428752024
 30
0.0
 40
2.4
  1

100
AcDbText
  0
MTEXT
  5
598C3
330
18
100
AcDbEntity
  8
寸法線
100
AcDbMText
 10
1163.451362687694
 20
-2076.891599415674
 30
0.0
 40
3.0
 41
0.0
 71
     7
 72
     1
  1
\A1;
 73
     1
 44
1.0
  0
ELLIPSE
  5
AD5F8
330
18
100
AcDbEntity
  8
姿図
100
AcDbEllipse
 10
6563.845628677667
 20
1382.698627793724
 30
0.0
 11
-22.27019111485791
 21
0.0
 31
0.0
210
0.0
220
0.0
230
1.0
 40
0.3989172817622232
 41
6.328225479390605
 42
8.770773160613757
  0
ELLIPSE
  5
AD5F9
330
18
100
AcDbEntity
  8
姿図
100
AcDbEllipse
 10
6563.845628677667
 20
1381.898627793724
 30
0.0
 11
-22.27019111485791
 21
0.0
 31
0.0
210
0.0
220
0.0
230
1.0
 40
0.3989172817622232
 41
5.618686487414179
 42
8.843940284267434
  0
LINE
  5
AD5FA
330
18
100
AcDbEntity
  8
姿図
100
AcDbLine
 10
6561.601197915832
 20
1363.149888099017
 30
0.0
 11
6462.385260349765
 21
1389.04617937732
 31
0.0
  0
LINE
  5
AD5FB
330
18
100
AcDbEntity
  8
姿図
100
AcDbLine
 10
6561.601197915834
 20
1367.469335739837
 30
0.0
 11
6469.056371486144
 21
1392.692629238273
 31
0.0
  0
LINE
  5
AD5FC
330
18
100
AcDbEntity
  8
姿図
100
AcDbLine
 10
6561.601197915832
 20
1361.714090444821
 30
0.0
 11
6460.241437464874
 21
1387.874359196138
 31
0.0
  0
LINE
  5
AD5FD
330
18
100
AcDbEntity
  8
姿図
100
AcDbLine
 10
6561.601197915832
 20
1360.203725330239
 30
0.0
 11
6457.971193235782
 21
1386.633436719469
 31
0.0
  0
LINE
  5
AD5FE
330
18
100
AcDbEntity
  8
姿図
100
AcDbLine
 10
6561.601197915832
 20
1357.60132051766
 30
0.0
 11
6448.431657591516
 21
1385.872078130717
 31
0.0
  0
LINE
  5
AD5FF
330
18
100
AcDbEntity
  8
姿図
100
AcDbLine
 10
6603.957299488624
 20
1370.867965666763
 30
0.0
 11
6489.237608839443
 21
1403.723755633319
 31
0.0
  0
LINE
  5
AD600
330
18
100
AcDbEntity
  8
姿図
100
AcDbLine
 10
6614.738241499826
 20
1370.824895195183
 30
0.0
 11
6487.998718006054
 21
1407.9390201031
 31
0.0
  0
LINE
  5
AD601
330
18
100
AcDbEntity
  8
姿図
100
AcDbLine
 10
6614.738241499826
 20
1371.979574001711
 30
0.0
 11
6487.998718006054
 21
1409.411013050517
 31
0.0
  0
LINE
  5
AD602
330
18
100
AcDbEntity
  8
姿図
100
AcDbLine
 10
6609.50902381991
 20
1375.634051004965
 30
0.0
 11
6489.237608839443
 21
1411.738722776682
 31
0.0
  0
LINE
  5
AD603
330
18
100
AcDbEntity
  8
姿図
100
AcDbLine
 10
6609.508801610105
 20
1376.824673621951
 30
0.0
 11
6489.237608839443
 21
1413.24027672019
 31
0.0
  0
LINE
  5
AD604
330
18
100
AcDbEntity
  8
姿図
100
AcDbLine
 10
6608.421844716155
 20
1375.442361374258
 30
0.0
 11
6489.237608839443
 21
1411.091785500626
 31
0.0
  0
LINE
  5
AD605
330
18
100
AcDbEntity
  8
姿図
100
AcDbLine
 10
6609.109156334174
 20
1378.261760767521
 30
0.0
 11
6489.237608839443
 21
1414.998589281714
 31
0.0
  0
LINE
  5
AD606
330
18
100
AcDbEntity
  8
姿図
100
AcDbLine
 10
6566.336789812933
 20
1396.849224437445
 30
0.0
 11
6531.427678176477
 21
1407.797475703787
 31
0.0
  0
LINE
  5
AD607
330
18
100
AcDbEntity
  8
姿図
100
AcDbLine
 10
6566.539806543875
 20
1398.203477675683
 30
0.0
 11
6531.584659687722
 21
1409.244976168866
 31
0.0
  0
LINE
  5
AD608
330
18
100
AcDbEntity
  8
姿図
100
AcDbLine
 10
6571.08004222626
 20
1392.715512306605
 30
0.0
 11
6526.864970086433
 21
1406.455488722192
 31
0.0
  0
LINE
  5
AD609
330
18
100
AcDbEntity
  8
姿図
100
AcDbLine
 10
6571.08004222626
 20
1394.072571822238
 30
0.0
 11
6526.864970086435
 21
1407.897371041193
 31
0.0
  0
LINE
  5
AD60A
330
18
100
AcDbEntity
  8
姿図
100
AcDbLine
 10
6574.643253170147
 20
1390.240436361867
 30
0.0
 11
6523.153460577418
 21
1406.152363975487
 31
0.0
  0
LINE
  5
AD60B
330
18
100
AcDbEntity
  8
姿図
100
AcDbLine
 10
6571.08004222626
 20
1398.292496172618
 30
0.0
 11
6526.864970086435
 21
1412.38657177585
 31
0.0
  0
LINE
  5
AD60C
330
18
100
AcDbEntity
  8
姿図
100
AcDbLine
 10
6517.536124726508
 20
1409.354457535919
 30
0.0
 11
6489.237608839443
 21
1418.148312709439
 31
0.0
  0
LINE
  5
AD60D
330
18
100
AcDbEntity
  8
姿図
100
AcDbLine
 10
6517.536124726508
 20
1410.814236440345
 30
0.0
 11
6489.237608839443
 21
1419.662379876499
 31
0.0
  0
LINE
  5
AD60E
330
18
100
AcDbEntity
  8
姿図
100
AcDbLine
 10
6517.536124726508
 20
1415.243707974628
 30
0.0
 11
6489.237608839443
 21
1423.910666316542
 31
0.0
  0
LINE
  5
AD60F
330
18
100
AcDbEntity
  8
姿図
100
AcDbLine
 10
6521.495247997491
 20
1406.664802600915
 30
0.0
 11
6489.237608839443
 21
1416.633404015356
 31
0.0
  0
LINE
  5
AD610
330
18
100
AcDbEntity
  8
姿図
100
AcDbLine
 10
6513.832856842446
 20
1414.805556420822
 30
0.0
 11
6489.237608839443
 21
1422.563632028217
 31
0.0
  0
LINE
  5
AD611
330
18
100
AcDbEntity
  8
姿図
100
AcDbLine
 10
6513.795391741038
 20
1413.327341496582
 30
0.0
 11
6489.237608839443
 21
1421.029192536244
 31
0.0
  0
ELLIPSE
  5
AD612
330
18
100
AcDbEntity
  8
姿図
100
AcDbEllipse
 10
6510.336136303205
 20
1398.986831014621
 30
0.0
 11
-23.93691520534844
 21
0.0
 31
0.0
210
0.0
220
0.0
230
1.0
 40
0.3999919185846545
 41
0.0417894837624354
 42
2.409090005352873
  0
ELLIPSE
  5
AD613
330
18
100
AcDbEntity
  8
姿図
100
AcDbEllipse
 10
6510.336136303205
 20
1398.186831014621
 30
0.0
 11
-23.93691520534844
 21
0.0
 31
0.0
210
0.0
220
0.0
230
1.0
 40
0.3999919185846545
 41
-0.5784367365588503
 42
2.477240828422211
  0
LINE
  5
AD614
330
18
100
AcDbEntity
  8
姿図
100
AcDbLine
 10
6474.753133828779
 20
1415.350087792276
 30
0.0
 11
6489.237608839443
 21
1423.910666316542
 31
0.0
  0
LINE
  5
AD615
330
18
100
AcDbEntity
  8
姿図
100
AcDbLine
 10
6474.753133828779
 20
1409.669912673516
 30
0.0
 11
6489.237608839443
 21
1418.148312709439
 31
0.0
  0
LINE
  5
AD616
330
18
100
AcDbEntity
  8
姿図
100
AcDbLine
 10
6474.753133828779
 20
1411.14289884126
 30
0.0
 11
6489.237608839443
 21
1419.662379876499
 31
0.0
  0
LINE
  5
AD617
330
18
100
AcDbEntity
  8
姿図
100
AcDbLine
 10
6474.753133828779
 20
1412.522577380711
 30
0.0
 11
6489.237608839443
 21
1421.029192536244
 31
0.0
  0
LINE
  5
AD618
330
18
100
AcDbEntity
  8
姿図
100
AcDbLine
 10
6474.753133828779
 20
1414.02722544256
 30
0.0
 11
6489.237608839443
 21
1422.563632028217
 31
0.0
  0
LINE
  5
AD619
330
18
100
AcDbEntity
  8
姿図
100
AcDbLine
 10
6472.472613368436
 20
1406.77329499938
 30
0.0
 11
6489.237608839443
 21
1416.633404015356
 31
0.0
  0
LINE
  5
AD61A
330
18
100
AcDbEntity
  8
姿図
100
AcDbLine
 10
6489.237608839443
 20
1409.053126042955
 30
0.0
 11
6489.237608839443
 21
1423.910666316542
 31
0.0
  0
LINE
  5
AD61B
330
18
100
AcDbEntity
  8
姿図
100
AcDbLine
 10
6457.971193235782
 20
1386.633436719469
 30
0.0
 11
6448.431657591516
 21
1385.872078130717
 31
0.0
  0
LINE
  5
AD61C
330
18
100
AcDbEntity
  8
姿図
100
AcDbLine
 10
6448.431657591516
 20
1385.872078130717
 30
0.0
 11
6487.998718006054
 21
1407.9390201031
 31
0.0
  0
LINE
  5
AD61D
330
18
100
AcDbEntity
  8
姿図
100
AcDbLine
 10
6487.998718006054
 20
1409.411013050517
 30
0.0
 11
6448.431657591516
 21
1387.211848975413
 31
0.0
  0
LINE
  5
AD61E
330
18
100
AcDbEntity
  8
姿図
100
AcDbLine
 10
6448.431657591516
 20
1385.872078130717
 30
0.0
 11
6448.431657591516
 21
1387.211848975413
 31
0.0
  0
ELLIPSE
  5
AD61F
330
18
100
AcDbEntity
  8
姿図
100
AcDbEllipse
 10
6476.669880407983
 20
1414.355138087711
 30
0.0
 11
0.02039267950294743
 21
0.8964876709392232
 31
0.0
210
0.0
220
0.0
230
1.0
 40
0.3058186234057533
 41
0.0
 42
6.283185307179586
  0
ELLIPSE
  5
AD620
330
18
100
AcDbEntity
  8
姿図
100
AcDbEllipse
 10
6465.9119404858
 20
1408.056522185299
 30
0.0
 11
0.02039267950294743
 21
0.896487670939223
 31
0.0
210
0.0
220
0.0
230
1.0
 40
0.3058186234057532
 41
0.0
 42
6.283185307179586
  0
LINE
  5
AD621
330
18
100
AcDbEntity
  8
姿図
100
AcDbLine
 10
6473.419664011955
 20
1414.561983765844
 30
0.0
 11
6474.21211469614
 21
1414.298654996382
 31
0.0
  0
LINE
  5
AD622
330
18
100
AcDbEntity
  8
姿図
100
AcDbLine
 10
6473.419664011955
 20
1414.561983765844
 30
0.0
 11
6473.419664011955
 21
1407.338875189615
 31
0.0
  0
LINE
  5
AD623
330
18
100
AcDbEntity
  8
姿図
100
AcDbLine
 10
6474.21211469614
 20
1414.298654996382
 30
0.0
 11
6474.21211469614
 21
1407.804944515393
 31
0.0
  0
LINE
  5
AD624
330
18
100
AcDbEntity
  8
姿図
100
AcDbLine
 10
6474.753133828779
 20
1415.350087792276
 30
0.0
 11
6474.753133828779
 21
1408.123137719607
 31
0.0
  0
LINE
  5
AD625
330
18
100
AcDbEntity
  8
姿図
100
AcDbLine
 10
6469.54867600041
 20
1412.248854058027
 30
0.0
 11
6470.887712000065
 21
1413.041968980153
 31
0.0
  0
LINE
  5
AD626
330
18
100
AcDbEntity
  8
姿図
100
AcDbLine
 10
6469.54867600041
 20
1410.959984962795
 30
0.0
 11
6470.887712000065
 21
1411.749144094726
 31
0.0
  0
LINE
  5
AD627
330
18
100
AcDbEntity
  8
姿図
100
AcDbLine
 10
6469.54867600041
 20
1409.466041344263
 30
0.0
 11
6470.887712000065
 21
1410.252446368959
 31
0.0
  0
LINE
  5
AD628
330
18
100
AcDbEntity
  8
姿図
100
AcDbLine
 10
6469.54867600041
 20
1408.081739929056
 30
0.0
 11
6470.887712000065
 21
1408.869334356618
 31
0.0
  0
LINE
  5
AD629
330
18
100
AcDbEntity
  8
姿図
100
AcDbLine
 10
6469.54867600041
 20
1406.623514691779
 30
0.0
 11
6470.887712000065
 21
1407.407311333302
 31
0.0
  0
LINE
  5
AD62A
330
18
100
AcDbEntity
  8
姿図
100
AcDbLine
 10
6468.215206183586
 20
1411.492466187698
 30
0.0
 11
6469.00765686777
 21
1411.229137418235
 31
0.0
  0
LINE
  5
AD62B
330
18
100
AcDbEntity
  8
姿図
100
AcDbLine
 10
6468.215206183586
 20
1411.492466187698
 30
0.0
 11
6468.215206183586
 21
1404.269357611468
 31
0.0
  0
LINE
  5
AD62C
330
18
100
AcDbEntity
  8
姿図
100
AcDbLine
 10
6469.00765686777
 20
1411.229137418235
 30
0.0
 11
6469.00765686777
 21
1404.735426937246
 31
0.0
  0
LINE
  5
AD62D
330
18
100
AcDbEntity
  8
姿図
100
AcDbLine
 10
6469.54867600041
 20
1412.248854058027
 30
0.0
 11
6469.54867600041
 21
1405.05362014146
 31
0.0
  0
LINE
  5
AD62E
330
18
100
AcDbEntity
  8
姿図
100
AcDbLine
 10
6470.887712000065
 20
1413.041968980153
 30
0.0
 11
6471.68016268425
 21
1412.778640210691
 31
0.0
  0
LINE
  5
AD62F
330
18
100
AcDbEntity
  8
姿図
100
AcDbLine
 10
6472.472613368436
 20
1408.335023784643
 30
0.0
 11
6473.419664011955
 21
1408.889374163523
 31
0.0
  0
LINE
  5
AD630
330
18
100
AcDbEntity
  8
姿図
100
AcDbLine
 10
6472.472613368436
 20
1409.801541919586
 30
0.0
 11
6473.419664011955
 21
1410.358578332085
 31
0.0
  0
LINE
  5
AD631
330
18
100
AcDbEntity
  8
姿図
100
AcDbLine
 10
6472.472613368436
 20
1411.183246138387
 30
0.0
 11
6473.419664011955
 21
1411.739441330225
 31
0.0
  0
LINE
  5
AD632
330
18
100
AcDbEntity
  8
姿図
100
AcDbLine
 10
6472.472613368436
 20
1412.683203663237
 30
0.0
 11
6473.419664011955
 21
1413.241346733272
 31
0.0
  0
LINE
  5
AD633
330
18
100
AcDbEntity
  8
姿図
100
AcDbLine
 10
6472.472613368436
 20
1413.980710676177
 30
0.0
 11
6473.419664011955
 21
1414.541651530327
 31
0.0
  0
LINE
  5
AD634
330
18
100
AcDbEntity
  8
姿図
100
AcDbLine
 10
6472.472613368436
 20
1413.980710676177
 30
0.0
 11
6472.472613368436
 21
1405.26791318016
 31
0.0
  0
LINE
  5
AD635
330
18
100
AcDbEntity
  8
姿図
100
AcDbLine
 10
6470.887712000065
 20
1413.041968980153
 30
0.0
 11
6470.887712000065
 21
1404.34823831163
 31
0.0
  0
LINE
  5
AD636
330
18
100
AcDbEntity
  8
姿図
100
AcDbLine
 10
6471.68016268425
 20
1412.778640210691
 30
0.0
 11
6471.68016268425
 21
1404.808075745894
 31
0.0
  0
LINE
  5
AD637
330
18
100
AcDbEntity
  8
姿図
100
AcDbLine
 10
6489.237608839443
 20
1403.723755633319
 30
0.0
 11
6487.998718006054
 21
1407.9390201031
 31
0.0
  0
LINE
  5
AD638
330
18
100
AcDbEntity
  8
姿図
100
AcDbLine
 10
6487.998718006054
 20
1407.9390201031
 30
0.0
 11
6487.998718006054
 21
1409.411013050517
 31
0.0
  0
LINE
  5
AD639
330
18
100
AcDbEntity
  8
姿図
100
AcDbLine
 10
6480.496720091205
 20
1405.202004828576
 30
0.0
 11
6480.496720091205
 21
1406.168190766961
 31
0.0
  0
LINE
  5
AD63A
330
18
100
AcDbEntity
  8
姿図
100
AcDbLine
 10
6465.110647362466
 20
1397.501476335403
 30
0.0
 11
6465.110647362466
 21
1396.569623514465
 31
0.0
  0
LINE
  5
AD63B
330
18
100
AcDbEntity
  8
姿図
100
AcDbLine
 10
6458.341790012235
 20
1395.686912734431
 30
0.0
 11
6458.341790012235
 21
1405.610982850624
 31
0.0
  0
LINE
  5
AD63C
330
18
100
AcDbEntity
  8
姿図
100
AcDbLine
 10
6457.971193235782
 20
1394.104642892881
 30
0.0
 11
6458.730129752947
 21
1393.907438726055
 31
0.0
  0
LINE
  5
AD63D
330
18
100
AcDbEntity
  8
姿図
100
AcDbLine
 10
6458.730129752947
 20
1392.989823655342
 30
0.0
 11
6458.730129752947
 21
1393.907438726055
 31
0.0
  0
LINE
  5
AD63E
330
18
100
AcDbEntity
  8
姿図
100
AcDbLine
 10
6457.971193235782
 20
1394.10464289288
 30
0.0
 11
6457.971193235782
 21
1395.476359321187
 31
0.0
  0
LINE
  5
AD63F
330
18
100
AcDbEntity
  8
姿図
100
AcDbLine
 10
6457.971193235782
 20
1386.633436719469
 30
0.0
 11
6489.237608839443
 21
1403.723755633319
 31
0.0
  0
LINE
  5
AD640
330
18
100
AcDbEntity
  8
姿図
100
AcDbLine
 10
6458.730129752947
 20
1393.907438726055
 30
0.0
 11
6489.237608839443
 21
1411.091785500626
 31
0.0
  0
LINE
  5
AD641
330
18
100
AcDbEntity
  8
姿図
100
AcDbLine
 10
6457.971193235782
 20
1395.476359321187
 30
0.0
 11
6489.237608839443
 21
1413.24027672019
 31
0.0
  0
LINE
  5
AD642
330
18
100
AcDbEntity
  8
姿図
100
AcDbLine
 10
6457.971193235782
 20
1394.104642892881
 30
0.0
 11
6489.237608839443
 21
1411.738722776682
 31
0.0
  0
LINE
  5
AD643
330
18
100
AcDbEntity
  8
姿図
100
AcDbLine
 10
6458.341790012235
 20
1397.068183296843
 30
0.0
 11
6489.237608839443
 21
1414.996181016511
 31
0.0
  0
LINE
  5
AD644
330
18
100
AcDbEntity
  8
姿図
100
AcDbLine
 10
6458.341790012235
 20
1402.884327742414
 30
0.0
 11
6468.215206183586
 21
1408.682905293776
 31
0.0
  0
LINE
  5
AD645
330
18
100
AcDbEntity
  8
姿図
100
AcDbLine
 10
6458.341790012235
 20
1404.35522122205
 30
0.0
 11
6468.215206183586
 21
1410.174106253506
 31
0.0
  0
LINE
  5
AD646
330
18
100
AcDbEntity
  8
姿図
100
AcDbLine
 10
6458.341790012235
 20
1401.490071776082
 30
0.0
 11
6468.215206183586
 21
1407.297419419881
 31
0.0
  0
LINE
  5
AD647
330
18
100
AcDbEntity
  8
姿図
100
AcDbLine
 10
6458.341790012235
 20
1400.063631610427
 30
0.0
 11
6468.215206183586
 21
1405.842976181786
 31
0.0
  0
LINE
  5
AD648
330
18
100
AcDbEntity
  8
姿図
100
AcDbLine
 10
6458.341790012235
 20
1398.462439263176
 30
0.0
 11
6470.887712000065
 21
1405.841156347822
 31
0.0
  0
LINE
  5
AD649
330
18
100
AcDbEntity
  8
姿図
100
AcDbLine
 10
6458.341790012235
 20
1405.610982850624
 30
0.0
 11
6468.215206183586
 21
1411.459036002202
 31
0.0
  0
LINE
  5
AD64A
330
18
100
AcDbEntity
  8
姿図
100
AcDbLine
 10
6525.206757506507
 20
1411.217888539121
 30
0.0
 11
6523.153460577418
 21
1411.865559699761
 31
0.0
  0
LINE
  5
AD64B
330
18
100
AcDbEntity
  8
姿図
100
AcDbLine
 10
6525.206757506507
 20
1412.894430895021
 30
0.0
 11
6523.153460577418
 21
1413.523292105235
 31
0.0
  0
LINE
  5
AD64C
330
18
100
AcDbEntity
  8
姿図
100
AcDbLine
 10
6525.206757506507
 20
1408.415847091788
 30
0.0
 11
6523.153460577418
 21
1409.05785481467
 31
0.0
  0
LINE
  5
AD64D
330
18
100
AcDbEntity
  8
姿図
100
AcDbLine
 10
6525.206757506507
 20
1409.748490765759
 30
0.0
 11
6523.153460577418
 21
1410.392449023368
 31
0.0
  0
LINE
  5
AD64E
330
18
100
AcDbEntity
  8
姿図
100
AcDbLine
 10
6525.206757506507
 20
1406.970783634935
 30
0.0
 11
6523.153460577418
 21
1407.608852284708
 31
0.0
  0
LINE
  5
AD64F
330
18
100
AcDbEntity
  8
姿図
100
AcDbLine
 10
6522.43310181077
 20
1413.134781623693
 30
0.0
 11
6523.147382438414
 21
1413.52520961119
 31
0.0
  0
LINE
  5
AD650
330
18
100
AcDbEntity
  8
姿図
100
AcDbLine
 10
6521.495247997491
 20
1410.912500297291
 30
0.0
 11
6519.194337306437
 21
1411.634115577835
 31
0.0
  0
LINE
  5
AD651
330
18
100
AcDbEntity
  8
姿図
100
AcDbLine
 10
6521.495247997491
 20
1412.388609459886
 30
0.0
 11
6519.194337306437
 21
1413.114385394526
 31
0.0
  0
LINE
  5
AD652
330
18
100
AcDbEntity
  8
姿図
100
AcDbLine
 10
6521.495247997491
 20
1414.031151224407
 30
0.0
 11
6519.194337306437
 21
1414.75703293718
 31
0.0
  0
LINE
  5
AD653
330
18
100
AcDbEntity
  8
姿図
100
AcDbLine
 10
6517.536124726508
 20
1412.154166851758
 30
0.0
 11
6514.378417170645
 21
1413.144492131509
 31
0.0
  0
LINE
  5
AD654
330
18
100
AcDbEntity
  8
姿図
100
AcDbLine
 10
6517.536124726508
 20
1413.637435154653
 30
0.0
 11
6514.488705598549
 21
1414.598682140219
 31
0.0
  0
ELLIPSE
  5
AD655
330
18
100
AcDbEntity
  8
姿図
100
AcDbEllipse
 10
6514.126159341999
 20
1414.017091466069
 30
0.0
 11
-1.977196665057704E-16
 21
-1.076371281207362
 31
0.0
210
0.0
220
0.0
230
1.0
 40
0.4002854556153349
 41
0.0
 42
6.283185307179586
  0
ELLIPSE
  5
AD656
330
18
100
AcDbEntity
  8
姿図
100
AcDbEllipse
 10
6513.477836452013
 20
1413.66743203268
 30
0.0
 11
-1.977196665057704E-16
 21
-1.076371281207362
 31
0.0
210
0.0
220
0.0
230
1.0
 40
0.4002854556153349
 41
1.090992743497568
 42
2.475844893381597
  0
LINE
  5
AD657
330
18
100
AcDbEntity
  8
姿図
100
AcDbLine
 10
6518.473978539789
 20
1414.363282620212
 30
0.0
 11
6519.194337306437
 21
1414.75703293718
 31
0.0
  0
LINE
  5
AD658
330
18
100
AcDbEntity
  8
姿図
100
AcDbLine
 10
6521.495247997491
 20
1408.124147197452
 30
0.0
 11
6519.194337306437
 21
1408.839162623176
 31
0.0
  0
LINE
  5
AD659
330
18
100
AcDbEntity
  8
姿図
100
AcDbLine
 10
6521.495247997491
 20
1409.576330865266
 30
0.0
 11
6519.194337306437
 21
1410.29576038975
 31
0.0
  0
LINE
  5
AD65A
330
18
100
AcDbEntity
  8
姿図
100
AcDbLine
 10
6522.43310181077
 20
1413.134781623693
 30
0.0
 11
6522.43310181077
 21
1404.825223222638
 31
0.0
  0
LINE
  5
AD65B
330
18
100
AcDbEntity
  8
姿図
100
AcDbLine
 10
6523.15346057742
 20
1413.523292105236
 30
0.0
 11
6523.15346057742
 21
1404.604456101231
 31
0.0
  0
LINE
  5
AD65C
330
18
100
AcDbEntity
  8
姿図
100
AcDbLine
 10
6518.473978539789
 20
1414.363282620212
 30
0.0
 11
6518.473978539787
 21
1407.59846767299
 31
0.0
  0
LINE
  5
AD65D
330
18
100
AcDbEntity
  8
姿図
100
AcDbLine
 10
6521.495247997491
 20
1414.031151224408
 30
0.0
 11
6521.495247997491
 21
1405.112645679676
 31
0.0
  0
LINE
  5
AD65E
330
18
100
AcDbEntity
  8
姿図
100
AcDbLine
 10
6517.536124726508
 20
1415.264892056353
 30
0.0
 11
6517.536124726508
 21
1407.888293310997
 31
0.0
  0
LINE
  5
AD65F
330
18
100
AcDbEntity
  8
姿図
100
AcDbLine
 10
6519.194337306437
 20
1414.75703293718
 30
0.0
 11
6519.194337306437
 21
1407.375854685569
 31
0.0
  0
LINE
  5
AD660
330
18
100
AcDbEntity
  8
姿図
100
AcDbLine
 10
6499.509843143647
 20
1406.085714308982
 30
0.0
 11
6499.509843143647
 21
1408.099859800851
 31
0.0
  0
ELLIPSE
  5
AD661
330
18
100
AcDbEntity
  8
姿図
100
AcDbEllipse
 10
6531.207820006941
 20
1408.723162355431
 30
0.0
 11
-1.977196665057704E-16
 21
-1.076371281207362
 31
0.0
210
0.0
220
0.0
230
1.0
 40
0.4002854556153349
 41
0.0
 42
6.283185307179586
  0
ELLIPSE
  5
AD662
330
18
100
AcDbEntity
  8
姿図
100
AcDbEllipse
 10
6530.559497116956
 20
1408.373502922043
 30
0.0
 11
-1.977196665057704E-16
 21
-1.076371281207362
 31
0.0
210
0.0
220
0.0
230
1.0
 40
0.4002854556153349
 41
1.090992743497568
 42
2.475844893381597
  0
LINE
  5
AD663
330
18
100
AcDbEntity
  8
姿図
100
AcDbLine
 10
6526.144611319787
 20
1411.998061294307
 30
0.0
 11
6526.85889194743
 21
1412.388489281805
 31
0.0
  0
LINE
  5
AD664
330
18
100
AcDbEntity
  8
姿図
100
AcDbLine
 10
6526.144611319787
 20
1411.998061294308
 30
0.0
 11
6526.144611319787
 21
1405.22800651166
 31
0.0
  0
LINE
  5
AD665
330
18
100
AcDbEntity
  8
姿図
100
AcDbLine
 10
6526.864970086435
 20
1412.38657177585
 30
0.0
 11
6526.864970086435
 21
1405.005393524239
 31
0.0
  0
LINE
  5
AD666
330
18
100
AcDbEntity
  8
姿図
100
AcDbLine
 10
6525.206757506507
 20
1412.894430895023
 30
0.0
 11
6525.206757506507
 21
1405.527246274196
 31
0.0
  0
LINE
  5
AD667
330
18
100
AcDbEntity
  8
姿図
100
AcDbLine
 10
6530.903194071505
 20
1407.961965245263
 30
0.0
 11
6526.864970086433
 21
1409.228439491837
 31
0.0
  0
LINE
  5
AD668
330
18
100
AcDbEntity
  8
姿図
100
AcDbLine
 10
6530.894829255523
 20
1409.462877175233
 30
0.0
 11
6526.864970086435
 21
1410.735813722355
 31
0.0
  0
LINE
  5
AD66A
330
18
100
AcDbEntity
  8
姿図
100
AcDbLine
 10
6609.109156334174
 20
1383.434886633397
 30
0.0
 11
6584.149533075373
 21
1391.262763486763
 31
0.0
  0
LINE
  5
AD66B
330
18
100
AcDbEntity
  8
姿図
100
AcDbLine
 10
6609.109156334174
 20
1382.181946260122
 30
0.0
 11
6579.476003050195
 21
1391.447392963001
 31
0.0
  0
LINE
  5
AD66C
330
18
100
AcDbEntity
  8
姿図
100
AcDbLine
 10
6609.109156334174
 20
1380.897842320768
 30
0.0
 11
6579.476003050195
 21
1390.10644037425
 31
0.0
  0
LINE
  5
AD66D
330
18
100
AcDbEntity
  8
姿図
100
AcDbLine
 10
6609.109156334174
 20
1379.589413534452
 30
0.0
 11
6576.13564449208
 21
1389.779241598982
 31
0.0
  0
LINE
  5
AD66E
330
18
100
AcDbEntity
  8
姿図
100
AcDbLine
 10
6609.109156334174
 20
1376.945677857571
 30
0.0
 11
6609.109156334174
 21
1386.170267633313
 31
0.0
  0
LINE
  5
AD66F
330
18
100
AcDbEntity
  8
姿図
100
AcDbLine
 10
6561.601197915832
 20
1357.60132051766
 30
0.0
 11
6614.738241499825
 21
1370.824895195183
 31
0.0
  0
LINE
  5
AD670
330
18
100
AcDbEntity
  8
姿図
100
AcDbLine
 10
6561.601197915834
 20
1363.149888099017
 30
0.0
 11
6598.25851237492
 21
1372.50010180148
 31
0.0
  0
LINE
  5
AD671
330
18
100
AcDbEntity
  8
姿図
100
AcDbLine
 10
6561.601197915834
 20
1361.71409044482
 30
0.0
 11
6601.0269971986
 21
1371.707206045069
 31
0.0
  0
LINE
  5
AD672
330
18
100
AcDbEntity
  8
姿図
100
AcDbLine
 10
6561.601197915834
 20
1360.203725330239
 30
0.0
 11
6603.957299488624
 21
1370.867965666764
 31
0.0
  0
LINE
  5
AD673
330
18
100
AcDbEntity
  8
姿図
100
AcDbLine
 10
6561.601197915834
 20
1367.476232858337
 30
0.0
 11
6590.298290864923
 21
1374.779914138313
 31
0.0
  0
LINE
  5
AD674
330
18
100
AcDbEntity
  8
姿図
100
AcDbLine
 10
6561.601197915834
 20
1360.178614496674
 30
0.0
 11
6561.601197915834
 21
1367.469335739837
 31
0.0
  0
LINE
  5
AD675
330
18
100
AcDbEntity
  8
姿図
100
AcDbLine
 10
6561.601197915832
 20
1357.60132051766
 30
0.0
 11
6561.601197915834
 21
1367.476232858337
 31
0.0
  0
LINE
  5
AD676
330
18
100
AcDbEntity
  8
姿図
100
AcDbLine
 10
6614.738241499825
 20
1370.824895195183
 30
0.0
 11
6614.738241499825
 21
1371.979574001711
 31
0.0
  0
LINE
  5
AD677
330
18
100
AcDbEntity
  8
姿図
100
AcDbLine
 10
6609.508801610105
 20
1375.634117710858
 30
0.0
 11
6609.508801610105
 21
1376.824673621951
 31
0.0
  0
LINE
  5
AD678
330
18
100
AcDbEntity
  8
姿図
100
AcDbLine
 10
6608.421844716155
 20
1373.845068006253
 30
0.0
 11
6608.421844716155
 21
1375.442361374258
 31
0.0
  0
LINE
  5
AD679
330
18
100
AcDbEntity
  8
姿図
100
AcDbLine
 10
6609.50902381991
 20
1375.634051004965
 30
0.0
 11
6608.421844716155
 21
1375.442361374258
 31
0.0
  0
LINE
  5
AD67A
330
18
100
AcDbEntity
  8
姿図
100
AcDbLine
 10
6603.957299488624
 20
1370.867965666764
 30
0.0
 11
6614.738241499826
 21
1370.824895195183
 31
0.0
  0
LINE
  5
AD67B
330
18
100
AcDbEntity
  8
姿図
100
AcDbLine
 10
6609.109156334174
 20
1386.170267633313
 30
0.0
 11
6579.476003050195
 21
1395.616184659655
 31
0.0
  0
LINE
  5
AD67C
330
18
100
AcDbEntity
  8
姿図
100
AcDbLine
 10
6609.109156334174
 20
1384.75683379518
 30
0.0
 11
6584.150205050926
 21
1392.640772149652
 31
0.0
  0
LINE
  5
AD67D
330
18
100
AcDbEntity
  8
姿図
100
AcDbLine
 10
6578.755644283547
 20
1395.432846547736
 30
0.0
 11
6579.476003050195
 21
1395.616184659655
 31
0.0
  0
LINE
  5
AD67E
330
18
100
AcDbEntity
  8
姿図
100
AcDbLine
 10
6578.755644283547
 20
1395.432846547736
 30
0.0
 11
6578.755644283547
 21
1388.969581180279
 31
0.0
  0
LINE
  5
AD67F
330
18
100
AcDbEntity
  8
姿図
100
AcDbLine
 10
6577.983611728259
 20
1396.159081127421
 30
0.0
 11
6577.983611728259
 21
1389.208162955744
 31
0.0
  0
LINE
  5
AD680
330
18
100
AcDbEntity
  8
姿図
100
AcDbLine
 10
6579.476003050195
 20
1395.616184659655
 30
0.0
 11
6579.476003050195
 21
1388.746968192859
 31
0.0
  0
ELLIPSE
  5
AD681
330
18
100
AcDbEntity
  8
姿図
100
AcDbEllipse
 10
6583.170530080717
 20
1391.603115805847
 30
0.0
 11
-1.977196665057704E-16
 21
-1.076371281207362
 31
0.0
210
0.0
220
0.0
230
1.0
 40
0.4002854556153349
 41
1.090992743497568
 42
2.475844893381597
  0
ELLIPSE
  5
AD682
330
18
100
AcDbEntity
  8
姿図
100
AcDbEllipse
 10
6583.8188529707
 20
1391.952775239236
 30
0.0
 11
-1.977196665057704E-16
 21
-1.076371281207362
 31
0.0
210
0.0
220
0.0
230
1.0
 40
0.4002854556153349
 41
0.0
 42
6.283185307179586
  0
LINE
  5
AD683
330
18
100
AcDbEntity
  8
姿図
100
AcDbLine
 10
6583.56647539595
 20
1392.825158447108
 30
0.0
 11
6579.476003050195
 21
1394.117241253337
 31
0.0
  0
LINE
  5
AD684
330
18
100
AcDbEntity
  8
姿図
100
AcDbLine
 10
6583.430162326786
 20
1391.488373688226
 30
0.0
 11
6579.476003050197
 21
1392.728483426854
 31
0.0
  0
LINE
  5
AD685
330
18
100
AcDbEntity
  8
姿図
100
AcDbLine
 10
6571.852074781547
 20
1397.652084853444
 30
0.0
 11
6571.852074781547
 21
1391.102996225477
 31
0.0
  0
LINE
  5
AD686
330
18
100
AcDbEntity
  8
姿図
100
AcDbLine
 10
6574.643253170145
 20
1397.182129423867
 30
0.0
 11
6572.572433548195
 21
1397.835422965363
 31
0.0
  0
LINE
  5
AD687
330
18
100
AcDbEntity
  8
姿図
100
AcDbLine
 10
6572.572433548195
 20
1397.835422965363
 30
0.0
 11
6572.572433548195
 21
1390.880383238056
 31
0.0
  0
LINE
  5
AD688
330
18
100
AcDbEntity
  8
姿図
100
AcDbLine
 10
6571.08004222626
 20
1398.292496172618
 30
0.0
 11
6571.08004222626
 21
1391.341578000941
 31
0.0
  0
LINE
  5
AD689
330
18
100
AcDbEntity
  8
姿図
100
AcDbLine
 10
6575.415285725428
 20
1396.541718104694
 30
0.0
 11
6576.13564449208
 21
1396.725056216613
 31
0.0
  0
LINE
  5
AD68A
330
18
100
AcDbEntity
  8
姿図
100
AcDbLine
 10
6575.41528572543
 20
1396.541718104695
 30
0.0
 11
6575.41528572543
 21
1388.587863770297
 31
0.0
  0
LINE
  5
AD68B
330
18
100
AcDbEntity
  8
姿図
100
AcDbLine
 10
6574.643253170145
 20
1397.182129423868
 30
0.0
 11
6574.643253170147
 21
1388.82446726949
 31
0.0
  0
LINE
  5
AD68C
330
18
100
AcDbEntity
  8
姿図
100
AcDbLine
 10
6576.13564449208
 20
1396.725056216613
 30
0.0
 11
6576.13564449208
 21
1388.36709664889
 31
0.0
  0
LINE
  5
AD68D
330
18
100
AcDbEntity
  8
姿図
100
AcDbLine
 10
6574.643253170145
 20
1395.643791856546
 30
0.0
 11
6572.572433548195
 21
1396.297914461995
 31
0.0
  0
LINE
  5
AD68E
330
18
100
AcDbEntity
  8
姿図
100
AcDbLine
 10
6574.643253170147
 20
1394.244138151764
 30
0.0
 11
6572.572433548195
 21
1394.893591904253
 31
0.0
  0
LINE
  5
AD68F
330
18
100
AcDbEntity
  8
姿図
100
AcDbLine
 10
6574.643253170145
 20
1392.958456804667
 30
0.0
 11
6572.572433548195
 21
1393.605943376702
 31
0.0
  0
LINE
  5
AD690
330
18
100
AcDbEntity
  8
姿図
100
AcDbLine
 10
6574.643253170147
 20
1391.608233001984
 30
0.0
 11
6572.572433548195
 21
1392.251746885135
 31
0.0
  0
LINE
  5
AD691
330
18
100
AcDbEntity
  8
姿図
100
AcDbLine
 10
6571.852074781547
 20
1397.652084853444
 30
0.0
 11
6572.572433548195
 21
1397.835422965363
 31
0.0
  0
ELLIPSE
  5
AD692
330
18
100
AcDbEntity
  8
姿図
100
AcDbEllipse
 10
6566.088869415773
 20
1396.897044916484
 30
0.0
 11
-1.977196665057704E-16
 21
-1.076371281207362
 31
0.0
210
0.0
220
0.0
230
1.0
 40
0.4002854556153349
 41
1.090992743497568
 42
2.475844893381597
  0
ELLIPSE
  5
AD693
330
18
100
AcDbEntity
  8
姿図
100
AcDbEllipse
 10
6566.737192305758
 20
1397.246704349873
 30
0.0
 11
-1.977196665057704E-16
 21
-1.076371281207362
 31
0.0
210
0.0
220
0.0
230
1.0
 40
0.4002854556153349
 41
0.0
 42
6.283185307179586
  0
LINE
  5
AD694
330
18
100
AcDbEntity
  8
姿図
100
AcDbLine
 10
6571.08004222626
 20
1396.769325341777
 30
0.0
 11
6567.023691183427
 21
1398.050630040956
 31
0.0
  0
LINE
  5
AD695
330
18
100
AcDbEntity
  8
姿図
100
AcDbLine
 10
6571.08004222626
 20
1395.361638050784
 30
0.0
 11
6567.085842252927
 21
1396.614305416585
 31
0.0
  0
LINE
  5
AD696
330
18
100
AcDbEntity
  8
姿図
100
AcDbLine
 10
6577.983611728259
 20
1396.159081127421
 30
0.0
 11
6576.13564449208
 21
1396.725056216613
 31
0.0
  0
LINE
  5
AD697
330
18
100
AcDbEntity
  8
姿図
100
AcDbLine
 10
6577.983611728259
 20
1394.58865213312
 30
0.0
 11
6576.13564449208
 21
1395.172380976763
 31
0.0
  0
LINE
  5
AD698
330
18
100
AcDbEntity
  8
姿図
100
AcDbLine
 10
6577.983611728259
 20
1393.196529573386
 30
0.0
 11
6576.13564449208
 21
1393.776092005233
 31
0.0
  0
LINE
  5
AD699
330
18
100
AcDbEntity
  8
姿図
100
AcDbLine
 10
6577.983611728259
 20
1391.914021408537
 30
0.0
 11
6576.13564449208
 21
1392.491828359131
 31
0.0
  0
LINE
  5
AD69A
330
18
100
AcDbEntity
  8
姿図
100
AcDbLine
 10
6577.983611728259
 20
1390.570205795719
 30
0.0
 11
6576.13564449208
 21
1391.144467580515
 31
0.0
  0
TEXT
  5
AD84F
330
18
100
AcDbEntity
  8
文字
100
AcDbText
 10
6447.230385528233
 20
1296.334262517911
 30
0.0
 40
18.0
  1
SX-LD102
100
AcDbText
  0
ENDSEC
  0
SECTION
  2
OBJECTS
  0
DICTIONARY
  5
C
330
0
100
AcDbDictionary
281
     1
  3
ACAD_GROUP
350
D
  3
ACAD_IMAGE_VARS
350
ADEBB
  3
ACAD_LAYOUT
350
1EF
  3
ACAD_MLINESTYLE
350
E
  3
ACAD_PLOTSETTINGS
350
1F0
  3
ACAD_PLOTSTYLENAME
350
1ED
  3
ACAD_SCALELIST
350
AB7D0
  3
AcadDim
350
95B1B
  3
AcDbVariableDictionary
350
1331A
  3
APPDATA
350
ADEBA
  3
ASE_INDEX_DICTIONARY
350
2A912
  3
DWGPROPS
350
ADEDE
  0
DICTIONARY
  5
47F70
330
2
100
AcDbDictionary
280
     1
281
     1
  3
ACAD_LAYERFILTERS
360
594EC
  3
ACAD_LAYERSTATES
360
47F71
  0
DICTIONARY
  5
AB7F8
330
F
100
AcDbDictionary
280
     1
281
     1
  3
ADSK_XREC_LAYER_RECONCILED
360
AB7F9
  0
DICTIONARY
  5
AB7FE
330
635
100
AcDbDictionary
280
     1
281
     1
  3
ADSK_XREC_LAYER_RECONCILED
360
AB7FF
  0
DICTIONARY
  5
AB804
330
639
100
AcDbDictionary
280
     1
281
     1
  3
ADSK_XREC_LAYER_RECONCILED
360
AB805
  0
DICTIONARY
  5
AB808
330
63B
100
AcDbDictionary
280
     1
281
     1
  3
ADSK_XREC_LAYER_RECONCILED
360
AB809
  0
DICTIONARY
  5
D
102
{ACAD_REACTORS
330
C
102
}
330
C
100
AcDbDictionary
281
     1
  0
RASTERVARIABLES
  5
ADEBB
102
{ACAD_REACTORS
330
C
102
}
330
C
100
AcDbRasterVariables
 90
        0
 70
     1
 71
     1
 72
     0
  0
DICTIONARY
  5
1EF
102
{ACAD_REACTORS
330
C
102
}
330
C
100
AcDbDictionary
281
     1
  3
Model
350
1F1
  3
ﾚｲｱｳﾄ1
350
1F2
  0
DICTIONARY
  5
E
102
{ACAD_REACTORS
330
C
102
}
330
C
100
AcDbDictionary
281
     1
  3
STANDARD
350
1B
  0
DICTIONARY
  5
1F0
102
{ACAD_REACTORS
330
C
102
}
330
C
100
AcDbDictionary
281
     1
  0
ACDBDICTIONARYWDFLT
  5
1ED
102
{ACAD_REACTORS
330
C
102
}
330
C
100
AcDbDictionary
281
     1
  3
Normal
350
1EE
100
AcDbDictionaryWithDefault
340
1EE
  0
DICTIONARY
  5
AB7D0
102
{ACAD_REACTORS
330
C
102
}
330
C
100
AcDbDictionary
281
     1
  3
A0
350
AB7D1
  3
A1
350
AB7D2
  3
A2
350
AB7D3
  3
A3
350
AB7D4
  3
A4
350
AB7D5
  3
A5
350
AB7D6
  3
A6
350
AB7D7
  3
A7
350
AB7D8
  3
A8
350
AB7D9
  3
A9
350
AB7DA
  3
B0
350
AB7DB
  3
B1
350
AB7DC
  3
B2
350
AB7DD
  3
B3
350
AB7DE
  3
B4
350
AB7DF
  3
B5
350
AB7E0
  3
B6
350
AB7E1
  3
B7
350
AB7E2
  3
B8
350
AB7E3
  3
B9
350
AB7E4
  3
C0
350
AB7E5
  3
C1
350
AB7E6
  3
C2
350
AB7E7
  3
C3
350
AB7E8
  3
C4
350
AB7E9
  3
C5
350
AB7EA
  3
C6
350
AB7EB
  3
C7
350
AB7EC
  3
C8
350
AB7ED
  3
C9
350
AB7EE
  3
D0
350
AB7EF
  3
D1
350
AB7F0
  3
D2
350
AB7F1
  0
XRECORD
  5
95B1B
102
{ACAD_REACTORS
330
C
102
}
330
C
100
AcDbXrecord
280
     1
 90
   990106
  3

 60
     0
 61
     0
 62
     4
 63
     4
 64
     1
 65
     0
 66
     0
 67
     3
 68
     1
 69
     0
 70
     0
 71
     0
 72
     0
 40
0.0
170
     0
340
0
  0
DICTIONARY
  5
1331A
102
{ACAD_REACTORS
330
C
102
}
330
C
100
AcDbDictionary
281
     1
  3
DIMASSOC
350
22A26
  3
INDEXCTL
350
AB835
  3
PROJECTNAME
350
2CE46
  3
SORTENTS
350
1331B
  0
DICTIONARY
  5
ADEBA
102
{ACAD_REACTORS
330
C
102
}
330
C
100
AcDbDictionary
281
     1
  0
DICTIONARY
  5
2A912
102
{ACAD_REACTORS
330
C
102
}
330
C
100
AcDbDictionary
281
     1
  3
ASEBlockHierarchyIndexRecord
350
2A914
1001
DCO15
1040
1471345751.843
  0
XRECORD
  5
ADEDE
102
{ACAD_REACTORS
330
C
102
}
330
C
100
AcDbXrecord
280
     1
  1
DWGPROPS COOKIE
  2

  3

  4

  6

  7

  8
SPAX
  9

300
=
301
=
302
=
303
=
304
=
305
=
306
=
307
=
308
=
309
=
 40
0.0
 41
2448499.233101852
 42
2456821.282212917
  1

 90
        0
  0
DICTIONARY
  5
594EC
102
{ACAD_REACTORS
330
47F70
102
}
330
47F70
100
AcDbDictionary
281
     1
  0
DICTIONARY
  5
47F71
102
{ACAD_REACTORS
330
47F70
102
}
330
47F70
100
AcDbDictionary
281
     1
  0
XRECORD
  5
AB7F9
102
{ACAD_REACTORS
330
AB7F8
102
}
330
AB7F8
100
AcDbXrecord
280
     1
290
     1
  0
XRECORD
  5
AB7FF
102
{ACAD_REACTORS
330
AB7FE
102
}
330
AB7FE
100
AcDbXrecord
280
     1
290
     1
  0
XRECORD
  5
AB805
102
{ACAD_REACTORS
330
AB804
102
}
330
AB804
100
AcDbXrecord
280
     1
290
     1
  0
XRECORD
  5
AB809
102
{ACAD_REACTORS
330
AB808
102
}
330
AB808
100
AcDbXrecord
280
     1
290
     1
  0
LAYOUT
  5
1F1
102
{ACAD_REACTORS
330
1EF
102
}
330
1EF
100
AcDbPlotSettings
  1

  2
JUST PDF 2
  4
A4
  6

 40
3.174999952316284
 41
3.174999952316284
 42
3.175003051757812
 43
3.17498779296875
 44
209.8886566162109
 45
297.0530090332031
 46
14.27171755861582
 47
9.85517307462564
 48
6407.491347214145
 49
0.0
140
7457.462658183576
141
1625.956050832001
142
1.0
143
6.0
 70
  3748
 72
     1
 73
     0
 74
     4
  7
spax form.ctb
 75
    16
147
1.0
148
-6407.491347214145
149
0.0
100
AcDbLayout
  1
Model
 70
     1
 71
     0
 10
0.0
 20
0.0
 11
12.0
 21
9.0
 12
0.0
 22
0.0
 32
0.0
 14
6447.230385528233
 24
1296.334262517911
 34
0.0
 15
6614.738241499826
 25
1423.910666316542
 35
0.0
146
0.0
 13
0.0
 23
0.0
 33
0.0
 16
1.0
 26
0.0
 36
0.0
 17
0.0
 27
1.0
 37
0.0
 76
     0
330
18
331
ABF5D
1001
ACAD_PSEXT
1000
JUST PDF 2
1000
JUST PDF 2
1000
JUST PDF 2 Port:
1000

1070
     0
  0
LAYOUT
  5
1F2
102
{ACAD_REACTORS
330
1EF
102
}
330
1EF
100
AcDbPlotSettings
  1

  2
Canon LBP-310 LIPS3
  4

  6

 40
0.0
 41
0.0
 42
0.0
 43
0.0
 44
0.0
 45
0.0
 46
0.0
 47
0.0
 48
0.0
 49
0.0
140
0.0
141
0.0
142
1.0
143
1.0
 70
   688
 72
     0
 73
     0
 74
     5
  7
spax form.ctb
 75
    16
147
1.0
148
0.0
149
0.0
100
AcDbLayout
  1
ﾚｲｱｳﾄ1
 70
     0
 71
     1
 10
0.0
 20
0.0
 11
12.0
 21
9.0
 12
0.0
 22
0.0
 32
0.0
 14
1.000000000000000E+20
 24
1.000000000000000E+20
 34
1.000000000000000E+20
 15
-1.000000000000000E+20
 25
-1.000000000000000E+20
 35
-1.000000000000000E+20
146
0.0
 13
0.0
 23
0.0
 33
0.0
 16
1.0
 26
0.0
 36
0.0
 17
0.0
 27
1.0
 37
0.0
 76
     0
330
15
  0
MLINESTYLE
  5
1B
102
{ACAD_REACTORS
330
E
102
}
330
E
100
AcDbMlineStyle
  2
STANDARD
 70
     0
  3

 62
     0
 51
90.0
 52
90.0
 71
     2
 49
0.5
 62
   256
  6
BYLAYER
 49
-0.5
 62
   256
  6
BYLAYER
  0
ACDBPLACEHOLDER
  5
1EE
102
{ACAD_REACTORS
330
1ED
102
}
330
1ED
  0
SCALE
  5
AB7D1
102
{ACAD_REACTORS
330
AB7D0
102
}
330
AB7D0
100
AcDbScale
 70
     0
300
1:1
140
1.0
141
1.0
290
     1
  0
SCALE
  5
AB7D2
102
{ACAD_REACTORS
330
AB7D0
102
}
330
AB7D0
100
AcDbScale
 70
     0
300
1:2
140
1.0
141
2.0
290
     0
  0
SCALE
  5
AB7D3
102
{ACAD_REACTORS
330
AB7D0
102
}
330
AB7D0
100
AcDbScale
 70
     0
300
1:4
140
1.0
141
4.0
290
     0
  0
SCALE
  5
AB7D4
102
{ACAD_REACTORS
330
AB7D0
102
}
330
AB7D0
100
AcDbScale
 70
     0
300
1:5
140
1.0
141
5.0
290
     0
  0
SCALE
  5
AB7D5
102
{ACAD_REACTORS
330
AB7D0
102
}
330
AB7D0
100
AcDbScale
 70
     0
300
1:8
140
1.0
141
8.0
290
     0
  0
SCALE
  5
AB7D6
102
{ACAD_REACTORS
330
AB7D0
102
}
330
AB7D0
100
AcDbScale
 70
     0
300
1:10
140
1.0
141
10.0
290
     0
  0
SCALE
  5
AB7D7
102
{ACAD_REACTORS
330
AB7D0
102
}
330
AB7D0
100
AcDbScale
 70
     0
300
1:16
140
1.0
141
16.0
290
     0
  0
SCALE
  5
AB7D8
102
{ACAD_REACTORS
330
AB7D0
102
}
330
AB7D0
100
AcDbScale
 70
     0
300
1:20
140
1.0
141
20.0
290
     0
  0
SCALE
  5
AB7D9
102
{ACAD_REACTORS
330
AB7D0
102
}
330
AB7D0
100
AcDbScale
 70
     0
300
1:30
140
1.0
141
30.0
290
     0
  0
SCALE
  5
AB7DA
102
{ACAD_REACTORS
330
AB7D0
102
}
330
AB7D0
100
AcDbScale
 70
     0
300
1:40
140
1.0
141
40.0
290
     0
  0
SCALE
  5
AB7DB
102
{ACAD_REACTORS
330
AB7D0
102
}
330
AB7D0
100
AcDbScale
 70
     0
300
1:50
140
1.0
141
50.0
290
     0
  0
SCALE
  5
AB7DC
102
{ACAD_REACTORS
330
AB7D0
102
}
330
AB7D0
100
AcDbScale
 70
     0
300
1:100
140
1.0
141
100.0
290
     0
  0
SCALE
  5
AB7DD
102
{ACAD_REACTORS
330
AB7D0
102
}
330
AB7D0
100
AcDbScale
 70
     0
300
2:1
140
2.0
141
1.0
290
     0
  0
SCALE
  5
AB7DE
102
{ACAD_REACTORS
330
AB7D0
102
}
330
AB7D0
100
AcDbScale
 70
     0
300
4:1
140
4.0
141
1.0
290
     0
  0
SCALE
  5
AB7DF
102
{ACAD_REACTORS
330
AB7D0
102
}
330
AB7D0
100
AcDbScale
 70
     0
300
8:1
140
8.0
141
1.0
290
     0
  0
SCALE
  5
AB7E0
102
{ACAD_REACTORS
330
AB7D0
102
}
330
AB7D0
100
AcDbScale
 70
     0
300
10:1
140
10.0
141
1.0
290
     0
  0
SCALE
  5
AB7E1
102
{ACAD_REACTORS
330
AB7D0
102
}
330
AB7D0
100
AcDbScale
 70
     0
300
100:1
140
100.0
141
1.0
290
     0
  0
SCALE
  5
AB7E2
102
{ACAD_REACTORS
330
AB7D0
102
}
330
AB7D0
100
AcDbScale
 70
     0
300
1/128" = 1'-0"
140
0.0078125
141
12.0
290
     0
  0
SCALE
  5
AB7E3
102
{ACAD_REACTORS
330
AB7D0
102
}
330
AB7D0
100
AcDbScale
 70
     0
300
1/64" = 1'-0"
140
0.015625
141
12.0
290
     0
  0
SCALE
  5
AB7E4
102
{ACAD_REACTORS
330
AB7D0
102
}
330
AB7D0
100
AcDbScale
 70
     0
300
1/32" = 1'-0"
140
0.03125
141
12.0
290
     0
  0
SCALE
  5
AB7E5
102
{ACAD_REACTORS
330
AB7D0
102
}
330
AB7D0
100
AcDbScale
 70
     0
300
1/16" = 1'-0"
140
0.0625
141
12.0
290
     0
  0
SCALE
  5
AB7E6
102
{ACAD_REACTORS
330
AB7D0
102
}
330
AB7D0
100
AcDbScale
 70
     0
300
3/32" = 1'-0"
140
0.09375
141
12.0
290
     0
  0
SCALE
  5
AB7E7
102
{ACAD_REACTORS
330
AB7D0
102
}
330
AB7D0
100
AcDbScale
 70
     0
300
1/8" = 1'-0"
140
0.125
141
12.0
290
     0
  0
SCALE
  5
AB7E8
102
{ACAD_REACTORS
330
AB7D0
102
}
330
AB7D0
100
AcDbScale
 70
     0
300
3/16" = 1'-0"
140
0.1875
141
12.0
290
     0
  0
SCALE
  5
AB7E9
102
{ACAD_REACTORS
330
AB7D0
102
}
330
AB7D0
100
AcDbScale
 70
     0
300
1/4" = 1'-0"
140
0.25
141
12.0
290
     0
  0
SCALE
  5
AB7EA
102
{ACAD_REACTORS
330
AB7D0
102
}
330
AB7D0
100
AcDbScale
 70
     0
300
3/8" = 1'-0"
140
0.375
141
12.0
290
     0
  0
SCALE
  5
AB7EB
102
{ACAD_REACTORS
330
AB7D0
102
}
330
AB7D0
100
AcDbScale
 70
     0
300
1/2" = 1'-0"
140
0.5
141
12.0
290
     0
  0
SCALE
  5
AB7EC
102
{ACAD_REACTORS
330
AB7D0
102
}
330
AB7D0
100
AcDbScale
 70
     0
300
3/4" = 1'-0"
140
0.75
141
12.0
290
     0
  0
SCALE
  5
AB7ED
102
{ACAD_REACTORS
330
AB7D0
102
}
330
AB7D0
100
AcDbScale
 70
     0
300
1" = 1'-0"
140
1.0
141
12.0
290
     0
  0
SCALE
  5
AB7EE
102
{ACAD_REACTORS
330
AB7D0
102
}
330
AB7D0
100
AcDbScale
 70
     0
300
1-1/2" = 1'-0"
140
1.5
141
12.0
290
     0
  0
SCALE
  5
AB7EF
102
{ACAD_REACTORS
330
AB7D0
102
}
330
AB7D0
100
AcDbScale
 70
     0
300
3" = 1'-0"
140
3.0
141
12.0
290
     0
  0
SCALE
  5
AB7F0
102
{ACAD_REACTORS
330
AB7D0
102
}
330
AB7D0
100
AcDbScale
 70
     0
300
6" = 1'-0"
140
6.0
141
12.0
290
     0
  0
SCALE
  5
AB7F1
102
{ACAD_REACTORS
330
AB7D0
102
}
330
AB7D0
100
AcDbScale
 70
     0
300
1'-0" = 1'-0"
140
12.0
141
12.0
290
     0
  0
DICTIONARYVAR
  5
22A26
102
{ACAD_REACTORS
330
1331A
102
}
330
1331A
100
DictionaryVariables
280
     0
  1
1
  0
DICTIONARYVAR
  5
AB835
102
{ACAD_REACTORS
330
1331A
102
}
330
1331A
100
DictionaryVariables
280
     0
  1
0
  0
DICTIONARYVAR
  5
2CE46
102
{ACAD_REACTORS
330
1331A
102
}
330
1331A
100
DictionaryVariables
280
     0
  1

  0
DICTIONARYVAR
  5
1331B
102
{ACAD_REACTORS
330
1331A
102
}
330
1331A
100
DictionaryVariables
280
     0
  1
96
  0
XRECORD
  5
2A914
102
{ACAD_REACTORS
330
2A912
102
}
330
2A912
100
AcDbXrecord
280
     1
330
0
330
0
330
0
330
0
330
0
330
0
330
0
330
0
330
0
330
0
330
0
330
0
330
0
330
0
330
0
330
0
330
0
330
0
330
0
330
0
330
0
330
0
330
0
330
0
330
0
330
0
330
0
330
0
330
0
330
0
330
0
330
0
330
0
330
0
330
0
330
0
330
0
330
0
330
0
330
0
330
0
330
0
330
0
330
0
330
0
330
0
330
0
330
0
330
0
330
0
330
0
330
0
330
0
330
0
330
0
330
0
330
0
330
0
330
0
330
0
330
0
330
0
330
0
330
0
330
0
330
0
330
0
330
0
330
0
330
0
330
0
330
0
330
0
330
0
330
0
330
0
330
0
330
0
330
0
330
0
330
0
330
0
330
0
330
0
330
0
330
0
330
0
330
0
330
0
330
0
330
0
330
0
330
0
330
0
330
0
330
0
330
0
330
0
330
0
330
0
330
0
330
0
330
0
330
0
330
0
330
0
330
0
330
0
330
0
330
0
330
0
330
0
330
0
330
0
330
0
330
0
330
0
330
0
330
0
330
0
330
0
330
0
330
0
330
0
330
0
330
0
330
0
330
0
330
0
330
0
330
0
330
0
330
0
330
0
330
0
330
0
330
0
330
0
330
0
330
0
330
0
330
0
330
0
330
0
330
0
330
0
330
0
330
0
330
0
330
0
330
0
330
0
330
0
330
0
330
0
330
0
330
0
330
0
330
0
330
0
330
0
330
0
330
0
330
0
330
0
330
0
330
0
330
0
330
0
330
0
330
0
330
0
330
0
330
0
330
0
330
0
330
0
330
0
330
0
330
0
330
0
330
0
330
0
330
0
330
0
330
0
330
0
330
0
330
0
330
0
330
0
330
0
330
0
330
0
330
0
330
0
330
0
330
0
330
0
330
0
330
0
330
0
330
0
330
0
330
0
330
0
330
0
330
0
330
0
330
0
330
0
330
0
330
0
330
0
330
0
330
0
330
0
330
0
330
0
330
0
330
0
330
0
330
0
330
0
330
0
330
0
330
0
330
0
330
0
330
0
330
0
330
0
330
0
330
0
330
0
330
0
330
0
330
0
330
0
330
0
330
0
330
0
330
0
330
0
330
0
330
0
330
0
330
0
330
0
330
0
330
0
330
0
330
0
330
0
330
0
330
0
330
0
330
0
330
0
330
0
330
0
330
0
330
0
330
0
330
0
330
0
330
0
330
0
330
0
330
0
330
0
330
0
330
0
330
0
330
0
330
0
330
0
330
0
330
0
330
0
330
0
330
0
330
0
330
0
330
0
330
0
330
0
330
0
330
0
330
0
330
0
330
0
330
0
330
0
330
0
330
0
330
0
330
0
330
0
330
0
330
0
330
0
330
0
330
0
330
0
330
0
330
0
330
0
330
0
330
0
330
0
330
0
330
0
330
0
330
0
330
0
330
0
330
0
330
0
330
0
330
0
330
0
330
0
330
0
330
0
330
0
330
0
330
0
330
0
330
0
330
0
330
0
330
0
330
0
330
0
330
0
330
0
330
0
330
0
330
0
330
0
330
0
330
0
330
0
330
0
330
0
330
0
330
0
330
0
330
0
330
0
330
0
330
0
330
0
330
0
330
0
330
0
330
0
330
0
330
0
330
0
330
0
330
0
330
0
330
0
330
0
330
0
330
0
330
0
330
0
330
0
330
0
330
0
330
0
330
0
330
0
330
0
330
0
330
0
330
0
330
0
  0
ENDSEC
  0
EOF
