  0
SECTION
  2
HEADER
  9
$ACADVER
  1
AC1015
  9
$ACADMAINTVER
 70
     6
  9
$DWGCODEPAGE
  3
ANSI_932
  9
$INSBASE
 10
0.0
 20
0.0
 30
0.0
  9
$EXTMIN
 10
91.24270804707692
 20
36.78632596548395
 30
0.0
  9
$EXTMAX
 10
334.1386504152588
 20
239.437833891421
 30
0.0
  9
$LIMMIN
 10
0.0
 20
0.0
  9
$LIMMAX
 10
420.0
 20
297.0
  9
$ORTHOMODE
 70
     0
  9
$REGENMODE
 70
     1
  9
$FILLMODE
 70
     1
  9
$QTEXTMODE
 70
     0
  9
$MIRRTEXT
 70
     1
  9
$LTSCALE
 40
1.0
  9
$ATTMODE
 70
     1
  9
$TEXTSIZE
 40
3.5
  9
$TRACEWID
 40
1.0
  9
$TEXTSTYLE
  7
Standard
  9
$CLAYER
  8
0
  9
$CELTYPE
  6
ByLayer
  9
$CECOLOR
 62
   256
  9
$CELTSCALE
 40
1.0
  9
$DISPSILH
 70
     0
  9
$DIMSCALE
 40
1.0
  9
$DIMASZ
 40
3.302
  9
$DIMEXO
 40
1.0
  9
$DIMDLI
 40
3.75
  9
$DIMRND
 40
0.0
  9
$DIMDLE
 40
0.0
  9
$DIMEXE
 40
1.0
  9
$DIMTP
 40
0.0
  9
$DIMTM
 40
0.0
  9
$DIMTXT
 40
3.5
  9
$DIMCEN
 40
2.5
  9
$DIMTSZ
 40
0.0
  9
$DIMTOL
 70
     0
  9
$DIMLIM
 70
     0
  9
$DIMTIH
 70
     1
  9
$DIMTOH
 70
     1
  9
$DIMSE1
 70
     0
  9
$DIMSE2
 70
     0
  9
$DIMTAD
 70
     1
  9
$DIMZIN
 70
     0
  9
$DIMBLK
  1

  9
$DIMASO
 70
     1
  9
$DIMSHO
 70
     1
  9
$DIMPOST
  1

  9
$DIMAPOST
  1

  9
$DIMALT
 70
     0
  9
$DIMALTD
 70
     3
  9
$DIMALTF
 40
0.0393700787401575
  9
$DIMLFAC
 40
5.0
  9
$DIMTOFL
 70
     1
  9
$DIMTVP
 40
0.0
  9
$DIMTIX
 70
     0
  9
$DIMSOXD
 70
     0
  9
$DIMSAH
 70
     0
  9
$DIMBLK1
  1

  9
$DIMBLK2
  1

  9
$DIMSTYLE
  2
ISO-25
  9
$DIMCLRD
 70
     0
  9
$DIMCLRE
 70
     0
  9
$DIMCLRT
 70
     0
  9
$DIMTFAC
 40
1.0
  9
$DIMGAP
 40
1.524
  9
$DIMJUST
 70
     0
  9
$DIMSD1
 70
     0
  9
$DIMSD2
 70
     0
  9
$DIMTOLJ
 70
     0
  9
$DIMTZIN
 70
     0
  9
$DIMALTZ
 70
     0
  9
$DIMALTTZ
 70
     0
  9
$DIMUPT
 70
     0
  9
$DIMDEC
 70
     2
  9
$DIMTDEC
 70
     2
  9
$DIMALTU
 70
     2
  9
$DIMALTTD
 70
     3
  9
$DIMTXSTY
  7
Standard
  9
$DIMAUNIT
 70
     0
  9
$DIMADEC
 70
     2
  9
$DIMALTRND
 40
0.0
  9
$DIMAZIN
 70
     0
  9
$DIMDSEP
 70
    44
  9
$DIMATFIT
 70
     3
  9
$DIMFRAC
 70
     0
  9
$DIMLDRBLK
  1

  9
$DIMLUNIT
 70
     2
  9
$DIMLWD
 70
    -2
  9
$DIMLWE
 70
    -2
  9
$DIMTMOVE
 70
     0
  9
$LUNITS
 70
     2
  9
$LUPREC
 70
     2
  9
$SKETCHINC
 40
1.0
  9
$FILLETRAD
 40
10.0
  9
$AUNITS
 70
     0
  9
$AUPREC
 70
     2
  9
$MENU
  1
.
  9
$ELEVATION
 40
0.0
  9
$PELEVATION
 40
0.0
  9
$THICKNESS
 40
0.0
  9
$LIMCHECK
 70
     0
  9
$CHAMFERA
 40
0.0
  9
$CHAMFERB
 40
0.0
  9
$CHAMFERC
 40
0.0
  9
$CHAMFERD
 40
0.0
  9
$SKPOLY
 70
     0
  9
$TDCREATE
 40
2459103.413930011
  9
$TDUCREATE
 40
2459103.038930011
  9
$TDUPDATE
 40
2459103.432150232
  9
$TDUUPDATE
 40
2459103.057150232
  9
$TDINDWG
 40
0.0005822106
  9
$TDUSRTIMER
 40
0.0001021296
  9
$USRTIMER
 70
     1
  9
$ANGBASE
 50
0.0
  9
$ANGDIR
 70
     0
  9
$PDMODE
 70
     0
  9
$PDSIZE
 40
-1.0
  9
$PLINEWID
 40
0.0
  9
$SPLFRAME
 70
     0
  9
$SPLINETYPE
 70
     6
  9
$SPLINESEGS
 70
     8
  9
$HANDSEED
  5
264
  9
$SURFTAB1
 70
     6
  9
$SURFTAB2
 70
     6
  9
$SURFTYPE
 70
     6
  9
$SURFU
 70
     6
  9
$SURFV
 70
     6
  9
$UCSBASE
  2

  9
$UCSNAME
  2

  9
$UCSORG
 10
0.0
 20
0.0
 30
0.0
  9
$UCSXDIR
 10
1.0
 20
0.0
 30
0.0
  9
$UCSYDIR
 10
0.0
 20
1.0
 30
0.0
  9
$UCSORTHOREF
  2

  9
$UCSORTHOVIEW
 70
     0
  9
$UCSORGTOP
 10
0.0
 20
0.0
 30
0.0
  9
$UCSORGBOTTOM
 10
0.0
 20
0.0
 30
0.0
  9
$UCSORGLEFT
 10
0.0
 20
0.0
 30
0.0
  9
$UCSORGRIGHT
 10
0.0
 20
0.0
 30
0.0
  9
$UCSORGFRONT
 10
0.0
 20
0.0
 30
0.0
  9
$UCSORGBACK
 10
0.0
 20
0.0
 30
0.0
  9
$PUCSBASE
  2

  9
$PUCSNAME
  2

  9
$PUCSORG
 10
0.0
 20
0.0
 30
0.0
  9
$PUCSXDIR
 10
1.0
 20
0.0
 30
0.0
  9
$PUCSYDIR
 10
0.0
 20
1.0
 30
0.0
  9
$PUCSORTHOREF
  2

  9
$PUCSORTHOVIEW
 70
     0
  9
$PUCSORGTOP
 10
0.0
 20
0.0
 30
0.0
  9
$PUCSORGBOTTOM
 10
0.0
 20
0.0
 30
0.0
  9
$PUCSORGLEFT
 10
0.0
 20
0.0
 30
0.0
  9
$PUCSORGRIGHT
 10
0.0
 20
0.0
 30
0.0
  9
$PUCSORGFRONT
 10
0.0
 20
0.0
 30
0.0
  9
$PUCSORGBACK
 10
0.0
 20
0.0
 30
0.0
  9
$USERI1
 70
     0
  9
$USERI2
 70
     0
  9
$USERI3
 70
     0
  9
$USERI4
 70
     0
  9
$USERI5
 70
     0
  9
$USERR1
 40
0.0
  9
$USERR2
 40
0.0
  9
$USERR3
 40
0.0
  9
$USERR4
 40
0.0
  9
$USERR5
 40
0.0
  9
$WORLDVIEW
 70
     1
  9
$SHADEDGE
 70
     3
  9
$SHADEDIF
 70
    70
  9
$TILEMODE
 70
     1
  9
$MAXACTVP
 70
    64
  9
$PINSBASE
 10
0.0
 20
0.0
 30
0.0
  9
$PLIMCHECK
 70
     0
  9
$PEXTMIN
 10
1.000000000000000E+20
 20
1.000000000000000E+20
 30
1.000000000000000E+20
  9
$PEXTMAX
 10
-1.000000000000000E+20
 20
-1.000000000000000E+20
 30
-1.000000000000000E+20
  9
$PLIMMIN
 10
0.0
 20
0.0
  9
$PLIMMAX
 10
0.0
 20
0.0
  9
$UNITMODE
 70
     0
  9
$VISRETAIN
 70
     1
  9
$PLINEGEN
 70
     0
  9
$PSLTSCALE
 70
     1
  9
$TREEDEPTH
 70
  3020
  9
$CMLSTYLE
  2
Standard
  9
$CMLJUST
 70
     0
  9
$CMLSCALE
 40
20.0
  9
$PROXYGRAPHICS
 70
     1
  9
$MEASUREMENT
 70
     1
  9
$CELWEIGHT
370
    -1
  9
$ENDCAPS
280
     0
  9
$JOINSTYLE
280
     0
  9
$LWDISPLAY
290
     1
  9
$INSUNITS
 70
     4
  9
$HYPERLINKBASE
  1

  9
$STYLESHEET
  1

  9
$XEDIT
290
     1
  9
$CEPSNTYPE
380
     0
  9
$PSTYLEMODE
290
     1
  9
$FINGERPRINTGUID
  2
{5438B9CB-8BF1-47BF-BC53-F2EFD11DB64F}
  9
$VERSIONGUID
  2
{FAEB1C32-E019-11D5-929B-00C0DF256EC4}
  9
$EXTNAMES
290
     1
  9
$PSVPSCALE
 40
0.0
  9
$OLESTARTUP
290
     0
  0
ENDSEC
  0
SECTION
  2
CLASSES
  0
CLASS
  1
ACDBDICTIONARYWDFLT
  2
AcDbDictionaryWithDefault
  3
ObjectDBX Classes
 90
        0
280
     0
281
     0
  0
CLASS
  1
VISUALSTYLE
  2
AcDbVisualStyle
  3
ObjectDBX Classes
 90
     4095
280
     0
281
     0
  0
CLASS
  1
MATERIAL
  2
AcDbMaterial
  3
ObjectDBX Classes
 90
     1153
280
     0
281
     0
  0
CLASS
  1
SCALE
  2
AcDbScale
  3
ObjectDBX Classes
 90
     1153
280
     0
281
     0
  0
CLASS
  1
TABLESTYLE
  2
AcDbTableStyle
  3
ObjectDBX Classes
 90
     4095
280
     0
281
     0
  0
CLASS
  1
MLEADERSTYLE
  2
AcDbMLeaderStyle
  3
ACDB_MLEADERSTYLE_CLASS
 90
     4095
280
     0
281
     0
  0
CLASS
  1
SUN
  2
AcDbSun
  3
SCENEOE
 90
     1153
280
     0
281
     0
  0
CLASS
  1
ACDBPLACEHOLDER
  2
AcDbPlaceHolder
  3
ObjectDBX Classes
 90
        0
280
     0
281
     0
  0
CLASS
  1
LAYOUT
  2
AcDbLayout
  3
ObjectDBX Classes
 90
        0
280
     0
281
     0
  0
CLASS
  1
DICTIONARYVAR
  2
AcDbDictionaryVar
  3
ObjectDBX Classes
 90
        0
280
     0
281
     0
  0
ENDSEC
  0
SECTION
  2
TABLES
  0
TABLE
  2
VPORT
  5
8
330
0
100
AcDbSymbolTable
 70
     1
  0
VPORT
  5
29
330
8
100
AcDbSymbolTableRecord
100
AcDbViewportTableRecord
  2
*Active
 70
     0
 10
0.0
 20
0.0
 11
1.0
 21
1.0
 12
222.6844989803041
 22
59.67600698705024
 13
0.0
 23
0.0
 14
10.0
 24
10.0
 15
10.0
 25
10.0
 16
0.0
 26
0.0
 36
1.0
 17
0.0
 27
0.0
 37
0.0
 40
152.064
 41
1.905707196029777
 42
50.0
 43
0.0
 44
0.0
 50
0.0
 51
0.0
 71
    16
 72
  2000
 73
     1
 74
     3
 75
     0
 76
     0
 77
     0
 78
     0
281
     0
 65
     1
110
0.0
120
0.0
130
0.0
111
1.0
121
0.0
131
0.0
112
0.0
122
1.0
132
0.0
 79
     0
146
0.0
  0
ENDTAB
  0
TABLE
  2
LTYPE
  5
5
330
0
100
AcDbSymbolTable
 70
     6
  0
LTYPE
  5
14
330
5
100
AcDbSymbolTableRecord
100
AcDbLinetypeTableRecord
  2
ByBlock
 70
     0
  3

 72
    65
 73
     0
 40
0.0
  0
LTYPE
  5
15
330
5
100
AcDbSymbolTableRecord
100
AcDbLinetypeTableRecord
  2
ByLayer
 70
     0
  3

 72
    65
 73
     0
 40
0.0
  0
LTYPE
  5
16
330
5
100
AcDbSymbolTableRecord
100
AcDbLinetypeTableRecord
  2
Continuous
 70
     0
  3
Solid line
 72
    65
 73
     0
 40
0.0
  0
LTYPE
  5
6E
330
5
100
AcDbSymbolTableRecord
100
AcDbLinetypeTableRecord
  2
HIDDEN
 70
     0
  3
Hidden __ __ __ __ __ __ __ __ __ __ __ __ __ __
 72
    65
 73
     2
 40
1.905
 49
1.27
 74
     0
 49
-0.635
 74
     0
  0
LTYPE
  5
6F
330
5
100
AcDbSymbolTableRecord
100
AcDbLinetypeTableRecord
  2
PHANTOM
 70
     0
  3
Phantom ______  __  __  ______  __  __  ______
 72
    65
 73
     6
 40
12.7
 49
6.35
 74
     0
 49
-1.27
 74
     0
 49
1.27
 74
     0
 49
-1.27
 74
     0
 49
1.27
 74
     0
 49
-1.27
 74
     0
  0
LTYPE
  5
70
330
5
100
AcDbSymbolTableRecord
100
AcDbLinetypeTableRecord
  2
CENTER
 70
     0
  3
Center ____ _ ____ _ ____ _ ____ _ ____ _ ____
 72
    65
 73
     4
 40
10.16
 49
6.35
 74
     0
 49
-1.27
 74
     0
 49
1.27
 74
     0
 49
-1.27
 74
     0
  0
LTYPE
  5
71
330
5
100
AcDbSymbolTableRecord
100
AcDbLinetypeTableRecord
  2
CENTERX2
 70
     0
  3
Center (2x) ________  __  ________  __  _____
 72
    65
 73
     4
 40
20.32
 49
12.7
 74
     0
 49
-2.54
 74
     0
 49
2.54
 74
     0
 49
-2.54
 74
     0
  0
LTYPE
  5
72
330
5
100
AcDbSymbolTableRecord
100
AcDbLinetypeTableRecord
  2
DOT2
 70
     0
  3
Dot (.5x) ........................................
 72
    65
 73
     2
 40
0.635
 49
0.0
 74
     0
 49
-0.635
 74
     0
  0
ENDTAB
  0
TABLE
  2
LAYER
  5
2
330
0
100
AcDbSymbolTable
 70
    13
  0
LAYER
  5
10
330
2
100
AcDbSymbolTableRecord
100
AcDbLayerTableRecord
  2
0
 70
     0
 62
     7
  6
Continuous
370
    -3
390
F
  0
LAYER
  5
73
330
2
100
AcDbSymbolTableRecord
100
AcDbLayerTableRecord
  2
SLD-0
 70
     0
 62
   179
  6
Continuous
370
    -3
390
F
  0
LAYER
  5
74
330
2
100
AcDbSymbolTableRecord
100
AcDbLayerTableRecord
  2
中心線
 70
     0
 62
     1
  6
CENTER
370
    -3
390
F
  0
LAYER
  5
75
330
2
100
AcDbSymbolTableRecord
100
AcDbLayerTableRecord
  2
破線
 70
     0
 62
     3
  6
HIDDEN
370
    -3
390
F
  0
LAYER
  5
76
330
2
100
AcDbSymbolTableRecord
100
AcDbLayerTableRecord
  2
寸法線
 70
     0
 62
     7
  6
Continuous
370
    -3
390
F
  0
LAYER
  5
77
330
2
100
AcDbSymbolTableRecord
100
AcDbLayerTableRecord
  2
実線
 70
     0
 62
     4
  6
Continuous
370
    25
390
F
  0
LAYER
  5
78
330
2
100
AcDbSymbolTableRecord
100
AcDbLayerTableRecord
  2
ﾊｯﾁﾝｸﾞ
 70
     0
 62
     8
  6
Continuous
370
    -3
390
F
  0
LAYER
  5
79
330
2
100
AcDbSymbolTableRecord
100
AcDbLayerTableRecord
  2
輪郭線
 70
     0
 62
     6
  6
Continuous
370
    25
390
F
  0
LAYER
  5
7A
330
2
100
AcDbSymbolTableRecord
100
AcDbLayerTableRecord
  2
文字
 70
     0
 62
   179
  6
Continuous
370
    -3
390
F
  0
LAYER
  5
7B
330
2
100
AcDbSymbolTableRecord
100
AcDbLayerTableRecord
  2
想像線
 70
     0
 62
     3
  6
PHANTOM
370
    -3
390
F
  0
LAYER
  5
7C
330
2
100
AcDbSymbolTableRecord
100
AcDbLayerTableRecord
  2
姿図
 70
     0
 62
     8
  6
Continuous
370
    -3
390
F
  0
LAYER
  5
7D
330
2
100
AcDbSymbolTableRecord
100
AcDbLayerTableRecord
  2
注記
 70
     0
 62
     7
  6
Continuous
370
    25
390
F
  0
LAYER
  5
7E
330
2
100
AcDbSymbolTableRecord
100
AcDbLayerTableRecord
  2
ロゴ：MODULEX
 70
     0
 62
     7
  6
Continuous
370
    -3
390
F
  0
ENDTAB
  0
TABLE
  2
STYLE
  5
3
330
0
100
AcDbSymbolTable
 70
     1
  0
STYLE
  5
11
330
3
100
AcDbSymbolTableRecord
100
AcDbTextStyleTableRecord
  2
Standard
 70
     0
 40
0.0
 41
1.0
 50
0.0
 71
     0
 42
3.5
  3
txt
  4
bigfont
  0
ENDTAB
  0
TABLE
  2
VIEW
  5
6
330
0
100
AcDbSymbolTable
 70
     0
  0
ENDTAB
  0
TABLE
  2
UCS
  5
7
330
0
100
AcDbSymbolTable
 70
     0
  0
ENDTAB
  0
TABLE
  2
APPID
  5
9
330
0
100
AcDbSymbolTable
 70
     1
  0
APPID
  5
12
330
9
100
AcDbSymbolTableRecord
100
AcDbRegAppTableRecord
  2
ACAD
 70
     0
  0
ENDTAB
  0
TABLE
  2
DIMSTYLE
  5
A
330
0
100
AcDbSymbolTable
 70
     1
100
AcDbDimStyleTable
  0
DIMSTYLE
105
27
330
A
100
AcDbSymbolTableRecord
100
AcDbDimStyleTableRecord
  2
ISO-25
 70
     0
 41
2.5
 42
0.625
 43
3.75
 44
1.25
 73
     0
 74
     0
 77
     1
 78
     8
140
2.5
141
2.5
143
0.03937007874016
147
0.625
171
     3
172
     1
178
     0
271
     2
272
     2
274
     3
278
    44
283
     0
284
     8
340
11
  0
ENDTAB
  0
TABLE
  2
BLOCK_RECORD
  5
1
330
0
100
AcDbSymbolTable
 70
     1
  0
BLOCK_RECORD
  5
1F
330
1
100
AcDbSymbolTableRecord
100
AcDbBlockTableRecord
  2
*Model_Space
340
22
  0
BLOCK_RECORD
  5
1B
330
1
100
AcDbSymbolTableRecord
100
AcDbBlockTableRecord
  2
*Paper_Space
340
1E
  0
BLOCK_RECORD
  5
23
330
1
100
AcDbSymbolTableRecord
100
AcDbBlockTableRecord
  2
*Paper_Space0
340
26
  0
ENDTAB
  0
ENDSEC
  0
SECTION
  2
BLOCKS
  0
BLOCK
  5
20
330
1F
100
AcDbEntity
  8
0
100
AcDbBlockBegin
  2
*Model_Space
 70
     0
 10
0.0
 20
0.0
 30
0.0
  3
*Model_Space
  1

  0
ENDBLK
  5
21
330
1F
100
AcDbEntity
  8
0
100
AcDbBlockEnd
  0
BLOCK
  5
1C
330
1B
100
AcDbEntity
 67
     1
  8
0
100
AcDbBlockBegin
  2
*Paper_Space
 70
     0
 10
0.0
 20
0.0
 30
0.0
  3
*Paper_Space
  1

  0
ENDBLK
  5
1D
330
1B
100
AcDbEntity
 67
     1
  8
0
100
AcDbBlockEnd
  0
BLOCK
  5
24
330
23
100
AcDbEntity
  8
0
100
AcDbBlockBegin
  2
*Paper_Space0
 70
     0
 10
0.0
 20
0.0
 30
0.0
  3
*Paper_Space0
  1

  0
ENDBLK
  5
25
330
23
100
AcDbEntity
  8
0
100
AcDbBlockEnd
  0
ENDSEC
  0
SECTION
  2
ENTITIES
  0
LINE
  5
7F
330
1F
100
AcDbEntity
  8
0
  6
Continuous
 62
     7
370
    25
100
AcDbLine
 10
92.76331574402525
 20
110.6271654864571
 30
0.0
 11
91.34909931566645
 21
109.810755720136
 31
0.0
  0
LINE
  5
80
330
1F
100
AcDbEntity
  8
0
  6
Continuous
 62
     7
370
    25
100
AcDbLine
 10
93.26494029101232
 20
103.0443285825892
 30
0.0
 11
92.38904448525892
 21
102.5386846968605
 31
0.0
  0
LINE
  5
81
330
1F
100
AcDbEntity
  8
0
  6
Continuous
 62
     7
370
    25
100
AcDbLine
 10
109.5267281966743
 20
72.03872127511539
 30
0.0
 11
110.9409446250331
 21
72.85513104143644
 31
0.0
  0
LINE
  5
82
330
1F
100
AcDbEntity
  8
0
  6
Continuous
 62
     7
370
    25
100
AcDbLine
 10
92.30616995165184
 20
100.5647710100874
 30
0.0
 11
91.34909931566645
 21
100.0122658923352
 31
0.0
  0
LINE
  5
83
330
1F
100
AcDbEntity
  8
0
  6
Continuous
 62
     7
370
    25
100
AcDbLine
 10
315.8554961718336
 20
239.4155399098012
 30
0.0
 11
314.5299143498083
 21
238.650297812582
 31
0.0
  0
LINE
  5
84
330
1F
100
AcDbEntity
  8
0
  6
Continuous
 62
     7
370
    25
100
AcDbLine
 10
332.7075547244758
 20
200.8782700027099
 30
0.0
 11
334.0331250528415
 21
201.6435054647806
 31
0.0
  0
LINE
  5
85
330
1F
100
AcDbEntity
  8
0
  6
Continuous
 62
     7
370
    25
100
AcDbLine
 10
111.0444987732798
 20
89.93278674717908
 30
0.0
 11
332.6396259407954
 21
217.8569307190186
 31
0.0
  0
LINE
  5
86
330
1F
100
AcDbEntity
  8
0
  6
Continuous
 62
     7
370
    25
100
AcDbLine
 10
111.0444987732798
 20
89.11624580145185
 30
0.0
 11
332.6396259407954
 21
217.0403897732914
 31
0.0
  0
LINE
  5
87
330
1F
100
AcDbEntity
  8
0
  6
Continuous
 62
     7
370
    25
100
AcDbLine
 10
94.50719757744666
 20
108.621210568654
 30
0.0
 11
316.1347567448914
 21
236.564077135531
 31
0.0
  0
LINE
  5
88
330
1F
100
AcDbEntity
  8
0
  6
Continuous
 62
     7
370
    25
100
AcDbLine
 10
314.4205680247904
 20
238.6350019907659
 30
0.0
 11
92.74260122652665
 21
110.6630357180218
 31
0.0
  0
LINE
  5
89
330
1F
100
AcDbEntity
  8
0
  6
Continuous
 62
     7
370
    25
100
AcDbLine
 10
106.2969262917759
 20
90.77936703646644
 30
0.0
 11
106.1555025415976
 21
90.69772484329147
 31
0.0
  0
LINE
  5
8A
330
1F
100
AcDbEntity
  8
0
  6
Continuous
 62
     7
370
    25
100
AcDbLine
 10
108.1553402103921
 20
87.23352873554687
 30
0.0
 11
108.2967639605704
 21
87.31517092872183
 31
0.0
  0
LINE
  5
8B
330
1F
100
AcDbEntity
  8
0
  6
Continuous
 62
     7
370
    25
100
AcDbLine
 10
107.7699751108444
 20
88.82314751389897
 30
0.0
 11
107.3987048394009
 21
88.4888051638492
 31
0.0
  0
LINE
  5
8C
330
1F
100
AcDbEntity
  8
0
  6
Continuous
 62
     7
370
    25
100
AcDbLine
 10
106.8640905052864
 20
89.41471134583486
 30
0.0
 11
107.3392725146444
 21
89.5690246211717
 31
0.0
  0
LINE
  5
8D
330
1F
100
AcDbEntity
  8
0
  6
Continuous
 62
     7
370
    25
100
AcDbLine
 10
92.43763321614686
 20
85.47055156930064
 30
0.0
 11
92.29620946596856
 21
85.38890937612567
 31
0.0
  0
LINE
  5
8E
330
1F
100
AcDbEntity
  8
0
  6
Continuous
 62
     7
370
    25
100
AcDbLine
 10
94.29604713476311
 20
81.92471374367037
 30
0.0
 11
94.43747088494142
 21
82.00635593684534
 31
0.0
  0
LINE
  5
8F
330
1F
100
AcDbEntity
  8
0
  6
Continuous
 62
     7
370
    25
100
AcDbLine
 10
93.91068269375982
 20
83.51433128633207
 30
0.0
 11
93.53941176377187
 21
83.17998988679912
 31
0.0
  0
LINE
  5
90
330
1F
100
AcDbEntity
  8
0
  6
Continuous
 62
     7
370
    25
100
AcDbLine
 10
93.00479808820192
 20
84.10589568861512
 30
0.0
 11
93.47997943901545
 21
84.26020972435307
 31
0.0
  0
LINE
  5
91
330
1F
100
AcDbEntity
  8
0
  6
Continuous
 62
     7
370
    25
100
AcDbLine
 10
97.30141048589594
 20
86.64914113533591
 30
0.0
 11
96.46013765764971
 21
86.47904203261218
 31
0.0
  0
LINE
  5
92
330
1F
100
AcDbEntity
  8
0
  6
Continuous
 62
     7
370
    25
100
AcDbLine
 10
111.0444987732798
 20
88.38135879820479
 30
0.0
 11
332.6396259407954
 21
216.3055027700443
 31
0.0
  0
LINE
  5
93
330
1F
100
AcDbEntity
  8
0
  6
Continuous
 62
     7
370
    25
100
AcDbLine
 10
111.0444987732798
 20
87.56481785247756
 30
0.0
 11
332.6396259407955
 21
215.4889618243171
 31
0.0
  0
LINE
  5
94
330
1F
100
AcDbEntity
  8
0
  6
Continuous
 62
     7
370
    25
100
AcDbLine
 10
111.0444987732798
 20
86.74827842767613
 30
0.0
 11
332.6396259407955
 21
214.6724223995157
 31
0.0
  0
LINE
  5
95
330
1F
100
AcDbEntity
  8
0
  6
Continuous
 62
     7
370
    25
100
AcDbLine
 10
111.0444987732798
 20
85.93173748194891
 30
0.0
 11
332.6396259407955
 21
213.8558814537884
 31
0.0
  0
LINE
  5
96
330
1F
100
AcDbEntity
  8
0
  6
Continuous
 62
     7
370
    25
100
AcDbLine
 10
111.0444987732798
 20
85.1151957757588
 30
0.0
 11
332.6396259407955
 21
213.0393397475983
 31
0.0
  0
LINE
  5
97
330
1F
100
AcDbEntity
  8
0
  6
Continuous
 62
     7
370
    25
100
AcDbLine
 10
111.0444987732798
 20
84.29865559049448
 30
0.0
 11
332.6396259407955
 21
212.222799562334
 31
0.0
  0
LINE
  5
98
330
1F
100
AcDbEntity
  8
0
  6
Continuous
 62
     7
370
    25
100
AcDbLine
 10
111.0444987732798
 20
83.48211464476726
 30
0.0
 11
332.6396259407954
 21
211.4062586166068
 31
0.0
  0
LINE
  5
99
330
1F
100
AcDbEntity
  8
0
  6
Continuous
 62
     7
370
    25
100
AcDbLine
 10
111.0444987732798
 20
82.66557369904004
 30
0.0
 11
332.6396259407954
 21
210.5897176708796
 31
0.0
  0
LINE
  5
9A
330
1F
100
AcDbEntity
  8
0
  6
Continuous
 62
     7
370
    25
100
AcDbLine
 10
111.0444987732798
 20
81.84903275331281
 30
0.0
 11
332.6396259407955
 21
209.7731767251524
 31
0.0
  0
LINE
  5
9B
330
1F
100
AcDbEntity
  8
0
  6
Continuous
 62
     7
370
    25
100
AcDbLine
 10
111.0444987732798
 20
81.0324918075856
 30
0.0
 11
332.6396259407955
 21
208.9566357794251
 31
0.0
  0
LINE
  5
9C
330
1F
100
AcDbEntity
  8
0
  6
Continuous
 62
     7
370
    25
100
AcDbLine
 10
111.0444987732798
 20
80.21595086185839
 30
0.0
 11
332.6396259407955
 21
208.1400948336979
 31
0.0
  0
LINE
  5
9D
330
1F
100
AcDbEntity
  8
0
  6
Continuous
 62
     7
370
    25
100
AcDbLine
 10
111.0444987732798
 20
79.39941067659404
 30
0.0
 11
332.6396259407954
 21
207.3235546484336
 31
0.0
  0
LINE
  5
9E
330
1F
100
AcDbEntity
  8
0
  6
Continuous
 62
     7
370
    25
100
AcDbLine
 10
111.0444987732798
 20
78.58286973086682
 30
0.0
 11
332.6396259407954
 21
206.5070137027064
 31
0.0
  0
LINE
  5
9F
330
1F
100
AcDbEntity
  8
0
  6
Continuous
 62
     7
370
    25
100
AcDbLine
 10
111.0444987732798
 20
77.76632878513963
 30
0.0
 11
332.6396259407955
 21
205.6904727569791
 31
0.0
  0
LINE
  5
A0
330
1F
100
AcDbEntity
  8
0
  6
Continuous
 62
     7
370
    25
100
AcDbLine
 10
111.0444987732798
 20
76.94978783941241
 30
0.0
 11
332.6396259407954
 21
204.8739318112519
 31
0.0
  0
LINE
  5
A1
330
1F
100
AcDbEntity
  8
0
  6
Continuous
 62
     7
370
    25
100
AcDbLine
 10
111.0444987732798
 20
76.13324727391661
 30
0.0
 11
332.6396259407955
 21
204.0573912457562
 31
0.0
  0
LINE
  5
A2
330
1F
100
AcDbEntity
  8
0
  6
Continuous
 62
     7
370
    25
100
AcDbLine
 10
111.0444987732798
 20
75.31670632818941
 30
0.0
 11
332.6396259407955
 21
203.2408503000289
 31
0.0
  0
LINE
  5
A3
330
1F
100
AcDbEntity
  8
0
  6
Continuous
 62
     7
370
    25
100
AcDbLine
 10
111.0444987732798
 20
74.50016557257793
 30
0.0
 11
332.6396259407954
 21
202.4243095444174
 31
0.0
  0
LINE
  5
A4
330
1F
100
AcDbEntity
  8
0
  6
Continuous
 62
     7
370
    25
100
AcDbLine
 10
111.0444987732798
 20
73.68362472190854
 30
0.0
 11
332.6396259407955
 21
201.6077686937481
 31
0.0
  0
LINE
  5
A5
330
1F
100
AcDbEntity
  8
0
  6
Continuous
 62
     7
370
    25
100
AcDbLine
 10
110.9616591425317
 20
72.81926157033459
 30
0.0
 11
332.6396259407954
 21
200.7912278430787
 31
0.0
  0
LINE
  5
A6
330
1F
100
AcDbEntity
  8
0
  6
Continuous
 62
     7
370
    25
100
AcDbLine
 10
102.8065159345555
 20
89.59820338142633
 30
0.0
 11
95.84063232664472
 21
85.57688437076135
 31
0.0
  0
ARC
  5
A7
330
1F
100
AcDbEntity
  8
0
  6
Continuous
 62
     7
370
    25
100
AcDbCircle
 10
95.61853129641361
 20
93.46223201823317
 30
0.0
 40
0.2485667778333542
100
AcDbArc
 50
54.12464273163712
 51
115.9403807149826
  0
ARC
  5
A8
330
1F
100
AcDbEntity
  8
0
  6
Continuous
 62
     7
370
    25
100
AcDbCircle
 10
94.83566816167293
 20
95.07167813098039
 30
0.0
 40
1.541179427031245
100
AcDbArc
 50
234.1260673594065
 51
295.9389052336637
  0
LINE
  5
A9
330
1F
100
AcDbEntity
  8
0
  6
Continuous
 62
     7
370
    25
100
AcDbLine
 10
93.22542432781081
 20
94.23105172096582
 30
0.0
 11
93.9325312249012
 21
93.82284759814462
 31
0.0
  0
ARC
  5
AA
330
1F
100
AcDbEntity
  8
0
  6
Continuous
 62
     7
370
    25
100
AcDbCircle
 10
93.0874078561145
 20
94.0618474633241
 30
0.0
 40
0.2183543616775162
100
AcDbArc
 50
50.79657435908474
 51
189.2139925581184
  0
LINE
  5
AB
330
1F
100
AcDbEntity
  8
0
  6
Continuous
 62
     7
370
    25
100
AcDbLine
 10
92.8718708792656
 20
86.59182279318445
 30
0.0
 11
92.8718708792656
 21
94.02688406997571
 31
0.0
  0
ARC
  5
AC
330
1F
100
AcDbEntity
  8
0
  6
Continuous
 62
     7
370
    25
100
AcDbCircle
 10
93.64519044965876
 20
86.62884784275765
 30
0.0
 40
0.7742054070135089
100
AcDbArc
 50
182.7411182014931
 51
235.4197617245327
  0
ARC
  5
AD
330
1F
100
AcDbEntity
  8
0
  6
Continuous
 62
     7
370
    25
100
AcDbCircle
 10
90.48147100978748
 20
82.0393753985876
 30
0.0
 40
4.800054903559224
100
AcDbArc
 50
2.741022304095312
 51
55.41985826048608
  0
ARC
  5
AE
330
1F
100
AcDbEntity
  8
0
  6
Continuous
 62
     7
370
    25
100
AcDbCircle
 10
96.04364323835436
 20
82.30385275950887
 30
0.0
 40
0.7684034832253742
100
AcDbArc
 50
182.6055153299907
 51
237.3944848156403
  0
LINE
  5
AF
330
1F
100
AcDbEntity
  8
0
  6
Continuous
 62
     7
370
    25
100
AcDbLine
 10
107.6504031845299
 20
74.7170801188833
 30
0.0
 11
95.62958758035475
 21
81.6565492564198
 31
0.0
  0
ARC
  5
B0
330
1F
100
AcDbEntity
  8
0
  6
Continuous
 62
     7
370
    25
100
AcDbCircle
 10
107.7884192086088
 20
74.88628528188231
 30
0.0
 40
0.2183547803187698
100
AcDbArc
 50
230.7968155329705
 51
9.213936221767122
  0
LINE
  5
B1
330
1F
100
AcDbEntity
  8
0
  6
Continuous
 62
     7
370
    25
100
AcDbLine
 10
108.0039566330751
 20
85.29131690607676
 30
0.0
 11
108.0039566330751
 21
74.92124853033629
 31
0.0
  0
ARC
  5
B2
330
1F
100
AcDbEntity
  8
0
  6
Continuous
 62
     7
370
    25
100
AcDbCircle
 10
107.2363499678715
 20
85.25638654293085
 30
0.0
 40
0.7684010168750375
100
AcDbArc
 50
2.60547849032054
 51
57.39458327450248
  0
LINE
  5
B3
330
1F
100
AcDbEntity
  8
0
  6
Continuous
 62
     7
370
    25
100
AcDbLine
 10
106.9432962874395
 20
86.31189280270931
 30
0.0
 11
107.6504031845299
 21
85.90368867988808
 31
0.0
  0
ARC
  5
B4
330
1F
100
AcDbEntity
  8
0
  6
Continuous
 62
     7
370
    25
100
AcDbCircle
 10
109.326814641463
 20
90.12501570602596
 30
0.0
 40
4.49678396409753
100
AcDbArc
 50
208.2604670408626
 51
237.9911966554365
  0
ARC
  5
B5
330
1F
100
AcDbEntity
  8
0
  6
Continuous
 62
     7
370
    25
100
AcDbCircle
 10
104.727217873217
 20
87.65249091886778
 30
0.0
 40
0.7252529233746213
100
AcDbArc
 50
28.25972357543066
 51
57.99191617682011
  0
LINE
  5
B6
330
1F
100
AcDbEntity
  8
0
  6
Continuous
 62
     7
370
    25
100
AcDbLine
 10
95.76419737050895
 20
93.66364412784951
 30
0.0
 11
105.1116301418318
 21
88.26748604941912
 31
0.0
  0
LWPOLYLINE
  5
B7
330
1F
100
AcDbEntity
  8
0
  6
Continuous
 62
     7
370
    25
100
AcDbPolyline
 90
       19
 70
   128
 43
0.0
 10
105.3876613772585
 20
89.7412185005099
 10
105.4814776278657
 20
90.3014618364567
 10
105.7516106094067
 20
90.68581258145248
 10
106.165478832349
 20
90.84791404297275
 10
106.673162647354
 20
90.76821269758858
 10
107.2134292689805
 20
90.45632341567365
 10
107.7211137425301
 20
89.94986512483393
 10
108.1349813069279
 20
89.30992196442877
 10
108.4051149470134
 20
88.61368193751805
 10
108.4989311976206
 20
87.94512066423228
 10
108.4051149470134
 20
87.38487884921129
 10
108.1349813069279
 20
87.00052848438516
 10
107.7211137425301
 20
86.83842664269523
 10
107.2134292689805
 20
86.91812684732326
 10
106.673162647354
 20
87.2300161292382
 10
106.165478832349
 20
87.73647556083404
 10
105.7516106094067
 20
88.37641910140886
 10
105.4814776278657
 20
89.07265874814995
 10
105.3876613772585
 20
89.7412185005099
  0
LWPOLYLINE
  5
B8
330
1F
100
AcDbEntity
  8
0
  6
Continuous
 62
     7
370
    25
100
AcDbPolyline
 90
       19
 70
   128
 43
0.0
 10
91.5283683016295
 20
84.43240322345984
 10
91.62218455223672
 20
84.99264579894374
 10
91.89231753377771
 20
85.37699673405524
 10
92.30618575672
 20
85.53909781534406
 10
92.81387023026954
 20
85.45939723048458
 10
93.35413619335151
 20
85.14750832873929
 10
93.86182066690105
 20
84.64104889720525
 10
94.27568888984337
 20
84.00110573686189
 10
94.54582187138436
 20
83.30486590000507
 10
94.63963812199155
 20
82.6363053871822
 10
94.54582187138436
 20
82.07606281169832
 10
94.27568888984337
 20
81.6917116864711
 10
93.86182066690105
 20
81.5296106527112
 10
93.35413619335151
 20
81.60931126133514
 10
92.81387023026954
 20
81.92120016308043
 10
92.30618575672
 20
82.42765957085001
 10
91.89231753377771
 20
83.06760268366445
 10
91.62218455223672
 20
83.76384271063696
 10
91.5283683016295
 20
84.43240322345984
  0
ARC
  5
B9
330
1F
100
AcDbEntity
  8
0
  6
Continuous
 62
     7
370
    25
100
AcDbCircle
 10
107.9555588158774
 20
92.93891096937374
 30
0.0
 40
0.6147183611593637
100
AcDbArc
 50
2.605360825624568
 51
57.39471634397333
  0
LINE
  5
BA
330
1F
100
AcDbEntity
  8
0
  6
Continuous
 62
     7
370
    25
100
AcDbLine
 10
108.5696417556207
 20
90.35392316516575
 30
0.0
 11
108.5696417556207
 21
92.9668538873077
 31
0.0
  0
ARC
  5
BB
330
1F
100
AcDbEntity
  8
0
  6
Continuous
 62
     7
370
    25
100
AcDbCircle
 10
108.8766838784539
 20
90.3678949794122
 30
0.0
 40
0.3073598490161426
100
AcDbArc
 50
182.6054214527946
 51
237.3945786928288
  0
LINE
  5
BC
330
1F
100
AcDbEntity
  8
0
  6
Continuous
 62
     7
370
    25
100
AcDbLine
 10
109.2767486527111
 20
89.78241115738425
 30
0.0
 11
108.711062871621
 21
90.10897460770909
 31
0.0
  0
ARC
  5
BD
330
1F
100
AcDbEntity
  8
0
  6
Continuous
 62
     7
370
    25
100
AcDbCircle
 10
108.8626905533845
 20
89.13510628817393
 30
0.0
 40
0.7684059495614181
100
AcDbArc
 50
2.605552168681974
 51
57.39438635786946
  0
LINE
  5
BE
330
1F
100
AcDbEntity
  8
0
  6
Continuous
 62
     7
370
    25
100
AcDbLine
 10
109.6303021012563
 20
89.17003786264713
 30
0.0
 11
109.6303021012563
 21
72.26764358460152
 31
0.0
  0
ARC
  5
BF
330
1F
100
AcDbEntity
  8
0
  6
Continuous
 62
     7
370
    25
100
AcDbCircle
 10
109.4147647610905
 20
72.23268022955622
 30
0.0
 40
0.2183547141734919
100
AcDbArc
 50
230.796772830235
 51
9.213967372131787
  0
LINE
  5
C0
330
1F
100
AcDbEntity
  8
0
  6
Continuous
 62
     7
370
    25
100
AcDbLine
 10
109.2767486527111
 20
72.06347522067765
 30
0.0
 11
91.59907885962964
 21
82.26857677052938
 31
0.0
  0
ARC
  5
C1
330
1F
100
AcDbEntity
  8
0
  6
Continuous
 62
     7
370
    25
100
AcDbCircle
 10
92.01313433448887
 20
82.91588017059344
 30
0.0
 40
0.7684032977514964
100
AcDbArc
 50
182.6055118170157
 51
237.3944921798261
  0
LINE
  5
C2
330
1F
100
AcDbEntity
  8
0
  6
Continuous
 62
     7
370
    25
100
AcDbLine
 10
91.24552541108444
 20
82.88094925727447
 30
0.0
 11
91.24552541108444
 21
99.7833435353201
 31
0.0
  0
ARC
  5
C3
330
1F
100
AcDbEntity
  8
0
  6
Continuous
 62
     7
370
    25
100
AcDbCircle
 10
91.461063155211
 20
99.8183068604633
 30
0.0
 40
0.2183551081340705
100
AcDbArc
 50
50.7969939374239
 51
189.2139426545213
  0
LINE
  5
C4
330
1F
100
AcDbEntity
  8
0
  6
Continuous
 62
     7
370
    25
100
AcDbLine
 10
92.16476464071974
 20
99.66094925691117
 30
0.0
 11
91.59907885962964
 21
99.987512707236
 31
0.0
  0
ARC
  5
C5
330
1F
100
AcDbEntity
  8
0
  6
Continuous
 62
     7
370
    25
100
AcDbCircle
 10
92.21997108875946
 20
99.72863095146451
 30
0.0
 40
0.0873416491874011
100
AcDbArc
 50
230.7966423249995
 51
9.2141094297637
  0
LINE
  5
C6
330
1F
100
AcDbEntity
  8
0
  6
Continuous
 62
     7
370
    25
100
AcDbLine
 10
92.30618575672
 20
102.355547191517
 30
0.0
 11
92.30618575672
 21
99.74261646937508
 31
0.0
  0
ARC
  5
C7
330
1F
100
AcDbEntity
  8
0
  6
Continuous
 62
     7
370
    25
100
AcDbCircle
 10
92.47861498151379
 20
102.3835185498833
 30
0.0
 40
0.1746832403290483
100
AcDbArc
 50
50.79630101251647
 51
189.2142196953552
  0
LINE
  5
C8
330
1F
100
AcDbEntity
  8
0
  6
Continuous
 62
     7
370
    25
100
AcDbLine
 10
93.27682175102534
 20
102.1218267290172
 30
0.0
 11
92.58902864726507
 21
102.5188812362752
 31
0.0
  0
LWPOLYLINE
  5
C9
330
1F
100
AcDbEntity
  8
0
  6
Continuous
 62
     7
370
    25
100
AcDbPolyline
 90
        9
 70
   128
 43
0.0
 10
93.27682175102534
 20
102.1218267290172
 10
93.35300217970877
 20
102.089918770646
 10
93.42355271139347
 20
102.0845097541424
 10
93.48325833212071
 20
102.1059972924889
 10
93.5277061351425
 20
102.152796547175
 10
93.553611300453
 20
102.2214455828948
 10
93.55905878062303
 20
102.3068734533952
 10
93.54364620495822
 20
102.4027633359145
 10
93.50851285545733
 20
102.5020301045978
  0
LINE
  5
CA
330
1F
100
AcDbEntity
  8
0
  6
Continuous
 62
     7
370
    25
100
AcDbLine
 10
91.2966771971975
 20
107.4265943131702
 30
0.0
 11
93.50851285545733
 21
102.5020301045978
 31
0.0
  0
ARC
  5
CB
330
1F
100
AcDbEntity
  8
0
  6
Continuous
 62
     7
370
    25
100
AcDbCircle
 10
91.78671695686437
 20
107.6566444300823
 30
0.0
 40
0.541352031810732
100
AcDbArc
 50
181.3951698816786
 51
205.1477992190468
  0
LINE
  5
CC
330
1F
100
AcDbEntity
  8
0
  6
Continuous
 62
     7
370
    25
100
AcDbLine
 10
91.24552541108444
 20
107.6434636439926
 30
0.0
 11
91.24552541108444
 21
109.5818333631209
 31
0.0
  0
ARC
  5
CD
330
1F
100
AcDbEntity
  8
0
  6
Continuous
 62
     7
370
    25
100
AcDbCircle
 10
91.46106347829613
 20
109.6167961287877
 30
0.0
 40
0.2183553374671852
100
AcDbArc
 50
50.79715242272706
 51
189.2137841692258
  0
LINE
  5
CE
330
1F
100
AcDbEntity
  8
0
  6
Continuous
 62
     7
370
    25
100
AcDbLine
 10
91.59907885962964
 20
109.7860025350368
 30
0.0
 11
92.31831812219058
 21
109.3707945467109
 31
0.0
  0
ARC
  5
CF
330
1F
100
AcDbEntity
  8
0
  6
Continuous
 62
     7
370
    25
100
AcDbCircle
 10
92.16560417582508
 20
109.1259803574382
 30
0.0
 40
0.2885403553816824
100
AcDbArc
 50
28.85597060054344
 51
58.04427810235848
  0
LINE
  5
D0
330
1F
100
AcDbEntity
  8
0
  6
Continuous
 62
     7
370
    25
100
AcDbLine
 10
92.41831810572776
 20
109.2652326691494
 30
0.0
 11
93.04258207934743
 21
108.1839765131416
 31
0.0
  0
ARC
  5
D1
330
1F
100
AcDbEntity
  8
0
  6
Continuous
 62
     7
370
    25
100
AcDbCircle
 10
92.79560110562618
 20
108.0347342753405
 30
0.0
 40
0.2885703500434149
100
AcDbArc
 50
1.956601987826684
 51
31.1431472730834
  0
LINE
  5
D2
330
1F
100
AcDbEntity
  8
0
  6
Continuous
 62
     7
370
    25
100
AcDbLine
 10
93.08400321181054
 20
108.0445867913948
 30
0.0
 11
93.08400321181054
 21
107.8672711799786
 31
0.0
  0
ARC
  5
D3
330
1F
100
AcDbEntity
  8
0
  6
Continuous
 62
     7
370
    25
100
AcDbCircle
 10
93.39103955639422
 20
107.8812396581511
 30
0.0
 40
0.307353925105513
100
AcDbArc
 50
182.604849162149
 51
237.3951509834809
  0
LINE
  5
D4
330
1F
100
AcDbEntity
  8
0
  6
Continuous
 62
     7
370
    25
100
AcDbLine
 10
93.22542432781081
 20
107.6223226225219
 30
0.0
 11
107.6504031845299
 21
99.29495958144416
 31
0.0
  0
ARC
  5
D5
330
1F
100
AcDbEntity
  8
0
  6
Continuous
 62
     7
370
    25
100
AcDbCircle
 10
107.7056104699727
 20
99.36263982588719
 30
0.0
 40
0.0873410548014112
100
AcDbArc
 50
230.7956153640882
 51
9.215136390654013
  0
LINE
  5
D6
330
1F
100
AcDbEntity
  8
0
  6
Continuous
 62
     7
370
    25
100
AcDbLine
 10
107.7918243005302
 20
99.37662679390806
 30
0.0
 11
107.7918243005302
 21
99.55394240532434
 31
0.0
  0
ARC
  5
D7
330
1F
100
AcDbEntity
  8
0
  6
Continuous
 62
     7
370
    25
100
AcDbCircle
 10
107.8919603818477
 20
99.56379609816672
 30
0.0
 40
0.1006197298956125
100
AcDbArc
 50
125.6994318832143
 51
185.6199846319071
  0
LINE
  5
D8
330
1F
100
AcDbEntity
  8
0
  6
Continuous
 62
     7
370
    25
100
AcDbLine
 10
107.8332454329933
 20
99.64550830548784
 30
0.0
 11
108.457509406613
 21
100.006004619359
 31
0.0
  0
ARC
  5
D9
330
1F
100
AcDbEntity
  8
0
  6
Continuous
 62
     7
370
    25
100
AcDbCircle
 10
108.4989274296552
 20
99.91433211524331
 30
0.0
 40
0.1005947346712196
100
AcDbArc
 50
54.38356844321723
 51
114.3136527039779
  0
LINE
  5
DA
330
1F
100
AcDbEntity
  8
0
  6
Continuous
 62
     7
370
    25
100
AcDbLine
 10
108.5575093901502
 20
99.99610897351101
 30
0.0
 11
109.2767486527111
 21
99.5809009851851
 31
0.0
  0
ARC
  5
DB
330
1F
100
AcDbEntity
  8
0
  6
Continuous
 62
     7
370
    25
100
AcDbCircle
 10
108.862688524536
 20
98.93359494462005
 30
0.0
 40
0.7684080295626803
100
AcDbArc
 50
2.605632542450646
 51
57.3943059840978
  0
LINE
  5
DC
330
1F
100
AcDbEntity
  8
0
  6
Continuous
 62
     7
370
    25
100
AcDbLine
 10
109.6303021012563
 20
98.96852769044798
 30
0.0
 11
109.6303021012563
 21
97.03015797131968
 31
0.0
  0
ARC
  5
DD
330
1F
100
AcDbEntity
  8
0
  6
Continuous
 62
     7
370
    25
100
AcDbCircle
 10
109.4019509833456
 20
97.01697889825277
 30
0.0
 40
0.2287311107347643
100
AcDbArc
 50
320.778372414239
 51
3.303108590744344
  0
LINE
  5
DE
330
1F
100
AcDbEntity
  8
0
  6
Continuous
 62
     7
370
    25
100
AcDbLine
 10
107.3673146568834
 20
94.50151412040549
 30
0.0
 11
109.5791503151432
 21
96.87234723564586
 31
0.0
  0
ARC
  5
DF
330
1F
100
AcDbEntity
  8
0
  6
Continuous
 62
     7
370
    25
100
AcDbCircle
 10
107.8337966284131
 20
94.30308583009332
 30
0.0
 40
0.5069311749719565
100
AcDbArc
 50
156.9564654382326
 51
242.4087151449918
  0
LINE
  5
E0
330
1F
100
AcDbEntity
  8
0
  6
Continuous
 62
     7
370
    25
100
AcDbLine
 10
108.2867988650757
 20
93.45675138239069
 30
0.0
 11
107.5990057613154
 21
93.85380588964865
 31
0.0
  0
LINE
  5
E1
330
1F
100
AcDbEntity
  8
0
  6
Continuous
 62
     7
370
    25
100
AcDbLine
 10
110.6909650810699
 20
100.3973107515062
 30
0.0
 11
109.2767486527111
 21
99.5809009851851
 31
0.0
  0
ARC
  5
E2
330
1F
100
AcDbEntity
  8
0
  6
Continuous
 62
     7
370
    25
100
AcDbCircle
 10
110.2769049528948
 20
99.75000471094107
 30
0.0
 40
0.7684080295626964
100
AcDbArc
 50
2.605632542453773
 51
57.39430598410041
  0
LINE
  5
E3
330
1F
100
AcDbEntity
  8
0
  6
Continuous
 62
     7
370
    25
100
AcDbLine
 10
109.6303021012563
 20
98.96852769044798
 30
0.0
 11
111.0445185296151
 21
99.78493745676904
 31
0.0
  0
LINE
  5
E4
330
1F
100
AcDbEntity
  8
0
  6
Continuous
 62
     7
370
    25
100
AcDbLine
 10
111.0445185296151
 20
97.84656773764074
 30
0.0
 11
109.6303021012563
 21
97.03015797131968
 31
0.0
  0
LINE
  5
E5
330
1F
100
AcDbEntity
  8
0
  6
Continuous
 62
     7
370
    25
100
AcDbLine
 10
111.0445185296151
 20
99.78493745676904
 30
0.0
 11
111.0445185296151
 21
97.84656773764074
 31
0.0
  0
LINE
  5
E6
330
1F
100
AcDbEntity
  8
0
  6
Continuous
 62
     7
370
    25
100
AcDbLine
 10
108.5575093901502
 20
99.99610897351101
 30
0.0
 11
109.9717258185089
 21
100.8125187398321
 31
0.0
  0
LINE
  5
E7
330
1F
100
AcDbEntity
  8
0
  6
Continuous
 62
     7
370
    25
100
AcDbLine
 10
109.9717258185089
 20
100.8125187398321
 30
0.0
 11
110.6909650810699
 21
100.3973107515062
 31
0.0
  0
LINE
  5
E8
330
1F
100
AcDbEntity
  8
0
  6
Continuous
 62
     7
370
    25
100
AcDbLine
 10
109.8717258349718
 20
100.8224143856801
 30
0.0
 11
108.457509406613
 21
100.006004619359
 31
0.0
  0
ARC
  5
E9
330
1F
100
AcDbEntity
  8
0
  6
Continuous
 62
     7
370
    25
100
AcDbCircle
 10
109.913143858014
 20
100.7307418815644
 30
0.0
 40
0.1005947346712344
100
AcDbArc
 50
54.38356844320594
 51
114.3136527039638
  0
LINE
  5
EA
330
1F
100
AcDbEntity
  8
0
  6
Continuous
 62
     7
370
    25
100
AcDbLine
 10
109.5791503151432
 20
96.87234723564586
 30
0.0
 11
110.993366743502
 21
97.68875700196692
 31
0.0
  0
ARC
  5
EB
330
1F
100
AcDbEntity
  8
0
  6
Continuous
 62
     7
370
    25
100
AcDbCircle
 10
110.8161674117044
 20
97.83338866457383
 30
0.0
 40
0.2287311107347353
100
AcDbArc
 50
320.7783724142373
 51
3.30310859074455
  0
LINE
  5
EC
330
1F
100
AcDbEntity
  8
0
  6
Continuous
 62
     7
370
    25
100
AcDbLine
 10
108.7815310852422
 20
95.31792388672653
 30
0.0
 11
107.3673146568834
 21
94.50151412040549
 31
0.0
  0
LINE
  5
ED
330
1F
100
AcDbEntity
  8
0
  6
Continuous
 62
     7
370
    25
100
AcDbLine
 10
108.7815310852422
 20
95.31792388672653
 30
0.0
 11
110.993366743502
 21
97.68875700196692
 31
0.0
  0
LINE
  5
EE
330
1F
100
AcDbEntity
  8
0
  6
Continuous
 62
     7
370
    25
100
AcDbLine
 10
93.22542432781081
 20
107.6223226225219
 30
0.0
 11
94.6396407561696
 21
108.438732388843
 31
0.0
  0
LINE
  5
EF
330
1F
100
AcDbEntity
  8
0
  6
Continuous
 62
     7
370
    25
100
AcDbLine
 10
94.6396407561696
 20
108.438732388843
 30
0.0
 11
108.8523213271278
 21
100.2339265394318
 31
0.0
  0
LINE
  5
F0
330
1F
100
AcDbEntity
  8
0
  6
Continuous
 62
     7
370
    25
100
AcDbLine
 10
108.5696417556207
 20
92.9668538873077
 30
0.0
 11
109.9838581839795
 21
93.78326365362875
 31
0.0
  0
LINE
  5
F1
330
1F
100
AcDbEntity
  8
0
  6
Continuous
 62
     7
370
    25
100
AcDbLine
 10
109.7010152934345
 20
94.27316114871175
 30
0.0
 11
108.2867988650757
 21
93.45675138239069
 31
0.0
  0
ARC
  5
F2
330
1F
100
AcDbEntity
  8
0
  6
Continuous
 62
     7
370
    25
100
AcDbCircle
 10
109.3697752442362
 20
93.75532073569474
 30
0.0
 40
0.6147183611594157
100
AcDbArc
 50
2.605360825627033
 51
57.39471634397578
  0
LINE
  5
F3
330
1F
100
AcDbEntity
  8
0
  6
Continuous
 62
     7
370
    25
100
AcDbLine
 10
109.9838581839795
 20
91.17033293148681
 30
0.0
 11
108.5696417556207
 21
90.35392316516575
 31
0.0
  0
LINE
  5
F4
330
1F
100
AcDbEntity
  8
0
  6
Continuous
 62
     7
370
    25
100
AcDbLine
 10
109.9838581839795
 20
91.17033293148681
 30
0.0
 11
109.9838581839795
 21
93.78326365362875
 31
0.0
  0
LINE
  5
F5
330
1F
100
AcDbEntity
  8
0
  6
Continuous
 62
     7
370
    25
100
AcDbLine
 10
107.5990057613154
 20
93.85380588964865
 30
0.0
 11
109.0132221896742
 21
94.67021565596971
 31
0.0
  0
LINE
  5
F6
330
1F
100
AcDbEntity
  8
0
  6
Continuous
 62
     7
370
    25
100
AcDbLine
 10
109.7010152934345
 20
94.27316114871175
 30
0.0
 11
109.0132221896742
 21
94.67021565596971
 31
0.0
  0
ARC
  5
F7
330
1F
100
AcDbEntity
  8
0
  6
Continuous
 62
     7
370
    25
100
AcDbCircle
 10
109.2480130567718
 20
95.11949559641434
 30
0.0
 40
0.5069311749719013
100
AcDbArc
 50
156.9564654382271
 51
242.4087151449939
  0
LINE
  5
F8
330
1F
100
AcDbEntity
  8
0
  6
Continuous
 62
     7
370
    25
100
AcDbLine
 10
110.6909650810699
 20
90.5988209237053
 30
0.0
 11
109.2767486527111
 21
89.78241115738425
 31
0.0
  0
LINE
  5
F9
330
1F
100
AcDbEntity
  8
0
  6
Continuous
 62
     7
370
    25
100
AcDbLine
 10
109.6303021012563
 20
89.17003786264713
 30
0.0
 11
111.0445185296151
 21
89.9864476289682
 31
0.0
  0
ARC
  5
FA
330
1F
100
AcDbEntity
  8
0
  6
Continuous
 62
     7
370
    25
100
AcDbCircle
 10
110.2769069817432
 20
89.95151605449497
 30
0.0
 40
0.7684059495614267
100
AcDbArc
 50
2.605552168682985
 51
57.39438635787091
  0
LINE
  5
FB
330
1F
100
AcDbEntity
  8
0
  6
Continuous
 62
     7
370
    25
100
AcDbLine
 10
111.0445185296151
 20
73.08405335092256
 30
0.0
 11
109.6303021012563
 21
72.26764358460152
 31
0.0
  0
LINE
  5
FC
330
1F
100
AcDbEntity
  8
0
  6
Continuous
 62
     7
370
    25
100
AcDbLine
 10
111.0445185296151
 20
89.9864476289682
 30
0.0
 11
111.0445185296151
 21
73.08405335092256
 31
0.0
  0
LINE
  5
FD
330
1F
100
AcDbEntity
  8
0
  6
Continuous
 62
     7
370
    25
100
AcDbLine
 10
108.711062871621
 20
90.10897460770909
 30
0.0
 11
110.1252792999798
 21
90.92538437403014
 31
0.0
  0
LINE
  5
FE
330
1F
100
AcDbEntity
  8
0
  6
Continuous
 62
     7
370
    25
100
AcDbLine
 10
110.6909650810699
 20
90.5988209237053
 30
0.0
 11
110.1252792999798
 21
90.92538437403014
 31
0.0
  0
ARC
  5
FF
330
1F
100
AcDbEntity
  8
0
  6
Continuous
 62
     7
370
    25
100
AcDbCircle
 10
110.2909003068126
 20
91.18430474573324
 30
0.0
 40
0.3073598490160693
100
AcDbArc
 50
182.6054214527927
 51
237.3945786928349
  0
LWPOLYLINE
  5
100
330
1F
100
AcDbEntity
  8
0
  6
Continuous
 62
     7
370
    25
100
AcDbPolyline
 90
        3
 70
   128
 43
0.0
 10
105.5997864658138
 20
89.86367570755797
 10
105.693602716421
 20
90.42391904350477
 10
105.9545690876832
 20
90.80082684839992
  0
LWPOLYLINE
  5
101
330
1F
100
AcDbEntity
  8
0
  6
Continuous
 62
     7
370
    25
100
AcDbPolyline
 90
        8
 70
   128
 43
0.0
 10
108.1441416610339
 20
87.00796564589773
 10
107.9332388310854
 20
86.9608838497433
 10
107.4255543575358
 20
87.04058405437134
 10
106.8852877359094
 20
87.35247333628627
 10
106.3776039209043
 20
87.85893276788211
 10
105.963735697962
 20
88.49887630845691
 10
105.693602716421
 20
89.195115955198
 10
105.5997864658138
 20
89.86367570755797
  0
LINE
  5
102
330
1F
100
AcDbEntity
  8
0
  6
Continuous
 62
     7
370
    25
100
AcDbLine
 10
92.41831810572776
 20
109.2652326691494
 30
0.0
 11
93.83253453408655
 21
110.0816424354705
 31
0.0
  0
LINE
  5
103
330
1F
100
AcDbEntity
  8
0
  6
Continuous
 62
     7
370
    25
100
AcDbLine
 10
94.45679850770622
 20
109.0003862794626
 30
0.0
 11
93.04258207934743
 21
108.1839765131416
 31
0.0
  0
LINE
  5
104
330
1F
100
AcDbEntity
  8
0
  6
Continuous
 62
     7
370
    25
100
AcDbLine
 10
93.83253453408655
 20
110.0816424354705
 30
0.0
 11
94.45679850770622
 21
109.0003862794626
 31
0.0
  0
LINE
  5
105
330
1F
100
AcDbEntity
  8
0
  6
Continuous
 62
     7
370
    25
100
AcDbLine
 10
93.08400321181054
 20
108.0445867913948
 30
0.0
 11
94.49821964016932
 21
108.8609965577159
 31
0.0
  0
ARC
  5
106
330
1F
100
AcDbEntity
  8
0
  6
Continuous
 62
     7
370
    25
100
AcDbCircle
 10
94.2098175339848
 20
108.8511440416615
 30
0.0
 40
0.2885703500435862
100
AcDbArc
 50
1.956601987831264
 51
31.14314727306926
  0
LINE
  5
107
330
1F
100
AcDbEntity
  8
0
  6
Continuous
 62
     7
370
    25
100
AcDbLine
 10
93.73253455054936
 20
110.187204313032
 30
0.0
 11
92.31831812219058
 21
109.3707945467109
 31
0.0
  0
ARC
  5
108
330
1F
100
AcDbEntity
  8
0
  6
Continuous
 62
     7
370
    25
100
AcDbCircle
 10
93.5798206041843
 20
109.9423901237597
 30
0.0
 40
0.2885403553810574
100
AcDbArc
 50
28.85597060050657
 51
58.04427810238342
  0
LINE
  5
109
330
1F
100
AcDbEntity
  8
0
  6
Continuous
 62
     7
370
    25
100
AcDbLine
 10
94.49821964016932
 20
108.6836809462996
 30
0.0
 11
93.08400321181054
 21
107.8672711799786
 31
0.0
  0
LINE
  5
10A
330
1F
100
AcDbEntity
  8
0
  6
Continuous
 62
     7
370
    25
100
AcDbLine
 10
94.49821964016932
 20
108.8609965577159
 30
0.0
 11
94.49821964016932
 21
108.6836809462996
 31
0.0
  0
LINE
  5
10B
330
1F
100
AcDbEntity
  8
0
  6
Continuous
 62
     7
370
    25
100
AcDbLine
 10
91.59907885962964
 20
109.7860025350368
 30
0.0
 11
93.01329528798844
 21
110.6024123013579
 31
0.0
  0
LINE
  5
10C
330
1F
100
AcDbEntity
  8
0
  6
Continuous
 62
     7
370
    25
100
AcDbLine
 10
93.01329528798844
 20
110.6024123013579
 30
0.0
 11
93.73253455054936
 21
110.187204313032
 31
0.0
  0
ARC
  5
10D
330
1F
100
AcDbEntity
  8
0
  6
Continuous
 62
     7
370
    25
100
AcDbCircle
 10
94.80525598475305
 20
108.6976494244722
 30
0.0
 40
0.307353925105561
100
AcDbArc
 50
182.6048491621539
 51
237.3951509834777
  0
ARC
  5
10E
330
1F
100
AcDbEntity
  8
0
  6
Continuous
 62
     7
370
    25
100
AcDbCircle
 10
92.86683585549423
 20
110.3979692837245
 30
0.0
 40
0.2514901843523073
100
AcDbArc
 50
54.38284491210313
 51
114.3070717890797
  0
ARC
  5
10F
330
1F
100
AcDbEntity
  8
0
  6
Continuous
 62
     7
370
    25
100
AcDbCircle
 10
110.7999978879385
 20
73.05679287486818
 30
0.0
 40
0.2460355213392343
100
AcDbArc
 50
304.9507076006718
 51
6.361373250995624
  0
LINE
  5
110
330
1F
100
AcDbEntity
  8
0
  6
Continuous
 62
     7
370
    25
100
AcDbLine
 10
95.62958758035475
 20
81.6565492564198
 30
0.0
 11
97.04380400871354
 21
82.47295902274085
 31
0.0
  0
LINE
  5
111
330
1F
100
AcDbEntity
  8
0
  6
Continuous
 62
     7
370
    25
100
AcDbLine
 10
108.0039592672532
 20
76.14579606943619
 30
0.0
 11
97.04380400871354
 21
82.47295902274085
 31
0.0
  0
LINE
  5
112
330
1F
100
AcDbEntity
  8
0
  6
Continuous
 62
     7
370
    25
100
AcDbLine
 10
94.28608730762441
 20
87.4082325595055
 30
0.0
 11
92.8718708792656
 21
86.59182279318445
 31
0.0
  0
LINE
  5
113
330
1F
100
AcDbEntity
  8
0
  6
Continuous
 62
     7
370
    25
100
AcDbLine
 10
94.28608730762441
 20
87.4082325595055
 30
0.0
 11
94.28608730762441
 21
93.65189031297942
 31
0.0
  0
LINE
  5
114
330
1F
100
AcDbEntity
  8
0
  6
Continuous
 62
     7
370
    25
100
AcDbLine
 10
93.20578257931572
 20
85.99141962269712
 30
0.0
 11
94.61999900767451
 21
86.80782938901818
 31
0.0
  0
LINE
  5
115
330
1F
100
AcDbEntity
  8
0
  6
Continuous
 62
     7
370
    25
100
AcDbLine
 10
95.27603413180954
 20
82.26892179069402
 30
0.0
 11
96.69025056016834
 21
83.08533155701507
 31
0.0
  0
ARC
  5
116
330
1F
100
AcDbEntity
  8
0
  6
Continuous
 62
     7
370
    25
100
AcDbCircle
 10
91.89568743814641
 20
82.8557851649087
 30
0.0
 40
4.800054903559103
100
AcDbArc
 50
2.741022304094707
 51
55.41985826048718
  0
LWPOLYLINE
  5
117
330
1F
100
AcDbEntity
  8
0
  6
Continuous
 62
     7
370
    25
100
AcDbPolyline
 90
        3
 70
   128
 43
0.0
 10
91.74049339018481
 20
84.5548604305079
 10
91.83430964079203
 20
85.1151030059918
 10
92.09527634132638
 20
85.49201157138074
  0
LWPOLYLINE
  5
118
330
1F
100
AcDbEntity
  8
0
  6
Continuous
 62
     7
370
    25
100
AcDbPolyline
 90
        8
 70
   128
 43
0.0
 10
94.28484858540487
 20
81.69914994108727
 10
94.07394575545635
 20
81.65206785975926
 10
93.56626128190682
 20
81.73176846838321
 10
93.02599531882485
 20
82.04365737012849
 10
92.51831084527531
 20
82.55011677789807
 10
92.104442622333
 20
83.19005989071252
 10
91.83430964079203
 20
83.88629991768504
 10
91.74049339018481
 20
84.5548604305079
  0
ARC
  5
119
330
1F
100
AcDbEntity
  8
0
  6
Continuous
 62
     7
370
    25
100
AcDbCircle
 10
95.0594068780174
 20
87.44525760907861
 30
0.0
 40
0.7742054070133337
100
AcDbArc
 50
182.7411182014863
 51
235.4197617245372
  0
ARC
  5
11A
330
1F
100
AcDbEntity
  8
0
  6
Continuous
 62
     7
370
    25
100
AcDbCircle
 10
97.4578596667131
 20
83.1202625258299
 30
0.0
 40
0.7684034832253235
100
AcDbArc
 50
182.6055153299898
 51
237.3944848156419
  0
LINE
  5
11B
330
1F
100
AcDbEntity
  8
0
  6
Continuous
 62
     7
370
    25
100
AcDbLine
 10
330.3888439603335
 20
228.1242389056499
 30
0.0
 11
315.9518927644592
 21
236.4585134310068
 31
0.0
  0
ARC
  5
11C
330
1F
100
AcDbEntity
  8
0
  6
Continuous
 62
     7
370
    25
100
AcDbCircle
 10
331.9688671050765
 20
219.1562710184775
 30
0.0
 40
0.3073598490162723
100
AcDbArc
 50
182.6054214528096
 51
237.3945786928151
  0
LINE
  5
11D
330
1F
100
AcDbEntity
  8
0
  6
Continuous
 62
     7
370
    25
100
AcDbLine
 10
332.3689318793336
 20
218.5707871964494
 30
0.0
 11
331.8032460982435
 21
218.8973506467743
 31
0.0
  0
LINE
  5
11E
330
1F
100
AcDbEntity
  8
0
  6
Continuous
 62
     7
370
    25
100
AcDbLine
 10
332.7224853278789
 20
217.9584139017123
 30
0.0
 11
332.7205083772658
 21
218.002665812311
 31
0.0
  0
LINE
  5
11F
330
1F
100
AcDbEntity
  8
0
  6
Continuous
 62
     7
370
    25
100
AcDbLine
 10
332.7224853278789
 20
217.9584139017123
 30
0.0
 11
332.7224853278789
 21
201.0560196236667
 31
0.0
  0
LINE
  5
120
330
1F
100
AcDbEntity
  8
0
  6
Continuous
 62
     7
370
    25
100
AcDbLine
 10
332.7205083772658
 20
201.0140514874128
 30
0.0
 11
332.7224853278789
 21
201.0560196236667
 31
0.0
  0
LINE
  5
121
330
1F
100
AcDbEntity
  8
0
  6
Continuous
 62
     7
370
    25
100
AcDbLine
 10
314.6912620862522
 20
238.574378574102
 30
0.0
 11
315.4105013488132
 21
238.1591705857761
 31
0.0
  0
ARC
  5
122
330
1F
100
AcDbEntity
  8
0
  6
Continuous
 62
     7
370
    25
100
AcDbCircle
 10
315.2577874024473
 20
237.9143563965032
 30
0.0
 40
0.2885403553821297
100
AcDbArc
 50
28.85597060055005
 51
58.04427810231743
  0
LINE
  5
123
330
1F
100
AcDbEntity
  8
0
  6
Continuous
 62
     7
370
    25
100
AcDbLine
 10
315.5105013323503
 20
238.0536087082146
 30
0.0
 11
316.13476530597
 21
236.9723525522068
 31
0.0
  0
ARC
  5
124
330
1F
100
AcDbEntity
  8
0
  6
Continuous
 62
     7
370
    25
100
AcDbCircle
 10
315.8877843322487
 20
236.8231103144057
 30
0.0
 40
0.2885703500434267
100
AcDbArc
 50
1.956601987812488
 51
31.14314727306936
  0
LINE
  5
125
330
1F
100
AcDbEntity
  8
0
  6
Continuous
 62
     7
370
    25
100
AcDbLine
 10
316.1761864384331
 20
236.83296283046
 30
0.0
 11
316.1761864384331
 21
236.6556472190437
 31
0.0
  0
ARC
  5
126
330
1F
100
AcDbEntity
  8
0
  6
Continuous
 62
     7
370
    25
100
AcDbCircle
 10
316.4832227830166
 20
236.6696156972163
 30
0.0
 40
0.3073539251053691
100
AcDbArc
 50
182.6048491621423
 51
237.3951509834961
  0
LINE
  5
127
330
1F
100
AcDbEntity
  8
0
  6
Continuous
 62
     7
370
    25
100
AcDbLine
 10
316.3176075544334
 20
236.4106986615871
 30
0.0
 11
330.5302881253915
 21
228.205892812176
 31
0.0
  0
ARC
  5
128
330
1F
100
AcDbEntity
  8
0
  6
Continuous
 62
     7
370
    25
100
AcDbCircle
 10
331.5911106562777
 20
228.7027081543083
 30
0.0
 40
0.1005947346713685
100
AcDbArc
 50
54.38356844324463
 51
114.3136527039559
  0
LINE
  5
129
330
1F
100
AcDbEntity
  8
0
  6
Continuous
 62
     7
370
    25
100
AcDbLine
 10
331.6496926167727
 20
228.7844850125762
 30
0.0
 11
332.3689318793336
 21
228.3692770242503
 31
0.0
  0
LINE
  5
12A
330
1F
100
AcDbEntity
  8
0
  6
Continuous
 62
     7
370
    25
100
AcDbLine
 10
332.7224853278789
 20
227.7569037295132
 30
0.0
 11
332.7224853278789
 21
225.8185340103849
 31
0.0
  0
ARC
  5
12B
330
1F
100
AcDbEntity
  8
0
  6
Continuous
 62
     7
370
    25
100
AcDbCircle
 10
332.4941342099676
 20
225.8053549373181
 30
0.0
 40
0.228731110735378
100
AcDbArc
 50
320.7783724142982
 51
3.303108590692469
  0
LINE
  5
12C
330
1F
100
AcDbEntity
  8
0
  6
Continuous
 62
     7
370
    25
100
AcDbLine
 10
330.4594978835059
 20
223.2898901594706
 30
0.0
 11
332.6713335417658
 21
225.660723274711
 31
0.0
  0
ARC
  5
12D
330
1F
100
AcDbEntity
  8
0
  6
Continuous
 62
     7
370
    25
100
AcDbCircle
 10
330.9259798550355
 20
223.0914618691585
 30
0.0
 40
0.5069311749718247
100
AcDbArc
 50
156.956465438227
 51
242.4087151450138
  0
LINE
  5
12E
330
1F
100
AcDbEntity
  8
0
  6
Continuous
 62
     7
370
    25
100
AcDbLine
 10
331.3789820916983
 20
222.2451274214559
 30
0.0
 11
330.691188987938
 21
222.6421819287139
 31
0.0
  0
ARC
  5
12F
330
1F
100
AcDbEntity
  8
0
  6
Continuous
 62
     7
370
    25
100
AcDbCircle
 10
331.0477420424997
 20
221.7272870084388
 30
0.0
 40
0.6147183611595792
100
AcDbArc
 50
2.605360825628957
 51
57.39471634395642
  0
LINE
  5
130
330
1F
100
AcDbEntity
  8
0
  6
Continuous
 62
     7
370
    25
100
AcDbLine
 10
331.6618249822433
 20
219.1422992042309
 30
0.0
 11
331.6618249822433
 21
221.7552299263729
 31
0.0
  0
LINE
  5
131
330
1F
100
AcDbEntity
  8
0
  6
Continuous
 62
     7
370
    25
100
AcDbLine
 10
334.1366989574235
 20
228.5733118801132
 30
0.0
 11
332.7224853278789
 21
227.7569037295132
 31
0.0
  0
LINE
  5
132
330
1F
100
AcDbEntity
  8
0
  6
Continuous
 62
     7
370
    25
100
AcDbLine
 10
332.3689318793336
 20
228.3692770242503
 30
0.0
 11
333.7831455088782
 21
229.1856851748503
 31
0.0
  0
ARC
  5
133
330
1F
100
AcDbEntity
  8
0
  6
Continuous
 62
     7
370
    25
100
AcDbCircle
 10
333.3690853807032
 20
228.5383791342852
 30
0.0
 40
0.7684080295627415
100
AcDbArc
 50
2.605632542457863
 51
57.39430598410569
  0
LINE
  5
134
330
1F
100
AcDbEntity
  8
0
  6
Continuous
 62
     7
370
    25
100
AcDbLine
 10
334.1366989574235
 20
228.5733118801132
 30
0.0
 11
334.1366989574235
 21
226.6349421609849
 31
0.0
  0
LINE
  5
135
330
1F
100
AcDbEntity
  8
0
  6
Continuous
 62
     7
370
    25
100
AcDbLine
 10
332.7224853278789
 20
225.8185340103849
 30
0.0
 11
334.1366989574235
 21
226.6349421609849
 31
0.0
  0
LINE
  5
136
330
1F
100
AcDbEntity
  8
0
  6
Continuous
 62
     7
370
    25
100
AcDbLine
 10
333.0639062463173
 20
229.6008931631762
 30
0.0
 11
331.6496926167727
 21
228.7844850125762
 31
0.0
  0
LINE
  5
137
330
1F
100
AcDbEntity
  8
0
  6
Continuous
 62
     7
370
    25
100
AcDbLine
 10
333.0639062463173
 20
229.6008931631762
 30
0.0
 11
333.7831455088782
 21
229.1856851748503
 31
0.0
  0
LINE
  5
138
330
1F
100
AcDbEntity
  8
0
  6
Continuous
 62
     7
370
    25
100
AcDbLine
 10
331.5496926332355
 20
228.7943806584242
 30
0.0
 11
332.9639062627801
 21
229.6107888090242
 31
0.0
  0
ARC
  5
139
330
1F
100
AcDbEntity
  8
0
  6
Continuous
 62
     7
370
    25
100
AcDbCircle
 10
333.0053242858224
 20
229.5191163049086
 30
0.0
 40
0.1005947346711588
100
AcDbArc
 50
54.38356844316725
 51
114.3136527040454
  0
LINE
  5
13A
330
1F
100
AcDbEntity
  8
0
  6
Continuous
 62
     7
370
    25
100
AcDbLine
 10
334.0855471713105
 20
226.4771314253111
 30
0.0
 11
332.6713335417658
 21
225.660723274711
 31
0.0
  0
ARC
  5
13B
330
1F
100
AcDbEntity
  8
0
  6
Continuous
 62
     7
370
    25
100
AcDbCircle
 10
333.9083478395123
 20
226.6217630879181
 30
0.0
 40
0.2287311107353229
100
AcDbArc
 50
320.7783724142948
 51
3.303108590700397
  0
LINE
  5
13C
330
1F
100
AcDbEntity
  8
0
  6
Continuous
 62
     7
370
    25
100
AcDbLine
 10
330.4594978835059
 20
223.2898901594706
 30
0.0
 11
331.8737115130506
 21
224.1062983100707
 31
0.0
  0
LINE
  5
13D
330
1F
100
AcDbEntity
  8
0
  6
Continuous
 62
     7
370
    25
100
AcDbLine
 10
331.8737115130506
 20
224.1062983100707
 30
0.0
 11
334.0855471713105
 21
226.4771314253111
 31
0.0
  0
LINE
  5
13E
330
1F
100
AcDbEntity
  8
0
  6
Continuous
 62
     7
370
    25
100
AcDbLine
 10
317.731821183978
 20
237.2271068121871
 30
0.0
 11
316.3176075544334
 21
236.4106986615871
 31
0.0
  0
LINE
  5
13F
330
1F
100
AcDbEntity
  8
0
  6
Continuous
 62
     7
370
    25
100
AcDbLine
 10
317.731821183978
 20
237.2271068121871
 30
0.0
 11
331.9445017549362
 21
229.0223009627759
 31
0.0
  0
LINE
  5
140
330
1F
100
AcDbEntity
  8
0
  6
Continuous
 62
     7
370
    25
100
AcDbLine
 10
331.3789820916983
 20
222.2451274214559
 30
0.0
 11
332.7931957212429
 21
223.0615355720559
 31
0.0
  0
LINE
  5
141
330
1F
100
AcDbEntity
  8
0
  6
Continuous
 62
     7
370
    25
100
AcDbLine
 10
333.0760386117879
 20
222.5716380769729
 30
0.0
 11
331.6618249822433
 21
221.7552299263729
 31
0.0
  0
ARC
  5
142
330
1F
100
AcDbEntity
  8
0
  6
Continuous
 62
     7
370
    25
100
AcDbCircle
 10
332.4619556720443
 20
222.5436951590388
 30
0.0
 40
0.6147183611597052
100
AcDbArc
 50
2.605360825633768
 51
57.39471634394588
  0
LINE
  5
143
330
1F
100
AcDbEntity
  8
0
  6
Continuous
 62
     7
370
    25
100
AcDbLine
 10
331.6618249822433
 20
219.1422992042309
 30
0.0
 11
333.0760386117879
 21
219.9587073548309
 31
0.0
  0
LINE
  5
144
330
1F
100
AcDbEntity
  8
0
  6
Continuous
 62
     7
370
    25
100
AcDbLine
 10
333.0760386117879
 20
219.9587073548309
 30
0.0
 11
333.0760386117879
 21
222.5716380769729
 31
0.0
  0
LINE
  5
145
330
1F
100
AcDbEntity
  8
0
  6
Continuous
 62
     7
370
    25
100
AcDbLine
 10
332.1054026174826
 20
223.4585900793138
 30
0.0
 11
330.691188987938
 21
222.6421819287139
 31
0.0
  0
LINE
  5
146
330
1F
100
AcDbEntity
  8
0
  6
Continuous
 62
     7
370
    25
100
AcDbLine
 10
332.7931957212429
 20
223.0615355720559
 30
0.0
 11
332.1054026174826
 21
223.4585900793138
 31
0.0
  0
ARC
  5
147
330
1F
100
AcDbEntity
  8
0
  6
Continuous
 62
     7
370
    25
100
AcDbCircle
 10
332.3401934845803
 20
223.9078700197585
 30
0.0
 40
0.5069311749719877
100
AcDbArc
 50
156.9564654382345
 51
242.4087151449955
  0
LINE
  5
148
330
1F
100
AcDbEntity
  8
0
  6
Continuous
 62
     7
370
    25
100
AcDbLine
 10
334.1366989574235
 20
218.7748220523123
 30
0.0
 11
332.7224853278789
 21
217.9584139017123
 31
0.0
  0
LINE
  5
149
330
1F
100
AcDbEntity
  8
0
  6
Continuous
 62
     7
370
    25
100
AcDbLine
 10
332.3689318793336
 20
218.5707871964494
 30
0.0
 11
333.7831455088782
 21
219.3871953470494
 31
0.0
  0
ARC
  5
14A
330
1F
100
AcDbEntity
  8
0
  6
Continuous
 62
     7
370
    25
100
AcDbCircle
 10
333.3690874095516
 20
218.7398904778391
 30
0.0
 40
0.7684059495614997
100
AcDbArc
 50
2.60555216868592
 51
57.39438635787499
  0
LINE
  5
14B
330
1F
100
AcDbEntity
  8
0
  6
Continuous
 62
     7
370
    25
100
AcDbLine
 10
332.7224853278789
 20
201.0560196236667
 30
0.0
 11
334.1366989574235
 21
201.8724277742667
 31
0.0
  0
LINE
  5
14C
330
1F
100
AcDbEntity
  8
0
  6
Continuous
 62
     7
370
    25
100
AcDbLine
 10
334.1366989574235
 20
218.7748220523123
 30
0.0
 11
334.1366989574235
 21
201.8724277742667
 31
0.0
  0
LINE
  5
14D
330
1F
100
AcDbEntity
  8
0
  6
Continuous
 62
     7
370
    25
100
AcDbLine
 10
333.2174597277881
 20
219.7137587973743
 30
0.0
 11
331.8032460982435
 21
218.8973506467743
 31
0.0
  0
LINE
  5
14E
330
1F
100
AcDbEntity
  8
0
  6
Continuous
 62
     7
370
    25
100
AcDbLine
 10
333.7831455088782
 20
219.3871953470494
 30
0.0
 11
333.2174597277881
 21
219.7137587973743
 31
0.0
  0
ARC
  5
14F
330
1F
100
AcDbEntity
  8
0
  6
Continuous
 62
     7
370
    25
100
AcDbCircle
 10
333.3830807346213
 20
219.9726791690775
 30
0.0
 40
0.3073598490163581
100
AcDbArc
 50
182.6054214528034
 51
237.3945786927973
  0
LINE
  5
150
330
1F
100
AcDbEntity
  8
0
  6
Continuous
 62
     7
370
    25
100
AcDbLine
 10
316.13476530597
 20
236.9723525522068
 30
0.0
 11
317.5489789355146
 21
237.7887607028067
 31
0.0
  0
LINE
  5
151
330
1F
100
AcDbEntity
  8
0
  6
Continuous
 62
     7
370
    25
100
AcDbLine
 10
316.9247149618949
 20
238.8700168588146
 30
0.0
 11
315.5105013323503
 21
238.0536087082146
 31
0.0
  0
LINE
  5
152
330
1F
100
AcDbEntity
  8
0
  6
Continuous
 62
     7
370
    25
100
AcDbLine
 10
316.9247149618949
 20
238.8700168588146
 30
0.0
 11
317.5489789355146
 21
237.7887607028067
 31
0.0
  0
LINE
  5
153
330
1F
100
AcDbEntity
  8
0
  6
Continuous
 62
     7
370
    25
100
AcDbLine
 10
317.5904000679777
 20
237.64937098106
 30
0.0
 11
316.1761864384331
 21
236.83296283046
 31
0.0
  0
ARC
  5
154
330
1F
100
AcDbEntity
  8
0
  6
Continuous
 62
     7
370
    25
100
AcDbCircle
 10
317.3019979617944
 20
237.6395184650059
 30
0.0
 40
0.2885703500423405
100
AcDbArc
 50
1.95660198778033
 51
31.14314727314746
  0
LINE
  5
155
330
1F
100
AcDbEntity
  8
0
  6
Continuous
 62
     7
370
    25
100
AcDbLine
 10
315.4105013488132
 20
238.1591705857761
 30
0.0
 11
316.8247149783578
 21
238.9755787363761
 31
0.0
  0
ARC
  5
156
330
1F
100
AcDbEntity
  8
0
  6
Continuous
 62
     7
370
    25
100
AcDbCircle
 10
316.6720010319925
 20
238.7307645471036
 30
0.0
 40
0.2885403553813947
100
AcDbArc
 50
28.8559706005205
 51
58.04427810235943
  0
LINE
  5
157
330
1F
100
AcDbEntity
  8
0
  6
Continuous
 62
     7
370
    25
100
AcDbLine
 10
316.1761864384331
 20
236.6556472190437
 30
0.0
 11
317.5904000679777
 21
237.4720553696438
 31
0.0
  0
LINE
  5
158
330
1F
100
AcDbEntity
  8
0
  6
Continuous
 62
     7
370
    25
100
AcDbLine
 10
317.5904000679777
 20
237.64937098106
 30
0.0
 11
317.5904000679777
 21
237.4720553696438
 31
0.0
  0
LINE
  5
159
330
1F
100
AcDbEntity
  8
0
  6
Continuous
 62
     7
370
    25
100
AcDbLine
 10
316.1054757157968
 20
239.390786724702
 30
0.0
 11
314.6912620862522
 21
238.574378574102
 31
0.0
  0
LINE
  5
15A
330
1F
100
AcDbEntity
  8
0
  6
Continuous
 62
     7
370
    25
100
AcDbLine
 10
316.1054757157968
 20
239.390786724702
 30
0.0
 11
316.8247149783578
 21
238.9755787363761
 31
0.0
  0
ARC
  5
15B
330
1F
100
AcDbEntity
  8
0
  6
Continuous
 62
     7
370
    25
100
AcDbCircle
 10
317.8974364125614
 20
237.4860238478163
 30
0.0
 40
0.3073539251054814
100
AcDbArc
 50
182.604849162136
 51
237.3951509834811
  0
ARC
  5
15C
330
1F
100
AcDbEntity
  8
0
  6
Continuous
 62
     7
370
    25
100
AcDbCircle
 10
315.9590162833026
 20
239.1863437070686
 30
0.0
 40
0.2514901843524195
100
AcDbArc
 50
54.38284491211747
 51
114.3070717890733
  0
ARC
  5
15D
330
1F
100
AcDbEntity
  8
0
  6
Continuous
 62
     7
370
    25
100
AcDbCircle
 10
333.899337028803
 20
201.841928400856
 30
0.0
 40
0.2393133864557324
100
AcDbArc
 50
303.9900883478345
 51
7.321992503834106
  0
LINE
  5
15E
330
1F
100
AcDbEntity
  8
0
  6
Continuous
 62
     7
370
    25
100
AcDbLine
 10
110.76167563907
 20
100.356490415258
 30
0.0
 11
109.9717258185089
 21
100.8125187398321
 31
0.0
  0
ARC
  5
15F
330
1F
100
AcDbEntity
  8
0
  6
Continuous
 62
     7
370
    25
100
AcDbCircle
 10
110.430425953751
 20
99.83864443881544
 30
0.0
 40
0.614728240234378
100
AcDbArc
 50
2.605838002964709
 51
57.39423916663534
  0
LINE
  5
160
330
1F
100
AcDbEntity
  8
0
  6
Continuous
 62
     7
370
    25
100
AcDbLine
 10
111.0445185296151
 20
97.84656773764074
 30
0.0
 11
111.0445185296151
 21
99.86659292017497
 31
0.0
  0
LINE
  5
161
330
1F
100
AcDbEntity
  8
0
  6
Continuous
 62
     7
370
    25
100
AcDbLine
 10
110.76167563907
 20
90.55800058745713
 30
0.0
 11
110.1252792999798
 21
90.92538437403014
 31
0.0
  0
ARC
  5
162
330
1F
100
AcDbEntity
  8
0
  6
Continuous
 62
     7
370
    25
100
AcDbCircle
 10
110.4304279661634
 20
90.04015585964522
 30
0.0
 40
0.614726103991595
100
AcDbArc
 50
2.605588660059403
 51
57.39433446178032
  0
LINE
  5
163
330
1F
100
AcDbEntity
  8
0
  6
Continuous
 62
     7
370
    25
100
AcDbLine
 10
111.042533676468
 20
90.03062349253618
 30
0.0
 11
111.0445185296151
 21
90.06810157144834
 31
0.0
  0
LWPOLYLINE
  5
164
330
1F
100
AcDbEntity
  8
0
  6
Continuous
 62
     7
370
    25
100
AcDbPolyline
 90
        8
 70
   128
 43
0.0
 10
92.94258472998828
 20
110.6432326376061
 10
92.88740462711992
 20
110.6688120931654
 10
92.83434569611174
 20
110.6808536071402
 10
92.78544547367149
 20
110.6789018534471
 10
92.74258476291395
 20
110.6630269711537
 10
92.70740992510906
 20
110.633839005982
 10
92.68127229358721
 20
110.5924590070333
 10
92.6746723605282
 20
110.5759920847578
  0
LINE
  5
165
330
1F
100
AcDbEntity
  8
0
  6
Continuous
 62
     7
370
    25
100
AcDbLine
 10
93.73253455054936
 20
110.187204313032
 30
0.0
 11
92.94258472998828
 21
110.6432326376061
 31
0.0
  0
ARC
  5
166
330
1F
100
AcDbEntity
  8
0
  6
Continuous
 62
     7
370
    25
100
AcDbCircle
 10
332.1083927520145
 20
227.8106107115594
 30
0.0
 40
0.6147282402347192
100
AcDbArc
 50
2.605838002977818
 51
57.39423916661904
  0
LINE
  5
167
330
1F
100
AcDbEntity
  8
0
  6
Continuous
 62
     7
370
    25
100
AcDbLine
 10
332.7224853278789
 20
227.8385591929191
 30
0.0
 11
111.0445185296151
 21
99.86659292017497
 31
0.0
  0
LINE
  5
168
330
1F
100
AcDbEntity
  8
0
  6
Continuous
 62
     7
370
    25
100
AcDbLine
 10
110.76167563907
 20
100.356490415258
 30
0.0
 11
332.4396424373338
 21
228.3284566880021
 31
0.0
  0
LINE
  5
169
330
1F
100
AcDbEntity
  8
0
  6
Continuous
 62
     7
370
    25
100
AcDbLine
 10
332.7224853278789
 20
225.8185340103849
 30
0.0
 11
332.7224853278789
 21
227.8385591929191
 31
0.0
  0
LINE
  5
16A
330
1F
100
AcDbEntity
  8
0
  6
Continuous
 62
     7
370
    25
100
AcDbLine
 10
111.0445185296151
 20
97.84656773764074
 30
0.0
 11
332.7224853278789
 21
225.8185340103849
 31
0.0
  0
LINE
  5
16B
330
1F
100
AcDbEntity
  8
0
  6
Continuous
 62
     7
370
    25
100
AcDbLine
 10
331.6496926167727
 20
228.7844850125762
 30
0.0
 11
109.9717258185089
 21
100.8125187398321
 31
0.0
  0
LINE
  5
16C
330
1F
100
AcDbEntity
  8
0
  6
Continuous
 62
     7
370
    25
100
AcDbLine
 10
332.4396424373338
 20
228.3284566880021
 30
0.0
 11
331.6496926167727
 21
228.7844850125762
 31
0.0
  0
LINE
  5
16D
330
1F
100
AcDbEntity
  8
0
  6
Continuous
 62
     7
370
    25
100
AcDbLine
 10
109.8717258349718
 20
100.8224143856801
 30
0.0
 11
331.5496926332355
 21
228.7943806584242
 31
0.0
  0
LINE
  5
16E
330
1F
100
AcDbEntity
  8
0
  6
Continuous
 62
     7
370
    25
100
AcDbLine
 10
332.6713335417658
 20
225.660723274711
 30
0.0
 11
110.993366743502
 21
97.68875700196692
 31
0.0
  0
LINE
  5
16F
330
1F
100
AcDbEntity
  8
0
  6
Continuous
 62
     7
370
    25
100
AcDbLine
 10
108.7815310852422
 20
95.31792388672653
 30
0.0
 11
330.4594978835059
 21
223.2898901594706
 31
0.0
  0
LINE
  5
170
330
1F
100
AcDbEntity
  8
0
  6
Continuous
 62
     7
370
    25
100
AcDbLine
 10
331.6618249822433
 20
221.7552299263729
 30
0.0
 11
109.9838581839795
 21
93.78326365362875
 31
0.0
  0
LINE
  5
171
330
1F
100
AcDbEntity
  8
0
  6
Continuous
 62
     7
370
    25
100
AcDbLine
 10
109.7010152934345
 20
94.27316114871175
 30
0.0
 11
331.3789820916983
 21
222.2451274214559
 31
0.0
  0
LINE
  5
172
330
1F
100
AcDbEntity
  8
0
  6
Continuous
 62
     7
370
    25
100
AcDbLine
 10
109.9838581839795
 20
91.17033293148681
 30
0.0
 11
331.6618249822433
 21
219.1422992042309
 31
0.0
  0
LINE
  5
173
330
1F
100
AcDbEntity
  8
0
  6
Continuous
 62
     7
370
    25
100
AcDbLine
 10
330.6911889879379
 20
222.6421819287139
 30
0.0
 11
109.0132221896742
 21
94.67021565596971
 31
0.0
  0
ARC
  5
174
330
1F
100
AcDbEntity
  8
0
  6
Continuous
 62
     7
370
    25
100
AcDbCircle
 10
332.1083947644271
 20
218.0121221323893
 30
0.0
 40
0.6147261039916163
100
AcDbArc
 50
2.605588660061868
 51
57.39433446177961
  0
LINE
  5
175
330
1F
100
AcDbEntity
  8
0
  6
Continuous
 62
     7
370
    25
100
AcDbLine
 10
332.7224853278789
 20
218.0400678441925
 30
0.0
 11
111.0445185296151
 21
90.06810157144834
 31
0.0
  0
LINE
  5
176
330
1F
100
AcDbEntity
  8
0
  6
Continuous
 62
     7
370
    25
100
AcDbLine
 10
110.76167563907
 20
90.55800058745713
 30
0.0
 11
332.4396424373338
 21
218.5299668602012
 31
0.0
  0
ARC
  5
177
330
1F
100
AcDbEntity
  8
0
  6
Continuous
 62
     7
370
    25
100
AcDbCircle
 10
332.5305879410446
 20
218.01657756355
 30
0.0
 40
0.1933297710092509
100
AcDbArc
 50
304.3328815012964
 51
6.978892769476875
  0
LINE
  5
178
330
1F
100
AcDbEntity
  8
0
  6
Continuous
 62
     7
370
    25
100
AcDbLine
 10
331.8032460982435
 20
218.8973506467743
 30
0.0
 11
110.1252792999798
 21
90.92538437403014
 31
0.0
  0
LINE
  5
179
330
1F
100
AcDbEntity
  8
0
  6
Continuous
 62
     7
370
    25
100
AcDbLine
 10
331.8032460982435
 20
218.8973506467743
 30
0.0
 11
332.4396424373338
 21
218.5299668602012
 31
0.0
  0
ARC
  5
17A
330
1F
100
AcDbEntity
  8
0
  6
Continuous
 62
     7
370
    25
100
AcDbCircle
 10
332.7751271644542
 20
217.729288169044
 30
0.0
 40
0.2405591163298476
100
AcDbArc
 50
162.1683045917892
 51
221.8690440820156
  0
ARC
  5
17B
330
1F
100
AcDbEntity
  8
0
  6
Continuous
 62
     7
370
    25
100
AcDbCircle
 10
332.1158067529352
 20
217.1969960295963
 30
0.0
 40
0.6072584795652943
100
AcDbArc
 50
2.504169307489475
 51
37.74541280523975
  0
LINE
  5
17C
330
1F
100
AcDbEntity
  8
0
  6
Continuous
 62
     7
370
    25
100
AcDbLine
 10
111.0445185296151
 20
89.2515621466469
 30
0.0
 11
332.7224853278789
 21
217.223528419391
 31
0.0
  0
ARC
  5
17D
330
1F
100
AcDbEntity
  8
0
  6
Continuous
 62
     7
370
    25
100
AcDbCircle
 10
332.5352287563628
 20
217.19793711893
 30
0.0
 40
0.1889971910776903
100
AcDbArc
 50
303.5300504068206
 51
7.782081272987599
  0
LINE
  5
17E
330
1F
100
AcDbEntity
  8
0
  6
Continuous
 62
     7
370
    25
100
AcDbLine
 10
315.5105013323503
 20
238.0536087082146
 30
0.0
 11
93.83253453408655
 21
110.0816424354705
 31
0.0
  0
LINE
  5
17F
330
1F
100
AcDbEntity
  8
0
  6
Continuous
 62
     7
370
    25
100
AcDbLine
 10
94.45679850770622
 20
109.0003862794626
 30
0.0
 11
316.1347653059699
 21
236.9723525522068
 31
0.0
  0
LINE
  5
180
330
1F
100
AcDbEntity
  8
0
  6
Continuous
 62
     7
370
    25
100
AcDbLine
 10
316.1761864384331
 20
236.83296283046
 30
0.0
 11
94.49821964016932
 21
108.8609965577159
 31
0.0
  0
LINE
  5
181
330
1F
100
AcDbEntity
  8
0
  6
Continuous
 62
     7
370
    25
100
AcDbLine
 10
93.73253455054936
 20
110.187204313032
 30
0.0
 11
315.4105013488131
 21
238.1591705857761
 31
0.0
  0
LINE
  5
182
330
1F
100
AcDbEntity
  8
0
  6
Continuous
 62
     7
370
    25
100
AcDbLine
 10
94.49821964016932
 20
108.6836809462996
 30
0.0
 11
316.1761864384331
 21
236.6556472190437
 31
0.0
  0
LINE
  5
183
330
1F
100
AcDbEntity
  8
0
  6
Continuous
 62
     7
370
    25
100
AcDbLine
 10
314.6205515282521
 20
238.6151989103502
 30
0.0
 11
92.94258472998828
 21
110.6432326376061
 31
0.0
  0
LINE
  5
184
330
1F
100
AcDbEntity
  8
0
  6
Continuous
 62
     7
370
    25
100
AcDbLine
 10
315.4105013488131
 20
238.1591705857761
 30
0.0
 11
314.6205515282521
 21
238.6151989103502
 31
0.0
  0
ARC
  5
185
330
1F
100
AcDbEntity
  8
0
  6
Continuous
 62
     7
370
    25
100
AcDbCircle
 10
316.0838820127961
 20
236.6422519513209
 30
0.0
 40
0.0932713256555499
100
AcDbArc
 50
303.0553379800904
 51
8.257151103805077
  0
ARC
  5
186
330
1F
100
AcDbEntity
  8
0
  6
Continuous
 62
     7
370
    25
100
AcDbCircle
 10
314.5033834415672
 20
238.4516434141451
 30
0.0
 40
0.2011933420278624
100
AcDbArc
 50
54.38289920164635
 51
114.3067080295284
  0
LWPOLYLINE
  5
187
330
1F
100
AcDbEntity
  8
0
  6
Continuous
 62
     7
370
    25
100
AcDbPolyline
 90
        9
 70
   128
 43
0.0
 10
107.1554213759948
 20
87.33254489796472
 10
106.6445482299377
 20
87.73774497424887
 10
106.2026714505264
 20
88.30877540111281
 10
105.889469328891
 20
88.96851810343496
 10
105.7472405080517
 20
89.62787114176196
 10
105.795194402034
 20
90.19778402274
 10
106.0268545548741
 20
90.60128607724553
 10
106.4109335169978
 20
90.78388492193632
 10
106.6232304856698
 20
90.78589079126245
  0
LWPOLYLINE
  5
188
330
1F
100
AcDbEntity
  8
0
  6
Continuous
 62
     7
370
    25
100
AcDbPolyline
 90
        5
 70
   128
 43
0.0
 10
108.4655917233594
 20
87.59448075997548
 10
108.4213730938264
 20
87.50688117175464
 10
108.1081706429189
 20
87.2087541319557
 10
107.6662938635075
 20
87.14790377511193
 10
107.1554213759948
 20
87.33254489796472
  0
LINE
  5
189
330
1F
100
AcDbEntity
  8
0
  6
Continuous
 62
     7
370
    25
100
AcDbLine
 10
107.3392692219219
 20
89.92099646023972
 30
0.0
 11
106.9715735300678
 21
90.13326266493391
 31
0.0
  0
LINE
  5
18A
330
1F
100
AcDbEntity
  8
0
  6
Continuous
 62
     7
370
    25
100
AcDbLine
 10
106.9715735300678
 20
90.13326266493391
 30
0.0
 11
106.9715735300678
 21
89.6082421266982
 31
0.0
  0
ELLIPSE
  5
18B
330
1F
100
AcDbEntity
  8
0
  6
Continuous
 62
     7
370
    25
100
AcDbEllipse
 10
106.6866073647231
 20
89.7776383024879
 30
0.0
 11
-0.2029770344755236
 21
0.351602984815088
 31
0.0
210
0.0
220
0.0
230
1.0
 40
0.5688689412912826
 41
2.363699742581632
 42
3.919643386431493
  0
LINE
  5
18C
330
1F
100
AcDbEntity
  8
0
  6
Continuous
 62
     7
370
    25
100
AcDbLine
 10
106.6908392990373
 20
89.44612578089094
 30
0.0
 11
106.2361821463596
 21
89.7085937683436
 31
0.0
  0
LINE
  5
18D
330
1F
100
AcDbEntity
  8
0
  6
Continuous
 62
     7
370
    25
100
AcDbLine
 10
106.2361821463596
 20
89.7085937683436
 30
0.0
 11
106.2361821463596
 21
89.28399235489138
 31
0.0
  0
LINE
  5
18E
330
1F
100
AcDbEntity
  8
0
  6
Continuous
 62
     7
370
    25
100
AcDbLine
 10
106.2361821463596
 20
89.28399235489138
 30
0.0
 11
106.6908392990373
 21
89.02152436743873
 31
0.0
  0
ELLIPSE
  5
18F
330
1F
100
AcDbEntity
  8
0
  6
Continuous
 62
     7
370
    25
100
AcDbEllipse
 10
106.6866073647231
 20
88.69489876761688
 30
0.0
 11
-0.1999830001076646
 21
0.3464199758967226
 31
0.0
210
0.0
220
0.0
230
1.0
 40
0.5860215324410516
 41
3.934500901280302
 42
5.490444545130232
  0
LINE
  5
190
330
1F
100
AcDbEntity
  8
0
  6
Continuous
 62
     7
370
    25
100
AcDbLine
 10
106.9715735300678
 20
88.53527765683432
 30
0.0
 11
106.9715735300678
 21
88.0102571185986
 31
0.0
  0
LINE
  5
191
330
1F
100
AcDbEntity
  8
0
  6
Continuous
 62
     7
370
    25
100
AcDbLine
 10
106.9715735300678
 20
88.0102571185986
 30
0.0
 11
107.3392692219219
 21
87.79799091390443
 31
0.0
  0
LINE
  5
192
330
1F
100
AcDbEntity
  8
0
  6
Continuous
 62
     7
370
    25
100
AcDbLine
 10
107.3392692219219
 20
87.79799091390443
 30
0.0
 11
107.3392692219219
 21
88.32301145214014
 31
0.0
  0
ELLIPSE
  5
193
330
1F
100
AcDbEntity
  8
0
  6
Continuous
 62
     7
370
    25
100
AcDbEllipse
 10
107.6242365146953
 20
88.1536169808447
 30
0.0
 11
-0.2029770344755236
 21
0.351602984815088
 31
0.0
210
0.0
220
0.0
230
1.0
 40
0.5688689412912826
 41
5.505292396171542
 42
7.061236040021321
  0
LINE
  5
194
330
1F
100
AcDbEntity
  8
0
  6
Continuous
 62
     7
370
    25
100
AcDbLine
 10
107.6200034529524
 20
88.48512931887318
 30
0.0
 11
108.0746599470856
 21
88.22266171159016
 31
0.0
  0
LINE
  5
195
330
1F
100
AcDbEntity
  8
0
  6
Continuous
 62
     7
370
    25
100
AcDbLine
 10
108.0746599470856
 20
88.22266171159016
 30
0.0
 11
108.0746599470856
 21
88.64726312504239
 31
0.0
  0
LINE
  5
196
330
1F
100
AcDbEntity
  8
0
  6
Continuous
 62
     7
370
    25
100
AcDbLine
 10
108.0746599470856
 20
88.64726312504239
 30
0.0
 11
107.6200034529524
 21
88.90973073232539
 31
0.0
  0
ELLIPSE
  5
197
330
1F
100
AcDbEntity
  8
0
  6
Continuous
 62
     7
370
    25
100
AcDbEllipse
 10
107.6242365146953
 20
89.23635651571573
 30
0.0
 11
-0.1999830001076646
 21
0.3464199758967226
 31
0.0
210
0.0
220
0.0
230
1.0
 40
0.5860215324410516
 41
0.7929082476905411
 42
2.348851891540324
  0
LINE
  5
198
330
1F
100
AcDbEntity
  8
0
  6
Continuous
 62
     7
370
    25
100
AcDbLine
 10
107.3392692219219
 20
89.39597592200401
 30
0.0
 11
107.3392692219219
 21
89.92099646023972
 31
0.0
  0
LINE
  5
199
330
1F
100
AcDbEntity
  8
0
  6
Continuous
 62
     7
370
    25
100
AcDbLine
 10
106.2969262917759
 20
90.77936703646644
 30
0.0
 11
106.4244376306786
 21
90.83622132098134
 31
0.0
  0
LINE
  5
19A
330
1F
100
AcDbEntity
  8
0
  6
Continuous
 62
     7
370
    25
100
AcDbLine
 10
108.4097642712397
 20
87.39716133272194
 30
0.0
 11
108.2967639605704
 21
87.31517092872183
 31
0.0
  0
LINE
  5
19B
330
1F
100
AcDbEntity
  8
0
  6
Continuous
 62
     7
370
    25
100
AcDbLine
 10
107.4479376268177
 20
88.81028733289763
 30
0.0
 11
107.4479376268177
 21
88.53313967404986
 31
0.0
  0
ELLIPSE
  5
19C
330
1F
100
AcDbEntity
  8
0
  6
Continuous
 62
     7
370
    25
100
AcDbEllipse
 10
107.1629645108187
 20
88.96990367073336
 30
0.0
 11
-0.1999830001076646
 21
0.3464199758967226
 31
0.0
210
0.0
220
0.0
230
1.0
 40
0.5860215324410207
 41
3.934500901280352
 42
5.490444545130106
  0
LINE
  5
19D
330
1F
100
AcDbEntity
  8
0
  6
Continuous
 62
     7
370
    25
100
AcDbLine
 10
106.9270631653178
 20
89.43516252680364
 30
0.0
 11
107.1672033957872
 21
89.29653252257626
 31
0.0
  0
LINE
  5
19E
330
1F
100
AcDbEntity
  8
0
  6
Continuous
 62
     7
370
    25
100
AcDbLine
 10
107.4479376268177
 20
88.81028733289763
 30
0.0
 11
106.9715735300678
 21
88.53527765683432
 31
0.0
  0
LINE
  5
19F
330
1F
100
AcDbEntity
  8
0
  6
Continuous
 62
     7
370
    25
100
AcDbLine
 10
106.6908392990373
 20
89.02152436743873
 30
0.0
 11
107.1672033957872
 21
89.29653252257626
 31
0.0
  0
LINE
  5
1A0
330
1F
100
AcDbEntity
  8
0
  6
Continuous
 62
     7
370
    25
100
AcDbLine
 10
107.3392646121104
 20
88.22252896864012
 30
0.0
 11
106.9715735300678
 21
88.0102571185986
 31
0.0
  0
LINE
  5
1A1
330
1F
100
AcDbEntity
  8
0
  6
Continuous
 62
     7
370
    25
100
AcDbLine
 10
106.6039213021512
 20
89.49629119796691
 30
0.0
 11
106.2361821463596
 21
89.28399235489138
 31
0.0
  0
LINE
  5
1A2
330
1F
100
AcDbEntity
  8
0
  6
Continuous
 62
     7
370
    25
100
AcDbLine
 10
92.43763321614686
 20
85.47055156930064
 30
0.0
 11
92.56514389650502
 21
85.52740585375373
 31
0.0
  0
LINE
  5
1A3
330
1F
100
AcDbEntity
  8
0
  6
Continuous
 62
     7
370
    25
100
AcDbLine
 10
94.5504711956107
 20
82.08834577049828
 30
0.0
 11
94.43747088494142
 21
82.00635593684534
 31
0.0
  0
LWPOLYLINE
  5
1A4
330
1F
100
AcDbEntity
  8
0
  6
Continuous
 62
     7
370
    25
100
AcDbPolyline
 90
        9
 70
   128
 43
0.0
 10
93.29612830036585
 20
82.02372990608823
 10
92.78525515430866
 20
82.42892903179376
 10
92.34337903344183
 20
82.99996002906667
 10
92.03017592398976
 20
83.65970311152758
 10
91.8879474324227
 20
84.31905529436472
 10
91.935901326405
 20
84.88896779511131
 10
92.16756147924512
 20
85.29247080019546
 10
92.55164109991334
 20
85.47506869436943
 10
92.76393741004074
 20
85.4770749438652
  0
LWPOLYLINE
  5
1A5
330
1F
100
AcDbEntity
  8
0
  6
Continuous
 62
     7
370
    25
100
AcDbPolyline
 90
        5
 70
   128
 43
0.0
 10
94.6062986477304
 20
82.2856662433883
 10
94.5620806767419
 20
82.19806560959277
 10
94.24887756728984
 20
81.8999391400792
 10
93.80700144642302
 20
81.83908745248718
 10
93.29612830036585
 20
82.02372990608823
  0
LINE
  5
1A6
330
1F
100
AcDbEntity
  8
0
  6
Continuous
 62
     7
370
    25
100
AcDbLine
 10
93.47997614629288
 20
84.61218137330538
 30
0.0
 11
93.11228045443879
 21
84.82444757799955
 31
0.0
  0
LINE
  5
1A7
330
1F
100
AcDbEntity
  8
0
  6
Continuous
 62
     7
370
    25
100
AcDbLine
 10
93.11228045443879
 20
84.82444757799955
 30
0.0
 11
93.11228045443879
 21
84.29942703976384
 31
0.0
  0
ELLIPSE
  5
1A8
330
1F
100
AcDbEntity
  8
0
  6
Continuous
 62
     7
370
    25
100
AcDbEllipse
 10
92.82731445346676
 20
84.46882256461274
 30
0.0
 11
-0.2029770344755235
 21
0.3516029848150737
 31
0.0
210
0.0
220
0.0
230
1.0
 40
0.5688689412912998
 41
2.363699742581676
 42
3.919643386431509
  0
LINE
  5
1A9
330
1F
100
AcDbEntity
  8
0
  6
Continuous
 62
     7
370
    25
100
AcDbLine
 10
92.83154622340828
 20
84.13730955326226
 30
0.0
 11
92.37688972927505
 21
84.39977716054527
 31
0.0
  0
LINE
  5
1AA
330
1F
100
AcDbEntity
  8
0
  6
Continuous
 62
     7
370
    25
100
AcDbLine
 10
92.37688972927505
 20
84.39977716054527
 30
0.0
 11
92.37688972927505
 21
83.97517593720877
 31
0.0
  0
LINE
  5
1AB
330
1F
100
AcDbEntity
  8
0
  6
Continuous
 62
     7
370
    25
100
AcDbLine
 10
92.37688972927505
 20
83.97517593720877
 30
0.0
 11
92.83154622340828
 21
83.71270832992576
 31
0.0
  0
ELLIPSE
  5
1AC
330
1F
100
AcDbEntity
  8
0
  6
Continuous
 62
     7
370
    25
100
AcDbEllipse
 10
92.82731445346676
 20
83.38608302974171
 30
0.0
 11
-0.1999830001076646
 21
0.3464199758967226
 31
0.0
210
0.0
220
0.0
230
1.0
 40
0.5860215324410207
 41
3.934500901280376
 42
5.490444545130156
  0
LINE
  5
1AD
330
1F
100
AcDbEntity
  8
0
  6
Continuous
 62
     7
370
    25
100
AcDbLine
 10
93.11228045443879
 20
83.22646218966852
 30
0.0
 11
93.11228045443879
 21
82.70144155637495
 31
0.0
  0
LINE
  5
1AE
330
1F
100
AcDbEntity
  8
0
  6
Continuous
 62
     7
370
    25
100
AcDbLine
 10
93.11228045443879
 20
82.70144155637495
 30
0.0
 11
93.47997614629288
 21
82.48917535168077
 31
0.0
  0
LINE
  5
1AF
330
1F
100
AcDbEntity
  8
0
  6
Continuous
 62
     7
370
    25
100
AcDbLine
 10
93.47997614629288
 20
82.48917535168077
 30
0.0
 11
93.47997614629288
 21
83.01419598497434
 31
0.0
  0
ELLIPSE
  5
1B0
330
1F
100
AcDbEntity
  8
0
  6
Continuous
 62
     7
370
    25
100
AcDbEllipse
 10
93.76494360343898
 20
82.84480124296952
 30
0.0
 11
-0.2029770344755236
 21
0.351602984815088
 31
0.0
210
0.0
220
0.0
230
1.0
 40
0.5688689412912652
 41
5.505292396171425
 42
7.061236040021311
  0
LINE
  5
1B1
330
1F
100
AcDbEntity
  8
0
  6
Continuous
 62
     7
370
    25
100
AcDbLine
 10
93.76071037732339
 20
83.1763132813602
 30
0.0
 11
94.21536687145662
 21
82.9138456740772
 31
0.0
  0
LINE
  5
1B2
330
1F
100
AcDbEntity
  8
0
  6
Continuous
 62
     7
370
    25
100
AcDbLine
 10
94.21536687145662
 20
82.9138456740772
 30
0.0
 11
94.21536687145662
 21
83.33844689741369
 31
0.0
  0
LINE
  5
1B3
330
1F
100
AcDbEntity
  8
0
  6
Continuous
 62
     7
370
    25
100
AcDbLine
 10
94.21536687145662
 20
83.33844689741369
 30
0.0
 11
93.76071037732339
 21
83.6009145046967
 31
0.0
  0
ELLIPSE
  5
1B4
330
1F
100
AcDbEntity
  8
0
  6
Continuous
 62
     7
370
    25
100
AcDbEllipse
 10
93.76494360343898
 20
83.92754077784055
 30
0.0
 11
-0.1999830001076646
 21
0.3464199758967226
 31
0.0
210
0.0
220
0.0
230
1.0
 40
0.5860215324410207
 41
0.7929082476905435
 42
2.348851891540397
  0
LINE
  5
1B5
330
1F
100
AcDbEntity
  8
0
  6
Continuous
 62
     7
370
    25
100
AcDbLine
 10
93.47997614629288
 20
84.08716083506965
 30
0.0
 11
93.47997614629288
 21
84.61218137330538
 31
0.0
  0
LINE
  5
1B6
330
1F
100
AcDbEntity
  8
0
  6
Continuous
 62
     7
370
    25
100
AcDbLine
 10
93.58864520973317
 20
83.50147110533072
 30
0.0
 11
93.58864520973317
 21
83.22432325636727
 31
0.0
  0
ELLIPSE
  5
1B7
330
1F
100
AcDbEntity
  8
0
  6
Continuous
 62
     7
370
    25
100
AcDbEllipse
 10
93.30367159956238
 20
83.66108793285821
 30
0.0
 11
-0.1999830001076646
 21
0.3464199758967226
 31
0.0
210
0.0
220
0.0
230
1.0
 40
0.5860215324410516
 41
3.934500901280302
 42
5.490444545130232
  0
LINE
  5
1B8
330
1F
100
AcDbEntity
  8
0
  6
Continuous
 62
     7
370
    25
100
AcDbLine
 10
93.06777008968875
 20
84.12634762998502
 30
0.0
 11
93.30791032015817
 21
83.98771762575763
 31
0.0
  0
ARC
  5
1B9
330
1F
100
AcDbEntity
  8
0
  6
Continuous
 62
     7
370
    25
100
AcDbCircle
 10
96.29901615134833
 20
85.73149014504716
 30
0.0
 40
0.7059612897756208
100
AcDbArc
 50
37.75367254550626
 51
94.49381386372642
  0
LINE
  5
1BA
330
1F
100
AcDbEntity
  8
0
  6
Continuous
 62
     7
370
    25
100
AcDbLine
 10
93.58864520973317
 20
83.50147110533072
 30
0.0
 11
93.11228045443879
 21
83.22646218966852
 31
0.0
  0
LINE
  5
1BB
330
1F
100
AcDbEntity
  8
0
  6
Continuous
 62
     7
370
    25
100
AcDbLine
 10
92.83154622340828
 20
83.71270832992576
 30
0.0
 11
93.30791032015817
 21
83.98771762575763
 31
0.0
  0
LINE
  5
1BC
330
1F
100
AcDbEntity
  8
0
  6
Continuous
 62
     7
370
    25
100
AcDbLine
 10
93.47997153648136
 20
82.91371274101144
 30
0.0
 11
93.11228045443879
 21
82.70144155637495
 31
0.0
  0
LINE
  5
1BD
330
1F
100
AcDbEntity
  8
0
  6
Continuous
 62
     7
370
    25
100
AcDbLine
 10
92.7446288850667
 20
84.18747478028429
 30
0.0
 11
92.37688972927505
 21
83.97517593720877
 31
0.0
  0
ARC
  5
1BE
330
1F
100
AcDbEntity
  8
0
  6
Continuous
 62
     7
370
    25
100
AcDbCircle
 10
97.3425488150755
 20
86.26786151472693
 30
0.0
 40
0.3834925178141224
100
AcDbArc
 50
53.60076411065201
 51
96.1581301189996
  0
LINE
  5
1BF
330
1F
100
AcDbEntity
  8
0
  6
Continuous
 62
     7
370
    25
100
AcDbLine
 10
111.0425804331281
 20
73.04168687834627
 30
0.0
 11
111.0445185296151
 21
73.00239924209116
 31
0.0
  0
LWPOLYLINE
  5
1C0
330
1F
100
AcDbEntity
  8
0
  6
Continuous
 62
     7
370
    25
100
AcDbPolyline
 90
        8
 70
   128
 43
0.0
 10
111.0445185296151
 20
73.00239924209116
 10
111.0390835617907
 20
72.941817097524
 10
111.0229880754711
 20
72.88983785356272
 10
110.9968504439492
 20
72.84845913789519
 10
110.9616756061444
 20
72.81927083407979
 10
110.9188148953868
 20
72.8033948645621
 10
110.8699146729466
 20
72.8014417741178
 10
110.8523130953372
 20
72.80396483108547
  0
ARC
  5
1C1
330
1F
100
AcDbEntity
  8
0
  6
Continuous
 62
     7
370
    25
100
AcDbCircle
 10
332.0985964887832
 20
216.4572431732649
 30
0.0
 40
0.6246784238342592
100
AcDbArc
 50
2.881074614598992
 51
52.04990759262012
  0
LINE
  5
1C2
330
1F
100
AcDbEntity
  8
0
  6
Continuous
 62
     7
370
    25
100
AcDbLine
 10
332.7224853278789
 20
216.488641416144
 30
0.0
 11
111.0445185296151
 21
88.51667514339982
 31
0.0
  0
ARC
  5
1C3
330
1F
100
AcDbEntity
  8
0
  6
Continuous
 62
     7
370
    25
100
AcDbCircle
 10
332.5305742607117
 20
216.4651559992037
 30
0.0
 40
0.1933427591354739
100
AcDbArc
 50
304.3351621404084
 51
6.9769695393975
  0
ARC
  5
1C4
330
1F
100
AcDbEntity
  8
0
  6
Continuous
 62
     7
370
    25
100
AcDbCircle
 10
332.7751266596948
 20
216.1778616335335
 30
0.0
 40
0.2405586687262609
100
AcDbArc
 50
162.1682434115021
 51
221.8691052622868
  0
ARC
  5
1C5
330
1F
100
AcDbEntity
  8
0
  6
Continuous
 62
     7
370
    25
100
AcDbCircle
 10
332.1157972995126
 20
215.6455662543576
 30
0.0
 40
0.6072680037552385
100
AcDbArc
 50
2.504302480799359
 51
37.74511652735242
  0
LINE
  5
1C6
330
1F
100
AcDbEntity
  8
0
  6
Continuous
 62
     7
370
    25
100
AcDbLine
 10
111.0445185296151
 20
87.70013419767261
 30
0.0
 11
332.7224853278789
 21
215.6721004704168
 31
0.0
  0
ARC
  5
1C7
330
1F
100
AcDbEntity
  8
0
  6
Continuous
 62
     7
370
    25
100
AcDbCircle
 10
332.5305742607114
 20
215.6486150534766
 30
0.0
 40
0.1933427591358055
100
AcDbArc
 50
304.3351621404963
 51
6.976969539368503
  0
ARC
  5
1C8
330
1F
100
AcDbEntity
  8
0
  6
Continuous
 62
     7
370
    25
100
AcDbCircle
 10
332.7751266596948
 20
215.3613206878063
 30
0.0
 40
0.2405586687262609
100
AcDbArc
 50
162.1682434115021
 51
221.8691052622918
  0
ARC
  5
1C9
330
1F
100
AcDbEntity
  8
0
  6
Continuous
 62
     7
370
    25
100
AcDbCircle
 10
332.1157972995127
 20
214.8290253086305
 30
0.0
 40
0.6072680037551175
100
AcDbArc
 50
2.504302480783753
 51
37.7451165273505
  0
LINE
  5
1CA
330
1F
100
AcDbEntity
  8
0
  6
Continuous
 62
     7
370
    25
100
AcDbLine
 10
111.0445185296151
 20
86.88359325194538
 30
0.0
 11
332.7224853278789
 21
214.8555595246895
 31
0.0
  0
ARC
  5
1CB
330
1F
100
AcDbEntity
  8
0
  6
Continuous
 62
     7
370
    25
100
AcDbCircle
 10
332.5305891721566
 20
214.8320686870372
 30
0.0
 40
0.1933286166986966
100
AcDbArc
 50
304.3326733147281
 51
6.979100956100448
  0
ARC
  5
1CC
330
1F
100
AcDbEntity
  8
0
  6
Continuous
 62
     7
370
    25
100
AcDbCircle
 10
332.7751266596948
 20
214.5447797420791
 30
0.0
 40
0.2405586687262609
100
AcDbArc
 50
162.1682434115021
 51
221.8691052622918
  0
ARC
  5
1CD
330
1F
100
AcDbEntity
  8
0
  6
Continuous
 62
     7
370
    25
100
AcDbCircle
 10
332.1157972995128
 20
214.0124843629033
 30
0.0
 40
0.607268003755062
100
AcDbArc
 50
2.504302480786667
 51
37.74511652735379
  0
LINE
  5
1CE
330
1F
100
AcDbEntity
  8
0
  6
Continuous
 62
     7
370
    25
100
AcDbLine
 10
111.0445185296151
 20
86.06705230621819
 30
0.0
 11
332.7224853278789
 21
214.0390185789623
 31
0.0
  0
ARC
  5
1CF
330
1F
100
AcDbEntity
  8
0
  6
Continuous
 62
     7
370
    25
100
AcDbCircle
 10
332.5305891721563
 20
214.0155277413101
 30
0.0
 40
0.1933286166989085
100
AcDbArc
 50
304.3326733147553
 51
6.979100956058817
  0
ARC
  5
1D0
330
1F
100
AcDbEntity
  8
0
  6
Continuous
 62
     7
370
    25
100
AcDbCircle
 10
332.7751266596945
 20
213.7282387963519
 30
0.0
 40
0.2405586687260898
100
AcDbArc
 50
162.1682434114961
 51
221.8691052623279
  0
ARC
  5
1D1
330
1F
100
AcDbEntity
  8
0
  6
Continuous
 62
     7
370
    25
100
AcDbCircle
 10
332.1157972995126
 20
213.195943417176
 30
0.0
 40
0.6072680037552348
100
AcDbArc
 50
2.504302480791321
 51
37.74511652735031
  0
LINE
  5
1D2
330
1F
100
AcDbEntity
  8
0
  6
Continuous
 62
     7
370
    25
100
AcDbLine
 10
111.0445185296151
 20
85.25051136049096
 30
0.0
 11
332.7224853278789
 21
213.2224776332351
 31
0.0
  0
ARC
  5
1D3
330
1F
100
AcDbEntity
  8
0
  6
Continuous
 62
     7
370
    25
100
AcDbCircle
 10
332.5305811011691
 20
213.1989897843237
 30
0.0
 40
0.1933362647709359
100
AcDbArc
 50
304.3340218080318
 51
6.977931167896584
  0
ARC
  5
1D4
330
1F
100
AcDbEntity
  8
0
  6
Continuous
 62
     7
370
    25
100
AcDbCircle
 10
332.7751266596948
 20
212.9116978506247
 30
0.0
 40
0.2405586687262883
100
AcDbArc
 50
162.168243411515
 51
221.8691052623019
  0
ARC
  5
1D5
330
1F
100
AcDbEntity
  8
0
  6
Continuous
 62
     7
370
    25
100
AcDbCircle
 10
332.1157972995127
 20
212.3794024714488
 30
0.0
 40
0.6072680037551212
100
AcDbArc
 50
2.50430248079179
 51
37.74511652735475
  0
LINE
  5
1D6
330
1F
100
AcDbEntity
  8
0
  6
Continuous
 62
     7
370
    25
100
AcDbLine
 10
111.0445185296151
 20
84.43397041476373
 30
0.0
 11
332.7224853278789
 21
212.4059366875079
 31
0.0
  0
ARC
  5
1D7
330
1F
100
AcDbEntity
  8
0
  6
Continuous
 62
     7
370
    25
100
AcDbCircle
 10
332.530588556605
 20
212.3824461283585
 30
0.0
 40
0.1933291938495554
100
AcDbArc
 50
304.3327774075889
 51
6.978996863229133
  0
ARC
  5
1D8
330
1F
100
AcDbEntity
  8
0
  6
Continuous
 62
     7
370
    25
100
AcDbCircle
 10
332.7751269120764
 20
212.0951569586288
 30
0.0
 40
0.2405588925297107
100
AcDbArc
 50
162.1682740019
 51
221.8690746718881
  0
ARC
  5
1D9
330
1F
100
AcDbEntity
  8
0
  6
Continuous
 62
     7
370
    25
100
AcDbCircle
 10
332.115800673489
 20
211.5628627620718
 30
0.0
 40
0.6072645789805886
100
AcDbArc
 50
2.504199851346817
 51
37.74521915679585
  0
LINE
  5
1DA
330
1F
100
AcDbEntity
  8
0
  6
Continuous
 62
     7
370
    25
100
AcDbLine
 10
111.0445185296151
 20
83.61742946903652
 30
0.0
 11
332.7224853278789
 21
211.5893957417807
 31
0.0
  0
ARC
  5
1DB
330
1F
100
AcDbEntity
  8
0
  6
Continuous
 62
     7
370
    25
100
AcDbCircle
 10
332.5305885566049
 20
211.5659051826313
 30
0.0
 40
0.1933291938496648
100
AcDbArc
 50
304.3327774075934
 51
6.978996863216678
  0
ARC
  5
1DC
330
1F
100
AcDbEntity
  8
0
  6
Continuous
 62
     7
370
    25
100
AcDbCircle
 10
332.7751240434961
 20
211.2786159234779
 30
0.0
 40
0.2405561891415186
100
AcDbArc
 50
162.1680445027636
 51
221.8693799458485
  0
ARC
  5
1DD
330
1F
100
AcDbEntity
  8
0
  6
Continuous
 62
     7
370
    25
100
AcDbCircle
 10
332.1157961698914
 20
210.7463209265221
 30
0.0
 40
0.6072691503843238
100
AcDbArc
 50
2.504336841291252
 51
37.74508216684563
  0
LINE
  5
1DE
330
1F
100
AcDbEntity
  8
0
  6
Continuous
 62
     7
370
    25
100
AcDbLine
 10
111.0445185296151
 20
82.8008892837722
 30
0.0
 11
332.7224853278789
 21
210.7728555565163
 31
0.0
  0
ARC
  5
1DF
330
1F
100
AcDbEntity
  8
0
  6
Continuous
 62
     7
370
    25
100
AcDbCircle
 10
332.5305873577569
 20
210.749364876858
 30
0.0
 40
0.1933303984575537
100
AcDbArc
 50
304.3329638330719
 51
6.978989142829081
  0
ARC
  5
1E0
330
1F
100
AcDbEntity
  8
0
  6
Continuous
 62
     7
370
    25
100
AcDbCircle
 10
332.7751277046097
 20
210.4620759963655
 30
0.0
 40
0.240559595321656
100
AcDbArc
 50
162.168370062041
 51
221.868978611759
  0
ARC
  5
1E1
330
1F
100
AcDbEntity
  8
0
  6
Continuous
 62
     7
370
    25
100
AcDbCircle
 10
332.1157961698914
 20
209.9297799807949
 30
0.0
 40
0.6072691503843238
100
AcDbArc
 50
2.504336841291252
 51
37.74508216684776
  0
LINE
  5
1E2
330
1F
100
AcDbEntity
  8
0
  6
Continuous
 62
     7
370
    25
100
AcDbLine
 10
111.0445185296151
 20
81.98434833804497
 30
0.0
 11
332.7224853278789
 21
209.9563146107891
 31
0.0
  0
ARC
  5
1E3
330
1F
100
AcDbEntity
  8
0
  6
Continuous
 62
     7
370
    25
100
AcDbCircle
 10
332.5305817167265
 20
209.9328264833733
 30
0.0
 40
0.1933356876079757
100
AcDbArc
 50
304.3339177215162
 51
6.97803525443974
  0
ARC
  5
1E4
330
1F
100
AcDbEntity
  8
0
  6
Continuous
 62
     7
370
    25
100
AcDbCircle
 10
332.7751266596949
 20
209.6455348281787
 30
0.0
 40
0.2405586687263604
100
AcDbArc
 50
162.1682434115168
 51
221.8691052622788
  0
ARC
  5
1E5
330
1F
100
AcDbEntity
  8
0
  6
Continuous
 62
     7
370
    25
100
AcDbCircle
 10
332.1157961698914
 20
209.1132390350677
 30
0.0
 40
0.607269150384325
100
AcDbArc
 50
2.50433684129393
 51
37.74508216684563
  0
LINE
  5
1E6
330
1F
100
AcDbEntity
  8
0
  6
Continuous
 62
     7
370
    25
100
AcDbLine
 10
111.0445185296151
 20
81.16780739231775
 30
0.0
 11
332.7224853278789
 21
209.1397736650619
 31
0.0
  0
ARC
  5
1E7
330
1F
100
AcDbEntity
  8
0
  6
Continuous
 62
     7
370
    25
100
AcDbCircle
 10
332.530581101169
 20
209.1162858161506
 30
0.0
 40
0.1933362647710488
100
AcDbArc
 50
304.3340218080549
 51
6.977931167892491
  0
ARC
  5
1E8
330
1F
100
AcDbEntity
  8
0
  6
Continuous
 62
     7
370
    25
100
AcDbCircle
 10
332.7751266596948
 20
208.8289938824515
 30
0.0
 40
0.2405586687262693
100
AcDbArc
 50
162.1682434115085
 51
221.8691052622968
  0
ARC
  5
1E9
330
1F
100
AcDbEntity
  8
0
  6
Continuous
 62
     7
370
    25
100
AcDbCircle
 10
332.1157972995128
 20
208.2966985032757
 30
0.0
 40
0.6072680037550595
100
AcDbArc
 50
2.504302480781308
 51
37.74511652735167
  0
LINE
  5
1EA
330
1F
100
AcDbEntity
  8
0
  6
Continuous
 62
     7
370
    25
100
AcDbLine
 10
111.0445185296151
 20
80.35126644659053
 30
0.0
 11
332.7224853278789
 21
208.3232327193347
 31
0.0
  0
ARC
  5
1EB
330
1F
100
AcDbEntity
  8
0
  6
Continuous
 62
     7
370
    25
100
AcDbCircle
 10
332.5305811011688
 20
208.2997448704234
 30
0.0
 40
0.1933362647712077
100
AcDbArc
 50
304.3340218080824
 51
6.977931167861271
  0
ARC
  5
1EC
330
1F
100
AcDbEntity
  8
0
  6
Continuous
 62
     7
370
    25
100
AcDbCircle
 10
332.7751269120765
 20
208.0124529904556
 30
0.0
 40
0.2405588925298277
100
AcDbArc
 50
162.1682740019019
 51
221.8690746718801
  0
ARC
  5
1ED
330
1F
100
AcDbEntity
  8
0
  6
Continuous
 62
     7
370
    25
100
AcDbCircle
 10
332.1157972995128
 20
207.4801575575484
 30
0.0
 40
0.6072680037550064
100
AcDbArc
 50
2.504302480789579
 51
37.74511652735707
  0
LINE
  5
1EE
330
1F
100
AcDbEntity
  8
0
  6
Continuous
 62
     7
370
    25
100
AcDbLine
 10
111.0445185296151
 20
79.5347255008633
 30
0.0
 11
332.7224853278789
 21
207.5066917736075
 31
0.0
  0
ARC
  5
1EF
330
1F
100
AcDbEntity
  8
0
  6
Continuous
 62
     7
370
    25
100
AcDbCircle
 10
332.530588556605
 20
207.483201214458
 30
0.0
 40
0.1933291938495554
100
AcDbArc
 50
304.3327774075703
 51
6.978996863229133
  0
ARC
  5
1F0
330
1F
100
AcDbEntity
  8
0
  6
Continuous
 62
     7
370
    25
100
AcDbCircle
 10
332.7751263997913
 20
207.1959121963096
 30
0.0
 40
0.2405583584372217
100
AcDbArc
 50
162.168271007049
 51
221.8691155540999
  0
ARC
  5
1F1
330
1F
100
AcDbEntity
  8
0
  6
Continuous
 62
     7
370
    25
100
AcDbCircle
 10
332.1157967347045
 20
206.6636167850859
 30
0.0
 40
0.607268577067271
100
AcDbArc
 50
2.504319660983194
 51
37.74509934715613
  0
LINE
  5
1F2
330
1F
100
AcDbEntity
  8
0
  6
Continuous
 62
     7
370
    25
100
AcDbLine
 10
111.0445185296151
 20
78.71818493536755
 30
0.0
 11
332.7224853278789
 21
206.6901512081117
 31
0.0
  0
ARC
  5
1F3
330
1F
100
AcDbEntity
  8
0
  6
Continuous
 62
     7
370
    25
100
AcDbCircle
 10
332.5305851367387
 20
206.666661864799
 30
0.0
 40
0.1933324406531851
100
AcDbArc
 50
304.333347561276
 51
6.978516062211312
  0
ARC
  5
1F4
330
1F
100
AcDbEntity
  8
0
  6
Continuous
 62
     7
370
    25
100
AcDbCircle
 10
332.775126785886
 20
206.3793714523671
 30
0.0
 40
0.2405587806283167
100
AcDbArc
 50
162.1682587067609
 51
221.8690899670468
  0
ARC
  5
1F5
330
1F
100
AcDbEntity
  8
0
  6
Continuous
 62
     7
370
    25
100
AcDbCircle
 10
332.1157984217021
 20
205.8470764575373
 30
0.0
 40
0.6072668646699634
100
AcDbArc
 50
2.504268346215928
 51
37.7451506619236
  0
LINE
  5
1F6
330
1F
100
AcDbEntity
  8
0
  6
Continuous
 62
     7
370
    25
100
AcDbLine
 10
111.0445185296151
 20
77.90164398964032
 30
0.0
 11
332.7224853278789
 21
205.8736102623845
 31
0.0
  0
ARC
  5
1F7
330
1F
100
AcDbEntity
  8
0
  6
Continuous
 62
     7
370
    25
100
AcDbCircle
 10
332.5305851367386
 20
205.8501209190719
 30
0.0
 40
0.1933324406532597
100
AcDbArc
 50
304.3333475612991
 51
6.978516062209265
  0
ARC
  5
1F8
330
1F
100
AcDbEntity
  8
0
  6
Continuous
 62
     7
370
    25
100
AcDbCircle
 10
332.7751253515925
 20
205.5628304619275
 30
0.0
 40
0.2405574289308724
100
AcDbArc
 50
162.1681439573599
 51
221.8692426037612
  0
ARC
  5
1F9
330
1F
100
AcDbEntity
  8
0
  6
Continuous
 62
     7
370
    25
100
AcDbCircle
 10
332.1157967347051
 20
205.0305352738631
 30
0.0
 40
0.6072685770666401
100
AcDbArc
 50
2.504319660972376
 51
37.7450993471828
  0
LINE
  5
1FA
330
1F
100
AcDbEntity
  8
0
  6
Continuous
 62
     7
370
    25
100
AcDbLine
 10
111.0445185296151
 20
77.08510342414455
 30
0.0
 11
332.7224853278789
 21
205.0570696968887
 31
0.0
  0
ARC
  5
1FB
330
1F
100
AcDbEntity
  8
0
  6
Continuous
 62
     7
370
    25
100
AcDbCircle
 10
332.5305842295347
 20
205.0335804325713
 30
0.0
 40
0.1933333315387837
100
AcDbArc
 50
304.3334928164542
 51
6.978460159496292
  0
ARC
  5
1FC
330
1F
100
AcDbEntity
  8
0
  6
Continuous
 62
     7
370
    25
100
AcDbCircle
 10
332.7751271821569
 20
204.746290025509
 30
0.0
 40
0.2405591320279485
100
AcDbArc
 50
162.1683067374558
 51
221.8690419363389
  0
ARC
  5
1FD
330
1F
100
AcDbEntity
  8
0
  6
Continuous
 62
     7
370
    25
100
AcDbCircle
 10
332.1157967347046
 20
204.2139943281358
 30
0.0
 40
0.607268577067155
100
AcDbArc
 50
2.504319660978304
 51
37.74509934715845
  0
LINE
  5
1FE
330
1F
100
AcDbEntity
  8
0
  6
Continuous
 62
     7
370
    25
100
AcDbLine
 10
111.0445185296151
 20
76.26856247841734
 30
0.0
 11
332.7224853278789
 21
204.2405287511615
 31
0.0
  0
ARC
  5
1FF
330
1F
100
AcDbEntity
  8
0
  6
Continuous
 62
     7
370
    25
100
AcDbCircle
 10
332.5305851367388
 20
204.2170394078487
 30
0.0
 40
0.1933324406531425
100
AcDbArc
 50
304.3333475612998
 51
6.978516062246801
  0
ARC
  5
200
330
1F
100
AcDbEntity
  8
0
  6
Continuous
 62
     7
370
    25
100
AcDbCircle
 10
332.7751260687382
 20
203.9297489730606
 30
0.0
 40
0.2405581047785623
100
AcDbArc
 50
162.1682013321297
 51
221.8691662853371
  0
ARC
  5
201
330
1F
100
AcDbEntity
  8
0
  6
Continuous
 62
     7
370
    25
100
AcDbCircle
 10
332.1157967347045
 20
203.3974535725242
 30
0.0
 40
0.6072685770672698
100
AcDbArc
 50
2.504319660980515
 51
37.745099347154
  0
LINE
  5
202
330
1F
100
AcDbEntity
  8
0
  6
Continuous
 62
     7
370
    25
100
AcDbLine
 10
111.0445185296151
 20
75.45202172280584
 30
0.0
 11
332.7224853278789
 21
203.42398799555
 31
0.0
  0
ARC
  5
203
330
1F
100
AcDbEntity
  8
0
  6
Continuous
 62
     7
370
    25
100
AcDbCircle
 10
332.5305846831371
 20
203.4004986917349
 30
0.0
 40
0.1933328860955434
100
AcDbArc
 50
304.3334201889539
 51
6.978488110817294
  0
ARC
  5
204
330
1F
100
AcDbEntity
  8
0
  6
Continuous
 62
     7
370
    25
100
AcDbCircle
 10
332.7751269840228
 20
203.1132082819881
 30
0.0
 40
0.2405589563293317
100
AcDbArc
 50
162.1682827222963
 51
221.8690659515138
  0
ARC
  5
205
330
1F
100
AcDbEntity
  8
0
  6
Continuous
 62
     7
370
    25
100
AcDbCircle
 10
332.115797916397
 20
202.5809130451998
 30
0.0
 40
0.6072673865284789
100
AcDbArc
 50
2.504303014286016
 51
37.74513638186265
  0
LINE
  5
206
330
1F
100
AcDbEntity
  8
0
  6
Continuous
 62
     7
370
    25
100
AcDbLine
 10
111.0445185296151
 20
74.63548096719434
 30
0.0
 11
332.7224853278789
 21
202.6074472399385
 31
0.0
  0
ARC
  5
207
330
1F
100
AcDbEntity
  8
0
  6
Continuous
 62
     7
370
    25
100
AcDbCircle
 10
332.5305849381903
 20
202.5839578207264
 30
0.0
 40
0.193332646952256
100
AcDbArc
 50
304.3333770597892
 51
6.97853123996935
  0
ARC
  5
208
330
1F
100
AcDbEntity
  8
0
  6
Continuous
 62
     7
370
    25
100
AcDbCircle
 10
332.7751264298565
 20
202.296667348603
 30
0.0
 40
0.2405584250058003
100
AcDbArc
 50
162.1682451023073
 51
221.869122515149
  0
ARC
  5
209
330
1F
100
AcDbEntity
  8
0
  6
Continuous
 62
     7
370
    25
100
AcDbCircle
 10
332.1157975782057
 20
201.7643721802757
 30
0.0
 40
0.6072677208661313
100
AcDbArc
 50
2.504294003559849
 51
37.74512500457478
  0
LINE
  5
20A
330
1F
100
AcDbEntity
  8
0
  6
Continuous
 62
     7
370
    25
100
AcDbLine
 10
111.0445185296151
 20
73.81894002146711
 30
0.0
 11
332.7224853278789
 21
201.7909062942113
 31
0.0
  0
ARC
  5
20B
330
1F
100
AcDbEntity
  8
0
  6
Continuous
 62
     7
370
    25
100
AcDbCircle
 10
332.5305848329935
 20
201.7674170054604
 30
0.0
 40
0.1933327355190894
100
AcDbArc
 50
304.3333968863618
 51
6.978489075295569
  0
ARC
  5
20C
330
1F
100
AcDbEntity
  8
0
  6
Continuous
 62
     7
370
    25
100
AcDbCircle
 10
332.7751264781186
 20
201.4801265706858
 30
0.0
 40
0.2405584777798921
100
AcDbArc
 50
162.1682435648177
 51
221.8691193167394
  0
ARC
  5
20D
330
1F
100
AcDbEntity
  8
0
  6
Continuous
 62
     7
370
    25
100
AcDbCircle
 10
332.1157974627083
 20
200.9478313329861
 30
0.0
 40
0.6072678392206822
100
AcDbArc
 50
2.504299928959925
 51
37.74512162768052
  0
LINE
  5
20E
330
1F
100
AcDbEntity
  8
0
  6
Continuous
 62
     7
370
    25
100
AcDbLine
 10
111.0445185296151
 20
73.00239924209116
 30
0.0
 11
332.7224853278789
 21
200.9743655148353
 31
0.0
  0
ARC
  5
20F
330
1F
100
AcDbEntity
  8
0
  6
Continuous
 62
     7
370
    25
100
AcDbCircle
 10
332.5331916468933
 20
200.9496967288146
 30
0.0
 40
0.1908943337682883
100
AcDbArc
 50
303.8869514065928
 51
7.424951308647874
  0
LINE
  5
210
330
1F
100
AcDbEntity
  8
0
  6
Continuous
 62
     8
370
    25
100
AcDbLine
 10
107.7918269347082
 20
99.37660177461916
 30
0.0
 11
107.6504031845299
 21
99.29495958144416
 31
0.0
  0
LINE
  5
211
330
1F
100
AcDbEntity
  8
0
  6
Continuous
 62
     8
370
    25
100
AcDbLine
 10
93.55964817795767
 20
102.2850989499383
 30
0.0
 11
93.27682175102534
 21
102.1218267290172
 31
0.0
  0
LINE
  5
212
330
1F
100
AcDbEntity
  8
0
  6
Continuous
 62
     8
370
    25
100
AcDbLine
 10
92.58902864726507
 20
102.5188812362752
 30
0.0
 11
93.31317472495499
 21
102.9369218686805
 31
0.0
  0
LINE
  5
213
330
1F
100
AcDbEntity
  8
0
  6
Continuous
 62
     8
370
    25
100
AcDbLine
 10
108.0039520232636
 20
74.92117951910633
 30
0.0
 11
107.6504031845299
 21
74.7170801188833
 31
0.0
  0
LINE
  5
214
330
1F
100
AcDbEntity
  8
0
  6
Continuous
 62
     8
370
    25
100
AcDbLine
 10
92.30618839089801
 20
99.74259145008617
 30
0.0
 11
92.16476464071974
 21
99.66094925691117
 31
0.0
  0
LINE
  5
215
330
1F
100
AcDbEntity
  8
0
  6
Continuous
 62
     8
370
    25
100
AcDbLine
 10
91.59907885962964
 20
99.987512707236
 30
0.0
 11
92.30617653709692
 21
100.3957115076821
 31
0.0
  0
LINE
  5
216
330
1F
100
AcDbEntity
  8
0
  6
Continuous
 62
     8
370
    25
100
AcDbLine
 10
92.8718708792656
 20
94.02688406997571
 30
0.0
 11
93.22548293827201
 21
94.23101996648538
 31
0.0
  0
LINE
  5
217
330
1F
100
AcDbEntity
  8
0
  6
Continuous
 62
     8
370
    25
100
AcDbLine
 10
111.0445053587249
 20
89.66978235256288
 30
0.0
 11
332.5959894646075
 21
217.5687317212039
 31
0.0
  0
LINE
  5
218
330
1F
100
AcDbEntity
  8
0
  6
Continuous
 62
     8
370
    25
100
AcDbLine
 10
107.9073106167171
 20
88.74386056260443
 30
0.0
 11
107.6200034529524
 21
88.48512931887318
 31
0.0
  0
LINE
  5
219
330
1F
100
AcDbEntity
  8
0
  6
Continuous
 62
     8
370
    25
100
AcDbLine
 10
106.9715735300678
 20
89.6082421266982
 30
0.0
 11
107.3392646121104
 21
89.72764776939165
 31
0.0
  0
LINE
  5
21A
330
1F
100
AcDbEntity
  8
0
  6
Continuous
 62
     8
370
    25
100
AcDbLine
 10
94.04801754108807
 20
83.43504452509147
 30
0.0
 11
93.76071037732339
 21
83.1763132813602
 31
0.0
  0
LINE
  5
21B
330
1F
100
AcDbEntity
  8
0
  6
Continuous
 62
     8
370
    25
100
AcDbLine
 10
93.11228045443879
 20
84.29942703976384
 30
0.0
 11
93.47997153648136
 21
84.4188317318787
 31
0.0
  0
LINE
  5
21C
330
1F
100
AcDbEntity
  8
0
  6
Continuous
 62
     8
370
    25
100
AcDbLine
 10
111.0445053587249
 20
88.11835592451435
 30
0.0
 11
332.5959894646076
 21
216.0173052931554
 31
0.0
  0
LINE
  5
21D
330
1F
100
AcDbEntity
  8
0
  6
Continuous
 62
     8
370
    25
100
AcDbLine
 10
111.0445053587249
 20
87.30181497878714
 30
0.0
 11
332.5959894646076
 21
215.2007643474282
 31
0.0
  0
LINE
  5
21E
330
1F
100
AcDbEntity
  8
0
  6
Continuous
 62
     8
370
    25
100
AcDbLine
 10
111.0445053587249
 20
86.48527403305992
 30
0.0
 11
332.5959894646076
 21
214.3842234017009
 31
0.0
  0
LINE
  5
21F
330
1F
100
AcDbEntity
  8
0
  6
Continuous
 62
     8
370
    25
100
AcDbLine
 10
111.0445053587249
 20
85.66873308733271
 30
0.0
 11
332.5959894646076
 21
213.5676824559737
 31
0.0
  0
LINE
  5
220
330
1F
100
AcDbEntity
  8
0
  6
Continuous
 62
     8
370
    25
100
AcDbLine
 10
111.0445053587249
 20
84.85219214160549
 30
0.0
 11
332.5959894646076
 21
212.7511415102465
 31
0.0
  0
LINE
  5
221
330
1F
100
AcDbEntity
  8
0
  6
Continuous
 62
     8
370
    25
100
AcDbLine
 10
111.0445053587249
 20
84.03565119587826
 30
0.0
 11
332.5959894646076
 21
211.9346005645193
 31
0.0
  0
LINE
  5
222
330
1F
100
AcDbEntity
  8
0
  6
Continuous
 62
     8
370
    25
100
AcDbLine
 10
111.0445053587249
 20
83.21911101061394
 30
0.0
 11
332.5959894646076
 21
211.118060379255
 31
0.0
  0
LINE
  5
223
330
1F
100
AcDbEntity
  8
0
  6
Continuous
 62
     8
370
    25
100
AcDbLine
 10
111.0445053587249
 20
82.40257006488672
 30
0.0
 11
332.5959894646076
 21
210.3015194335277
 31
0.0
  0
LINE
  5
224
330
1F
100
AcDbEntity
  8
0
  6
Continuous
 62
     8
370
    25
100
AcDbLine
 10
111.0445053587249
 20
81.58602911915949
 30
0.0
 11
332.5959894646076
 21
209.4849784878005
 31
0.0
  0
LINE
  5
225
330
1F
100
AcDbEntity
  8
0
  6
Continuous
 62
     8
370
    25
100
AcDbLine
 10
111.0445053587249
 20
80.76948817343228
 30
0.0
 11
332.5959894646076
 21
208.6684375420733
 31
0.0
  0
LINE
  5
226
330
1F
100
AcDbEntity
  8
0
  6
Continuous
 62
     8
370
    25
100
AcDbLine
 10
111.0445053587249
 20
79.95294722770505
 30
0.0
 11
332.5959894646076
 21
207.8518965963461
 31
0.0
  0
LINE
  5
227
330
1F
100
AcDbEntity
  8
0
  6
Continuous
 62
     8
370
    25
100
AcDbLine
 10
111.0445053587249
 20
79.1364066622093
 30
0.0
 11
332.5959894646076
 21
207.0353560308503
 31
0.0
  0
LINE
  5
228
330
1F
100
AcDbEntity
  8
0
  6
Continuous
 62
     8
370
    25
100
AcDbLine
 10
111.0445053587249
 20
78.31986571648207
 30
0.0
 11
332.5959894646076
 21
206.2188150851231
 31
0.0
  0
LINE
  5
229
330
1F
100
AcDbEntity
  8
0
  6
Continuous
 62
     8
370
    25
100
AcDbLine
 10
111.0445053587249
 20
77.5033251509863
 30
0.0
 11
332.5959894646075
 21
205.4022745196273
 31
0.0
  0
LINE
  5
22A
330
1F
100
AcDbEntity
  8
0
  6
Continuous
 62
     8
370
    25
100
AcDbLine
 10
111.0445053587249
 20
76.68678420525909
 30
0.0
 11
332.5959894646076
 21
204.5857335739001
 31
0.0
  0
LINE
  5
22B
330
1F
100
AcDbEntity
  8
0
  6
Continuous
 62
     8
370
    25
100
AcDbLine
 10
111.0445053587249
 20
75.87024344964759
 30
0.0
 11
332.5959894646076
 21
203.7691928182886
 31
0.0
  0
LINE
  5
22C
330
1F
100
AcDbEntity
  8
0
  6
Continuous
 62
     8
370
    25
100
AcDbLine
 10
111.0445053587249
 20
75.05370250392036
 30
0.0
 11
332.5959894646076
 21
202.9526518725614
 31
0.0
  0
LINE
  5
22D
330
1F
100
AcDbEntity
  8
0
  6
Continuous
 62
     8
370
    25
100
AcDbLine
 10
111.0445053587249
 20
74.23716174830886
 30
0.0
 11
332.5959894646076
 21
202.1361111169499
 31
0.0
  0
LINE
  5
22E
330
1F
100
AcDbEntity
  8
0
  6
Continuous
 62
     8
370
    25
100
AcDbLine
 10
111.0445053587249
 20
73.42062094516845
 30
0.0
 11
332.5959894646076
 21
201.3195703138095
 31
0.0
  0
LINE
  5
22F
330
1F
100
AcDbEntity
  8
0
  6
Continuous
 62
     8
370
    25
100
AcDbLine
 10
96.76610665568161
 20
82.78882007032998
 30
0.0
 11
105.4726972539409
 21
87.81502783686454
 31
0.0
  0
LINE
  5
230
330
1F
100
AcDbEntity
  8
0
  6
Continuous
 62
     8
370
    25
100
AcDbLine
 10
94.70113103251346
 20
86.75403130704673
 30
0.0
 11
101.2172023996917
 21
90.51567923839117
 31
0.0
  0
LINE
  5
231
330
1F
100
AcDbEntity
  8
0
  6
Continuous
 62
     8
370
    25
100
AcDbLine
 10
96.63898319949412
 20
83.65911558527675
 30
0.0
 11
104.8667013049726
 21
88.40887614607318
 31
0.0
  0
LINE
  5
232
330
1F
100
AcDbEntity
  8
0
  6
Continuous
 62
     8
370
    25
100
AcDbLine
 10
95.99293852481743
 20
85.3393605807569
 30
0.0
 11
103.0883815450507
 21
89.4354726481407
 31
0.0
  0
LINE
  5
233
330
1F
100
AcDbEntity
  8
0
  6
Continuous
 62
     8
370
    25
100
AcDbLine
 10
96.65221599283755
 20
86.51787805814259
 30
0.0
 11
102.397295060206
 21
89.83444160869428
 31
0.0
  0
LINE
  5
234
330
1F
100
AcDbEntity
  8
0
  6
Continuous
 62
     8
370
    25
100
AcDbLine
 10
95.3479363260969
 20
86.19358381066476
 30
0.0
 11
102.026020178951
 21
90.04875955919432
 31
0.0
  0
LINE
  5
235
330
1F
100
AcDbEntity
  8
0
  6
Continuous
 62
     8
370
    25
100
AcDbLine
 10
95.13501637432043
 20
86.40525841747971
 30
0.0
 11
101.7362243754907
 21
90.21605468147608
 31
0.0
  0
LINE
  5
236
330
1F
100
AcDbEntity
  8
0
  6
Continuous
 62
     8
370
    25
100
AcDbLine
 10
95.45054151170766
 20
86.08090263066894
 30
0.0
 11
102.174923677651
 21
89.9628058264352
 31
0.0
  0
LINE
  5
237
330
1F
100
AcDbEntity
  8
0
  6
Continuous
 62
     8
370
    25
100
AcDbLine
 10
94.94697162424399
 20
86.5693616892608
 30
0.0
 11
101.5000689978391
 21
90.35238427913728
 31
0.0
  0
MTEXT
  5
25A
330
1F
100
AcDbEntity
  8
0
100
AcDbMText
 10
108.4480729082662
 20
48.66781115113216
 30
0.0
 40
10.0
 41
216.4857320099256
 71
     1
 72
     5
  1
{\fSegoe UI|b0|i0|c0|p0;MAP-LEDCCRAC/M/A1/PRO}
 73
     1
 44
1.0
1001
ACAD
1000
ACAD_MTEXT_DEFINED_HEIGHT_BEGIN
1070
    46
1040
10.16736467058382
1000
ACAD_MTEXT_DEFINED_HEIGHT_END
  0
ENDSEC
  0
SECTION
  2
OBJECTS
  0
DICTIONARY
  5
C
330
0
100
AcDbDictionary
281
     1
  3
ACAD_DETAILVIEWSTYLE
350
260
  3
ACAD_GROUP
350
D
  3
ACAD_LAYOUT
350
1A
  3
ACAD_MLINESTYLE
350
17
  3
ACAD_PLOTSETTINGS
350
19
  3
ACAD_PLOTSTYLENAME
350
E
  3
ACAD_SCALELIST
350
47
  3
ACAD_SECTIONVIEWSTYLE
350
261
  3
AcDbVariableDictionary
350
25B
  3
APPDATA
350
259
  3
DWGPROPS
350
263
  0
DICTIONARY
  5
260
102
{ACAD_REACTORS
330
C
102
}
330
C
100
AcDbDictionary
281
     1
  0
DICTIONARY
  5
D
102
{ACAD_REACTORS
330
C
102
}
330
C
100
AcDbDictionary
281
     1
  0
DICTIONARY
  5
1A
102
{ACAD_REACTORS
330
C
102
}
330
C
100
AcDbDictionary
281
     1
  3
Layout1
350
1E
  3
Layout2
350
26
  3
Model
350
22
  0
DICTIONARY
  5
17
102
{ACAD_REACTORS
330
C
102
}
330
C
100
AcDbDictionary
281
     1
  3
Standard
350
18
  0
DICTIONARY
  5
19
102
{ACAD_REACTORS
330
C
102
}
330
C
100
AcDbDictionary
281
     1
  0
ACDBDICTIONARYWDFLT
  5
E
102
{ACAD_REACTORS
330
C
102
}
330
C
100
AcDbDictionary
281
     1
  3
Normal
350
F
100
AcDbDictionaryWithDefault
340
F
  0
DICTIONARY
  5
47
102
{ACAD_REACTORS
330
C
102
}
330
C
100
AcDbDictionary
281
     1
  3
A0
350
48
  3
A1
350
49
  3
A2
350
4A
  3
A3
350
4B
  3
A4
350
4C
  3
A5
350
4D
  3
A6
350
4E
  3
A7
350
4F
  3
A8
350
50
  3
A9
350
51
  3
B0
350
52
  3
B1
350
53
  3
B2
350
54
  3
B3
350
55
  3
B4
350
56
  3
B5
350
57
  3
B6
350
58
  3
B7
350
59
  3
B8
350
5A
  3
B9
350
5B
  3
C0
350
5C
  3
C1
350
5D
  3
C2
350
5E
  3
C3
350
5F
  3
C4
350
60
  3
C5
350
61
  3
C6
350
62
  3
C7
350
63
  3
C8
350
64
  3
C9
350
65
  3
D0
350
66
  3
D1
350
67
  3
D2
350
68
  0
DICTIONARY
  5
261
102
{ACAD_REACTORS
330
C
102
}
330
C
100
AcDbDictionary
281
     1
  0
DICTIONARY
  5
25B
102
{ACAD_REACTORS
330
C
102
}
330
C
100
AcDbDictionary
281
     1
  0
DICTIONARY
  5
259
102
{ACAD_REACTORS
330
C
102
}
330
C
100
AcDbDictionary
281
     1
  0
XRECORD
  5
263
102
{ACAD_REACTORS
330
C
102
}
330
C
100
AcDbXrecord
280
     1
  1
DWGPROPS COOKIE
  2

  3

  4

  6

  7

  8
ModuleX
  9

300
=
301
=
302
=
303
=
304
=
305
=
306
=
307
=
308
=
309
=
 40
0.0
 41
2459103.038930011
 42
2459103.057150232
  1

 90
        0
  0
LAYOUT
  5
1E
102
{ACAD_REACTORS
330
1A
102
}
330
1A
100
AcDbPlotSettings
  1

  2
none_device
  4

  6

 40
0.0
 41
0.0
 42
0.0
 43
0.0
 44
0.0
 45
0.0
 46
0.0
 47
0.0
 48
0.0
 49
0.0
140
0.0
141
0.0
142
1.0
143
1.0
 70
   688
 72
     1
 73
     0
 74
     5
  7

 75
    16
147
1.0
148
0.0
149
0.0
100
AcDbLayout
  1
Layout1
 70
     1
 71
     1
 10
0.0
 20
0.0
 11
420.0
 21
297.0
 12
0.0
 22
0.0
 32
0.0
 14
1.000000000000000E+20
 24
1.000000000000000E+20
 34
1.000000000000000E+20
 15
-1.000000000000000E+20
 25
-1.000000000000000E+20
 35
-1.000000000000000E+20
146
0.0
 13
0.0
 23
0.0
 33
0.0
 16
1.0
 26
0.0
 36
0.0
 17
0.0
 27
1.0
 37
0.0
 76
     0
330
1B
  0
LAYOUT
  5
26
102
{ACAD_REACTORS
330
1A
102
}
330
1A
100
AcDbPlotSettings
  1

  2
none_device
  4

  6

 40
0.0
 41
0.0
 42
0.0
 43
0.0
 44
0.0
 45
0.0
 46
0.0
 47
0.0
 48
0.0
 49
0.0
140
0.0
141
0.0
142
1.0
143
1.0
 70
   688
 72
     1
 73
     0
 74
     5
  7

 75
    16
147
1.0
148
0.0
149
0.0
100
AcDbLayout
  1
Layout2
 70
     1
 71
     2
 10
0.0
 20
0.0
 11
0.0
 21
0.0
 12
0.0
 22
0.0
 32
0.0
 14
0.0
 24
0.0
 34
0.0
 15
0.0
 25
0.0
 35
0.0
146
0.0
 13
0.0
 23
0.0
 33
0.0
 16
1.0
 26
0.0
 36
0.0
 17
0.0
 27
1.0
 37
0.0
 76
     0
330
23
  0
LAYOUT
  5
22
102
{ACAD_REACTORS
330
1A
102
}
330
1A
100
AcDbPlotSettings
  1

  2
none_device
  4
Letter_(8.50_x_11.00_Inches)
  6

 40
6.35
 41
6.35
 42
6.35000508
 43
6.35000508
 44
215.9
 45
279.4
 46
0.0
 47
0.0
 48
0.0
 49
0.0
140
0.0
141
0.0
142
1.0
143
1.0
 70
  1712
 72
     1
 73
     0
 74
     0
  7

 75
     0
147
1.0
148
0.0
149
0.0
100
AcDbLayout
  1
Model
 70
     1
 71
     0
 10
0.0
 20
0.0
 11
420.0
 21
297.0
 12
0.0
 22
0.0
 32
0.0
 14
91.24270804707692
 24
36.78632596548395
 34
0.0
 15
334.1386504152588
 25
239.437833891421
 35
0.0
146
0.0
 13
0.0
 23
0.0
 33
0.0
 16
1.0
 26
0.0
 36
0.0
 17
0.0
 27
1.0
 37
0.0
 76
     0
330
1F
331
29
  0
MLINESTYLE
  5
18
102
{ACAD_REACTORS
330
17
102
}
330
17
100
AcDbMlineStyle
  2
Standard
 70
     0
  3

 62
   256
 51
90.0
 52
90.0
 71
     2
 49
0.5
 62
   256
  6
BYLAYER
 49
-0.5
 62
   256
  6
BYLAYER
  0
ACDBPLACEHOLDER
  5
F
102
{ACAD_REACTORS
330
E
102
}
330
E
  0
SCALE
  5
48
102
{ACAD_REACTORS
330
47
102
}
330
47
100
AcDbScale
 70
     0
300
1:1
140
1.0
141
1.0
290
     1
  0
SCALE
  5
49
102
{ACAD_REACTORS
330
47
102
}
330
47
100
AcDbScale
 70
     0
300
1:2
140
1.0
141
2.0
290
     0
  0
SCALE
  5
4A
102
{ACAD_REACTORS
330
47
102
}
330
47
100
AcDbScale
 70
     0
300
1:4
140
1.0
141
4.0
290
     0
  0
SCALE
  5
4B
102
{ACAD_REACTORS
330
47
102
}
330
47
100
AcDbScale
 70
     0
300
1:5
140
1.0
141
5.0
290
     0
  0
SCALE
  5
4C
102
{ACAD_REACTORS
330
47
102
}
330
47
100
AcDbScale
 70
     0
300
1:8
140
1.0
141
8.0
290
     0
  0
SCALE
  5
4D
102
{ACAD_REACTORS
330
47
102
}
330
47
100
AcDbScale
 70
     0
300
1:10
140
1.0
141
10.0
290
     0
  0
SCALE
  5
4E
102
{ACAD_REACTORS
330
47
102
}
330
47
100
AcDbScale
 70
     0
300
1:16
140
1.0
141
16.0
290
     0
  0
SCALE
  5
4F
102
{ACAD_REACTORS
330
47
102
}
330
47
100
AcDbScale
 70
     0
300
1:20
140
1.0
141
20.0
290
     0
  0
SCALE
  5
50
102
{ACAD_REACTORS
330
47
102
}
330
47
100
AcDbScale
 70
     0
300
1:30
140
1.0
141
30.0
290
     0
  0
SCALE
  5
51
102
{ACAD_REACTORS
330
47
102
}
330
47
100
AcDbScale
 70
     0
300
1:40
140
1.0
141
40.0
290
     0
  0
SCALE
  5
52
102
{ACAD_REACTORS
330
47
102
}
330
47
100
AcDbScale
 70
     0
300
1:50
140
1.0
141
50.0
290
     0
  0
SCALE
  5
53
102
{ACAD_REACTORS
330
47
102
}
330
47
100
AcDbScale
 70
     0
300
1:100
140
1.0
141
100.0
290
     0
  0
SCALE
  5
54
102
{ACAD_REACTORS
330
47
102
}
330
47
100
AcDbScale
 70
     0
300
2:1
140
2.0
141
1.0
290
     0
  0
SCALE
  5
55
102
{ACAD_REACTORS
330
47
102
}
330
47
100
AcDbScale
 70
     0
300
4:1
140
4.0
141
1.0
290
     0
  0
SCALE
  5
56
102
{ACAD_REACTORS
330
47
102
}
330
47
100
AcDbScale
 70
     0
300
8:1
140
8.0
141
1.0
290
     0
  0
SCALE
  5
57
102
{ACAD_REACTORS
330
47
102
}
330
47
100
AcDbScale
 70
     0
300
10:1
140
10.0
141
1.0
290
     0
  0
SCALE
  5
58
102
{ACAD_REACTORS
330
47
102
}
330
47
100
AcDbScale
 70
     0
300
100:1
140
100.0
141
1.0
290
     0
  0
SCALE
  5
59
102
{ACAD_REACTORS
330
47
102
}
330
47
100
AcDbScale
 70
     0
300
1/128" = 1'-0"
140
0.0078125
141
12.0
290
     0
  0
SCALE
  5
5A
102
{ACAD_REACTORS
330
47
102
}
330
47
100
AcDbScale
 70
     0
300
1/64" = 1'-0"
140
0.015625
141
12.0
290
     0
  0
SCALE
  5
5B
102
{ACAD_REACTORS
330
47
102
}
330
47
100
AcDbScale
 70
     0
300
1/32" = 1'-0"
140
0.03125
141
12.0
290
     0
  0
SCALE
  5
5C
102
{ACAD_REACTORS
330
47
102
}
330
47
100
AcDbScale
 70
     0
300
1/16" = 1'-0"
140
0.0625
141
12.0
290
     0
  0
SCALE
  5
5D
102
{ACAD_REACTORS
330
47
102
}
330
47
100
AcDbScale
 70
     0
300
3/32" = 1'-0"
140
0.09375
141
12.0
290
     0
  0
SCALE
  5
5E
102
{ACAD_REACTORS
330
47
102
}
330
47
100
AcDbScale
 70
     0
300
1/8" = 1'-0"
140
0.125
141
12.0
290
     0
  0
SCALE
  5
5F
102
{ACAD_REACTORS
330
47
102
}
330
47
100
AcDbScale
 70
     0
300
3/16" = 1'-0"
140
0.1875
141
12.0
290
     0
  0
SCALE
  5
60
102
{ACAD_REACTORS
330
47
102
}
330
47
100
AcDbScale
 70
     0
300
1/4" = 1'-0"
140
0.25
141
12.0
290
     0
  0
SCALE
  5
61
102
{ACAD_REACTORS
330
47
102
}
330
47
100
AcDbScale
 70
     0
300
3/8" = 1'-0"
140
0.375
141
12.0
290
     0
  0
SCALE
  5
62
102
{ACAD_REACTORS
330
47
102
}
330
47
100
AcDbScale
 70
     0
300
1/2" = 1'-0"
140
0.5
141
12.0
290
     0
  0
SCALE
  5
63
102
{ACAD_REACTORS
330
47
102
}
330
47
100
AcDbScale
 70
     0
300
3/4" = 1'-0"
140
0.75
141
12.0
290
     0
  0
SCALE
  5
64
102
{ACAD_REACTORS
330
47
102
}
330
47
100
AcDbScale
 70
     0
300
1" = 1'-0"
140
1.0
141
12.0
290
     0
  0
SCALE
  5
65
102
{ACAD_REACTORS
330
47
102
}
330
47
100
AcDbScale
 70
     0
300
1-1/2" = 1'-0"
140
1.5
141
12.0
290
     0
  0
SCALE
  5
66
102
{ACAD_REACTORS
330
47
102
}
330
47
100
AcDbScale
 70
     0
300
3" = 1'-0"
140
3.0
141
12.0
290
     0
  0
SCALE
  5
67
102
{ACAD_REACTORS
330
47
102
}
330
47
100
AcDbScale
 70
     0
300
6" = 1'-0"
140
6.0
141
12.0
290
     0
  0
SCALE
  5
68
102
{ACAD_REACTORS
330
47
102
}
330
47
100
AcDbScale
 70
     0
300
1'-0" = 1'-0"
140
12.0
141
12.0
290
     0
  0
ENDSEC
  0
EOF
