  0
SECTION
  2
HEADER
  9
$ACADVER
  1
AC1015
  9
$ACADMAINTVER
 70
     6
  9
$DWGCODEPAGE
  3
ANSI_932
  9
$INSBASE
 10
0.0
 20
0.0
 30
0.0
  9
$EXTMIN
 10
94.24779400983488
 20
30.29300478604851
 30
0.0
  9
$EXTMAX
 10
337.1437363780341
 20
228.6885634005682
 30
0.0
  9
$LIMMIN
 10
0.0
 20
0.0
  9
$LIMMAX
 10
420.0
 20
297.0
  9
$ORTHOMODE
 70
     0
  9
$REGENMODE
 70
     1
  9
$FILLMODE
 70
     1
  9
$QTEXTMODE
 70
     0
  9
$MIRRTEXT
 70
     1
  9
$LTSCALE
 40
1.0
  9
$ATTMODE
 70
     1
  9
$TEXTSIZE
 40
3.5
  9
$TRACEWID
 40
1.0
  9
$TEXTSTYLE
  7
Standard
  9
$CLAYER
  8
0
  9
$CELTYPE
  6
ByLayer
  9
$CECOLOR
 62
   256
  9
$CELTSCALE
 40
1.0
  9
$DISPSILH
 70
     0
  9
$DIMSCALE
 40
1.0
  9
$DIMASZ
 40
3.302
  9
$DIMEXO
 40
1.0
  9
$DIMDLI
 40
3.75
  9
$DIMRND
 40
0.0
  9
$DIMDLE
 40
0.0
  9
$DIMEXE
 40
1.0
  9
$DIMTP
 40
0.0
  9
$DIMTM
 40
0.0
  9
$DIMTXT
 40
3.5
  9
$DIMCEN
 40
2.5
  9
$DIMTSZ
 40
0.0
  9
$DIMTOL
 70
     0
  9
$DIMLIM
 70
     0
  9
$DIMTIH
 70
     1
  9
$DIMTOH
 70
     1
  9
$DIMSE1
 70
     0
  9
$DIMSE2
 70
     0
  9
$DIMTAD
 70
     1
  9
$DIMZIN
 70
     0
  9
$DIMBLK
  1

  9
$DIMASO
 70
     1
  9
$DIMSHO
 70
     1
  9
$DIMPOST
  1

  9
$DIMAPOST
  1

  9
$DIMALT
 70
     0
  9
$DIMALTD
 70
     3
  9
$DIMALTF
 40
0.0393700787401575
  9
$DIMLFAC
 40
5.0
  9
$DIMTOFL
 70
     1
  9
$DIMTVP
 40
0.0
  9
$DIMTIX
 70
     0
  9
$DIMSOXD
 70
     0
  9
$DIMSAH
 70
     0
  9
$DIMBLK1
  1

  9
$DIMBLK2
  1

  9
$DIMSTYLE
  2
ISO-25
  9
$DIMCLRD
 70
     0
  9
$DIMCLRE
 70
     0
  9
$DIMCLRT
 70
     0
  9
$DIMTFAC
 40
1.0
  9
$DIMGAP
 40
1.524
  9
$DIMJUST
 70
     0
  9
$DIMSD1
 70
     0
  9
$DIMSD2
 70
     0
  9
$DIMTOLJ
 70
     0
  9
$DIMTZIN
 70
     0
  9
$DIMALTZ
 70
     0
  9
$DIMALTTZ
 70
     0
  9
$DIMUPT
 70
     0
  9
$DIMDEC
 70
     2
  9
$DIMTDEC
 70
     2
  9
$DIMALTU
 70
     2
  9
$DIMALTTD
 70
     3
  9
$DIMTXSTY
  7
Standard
  9
$DIMAUNIT
 70
     0
  9
$DIMADEC
 70
     2
  9
$DIMALTRND
 40
0.0
  9
$DIMAZIN
 70
     0
  9
$DIMDSEP
 70
    44
  9
$DIMATFIT
 70
     3
  9
$DIMFRAC
 70
     0
  9
$DIMLDRBLK
  1

  9
$DIMLUNIT
 70
     2
  9
$DIMLWD
 70
    -2
  9
$DIMLWE
 70
    -2
  9
$DIMTMOVE
 70
     0
  9
$LUNITS
 70
     2
  9
$LUPREC
 70
     2
  9
$SKETCHINC
 40
1.0
  9
$FILLETRAD
 40
10.0
  9
$AUNITS
 70
     0
  9
$AUPREC
 70
     2
  9
$MENU
  1
.
  9
$ELEVATION
 40
0.0
  9
$PELEVATION
 40
0.0
  9
$THICKNESS
 40
0.0
  9
$LIMCHECK
 70
     0
  9
$CHAMFERA
 40
0.0
  9
$CHAMFERB
 40
0.0
  9
$CHAMFERC
 40
0.0
  9
$CHAMFERD
 40
0.0
  9
$SKPOLY
 70
     0
  9
$TDCREATE
 40
2459103.411786343
  9
$TDUCREATE
 40
2459103.036786343
  9
$TDUPDATE
 40
2459103.432383958
  9
$TDUUPDATE
 40
2459103.057383958
  9
$TDINDWG
 40
0.0010883681
  9
$TDUSRTIMER
 40
0.0000905671
  9
$USRTIMER
 70
     1
  9
$ANGBASE
 50
0.0
  9
$ANGDIR
 70
     0
  9
$PDMODE
 70
     0
  9
$PDSIZE
 40
-1.0
  9
$PLINEWID
 40
0.0
  9
$SPLFRAME
 70
     0
  9
$SPLINETYPE
 70
     6
  9
$SPLINESEGS
 70
     8
  9
$HANDSEED
  5
23D
  9
$SURFTAB1
 70
     6
  9
$SURFTAB2
 70
     6
  9
$SURFTYPE
 70
     6
  9
$SURFU
 70
     6
  9
$SURFV
 70
     6
  9
$UCSBASE
  2

  9
$UCSNAME
  2

  9
$UCSORG
 10
0.0
 20
0.0
 30
0.0
  9
$UCSXDIR
 10
1.0
 20
0.0
 30
0.0
  9
$UCSYDIR
 10
0.0
 20
1.0
 30
0.0
  9
$UCSORTHOREF
  2

  9
$UCSORTHOVIEW
 70
     0
  9
$UCSORGTOP
 10
0.0
 20
0.0
 30
0.0
  9
$UCSORGBOTTOM
 10
0.0
 20
0.0
 30
0.0
  9
$UCSORGLEFT
 10
0.0
 20
0.0
 30
0.0
  9
$UCSORGRIGHT
 10
0.0
 20
0.0
 30
0.0
  9
$UCSORGFRONT
 10
0.0
 20
0.0
 30
0.0
  9
$UCSORGBACK
 10
0.0
 20
0.0
 30
0.0
  9
$PUCSBASE
  2

  9
$PUCSNAME
  2

  9
$PUCSORG
 10
0.0
 20
0.0
 30
0.0
  9
$PUCSXDIR
 10
1.0
 20
0.0
 30
0.0
  9
$PUCSYDIR
 10
0.0
 20
1.0
 30
0.0
  9
$PUCSORTHOREF
  2

  9
$PUCSORTHOVIEW
 70
     0
  9
$PUCSORGTOP
 10
0.0
 20
0.0
 30
0.0
  9
$PUCSORGBOTTOM
 10
0.0
 20
0.0
 30
0.0
  9
$PUCSORGLEFT
 10
0.0
 20
0.0
 30
0.0
  9
$PUCSORGRIGHT
 10
0.0
 20
0.0
 30
0.0
  9
$PUCSORGFRONT
 10
0.0
 20
0.0
 30
0.0
  9
$PUCSORGBACK
 10
0.0
 20
0.0
 30
0.0
  9
$USERI1
 70
     0
  9
$USERI2
 70
     0
  9
$USERI3
 70
     0
  9
$USERI4
 70
     0
  9
$USERI5
 70
     0
  9
$USERR1
 40
0.0
  9
$USERR2
 40
0.0
  9
$USERR3
 40
0.0
  9
$USERR4
 40
0.0
  9
$USERR5
 40
0.0
  9
$WORLDVIEW
 70
     1
  9
$SHADEDGE
 70
     3
  9
$SHADEDIF
 70
    70
  9
$TILEMODE
 70
     1
  9
$MAXACTVP
 70
    64
  9
$PINSBASE
 10
0.0
 20
0.0
 30
0.0
  9
$PLIMCHECK
 70
     0
  9
$PEXTMIN
 10
1.000000000000000E+20
 20
1.000000000000000E+20
 30
1.000000000000000E+20
  9
$PEXTMAX
 10
-1.000000000000000E+20
 20
-1.000000000000000E+20
 30
-1.000000000000000E+20
  9
$PLIMMIN
 10
0.0
 20
0.0
  9
$PLIMMAX
 10
0.0
 20
0.0
  9
$UNITMODE
 70
     0
  9
$VISRETAIN
 70
     1
  9
$PLINEGEN
 70
     0
  9
$PSLTSCALE
 70
     1
  9
$TREEDEPTH
 70
  3020
  9
$CMLSTYLE
  2
Standard
  9
$CMLJUST
 70
     0
  9
$CMLSCALE
 40
20.0
  9
$PROXYGRAPHICS
 70
     1
  9
$MEASUREMENT
 70
     1
  9
$CELWEIGHT
370
    -1
  9
$ENDCAPS
280
     0
  9
$JOINSTYLE
280
     0
  9
$LWDISPLAY
290
     1
  9
$INSUNITS
 70
     4
  9
$HYPERLINKBASE
  1

  9
$STYLESHEET
  1

  9
$XEDIT
290
     1
  9
$CEPSNTYPE
380
     0
  9
$PSTYLEMODE
290
     1
  9
$FINGERPRINTGUID
  2
{2D1832AA-678B-44AF-8775-5E7170E37987}
  9
$VERSIONGUID
  2
{FAEB1C32-E019-11D5-929B-00C0DF256EC4}
  9
$EXTNAMES
290
     1
  9
$PSVPSCALE
 40
0.0
  9
$OLESTARTUP
290
     0
  0
ENDSEC
  0
SECTION
  2
CLASSES
  0
CLASS
  1
ACDBDICTIONARYWDFLT
  2
AcDbDictionaryWithDefault
  3
ObjectDBX Classes
 90
        0
280
     0
281
     0
  0
CLASS
  1
VISUALSTYLE
  2
AcDbVisualStyle
  3
ObjectDBX Classes
 90
     4095
280
     0
281
     0
  0
CLASS
  1
MATERIAL
  2
AcDbMaterial
  3
ObjectDBX Classes
 90
     1153
280
     0
281
     0
  0
CLASS
  1
SCALE
  2
AcDbScale
  3
ObjectDBX Classes
 90
     1153
280
     0
281
     0
  0
CLASS
  1
TABLESTYLE
  2
AcDbTableStyle
  3
ObjectDBX Classes
 90
     4095
280
     0
281
     0
  0
CLASS
  1
MLEADERSTYLE
  2
AcDbMLeaderStyle
  3
ACDB_MLEADERSTYLE_CLASS
 90
     4095
280
     0
281
     0
  0
CLASS
  1
SUN
  2
AcDbSun
  3
SCENEOE
 90
     1153
280
     0
281
     0
  0
CLASS
  1
ACDBPLACEHOLDER
  2
AcDbPlaceHolder
  3
ObjectDBX Classes
 90
        0
280
     0
281
     0
  0
CLASS
  1
LAYOUT
  2
AcDbLayout
  3
ObjectDBX Classes
 90
        0
280
     0
281
     0
  0
CLASS
  1
DICTIONARYVAR
  2
AcDbDictionaryVar
  3
ObjectDBX Classes
 90
        0
280
     0
281
     0
  0
ENDSEC
  0
SECTION
  2
TABLES
  0
TABLE
  2
VPORT
  5
8
330
0
100
AcDbSymbolTable
 70
     1
  0
VPORT
  5
29
330
8
100
AcDbSymbolTableRecord
100
AcDbViewportTableRecord
  2
*Active
 70
     0
 10
0.0
 20
0.0
 11
1.0
 21
1.0
 12
-17.55303352456676
 22
105.5080817831111
 13
0.0
 23
0.0
 14
10.0
 24
10.0
 15
10.0
 25
10.0
 16
0.0
 26
0.0
 36
1.0
 17
0.0
 27
0.0
 37
0.0
 40
580.078125
 41
1.905707196029777
 42
50.0
 43
0.0
 44
0.0
 50
0.0
 51
0.0
 71
    16
 72
  2000
 73
     1
 74
     3
 75
     0
 76
     0
 77
     0
 78
     0
281
     0
 65
     1
110
0.0
120
0.0
130
0.0
111
1.0
121
0.0
131
0.0
112
0.0
122
1.0
132
0.0
 79
     0
146
0.0
  0
ENDTAB
  0
TABLE
  2
LTYPE
  5
5
330
0
100
AcDbSymbolTable
 70
     6
  0
LTYPE
  5
14
330
5
100
AcDbSymbolTableRecord
100
AcDbLinetypeTableRecord
  2
ByBlock
 70
     0
  3

 72
    65
 73
     0
 40
0.0
  0
LTYPE
  5
15
330
5
100
AcDbSymbolTableRecord
100
AcDbLinetypeTableRecord
  2
ByLayer
 70
     0
  3

 72
    65
 73
     0
 40
0.0
  0
LTYPE
  5
16
330
5
100
AcDbSymbolTableRecord
100
AcDbLinetypeTableRecord
  2
Continuous
 70
     0
  3
Solid line
 72
    65
 73
     0
 40
0.0
  0
LTYPE
  5
6E
330
5
100
AcDbSymbolTableRecord
100
AcDbLinetypeTableRecord
  2
HIDDEN
 70
     0
  3
Hidden __ __ __ __ __ __ __ __ __ __ __ __ __ __
 72
    65
 73
     2
 40
1.905
 49
1.27
 74
     0
 49
-0.635
 74
     0
  0
LTYPE
  5
6F
330
5
100
AcDbSymbolTableRecord
100
AcDbLinetypeTableRecord
  2
PHANTOM
 70
     0
  3
Phantom ______  __  __  ______  __  __  ______
 72
    65
 73
     6
 40
12.7
 49
6.35
 74
     0
 49
-1.27
 74
     0
 49
1.27
 74
     0
 49
-1.27
 74
     0
 49
1.27
 74
     0
 49
-1.27
 74
     0
  0
LTYPE
  5
70
330
5
100
AcDbSymbolTableRecord
100
AcDbLinetypeTableRecord
  2
CENTER
 70
     0
  3
Center ____ _ ____ _ ____ _ ____ _ ____ _ ____
 72
    65
 73
     4
 40
10.16
 49
6.35
 74
     0
 49
-1.27
 74
     0
 49
1.27
 74
     0
 49
-1.27
 74
     0
  0
LTYPE
  5
71
330
5
100
AcDbSymbolTableRecord
100
AcDbLinetypeTableRecord
  2
CENTERX2
 70
     0
  3
Center (2x) ________  __  ________  __  _____
 72
    65
 73
     4
 40
20.32
 49
12.7
 74
     0
 49
-2.54
 74
     0
 49
2.54
 74
     0
 49
-2.54
 74
     0
  0
LTYPE
  5
72
330
5
100
AcDbSymbolTableRecord
100
AcDbLinetypeTableRecord
  2
DOT2
 70
     0
  3
Dot (.5x) ........................................
 72
    65
 73
     2
 40
0.635
 49
0.0
 74
     0
 49
-0.635
 74
     0
  0
ENDTAB
  0
TABLE
  2
LAYER
  5
2
330
0
100
AcDbSymbolTable
 70
    13
  0
LAYER
  5
10
330
2
100
AcDbSymbolTableRecord
100
AcDbLayerTableRecord
  2
0
 70
     0
 62
     7
  6
Continuous
370
    -3
390
F
  0
LAYER
  5
73
330
2
100
AcDbSymbolTableRecord
100
AcDbLayerTableRecord
  2
SLD-0
 70
     0
 62
   179
  6
Continuous
370
    -3
390
F
  0
LAYER
  5
74
330
2
100
AcDbSymbolTableRecord
100
AcDbLayerTableRecord
  2
中心線
 70
     0
 62
     1
  6
CENTER
370
    -3
390
F
  0
LAYER
  5
75
330
2
100
AcDbSymbolTableRecord
100
AcDbLayerTableRecord
  2
破線
 70
     0
 62
     3
  6
HIDDEN
370
    -3
390
F
  0
LAYER
  5
76
330
2
100
AcDbSymbolTableRecord
100
AcDbLayerTableRecord
  2
寸法線
 70
     0
 62
     7
  6
Continuous
370
    -3
390
F
  0
LAYER
  5
77
330
2
100
AcDbSymbolTableRecord
100
AcDbLayerTableRecord
  2
実線
 70
     0
 62
     4
  6
Continuous
370
    25
390
F
  0
LAYER
  5
78
330
2
100
AcDbSymbolTableRecord
100
AcDbLayerTableRecord
  2
ﾊｯﾁﾝｸﾞ
 70
     0
 62
     8
  6
Continuous
370
    -3
390
F
  0
LAYER
  5
79
330
2
100
AcDbSymbolTableRecord
100
AcDbLayerTableRecord
  2
輪郭線
 70
     0
 62
     6
  6
Continuous
370
    25
390
F
  0
LAYER
  5
7A
330
2
100
AcDbSymbolTableRecord
100
AcDbLayerTableRecord
  2
文字
 70
     0
 62
   179
  6
Continuous
370
    -3
390
F
  0
LAYER
  5
7B
330
2
100
AcDbSymbolTableRecord
100
AcDbLayerTableRecord
  2
想像線
 70
     0
 62
     3
  6
PHANTOM
370
    -3
390
F
  0
LAYER
  5
7C
330
2
100
AcDbSymbolTableRecord
100
AcDbLayerTableRecord
  2
姿図
 70
     0
 62
     8
  6
Continuous
370
    -3
390
F
  0
LAYER
  5
7D
330
2
100
AcDbSymbolTableRecord
100
AcDbLayerTableRecord
  2
注記
 70
     0
 62
     7
  6
Continuous
370
    25
390
F
  0
LAYER
  5
7E
330
2
100
AcDbSymbolTableRecord
100
AcDbLayerTableRecord
  2
ロゴ：MODULEX
 70
     0
 62
     7
  6
Continuous
370
    -3
390
F
  0
ENDTAB
  0
TABLE
  2
STYLE
  5
3
330
0
100
AcDbSymbolTable
 70
     1
  0
STYLE
  5
11
330
3
100
AcDbSymbolTableRecord
100
AcDbTextStyleTableRecord
  2
Standard
 70
     0
 40
0.0
 41
1.0
 50
0.0
 71
     0
 42
3.5
  3
txt
  4
bigfont
  0
ENDTAB
  0
TABLE
  2
VIEW
  5
6
330
0
100
AcDbSymbolTable
 70
     0
  0
ENDTAB
  0
TABLE
  2
UCS
  5
7
330
0
100
AcDbSymbolTable
 70
     0
  0
ENDTAB
  0
TABLE
  2
APPID
  5
9
330
0
100
AcDbSymbolTable
 70
     1
  0
APPID
  5
12
330
9
100
AcDbSymbolTableRecord
100
AcDbRegAppTableRecord
  2
ACAD
 70
     0
  0
ENDTAB
  0
TABLE
  2
DIMSTYLE
  5
A
330
0
100
AcDbSymbolTable
 70
     1
100
AcDbDimStyleTable
  0
DIMSTYLE
105
27
330
A
100
AcDbSymbolTableRecord
100
AcDbDimStyleTableRecord
  2
ISO-25
 70
     0
 41
2.5
 42
0.625
 43
3.75
 44
1.25
 73
     0
 74
     0
 77
     1
 78
     8
140
2.5
141
2.5
143
0.03937007874016
147
0.625
171
     3
172
     1
178
     0
271
     2
272
     2
274
     3
278
    44
283
     0
284
     8
340
11
  0
ENDTAB
  0
TABLE
  2
BLOCK_RECORD
  5
1
330
0
100
AcDbSymbolTable
 70
     1
  0
BLOCK_RECORD
  5
1F
330
1
100
AcDbSymbolTableRecord
100
AcDbBlockTableRecord
  2
*Model_Space
340
22
  0
BLOCK_RECORD
  5
1B
330
1
100
AcDbSymbolTableRecord
100
AcDbBlockTableRecord
  2
*Paper_Space
340
1E
  0
BLOCK_RECORD
  5
23
330
1
100
AcDbSymbolTableRecord
100
AcDbBlockTableRecord
  2
*Paper_Space0
340
26
  0
ENDTAB
  0
ENDSEC
  0
SECTION
  2
BLOCKS
  0
BLOCK
  5
20
330
1F
100
AcDbEntity
  8
0
100
AcDbBlockBegin
  2
*Model_Space
 70
     0
 10
0.0
 20
0.0
 30
0.0
  3
*Model_Space
  1

  0
ENDBLK
  5
21
330
1F
100
AcDbEntity
  8
0
100
AcDbBlockEnd
  0
BLOCK
  5
1C
330
1B
100
AcDbEntity
 67
     1
  8
0
100
AcDbBlockBegin
  2
*Paper_Space
 70
     0
 10
0.0
 20
0.0
 30
0.0
  3
*Paper_Space
  1

  0
ENDBLK
  5
1D
330
1B
100
AcDbEntity
 67
     1
  8
0
100
AcDbBlockEnd
  0
BLOCK
  5
24
330
23
100
AcDbEntity
  8
0
100
AcDbBlockBegin
  2
*Paper_Space0
 70
     0
 10
0.0
 20
0.0
 30
0.0
  3
*Paper_Space0
  1

  0
ENDBLK
  5
25
330
23
100
AcDbEntity
  8
0
100
AcDbBlockEnd
  0
ENDSEC
  0
SECTION
  2
ENTITIES
  0
LINE
  5
7F
330
1F
100
AcDbEntity
  8
0
  6
Continuous
 62
     7
370
    25
100
AcDbLine
 10
335.7126406872337
 20
190.0685884522199
 30
0.0
 11
337.0382110155994
 21
190.8338239142906
 31
0.0
  0
LINE
  5
80
330
1F
100
AcDbEntity
  8
0
  6
Continuous
 62
     7
370
    25
100
AcDbLine
 10
102.2845291325626
 20
87.47015182010314
 30
0.0
 11
102.1431053823843
 21
87.38850962692814
 31
0.0
  0
LINE
  5
81
330
1F
100
AcDbEntity
  8
0
  6
Continuous
 62
     7
370
    25
100
AcDbLine
 10
104.7428940554722
 20
82.88505668304744
 30
0.0
 11
104.8843178056505
 21
82.96669887622244
 31
0.0
  0
LINE
  5
82
330
1F
100
AcDbEntity
  8
0
  6
Continuous
 62
     7
370
    25
100
AcDbLine
 10
104.0575538859476
 20
84.99430362998126
 30
0.0
 11
103.6862830794367
 21
84.6599615888193
 31
0.0
  0
LINE
  5
83
330
1F
100
AcDbEntity
  8
0
  6
Continuous
 62
     7
370
    25
100
AcDbLine
 10
103.1516691980716
 20
85.58586750943833
 30
0.0
 11
103.6268509398959
 21
85.74018093921916
 31
0.0
  0
LINE
  5
84
330
1F
100
AcDbEntity
  8
0
  6
Continuous
 62
     7
370
    25
100
AcDbLine
 10
112.5318141594322
 20
61.2290397246254
 30
0.0
 11
113.946030587791
 21
62.04544949094645
 31
0.0
  0
LINE
  5
85
330
1F
100
AcDbEntity
  8
0
  6
Continuous
 62
     7
370
    25
100
AcDbLine
 10
95.78249258362047
 20
90.8438693545342
 30
0.0
 11
95.41484562405995
 21
90.6316312823943
 31
0.0
  0
LINE
  5
86
330
1F
100
AcDbEntity
  8
0
  6
Continuous
 62
     7
370
    25
100
AcDbLine
 10
95.31125591440977
 20
89.75508945959743
 30
0.0
 11
94.35418527842438
 21
89.20258434184517
 31
0.0
  0
LINE
  5
87
330
1F
100
AcDbEntity
  8
0
  6
Continuous
 62
     7
370
    25
100
AcDbLine
 10
320.9992271562342
 20
228.1261624636054
 30
0.0
 11
320.4034961874661
 21
227.7650601186063
 31
0.0
  0
LINE
  5
88
330
1F
100
AcDbEntity
  8
0
  6
Continuous
 62
     7
370
    25
100
AcDbLine
 10
334.2899916787683
 20
210.8739199899447
 30
0.0
 11
335.7214420522648
 21
211.6599728397682
 31
0.0
  0
LWPOLYLINE
  5
89
330
1F
100
AcDbEntity
  8
0
  6
Continuous
 62
     7
370
    25
100
AcDbPolyline
 90
        3
 70
   128
 43
0.0
 10
98.05281028691172
 20
99.3807960081899
 10
97.33709357892397
 20
98.98777220040498
 10
96.6213979443605
 20
98.59476359990049
  0
LINE
  5
8A
330
1F
100
AcDbEntity
  8
0
  6
Continuous
 62
     7
370
    25
100
AcDbLine
 10
111.2767685971974
 20
82.09082098756049
 30
0.0
 11
112.6733169349515
 21
82.93733772304957
 31
0.0
  0
LINE
  5
8B
330
1F
100
AcDbEntity
  8
0
  6
Continuous
 62
     7
370
    25
100
AcDbLine
 10
109.3020122545338
 20
79.96968548597646
 30
0.0
 11
109.1605885043555
 21
79.88804329280148
 31
0.0
  0
LINE
  5
8C
330
1F
100
AcDbEntity
  8
0
  6
Continuous
 62
     7
370
    25
100
AcDbLine
 10
111.1604261731501
 20
76.42384718505687
 30
0.0
 11
111.3018499233284
 21
76.50548937823184
 31
0.0
  0
LINE
  5
8D
330
1F
100
AcDbEntity
  8
0
  6
Continuous
 62
     7
370
    25
100
AcDbLine
 10
110.7750610736023
 20
78.01346596340898
 30
0.0
 11
110.4037908021588
 21
77.6791236133592
 31
0.0
  0
LINE
  5
8E
330
1F
100
AcDbEntity
  8
0
  6
Continuous
 62
     7
370
    25
100
AcDbLine
 10
109.8691764680444
 20
78.60502979534486
 30
0.0
 11
110.3443584774024
 21
78.75934307068172
 31
0.0
  0
LINE
  5
8F
330
1F
100
AcDbEntity
  8
0
  6
Continuous
 62
     7
370
    25
100
AcDbLine
 10
95.44271917890481
 20
74.66087001881066
 30
0.0
 11
95.30129542872649
 21
74.57922782563568
 31
0.0
  0
LINE
  5
90
330
1F
100
AcDbEntity
  8
0
  6
Continuous
 62
     7
370
    25
100
AcDbLine
 10
97.30113309752105
 20
71.11503219318038
 30
0.0
 11
97.44255684769935
 21
71.19667438635535
 31
0.0
  0
LINE
  5
91
330
1F
100
AcDbEntity
  8
0
  6
Continuous
 62
     7
370
    25
100
AcDbLine
 10
96.91576865651776
 20
72.70464973584208
 30
0.0
 11
96.5444977265298
 21
72.37030833630912
 31
0.0
  0
LINE
  5
92
330
1F
100
AcDbEntity
  8
0
  6
Continuous
 62
     7
370
    25
100
AcDbLine
 10
96.00988405095985
 20
73.29621413812514
 30
0.0
 11
96.48506540177338
 21
73.45052817386309
 31
0.0
  0
LINE
  5
93
330
1F
100
AcDbEntity
  8
0
  6
Continuous
 62
     7
370
    25
100
AcDbLine
 10
100.3064964486539
 20
75.83945958484593
 30
0.0
 11
99.46522362040764
 21
75.6693604821222
 31
0.0
  0
LINE
  5
94
330
1F
100
AcDbEntity
  8
0
  6
Continuous
 62
     7
370
    25
100
AcDbLine
 10
319.6336503313266
 20
227.504723691175
 30
0.0
 11
97.95568353306287
 21
99.53275741843088
 31
0.0
  0
LINE
  5
95
330
1F
100
AcDbEntity
  8
0
  6
Continuous
 62
     7
370
    25
100
AcDbLine
 10
113.1059747497955
 20
83.31268996704799
 30
0.0
 11
334.3382807719051
 21
211.0273817499598
 31
0.0
  0
LINE
  5
96
330
1F
100
AcDbEntity
  8
0
  6
Continuous
 62
     7
370
    25
100
AcDbLine
 10
114.0495847360378
 20
79.1231051966891
 30
0.0
 11
335.6447119035534
 21
207.0472491685286
 31
0.0
  0
LINE
  5
97
330
1F
100
AcDbEntity
  8
0
  6
Continuous
 62
     7
370
    25
100
AcDbLine
 10
114.0495847360378
 20
78.30656425096187
 30
0.0
 11
335.6447119035534
 21
206.2307082228014
 31
0.0
  0
LINE
  5
98
330
1F
100
AcDbEntity
  8
0
  6
Continuous
 62
     7
370
    25
100
AcDbLine
 10
114.0495847360378
 20
77.5716772477148
 30
0.0
 11
335.6447119035534
 21
205.4958212195543
 31
0.0
  0
LINE
  5
99
330
1F
100
AcDbEntity
  8
0
  6
Continuous
 62
     7
370
    25
100
AcDbLine
 10
114.0495847360378
 20
76.75513630198758
 30
0.0
 11
335.6447119035534
 21
204.6792802738271
 31
0.0
  0
LINE
  5
9A
330
1F
100
AcDbEntity
  8
0
  6
Continuous
 62
     7
370
    25
100
AcDbLine
 10
114.0495847360378
 20
75.93859687718614
 30
0.0
 11
335.6447119035534
 21
203.8627408490257
 31
0.0
  0
LINE
  5
9B
330
1F
100
AcDbEntity
  8
0
  6
Continuous
 62
     7
370
    25
100
AcDbLine
 10
114.0495847360378
 20
75.12205593145893
 30
0.0
 11
335.6447119035534
 21
203.0461999032985
 31
0.0
  0
LINE
  5
9C
330
1F
100
AcDbEntity
  8
0
  6
Continuous
 62
     7
370
    25
100
AcDbLine
 10
114.0495847360378
 20
74.30551422526882
 30
0.0
 11
335.6447119035534
 21
202.2296581971084
 31
0.0
  0
LINE
  5
9D
330
1F
100
AcDbEntity
  8
0
  6
Continuous
 62
     7
370
    25
100
AcDbLine
 10
114.0495847360378
 20
73.48897404000448
 30
0.0
 11
335.6447119035534
 21
201.413118011844
 31
0.0
  0
LINE
  5
9E
330
1F
100
AcDbEntity
  8
0
  6
Continuous
 62
     7
370
    25
100
AcDbLine
 10
114.0495847360378
 20
72.67243309427728
 30
0.0
 11
335.6447119035534
 21
200.5965770661168
 31
0.0
  0
LINE
  5
9F
330
1F
100
AcDbEntity
  8
0
  6
Continuous
 62
     7
370
    25
100
AcDbLine
 10
114.0495847360378
 20
71.85589214855005
 30
0.0
 11
335.6447119035534
 21
199.7800361203896
 31
0.0
  0
LINE
  5
A0
330
1F
100
AcDbEntity
  8
0
  6
Continuous
 62
     7
370
    25
100
AcDbLine
 10
114.0495847360378
 20
71.03935120282283
 30
0.0
 11
335.6447119035534
 21
198.9634951746624
 31
0.0
  0
LINE
  5
A1
330
1F
100
AcDbEntity
  8
0
  6
Continuous
 62
     7
370
    25
100
AcDbLine
 10
114.0495847360378
 20
70.2228102570956
 30
0.0
 11
335.6447119035534
 21
198.1469542289351
 31
0.0
  0
LINE
  5
A2
330
1F
100
AcDbEntity
  8
0
  6
Continuous
 62
     7
370
    25
100
AcDbLine
 10
114.0495847360378
 20
69.40626931136839
 30
0.0
 11
335.6447119035534
 21
197.3304132832079
 31
0.0
  0
LINE
  5
A3
330
1F
100
AcDbEntity
  8
0
  6
Continuous
 62
     7
370
    25
100
AcDbLine
 10
114.0495847360378
 20
68.58972912610406
 30
0.0
 11
335.6447119035534
 21
196.5138730979436
 31
0.0
  0
LINE
  5
A4
330
1F
100
AcDbEntity
  8
0
  6
Continuous
 62
     7
370
    25
100
AcDbLine
 10
114.0495847360378
 20
67.77318818037683
 30
0.0
 11
335.6447119035534
 21
195.6973321522163
 31
0.0
  0
LINE
  5
A5
330
1F
100
AcDbEntity
  8
0
  6
Continuous
 62
     7
370
    25
100
AcDbLine
 10
114.0495847360378
 20
66.95664723464964
 30
0.0
 11
335.6447119035534
 21
194.8807912064892
 31
0.0
  0
LINE
  5
A6
330
1F
100
AcDbEntity
  8
0
  6
Continuous
 62
     7
370
    25
100
AcDbLine
 10
114.0495847360378
 20
66.14010628892242
 30
0.0
 11
335.6447119035534
 21
194.0642502607619
 31
0.0
  0
LINE
  5
A7
330
1F
100
AcDbEntity
  8
0
  6
Continuous
 62
     7
370
    25
100
AcDbLine
 10
114.0495847360378
 20
65.32356572342663
 30
0.0
 11
335.6447119035534
 21
193.2477096952662
 31
0.0
  0
LINE
  5
A8
330
1F
100
AcDbEntity
  8
0
  6
Continuous
 62
     7
370
    25
100
AcDbLine
 10
114.0495847360378
 20
64.50702477769943
 30
0.0
 11
335.6447119035534
 21
192.431168749539
 31
0.0
  0
LINE
  5
A9
330
1F
100
AcDbEntity
  8
0
  6
Continuous
 62
     7
370
    25
100
AcDbLine
 10
114.0495847360378
 20
63.69048402208794
 30
0.0
 11
335.6447119035534
 21
191.6146279939275
 31
0.0
  0
LINE
  5
AA
330
1F
100
AcDbEntity
  8
0
  6
Continuous
 62
     7
370
    25
100
AcDbLine
 10
114.0495847360378
 20
62.87394317141856
 30
0.0
 11
335.6447119035534
 21
190.7980871432581
 31
0.0
  0
LINE
  5
AB
330
1F
100
AcDbEntity
  8
0
  6
Continuous
 62
     7
370
    25
100
AcDbLine
 10
113.9667451052896
 20
62.00958001984461
 30
0.0
 11
335.6447119035534
 21
189.9815462925887
 31
0.0
  0
LINE
  5
AC
330
1F
100
AcDbEntity
  8
0
  6
Continuous
 62
     7
370
    25
100
AcDbLine
 10
105.8116018973134
 20
78.78852183093635
 30
0.0
 11
98.84571828940265
 21
74.76720282027135
 31
0.0
  0
LINE
  5
AD
330
1F
100
AcDbEntity
  8
0
  6
Continuous
 62
     7
370
    25
100
AcDbLine
 10
333.3234083673651
 20
210.4146697835736
 30
0.0
 11
333.7148294422083
 21
210.6407065773118
 31
0.0
  0
ARC
  5
AE
330
1F
100
AcDbEntity
  8
0
  6
Continuous
 62
     7
370
    25
100
AcDbCircle
 10
333.8183731033654
 20
210.4115363413649
 30
0.0
 40
0.2514762151969386
100
AcDbArc
 50
54.38144345631775
 51
114.3143969311519
  0
LINE
  5
AF
330
1F
100
AcDbEntity
  8
0
  6
Continuous
 62
     7
370
    25
100
AcDbLine
 10
334.313357496456
 20
210.4147634340464
 30
0.0
 11
333.9648294010512
 21
210.6159644208402
 31
0.0
  0
LINE
  5
B0
330
1F
100
AcDbEntity
  8
0
  6
Continuous
 62
     7
370
    25
100
AcDbLine
 10
334.6669109450012
 20
209.8023916602351
 30
0.0
 11
334.6669109450012
 21
208.332617653741
 31
0.0
  0
ARC
  5
B1
330
1F
100
AcDbEntity
  8
0
  6
Continuous
 62
     7
370
    25
100
AcDbCircle
 10
334.9739530678344
 20
208.3465894679874
 30
0.0
 40
0.3073598490161392
100
AcDbArc
 50
182.6054214527947
 51
237.3945786928244
  0
LINE
  5
B2
330
1F
100
AcDbEntity
  8
0
  6
Continuous
 62
     7
370
    25
100
AcDbLine
 10
334.8083320610015
 20
208.0876690962843
 30
0.0
 11
335.3740178420916
 21
207.7611056459594
 31
0.0
  0
LINE
  5
B3
330
1F
100
AcDbEntity
  8
0
  6
Continuous
 62
     7
370
    25
100
AcDbLine
 10
335.7275712906368
 20
207.1487323512223
 30
0.0
 11
335.7255943400238
 21
207.192984261821
 31
0.0
  0
LINE
  5
B4
330
1F
100
AcDbEntity
  8
0
  6
Continuous
 62
     7
370
    25
100
AcDbLine
 10
335.7275712906368
 20
190.2463380731767
 30
0.0
 11
335.7275712906368
 21
207.1487323512223
 31
0.0
  0
LINE
  5
B5
330
1F
100
AcDbEntity
  8
0
  6
Continuous
 62
     7
370
    25
100
AcDbLine
 10
335.7255943400238
 20
190.2043699369228
 30
0.0
 11
335.7275712906368
 21
190.2463380731767
 31
0.0
  0
LINE
  5
B6
330
1F
100
AcDbEntity
  8
0
  6
Continuous
 62
     7
370
    25
100
AcDbLine
 10
334.313357496456
 20
210.4147634340464
 30
0.0
 11
335.7275711260007
 21
211.2311715846464
 31
0.0
  0
ARC
  5
B7
330
1F
100
AcDbEntity
  8
0
  6
Continuous
 62
     7
370
    25
100
AcDbCircle
 10
335.313517196995
 20
210.5838690364148
 30
0.0
 40
0.768401747181953
100
AcDbArc
 50
2.605506710668401
 51
57.39455505416036
  0
LINE
  5
B8
330
1F
100
AcDbEntity
  8
0
  6
Continuous
 62
     7
370
    25
100
AcDbLine
 10
336.0811245745459
 20
210.6187998108351
 30
0.0
 11
334.6669109450012
 21
209.8023916602351
 31
0.0
  0
LINE
  5
B9
330
1F
100
AcDbEntity
  8
0
  6
Continuous
 62
     7
370
    25
100
AcDbLine
 10
336.0811245745459
 20
209.149025804341
 30
0.0
 11
336.0811245745459
 21
210.6187998108351
 31
0.0
  0
LINE
  5
BA
330
1F
100
AcDbEntity
  8
0
  6
Continuous
 62
     7
370
    25
100
AcDbLine
 10
334.6669109450012
 20
208.332617653741
 30
0.0
 11
336.0811245745459
 21
209.149025804341
 31
0.0
  0
LINE
  5
BB
330
1F
100
AcDbEntity
  8
0
  6
Continuous
 62
     7
370
    25
100
AcDbLine
 10
335.3790430305958
 20
211.4323725714402
 30
0.0
 11
333.9648294010512
 21
210.6159644208402
 31
0.0
  0
LINE
  5
BC
330
1F
100
AcDbEntity
  8
0
  6
Continuous
 62
     7
370
    25
100
AcDbLine
 10
335.7275711260007
 20
211.2311715846464
 30
0.0
 11
335.3790430305958
 21
211.4323725714402
 31
0.0
  0
LINE
  5
BD
330
1F
100
AcDbEntity
  8
0
  6
Continuous
 62
     7
370
    25
100
AcDbLine
 10
333.7148294422083
 20
210.6407065773118
 30
0.0
 11
333.9138110319396
 21
210.7555762039949
 31
0.0
  0
LWPOLYLINE
  5
BE
330
1F
100
AcDbEntity
  8
0
  6
Continuous
 62
     7
370
    25
100
AcDbPolyline
 90
        3
 70
   128
 43
0.0
 10
335.3419011203457
 20
211.4515555650441
 10
335.3443884429523
 20
211.4504116820175
 10
335.3790430305958
 20
211.4323725714402
  0
LINE
  5
BF
330
1F
100
AcDbEntity
  8
0
  6
Continuous
 62
     7
370
    25
100
AcDbLine
 10
337.1417849201814
 20
207.9651405018224
 30
0.0
 11
335.7275712906368
 21
207.1487323512223
 31
0.0
  0
LINE
  5
C0
330
1F
100
AcDbEntity
  8
0
  6
Continuous
 62
     7
370
    25
100
AcDbLine
 10
335.3740178420916
 20
207.7611056459594
 30
0.0
 11
336.7882314716362
 21
208.5775137965595
 31
0.0
  0
ARC
  5
C1
330
1F
100
AcDbEntity
  8
0
  6
Continuous
 62
     7
370
    25
100
AcDbCircle
 10
336.3741733723098
 20
207.9302089273493
 30
0.0
 40
0.7684059495612053
100
AcDbArc
 50
2.605552168669947
 51
57.39438635787543
  0
LINE
  5
C2
330
1F
100
AcDbEntity
  8
0
  6
Continuous
 62
     7
370
    25
100
AcDbLine
 10
335.7275712906368
 20
190.2463380731767
 30
0.0
 11
337.1417849201814
 21
191.0627462237767
 31
0.0
  0
LINE
  5
C3
330
1F
100
AcDbEntity
  8
0
  6
Continuous
 62
     7
370
    25
100
AcDbLine
 10
337.1417849201814
 20
191.0627462237767
 30
0.0
 11
337.1417849201814
 21
207.9651405018224
 31
0.0
  0
LINE
  5
C4
330
1F
100
AcDbEntity
  8
0
  6
Continuous
 62
     7
370
    25
100
AcDbLine
 10
336.2225456905461
 20
208.9040772468843
 30
0.0
 11
334.8083320610015
 21
208.0876690962843
 31
0.0
  0
LINE
  5
C5
330
1F
100
AcDbEntity
  8
0
  6
Continuous
 62
     7
370
    25
100
AcDbLine
 10
336.7882314716362
 20
208.5775137965595
 30
0.0
 11
336.2225456905461
 21
208.9040772468843
 31
0.0
  0
ARC
  5
C6
330
1F
100
AcDbEntity
  8
0
  6
Continuous
 62
     7
370
    25
100
AcDbCircle
 10
336.3881666973792
 20
209.1629976185875
 30
0.0
 40
0.3073598490163269
100
AcDbArc
 50
182.6054214528091
 51
237.3945786928091
  0
ARC
  5
C7
330
1F
100
AcDbEntity
  8
0
  6
Continuous
 62
     7
370
    25
100
AcDbCircle
 10
336.9044229918271
 20
191.0322468502456
 30
0.0
 40
0.2393133862070747
100
AcDbArc
 50
303.9900883111023
 51
7.321992540545951
  0
ARC
  5
C8
330
1F
100
AcDbEntity
  8
0
  6
Continuous
 62
     7
370
    25
100
AcDbCircle
 10
104.1878918467362
 20
83.98890064653793
 30
0.0
 40
1.236893518248777
100
AcDbArc
 50
304.2666003098315
 51
4.118398437494447
  0
ARC
  5
C9
330
1F
100
AcDbEntity
  8
0
  6
Continuous
 62
     7
370
    25
100
AcDbCircle
 10
102.8214722909514
 20
86.35597300993616
 30
0.0
 40
1.236811374610393
100
AcDbArc
 50
55.87409964379217
 51
115.7302680390036
  0
LWPOLYLINE
  5
CA
330
1F
100
AcDbEntity
  8
0
  6
Continuous
 62
     7
370
    25
100
AcDbPolyline
 90
       21
 70
   128
 43
0.0
 10
103.4429997189283
 20
87.25978870132307
 10
104.0111205506547
 20
86.82791291858503
 10
104.523629768224
 20
86.23049673192527
 10
104.9303593686997
 20
85.52601964056369
 10
105.191495809081
 20
84.7834431000516
 10
105.2814773550183
 20
84.07545260672897
 10
105.191495809081
 20
83.4713525949744
 10
104.9303593686997
 20
83.03027624995629
 10
104.523629768224
 20
82.79540068051276
 10
104.0111205506547
 20
82.78971504111955
 10
103.4429997189283
 20
83.01377760865249
 10
102.8748788872019
 20
83.44565339139054
 10
102.3623696696327
 20
84.04306957805031
 10
101.9556400691569
 20
84.7475451484861
 10
101.6945036287756
 20
85.49012320992396
 10
101.6045220828383
 20
86.19811370324659
 10
101.6945036287756
 20
86.80221371500117
 10
101.9556400691569
 20
87.2432885390935
 10
102.3623696696327
 20
87.47816562946281
 10
102.8748788872019
 20
87.48385126885603
 10
103.4429997189283
 20
87.25978870132307
  0
LINE
  5
CB
330
1F
100
AcDbEntity
  8
0
  6
Continuous
 62
     7
370
    25
100
AcDbLine
 10
103.2591519553193
 20
84.18141343664603
 30
0.0
 11
103.6268474825373
 21
83.96914732699426
 31
0.0
  0
LINE
  5
CC
330
1F
100
AcDbEntity
  8
0
  6
Continuous
 62
     7
370
    25
100
AcDbLine
 10
103.6268474825373
 20
83.96914732699426
 30
0.0
 11
103.6268474825373
 21
84.49416786522997
 31
0.0
  0
ELLIPSE
  5
CD
330
1F
100
AcDbEntity
  8
0
  6
Continuous
 62
     7
370
    25
100
AcDbEllipse
 10
103.911808056181
 20
84.3247688566973
 30
0.0
 11
-0.2029770344755236
 21
0.351602984815088
 31
0.0
210
0.0
220
0.0
230
1.0
 40
0.5688689412912826
 41
5.505292396171592
 42
7.061236040021321
  0
LINE
  5
CE
330
1F
100
AcDbEntity
  8
0
  6
Continuous
 62
     7
370
    25
100
AcDbLine
 10
103.907581919363
 20
84.65628561315998
 30
0.0
 11
104.3622385369733
 21
84.39381793459516
 31
0.0
  0
LINE
  5
CF
330
1F
100
AcDbEntity
  8
0
  6
Continuous
 62
     7
370
    25
100
AcDbLine
 10
104.3622385369733
 20
84.39381793459516
 30
0.0
 11
104.3622385369733
 21
84.8184178271216
 31
0.0
  0
LINE
  5
D0
330
1F
100
AcDbEntity
  8
0
  6
Continuous
 62
     7
370
    25
100
AcDbLine
 10
104.3622385369733
 20
84.8184178271216
 30
0.0
 11
103.907581919363
 21
85.08088550568642
 31
0.0
  0
ELLIPSE
  5
D1
330
1F
100
AcDbEntity
  8
0
  6
Continuous
 62
     7
370
    25
100
AcDbEllipse
 10
103.911808056181
 20
85.40750839156833
 30
0.0
 11
-0.1999830001076646
 21
0.3464199758967226
 31
0.0
210
0.0
220
0.0
230
1.0
 40
0.5860215324410516
 41
0.7929082476905411
 42
2.348851891540275
  0
LINE
  5
D2
330
1F
100
AcDbEntity
  8
0
  6
Continuous
 62
     7
370
    25
100
AcDbLine
 10
103.6268474825373
 20
85.56713233509385
 30
0.0
 11
103.6268474825373
 21
86.09215287332955
 31
0.0
  0
LINE
  5
D3
330
1F
100
AcDbEntity
  8
0
  6
Continuous
 62
     7
370
    25
100
AcDbLine
 10
103.6268474825373
 20
86.09215287332955
 30
0.0
 11
103.2591519553193
 21
86.30441898298132
 31
0.0
  0
LINE
  5
D4
330
1F
100
AcDbEntity
  8
0
  6
Continuous
 62
     7
370
    25
100
AcDbLine
 10
103.2591519553193
 20
86.30441898298132
 30
0.0
 11
103.2591519553193
 21
85.77939844474561
 31
0.0
  0
ELLIPSE
  5
D5
330
1F
100
AcDbEntity
  8
0
  6
Continuous
 62
     7
370
    25
100
AcDbEllipse
 10
102.9741789062088
 20
85.9487901783405
 30
0.0
 11
-0.2029770344755235
 21
0.3516029848151021
 31
0.0
210
0.0
220
0.0
230
1.0
 40
0.5688689412912479
 41
2.363699742581622
 42
3.91964338643157
  0
LINE
  5
D6
330
1F
100
AcDbEntity
  8
0
  6
Continuous
 62
     7
370
    25
100
AcDbLine
 10
102.9784175184936
 20
85.6172806968156
 30
0.0
 11
102.5237609008833
 21
85.87974837538042
 31
0.0
  0
LINE
  5
D7
330
1F
100
AcDbEntity
  8
0
  6
Continuous
 62
     7
370
    25
100
AcDbLine
 10
102.5237609008833
 20
85.87974837538042
 30
0.0
 11
102.5237609008833
 21
85.45514848285397
 31
0.0
  0
LINE
  5
D8
330
1F
100
AcDbEntity
  8
0
  6
Continuous
 62
     7
370
    25
100
AcDbLine
 10
102.5237609008833
 20
85.45514848285397
 30
0.0
 11
102.9784175184936
 21
85.19268080428915
 31
0.0
  0
ELLIPSE
  5
D9
330
1F
100
AcDbEntity
  8
0
  6
Continuous
 62
     7
370
    25
100
AcDbEllipse
 10
102.9741789062088
 20
84.86605064346948
 30
0.0
 11
-0.1999830001076646
 21
0.3464199758967367
 31
0.0
210
0.0
220
0.0
230
1.0
 40
0.5860215324410335
 41
3.934500901280405
 42
5.490444545130236
  0
LINE
  5
DA
330
1F
100
AcDbEntity
  8
0
  6
Continuous
 62
     7
370
    25
100
AcDbLine
 10
103.2591519553193
 20
84.70643397488173
 30
0.0
 11
103.2591519553193
 21
84.18141343664603
 31
0.0
  0
LINE
  5
DB
330
1F
100
AcDbEntity
  8
0
  6
Continuous
 62
     7
370
    25
100
AcDbLine
 10
103.6268431196799
 20
84.39368371824058
 30
0.0
 11
103.2591519553193
 21
84.18141343664603
 31
0.0
  0
LINE
  5
DC
330
1F
100
AcDbEntity
  8
0
  6
Continuous
 62
     7
370
    25
100
AcDbLine
 10
102.891500056675
 20
85.66744732592953
 30
0.0
 11
102.5237609008833
 21
85.45514848285397
 31
0.0
  0
ARC
  5
DD
330
1F
100
AcDbEntity
  8
0
  6
Continuous
 62
     7
370
    25
100
AcDbCircle
 10
99.04872920111224
 20
71.49417120901884
 30
0.0
 40
0.7684034832253038
100
AcDbArc
 50
182.6055153299888
 51
237.3944848156422
  0
LINE
  5
DE
330
1F
100
AcDbEntity
  8
0
  6
Continuous
 62
     7
370
    25
100
AcDbLine
 10
98.63467354311268
 20
70.84686770592981
 30
0.0
 11
110.6554891472879
 21
63.90739856839331
 31
0.0
  0
ARC
  5
DF
330
1F
100
AcDbEntity
  8
0
  6
Continuous
 62
     7
370
    25
100
AcDbCircle
 10
110.7935051713667
 20
64.07660373139232
 30
0.0
 40
0.2183547803187585
100
AcDbArc
 50
230.7968155329775
 51
9.213936221765929
  0
LINE
  5
E0
330
1F
100
AcDbEntity
  8
0
  6
Continuous
 62
     7
370
    25
100
AcDbLine
 10
111.0090425958331
 20
64.1115669798463
 30
0.0
 11
111.0090425958331
 21
74.48163535558677
 31
0.0
  0
ARC
  5
E1
330
1F
100
AcDbEntity
  8
0
  6
Continuous
 62
     7
370
    25
100
AcDbCircle
 10
110.2414359306294
 20
74.44670499244089
 30
0.0
 40
0.7684010168750329
100
AcDbArc
 50
2.605478490319483
 51
57.3945832745019
  0
LINE
  5
E2
330
1F
100
AcDbEntity
  8
0
  6
Continuous
 62
     7
370
    25
100
AcDbLine
 10
110.6554891472879
 20
75.0940071293981
 30
0.0
 11
109.9483822501975
 21
75.50221125221931
 31
0.0
  0
ARC
  5
E3
330
1F
100
AcDbEntity
  8
0
  6
Continuous
 62
     7
370
    25
100
AcDbCircle
 10
112.3319006042209
 20
79.31533415553594
 30
0.0
 40
4.49678396409749
100
AcDbArc
 50
208.2604670408623
 51
237.9911966554367
  0
ARC
  5
E4
330
1F
100
AcDbEntity
  8
0
  6
Continuous
 62
     7
370
    25
100
AcDbCircle
 10
107.7323038359751
 20
76.84280936837801
 30
0.0
 40
0.7252529233743149
100
AcDbArc
 50
28.25972357542379
 51
57.99191617682427
  0
LINE
  5
E5
330
1F
100
AcDbEntity
  8
0
  6
Continuous
 62
     7
370
    25
100
AcDbLine
 10
108.1167161045897
 20
77.45780449892912
 30
0.0
 11
98.76928333326688
 21
82.85396257735952
 31
0.0
  0
ARC
  5
E6
330
1F
100
AcDbEntity
  8
0
  6
Continuous
 62
     7
370
    25
100
AcDbCircle
 10
98.62361725917155
 20
82.65255046774315
 30
0.0
 40
0.2485667778333935
100
AcDbArc
 50
54.12464273164362
 51
115.9403807149842
  0
ARC
  5
E7
330
1F
100
AcDbEntity
  8
0
  6
Continuous
 62
     7
370
    25
100
AcDbCircle
 10
97.84075412443087
 20
84.26199658049033
 30
0.0
 40
1.541179427031164
100
AcDbArc
 50
234.1260673594042
 51
295.9389052336641
  0
LINE
  5
E8
330
1F
100
AcDbEntity
  8
0
  6
Continuous
 62
     7
370
    25
100
AcDbLine
 10
96.93761718765913
 20
83.01316604765464
 30
0.0
 11
96.23051029056874
 21
83.42137017047584
 31
0.0
  0
ARC
  5
E9
330
1F
100
AcDbEntity
  8
0
  6
Continuous
 62
     7
370
    25
100
AcDbCircle
 10
96.09249381887241
 20
83.25216591283412
 30
0.0
 40
0.2183543616775063
100
AcDbArc
 50
50.79657435908474
 51
189.2139925581189
  0
LINE
  5
EA
330
1F
100
AcDbEntity
  8
0
  6
Continuous
 62
     7
370
    25
100
AcDbLine
 10
95.87695684202353
 20
83.21720251948572
 30
0.0
 11
95.87695684202353
 21
75.78214124269446
 31
0.0
  0
ARC
  5
EB
330
1F
100
AcDbEntity
  8
0
  6
Continuous
 62
     7
370
    25
100
AcDbCircle
 10
96.65027641241666
 20
75.81916629226767
 30
0.0
 40
0.7742054070134797
100
AcDbArc
 50
182.7411182014921
 51
235.4197617245345
  0
ARC
  5
EC
330
1F
100
AcDbEntity
  8
0
  6
Continuous
 62
     7
370
    25
100
AcDbCircle
 10
93.48655697254537
 20
71.22969384809757
 30
0.0
 40
4.800054903559296
100
AcDbArc
 50
2.741022304095611
 51
55.41985826048595
  0
ARC
  5
ED
330
1F
100
AcDbEntity
  8
0
  6
Continuous
 62
     7
370
    25
100
AcDbCircle
 10
95.63160734990065
 20
89.79367300413134
 30
0.0
 40
0.721302368695149
100
AcDbArc
 50
28.85538745328587
 51
58.04552069720478
  0
LINE
  5
EE
330
1F
100
AcDbEntity
  8
0
  6
Continuous
 62
     7
370
    25
100
AcDbLine
 10
96.26335322227085
 20
90.1417739375234
 30
0.0
 11
99.80391240231866
 21
84.00934556847415
 31
0.0
  0
ARC
  5
EF
330
1F
100
AcDbEntity
  8
0
  6
Continuous
 62
     7
370
    25
100
AcDbCircle
 10
100.4356751917688
 20
84.35746252779576
 30
0.0
 40
0.7213249195065587
100
AcDbArc
 50
208.8558538712678
 51
238.045054279223
  0
LINE
  5
F0
330
1F
100
AcDbEntity
  8
0
  6
Continuous
 62
     7
370
    25
100
AcDbLine
 10
100.0539123611616
 20
83.74544391642195
 30
0.0
 11
106.832087076695
 21
79.83248694277559
 31
0.0
  0
ARC
  5
F1
330
1F
100
AcDbEntity
  8
0
  6
Continuous
 62
     7
370
    25
100
AcDbCircle
 10
106.9785441580982
 20
80.0369229410965
 30
0.0
 40
0.2514831089807542
100
AcDbArc
 50
234.3823490259277
 51
294.3134913615451
  0
LINE
  5
F2
330
1F
100
AcDbEntity
  8
0
  6
Continuous
 62
     7
370
    25
100
AcDbLine
 10
107.0820870355379
 20
79.80774478630394
 30
0.0
 11
110.6226462155857
 21
81.85233053824665
 31
0.0
  0
ARC
  5
F3
330
1F
100
AcDbEntity
  8
0
  6
Continuous
 62
     7
370
    25
100
AcDbCircle
 10
110.7261898767429
 20
81.62316030229961
 30
0.0
 40
0.2514762151970603
100
AcDbArc
 50
54.38144345632494
 51
114.3143969311474
  0
LINE
  5
F4
330
1F
100
AcDbEntity
  8
0
  6
Continuous
 62
     7
370
    25
100
AcDbLine
 10
111.2211742698335
 20
81.62638739498124
 30
0.0
 11
110.8726461744287
 21
81.82758838177499
 31
0.0
  0
ARC
  5
F5
330
1F
100
AcDbEntity
  8
0
  6
Continuous
 62
     7
370
    25
100
AcDbCircle
 10
110.807120340828
 20
80.97908484674974
 30
0.0
 40
0.7684017471816869
100
AcDbArc
 50
2.605506710655411
 51
57.39455505416779
  0
LINE
  5
F6
330
1F
100
AcDbEntity
  8
0
  6
Continuous
 62
     7
370
    25
100
AcDbLine
 10
111.5747277183787
 20
81.01401562116992
 30
0.0
 11
111.5747277183787
 21
79.54424161467577
 31
0.0
  0
ARC
  5
F7
330
1F
100
AcDbEntity
  8
0
  6
Continuous
 62
     7
370
    25
100
AcDbCircle
 10
111.8817698412118
 20
79.55821342892222
 30
0.0
 40
0.3073598490161426
100
AcDbArc
 50
182.6054214527946
 51
237.3945786928275
  0
LINE
  5
F8
330
1F
100
AcDbEntity
  8
0
  6
Continuous
 62
     7
370
    25
100
AcDbLine
 10
111.7161488343789
 20
79.2992930572191
 30
0.0
 11
112.281834615469
 21
78.97272960689426
 31
0.0
  0
ARC
  5
F9
330
1F
100
AcDbEntity
  8
0
  6
Continuous
 62
     7
370
    25
100
AcDbCircle
 10
111.8677765161425
 20
78.32542473768397
 30
0.0
 40
0.7684059495613406
100
AcDbArc
 50
2.605552168680147
 51
57.39438635787455
  0
LINE
  5
FA
330
1F
100
AcDbEntity
  8
0
  6
Continuous
 62
     7
370
    25
100
AcDbLine
 10
112.6353880640142
 20
61.45796203411152
 30
0.0
 11
112.6353880640142
 21
78.36035631215715
 31
0.0
  0
ARC
  5
FB
330
1F
100
AcDbEntity
  8
0
  6
Continuous
 62
     7
370
    25
100
AcDbCircle
 10
112.4198507238484
 20
61.42299867906623
 30
0.0
 40
0.2183547141734911
100
AcDbArc
 50
230.7967728302291
 51
9.213967372132384
  0
LINE
  5
FC
330
1F
100
AcDbEntity
  8
0
  6
Continuous
 62
     7
370
    25
100
AcDbLine
 10
94.60416482238757
 20
71.45889522003938
 30
0.0
 11
112.281834615469
 21
61.25379367018765
 31
0.0
  0
ARC
  5
FD
330
1F
100
AcDbEntity
  8
0
  6
Continuous
 62
     7
370
    25
100
AcDbCircle
 10
95.01822029724696
 20
72.10619862010353
 30
0.0
 40
0.7684032977516707
100
AcDbArc
 50
182.6055118170215
 51
237.3944921798203
  0
LINE
  5
FE
330
1F
100
AcDbEntity
  8
0
  6
Continuous
 62
     7
370
    25
100
AcDbLine
 10
94.25061137384237
 20
88.97366198483012
 30
0.0
 11
94.25061137384237
 21
72.07126770678447
 31
0.0
  0
ARC
  5
FF
330
1F
100
AcDbEntity
  8
0
  6
Continuous
 62
     7
370
    25
100
AcDbCircle
 10
94.46614911796894
 20
89.00862530997333
 30
0.0
 40
0.2183551081340624
100
AcDbArc
 50
50.79699393742678
 51
189.2139426545238
  0
LINE
  5
100
330
1F
100
AcDbEntity
  8
0
  6
Continuous
 62
     7
370
    25
100
AcDbLine
 10
94.60416482238757
 20
89.17783115674601
 30
0.0
 11
95.16985060347767
 21
88.85126770642118
 31
0.0
  0
ARC
  5
101
330
1F
100
AcDbEntity
  8
0
  6
Continuous
 62
     7
370
    25
100
AcDbCircle
 10
95.22505705151741
 20
88.9189494009745
 30
0.0
 40
0.087341649187399
100
AcDbArc
 50
230.7966423249806
 51
9.214109429762209
  0
LINE
  5
102
330
1F
100
AcDbEntity
  8
0
  6
Continuous
 62
     7
370
    25
100
AcDbLine
 10
95.31127171947794
 20
88.93293491888508
 30
0.0
 11
95.31127171947794
 21
90.40270892537923
 31
0.0
  0
ARC
  5
103
330
1F
100
AcDbEntity
  8
0
  6
Continuous
 62
     7
370
    25
100
AcDbCircle
 10
95.52680882430134
 20
90.43767209711645
 30
0.0
 40
0.218354452516038
100
AcDbArc
 50
50.79663713606845
 51
189.2139297811382
  0
LINE
  5
104
330
1F
100
AcDbEntity
  8
0
  6
Continuous
 62
     7
370
    25
100
AcDbLine
 10
96.0133532634279
 20
90.4056755895756
 30
0.0
 11
95.66482516802314
 21
90.60687657636934
 31
0.0
  0
LWPOLYLINE
  5
105
330
1F
100
AcDbEntity
  8
0
  6
Continuous
 62
     7
370
    25
100
AcDbPolyline
 90
       19
 70
   128
 43
0.0
 10
111.5040171603785
 20
77.1354391137423
 10
111.4102009097713
 20
77.80400038702805
 10
111.1400672696858
 20
78.50024041393878
 10
110.726199705288
 20
79.14018357434395
 10
110.2185152317385
 20
79.64664186518367
 10
109.678248610112
 20
79.9585311470986
 10
109.170564795107
 20
80.03823249248276
 10
108.7566965721646
 20
79.8761310309625
 10
108.4865635906237
 20
79.49178028596671
 10
108.3927473400165
 20
78.93153695001992
 10
108.4865635906237
 20
78.26297719765995
 10
108.7566965721646
 20
77.56673755091886
 10
109.170564795107
 20
76.92679401034405
 10
109.678248610112
 20
76.42033457874821
 10
110.2185152317385
 20
76.10844529683328
 10
110.726199705288
 20
76.02874509220524
 10
111.1400672696858
 20
76.19084693389516
 10
111.4102009097713
 20
76.57519729872129
 10
111.5040171603785
 20
77.1354391137423
  0
LWPOLYLINE
  5
106
330
1F
100
AcDbEntity
  8
0
  6
Continuous
 62
     7
370
    25
100
AcDbPolyline
 90
       19
 70
   128
 43
0.0
 10
97.64472408474948
 20
71.82662383669222
 10
97.5509078341423
 20
72.49518434951509
 10
97.2807748526013
 20
73.19142418637189
 10
96.86690662965898
 20
73.83136734671527
 10
96.35922215610944
 20
74.33782677824931
 10
95.81895619302747
 20
74.6497156799946
 10
95.31127171947794
 20
74.72941626485408
 10
94.89740349653565
 20
74.56731518356526
 10
94.62727051499466
 20
74.18296424845374
 10
94.53345426438743
 20
73.62272167296985
 10
94.62727051499466
 20
72.95416116014698
 10
94.89740349653565
 20
72.25792113317446
 10
95.31127171947794
 20
71.61797802036001
 10
95.81895619302747
 20
71.11151861259043
 10
96.35922215610944
 20
70.79962971084515
 10
96.86690662965898
 20
70.7199291022212
 10
97.2807748526013
 20
70.8820301359811
 10
97.5509078341423
 20
71.26638126120834
 10
97.64472408474948
 20
71.82662383669222
  0
LINE
  5
107
330
1F
100
AcDbEntity
  8
0
  6
Continuous
 62
     7
370
    25
100
AcDbLine
 10
111.2211742698335
 20
81.62638739498124
 30
0.0
 11
112.6353906981922
 21
82.4427971613023
 31
0.0
  0
ARC
  5
108
330
1F
100
AcDbEntity
  8
0
  6
Continuous
 62
     7
370
    25
100
AcDbCircle
 10
112.2213367691866
 20
81.79549461307073
 30
0.0
 40
0.7684017471818353
100
AcDbArc
 50
2.605506710659115
 51
57.3945550541623
  0
LINE
  5
109
330
1F
100
AcDbEntity
  8
0
  6
Continuous
 62
     7
370
    25
100
AcDbLine
 10
112.9889441467375
 20
81.83042538749096
 30
0.0
 11
111.5747277183787
 21
81.01401562116992
 31
0.0
  0
LINE
  5
10A
330
1F
100
AcDbEntity
  8
0
  6
Continuous
 62
     7
370
    25
100
AcDbLine
 10
112.9889441467375
 20
80.36065138099683
 30
0.0
 11
112.9889441467375
 21
81.83042538749096
 31
0.0
  0
LINE
  5
10B
330
1F
100
AcDbEntity
  8
0
  6
Continuous
 62
     7
370
    25
100
AcDbLine
 10
111.5747277183787
 20
79.54424161467577
 30
0.0
 11
112.9889441467375
 21
80.36065138099683
 31
0.0
  0
LINE
  5
10C
330
1F
100
AcDbEntity
  8
0
  6
Continuous
 62
     7
370
    25
100
AcDbLine
 10
112.2868626027875
 20
82.64399814809605
 30
0.0
 11
110.8726461744287
 21
81.82758838177499
 31
0.0
  0
LINE
  5
10D
330
1F
100
AcDbEntity
  8
0
  6
Continuous
 62
     7
370
    25
100
AcDbLine
 10
112.6353906981922
 20
82.4427971613023
 30
0.0
 11
112.2868626027875
 21
82.64399814809605
 31
0.0
  0
LINE
  5
10E
330
1F
100
AcDbEntity
  8
0
  6
Continuous
 62
     7
370
    25
100
AcDbLine
 10
110.6226462155857
 20
81.85233053824665
 30
0.0
 11
110.7969234341783
 21
81.95293863503659
 31
0.0
  0
LWPOLYLINE
  5
10F
330
1F
100
AcDbEntity
  8
0
  6
Continuous
 62
     7
370
    25
100
AcDbPolyline
 90
        3
 70
   128
 43
0.0
 10
112.2328876363687
 20
82.67037240045838
 10
112.2522080151439
 20
82.66203725867342
 10
112.2868626027875
 20
82.64399814809605
  0
LINE
  5
110
330
1F
100
AcDbEntity
  8
0
  6
Continuous
 62
     7
370
    25
100
AcDbLine
 10
114.049604492373
 20
79.17676607847821
 30
0.0
 11
112.6353880640142
 21
78.36035631215715
 31
0.0
  0
LINE
  5
111
330
1F
100
AcDbEntity
  8
0
  6
Continuous
 62
     7
370
    25
100
AcDbLine
 10
112.281834615469
 20
78.97272960689426
 30
0.0
 11
113.6960510438278
 21
79.78913937321532
 31
0.0
  0
ARC
  5
112
330
1F
100
AcDbEntity
  8
0
  6
Continuous
 62
     7
370
    25
100
AcDbCircle
 10
113.2819929445011
 20
79.14183450400496
 30
0.0
 40
0.768405949561499
100
AcDbArc
 50
2.605552168684861
 51
57.39438635786906
  0
LINE
  5
113
330
1F
100
AcDbEntity
  8
0
  6
Continuous
 62
     7
370
    25
100
AcDbLine
 10
112.6353880640142
 20
61.45796203411152
 30
0.0
 11
114.049604492373
 21
62.27437180043258
 31
0.0
  0
LINE
  5
114
330
1F
100
AcDbEntity
  8
0
  6
Continuous
 62
     7
370
    25
100
AcDbLine
 10
114.049604492373
 20
62.27437180043258
 30
0.0
 11
114.049604492373
 21
79.17676607847821
 31
0.0
  0
LINE
  5
115
330
1F
100
AcDbEntity
  8
0
  6
Continuous
 62
     7
370
    25
100
AcDbLine
 10
113.1303652627377
 20
80.11570282354015
 30
0.0
 11
111.7161488343789
 21
79.2992930572191
 31
0.0
  0
LINE
  5
116
330
1F
100
AcDbEntity
  8
0
  6
Continuous
 62
     7
370
    25
100
AcDbLine
 10
113.6960510438278
 20
79.78913937321532
 30
0.0
 11
113.1303652627377
 21
80.11570282354015
 31
0.0
  0
ARC
  5
117
330
1F
100
AcDbEntity
  8
0
  6
Continuous
 62
     7
370
    25
100
AcDbCircle
 10
113.2959862695707
 20
80.37462319524332
 30
0.0
 40
0.3073598490162178
100
AcDbArc
 50
182.6054214528019
 51
237.3945786928212
  0
LWPOLYLINE
  5
118
330
1F
100
AcDbEntity
  8
0
  6
Continuous
 62
     7
370
    25
100
AcDbPolyline
 90
       10
 70
   128
 43
0.0
 10
108.9596550504411
 20
79.99114529790994
 10
108.698688679179
 20
79.61423749301477
 10
108.6048724285718
 20
79.05399415706799
 10
108.698688679179
 20
78.38543440470802
 10
108.96882166072
 20
77.68919475796693
 10
109.3826898836623
 20
77.04925121739211
 10
109.8903736986673
 20
76.54279178579627
 10
110.4306403202938
 20
76.23090250388134
 10
110.9383247938433
 20
76.1512022992533
 10
111.1492276237918
 20
76.19828409540774
  0
LINE
  5
119
330
1F
100
AcDbEntity
  8
0
  6
Continuous
 62
     7
370
    25
100
AcDbLine
 10
106.832087076695
 20
79.83248694277559
 30
0.0
 11
108.2463035050538
 21
80.64889670909665
 31
0.0
  0
ARC
  5
11A
330
1F
100
AcDbEntity
  8
0
  6
Continuous
 62
     7
370
    25
100
AcDbCircle
 10
108.3939913400497
 20
80.8567629417107
 30
0.0
 40
0.2549903277909704
100
AcDbArc
 50
234.6064118707955
 51
291.7813216000181
  0
LINE
  5
11B
330
1F
100
AcDbEntity
  8
0
  6
Continuous
 62
     7
370
    25
100
AcDbLine
 10
108.2463035050538
 20
80.64889670909665
 30
0.0
 11
108.1803881388885
 21
80.68694884002146
 31
0.0
  0
ARC
  5
11C
330
1F
100
AcDbEntity
  8
0
  6
Continuous
 62
     7
370
    25
100
AcDbCircle
 10
113.812242563765
 20
62.24387242701616
 30
0.0
 40
0.239313386444026
100
AcDbArc
 50
303.9900883461053
 51
7.32199250556807
  0
LINE
  5
11D
330
1F
100
AcDbEntity
  8
0
  6
Continuous
 62
     7
370
    25
100
AcDbLine
 10
100.0488899714715
 20
71.66327747225085
 30
0.0
 11
98.63467354311268
 21
70.84686770592981
 31
0.0
  0
LINE
  5
11E
330
1F
100
AcDbEntity
  8
0
  6
Continuous
 62
     7
370
    25
100
AcDbLine
 10
100.0488899714715
 20
71.66327747225085
 30
0.0
 11
111.0090452300111
 21
65.33611451894619
 31
0.0
  0
LINE
  5
11F
330
1F
100
AcDbEntity
  8
0
  6
Continuous
 62
     7
370
    25
100
AcDbLine
 10
95.87695684202353
 20
75.78214124269446
 30
0.0
 11
97.29117327038234
 21
76.59855100901551
 31
0.0
  0
LINE
  5
120
330
1F
100
AcDbEntity
  8
0
  6
Continuous
 62
     7
370
    25
100
AcDbLine
 10
97.29117327038234
 20
82.84220876248943
 30
0.0
 11
97.29117327038234
 21
76.59855100901551
 31
0.0
  0
LINE
  5
121
330
1F
100
AcDbEntity
  8
0
  6
Continuous
 62
     7
370
    25
100
AcDbLine
 10
98.28112009456748
 20
71.45924024020402
 30
0.0
 11
99.69533652292627
 21
72.27565000652508
 31
0.0
  0
LINE
  5
122
330
1F
100
AcDbEntity
  8
0
  6
Continuous
 62
     7
370
    25
100
AcDbLine
 10
97.62508497043244
 20
75.9981478385282
 30
0.0
 11
96.21086854207365
 21
75.18173807220714
 31
0.0
  0
ARC
  5
123
330
1F
100
AcDbEntity
  8
0
  6
Continuous
 62
     7
370
    25
100
AcDbCircle
 10
94.90077340090437
 20
72.04610361441874
 30
0.0
 40
4.800054903559064
100
AcDbArc
 50
2.741022304094384
 51
55.41985826048727
  0
LWPOLYLINE
  5
124
330
1F
100
AcDbEntity
  8
0
  6
Continuous
 62
     7
370
    25
100
AcDbPolyline
 90
       10
 70
   128
 43
0.0
 10
95.10036230408433
 20
74.68233002089076
 10
94.83939560354996
 20
74.30542145550181
 10
94.74557935294274
 20
73.74517888001792
 10
94.83939560354996
 20
73.07661836719505
 10
95.10952858509093
 20
72.38037834022252
 10
95.52339680803325
 20
71.74043522740808
 10
96.03108128158279
 20
71.2339758196385
 10
96.57134724466475
 20
70.92208691789321
 10
97.0790317182143
 20
70.84238630926927
 10
97.2899345481628
 20
70.88946839059729
  0
ARC
  5
125
330
1F
100
AcDbEntity
  8
0
  6
Continuous
 62
     7
370
    25
100
AcDbCircle
 10
98.06449284077536
 20
76.63557605858864
 30
0.0
 40
0.7742054070133635
100
AcDbArc
 50
182.7411182014883
 51
235.4197617245361
  0
ARC
  5
126
330
1F
100
AcDbEntity
  8
0
  6
Continuous
 62
     7
370
    25
100
AcDbCircle
 10
100.4629456294711
 20
72.31058097533993
 30
0.0
 40
0.7684034832254025
100
AcDbArc
 50
182.6055153299905
 51
237.3944848156377
  0
SPLINE
  5
127
330
1F
100
AcDbEntity
  8
0
  6
Continuous
 62
     7
370
    25
100
AcDbSpline
210
0.0
220
0.0
230
1.0
 70
     8
 71
     3
 72
    21
 73
    17
 74
     0
 42
0.000000001
 43
0.00000001
 40
0.0
 40
0.0
 40
0.0
 40
0.0
 40
0.0442713736785977
 40
0.1056026884204857
 40
0.1681754519729167
 40
0.2419690438837906
 40
0.3173462117836
 40
0.4032002305561397
 40
0.4912783754361829
 40
0.5815577285245036
 40
0.6750456642304307
 40
0.7373726700131938
 40
0.8013182519918625
 40
0.8536759309300371
 40
0.9074665969282568
 40
1.0
 40
1.0
 40
1.0
 40
1.0
 10
321.052625237664
 20
228.037635525014
 30
0.0
 10
321.2475978154693
 20
228.1863534088522
 30
0.0
 10
321.7126755095564
 20
228.5410975029374
 30
0.0
 10
322.6775003073436
 20
228.6914171985183
 30
0.0
 10
323.8572358980478
 20
228.7136323146989
 30
0.0
 10
325.2130930286928
 20
228.4549726392417
 30
0.0
 10
326.7698315278025
 20
227.8896536639209
 30
0.0
 10
328.4509900256509
 20
226.9855402398952
 30
0.0
 10
330.2200356549897
 20
225.7093927001063
 30
0.0
 10
331.977641209478
 20
224.0843554403641
 30
0.0
 10
333.4554691074509
 20
222.3437865252566
 30
0.0
 10
334.6258309493753
 20
220.6196274813094
 30
0.0
 10
335.4488064046789
 20
219.1244995555217
 30
0.0
 10
336.0755528434777
 20
217.6558284838179
 30
0.0
 10
336.6363059550291
 20
215.9162086043891
 30
0.0
 10
336.7293755148222
 20
214.7219294460928
 30
0.0
 10
336.7882314716362
 20
213.9666831258036
 30
0.0
  0
ARC
  5
128
330
1F
100
AcDbEntity
  8
0
  6
Continuous
 62
     7
370
    25
100
AcDbCircle
 10
333.0689043470452
 20
212.8586038002916
 30
0.0
 40
2.30085632381829
100
AcDbArc
 50
292.5581185692339
 51
7.640672507408317
  0
LINE
  5
129
330
1F
100
AcDbEntity
  8
0
  6
Continuous
 62
     7
370
    25
100
AcDbLine
 10
333.9515597292154
 20
210.7337839728284
 30
0.0
 11
333.8906298742478
 21
210.7689580294004
 31
0.0
  0
ARC
  5
12A
330
1F
100
AcDbEntity
  8
0
  6
Continuous
 62
     7
370
    25
100
AcDbCircle
 10
334.3739312280681
 20
213.6831945345285
 30
0.0
 40
2.430886967235665
100
AcDbArc
 50
303.6645014075205
 51
6.697038661274311
  0
ARC
  5
12B
330
1F
100
AcDbEntity
  8
0
  6
Continuous
 62
     7
370
    25
100
AcDbCircle
 10
109.9882705629579
 20
84.05286340520713
 30
0.0
 40
2.3142901767819
100
AcDbArc
 50
292.3315412266894
 51
7.673834432291636
  0
LINE
  5
12C
330
1F
100
AcDbEntity
  8
0
  6
Continuous
 62
     7
370
    25
100
AcDbLine
 10
110.5847779307432
 20
82.0754251240344
 30
0.0
 11
110.8676208212883
 21
81.91214339887199
 31
0.0
  0
LINE
  5
12D
330
1F
100
AcDbEntity
  8
0
  6
Continuous
 62
     7
370
    25
100
AcDbLine
 10
106.9078229878356
 20
79.95207341687083
 30
0.0
 11
110.5847779307432
 21
82.0754251240344
 31
0.0
  0
LINE
  5
12E
330
1F
100
AcDbEntity
  8
0
  6
Continuous
 62
     7
370
    25
100
AcDbLine
 10
99.97817645002104
 20
83.95247321224727
 30
0.0
 11
106.9078229878356
 21
79.95207341687083
 31
0.0
  0
LINE
  5
12F
330
1F
100
AcDbEntity
  8
0
  6
Continuous
 62
     7
370
    25
100
AcDbLine
 10
96.30122150711338
 20
90.32114673227645
 30
0.0
 11
99.97817645002104
 21
83.95247321224727
 31
0.0
  0
LINE
  5
130
330
1F
100
AcDbEntity
  8
0
  6
Continuous
 62
     7
370
    25
100
AcDbLine
 10
96.01837861656833
 20
90.48442845743887
 30
0.0
 11
96.30122150711338
 21
90.32114673227645
 31
0.0
  0
ARC
  5
131
330
1F
100
AcDbEntity
  8
0
  6
Continuous
 62
     7
370
    25
100
AcDbCircle
 10
102.0959570673705
 20
94.8759474966467
 30
0.0
 40
7.4981597273851
100
AcDbArc
 50
182.3614290506857
 51
215.8510137354384
  0
SPLINE
  5
132
330
1F
100
AcDbEntity
  8
0
  6
Continuous
 62
     7
370
    25
100
AcDbSpline
210
0.0
220
0.0
230
1.0
 70
     8
 71
     3
 72
    23
 73
    19
 74
     0
 42
0.000000001
 43
0.00000001
 40
0.0
 40
0.0
 40
0.0
 40
0.0
 40
0.0686224860065106
 40
0.1455871938046496
 40
0.2301138832216717
 40
0.2800052941962626
 40
0.3299255457282262
 40
0.3899967224232187
 40
0.4500912294952886
 40
0.5201509982271548
 40
0.5902029447170173
 40
0.664264249671403
 40
0.738234707594412
 40
0.7891179691494831
 40
0.8399529389643771
 40
0.8827213284397036
 40
0.9254580807740105
 40
1.0
 40
1.0
 40
1.0
 40
1.0
 10
112.281834615469
 20
84.36189893613843
 30
0.0
 10
112.2300653262504
 20
85.05495888876463
 30
0.0
 10
112.1202333166393
 20
86.52533193283735
 30
0.0
 10
111.2129717736804
 20
89.0628840300406
 30
0.0
 10
109.9893253737774
 20
91.26427659555011
 30
0.0
 10
108.7186024739894
 20
93.00827339035649
 30
0.0
 10
107.5243128261016
 20
94.39206526793902
 30
0.0
 10
106.1747200969732
 20
95.69534794863782
 30
0.0
 10
104.6097668940254
 20
96.9322480544628
 30
0.0
 10
102.9338301613459
 20
97.96297294900644
 30
0.0
 10
101.1539313168061
 20
98.73341489510665
 30
0.0
 10
99.40465696982794
 20
99.1296633301621
 30
0.0
 10
97.9227115143909
 20
99.09406913694083
 30
0.0
 10
96.76297030172994
 20
98.72002429159164
 30
0.0
 10
95.9366527250115
 20
98.17312674293096
 30
0.0
 10
95.31551865304016
 20
97.42822053854755
 30
0.0
 10
94.7549764074742
 20
96.33634162787305
 30
0.0
 10
94.66277054843499
 20
95.25457049054928
 30
0.0
 10
94.60416482238757
 20
94.56700048599018
 30
0.0
  0
LWPOLYLINE
  5
133
330
1F
100
AcDbEntity
  8
0
  6
Continuous
 62
     7
370
    25
100
AcDbPolyline
 90
       21
 70
   128
 43
0.0
 10
105.4228986356547
 20
83.99381183919017
 10
105.3259956223024
 20
84.75626232806141
 10
105.0447715987941
 20
85.55596105492302
 10
104.6067551249705
 20
86.31462926577899
 10
104.0548221404309
 20
86.95799994778237
 10
103.4429997189283
 20
87.42309810720914
 10
102.8311772974257
 20
87.66439507960615
 10
102.2792443128861
 20
87.65827265734156
 10
101.8412278390625
 20
87.4053275025444
 10
101.5600038155542
 20
86.93032312191198
 10
101.4631008022019
 20
86.27975447078539
 10
101.5600038155542
 20
85.51730398191417
 10
101.8412278390625
 20
84.71760525505253
 10
102.2792443128861
 20
83.95893704419659
 10
102.8311772974257
 20
83.3155663621932
 10
103.4429997189283
 20
82.8504682027664
 10
104.0548221404309
 20
82.60917123036943
 10
104.6067551249705
 20
82.61529365263402
 10
105.0447715987941
 20
82.86823880743117
 10
105.3259956223024
 20
83.3432431880636
 10
105.4228986356547
 20
83.99381183919017
  0
LINE
  5
134
330
1F
100
AcDbEntity
  8
0
  6
Continuous
 62
     7
370
    25
100
AcDbLine
 10
112.281834615469
 20
84.36189893613843
 30
0.0
 11
113.6713655029461
 21
85.19255936187669
 31
0.0
  0
SPLINE
  5
135
330
1F
100
AcDbEntity
  8
0
  6
Continuous
 62
     7
370
    25
100
AcDbSpline
210
0.0
220
0.0
230
1.0
 70
     8
 71
     3
 72
    20
 73
    16
 74
     0
 42
0.000000001
 43
0.00000001
 40
0.0
 40
0.0
 40
0.0
 40
0.0
 40
0.0862420837763245
 40
0.182555182276413
 40
0.288413801454794
 40
0.3503305528014051
 40
0.4134994434416722
 40
0.4880333227706433
 40
0.5641662007548088
 40
0.6508940166816779
 40
0.73986940699657
 40
0.8310488093790213
 40
0.9254729177947602
 40
0.9883110933258286
 40
1.0
 40
1.0
 40
1.0
 40
1.0
 10
113.6713655029461
 20
85.19255936187669
 30
0.0
 10
113.619355889475
 20
85.88584269779577
 30
0.0
 10
113.5092631823931
 20
87.35336829801385
 30
0.0
 10
112.6022239184707
 20
89.88428830686767
 30
0.0
 10
111.3843248025628
 20
92.07203113139974
 30
0.0
 10
110.1178230065828
 20
93.81095288737704
 30
0.0
 10
108.9307680500003
 20
95.18527998485685
 30
0.0
 10
107.5809445171645
 20
96.4898373446787
 30
0.0
 10
106.0265774272382
 20
97.71742199101692
 30
0.0
 10
104.348934946641
 20
98.75154466974602
 30
0.0
 10
102.5850957099124
 20
99.51247413155818
 30
0.0
 10
100.8267482406489
 20
99.92256766329047
 30
0.0
 10
99.37103935439794
 20
99.85719240816884
 30
0.0
 10
98.44818445291166
 20
99.63085465525842
 30
0.0
 10
98.11681547444991
 20
99.39761567662306
 30
0.0
 10
98.06484321216156
 20
99.36103422766014
 30
0.0
  0
ARC
  5
136
330
1F
100
AcDbEntity
  8
0
  6
Continuous
 62
     7
370
    25
100
AcDbCircle
 10
111.1138084990829
 20
84.97595240916095
 30
0.0
 40
2.566713151089188
100
AcDbArc
 50
307.4154248337381
 51
4.840993885964481
  0
LWPOLYLINE
  5
137
330
1F
100
AcDbEntity
  8
0
  6
Continuous
 62
     7
370
    25
100
AcDbPolyline
 90
        9
 70
   128
 43
0.0
 10
110.1605073387528
 20
76.52286334747474
 10
109.6496341926956
 20
76.92806342375889
 10
109.2077574132843
 20
77.49909385062283
 10
108.894555291649
 20
78.15883655294498
 10
108.7523264708097
 20
78.81818959127197
 10
108.800280364792
 20
79.38810247225001
 10
109.0319405176321
 20
79.79160452675555
 10
109.4160194797558
 20
79.97420337144632
 10
109.6283124971607
 20
79.9762100008646
  0
LWPOLYLINE
  5
138
330
1F
100
AcDbEntity
  8
0
  6
Continuous
 62
     7
370
    25
100
AcDbPolyline
 90
        5
 70
   128
 43
0.0
 10
111.4706757104838
 20
76.78479578721712
 10
111.4264590565843
 20
76.69719962126466
 10
111.1132566056768
 20
76.3990725814657
 10
110.6713798262655
 20
76.33822222462194
 10
110.1605073387528
 20
76.52286334747474
  0
LINE
  5
139
330
1F
100
AcDbEntity
  8
0
  6
Continuous
 62
     7
370
    25
100
AcDbLine
 10
110.3443551846798
 20
79.11131490974974
 30
0.0
 11
109.9766594928257
 21
79.32358111444391
 31
0.0
  0
LINE
  5
13A
330
1F
100
AcDbEntity
  8
0
  6
Continuous
 62
     7
370
    25
100
AcDbLine
 10
109.9766594928257
 20
79.32358111444391
 30
0.0
 11
109.9766594928257
 21
78.7985605762082
 31
0.0
  0
ELLIPSE
  5
13B
330
1F
100
AcDbEntity
  8
0
  6
Continuous
 62
     7
370
    25
100
AcDbEllipse
 10
109.6916933274809
 20
78.96795675199783
 30
0.0
 11
-0.2029770344755236
 21
0.351602984815088
 31
0.0
210
0.0
220
0.0
230
1.0
 40
0.5688689412912523
 41
2.363699742581655
 42
3.919643386431476
  0
LINE
  5
13C
330
1F
100
AcDbEntity
  8
0
  6
Continuous
 62
     7
370
    25
100
AcDbLine
 10
109.6959252617952
 20
78.63644423040095
 30
0.0
 11
109.2412681091175
 21
78.8989122178536
 31
0.0
  0
LINE
  5
13D
330
1F
100
AcDbEntity
  8
0
  6
Continuous
 62
     7
370
    25
100
AcDbLine
 10
109.2412681091175
 20
78.8989122178536
 30
0.0
 11
109.2412681091175
 21
78.4743108044014
 31
0.0
  0
LINE
  5
13E
330
1F
100
AcDbEntity
  8
0
  6
Continuous
 62
     7
370
    25
100
AcDbLine
 10
109.2412681091175
 20
78.4743108044014
 30
0.0
 11
109.6959252617952
 21
78.21184281694873
 31
0.0
  0
ELLIPSE
  5
13F
330
1F
100
AcDbEntity
  8
0
  6
Continuous
 62
     7
370
    25
100
AcDbEllipse
 10
109.6916933274809
 20
77.8852172171268
 30
0.0
 11
-0.1999830001076646
 21
0.3464199758967226
 31
0.0
210
0.0
220
0.0
230
1.0
 40
0.5860215324410207
 41
3.934500901280371
 42
5.490444545130156
  0
LINE
  5
140
330
1F
100
AcDbEntity
  8
0
  6
Continuous
 62
     7
370
    25
100
AcDbLine
 10
109.9766594928257
 20
77.72559610634433
 30
0.0
 11
109.9766594928257
 21
77.2005755681086
 31
0.0
  0
LINE
  5
141
330
1F
100
AcDbEntity
  8
0
  6
Continuous
 62
     7
370
    25
100
AcDbLine
 10
109.9766594928257
 20
77.2005755681086
 30
0.0
 11
110.3443551846798
 21
76.98830936341444
 31
0.0
  0
LINE
  5
142
330
1F
100
AcDbEntity
  8
0
  6
Continuous
 62
     7
370
    25
100
AcDbLine
 10
110.3443551846798
 20
76.98830936341444
 30
0.0
 11
110.3443551846798
 21
77.51332990165015
 31
0.0
  0
ELLIPSE
  5
143
330
1F
100
AcDbEntity
  8
0
  6
Continuous
 62
     7
370
    25
100
AcDbEllipse
 10
110.6293224774531
 20
77.34393543035462
 30
0.0
 11
-0.2029770344755235
 21
0.3516029848150737
 31
0.0
210
0.0
220
0.0
230
1.0
 40
0.5688689412912695
 41
5.50529239617151
 42
7.061236040021243
  0
LINE
  5
144
330
1F
100
AcDbEntity
  8
0
  6
Continuous
 62
     7
370
    25
100
AcDbLine
 10
110.6250894157103
 20
77.67544776838318
 30
0.0
 11
111.0797459098436
 21
77.41298016110018
 31
0.0
  0
LINE
  5
145
330
1F
100
AcDbEntity
  8
0
  6
Continuous
 62
     7
370
    25
100
AcDbLine
 10
111.0797459098436
 20
77.41298016110018
 30
0.0
 11
111.0797459098436
 21
77.83758157455239
 31
0.0
  0
LINE
  5
146
330
1F
100
AcDbEntity
  8
0
  6
Continuous
 62
     7
370
    25
100
AcDbLine
 10
111.0797459098436
 20
77.83758157455239
 30
0.0
 11
110.6250894157103
 21
78.1000491818354
 31
0.0
  0
ELLIPSE
  5
147
330
1F
100
AcDbEntity
  8
0
  6
Continuous
 62
     7
370
    25
100
AcDbEllipse
 10
110.6293224774531
 20
78.42667496522566
 30
0.0
 11
-0.1999830001076646
 21
0.3464199758967226
 31
0.0
210
0.0
220
0.0
230
1.0
 40
0.5860215324410207
 41
0.7929082476906298
 42
2.348851891540298
  0
LINE
  5
148
330
1F
100
AcDbEntity
  8
0
  6
Continuous
 62
     7
370
    25
100
AcDbLine
 10
110.3443551846798
 20
78.58629437151403
 30
0.0
 11
110.3443551846798
 21
79.11131490974974
 31
0.0
  0
LINE
  5
149
330
1F
100
AcDbEntity
  8
0
  6
Continuous
 62
     7
370
    25
100
AcDbLine
 10
109.3020122545338
 20
79.96968548597646
 30
0.0
 11
109.429524251981
 21
80.02654091124748
 31
0.0
  0
LINE
  5
14A
330
1F
100
AcDbEntity
  8
0
  6
Continuous
 62
     7
370
    25
100
AcDbLine
 10
111.4148508925421
 20
76.58748092298808
 30
0.0
 11
111.3018499233284
 21
76.50548937823184
 31
0.0
  0
LINE
  5
14B
330
1F
100
AcDbEntity
  8
0
  6
Continuous
 62
     7
370
    25
100
AcDbLine
 10
110.4530235895756
 20
78.00060578240763
 30
0.0
 11
110.4530235895756
 21
77.72345812355988
 31
0.0
  0
ELLIPSE
  5
14C
330
1F
100
AcDbEntity
  8
0
  6
Continuous
 62
     7
370
    25
100
AcDbEllipse
 10
110.1680504735765
 20
78.16022212024332
 30
0.0
 11
-0.1999830001076646
 21
0.3464199758967226
 31
0.0
210
0.0
220
0.0
230
1.0
 40
0.5860215324410516
 41
3.93450090128035
 42
5.490444545130083
  0
LINE
  5
14D
330
1F
100
AcDbEntity
  8
0
  6
Continuous
 62
     7
370
    25
100
AcDbLine
 10
109.9321491280757
 20
78.62548097631365
 30
0.0
 11
110.1722893585451
 21
78.48685097208627
 31
0.0
  0
LINE
  5
14E
330
1F
100
AcDbEntity
  8
0
  6
Continuous
 62
     7
370
    25
100
AcDbLine
 10
110.4530235895756
 20
78.00060578240763
 30
0.0
 11
109.9766594928257
 21
77.72559610634433
 31
0.0
  0
LINE
  5
14F
330
1F
100
AcDbEntity
  8
0
  6
Continuous
 62
     7
370
    25
100
AcDbLine
 10
109.6959252617952
 20
78.21184281694873
 30
0.0
 11
110.1722893585451
 21
78.48685097208627
 31
0.0
  0
LINE
  5
150
330
1F
100
AcDbEntity
  8
0
  6
Continuous
 62
     7
370
    25
100
AcDbLine
 10
110.3443505748683
 20
77.41284741815014
 30
0.0
 11
109.9766594928257
 21
77.2005755681086
 31
0.0
  0
LINE
  5
151
330
1F
100
AcDbEntity
  8
0
  6
Continuous
 62
     7
370
    25
100
AcDbLine
 10
109.6090072649091
 20
78.68660964747693
 30
0.0
 11
109.2412681091175
 21
78.4743108044014
 31
0.0
  0
LWPOLYLINE
  5
152
330
1F
100
AcDbEntity
  8
0
  6
Continuous
 62
     7
370
    25
100
AcDbPolyline
 90
        9
 70
   128
 43
0.0
 10
96.30121426312378
 20
71.21404835559825
 10
95.79034111706659
 20
71.61924748130377
 10
95.34846499619977
 20
72.19027847857669
 10
95.0352618867477
 20
72.8500215610376
 10
94.89303339518064
 20
73.50937374387473
 10
94.94098728916293
 20
74.07928624462131
 10
95.17264744200305
 20
74.48278924970548
 10
95.55672706267129
 20
74.66538714387944
 10
95.76902271425418
 20
74.66739339331343
  0
LWPOLYLINE
  5
153
330
1F
100
AcDbEntity
  8
0
  6
Continuous
 62
     7
370
    25
100
AcDbPolyline
 90
        5
 70
   128
 43
0.0
 10
97.61138395194384
 20
71.47598383731577
 10
97.56716663949985
 20
71.38838405910279
 10
97.25396353004777
 20
71.09025758958921
 10
96.81208740918095
 20
71.0294059019972
 10
96.30121426312378
 20
71.21404835559825
  0
LINE
  5
154
330
1F
100
AcDbEntity
  8
0
  6
Continuous
 62
     7
370
    25
100
AcDbLine
 10
96.48506210905082
 20
73.80249982281539
 30
0.0
 11
96.11736641719672
 21
74.01476602750957
 31
0.0
  0
LINE
  5
155
330
1F
100
AcDbEntity
  8
0
  6
Continuous
 62
     7
370
    25
100
AcDbLine
 10
96.11736641719672
 20
74.01476602750957
 30
0.0
 11
96.11736641719672
 21
73.48974548927386
 31
0.0
  0
ELLIPSE
  5
156
330
1F
100
AcDbEntity
  8
0
  6
Continuous
 62
     7
370
    25
100
AcDbEllipse
 10
95.83240041622469
 20
73.65914101412274
 30
0.0
 11
-0.2029770344755236
 21
0.351602984815088
 31
0.0
210
0.0
220
0.0
230
1.0
 40
0.5688689412912523
 41
2.363699742581656
 42
3.919643386431571
  0
LINE
  5
157
330
1F
100
AcDbEntity
  8
0
  6
Continuous
 62
     7
370
    25
100
AcDbLine
 10
95.83663218616621
 20
73.32762800277226
 30
0.0
 11
95.38197569203298
 21
73.59009561005527
 31
0.0
  0
LINE
  5
158
330
1F
100
AcDbEntity
  8
0
  6
Continuous
 62
     7
370
    25
100
AcDbLine
 10
95.38197569203298
 20
73.59009561005527
 30
0.0
 11
95.38197569203298
 21
73.16549438671878
 31
0.0
  0
LINE
  5
159
330
1F
100
AcDbEntity
  8
0
  6
Continuous
 62
     7
370
    25
100
AcDbLine
 10
95.38197569203298
 20
73.16549438671878
 30
0.0
 11
95.83663218616621
 21
72.90302677943578
 31
0.0
  0
ELLIPSE
  5
15A
330
1F
100
AcDbEntity
  8
0
  6
Continuous
 62
     7
370
    25
100
AcDbEllipse
 10
95.83240041622469
 20
72.57640147925171
 30
0.0
 11
-0.1999830001076646
 21
0.3464199758967367
 31
0.0
210
0.0
220
0.0
230
1.0
 40
0.5860215324410027
 41
3.934500901280455
 42
5.490444545130162
  0
LINE
  5
15B
330
1F
100
AcDbEntity
  8
0
  6
Continuous
 62
     7
370
    25
100
AcDbLine
 10
96.11736641719672
 20
72.41678063917853
 30
0.0
 11
96.11736641719672
 21
71.89176000588496
 31
0.0
  0
LINE
  5
15C
330
1F
100
AcDbEntity
  8
0
  6
Continuous
 62
     7
370
    25
100
AcDbLine
 10
96.11736641719672
 20
71.89176000588496
 30
0.0
 11
96.48506210905082
 21
71.67949380119077
 31
0.0
  0
LINE
  5
15D
330
1F
100
AcDbEntity
  8
0
  6
Continuous
 62
     7
370
    25
100
AcDbLine
 10
96.48506210905082
 20
71.67949380119077
 30
0.0
 11
96.48506210905082
 21
72.20451443448435
 31
0.0
  0
ELLIPSE
  5
15E
330
1F
100
AcDbEntity
  8
0
  6
Continuous
 62
     7
370
    25
100
AcDbEllipse
 10
96.77002956619691
 20
72.03511969247954
 30
0.0
 11
-0.2029770344755236
 21
0.351602984815088
 31
0.0
210
0.0
220
0.0
230
1.0
 40
0.5688689412912523
 41
5.505292396171415
 42
7.061236040021322
  0
LINE
  5
15F
330
1F
100
AcDbEntity
  8
0
  6
Continuous
 62
     7
370
    25
100
AcDbLine
 10
96.76579634008132
 20
72.36663173087021
 30
0.0
 11
97.22045283421456
 21
72.10416412358721
 31
0.0
  0
LINE
  5
160
330
1F
100
AcDbEntity
  8
0
  6
Continuous
 62
     7
370
    25
100
AcDbLine
 10
97.22045283421456
 20
72.10416412358721
 30
0.0
 11
97.22045283421456
 21
72.5287653469237
 31
0.0
  0
LINE
  5
161
330
1F
100
AcDbEntity
  8
0
  6
Continuous
 62
     7
370
    25
100
AcDbLine
 10
97.22045283421456
 20
72.5287653469237
 30
0.0
 11
96.76579634008132
 21
72.7912329542067
 31
0.0
  0
ELLIPSE
  5
162
330
1F
100
AcDbEntity
  8
0
  6
Continuous
 62
     7
370
    25
100
AcDbEllipse
 10
96.77002956619691
 20
73.11785922735056
 30
0.0
 11
-0.1999830001076646
 21
0.3464199758967226
 31
0.0
210
0.0
220
0.0
230
1.0
 40
0.5860215324410207
 41
0.7929082476905435
 42
2.348851891540397
  0
LINE
  5
163
330
1F
100
AcDbEntity
  8
0
  6
Continuous
 62
     7
370
    25
100
AcDbLine
 10
96.48506210905082
 20
73.27747928457967
 30
0.0
 11
96.48506210905082
 21
73.80249982281539
 31
0.0
  0
LINE
  5
164
330
1F
100
AcDbEntity
  8
0
  6
Continuous
 62
     7
370
    25
100
AcDbLine
 10
95.44271917890481
 20
74.66087001881066
 30
0.0
 11
95.57023117635198
 21
74.71772468361878
 31
0.0
  0
LINE
  5
165
330
1F
100
AcDbEntity
  8
0
  6
Continuous
 62
     7
370
    25
100
AcDbLine
 10
97.55555781691312
 20
71.27866536076442
 30
0.0
 11
97.44255684769935
 21
71.19667438635535
 31
0.0
  0
LINE
  5
166
330
1F
100
AcDbEntity
  8
0
  6
Continuous
 62
     7
370
    25
100
AcDbLine
 10
96.5937311724911
 20
72.69178955484074
 30
0.0
 11
96.5937311724911
 21
72.41464170587727
 31
0.0
  0
ELLIPSE
  5
167
330
1F
100
AcDbEntity
  8
0
  6
Continuous
 62
     7
370
    25
100
AcDbEllipse
 10
96.30875756232031
 20
72.85140638236821
 30
0.0
 11
-0.1999830001076646
 21
0.3464199758967226
 31
0.0
210
0.0
220
0.0
230
1.0
 40
0.5860215324410516
 41
3.934500901280302
 42
5.490444545130232
  0
LINE
  5
168
330
1F
100
AcDbEntity
  8
0
  6
Continuous
 62
     7
370
    25
100
AcDbLine
 10
96.07285605244668
 20
73.31666607949502
 30
0.0
 11
96.3129962829161
 21
73.17803607526764
 31
0.0
  0
ARC
  5
169
330
1F
100
AcDbEntity
  8
0
  6
Continuous
 62
     7
370
    25
100
AcDbCircle
 10
99.30410211410626
 20
74.9218085945572
 30
0.0
 40
0.7059612897755984
100
AcDbArc
 50
37.75367254550262
 51
94.49381386372421
  0
LINE
  5
16A
330
1F
100
AcDbEntity
  8
0
  6
Continuous
 62
     7
370
    25
100
AcDbLine
 10
96.5937311724911
 20
72.69178955484074
 30
0.0
 11
96.11736641719672
 21
72.41678063917853
 31
0.0
  0
LINE
  5
16B
330
1F
100
AcDbEntity
  8
0
  6
Continuous
 62
     7
370
    25
100
AcDbLine
 10
95.83663218616621
 20
72.90302677943578
 30
0.0
 11
96.3129962829161
 21
73.17803607526764
 31
0.0
  0
LINE
  5
16C
330
1F
100
AcDbEntity
  8
0
  6
Continuous
 62
     7
370
    25
100
AcDbLine
 10
96.48505749923929
 20
72.10403119052144
 30
0.0
 11
96.11736641719672
 21
71.89176000588496
 31
0.0
  0
LINE
  5
16D
330
1F
100
AcDbEntity
  8
0
  6
Continuous
 62
     7
370
    25
100
AcDbLine
 10
95.74971484782465
 20
73.3777932297943
 30
0.0
 11
95.38197569203298
 21
73.16549438671878
 31
0.0
  0
ARC
  5
16E
330
1F
100
AcDbEntity
  8
0
  6
Continuous
 62
     7
370
    25
100
AcDbCircle
 10
100.3480089618729
 20
75.46191373651718
 30
0.0
 40
0.3798212162900478
100
AcDbArc
 50
54.65326064301643
 51
96.2746699409362
  0
ELLIPSE
  5
16F
330
1F
100
AcDbEntity
  8
0
  6
Continuous
 62
     7
370
    25
100
AcDbEllipse
 10
104.8572070435679
 20
90.44718515447875
 30
0.0
 11
-7.42216399823697
 21
8.718675749327248
 31
0.0
210
0.0
220
0.0
230
1.0
 40
0.5505002849354792
 41
3.715617917489517
 42
6.321250551281302
  0
LWPOLYLINE
  5
170
330
1F
100
AcDbEntity
  8
0
  6
Continuous
 62
     7
370
    25
100
AcDbPolyline
 90
        3
 70
   128
 43
0.0
 10
113.6960510438278
 20
85.3446401878752
 10
113.6620550006922
 20
84.79945316635606
 10
113.6308386739248
 20
84.60175954357061
  0
LINE
  5
171
330
1F
100
AcDbEntity
  8
0
  6
Continuous
 62
     7
370
    25
100
AcDbLine
 10
113.6960510438278
 20
85.3446401878752
 30
0.0
 11
335.3740178420916
 21
213.3166064606193
 31
0.0
  0
ELLIPSE
  5
172
330
1F
100
AcDbEntity
  8
0
  6
Continuous
 62
     7
370
    25
100
AcDbEllipse
 10
326.5351829455508
 20
218.4191566826867
 30
0.0
 11
-7.422163998236896
 21
8.718675749327247
 31
0.0
210
0.0
220
0.0
230
1.0
 40
0.5505002849354796
 41
3.715617917489525
 42
6.184631349000476
  0
ARC
  5
173
330
1F
100
AcDbEntity
  8
0
  6
Continuous
 62
     7
370
    25
100
AcDbCircle
 10
332.8831206803823
 20
213.0646713857722
 30
0.0
 40
2.503605390661527
100
AcDbArc
 50
305.5368064209378
 51
5.775386897059766
  0
LINE
  5
174
330
1F
100
AcDbEntity
  8
0
  6
Continuous
 62
     7
370
    25
100
AcDbLine
 10
109.6372468881824
 20
91.65232521860857
 30
0.0
 11
110.0615039800104
 21
91.65232122682721
 31
0.0
  0
LINE
  5
175
330
1F
100
AcDbEntity
  8
0
  6
Continuous
 62
     7
370
    25
100
AcDbLine
 10
112.7061012561924
 20
82.40197682505409
 30
0.0
 11
112.3404161007211
 21
82.61308237179975
 31
0.0
  0
ARC
  5
176
330
1F
100
AcDbEntity
  8
0
  6
Continuous
 62
     7
370
    25
100
AcDbCircle
 10
112.374856032837
 20
81.88413342473143
 30
0.0
 40
0.6147236657665887
100
AcDbArc
 50
2.605617049992219
 51
57.39446011960933
  0
LINE
  5
177
330
1F
100
AcDbEntity
  8
0
  6
Continuous
 62
     7
370
    25
100
AcDbLine
 10
112.9889441467375
 20
80.36065138099683
 30
0.0
 11
112.9889441467375
 21
81.9120793299711
 31
0.0
  0
LINE
  5
178
330
1F
100
AcDbEntity
  8
0
  6
Continuous
 62
     7
370
    25
100
AcDbLine
 10
113.766761601828
 20
79.74831903696713
 30
0.0
 11
113.1303652627377
 21
80.11570282354015
 31
0.0
  0
ARC
  5
179
330
1F
100
AcDbEntity
  8
0
  6
Continuous
 62
     7
370
    25
100
AcDbCircle
 10
113.4647570049125
 20
79.24900657076107
 30
0.0
 40
0.5835406716475119
100
AcDbArc
 50
357.2484540010183
 51
58.83273585144829
  0
ARC
  5
17A
330
1F
100
AcDbEntity
  8
0
  6
Continuous
 62
     7
370
    25
100
AcDbCircle
 10
110.2056069970301
 20
81.69242601538816
 30
0.0
 40
0.309232829275548
100
AcDbArc
 50
16.90710046405251
 51
57.30399593047577
  0
LINE
  5
17B
330
1F
100
AcDbEntity
  8
0
  6
Continuous
 62
     7
370
    25
100
AcDbLine
 10
110.3724190588875
 20
81.95279310505624
 30
0.0
 11
110.3726488909208
 21
81.9526604258476
 31
0.0
  0
ARC
  5
17C
330
1F
100
AcDbEntity
  8
0
  6
Continuous
 62
     7
370
    25
100
AcDbCircle
 10
334.0528228311009
 20
209.8560996974756
 30
0.0
 40
0.6147236657664991
100
AcDbArc
 50
2.605617049989994
 51
57.39446011961977
  0
LINE
  5
17D
330
1F
100
AcDbEntity
  8
0
  6
Continuous
 62
     7
370
    25
100
AcDbLine
 10
334.6669109450012
 20
209.8840456027152
 30
0.0
 11
112.9889441467375
 21
81.9120793299711
 31
0.0
  0
LINE
  5
17E
330
1F
100
AcDbEntity
  8
0
  6
Continuous
 62
     7
370
    25
100
AcDbLine
 10
112.7061012561924
 20
82.40197682505409
 30
0.0
 11
334.3840680544561
 21
210.3739430977982
 31
0.0
  0
LINE
  5
17F
330
1F
100
AcDbEntity
  8
0
  6
Continuous
 62
     7
370
    25
100
AcDbLine
 10
334.6669109450012
 20
209.8840456027152
 30
0.0
 11
334.6669109450012
 21
208.332617653741
 31
0.0
  0
LINE
  5
180
330
1F
100
AcDbEntity
  8
0
  6
Continuous
 62
     7
370
    25
100
AcDbLine
 10
112.9889441467375
 20
80.36065138099683
 30
0.0
 11
334.6669109450012
 21
208.332617653741
 31
0.0
  0
LINE
  5
181
330
1F
100
AcDbEntity
  8
0
  6
Continuous
 62
     7
370
    25
100
AcDbLine
 10
334.0183828989849
 20
210.5850486445439
 30
0.0
 11
112.3404161007211
 21
82.61308237179975
 31
0.0
  0
LINE
  5
182
330
1F
100
AcDbEntity
  8
0
  6
Continuous
 62
     7
370
    25
100
AcDbLine
 10
334.3840680544561
 20
210.3739430977982
 30
0.0
 11
334.0183828989849
 21
210.5850486445439
 31
0.0
  0
ARC
  5
183
330
1F
100
AcDbEntity
  8
0
  6
Continuous
 62
     7
370
    25
100
AcDbCircle
 10
333.9598000406571
 20
210.5032768023541
 30
0.0
 40
0.1005911798567247
100
AcDbArc
 50
54.38148885556783
 51
114.3140063425026
  0
LINE
  5
184
330
1F
100
AcDbEntity
  8
0
  6
Continuous
 62
     7
370
    25
100
AcDbLine
 10
112.2818043224216
 20
82.64687244088253
 30
0.0
 11
333.9183829154478
 21
210.5949458113177
 31
0.0
  0
LWPOLYLINE
  5
185
330
1F
100
AcDbEntity
  8
0
  6
Continuous
 62
     7
370
    25
100
AcDbPolyline
 90
        9
 70
   128
 43
0.0
 10
335.4447284000917
 20
207.7202853097113
 10
335.533564078585
 20
207.6524736636448
 10
335.6134086489109
 20
207.5584681703215
 10
335.6761817699563
 20
207.4477852646212
 10
335.7155298043083
 20
207.331624447824
 10
335.7274705333271
 20
207.2217432432581
 10
335.7107961863849
 20
207.1292617864529
 10
335.6671932959669
 20
207.0635411536202
 10
335.6447119035534
 20
207.0472491685286
  0
LINE
  5
186
330
1F
100
AcDbEntity
  8
0
  6
Continuous
 62
     7
370
    25
100
AcDbLine
 10
335.4447284000917
 20
207.7202853097113
 30
0.0
 11
113.766761601828
 21
79.74831903696713
 31
0.0
  0
LINE
  5
187
330
1F
100
AcDbEntity
  8
0
  6
Continuous
 62
     7
370
    25
100
AcDbLine
 10
334.8083320610015
 20
208.0876690962843
 30
0.0
 11
113.1303652627377
 21
80.11570282354015
 31
0.0
  0
LINE
  5
188
330
1F
100
AcDbEntity
  8
0
  6
Continuous
 62
     7
370
    25
100
AcDbLine
 10
334.8083320610015
 20
208.0876690962843
 30
0.0
 11
335.4447284000917
 21
207.7202853097113
 31
0.0
  0
ARC
  5
189
330
1F
100
AcDbEntity
  8
0
  6
Continuous
 62
     7
370
    25
100
AcDbCircle
 10
335.7802131272124
 20
206.919606618554
 30
0.0
 40
0.2405591163301092
100
AcDbArc
 50
162.16830459181
 51
221.8690440819614
  0
ARC
  5
18A
330
1F
100
AcDbEntity
  8
0
  6
Continuous
 62
     7
370
    25
100
AcDbCircle
 10
335.1208927156939
 20
206.3873144791066
 30
0.0
 40
0.607258479564487
100
AcDbArc
 50
2.504169307465965
 51
37.7454128052591
  0
LINE
  5
18B
330
1F
100
AcDbEntity
  8
0
  6
Continuous
 62
     7
370
    25
100
AcDbLine
 10
114.049604492373
 20
78.44188059615692
 30
0.0
 11
335.7275712906368
 21
206.413846868901
 31
0.0
  0
ARC
  5
18C
330
1F
100
AcDbEntity
  8
0
  6
Continuous
 62
     7
370
    25
100
AcDbCircle
 10
333.4652541883604
 20
210.4497960444808
 30
0.0
 40
0.1017945765449368
100
AcDbArc
 50
234.5752244075754
 51
292.1420869292767
  0
ARC
  5
18D
330
1F
100
AcDbEntity
  8
0
  6
Continuous
 62
     7
370
    25
100
AcDbCircle
 10
335.5403147192308
 20
206.3882555683902
 30
0.0
 40
0.1889971909752925
100
AcDbArc
 50
303.530050387358
 51
7.782081292483368
  0
LINE
  5
18E
330
1F
100
AcDbEntity
  8
0
  6
Continuous
 62
     7
370
    25
100
AcDbLine
 10
333.4062506322913
 20
210.3668459619904
 30
0.0
 11
333.3001630633223
 21
210.4280890119612
 31
0.0
  0
LINE
  5
18F
330
1F
100
AcDbEntity
  8
0
  6
Continuous
 62
     7
370
    25
100
AcDbLine
 10
114.047666395886
 20
62.23200532785628
 30
0.0
 11
114.049604492373
 21
62.19271769160117
 31
0.0
  0
LWPOLYLINE
  5
190
330
1F
100
AcDbEntity
  8
0
  6
Continuous
 62
     7
370
    25
100
AcDbPolyline
 90
        8
 70
   128
 43
0.0
 10
114.049604492373
 20
62.19271769160117
 10
114.0441695245486
 20
62.132135547034
 10
114.028074038229
 20
62.08015630307273
 10
114.0019364067072
 20
62.0387775874052
 10
113.9667615689023
 20
62.0095892835898
 10
113.9239008581448
 20
61.99371331407211
 10
113.8750006357045
 20
61.99176022362781
 10
113.8573990580952
 20
61.99428328059548
  0
ARC
  5
191
330
1F
100
AcDbEntity
  8
0
  6
Continuous
 62
     7
370
    25
100
AcDbCircle
 10
335.1036824515411
 20
205.647561622775
 30
0.0
 40
0.6246784238341968
100
AcDbArc
 50
2.88107461458884
 51
52.04990759262263
  0
LINE
  5
192
330
1F
100
AcDbEntity
  8
0
  6
Continuous
 62
     7
370
    25
100
AcDbLine
 10
335.7275712906368
 20
205.678959865654
 30
0.0
 11
114.049604492373
 21
77.70699359290984
 31
0.0
  0
ARC
  5
193
330
1F
100
AcDbEntity
  8
0
  6
Continuous
 62
     7
370
    25
100
AcDbCircle
 10
335.5356602234697
 20
205.6554744487136
 30
0.0
 40
0.1933427591353714
100
AcDbArc
 50
304.3351621404274
 51
6.976969539426674
  0
ARC
  5
194
330
1F
100
AcDbEntity
  8
0
  6
Continuous
 62
     7
370
    25
100
AcDbCircle
 10
335.7802126224526
 20
205.3681800830435
 30
0.0
 40
0.2405586687261159
100
AcDbArc
 50
162.1682434114768
 51
221.8691052622947
  0
ARC
  5
195
330
1F
100
AcDbEntity
  8
0
  6
Continuous
 62
     7
370
    25
100
AcDbCircle
 10
335.1208832622719
 20
204.8358847038682
 30
0.0
 40
0.6072680037538197
100
AcDbArc
 50
2.504302480748958
 51
37.74511652739305
  0
LINE
  5
196
330
1F
100
AcDbEntity
  8
0
  6
Continuous
 62
     7
370
    25
100
AcDbLine
 10
114.049604492373
 20
76.89045264718263
 30
0.0
 11
335.7275712906368
 21
204.8624189199268
 31
0.0
  0
ARC
  5
197
330
1F
100
AcDbEntity
  8
0
  6
Continuous
 62
     7
370
    25
100
AcDbCircle
 10
335.5356602234701
 20
204.8389335029863
 30
0.0
 40
0.1933427591350118
100
AcDbArc
 50
304.3351621403538
 51
6.976969539474439
  0
ARC
  5
198
330
1F
100
AcDbEntity
  8
0
  6
Continuous
 62
     7
370
    25
100
AcDbCircle
 10
335.7802126224526
 20
204.5516391373163
 30
0.0
 40
0.240558668726189
100
AcDbArc
 50
162.1682434114874
 51
221.8691052622958
  0
ARC
  5
199
330
1F
100
AcDbEntity
  8
0
  6
Continuous
 62
     7
370
    25
100
AcDbCircle
 10
335.1208832622721
 20
204.019343758141
 30
0.0
 40
0.6072680037535877
100
AcDbArc
 50
2.504302480744536
 51
37.74511652739982
  0
LINE
  5
19A
330
1F
100
AcDbEntity
  8
0
  6
Continuous
 62
     7
370
    25
100
AcDbLine
 10
114.049604492373
 20
76.0739117014554
 30
0.0
 11
335.7275712906368
 21
204.0458779741995
 31
0.0
  0
ARC
  5
19B
330
1F
100
AcDbEntity
  8
0
  6
Continuous
 62
     7
370
    25
100
AcDbCircle
 10
335.5356751349145
 20
204.0223871365471
 30
0.0
 40
0.1933286166985872
100
AcDbArc
 50
304.3326733147142
 51
6.979100956112903
  0
ARC
  5
19C
330
1F
100
AcDbEntity
  8
0
  6
Continuous
 62
     7
370
    25
100
AcDbCircle
 10
335.7802126224527
 20
203.7350981915891
 30
0.0
 40
0.2405586687262242
100
AcDbArc
 50
162.1682434114851
 51
221.8691052622817
  0
ARC
  5
19D
330
1F
100
AcDbEntity
  8
0
  6
Continuous
 62
     7
370
    25
100
AcDbCircle
 10
335.1208832622719
 20
203.2028028124138
 30
0.0
 40
0.6072680037537399
100
AcDbArc
 50
2.504302480749192
 51
37.74511652739209
  0
LINE
  5
19E
330
1F
100
AcDbEntity
  8
0
  6
Continuous
 62
     7
370
    25
100
AcDbLine
 10
114.049604492373
 20
75.25737075572819
 30
0.0
 11
335.7275712906368
 21
203.2293370284723
 31
0.0
  0
ARC
  5
19F
330
1F
100
AcDbEntity
  8
0
  6
Continuous
 62
     7
370
    25
100
AcDbCircle
 10
335.5356751349153
 20
203.2058461908196
 30
0.0
 40
0.1933286166978952
100
AcDbArc
 50
304.3326733145951
 51
6.979100956239843
  0
ARC
  5
1A0
330
1F
100
AcDbEntity
  8
0
  6
Continuous
 62
     7
370
    25
100
AcDbCircle
 10
335.7802126224526
 20
202.9185572458619
 30
0.0
 40
0.2405586687262269
100
AcDbArc
 50
162.168243411498
 51
221.8691052623059
  0
ARC
  5
1A1
330
1F
100
AcDbEntity
  8
0
  6
Continuous
 62
     7
370
    25
100
AcDbCircle
 10
335.1208832622719
 20
202.3862618666866
 30
0.0
 40
0.6072680037537915
100
AcDbArc
 50
2.504302480746278
 51
37.74511652738668
  0
LINE
  5
1A2
330
1F
100
AcDbEntity
  8
0
  6
Continuous
 62
     7
370
    25
100
AcDbLine
 10
114.049604492373
 20
74.44082981000096
 30
0.0
 11
335.7275712906368
 21
202.4127960827451
 31
0.0
  0
ARC
  5
1A3
330
1F
100
AcDbEntity
  8
0
  6
Continuous
 62
     7
370
    25
100
AcDbCircle
 10
335.5356670639275
 20
202.3893082338335
 30
0.0
 40
0.1933362647704062
100
AcDbArc
 50
304.3340218079494
 51
6.977931168000654
  0
ARC
  5
1A4
330
1F
100
AcDbEntity
  8
0
  6
Continuous
 62
     7
370
    25
100
AcDbCircle
 10
335.7802126224526
 20
202.1020163001346
 30
0.0
 40
0.2405586687261277
100
AcDbArc
 50
162.1682434114768
 51
221.8691052622998
  0
ARC
  5
1A5
330
1F
100
AcDbEntity
  8
0
  6
Continuous
 62
     7
370
    25
100
AcDbCircle
 10
335.1208832622719
 20
201.5697209209593
 30
0.0
 40
0.6072680037538023
100
AcDbArc
 50
2.504302480748958
 51
37.74511652739093
  0
LINE
  5
1A6
330
1F
100
AcDbEntity
  8
0
  6
Continuous
 62
     7
370
    25
100
AcDbLine
 10
114.049604492373
 20
73.62428886427375
 30
0.0
 11
335.7275712906368
 21
201.5962551370179
 31
0.0
  0
ARC
  5
1A7
330
1F
100
AcDbEntity
  8
0
  6
Continuous
 62
     7
370
    25
100
AcDbCircle
 10
335.5356745193633
 20
201.5727645778682
 30
0.0
 40
0.1933291938490729
100
AcDbArc
 50
304.3327774075157
 51
6.97899686330608
  0
ARC
  5
1A8
330
1F
100
AcDbEntity
  8
0
  6
Continuous
 62
     7
370
    25
100
AcDbCircle
 10
335.780212874834
 20
201.2854754081387
 30
0.0
 40
0.2405588925294122
100
AcDbArc
 50
162.1682740018558
 51
221.869074671913
  0
ARC
  5
1A9
330
1F
100
AcDbEntity
  8
0
  6
Continuous
 62
     7
370
    25
100
AcDbCircle
 10
335.1208866362481
 20
200.7531812115822
 30
0.0
 40
0.6072645789792915
100
AcDbArc
 50
2.504199851306663
 51
37.74521915683628
  0
LINE
  5
1AA
330
1F
100
AcDbEntity
  8
0
  6
Continuous
 62
     7
370
    25
100
AcDbLine
 10
114.049604492373
 20
72.80774791854654
 30
0.0
 11
335.7275712906368
 21
200.7797141912907
 31
0.0
  0
ARC
  5
1AB
330
1F
100
AcDbEntity
  8
0
  6
Continuous
 62
     7
370
    25
100
AcDbCircle
 10
335.5356745193628
 20
200.7562236321412
 30
0.0
 40
0.1933291938496152
100
AcDbArc
 50
304.3327774076168
 51
6.978996863235447
  0
ARC
  5
1AC
330
1F
100
AcDbEntity
  8
0
  6
Continuous
 62
     7
370
    25
100
AcDbCircle
 10
335.780210006254
 20
200.4689343729878
 30
0.0
 40
0.2405561891414891
100
AcDbArc
 50
162.1680445027465
 51
221.8693799458435
  0
ARC
  5
1AD
330
1F
100
AcDbEntity
  8
0
  6
Continuous
 62
     7
370
    25
100
AcDbCircle
 10
335.1208821326508
 20
199.9366393760326
 30
0.0
 40
0.6072691503828275
100
AcDbArc
 50
2.50433684125448
 51
37.74508216688743
  0
LINE
  5
1AE
330
1F
100
AcDbEntity
  8
0
  6
Continuous
 62
     7
370
    25
100
AcDbLine
 10
114.049604492373
 20
71.9912077332822
 30
0.0
 11
335.7275712906368
 21
199.9631740060264
 31
0.0
  0
ARC
  5
1AF
330
1F
100
AcDbEntity
  8
0
  6
Continuous
 62
     7
370
    25
100
AcDbCircle
 10
335.5356733205148
 20
199.9396833263679
 30
0.0
 40
0.1933303984575277
100
AcDbArc
 50
304.3329638330905
 51
6.97898914286457
  0
ARC
  5
1B0
330
1F
100
AcDbEntity
  8
0
  6
Continuous
 62
     7
370
    25
100
AcDbCircle
 10
335.7802136673674
 20
199.6523944458754
 30
0.0
 40
0.2405595953214271
100
AcDbArc
 50
162.1683700620009
 51
221.8689786117801
  0
ARC
  5
1B1
330
1F
100
AcDbEntity
  8
0
  6
Continuous
 62
     7
370
    25
100
AcDbCircle
 10
335.1208821326506
 20
199.1200984303054
 30
0.0
 40
0.6072691503829551
100
AcDbArc
 50
2.504336841251332
 51
37.74508216688722
  0
LINE
  5
1B2
330
1F
100
AcDbEntity
  8
0
  6
Continuous
 62
     7
370
    25
100
AcDbLine
 10
114.049604492373
 20
71.17466678755498
 30
0.0
 11
335.7275712906368
 21
199.1466330602991
 31
0.0
  0
ARC
  5
1B3
330
1F
100
AcDbEntity
  8
0
  6
Continuous
 62
     7
370
    25
100
AcDbCircle
 10
335.5356676794852
 20
199.123144932883
 30
0.0
 40
0.1933356876071719
100
AcDbArc
 50
304.3339177213786
 51
6.978035254545683
  0
ARC
  5
1B4
330
1F
100
AcDbEntity
  8
0
  6
Continuous
 62
     7
370
    25
100
AcDbCircle
 10
335.7802126224526
 20
198.8358532776887
 30
0.0
 40
0.2405586687261277
100
AcDbArc
 50
162.1682434114832
 51
221.8691052622998
  0
ARC
  5
1B5
330
1F
100
AcDbEntity
  8
0
  6
Continuous
 62
     7
370
    25
100
AcDbCircle
 10
335.1208821326507
 20
198.3035574845782
 30
0.0
 40
0.6072691503828929
100
AcDbArc
 50
2.504336841251567
 51
37.74508216688838
  0
LINE
  5
1B6
330
1F
100
AcDbEntity
  8
0
  6
Continuous
 62
     7
370
    25
100
AcDbLine
 10
114.049604492373
 20
70.35812584182777
 30
0.0
 11
335.7275712906368
 21
198.3300921145719
 31
0.0
  0
ARC
  5
1B7
330
1F
100
AcDbEntity
  8
0
  6
Continuous
 62
     7
370
    25
100
AcDbCircle
 10
335.5356670639272
 20
198.3066042656604
 30
0.0
 40
0.1933362647706834
100
AcDbArc
 50
304.3340218079952
 51
6.977931167956979
  0
ARC
  5
1B8
330
1F
100
AcDbEntity
  8
0
  6
Continuous
 62
     7
370
    25
100
AcDbCircle
 10
335.7802126224526
 20
198.0193123319614
 30
0.0
 40
0.2405586687261159
100
AcDbArc
 50
162.1682434114768
 51
221.8691052622947
  0
ARC
  5
1B9
330
1F
100
AcDbEntity
  8
0
  6
Continuous
 62
     7
370
    25
100
AcDbCircle
 10
335.1208832622718
 20
197.4870169527861
 30
0.0
 40
0.6072680037539063
100
AcDbArc
 50
2.504302480748489
 51
37.74511652738436
  0
LINE
  5
1BA
330
1F
100
AcDbEntity
  8
0
  6
Continuous
 62
     7
370
    25
100
AcDbLine
 10
114.049604492373
 20
69.54158489610055
 30
0.0
 11
335.7275712906368
 21
197.5135511688447
 31
0.0
  0
ARC
  5
1BB
330
1F
100
AcDbEntity
  8
0
  6
Continuous
 62
     7
370
    25
100
AcDbCircle
 10
335.5356670639275
 20
197.4900633199331
 30
0.0
 40
0.1933362647704057
100
AcDbArc
 50
304.3340218079494
 51
6.977931167992294
  0
ARC
  5
1BC
330
1F
100
AcDbEntity
  8
0
  6
Continuous
 62
     7
370
    25
100
AcDbCircle
 10
335.780212874834
 20
197.2027714399656
 30
0.0
 40
0.2405588925294487
100
AcDbArc
 50
162.1682740018623
 51
221.8690746719282
  0
ARC
  5
1BD
330
1F
100
AcDbEntity
  8
0
  6
Continuous
 62
     7
370
    25
100
AcDbCircle
 10
335.1208832622719
 20
196.6704760070589
 30
0.0
 40
0.6072680037537915
100
AcDbArc
 50
2.504302480746278
 51
37.74511652738881
  0
LINE
  5
1BE
330
1F
100
AcDbEntity
  8
0
  6
Continuous
 62
     7
370
    25
100
AcDbLine
 10
114.049604492373
 20
68.72504395037332
 30
0.0
 11
335.7275712906368
 21
196.6970102231175
 31
0.0
  0
ARC
  5
1BF
330
1F
100
AcDbEntity
  8
0
  6
Continuous
 62
     7
370
    25
100
AcDbCircle
 10
335.5356745193632
 20
196.6735196639678
 30
0.0
 40
0.193329193849241
100
AcDbArc
 50
304.3327774075574
 51
6.97899686329994
  0
ARC
  5
1C0
330
1F
100
AcDbEntity
  8
0
  6
Continuous
 62
     7
370
    25
100
AcDbCircle
 10
335.7802123625492
 20
196.3862306458195
 30
0.0
 40
0.2405583584371474
100
AcDbArc
 50
162.1682710070149
 51
221.8691155540989
  0
ARC
  5
1C1
330
1F
100
AcDbEntity
  8
0
  6
Continuous
 62
     7
370
    25
100
AcDbCircle
 10
335.1208826974637
 20
195.8539352345964
 30
0.0
 40
0.6072685770658307
100
AcDbArc
 50
2.504319660943509
 51
37.74509934719675
  0
LINE
  5
1C2
330
1F
100
AcDbEntity
  8
0
  6
Continuous
 62
     7
370
    25
100
AcDbLine
 10
114.049604492373
 20
67.90850338487756
 30
0.0
 11
335.7275712906368
 21
195.8804696576217
 31
0.0
  0
ARC
  5
1C3
330
1F
100
AcDbEntity
  8
0
  6
Continuous
 62
     7
370
    25
100
AcDbCircle
 10
335.5356710994964
 20
195.856980314309
 30
0.0
 40
0.1933324406533613
100
AcDbArc
 50
304.3333475613456
 51
6.978516062221894
  0
ARC
  5
1C4
330
1F
100
AcDbEntity
  8
0
  6
Continuous
 62
     7
370
    25
100
AcDbCircle
 10
335.7802127486437
 20
195.569689901877
 30
0.0
 40
0.2405587806281666
100
AcDbArc
 50
162.1682587067227
 51
221.8690899670447
  0
ARC
  5
1C5
330
1F
100
AcDbEntity
  8
0
  6
Continuous
 62
     7
370
    25
100
AcDbCircle
 10
335.1208843844611
 20
195.0373949070477
 30
0.0
 40
0.607266864668763
100
AcDbArc
 50
2.504268346180663
 51
37.74515066195958
  0
LINE
  5
1C6
330
1F
100
AcDbEntity
  8
0
  6
Continuous
 62
     7
370
    25
100
AcDbLine
 10
114.049604492373
 20
67.09196243915034
 30
0.0
 11
335.7275712906368
 21
195.0639287118945
 31
0.0
  0
ARC
  5
1C7
330
1F
100
AcDbEntity
  8
0
  6
Continuous
 62
     7
370
    25
100
AcDbCircle
 10
335.5356710994969
 20
195.0404393685816
 30
0.0
 40
0.1933324406528742
100
AcDbArc
 50
304.3333475612583
 51
6.978516062290478
  0
ARC
  5
1C8
330
1F
100
AcDbEntity
  8
0
  6
Continuous
 62
     7
370
    25
100
AcDbCircle
 10
335.78021131435
 20
194.7531489114375
 30
0.0
 40
0.2405574289304769
100
AcDbArc
 50
162.1681439573074
 51
221.8692426038183
  0
ARC
  5
1C9
330
1F
100
AcDbEntity
  8
0
  6
Continuous
 62
     7
370
    25
100
AcDbCircle
 10
335.1208826974632
 20
194.2208537233732
 30
0.0
 40
0.6072685770663571
100
AcDbArc
 50
2.504319660960153
 51
37.74509934718205
  0
LINE
  5
1CA
330
1F
100
AcDbEntity
  8
0
  6
Continuous
 62
     7
370
    25
100
AcDbLine
 10
114.049604492373
 20
66.27542187365457
 30
0.0
 11
335.7275712906368
 21
194.2473881463987
 31
0.0
  0
ARC
  5
1CB
330
1F
100
AcDbEntity
  8
0
  6
Continuous
 62
     7
370
    25
100
AcDbCircle
 10
335.535670192293
 20
194.2238988820811
 30
0.0
 40
0.1933333315383531
100
AcDbArc
 50
304.3334928163993
 51
6.978460159562829
  0
ARC
  5
1CC
330
1F
100
AcDbEntity
  8
0
  6
Continuous
 62
     7
370
    25
100
AcDbCircle
 10
335.7802131449149
 20
193.936608475019
 30
0.0
 40
0.2405591320279746
100
AcDbArc
 50
162.1683067374364
 51
221.8690419363198
  0
ARC
  5
1CD
330
1F
100
AcDbEntity
  8
0
  6
Continuous
 62
     7
370
    25
100
AcDbCircle
 10
335.1208826974636
 20
193.4043127776462
 30
0.0
 40
0.6072685770659462
100
AcDbArc
 50
2.504319660948398
 51
37.74509934719231
  0
LINE
  5
1CE
330
1F
100
AcDbEntity
  8
0
  6
Continuous
 62
     7
370
    25
100
AcDbLine
 10
114.049604492373
 20
65.45888092792734
 30
0.0
 11
335.7275712906368
 21
193.4308472006715
 31
0.0
  0
ARC
  5
1CF
330
1F
100
AcDbEntity
  8
0
  6
Continuous
 62
     7
370
    25
100
AcDbCircle
 10
335.5356710994967
 20
193.4073578573587
 30
0.0
 40
0.1933324406530462
100
AcDbArc
 50
304.3333475612811
 51
6.978516062267617
  0
ARC
  5
1D0
330
1F
100
AcDbEntity
  8
0
  6
Continuous
 62
     7
370
    25
100
AcDbCircle
 10
335.7802120314961
 20
193.1200674225705
 30
0.0
 40
0.2405581047784631
100
AcDbArc
 50
162.1682013321021
 51
221.869166285331
  0
ARC
  5
1D1
330
1F
100
AcDbEntity
  8
0
  6
Continuous
 62
     7
370
    25
100
AcDbCircle
 10
335.120882697464
 20
192.5877720220348
 30
0.0
 40
0.6072685770656004
100
AcDbArc
 50
2.504319660939088
 51
37.74509934720353
  0
LINE
  5
1D2
330
1F
100
AcDbEntity
  8
0
  6
Continuous
 62
     7
370
    25
100
AcDbLine
 10
114.049604492373
 20
64.64234017231585
 30
0.0
 11
335.7275712906368
 21
192.61430644506
 31
0.0
  0
ARC
  5
1D3
330
1F
100
AcDbEntity
  8
0
  6
Continuous
 62
     7
370
    25
100
AcDbCircle
 10
335.5356706458961
 20
192.5908171412444
 30
0.0
 40
0.1933328860944772
100
AcDbArc
 50
304.3334201887798
 51
6.978488111008719
  0
ARC
  5
1D4
330
1F
100
AcDbEntity
  8
0
  6
Continuous
 62
     7
370
    25
100
AcDbCircle
 10
335.7802129467804
 20
192.303526731498
 30
0.0
 40
0.240558956329022
100
AcDbArc
 50
162.1682827222392
 51
221.8690659515288
  0
ARC
  5
1D5
330
1F
100
AcDbEntity
  8
0
  6
Continuous
 62
     7
370
    25
100
AcDbCircle
 10
335.1208838791562
 20
191.7712314947103
 30
0.0
 40
0.6072673865270442
100
AcDbArc
 50
2.504303014240973
 51
37.74513638190328
  0
LINE
  5
1D6
330
1F
100
AcDbEntity
  8
0
  6
Continuous
 62
     7
370
    25
100
AcDbLine
 10
114.049604492373
 20
63.82579941670436
 30
0.0
 11
335.7275712906368
 21
191.7977656894485
 31
0.0
  0
ARC
  5
1D7
330
1F
100
AcDbEntity
  8
0
  6
Continuous
 62
     7
370
    25
100
AcDbCircle
 10
335.5356709009487
 20
191.7742762702361
 30
0.0
 40
0.1933326469517758
100
AcDbArc
 50
304.3333770597393
 51
6.978531240054656
  0
ARC
  5
1D8
330
1F
100
AcDbEntity
  8
0
  6
Continuous
 62
     7
370
    25
100
AcDbCircle
 10
335.7802123926147
 20
191.486985798113
 30
0.0
 40
0.2405584250059713
100
AcDbArc
 50
162.1682451023133
 51
221.8691225151078
  0
ARC
  5
1D9
330
1F
100
AcDbEntity
  8
0
  6
Continuous
 62
     7
370
    25
100
AcDbCircle
 10
335.1208835409648
 20
190.9546906297861
 30
0.0
 40
0.6072677208648054
100
AcDbArc
 50
2.504294003522374
 51
37.74512500461309
  0
LINE
  5
1DA
330
1F
100
AcDbEntity
  8
0
  6
Continuous
 62
     7
370
    25
100
AcDbLine
 10
114.049604492373
 20
63.00925847097713
 30
0.0
 11
335.7275712906368
 21
190.9812247437213
 31
0.0
  0
ARC
  5
1DB
330
1F
100
AcDbEntity
  8
0
  6
Continuous
 62
     7
370
    25
100
AcDbCircle
 10
335.5356707957519
 20
190.9577354549702
 30
0.0
 40
0.1933327355186332
100
AcDbArc
 50
304.3333968862838
 51
6.978489075372514
  0
ARC
  5
1DC
330
1F
100
AcDbEntity
  8
0
  6
Continuous
 62
     7
370
    25
100
AcDbCircle
 10
335.7802124408764
 20
190.6704450201957
 30
0.0
 40
0.2405584777797417
100
AcDbArc
 50
162.168243564773
 51
221.8691193167373
  0
ARC
  5
1DD
330
1F
100
AcDbEntity
  8
0
  6
Continuous
 62
     7
370
    25
100
AcDbCircle
 10
335.1208834254673
 20
190.1381497824965
 30
0.0
 40
0.607267839219478
100
AcDbArc
 50
2.50429992892466
 51
37.74512162771437
  0
LINE
  5
1DE
330
1F
100
AcDbEntity
  8
0
  6
Continuous
 62
     7
370
    25
100
AcDbLine
 10
114.049604492373
 20
62.19271769160117
 30
0.0
 11
335.7275712906368
 21
190.1646839643453
 31
0.0
  0
ARC
  5
1DF
330
1F
100
AcDbEntity
  8
0
  6
Continuous
 62
     7
370
    25
100
AcDbCircle
 10
335.5382776097658
 20
190.1400151782727
 30
0.0
 40
0.1908943336613113
100
AcDbArc
 50
303.8869513867343
 51
7.4249513285158
  0
LINE
  5
1E0
330
1F
100
AcDbEntity
  8
0
  6
Continuous
 62
     8
370
    25
100
AcDbLine
 10
104.1948891242867
 20
84.91501683313066
 30
0.0
 11
103.907581919363
 21
84.65628561315998
 31
0.0
  0
LINE
  5
1E1
330
1F
100
AcDbEntity
  8
0
  6
Continuous
 62
     8
370
    25
100
AcDbLine
 10
103.2591519553193
 20
85.77939844474561
 30
0.0
 11
103.6268431196799
 21
85.89880403991789
 31
0.0
  0
LINE
  5
1E2
330
1F
100
AcDbEntity
  8
0
  6
Continuous
 62
     8
370
    25
100
AcDbLine
 10
103.9076741876224
 20
85.08083030886625
 30
0.0
 11
103.2591519553193
 21
84.70643397488173
 31
0.0
  0
LINE
  5
1E3
330
1F
100
AcDbEntity
  8
0
  6
Continuous
 62
     8
370
    25
100
AcDbLine
 10
102.9784175184936
 20
85.19268080428915
 30
0.0
 11
103.6268451776315
 21
85.5670222433626
 31
0.0
  0
LINE
  5
1E4
330
1F
100
AcDbEntity
  8
0
  6
Continuous
 62
     8
370
    25
100
AcDbLine
 10
100.1953571847641
 20
83.82709827502582
 30
0.0
 11
100.0539123611616
 21
83.74544391642195
 31
0.0
  0
LINE
  5
1E5
330
1F
100
AcDbEntity
  8
0
  6
Continuous
 62
     8
370
    25
100
AcDbLine
 10
99.80391240231866
 20
84.00934556847415
 30
0.0
 11
99.9099749465963
 21
84.07057417199817
 31
0.0
  0
LINE
  5
1E6
330
1F
100
AcDbEntity
  8
0
  6
Continuous
 62
     8
370
    25
100
AcDbLine
 10
96.36941576654849
 20
90.20300254104744
 30
0.0
 11
96.26335322227085
 21
90.1417739375234
 31
0.0
  0
LINE
  5
1E7
330
1F
100
AcDbEntity
  8
0
  6
Continuous
 62
     8
370
    25
100
AcDbLine
 10
96.0133532634279
 20
90.4056755895756
 30
0.0
 11
96.08407567522919
 21
90.44650276887752
 31
0.0
  0
LINE
  5
1E8
330
1F
100
AcDbEntity
  8
0
  6
Continuous
 62
     8
370
    25
100
AcDbLine
 10
95.8608501604473
 20
90.72003939575748
 30
0.0
 11
95.66482516802314
 21
90.60687657636934
 31
0.0
  0
LINE
  5
1E9
330
1F
100
AcDbEntity
  8
0
  6
Continuous
 62
     8
370
    25
100
AcDbLine
 10
110.6554891472879
 20
63.90739856839331
 30
0.0
 11
111.0090379860215
 21
64.11149796861635
 31
0.0
  0
LINE
  5
1EA
330
1F
100
AcDbEntity
  8
0
  6
Continuous
 62
     8
370
    25
100
AcDbLine
 10
95.16985060347767
 20
88.85126770642118
 30
0.0
 11
95.31127435365595
 21
88.93290989959618
 31
0.0
  0
LINE
  5
1EB
330
1F
100
AcDbEntity
  8
0
  6
Continuous
 62
     8
370
    25
100
AcDbLine
 10
95.31126249985485
 20
89.5860299571921
 30
0.0
 11
94.60416482238757
 21
89.17783115674601
 31
0.0
  0
LINE
  5
1EC
330
1F
100
AcDbEntity
  8
0
  6
Continuous
 62
     8
370
    25
100
AcDbLine
 10
96.23056890102995
 20
83.4213384159954
 30
0.0
 11
95.87695684202353
 21
83.21720251948572
 31
0.0
  0
LINE
  5
1ED
330
1F
100
AcDbEntity
  8
0
  6
Continuous
 62
     8
370
    25
100
AcDbLine
 10
336.7882314716362
 20
213.9666831258036
 30
0.0
 11
335.3719177076414
 21
213.1771160723758
 31
0.0
  0
LINE
  5
1EE
330
1F
100
AcDbEntity
  8
0
  6
Continuous
 62
     8
370
    25
100
AcDbLine
 10
110.912396579475
 20
77.93417901211444
 30
0.0
 11
110.6250894157103
 21
77.67544776838318
 31
0.0
  0
LINE
  5
1EF
330
1F
100
AcDbEntity
  8
0
  6
Continuous
 62
     8
370
    25
100
AcDbLine
 10
109.9766594928257
 20
78.7985605762082
 30
0.0
 11
110.3443505748683
 21
78.91796621890167
 31
0.0
  0
LINE
  5
1F0
330
1F
100
AcDbEntity
  8
0
  6
Continuous
 62
     8
370
    25
100
AcDbLine
 10
97.053103503846
 20
72.62536297460149
 30
0.0
 11
96.76579634008132
 21
72.36663173087021
 31
0.0
  0
LINE
  5
1F1
330
1F
100
AcDbEntity
  8
0
  6
Continuous
 62
     8
370
    25
100
AcDbLine
 10
96.11736641719672
 20
73.48974548927386
 30
0.0
 11
96.48505749923929
 21
73.60915018138871
 31
0.0
  0
LINE
  5
1F2
330
1F
100
AcDbEntity
  8
0
  6
Continuous
 62
     8
370
    25
100
AcDbLine
 10
114.0495913214829
 20
78.86010080207288
 30
0.0
 11
335.6010754273654
 21
206.7590501707139
 31
0.0
  0
LINE
  5
1F3
330
1F
100
AcDbEntity
  8
0
  6
Continuous
 62
     8
370
    25
100
AcDbLine
 10
112.7284917694638
 20
82.97228743990408
 30
0.0
 11
333.4062506322913
 21
210.3668459619904
 31
0.0
  0
LINE
  5
1F4
330
1F
100
AcDbEntity
  8
0
  6
Continuous
 62
     8
370
    25
100
AcDbLine
 10
114.0495913214829
 20
77.30867437402436
 30
0.0
 11
335.6010754273655
 21
205.2076237426654
 31
0.0
  0
LINE
  5
1F5
330
1F
100
AcDbEntity
  8
0
  6
Continuous
 62
     8
370
    25
100
AcDbLine
 10
114.0495913214829
 20
76.49213342829715
 30
0.0
 11
335.6010754273655
 21
204.3910827969382
 31
0.0
  0
LINE
  5
1F6
330
1F
100
AcDbEntity
  8
0
  6
Continuous
 62
     8
370
    25
100
AcDbLine
 10
114.0495913214829
 20
75.67559248256993
 30
0.0
 11
335.6010754273655
 21
203.5745418512109
 31
0.0
  0
LINE
  5
1F7
330
1F
100
AcDbEntity
  8
0
  6
Continuous
 62
     8
370
    25
100
AcDbLine
 10
114.0495913214829
 20
74.85905153684271
 30
0.0
 11
335.6010754273655
 21
202.7580009054837
 31
0.0
  0
LINE
  5
1F8
330
1F
100
AcDbEntity
  8
0
  6
Continuous
 62
     8
370
    25
100
AcDbLine
 10
114.0495913214829
 20
74.0425105911155
 30
0.0
 11
335.6010754273655
 21
201.9414599597565
 31
0.0
  0
LINE
  5
1F9
330
1F
100
AcDbEntity
  8
0
  6
Continuous
 62
     8
370
    25
100
AcDbLine
 10
114.0495913214829
 20
73.22596964538828
 30
0.0
 11
335.6010754273655
 21
201.1249190140293
 31
0.0
  0
LINE
  5
1FA
330
1F
100
AcDbEntity
  8
0
  6
Continuous
 62
     8
370
    25
100
AcDbLine
 10
114.0495913214829
 20
72.40942946012395
 30
0.0
 11
335.6010754273655
 21
200.3083788287649
 31
0.0
  0
LINE
  5
1FB
330
1F
100
AcDbEntity
  8
0
  6
Continuous
 62
     8
370
    25
100
AcDbLine
 10
114.0495913214829
 20
71.59288851439673
 30
0.0
 11
335.6010754273655
 21
199.4918378830378
 31
0.0
  0
LINE
  5
1FC
330
1F
100
AcDbEntity
  8
0
  6
Continuous
 62
     8
370
    25
100
AcDbLine
 10
114.0495913214829
 20
70.77634756866951
 30
0.0
 11
335.6010754273655
 21
198.6752969373105
 31
0.0
  0
LINE
  5
1FD
330
1F
100
AcDbEntity
  8
0
  6
Continuous
 62
     8
370
    25
100
AcDbLine
 10
114.0495913214829
 20
69.9598066229423
 30
0.0
 11
335.6010754273655
 21
197.8587559915833
 31
0.0
  0
LINE
  5
1FE
330
1F
100
AcDbEntity
  8
0
  6
Continuous
 62
     8
370
    25
100
AcDbLine
 10
114.0495913214829
 20
69.14326567721507
 30
0.0
 11
335.6010754273655
 21
197.0422150458561
 31
0.0
  0
LINE
  5
1FF
330
1F
100
AcDbEntity
  8
0
  6
Continuous
 62
     8
370
    25
100
AcDbLine
 10
114.0495913214829
 20
68.3267251117193
 30
0.0
 11
335.6010754273655
 21
196.2256744803603
 31
0.0
  0
LINE
  5
200
330
1F
100
AcDbEntity
  8
0
  6
Continuous
 62
     8
370
    25
100
AcDbLine
 10
114.0495913214829
 20
67.51018416599209
 30
0.0
 11
335.6010754273655
 21
195.4091335346331
 31
0.0
  0
LINE
  5
201
330
1F
100
AcDbEntity
  8
0
  6
Continuous
 62
     8
370
    25
100
AcDbLine
 10
114.0495913214829
 20
66.69364360049632
 30
0.0
 11
335.6010754273655
 21
194.5925929691373
 31
0.0
  0
LINE
  5
202
330
1F
100
AcDbEntity
  8
0
  6
Continuous
 62
     8
370
    25
100
AcDbLine
 10
114.0495913214829
 20
65.87710265476909
 30
0.0
 11
335.6010754273655
 21
193.7760520234101
 31
0.0
  0
LINE
  5
203
330
1F
100
AcDbEntity
  8
0
  6
Continuous
 62
     8
370
    25
100
AcDbLine
 10
114.0495913214829
 20
65.0605618991576
 30
0.0
 11
335.6010754273655
 21
192.9595112677986
 31
0.0
  0
LINE
  5
204
330
1F
100
AcDbEntity
  8
0
  6
Continuous
 62
     8
370
    25
100
AcDbLine
 10
114.0495913214829
 20
64.24402095343038
 30
0.0
 11
335.6010754273655
 21
192.1429703220714
 31
0.0
  0
LINE
  5
205
330
1F
100
AcDbEntity
  8
0
  6
Continuous
 62
     8
370
    25
100
AcDbLine
 10
114.0495913214829
 20
63.42748019781888
 30
0.0
 11
335.6010754273655
 21
191.3264295664599
 31
0.0
  0
LINE
  5
206
330
1F
100
AcDbEntity
  8
0
  6
Continuous
 62
     8
370
    25
100
AcDbLine
 10
114.0495913214829
 20
62.61093939467846
 30
0.0
 11
335.6010754273655
 21
190.5098887633195
 31
0.0
  0
LINE
  5
207
330
1F
100
AcDbEntity
  8
0
  6
Continuous
 62
     8
370
    25
100
AcDbLine
 10
99.77119261843954
 20
71.97913851983999
 30
0.0
 11
108.4777832166988
 21
77.00534628637455
 31
0.0
  0
LINE
  5
208
330
1F
100
AcDbEntity
  8
0
  6
Continuous
 62
     8
370
    25
100
AcDbLine
 10
97.70621699527139
 20
75.94434975655675
 30
0.0
 11
104.2222883624497
 21
79.70599768790117
 31
0.0
  0
LINE
  5
209
330
1F
100
AcDbEntity
  8
0
  6
Continuous
 62
     8
370
    25
100
AcDbLine
 10
99.64406916225207
 20
72.84943403478677
 30
0.0
 11
107.8717872677305
 21
77.59919459558319
 31
0.0
  0
LINE
  5
20A
330
1F
100
AcDbEntity
  8
0
  6
Continuous
 62
     8
370
    25
100
AcDbLine
 10
98.99802448757538
 20
74.52967903026692
 30
0.0
 11
106.0934675078086
 21
78.62579109765072
 31
0.0
  0
LINE
  5
20B
330
1F
100
AcDbEntity
  8
0
  6
Continuous
 62
     8
370
    25
100
AcDbLine
 10
99.65730195559549
 20
75.70819650765259
 30
0.0
 11
105.402381022964
 21
79.0247600582043
 31
0.0
  0
LINE
  5
20C
330
1F
100
AcDbEntity
  8
0
  6
Continuous
 62
     8
370
    25
100
AcDbLine
 10
108.2310246139241
 20
80.6577012451351
 30
0.0
 11
110.4164651497595
 21
81.91932921196651
 31
0.0
  0
LINE
  5
20D
330
1F
100
AcDbEntity
  8
0
  6
Continuous
 62
     8
370
    25
100
AcDbLine
 10
98.35302228885483
 20
75.38390226017478
 30
0.0
 11
105.031106141709
 21
79.23907800870434
 31
0.0
  0
LINE
  5
20E
330
1F
100
AcDbEntity
  8
0
  6
Continuous
 62
     8
370
    25
100
AcDbLine
 10
98.14010233707836
 20
75.59557686698973
 30
0.0
 11
104.7413103382486
 21
79.40637313098608
 31
0.0
  0
LINE
  5
20F
330
1F
100
AcDbEntity
  8
0
  6
Continuous
 62
     8
370
    25
100
AcDbLine
 10
98.45562747446559
 20
75.27122108017896
 30
0.0
 11
105.180009640409
 21
79.15312427594522
 31
0.0
  0
LINE
  5
210
330
1F
100
AcDbEntity
  8
0
  6
Continuous
 62
     8
370
    25
100
AcDbLine
 10
97.95205758700192
 20
75.7596801387708
 30
0.0
 11
104.505154960597
 21
79.54270272864728
 31
0.0
  0
MTEXT
  5
233
330
1F
100
AcDbEntity
  8
0
100
AcDbMText
 10
109.8338500052099
 20
42.17448997169672
 30
0.0
 40
10.0
 41
214.4705722704715
 71
     1
 72
     5
  1
{\fSegoe UI|b0|i0|c0|p0;MAP/LEDCCRAC/W/A1/PRO}
 73
     1
 44
1.0
1001
ACAD
1000
ACAD_MTEXT_DEFINED_HEIGHT_BEGIN
1070
    46
1040
10.16736467058382
1000
ACAD_MTEXT_DEFINED_HEIGHT_END
  0
ENDSEC
  0
SECTION
  2
OBJECTS
  0
DICTIONARY
  5
C
330
0
100
AcDbDictionary
281
     1
  3
ACAD_DETAILVIEWSTYLE
350
239
  3
ACAD_GROUP
350
D
  3
ACAD_LAYOUT
350
1A
  3
ACAD_MLINESTYLE
350
17
  3
ACAD_PLOTSETTINGS
350
19
  3
ACAD_PLOTSTYLENAME
350
E
  3
ACAD_SCALELIST
350
47
  3
ACAD_SECTIONVIEWSTYLE
350
23A
  3
AcDbVariableDictionary
350
234
  3
APPDATA
350
232
  3
DWGPROPS
350
23C
  0
DICTIONARY
  5
239
102
{ACAD_REACTORS
330
C
102
}
330
C
100
AcDbDictionary
281
     1
  0
DICTIONARY
  5
D
102
{ACAD_REACTORS
330
C
102
}
330
C
100
AcDbDictionary
281
     1
  0
DICTIONARY
  5
1A
102
{ACAD_REACTORS
330
C
102
}
330
C
100
AcDbDictionary
281
     1
  3
Layout1
350
1E
  3
Layout2
350
26
  3
Model
350
22
  0
DICTIONARY
  5
17
102
{ACAD_REACTORS
330
C
102
}
330
C
100
AcDbDictionary
281
     1
  3
Standard
350
18
  0
DICTIONARY
  5
19
102
{ACAD_REACTORS
330
C
102
}
330
C
100
AcDbDictionary
281
     1
  0
ACDBDICTIONARYWDFLT
  5
E
102
{ACAD_REACTORS
330
C
102
}
330
C
100
AcDbDictionary
281
     1
  3
Normal
350
F
100
AcDbDictionaryWithDefault
340
F
  0
DICTIONARY
  5
47
102
{ACAD_REACTORS
330
C
102
}
330
C
100
AcDbDictionary
281
     1
  3
A0
350
48
  3
A1
350
49
  3
A2
350
4A
  3
A3
350
4B
  3
A4
350
4C
  3
A5
350
4D
  3
A6
350
4E
  3
A7
350
4F
  3
A8
350
50
  3
A9
350
51
  3
B0
350
52
  3
B1
350
53
  3
B2
350
54
  3
B3
350
55
  3
B4
350
56
  3
B5
350
57
  3
B6
350
58
  3
B7
350
59
  3
B8
350
5A
  3
B9
350
5B
  3
C0
350
5C
  3
C1
350
5D
  3
C2
350
5E
  3
C3
350
5F
  3
C4
350
60
  3
C5
350
61
  3
C6
350
62
  3
C7
350
63
  3
C8
350
64
  3
C9
350
65
  3
D0
350
66
  3
D1
350
67
  3
D2
350
68
  0
DICTIONARY
  5
23A
102
{ACAD_REACTORS
330
C
102
}
330
C
100
AcDbDictionary
281
     1
  0
DICTIONARY
  5
234
102
{ACAD_REACTORS
330
C
102
}
330
C
100
AcDbDictionary
281
     1
  0
DICTIONARY
  5
232
102
{ACAD_REACTORS
330
C
102
}
330
C
100
AcDbDictionary
281
     1
  0
XRECORD
  5
23C
102
{ACAD_REACTORS
330
C
102
}
330
C
100
AcDbXrecord
280
     1
  1
DWGPROPS COOKIE
  2

  3

  4

  6

  7

  8
ModuleX
  9

300
=
301
=
302
=
303
=
304
=
305
=
306
=
307
=
308
=
309
=
 40
0.0
 41
2459103.036786343
 42
2459103.057383958
  1

 90
        0
  0
LAYOUT
  5
1E
102
{ACAD_REACTORS
330
1A
102
}
330
1A
100
AcDbPlotSettings
  1

  2
none_device
  4

  6

 40
0.0
 41
0.0
 42
0.0
 43
0.0
 44
0.0
 45
0.0
 46
0.0
 47
0.0
 48
0.0
 49
0.0
140
0.0
141
0.0
142
1.0
143
1.0
 70
   688
 72
     1
 73
     0
 74
     5
  7

 75
    16
147
1.0
148
0.0
149
0.0
100
AcDbLayout
  1
Layout1
 70
     1
 71
     1
 10
0.0
 20
0.0
 11
420.0
 21
297.0
 12
0.0
 22
0.0
 32
0.0
 14
1.000000000000000E+20
 24
1.000000000000000E+20
 34
1.000000000000000E+20
 15
-1.000000000000000E+20
 25
-1.000000000000000E+20
 35
-1.000000000000000E+20
146
0.0
 13
0.0
 23
0.0
 33
0.0
 16
1.0
 26
0.0
 36
0.0
 17
0.0
 27
1.0
 37
0.0
 76
     0
330
1B
  0
LAYOUT
  5
26
102
{ACAD_REACTORS
330
1A
102
}
330
1A
100
AcDbPlotSettings
  1

  2
none_device
  4

  6

 40
0.0
 41
0.0
 42
0.0
 43
0.0
 44
0.0
 45
0.0
 46
0.0
 47
0.0
 48
0.0
 49
0.0
140
0.0
141
0.0
142
1.0
143
1.0
 70
   688
 72
     1
 73
     0
 74
     5
  7

 75
    16
147
1.0
148
0.0
149
0.0
100
AcDbLayout
  1
Layout2
 70
     1
 71
     2
 10
0.0
 20
0.0
 11
0.0
 21
0.0
 12
0.0
 22
0.0
 32
0.0
 14
0.0
 24
0.0
 34
0.0
 15
0.0
 25
0.0
 35
0.0
146
0.0
 13
0.0
 23
0.0
 33
0.0
 16
1.0
 26
0.0
 36
0.0
 17
0.0
 27
1.0
 37
0.0
 76
     0
330
23
  0
LAYOUT
  5
22
102
{ACAD_REACTORS
330
1A
102
}
330
1A
100
AcDbPlotSettings
  1

  2
none_device
  4
Letter_(8.50_x_11.00_Inches)
  6

 40
6.35
 41
6.35
 42
6.35000508
 43
6.35000508
 44
215.9
 45
279.4
 46
0.0
 47
0.0
 48
0.0
 49
0.0
140
0.0
141
0.0
142
1.0
143
1.0
 70
  1712
 72
     1
 73
     0
 74
     0
  7

 75
     0
147
1.0
148
0.0
149
0.0
100
AcDbLayout
  1
Model
 70
     1
 71
     0
 10
0.0
 20
0.0
 11
420.0
 21
297.0
 12
0.0
 22
0.0
 32
0.0
 14
94.24779400983488
 24
30.29300478604851
 34
0.0
 15
337.1437363780341
 25
228.6885634005682
 35
0.0
146
0.0
 13
0.0
 23
0.0
 33
0.0
 16
1.0
 26
0.0
 36
0.0
 17
0.0
 27
1.0
 37
0.0
 76
     0
330
1F
331
29
  0
MLINESTYLE
  5
18
102
{ACAD_REACTORS
330
17
102
}
330
17
100
AcDbMlineStyle
  2
Standard
 70
     0
  3

 62
   256
 51
90.0
 52
90.0
 71
     2
 49
0.5
 62
   256
  6
BYLAYER
 49
-0.5
 62
   256
  6
BYLAYER
  0
ACDBPLACEHOLDER
  5
F
102
{ACAD_REACTORS
330
E
102
}
330
E
  0
SCALE
  5
48
102
{ACAD_REACTORS
330
47
102
}
330
47
100
AcDbScale
 70
     0
300
1:1
140
1.0
141
1.0
290
     1
  0
SCALE
  5
49
102
{ACAD_REACTORS
330
47
102
}
330
47
100
AcDbScale
 70
     0
300
1:2
140
1.0
141
2.0
290
     0
  0
SCALE
  5
4A
102
{ACAD_REACTORS
330
47
102
}
330
47
100
AcDbScale
 70
     0
300
1:4
140
1.0
141
4.0
290
     0
  0
SCALE
  5
4B
102
{ACAD_REACTORS
330
47
102
}
330
47
100
AcDbScale
 70
     0
300
1:5
140
1.0
141
5.0
290
     0
  0
SCALE
  5
4C
102
{ACAD_REACTORS
330
47
102
}
330
47
100
AcDbScale
 70
     0
300
1:8
140
1.0
141
8.0
290
     0
  0
SCALE
  5
4D
102
{ACAD_REACTORS
330
47
102
}
330
47
100
AcDbScale
 70
     0
300
1:10
140
1.0
141
10.0
290
     0
  0
SCALE
  5
4E
102
{ACAD_REACTORS
330
47
102
}
330
47
100
AcDbScale
 70
     0
300
1:16
140
1.0
141
16.0
290
     0
  0
SCALE
  5
4F
102
{ACAD_REACTORS
330
47
102
}
330
47
100
AcDbScale
 70
     0
300
1:20
140
1.0
141
20.0
290
     0
  0
SCALE
  5
50
102
{ACAD_REACTORS
330
47
102
}
330
47
100
AcDbScale
 70
     0
300
1:30
140
1.0
141
30.0
290
     0
  0
SCALE
  5
51
102
{ACAD_REACTORS
330
47
102
}
330
47
100
AcDbScale
 70
     0
300
1:40
140
1.0
141
40.0
290
     0
  0
SCALE
  5
52
102
{ACAD_REACTORS
330
47
102
}
330
47
100
AcDbScale
 70
     0
300
1:50
140
1.0
141
50.0
290
     0
  0
SCALE
  5
53
102
{ACAD_REACTORS
330
47
102
}
330
47
100
AcDbScale
 70
     0
300
1:100
140
1.0
141
100.0
290
     0
  0
SCALE
  5
54
102
{ACAD_REACTORS
330
47
102
}
330
47
100
AcDbScale
 70
     0
300
2:1
140
2.0
141
1.0
290
     0
  0
SCALE
  5
55
102
{ACAD_REACTORS
330
47
102
}
330
47
100
AcDbScale
 70
     0
300
4:1
140
4.0
141
1.0
290
     0
  0
SCALE
  5
56
102
{ACAD_REACTORS
330
47
102
}
330
47
100
AcDbScale
 70
     0
300
8:1
140
8.0
141
1.0
290
     0
  0
SCALE
  5
57
102
{ACAD_REACTORS
330
47
102
}
330
47
100
AcDbScale
 70
     0
300
10:1
140
10.0
141
1.0
290
     0
  0
SCALE
  5
58
102
{ACAD_REACTORS
330
47
102
}
330
47
100
AcDbScale
 70
     0
300
100:1
140
100.0
141
1.0
290
     0
  0
SCALE
  5
59
102
{ACAD_REACTORS
330
47
102
}
330
47
100
AcDbScale
 70
     0
300
1/128" = 1'-0"
140
0.0078125
141
12.0
290
     0
  0
SCALE
  5
5A
102
{ACAD_REACTORS
330
47
102
}
330
47
100
AcDbScale
 70
     0
300
1/64" = 1'-0"
140
0.015625
141
12.0
290
     0
  0
SCALE
  5
5B
102
{ACAD_REACTORS
330
47
102
}
330
47
100
AcDbScale
 70
     0
300
1/32" = 1'-0"
140
0.03125
141
12.0
290
     0
  0
SCALE
  5
5C
102
{ACAD_REACTORS
330
47
102
}
330
47
100
AcDbScale
 70
     0
300
1/16" = 1'-0"
140
0.0625
141
12.0
290
     0
  0
SCALE
  5
5D
102
{ACAD_REACTORS
330
47
102
}
330
47
100
AcDbScale
 70
     0
300
3/32" = 1'-0"
140
0.09375
141
12.0
290
     0
  0
SCALE
  5
5E
102
{ACAD_REACTORS
330
47
102
}
330
47
100
AcDbScale
 70
     0
300
1/8" = 1'-0"
140
0.125
141
12.0
290
     0
  0
SCALE
  5
5F
102
{ACAD_REACTORS
330
47
102
}
330
47
100
AcDbScale
 70
     0
300
3/16" = 1'-0"
140
0.1875
141
12.0
290
     0
  0
SCALE
  5
60
102
{ACAD_REACTORS
330
47
102
}
330
47
100
AcDbScale
 70
     0
300
1/4" = 1'-0"
140
0.25
141
12.0
290
     0
  0
SCALE
  5
61
102
{ACAD_REACTORS
330
47
102
}
330
47
100
AcDbScale
 70
     0
300
3/8" = 1'-0"
140
0.375
141
12.0
290
     0
  0
SCALE
  5
62
102
{ACAD_REACTORS
330
47
102
}
330
47
100
AcDbScale
 70
     0
300
1/2" = 1'-0"
140
0.5
141
12.0
290
     0
  0
SCALE
  5
63
102
{ACAD_REACTORS
330
47
102
}
330
47
100
AcDbScale
 70
     0
300
3/4" = 1'-0"
140
0.75
141
12.0
290
     0
  0
SCALE
  5
64
102
{ACAD_REACTORS
330
47
102
}
330
47
100
AcDbScale
 70
     0
300
1" = 1'-0"
140
1.0
141
12.0
290
     0
  0
SCALE
  5
65
102
{ACAD_REACTORS
330
47
102
}
330
47
100
AcDbScale
 70
     0
300
1-1/2" = 1'-0"
140
1.5
141
12.0
290
     0
  0
SCALE
  5
66
102
{ACAD_REACTORS
330
47
102
}
330
47
100
AcDbScale
 70
     0
300
3" = 1'-0"
140
3.0
141
12.0
290
     0
  0
SCALE
  5
67
102
{ACAD_REACTORS
330
47
102
}
330
47
100
AcDbScale
 70
     0
300
6" = 1'-0"
140
6.0
141
12.0
290
     0
  0
SCALE
  5
68
102
{ACAD_REACTORS
330
47
102
}
330
47
100
AcDbScale
 70
     0
300
1'-0" = 1'-0"
140
12.0
141
12.0
290
     0
  0
ENDSEC
  0
EOF
