  0
SECTION
  2
HEADER
  9
$ACADVER
  1
AC1015
  9
$ACADMAINTVER
 70
     6
  9
$DWGCODEPAGE
  3
ANSI_932
  9
$INSBASE
 10
0.0
 20
0.0
 30
0.0
  9
$EXTMIN
 10
37.40768316735645
 20
97.93969038501352
 30
0.0
  9
$EXTMAX
 10
140.1087340649792
 20
168.3626790113496
 30
0.0
  9
$LIMMIN
 10
0.0
 20
0.0
  9
$LIMMAX
 10
210.0
 20
297.0
  9
$ORTHOMODE
 70
     0
  9
$REGENMODE
 70
     1
  9
$FILLMODE
 70
     1
  9
$QTEXTMODE
 70
     0
  9
$MIRRTEXT
 70
     1
  9
$LTSCALE
 40
1.0
  9
$ATTMODE
 70
     1
  9
$TEXTSIZE
 40
3.5
  9
$TRACEWID
 40
1.0
  9
$TEXTSTYLE
  7
Standard
  9
$CLAYER
  8
0
  9
$CELTYPE
  6
ByLayer
  9
$CECOLOR
 62
   256
  9
$CELTSCALE
 40
1.0
  9
$DISPSILH
 70
     0
  9
$DIMSCALE
 40
1.0
  9
$DIMASZ
 40
3.302
  9
$DIMEXO
 40
1.0
  9
$DIMDLI
 40
3.75
  9
$DIMRND
 40
0.0
  9
$DIMDLE
 40
0.0
  9
$DIMEXE
 40
1.0
  9
$DIMTP
 40
0.0
  9
$DIMTM
 40
0.0
  9
$DIMTXT
 40
3.5
  9
$DIMCEN
 40
2.5
  9
$DIMTSZ
 40
0.0
  9
$DIMTOL
 70
     0
  9
$DIMLIM
 70
     0
  9
$DIMTIH
 70
     1
  9
$DIMTOH
 70
     1
  9
$DIMSE1
 70
     0
  9
$DIMSE2
 70
     0
  9
$DIMTAD
 70
     1
  9
$DIMZIN
 70
     0
  9
$DIMBLK
  1

  9
$DIMASO
 70
     1
  9
$DIMSHO
 70
     1
  9
$DIMPOST
  1

  9
$DIMAPOST
  1

  9
$DIMALT
 70
     0
  9
$DIMALTD
 70
     3
  9
$DIMALTF
 40
0.0393700787401575
  9
$DIMLFAC
 40
2.0
  9
$DIMTOFL
 70
     1
  9
$DIMTVP
 40
0.0
  9
$DIMTIX
 70
     0
  9
$DIMSOXD
 70
     0
  9
$DIMSAH
 70
     0
  9
$DIMBLK1
  1

  9
$DIMBLK2
  1

  9
$DIMSTYLE
  2
ISO-25
  9
$DIMCLRD
 70
     0
  9
$DIMCLRE
 70
     0
  9
$DIMCLRT
 70
     0
  9
$DIMTFAC
 40
1.0
  9
$DIMGAP
 40
1.524
  9
$DIMJUST
 70
     0
  9
$DIMSD1
 70
     0
  9
$DIMSD2
 70
     0
  9
$DIMTOLJ
 70
     0
  9
$DIMTZIN
 70
     0
  9
$DIMALTZ
 70
     0
  9
$DIMALTTZ
 70
     0
  9
$DIMUPT
 70
     0
  9
$DIMDEC
 70
     2
  9
$DIMTDEC
 70
     2
  9
$DIMALTU
 70
     2
  9
$DIMALTTD
 70
     3
  9
$DIMTXSTY
  7
Standard
  9
$DIMAUNIT
 70
     0
  9
$DIMADEC
 70
     2
  9
$DIMALTRND
 40
0.0
  9
$DIMAZIN
 70
     0
  9
$DIMDSEP
 70
    44
  9
$DIMATFIT
 70
     3
  9
$DIMFRAC
 70
     0
  9
$DIMLDRBLK
  1

  9
$DIMLUNIT
 70
     2
  9
$DIMLWD
 70
    -2
  9
$DIMLWE
 70
    -2
  9
$DIMTMOVE
 70
     0
  9
$LUNITS
 70
     2
  9
$LUPREC
 70
     2
  9
$SKETCHINC
 40
1.0
  9
$FILLETRAD
 40
10.0
  9
$AUNITS
 70
     0
  9
$AUPREC
 70
     2
  9
$MENU
  1
.
  9
$ELEVATION
 40
0.0
  9
$PELEVATION
 40
0.0
  9
$THICKNESS
 40
0.0
  9
$LIMCHECK
 70
     0
  9
$CHAMFERA
 40
0.0
  9
$CHAMFERB
 40
0.0
  9
$CHAMFERC
 40
0.0
  9
$CHAMFERD
 40
0.0
  9
$SKPOLY
 70
     0
  9
$TDCREATE
 40
2458025.90167044
  9
$TDUCREATE
 40
2458025.52667044
  9
$TDUPDATE
 40
2458674.407340417
  9
$TDUUPDATE
 40
2458674.032340417
  9
$TDINDWG
 40
0.0063445139
  9
$TDUSRTIMER
 40
0.0002476157
  9
$USRTIMER
 70
     1
  9
$ANGBASE
 50
0.0
  9
$ANGDIR
 70
     0
  9
$PDMODE
 70
     0
  9
$PDSIZE
 40
-1.0
  9
$PLINEWID
 40
0.0
  9
$SPLFRAME
 70
     0
  9
$SPLINETYPE
 70
     6
  9
$SPLINESEGS
 70
     8
  9
$HANDSEED
  5
1286
  9
$SURFTAB1
 70
     6
  9
$SURFTAB2
 70
     6
  9
$SURFTYPE
 70
     6
  9
$SURFU
 70
     6
  9
$SURFV
 70
     6
  9
$UCSBASE
  2

  9
$UCSNAME
  2

  9
$UCSORG
 10
0.0
 20
0.0
 30
0.0
  9
$UCSXDIR
 10
1.0
 20
0.0
 30
0.0
  9
$UCSYDIR
 10
0.0
 20
1.0
 30
0.0
  9
$UCSORTHOREF
  2

  9
$UCSORTHOVIEW
 70
     0
  9
$UCSORGTOP
 10
0.0
 20
0.0
 30
0.0
  9
$UCSORGBOTTOM
 10
0.0
 20
0.0
 30
0.0
  9
$UCSORGLEFT
 10
0.0
 20
0.0
 30
0.0
  9
$UCSORGRIGHT
 10
0.0
 20
0.0
 30
0.0
  9
$UCSORGFRONT
 10
0.0
 20
0.0
 30
0.0
  9
$UCSORGBACK
 10
0.0
 20
0.0
 30
0.0
  9
$PUCSBASE
  2

  9
$PUCSNAME
  2

  9
$PUCSORG
 10
0.0
 20
0.0
 30
0.0
  9
$PUCSXDIR
 10
1.0
 20
0.0
 30
0.0
  9
$PUCSYDIR
 10
0.0
 20
1.0
 30
0.0
  9
$PUCSORTHOREF
  2

  9
$PUCSORTHOVIEW
 70
     0
  9
$PUCSORGTOP
 10
0.0
 20
0.0
 30
0.0
  9
$PUCSORGBOTTOM
 10
0.0
 20
0.0
 30
0.0
  9
$PUCSORGLEFT
 10
0.0
 20
0.0
 30
0.0
  9
$PUCSORGRIGHT
 10
0.0
 20
0.0
 30
0.0
  9
$PUCSORGFRONT
 10
0.0
 20
0.0
 30
0.0
  9
$PUCSORGBACK
 10
0.0
 20
0.0
 30
0.0
  9
$USERI1
 70
     0
  9
$USERI2
 70
     0
  9
$USERI3
 70
     0
  9
$USERI4
 70
     0
  9
$USERI5
 70
     0
  9
$USERR1
 40
0.0
  9
$USERR2
 40
0.0
  9
$USERR3
 40
0.0
  9
$USERR4
 40
0.0
  9
$USERR5
 40
0.0
  9
$WORLDVIEW
 70
     1
  9
$SHADEDGE
 70
     3
  9
$SHADEDIF
 70
    70
  9
$TILEMODE
 70
     1
  9
$MAXACTVP
 70
    64
  9
$PINSBASE
 10
0.0
 20
0.0
 30
0.0
  9
$PLIMCHECK
 70
     0
  9
$PEXTMIN
 10
1.000000000000000E+20
 20
1.000000000000000E+20
 30
1.000000000000000E+20
  9
$PEXTMAX
 10
-1.000000000000000E+20
 20
-1.000000000000000E+20
 30
-1.000000000000000E+20
  9
$PLIMMIN
 10
0.0
 20
0.0
  9
$PLIMMAX
 10
0.0
 20
0.0
  9
$UNITMODE
 70
     0
  9
$VISRETAIN
 70
     1
  9
$PLINEGEN
 70
     0
  9
$PSLTSCALE
 70
     1
  9
$TREEDEPTH
 70
  3020
  9
$CMLSTYLE
  2
Standard
  9
$CMLJUST
 70
     0
  9
$CMLSCALE
 40
20.0
  9
$PROXYGRAPHICS
 70
     1
  9
$MEASUREMENT
 70
     1
  9
$CELWEIGHT
370
    -1
  9
$ENDCAPS
280
     0
  9
$JOINSTYLE
280
     0
  9
$LWDISPLAY
290
     1
  9
$INSUNITS
 70
     4
  9
$HYPERLINKBASE
  1

  9
$STYLESHEET
  1

  9
$XEDIT
290
     1
  9
$CEPSNTYPE
380
     0
  9
$PSTYLEMODE
290
     1
  9
$FINGERPRINTGUID
  2
{75375FFD-739C-48ED-822E-76A46AAE9E82}
  9
$VERSIONGUID
  2
{FAEB1C32-E019-11D5-929B-00C0DF256EC4}
  9
$EXTNAMES
290
     1
  9
$PSVPSCALE
 40
0.0
  9
$OLESTARTUP
290
     0
  0
ENDSEC
  0
SECTION
  2
CLASSES
  0
CLASS
  1
ACDBDICTIONARYWDFLT
  2
AcDbDictionaryWithDefault
  3
ObjectDBX Classes
 90
        0
280
     0
281
     0
  0
CLASS
  1
VISUALSTYLE
  2
AcDbVisualStyle
  3
ObjectDBX Classes
 90
     4095
280
     0
281
     0
  0
CLASS
  1
MATERIAL
  2
AcDbMaterial
  3
ObjectDBX Classes
 90
     1153
280
     0
281
     0
  0
CLASS
  1
SCALE
  2
AcDbScale
  3
ObjectDBX Classes
 90
     1153
280
     0
281
     0
  0
CLASS
  1
TABLESTYLE
  2
AcDbTableStyle
  3
ObjectDBX Classes
 90
     4095
280
     0
281
     0
  0
CLASS
  1
MLEADERSTYLE
  2
AcDbMLeaderStyle
  3
ACDB_MLEADERSTYLE_CLASS
 90
     4095
280
     0
281
     0
  0
CLASS
  1
SUN
  2
AcDbSun
  3
SCENEOE
 90
     1153
280
     0
281
     0
  0
CLASS
  1
ACDBPLACEHOLDER
  2
AcDbPlaceHolder
  3
ObjectDBX Classes
 90
        0
280
     0
281
     0
  0
CLASS
  1
LAYOUT
  2
AcDbLayout
  3
ObjectDBX Classes
 90
        0
280
     0
281
     0
  0
CLASS
  1
RASTERVARIABLES
  2
AcDbRasterVariables
  3
ISM
 90
        0
280
     0
281
     0
  0
CLASS
  1
DICTIONARYVAR
  2
AcDbDictionaryVar
  3
ObjectDBX Classes
 90
        0
280
     0
281
     0
  0
CLASS
  1
SORTENTSTABLE
  2
AcDbSortentsTable
  3
ObjectDBX Classes
 90
        0
280
     0
281
     0
  0
ENDSEC
  0
SECTION
  2
TABLES
  0
TABLE
  2
VPORT
  5
8
330
0
100
AcDbSymbolTable
 70
     1
  0
VPORT
  5
29
330
8
100
AcDbSymbolTableRecord
100
AcDbViewportTableRecord
  2
*Active
 70
     0
 10
0.0
 20
0.0
 11
1.0
 21
1.0
 12
82.16513824859723
 22
132.56537069137
 13
0.0
 23
0.0
 14
10.0
 24
10.0
 15
10.0
 25
10.0
 16
0.0
 26
0.0
 36
1.0
 17
0.0
 27
0.0
 37
0.0
 40
89.78931049857853
 41
2.043890865954923
 42
50.0
 43
0.0
 44
0.0
 50
0.0
 51
0.0
 71
    16
 72
  2000
 73
     1
 74
     3
 75
     0
 76
     0
 77
     0
 78
     0
281
     0
 65
     1
110
0.0
120
0.0
130
0.0
111
1.0
121
0.0
131
0.0
112
0.0
122
1.0
132
0.0
 79
     0
146
0.0
  0
ENDTAB
  0
TABLE
  2
LTYPE
  5
5
330
0
100
AcDbSymbolTable
 70
     6
  0
LTYPE
  5
14
330
5
100
AcDbSymbolTableRecord
100
AcDbLinetypeTableRecord
  2
ByBlock
 70
     0
  3

 72
    65
 73
     0
 40
0.0
  0
LTYPE
  5
15
330
5
100
AcDbSymbolTableRecord
100
AcDbLinetypeTableRecord
  2
ByLayer
 70
     0
  3

 72
    65
 73
     0
 40
0.0
  0
LTYPE
  5
16
330
5
100
AcDbSymbolTableRecord
100
AcDbLinetypeTableRecord
  2
Continuous
 70
     0
  3
Solid line
 72
    65
 73
     0
 40
0.0
  0
LTYPE
  5
6E
330
5
100
AcDbSymbolTableRecord
100
AcDbLinetypeTableRecord
  2
HIDDEN
 70
     0
  3
Hidden __ __ __ __ __ __ __ __ __ __ __ __ __ __
 72
    65
 73
     2
 40
1.905
 49
1.27
 74
     0
 49
-0.635
 74
     0
  0
LTYPE
  5
6F
330
5
100
AcDbSymbolTableRecord
100
AcDbLinetypeTableRecord
  2
PHANTOM
 70
     0
  3
Phantom ______  __  __  ______  __  __  ______
 72
    65
 73
     6
 40
12.7
 49
6.35
 74
     0
 49
-1.27
 74
     0
 49
1.27
 74
     0
 49
-1.27
 74
     0
 49
1.27
 74
     0
 49
-1.27
 74
     0
  0
LTYPE
  5
70
330
5
100
AcDbSymbolTableRecord
100
AcDbLinetypeTableRecord
  2
CENTER
 70
     0
  3
Center ____ _ ____ _ ____ _ ____ _ ____ _ ____
 72
    65
 73
     4
 40
10.16
 49
6.35
 74
     0
 49
-1.27
 74
     0
 49
1.27
 74
     0
 49
-1.27
 74
     0
  0
LTYPE
  5
71
330
5
100
AcDbSymbolTableRecord
100
AcDbLinetypeTableRecord
  2
CENTERX2
 70
     0
  3
Center (2x) ________  __  ________  __  _____
 72
    65
 73
     4
 40
20.32
 49
12.7
 74
     0
 49
-2.54
 74
     0
 49
2.54
 74
     0
 49
-2.54
 74
     0
  0
LTYPE
  5
72
330
5
100
AcDbSymbolTableRecord
100
AcDbLinetypeTableRecord
  2
DOT2
 70
     0
  3
Dot (.5x) ........................................
 72
    65
 73
     2
 40
0.635
 49
0.0
 74
     0
 49
-0.635
 74
     0
  0
ENDTAB
  0
TABLE
  2
LAYER
  5
2
102
{ACAD_XDICTIONARY
360
66F
102
}
330
0
100
AcDbSymbolTable
 70
    13
  0
LAYER
  5
10
330
2
100
AcDbSymbolTableRecord
100
AcDbLayerTableRecord
  2
0
 70
     0
 62
     7
  6
Continuous
370
    -3
390
F
  0
LAYER
  5
73
330
2
100
AcDbSymbolTableRecord
100
AcDbLayerTableRecord
  2
SLD-0
 70
     0
 62
   179
  6
Continuous
370
    -3
390
F
  0
LAYER
  5
74
330
2
100
AcDbSymbolTableRecord
100
AcDbLayerTableRecord
  2
中心線
 70
     0
 62
     1
  6
CENTER
370
    -3
390
F
  0
LAYER
  5
75
330
2
100
AcDbSymbolTableRecord
100
AcDbLayerTableRecord
  2
破線
 70
     0
 62
     3
  6
HIDDEN
370
    -3
390
F
  0
LAYER
  5
76
330
2
100
AcDbSymbolTableRecord
100
AcDbLayerTableRecord
  2
寸法線
 70
     0
 62
     7
  6
Continuous
370
    -3
390
F
  0
LAYER
  5
77
330
2
100
AcDbSymbolTableRecord
100
AcDbLayerTableRecord
  2
実線
 70
     0
 62
     4
  6
Continuous
370
    25
390
F
  0
LAYER
  5
78
330
2
100
AcDbSymbolTableRecord
100
AcDbLayerTableRecord
  2
ﾊｯﾁﾝｸﾞ
 70
     0
 62
     8
  6
Continuous
370
    -3
390
F
  0
LAYER
  5
79
330
2
100
AcDbSymbolTableRecord
100
AcDbLayerTableRecord
  2
輪郭線
 70
     0
 62
     6
  6
Continuous
370
    25
390
F
  0
LAYER
  5
7A
330
2
100
AcDbSymbolTableRecord
100
AcDbLayerTableRecord
  2
文字
 70
     0
 62
   179
  6
Continuous
370
    -3
390
F
  0
LAYER
  5
7B
330
2
100
AcDbSymbolTableRecord
100
AcDbLayerTableRecord
  2
想像線
 70
     0
 62
     3
  6
PHANTOM
370
    -3
390
F
  0
LAYER
  5
7C
330
2
100
AcDbSymbolTableRecord
100
AcDbLayerTableRecord
  2
姿図
 70
     0
 62
     8
  6
Continuous
370
    -3
390
F
  0
LAYER
  5
7D
330
2
100
AcDbSymbolTableRecord
100
AcDbLayerTableRecord
  2
注記
 70
     0
 62
     7
  6
Continuous
370
    25
390
F
  0
LAYER
  5
7E
330
2
100
AcDbSymbolTableRecord
100
AcDbLayerTableRecord
  2
ロゴ：MODULEX
 70
     0
 62
     7
  6
Continuous
370
    -3
390
F
  0
ENDTAB
  0
TABLE
  2
STYLE
  5
3
330
0
100
AcDbSymbolTable
 70
     1
  0
STYLE
  5
11
330
3
100
AcDbSymbolTableRecord
100
AcDbTextStyleTableRecord
  2
Standard
 70
     0
 40
0.0
 41
1.0
 50
0.0
 71
     0
 42
3.5
  3
txt
  4
bigfont
  0
ENDTAB
  0
TABLE
  2
VIEW
  5
6
330
0
100
AcDbSymbolTable
 70
     0
  0
ENDTAB
  0
TABLE
  2
UCS
  5
7
330
0
100
AcDbSymbolTable
 70
     0
  0
ENDTAB
  0
TABLE
  2
APPID
  5
9
330
0
100
AcDbSymbolTable
 70
     6
  0
APPID
  5
12
330
9
100
AcDbSymbolTableRecord
100
AcDbRegAppTableRecord
  2
ACAD
 70
     0
  0
APPID
  5
64B
330
9
100
AcDbSymbolTableRecord
100
AcDbRegAppTableRecord
  2
ACAD_DSTYLE_DIMJAG
 70
     0
  0
APPID
  5
64C
330
9
100
AcDbSymbolTableRecord
100
AcDbRegAppTableRecord
  2
ACAD_DSTYLE_DIMTALN
 70
     0
  0
APPID
  5
64D
330
9
100
AcDbSymbolTableRecord
100
AcDbRegAppTableRecord
  2
ACAD_PSEXT
 70
     0
  0
APPID
  5
DBE
330
9
100
AcDbSymbolTableRecord
100
AcDbRegAppTableRecord
  2
AcadAnnotative
 70
     0
  0
APPID
  5
DBF
330
9
100
AcDbSymbolTableRecord
100
AcDbRegAppTableRecord
  2
PLOTTRANSPARENCY
 70
     0
  0
ENDTAB
  0
TABLE
  2
DIMSTYLE
  5
A
330
0
100
AcDbSymbolTable
 70
     3
100
AcDbDimStyleTable
  0
DIMSTYLE
105
27
330
A
100
AcDbSymbolTableRecord
100
AcDbDimStyleTableRecord
  2
ISO-25
 70
     0
 41
2.5
 42
0.625
 43
3.75
 44
1.25
 73
     0
 74
     0
 77
     1
 78
     8
140
2.5
141
2.5
143
0.03937007874016
147
0.625
171
     3
172
     1
178
     0
271
     2
272
     2
274
     3
278
    44
283
     0
284
     8
340
11
  0
DIMSTYLE
105
643
330
A
100
AcDbSymbolTableRecord
100
AcDbDimStyleTableRecord
  2
STANDARD
 70
     0
 41
2.5
 42
1.5
 44
1.0
 73
     0
 74
     0
 77
     3
 78
     8
 79
     2
140
2.500000000000003
141
0.0
147
1.0
171
     0
172
     1
173
     1
176
     8
177
     8
271
     2
178
   256
179
     2
271
     2
272
     2
274
     0
289
     1
340
11
341
645
343
645
344
645
1001
ACAD_DSTYLE_DIMJAG
1070
   388
1040
1.5
1001
ACAD_DSTYLE_DIMTALN
1070
   392
1070
     0
  0
DIMSTYLE
105
6A7
330
A
100
AcDbSymbolTableRecord
100
AcDbDimStyleTableRecord
  2
STANDARD-10
 70
     0
 41
15.0
 42
15.0
 43
3.8
 44
1.0
 73
     0
 74
     0
 77
     1
 78
     8
 79
     2
140
20.0
141
0.0
147
0.0
171
     0
172
     1
173
     1
176
     8
177
     8
271
     2
178
   256
179
     2
271
     2
272
     2
274
     0
289
     2
340
11
341
645
343
645
344
645
  0
ENDTAB
  0
TABLE
  2
BLOCK_RECORD
  5
1
330
0
100
AcDbSymbolTable
 70
     3
  0
BLOCK_RECORD
  5
1F
330
1
100
AcDbSymbolTableRecord
100
AcDbBlockTableRecord
  2
*Model_Space
340
22
  0
BLOCK_RECORD
  5
1B
330
1
100
AcDbSymbolTableRecord
100
AcDbBlockTableRecord
  2
*Paper_Space
340
1E
  0
BLOCK_RECORD
  5
23
330
1
100
AcDbSymbolTableRecord
100
AcDbBlockTableRecord
  2
*Paper_Space0
340
26
  0
BLOCK_RECORD
  5
645
330
1
100
AcDbSymbolTableRecord
100
AcDbBlockTableRecord
  2
_OPEN
340
0
  0
BLOCK_RECORD
  5
DB8
330
1
100
AcDbSymbolTableRecord
100
AcDbBlockTableRecord
  2
_Open30
340
0
  0
ENDTAB
  0
ENDSEC
  0
SECTION
  2
BLOCKS
  0
BLOCK
  5
20
330
1F
100
AcDbEntity
  8
0
100
AcDbBlockBegin
  2
*Model_Space
 70
     0
 10
0.0
 20
0.0
 30
0.0
  3
*Model_Space
  1

  0
ENDBLK
  5
21
330
1F
100
AcDbEntity
  8
0
100
AcDbBlockEnd
  0
BLOCK
  5
1C
330
1B
100
AcDbEntity
 67
     1
  8
0
100
AcDbBlockBegin
  2
*Paper_Space
 70
     0
 10
0.0
 20
0.0
 30
0.0
  3
*Paper_Space
  1

  0
ENDBLK
  5
1D
330
1B
100
AcDbEntity
 67
     1
  8
0
100
AcDbBlockEnd
  0
BLOCK
  5
24
330
23
100
AcDbEntity
  8
0
100
AcDbBlockBegin
  2
*Paper_Space0
 70
     0
 10
0.0
 20
0.0
 30
0.0
  3
*Paper_Space0
  1

  0
ENDBLK
  5
25
330
23
100
AcDbEntity
  8
0
100
AcDbBlockEnd
  0
BLOCK
  5
646
330
645
100
AcDbEntity
  8
0
100
AcDbBlockBegin
  2
_OPEN
 70
     0
 10
0.0
 20
0.0
 30
0.0
  3
_OPEN
  1

  0
LINE
  5
647
330
645
100
AcDbEntity
  8
0
  6
ByBlock
 62
     0
100
AcDbLine
 10
-1.0
 20
0.1666666666666667
 30
0.0
 11
0.0
 21
0.0
 31
0.0
  0
LINE
  5
648
330
645
100
AcDbEntity
  8
0
  6
ByBlock
 62
     0
100
AcDbLine
 10
0.0
 20
0.0
 30
0.0
 11
-1.0
 21
-0.1666666666666667
 31
0.0
  0
LINE
  5
649
330
645
100
AcDbEntity
  8
0
  6
ByBlock
 62
     0
100
AcDbLine
 10
0.0
 20
0.0
 30
0.0
 11
-1.0
 21
0.0
 31
0.0
  0
ENDBLK
  5
64A
330
645
100
AcDbEntity
  8
0
100
AcDbBlockEnd
  0
BLOCK
  5
DB9
330
DB8
100
AcDbEntity
  8
0
100
AcDbBlockBegin
  2
_Open30
 70
     0
 10
0.0
 20
0.0
 30
0.0
  3
_Open30
  1

  0
LINE
  5
DBA
330
DB8
100
AcDbEntity
  8
0
  6
ByBlock
 62
     0
370
    -2
100
AcDbLine
 10
-1.0
 20
0.267949
 30
0.0
 11
0.0
 21
0.0
 31
0.0
  0
LINE
  5
DBB
330
DB8
100
AcDbEntity
  8
0
  6
ByBlock
 62
     0
370
    -2
100
AcDbLine
 10
0.0
 20
0.0
 30
0.0
 11
-1.0
 21
-0.267949
 31
0.0
  0
LINE
  5
DBC
330
DB8
100
AcDbEntity
  8
0
  6
ByBlock
 62
     0
370
    -2
100
AcDbLine
 10
0.0
 20
0.0
 30
0.0
 11
-1.0
 21
0.0
 31
0.0
  0
ENDBLK
  5
DBD
330
DB8
100
AcDbEntity
  8
0
100
AcDbBlockEnd
  0
ENDSEC
  0
SECTION
  2
ENTITIES
  0
TEXT
  5
674
330
1F
100
AcDbEntity
  8
文字
 62
     7
100
AcDbText
 10
70.43994116159607
 20
97.93969038501352
 30
0.0
 40
8.0
  1
MAP-LEDCD
 41
0.9
 11
70.43994116159607
 21
97.93969038501352
 31
0.0
100
AcDbText
 73
     1
  0
LINE
  5
1013
330
1F
100
AcDbEntity
  8
0
  6
CENTERX2
 62
     8
100
AcDbLine
 10
112.0133131203092
 20
124.1319084499882
 30
0.0
 11
112.0133131203092
 21
123.8542845739471
 31
0.0
  0
LINE
  5
1014
330
1F
100
AcDbEntity
  8
0
  6
Continuous
 62
     8
370
    25
100
AcDbLine
 10
112.4847308418443
 20
123.1195388535643
 30
0.0
 11
116.6590052945816
 21
120.7097815051265
 31
0.0
  0
LINE
  5
1015
330
1F
100
AcDbEntity
  8
0
  6
Continuous
 62
     8
370
    25
100
AcDbLine
 10
120.1214700521877
 20
118.7109431470312
 30
0.0
 11
120.6188028646165
 21
118.4238390255991
 31
0.0
  0
LINE
  5
1016
330
1F
100
AcDbEntity
  8
0
  6
Continuous
 62
     8
370
    25
100
AcDbLine
 10
124.0812676222226
 20
116.4250006675038
 30
0.0
 11
130.831490020988
 21
112.5281802228519
 31
0.0
  0
LINE
  5
1017
330
1F
100
AcDbEntity
  8
0
  6
Continuous
 62
     8
370
    25
100
AcDbLine
 10
130.8314871233924
 20
113.2902636370568
 30
0.0
 11
124.4112408309884
 21
116.9965929302243
 31
0.0
  0
LINE
  5
1018
330
1F
100
AcDbEntity
  8
0
  6
Continuous
 62
     8
370
    25
100
AcDbLine
 10
120.9487929321212
 20
118.9954215559767
 30
0.0
 11
120.4514432609535
 21
119.2825354097517
 31
0.0
  0
LINE
  5
1019
330
1F
100
AcDbEntity
  8
0
  6
Continuous
 62
     8
370
    25
100
AcDbLine
 10
116.9889953620868
 20
121.2813640355039
 30
0.0
 11
112.8147040506101
 21
123.6911311162848
 31
0.0
  0
LINE
  5
101A
330
1F
100
AcDbEntity
  8
0
  6
Continuous
 62
     8
370
    25
100
AcDbLine
 10
113.4746803660618
 20
123.69102454948
 30
0.0
 11
117.3188944187404
 21
121.4718070142421
 31
0.0
  0
LINE
  5
101B
330
1F
100
AcDbEntity
  8
0
  6
Continuous
 62
     8
370
    25
100
AcDbLine
 10
121.1114195764057
 20
119.2824288429469
 30
0.0
 11
121.2786919887758
 21
119.1858645347147
 31
0.0
  0
LINE
  5
101C
330
1F
100
AcDbEntity
  8
0
  6
Continuous
 62
     8
370
    25
100
AcDbLine
 10
125.0712171464401
 20
116.9964863634195
 30
0.0
 11
131.1568680378859
 21
113.4833148837456
 31
0.0
  0
LINE
  5
101D
330
1F
100
AcDbEntity
  8
0
  6
Continuous
 62
     8
370
    25
100
AcDbLine
 10
131.8169353641888
 20
113.8643478685801
 30
0.0
 11
125.4011903552064
 21
117.56807862614
 31
0.0
  0
LINE
  5
101E
330
1F
100
AcDbEntity
  8
0
  6
Continuous
 62
     8
370
    25
100
AcDbLine
 10
121.9387424563392
 20
119.5669072518924
 30
0.0
 11
121.441392785171
 21
119.8540211056674
 31
0.0
  0
LINE
  5
101F
330
1F
100
AcDbEntity
  8
0
  6
Continuous
 62
     8
370
    25
100
AcDbLine
 10
117.9789448863043
 20
121.8528497314196
 30
0.0
 11
113.8046535748276
 21
124.2626168122005
 31
0.0
  0
LINE
  5
1020
330
1F
100
AcDbEntity
  8
0
  6
Continuous
 62
     8
370
    25
100
AcDbLine
 10
111.6213711551995
 20
122.2191180001455
 30
0.0
 11
112.8329228819866
 21
122.9185319245757
 31
0.0
  0
LINE
  5
1021
330
1F
100
AcDbEntity
  8
0
  6
Continuous
 62
     8
370
    25
100
AcDbLine
 10
113.4929764447097
 20
123.299572735654
 30
0.0
 11
113.8228723403499
 21
123.4900175824746
 31
0.0
  0
LINE
  5
1022
330
1F
100
AcDbEntity
  8
0
  6
Continuous
 62
     8
370
    25
100
AcDbLine
 10
114.4829259689272
 20
123.8710584315697
 30
0.0
 11
114.5022919189823
 21
123.8822381565696
 31
0.0
  0
SPLINE
  5
1023
330
1F
100
AcDbEntity
  8
0
  6
Continuous
 62
     8
370
    25
100
AcDbSpline
210
0.0
220
0.0
230
1.0
 70
     8
 71
     3
 72
    11
 73
     7
 74
     0
 42
0.000000001
 43
0.00000001
 40
0.0
 40
0.0
 40
0.0
 40
0.0
 40
0.243856287356006
 40
0.6084061850521518
 40
0.955831080136448
 40
1.0
 40
1.0
 40
1.0
 40
1.0
 10
114.4649002886544
 20
124.8683458900127
 30
0.0
 10
114.4533863749475
 20
124.941254468355
 30
0.0
 10
114.4246598803824
 20
125.1231568112791
 30
0.0
 10
114.2959913717336
 20
125.3682670328398
 30
0.0
 10
114.1466072134085
 20
125.5462098855787
 30
0.0
 10
114.0402182671941
 20
125.5847393728691
 30
0.0
 10
114.0282183717399
 20
125.5890852173938
 30
0.0
  0
LINE
  5
1024
330
1F
100
AcDbEntity
  8
0
  6
Continuous
 62
     8
370
    25
100
AcDbLine
 10
114.0326453713405
 20
125.5943574238788
 30
0.0
 11
111.4870684443494
 21
127.0638877039991
 31
0.0
  0
SPLINE
  5
1025
330
1F
100
AcDbEntity
  8
0
  6
Continuous
 62
     8
370
    25
100
AcDbSpline
210
0.0
220
0.0
230
1.0
 70
     8
 71
     3
 72
     9
 73
     5
 74
     0
 42
0.000000001
 43
0.00000001
 40
0.0
 40
0.0
 40
0.0
 40
0.0
 40
0.3461881686706462
 40
1.0
 40
1.0
 40
1.0
 40
1.0
 10
114.5016065058585
 20
123.8843315178073
 30
0.0
 10
114.5041172787123
 20
124.0015167556012
 30
0.0
 10
114.5113699033872
 20
124.3400183232429
 30
0.0
 10
114.4832714136728
 20
124.6594788306363
 30
0.0
 10
114.4649002886544
 20
124.8683458900127
 30
0.0
  0
LINE
  5
1026
330
1F
100
AcDbEntity
  8
0
  6
Continuous
 62
     8
370
    25
100
AcDbLine
 10
55.47764533202914
 20
159.397439427742
 30
0.0
 11
52.93206089763041
 21
160.8669740417963
 31
0.0
  0
SPLINE
  5
1027
330
1F
100
AcDbEntity
  8
0
  6
Continuous
 62
     8
370
    25
100
AcDbSpline
210
0.0
220
0.0
230
1.0
 70
     8
 71
     3
 72
    12
 73
     8
 74
     0
 42
0.000000001
 43
0.00000001
 40
0.0
 40
0.0
 40
0.0
 40
0.0
 40
0.1207671249134397
 40
0.3384101511322263
 40
0.5555568576453367
 40
0.7734206516719936
 40
0.9999999999999999
 40
0.9999999999999999
 40
0.9999999999999999
 40
0.9999999999999999
 10
51.17039553075207
 20
160.3582529375453
 30
0.0
 10
51.10806623170308
 20
160.318564863395
 30
0.0
 10
50.93340886922667
 20
160.2073520877245
 30
0.0
 10
50.67200219694038
 20
159.9488349523083
 30
0.0
 10
50.41885328445912
 20
159.5817765206336
 30
0.0
 10
50.22889896647254
 20
159.1667864321002
 30
0.0
 10
50.1817377563593
 20
158.8870330472177
 30
0.0
 10
50.15769473434963
 20
158.7444133651966
 30
0.0
  0
SPLINE
  5
1028
330
1F
100
AcDbEntity
  8
0
  6
Continuous
 62
     8
370
    25
100
AcDbSpline
210
0.0
220
0.0
230
1.0
 70
     8
 71
     3
 72
     9
 73
     5
 74
     0
 42
0.000000001
 43
0.00000001
 40
0.0
 40
0.0
 40
0.0
 40
0.0
 40
0.4487684484513544
 40
1.0
 40
1.0
 40
1.0
 40
1.0
 10
50.15769473434963
 20
158.7444133651966
 30
0.0
 10
50.14432472702535
 20
158.5874062770513
 30
0.0
 10
50.11453206363646
 20
158.2375441406043
 30
0.0
 10
50.11988466190903
 20
157.9040773049298
 30
0.0
 10
50.12283518295996
 20
157.7202598637109
 30
0.0
  0
LINE
  5
1029
330
1F
100
AcDbEntity
  8
0
  6
Continuous
 62
     8
370
    25
100
AcDbLine
 10
51.95214047943361
 20
160.8095446904044
 30
0.0
 11
51.17039553075207
 21
160.3582529375453
 31
0.0
  0
SPLINE
  5
102A
330
1F
100
AcDbEntity
  8
0
  6
Continuous
 62
     8
370
    25
100
AcDbSpline
210
0.0
220
0.0
230
1.0
 70
     8
 71
     3
 72
    11
 73
     7
 74
     0
 42
0.000000001
 43
0.00000001
 40
0.0
 40
0.0
 40
0.0
 40
0.0
 40
0.2642354053092508
 40
0.5751849562481859
 40
0.8979034149086416
 40
0.9999999999999999
 40
0.9999999999999999
 40
0.9999999999999999
 40
0.9999999999999999
 10
52.90713940025122
 20
160.869593033525
 30
0.0
 10
52.82820616304295
 20
160.9069499982533
 30
0.0
 10
52.656385091082
 20
160.9882682610268
 30
0.0
 10
52.35256935505319
 20
160.9743305564157
 30
0.0
 10
52.11484373907476
 20
160.8987145194342
 30
0.0
 10
51.98366653861191
 20
160.8268226067357
 30
0.0
 10
51.95214047943361
 20
160.8095446904044
 30
0.0
  0
LINE
  5
102B
330
1F
100
AcDbEntity
  8
0
  6
Continuous
 62
     8
370
    25
100
AcDbLine
 10
137.9308411077495
 20
110.5687933967406
 30
0.0
 11
138.8359378306581
 21
111.0912946131245
 31
0.0
  0
LINE
  5
102C
330
1F
100
AcDbEntity
  8
0
  6
Continuous
 62
     8
370
    25
100
AcDbLine
 10
138.8359378306581
 20
111.0912946131245
 30
0.0
 11
137.6480036172697
 21
111.7770744372799
 31
0.0
  0
LINE
  5
102D
330
1F
100
AcDbEntity
  8
0
  6
Continuous
 62
     8
370
    25
100
AcDbLine
 10
137.6480036172697
 20
111.7770744372799
 30
0.0
 11
138.1854047800329
 21
112.0873095250035
 31
0.0
  0
LINE
  5
102E
330
1F
100
AcDbEntity
  8
0
  6
Continuous
 62
     8
370
    25
100
AcDbLine
 10
140.1087340649792
 20
110.9769951625098
 30
0.0
 11
138.1854047800329
 21
112.0873095250035
 31
0.0
  0
LINE
  5
102F
330
1F
100
AcDbEntity
  8
0
  6
Continuous
 62
     8
370
    25
100
AcDbLine
 10
140.1087340649792
 20
110.9769951625098
 30
0.0
 11
138.128835049471
 21
109.8340237896868
 31
0.0
  0
LINE
  5
1030
330
1F
100
AcDbEntity
  8
0
  6
Continuous
 62
     8
370
    25
100
AcDbLine
 10
136.2055057645248
 20
110.9443381521805
 30
0.0
 11
138.128835049471
 21
109.8340237896868
 31
0.0
  0
LINE
  5
1031
330
1F
100
AcDbEntity
  8
0
  6
Continuous
 62
     8
370
    25
100
AcDbLine
 10
136.2055057645248
 20
110.9443381521805
 30
0.0
 11
136.7429068943611
 21
111.2545732208959
 31
0.0
  0
LINE
  5
1032
330
1F
100
AcDbEntity
  8
0
  6
Continuous
 62
     8
370
    25
100
AcDbLine
 10
136.7429068943611
 20
111.2545732208959
 30
0.0
 11
137.9308411077495
 21
110.5687933967406
 31
0.0
  0
LINE
  5
1033
330
1F
100
AcDbEntity
  8
0
  6
Continuous
 62
     8
370
    25
100
AcDbLine
 10
139.910744107452
 20
110.3727735775694
 30
0.0
 11
139.7976070829427
 21
110.3074609635384
 31
0.0
  0
LINE
  5
1034
330
1F
100
AcDbEntity
  8
0
  6
Continuous
 62
     8
370
    25
100
AcDbLine
 10
139.910744107452
 20
110.6340666497835
 30
0.0
 11
139.910744107452
 21
110.3727735775694
 31
0.0
  0
LINE
  5
1035
330
1F
100
AcDbEntity
  8
0
  6
Continuous
 62
     8
370
    25
100
AcDbLine
 10
138.3268249411435
 20
109.7196895781371
 30
0.0
 11
139.910744107452
 21
110.6340666497835
 31
0.0
  0
LINE
  5
1036
330
1F
100
AcDbEntity
  8
0
  6
Continuous
 62
     8
370
    25
100
AcDbLine
 10
138.3268249411435
 20
109.4583965059228
 30
0.0
 11
138.3268249411435
 21
109.7196895781371
 31
0.0
  0
LINE
  5
1037
330
1F
100
AcDbEntity
  8
0
  6
Continuous
 62
     8
370
    25
100
AcDbLine
 10
138.4399619985797
 20
109.5237091389624
 30
0.0
 11
138.3268249411435
 21
109.4583965059228
 31
0.0
  0
LINE
  5
1038
330
1F
100
AcDbEntity
  8
0
  6
Continuous
 62
     8
370
    25
100
AcDbLine
 10
138.4399619985797
 20
107.7273193435362
 30
0.0
 11
138.4399619985797
 21
109.5237091389624
 31
0.0
  0
LINE
  5
1039
330
1F
100
AcDbEntity
  8
0
  6
Continuous
 62
     8
370
    25
100
AcDbLine
 10
139.7976070829427
 20
108.5110711681122
 30
0.0
 11
138.4399619985797
 21
107.7273193435362
 31
0.0
  0
LINE
  5
103A
330
1F
100
AcDbEntity
  8
0
  6
Continuous
 62
     8
370
    25
100
AcDbLine
 10
139.7976070829427
 20
110.3074609635384
 30
0.0
 11
139.7976070829427
 21
108.5110711681122
 31
0.0
  0
LINE
  5
103B
330
1F
100
AcDbEntity
  8
0
  6
Continuous
 62
     8
370
    25
100
AcDbLine
 10
138.128835049471
 20
107.1884316426453
 30
0.0
 11
140.1087340649792
 21
108.3314030154683
 31
0.0
  0
LINE
  5
103C
330
1F
100
AcDbEntity
  8
0
  6
Continuous
 62
     8
370
    25
100
AcDbLine
 10
138.128835049471
 20
109.8340237896868
 30
0.0
 11
138.128835049471
 21
107.1884316426453
 31
0.0
  0
LINE
  5
103D
330
1F
100
AcDbEntity
  8
0
  6
Continuous
 62
     8
370
    25
100
AcDbLine
 10
140.1087340649792
 20
108.3314030154683
 30
0.0
 11
140.1087340649792
 21
110.9769951625098
 31
0.0
  0
LINE
  5
103E
330
1F
100
AcDbEntity
  8
0
  6
Continuous
 62
     8
370
    25
100
AcDbLine
 10
134.4235875857025
 20
109.3274254737152
 30
0.0
 11
138.128835049471
 21
107.1884316426453
 31
0.0
  0
LINE
  5
103F
330
1F
100
AcDbEntity
  8
0
  6
Continuous
 62
     8
370
    25
100
AcDbLine
 10
134.4235875857025
 20
109.3274254737152
 30
0.0
 11
134.4235875857025
 21
111.6137396654735
 31
0.0
  0
LINE
  5
1040
330
1F
100
AcDbEntity
  8
0
  6
Continuous
 62
     8
370
    25
100
AcDbLine
 10
134.4235875857025
 20
111.6137396654735
 30
0.0
 11
136.2055057645248
 21
110.5850601968977
 31
0.0
  0
LINE
  5
1041
330
1F
100
AcDbEntity
  8
0
  6
Continuous
 62
     8
370
    25
100
AcDbLine
 10
136.2055057645248
 20
110.9443381521805
 30
0.0
 11
136.2055057645248
 21
110.5850601968977
 31
0.0
  0
LINE
  5
1042
330
1F
100
AcDbEntity
  8
0
  6
Continuous
 62
     8
370
    25
100
AcDbLine
 10
138.4399619985797
 20
109.5237091389624
 30
0.0
 11
138.3268229984373
 21
109.5890228935022
 31
0.0
  0
LINE
  5
1043
330
1F
100
AcDbEntity
  8
0
  6
Continuous
 62
     8
370
    25
100
AcDbLine
 10
136.4034866012107
 20
112.7567110382965
 30
0.0
 11
134.4235875857025
 21
111.6137396654735
 31
0.0
  0
LINE
  5
1044
330
1F
100
AcDbEntity
  8
0
  6
Continuous
 62
     8
370
    25
100
AcDbLine
 10
137.8742261681072
 20
111.9076711586492
 30
0.0
 11
136.4034866012107
 21
112.7567110382965
 31
0.0
  0
LINE
  5
1045
330
1F
100
AcDbEntity
  8
0
  6
Continuous
 62
     8
370
    25
100
AcDbLine
 10
137.9874206176973
 20
111.2218552183769
 30
0.0
 11
137.6480036172697
 21
111.4177964819969
 31
0.0
  0
LINE
  5
1046
330
1F
100
AcDbEntity
  8
0
  6
Continuous
 62
     8
370
    25
100
AcDbLine
 10
137.9874206176973
 20
111.2218552183769
 30
0.0
 11
137.3935014530434
 21
110.8789929826498
 31
0.0
  0
LINE
  5
1047
330
1F
100
AcDbEntity
  8
0
  6
Continuous
 62
     8
370
    25
100
AcDbLine
 10
139.6844323896875
 20
110.5034205513357
 30
0.0
 11
139.910744107452
 21
110.3727735775694
 31
0.0
  0
LINE
  5
1048
330
1F
100
AcDbEntity
  8
0
  6
Continuous
 62
     8
370
    25
100
AcDbLine
 10
137.9874206176973
 20
111.2218552183769
 30
0.0
 11
137.9874206176973
 21
111.3525018305304
 31
0.0
  0
LINE
  5
1049
330
1F
100
AcDbEntity
  8
0
  6
Continuous
 62
     8
370
    25
100
AcDbLine
 10
138.2137315452082
 20
111.2218552758786
 30
0.0
 11
138.2136947984245
 21
111.2218340624122
 31
0.0
  0
LINE
  5
104A
330
1F
100
AcDbEntity
  8
0
  6
Continuous
 62
     8
370
    25
100
AcDbLine
 10
138.2136947984245
 20
110.9932025671901
 30
0.0
 11
138.2136947984245
 21
111.2218340624122
 31
0.0
  0
LINE
  5
104B
330
1F
100
AcDbEntity
  8
0
  6
Continuous
 62
     8
370
    25
100
AcDbLine
 10
138.2136947984245
 20
110.9932025671901
 30
0.0
 11
137.7046790112977
 21
110.6993540080241
 31
0.0
  0
LINE
  5
104C
330
1F
100
AcDbEntity
  8
0
  6
Continuous
 62
     8
370
    25
100
AcDbLine
 10
138.2136947984245
 20
111.2218340624122
 30
0.0
 11
138.6378775405774
 21
110.9769585776885
 31
0.0
  0
LINE
  5
104D
330
1F
100
AcDbEntity
  8
0
  6
Continuous
 62
     8
370
    25
100
AcDbLine
 10
139.5712953651787
 20
110.4381079373047
 30
0.0
 11
139.7976070829427
 21
110.3074609635384
 31
0.0
  0
LINE
  5
104E
330
1F
100
AcDbEntity
  8
0
  6
Continuous
 62
     8
370
    25
100
AcDbLine
 10
138.4399559399703
 20
109.2948264902488
 30
0.0
 11
139.7976070829427
 21
108.5110711681122
 31
0.0
  0
LINE
  5
104F
330
1F
100
AcDbEntity
  8
0
  6
Continuous
 62
     8
370
    25
100
AcDbLine
 10
137.6480036172697
 20
111.7770744372799
 30
0.0
 11
137.6480036172697
 21
111.4177964819969
 31
0.0
  0
LINE
  5
1050
330
1F
100
AcDbEntity
  8
0
  6
Continuous
 62
     8
370
    25
100
AcDbLine
 10
137.9874206176973
 20
111.3525018305304
 30
0.0
 11
138.6379150776147
 21
110.9769793720404
 31
0.0
  0
LINE
  5
1051
330
1F
100
AcDbEntity
  8
0
  6
Continuous
 62
     8
370
    25
100
AcDbLine
 10
135.7953183773284
 20
112.4056243847922
 30
0.0
 11
133.9003286333209
 21
113.4995786785357
 31
0.0
  0
LINE
  5
1052
330
1F
100
AcDbEntity
  8
0
  6
Continuous
 62
     8
370
    25
100
AcDbLine
 10
132.4578308135033
 20
112.666842412445
 30
0.0
 11
134.4235935455303
 21
111.5320317423702
 31
0.0
  0
LINE
  5
1053
330
1F
100
AcDbEntity
  8
0
  6
Continuous
 62
     8
370
    25
100
AcDbLine
 10
132.4578308135033
 20
112.666842412445
 30
0.0
 11
131.9062911940618
 21
112.6750044077698
 31
0.0
  0
LINE
  5
1054
330
1F
100
AcDbEntity
  8
0
  6
Continuous
 62
     8
370
    25
100
AcDbLine
 10
130.8314959808158
 20
113.2954704773851
 30
0.0
 11
131.9062911940618
 21
112.6750044077698
 31
0.0
  0
LINE
  5
1055
330
1F
100
AcDbEntity
  8
0
  6
Continuous
 62
     8
370
    25
100
AcDbLine
 10
132.811394996324
 20
114.4384418502081
 30
0.0
 11
130.8314959808158
 21
113.2954704773851
 31
0.0
  0
LINE
  5
1056
330
1F
100
AcDbEntity
  8
0
  6
Continuous
 62
     8
370
    25
100
AcDbLine
 10
133.88619020957
 20
113.8179757805928
 30
0.0
 11
132.811394996324
 21
114.4384418502081
 31
0.0
  0
LINE
  5
1057
330
1F
100
AcDbEntity
  8
0
  6
Continuous
 62
     8
370
    25
100
AcDbLine
 10
133.88619020957
 20
113.8179757805928
 30
0.0
 11
133.9003286333209
 21
113.4995786785357
 31
0.0
  0
LINE
  5
1058
330
1F
100
AcDbEntity
  8
0
  6
Continuous
 62
     8
370
    25
100
AcDbLine
 10
132.4578308135033
 20
110.7724677529613
 30
0.0
 11
132.4578308135033
 21
112.666842412445
 31
0.0
  0
LINE
  5
1059
330
1F
100
AcDbEntity
  8
0
  6
Continuous
 62
     8
370
    25
100
AcDbLine
 10
132.4578308135033
 20
110.7724677529613
 30
0.0
 11
134.4235935455303
 21
109.6376570828865
 31
0.0
  0
LINE
  5
105A
330
1F
100
AcDbEntity
  8
0
  6
Continuous
 62
     8
370
    25
100
AcDbLine
 10
131.9062911940618
 20
112.6750044077698
 30
0.0
 11
131.9062911940618
 21
110.7806297482866
 31
0.0
  0
LINE
  5
105B
330
1F
100
AcDbEntity
  8
0
  6
Continuous
 62
     8
370
    25
100
AcDbLine
 10
132.4578308135033
 20
110.7724677529613
 30
0.0
 11
131.9062911940618
 21
110.7806297482866
 31
0.0
  0
LINE
  5
105C
330
1F
100
AcDbEntity
  8
0
  6
Continuous
 62
     8
370
    25
100
AcDbLine
 10
130.8314959808158
 20
111.4010958179019
 30
0.0
 11
130.8314959808158
 21
113.2954704773851
 31
0.0
  0
LINE
  5
105D
330
1F
100
AcDbEntity
  8
0
  6
Continuous
 62
     8
370
    25
100
AcDbLine
 10
130.8314959808158
 20
111.4010958179019
 30
0.0
 11
131.9062911940618
 21
110.7806297482866
 31
0.0
  0
LINE
  5
105E
330
1F
100
AcDbEntity
  8
0
  6
Continuous
 62
     8
370
    25
100
AcDbLine
 10
42.62613005273758
 20
164.2101323223205
 30
0.0
 11
42.62613005273758
 21
164.5499448610699
 31
0.0
  0
LINE
  5
105F
330
1F
100
AcDbEntity
  8
0
  6
Continuous
 62
     8
370
    25
100
AcDbLine
 10
42.62613005273758
 20
164.5499448610699
 30
0.0
 11
42.28671884750108
 21
164.3540069429427
 31
0.0
  0
LINE
  5
1060
330
1F
100
AcDbEntity
  8
0
  6
Continuous
 62
     8
370
    25
100
AcDbLine
 10
42.28671884750108
 20
164.3540069429427
 30
0.0
 11
42.28671884750108
 21
164.3409011254757
 31
0.0
  0
LINE
  5
1061
330
1F
100
AcDbEntity
  8
0
  6
Continuous
 62
     8
370
    25
100
AcDbLine
 10
42.85240423346474
 20
164.2886305948677
 30
0.0
 11
43.0208845481711
 21
164.3858922102761
 31
0.0
  0
LINE
  5
1062
330
1F
100
AcDbEntity
  8
0
  6
Continuous
 62
     8
370
    25
100
AcDbLine
 10
43.19181557040972
 20
164.8642786232494
 30
0.0
 11
43.19181557040972
 21
164.8765081593269
 31
0.0
  0
LINE
  5
1063
330
1F
100
AcDbEntity
  8
0
  6
Continuous
 62
     8
370
    25
100
AcDbLine
 10
43.19181557040972
 20
164.8765081593269
 30
0.0
 11
42.85240423346474
 21
164.6805701651658
 31
0.0
  0
LINE
  5
1064
330
1F
100
AcDbEntity
  8
0
  6
Continuous
 62
     8
370
    25
100
AcDbLine
 10
42.85240423346474
 20
164.6805701651658
 30
0.0
 11
42.85240423346474
 21
164.2886305948677
 31
0.0
  0
LINE
  5
1065
330
1F
100
AcDbEntity
  8
0
  6
Continuous
 62
     8
370
    25
100
AcDbLine
 10
43.68679026666402
 20
164.7407976060231
 30
0.0
 11
43.68679026666402
 21
165.8318144382992
 31
0.0
  0
LINE
  5
1066
330
1F
100
AcDbEntity
  8
0
  6
Continuous
 62
     8
370
    25
100
AcDbLine
 10
41.79174411831943
 20
162.9414378066103
 30
0.0
 11
42.64772425398994
 21
163.4355846207218
 31
0.0
  0
LINE
  5
1067
330
1F
100
AcDbEntity
  8
0
  6
Continuous
 62
     8
370
    25
100
AcDbLine
 10
43.30777788256725
 20
163.8166254698171
 30
0.0
 11
43.63767377820747
 21
164.0070703166375
 31
0.0
  0
LINE
  5
1068
330
1F
100
AcDbEntity
  8
0
  6
Continuous
 62
     8
370
    25
100
AcDbLine
 10
41.79174411831943
 20
164.7378275830249
 30
0.0
 11
41.79174411831943
 21
162.9414378066103
 31
0.0
  0
LINE
  5
1069
330
1F
100
AcDbEntity
  8
0
  6
Continuous
 62
     8
370
    25
100
AcDbLine
 10
41.79174411831943
 20
164.7378275830249
 30
0.0
 11
42.07458684422861
 21
164.901109213145
 31
0.0
  0
LINE
  5
106A
330
1F
100
AcDbEntity
  8
0
  6
Continuous
 62
     8
370
    25
100
AcDbLine
 10
42.07458684422861
 20
165.3910337805812
 30
0.0
 11
42.07458684422861
 21
164.901109213145
 31
0.0
  0
LINE
  5
106B
330
1F
100
AcDbEntity
  8
0
  6
Continuous
 62
     8
370
    25
100
AcDbLine
 10
42.07458684422861
 20
165.3910337805812
 30
0.0
 11
42.23015033524641
 21
165.480838672395
 31
0.0
  0
LINE
  5
106C
330
1F
100
AcDbEntity
  8
0
  6
Continuous
 62
     8
370
    25
100
AcDbLine
 10
42.23015033524641
 20
165.480838672395
 30
0.0
 11
42.23015033524641
 21
164.9909141049588
 31
0.0
  0
LINE
  5
106D
330
1F
100
AcDbEntity
  8
0
  6
Continuous
 62
     8
370
    25
100
AcDbLine
 10
42.23015033524641
 20
164.9909141049588
 30
0.0
 11
42.31500313655576
 21
165.0398985844904
 31
0.0
  0
LINE
  5
106E
330
1F
100
AcDbEntity
  8
0
  6
Continuous
 62
     8
370
    25
100
AcDbLine
 10
42.31500313655576
 20
165.0398985844904
 30
0.0
 11
42.31500313655576
 21
165.5298231519268
 31
0.0
  0
LINE
  5
106F
330
1F
100
AcDbEntity
  8
0
  6
Continuous
 62
     8
370
    25
100
AcDbLine
 10
42.31500313655576
 20
165.5298231519268
 30
0.0
 11
43.1635312155008
 21
166.0196679852615
 31
0.0
  0
LINE
  5
1070
330
1F
100
AcDbEntity
  8
0
  6
Continuous
 62
     8
370
    25
100
AcDbLine
 10
43.1635312155008
 20
166.0196679852615
 30
0.0
 11
43.1635312155008
 21
165.5297434178251
 31
0.0
  0
LINE
  5
1071
330
1F
100
AcDbEntity
  8
0
  6
Continuous
 62
     8
370
    25
100
AcDbLine
 10
43.1635312155008
 20
165.5297434178251
 30
0.0
 11
43.24838414851862
 21
165.5787279733908
 31
0.0
  0
LINE
  5
1072
330
1F
100
AcDbEntity
  8
0
  6
Continuous
 62
     8
370
    25
100
AcDbLine
 10
43.24838414851862
 20
165.5787279733908
 30
0.0
 11
43.24838414851862
 21
166.0686525408271
 31
0.0
  0
LINE
  5
1073
330
1F
100
AcDbEntity
  8
0
  6
Continuous
 62
     8
370
    25
100
AcDbLine
 10
43.24838414851862
 20
166.0686525408271
 30
0.0
 11
43.40394763953688
 21
166.1584574326411
 31
0.0
  0
LINE
  5
1074
330
1F
100
AcDbEntity
  8
0
  6
Continuous
 62
     8
370
    25
100
AcDbLine
 10
43.40394763953688
 20
166.1584574326411
 30
0.0
 11
43.40394763953688
 21
165.6685328652047
 31
0.0
  0
LINE
  5
1075
330
1F
100
AcDbEntity
  8
0
  6
Continuous
 62
     8
370
    25
100
AcDbLine
 10
43.40394763953688
 20
165.6685328652047
 30
0.0
 11
43.68679026666402
 21
165.8318144382992
 31
0.0
  0
LINE
  5
1076
330
1F
100
AcDbEntity
  8
0
  6
Continuous
 62
     8
370
    25
100
AcDbLine
 10
39.13302321917487
 20
166.9585370115464
 30
0.0
 11
40.54723543284851
 21
166.1421296783114
 31
0.0
  0
LINE
  5
1077
330
1F
100
AcDbEntity
  8
0
  6
Continuous
 62
     8
370
    25
100
AcDbLine
 10
39.13302321917487
 20
166.9585370115464
 30
0.0
 11
39.40172380055625
 21
167.1136545554086
 31
0.0
  0
LINE
  5
1078
330
1F
100
AcDbEntity
  8
0
  6
Continuous
 62
     8
370
    25
100
AcDbLine
 10
39.40172380055625
 20
167.1136545554086
 30
0.0
 11
42.23015033524641
 21
165.480838672395
 31
0.0
  0
LINE
  5
1079
330
1F
100
AcDbEntity
  8
0
  6
Continuous
 62
     8
370
    25
100
AcDbLine
 10
40.66037252321209
 20
166.2074423303593
 30
0.0
 11
42.07458684422861
 21
165.3910337805812
 31
0.0
  0
LINE
  5
107A
330
1F
100
AcDbEntity
  8
0
  6
Continuous
 62
     8
370
    25
100
AcDbLine
 10
40.54723543284851
 20
166.1421296783114
 30
0.0
 11
40.66037252321209
 21
166.2074423303593
 31
0.0
  0
LINE
  5
107B
330
1F
100
AcDbEntity
  8
0
  6
Continuous
 62
     8
370
    25
100
AcDbLine
 10
40.66037252321209
 20
165.9788108351372
 30
0.0
 11
40.66037252321209
 21
166.2074423303593
 31
0.0
  0
LINE
  5
107C
330
1F
100
AcDbEntity
  8
0
  6
Continuous
 62
     8
370
    25
100
AcDbLine
 10
42.07458684422861
 20
164.901109213145
 30
0.0
 11
40.85836366611917
 21
165.6032199090209
 31
0.0
  0
LINE
  5
107D
330
1F
100
AcDbEntity
  8
0
  6
Continuous
 62
     8
370
    25
100
AcDbLine
 10
37.40768316735645
 20
166.0601586360776
 30
0.0
 11
40.57552038044739
 21
164.2314051390731
 31
0.0
  0
LINE
  5
107E
330
1F
100
AcDbEntity
  8
0
  6
Continuous
 62
     8
370
    25
100
AcDbLine
 10
37.40768316735645
 20
166.0601586360776
 30
0.0
 11
37.40768316735645
 21
167.5952553592899
 31
0.0
  0
LINE
  5
107F
330
1F
100
AcDbEntity
  8
0
  6
Continuous
 62
     8
370
    25
100
AcDbLine
 10
39.246160309538
 20
166.5339250961583
 30
0.0
 11
37.40768316735645
 21
167.5952553592899
 31
0.0
  0
LINE
  5
1080
330
1F
100
AcDbEntity
  8
0
  6
Continuous
 62
     8
370
    25
100
AcDbLine
 10
39.246160309538
 20
166.5339250961583
 30
0.0
 11
39.246160309538
 21
166.66459284918
 31
0.0
  0
LINE
  5
1081
330
1F
100
AcDbEntity
  8
0
  6
Continuous
 62
     8
370
    25
100
AcDbLine
 10
39.65628088739456
 20
166.9667017707754
 30
0.0
 11
39.65628088739456
 21
167.3259637563378
 31
0.0
  0
LINE
  5
1082
330
1F
100
AcDbEntity
  8
0
  6
Continuous
 62
     8
370
    25
100
AcDbLine
 10
40.25025220877339
 20
166.9830714111742
 30
0.0
 11
39.65628088739456
 21
167.3259637563378
 31
0.0
  0
LINE
  5
1083
330
1F
100
AcDbEntity
  8
0
  6
Continuous
 62
     8
370
    25
100
AcDbLine
 10
40.25025220877339
 20
166.9830714111742
 30
0.0
 11
40.25025220877339
 21
166.7217784910526
 31
0.0
  0
LINE
  5
1084
330
1F
100
AcDbEntity
  8
0
  6
Continuous
 62
     8
370
    25
100
AcDbLine
 10
42.31500313655576
 20
165.5298231519268
 30
0.0
 11
40.25025220877339
 21
166.7217784910526
 31
0.0
  0
LINE
  5
1085
330
1F
100
AcDbEntity
  8
0
  6
Continuous
 62
     8
370
    25
100
AcDbLine
 10
42.23015099379106
 20
165.0888826838527
 30
0.0
 11
42.31500313655576
 21
165.0398985844904
 31
0.0
  0
LINE
  5
1086
330
1F
100
AcDbEntity
  8
0
  6
Continuous
 62
     8
370
    25
100
AcDbLine
 10
41.79174411831943
 20
162.9414378066103
 30
0.0
 11
40.57552094021045
 21
163.6435485024863
 31
0.0
  0
LINE
  5
1087
330
1F
100
AcDbEntity
  8
0
  6
Continuous
 62
     8
370
    25
100
AcDbLine
 10
40.57552094021045
 20
163.6435485024863
 30
0.0
 11
40.57552094021045
 21
165.4399382789011
 31
0.0
  0
LINE
  5
1088
330
1F
100
AcDbEntity
  8
0
  6
Continuous
 62
     8
370
    25
100
AcDbLine
 10
40.57552094021045
 20
165.4399382789011
 30
0.0
 11
41.79174411831943
 21
164.7378275830249
 31
0.0
  0
LINE
  5
1089
330
1F
100
AcDbEntity
  8
0
  6
Continuous
 62
     8
370
    25
100
AcDbLine
 10
40.57552094021045
 20
165.4399382789011
 30
0.0
 11
40.85836366611917
 21
165.6032199090209
 31
0.0
  0
LINE
  5
108A
330
1F
100
AcDbEntity
  8
0
  6
Continuous
 62
     8
370
    25
100
AcDbLine
 10
41.09878028771888
 20
167.2116233243873
 30
0.0
 11
40.25025220877339
 21
166.7217784910526
 31
0.0
  0
LINE
  5
108B
330
1F
100
AcDbEntity
  8
0
  6
Continuous
 62
     8
370
    25
100
AcDbLine
 10
41.09878028771888
 20
167.2116233243873
 30
0.0
 11
43.1635312155008
 21
166.0196679852615
 31
0.0
  0
LINE
  5
108C
330
1F
100
AcDbEntity
  8
0
  6
Continuous
 62
     8
370
    25
100
AcDbLine
 10
37.40768316735645
 20
167.5952553592899
 30
0.0
 11
38.73704396266473
 21
168.3626790113496
 31
0.0
  0
LINE
  5
108D
330
1F
100
AcDbEntity
  8
0
  6
Continuous
 62
     8
370
    25
100
AcDbLine
 10
40.09458130914615
 20
167.5789893825288
 30
0.0
 11
38.73704396266473
 21
168.3626790113496
 31
0.0
  0
LINE
  5
108E
330
1F
100
AcDbEntity
  8
0
  6
Continuous
 62
     8
370
    25
100
AcDbLine
 10
43.16353200575438
 20
165.6277120727527
 30
0.0
 11
43.24838414851862
 21
165.5787279733908
 31
0.0
  0
LINE
  5
108F
330
1F
100
AcDbEntity
  8
0
  6
Continuous
 62
     8
370
    25
100
AcDbLine
 10
42.10287034302971
 20
167.04017859645
 30
0.0
 11
40.68865812935562
 21
167.8565859296855
 31
0.0
  0
LINE
  5
1090
330
1F
100
AcDbEntity
  8
0
  6
Continuous
 62
     8
370
    25
100
AcDbLine
 10
42.10287034302971
 20
167.04017859645
 30
0.0
 11
41.98973331852036
 21
166.974865982419
 31
0.0
  0
LINE
  5
1091
330
1F
100
AcDbEntity
  8
0
  6
Continuous
 62
     8
370
    25
100
AcDbLine
 10
43.40394763953688
 20
166.1584574326411
 30
0.0
 11
41.98973331852036
 21
166.974865982419
 31
0.0
  0
LINE
  5
1092
330
1F
100
AcDbEntity
  8
0
  6
Continuous
 62
     8
370
    25
100
AcDbLine
 10
41.09877897062958
 20
167.3095931958578
 30
0.0
 11
43.24838414851862
 21
166.0686525408271
 31
0.0
  0
LINE
  5
1093
330
1F
100
AcDbEntity
  8
0
  6
Continuous
 62
     8
370
    25
100
AcDbLine
 10
40.68865812935562
 20
167.8565859296855
 30
0.0
 11
40.56141574003001
 21
167.7831304618712
 31
0.0
  0
LINE
  5
1094
330
1F
100
AcDbEntity
  8
0
  6
Continuous
 62
     8
370
    25
100
AcDbLine
 10
40.66037252321209
 20
165.9788108351372
 30
0.0
 11
40.54723543284851
 21
165.9134981830893
 31
0.0
  0
LINE
  5
1095
330
1F
100
AcDbEntity
  8
0
  6
Continuous
 62
     8
370
    25
100
AcDbLine
 10
40.54723543284851
 20
165.9134981830893
 30
0.0
 11
40.54723543284851
 21
166.1421296783114
 31
0.0
  0
LINE
  5
1096
330
1F
100
AcDbEntity
  8
0
  6
Continuous
 62
     8
370
    25
100
AcDbLine
 10
40.54723543284851
 20
165.9134981830893
 30
0.0
 11
39.13302321917487
 21
166.7299055163244
 31
0.0
  0
LINE
  5
1097
330
1F
100
AcDbEntity
  8
0
  6
Continuous
 62
     8
370
    25
100
AcDbLine
 10
39.13302321917487
 20
166.7299055163244
 30
0.0
 11
39.13302321917487
 21
166.9585370115464
 31
0.0
  0
LINE
  5
1098
330
1F
100
AcDbEntity
  8
0
  6
Continuous
 62
     8
370
    25
100
AcDbLine
 10
42.34328676706579
 20
164.3519232520707
 30
0.0
 11
42.34328676706579
 21
164.3866635923991
 31
0.0
  0
LINE
  5
1099
330
1F
100
AcDbEntity
  8
0
  6
Continuous
 62
     8
370
    25
100
AcDbLine
 10
43.40394698099223
 20
165.9950963915635
 30
0.0
 11
43.68679026666402
 21
165.8318144382992
 31
0.0
  0
LINE
  5
109A
330
1F
100
AcDbEntity
  8
0
  6
Continuous
 62
     8
370
    25
100
AcDbLine
 10
42.85240370662902
 20
164.6151941972603
 30
0.0
 11
42.90897228473793
 21
164.6478505422928
 31
0.0
  0
LINE
  5
109B
330
1F
100
AcDbEntity
  8
0
  6
Continuous
 62
     8
370
    25
100
AcDbLine
 10
42.90897228473793
 20
164.6478505422928
 30
0.0
 11
42.90897228473793
 21
164.7132268906562
 31
0.0
  0
LINE
  5
109C
330
1F
100
AcDbEntity
  8
0
  6
Continuous
 62
     8
370
    25
100
AcDbLine
 10
39.65628088739456
 20
167.3259637563378
 30
0.0
 11
40.5048089663396
 21
167.8158085896721
 31
0.0
  0
LINE
  5
109D
330
1F
100
AcDbEntity
  8
0
  6
Continuous
 62
     8
370
    25
100
AcDbLine
 10
40.25025220877339
 20
166.9830714111742
 30
0.0
 11
41.09878028771888
 21
167.4729162445087
 31
0.0
  0
LINE
  5
109E
330
1F
100
AcDbEntity
  8
0
  6
Continuous
 62
     8
370
    25
100
AcDbLine
 10
40.5048089663396
 20
167.8158085896721
 30
0.0
 11
41.09878028771888
 21
167.4729162445087
 31
0.0
  0
LINE
  5
109F
330
1F
100
AcDbEntity
  8
0
  6
Continuous
 62
     8
370
    25
100
AcDbLine
 10
41.09878028771888
 20
167.2116233243873
 30
0.0
 11
41.09878028771888
 21
167.4729162445087
 31
0.0
  0
LINE
  5
10A0
330
1F
100
AcDbEntity
  8
0
  6
Continuous
 62
     8
370
    25
100
AcDbLine
 10
42.90897228473793
 20
164.6478505422928
 30
0.0
 11
43.01293380861713
 21
164.5878348320275
 31
0.0
  0
LINE
  5
10A1
330
1F
100
AcDbEntity
  8
0
  6
Continuous
 62
     8
370
    25
100
AcDbLine
 10
42.10287034302971
 20
166.9095532772576
 30
0.0
 11
42.10287034302971
 21
167.04017859645
 31
0.0
  0
LWPOLYLINE
  5
10A2
330
1F
100
AcDbEntity
  8
0
  6
Continuous
 62
     8
370
    25
100
AcDbPolyline
 90
        7
 70
   128
 43
0.0
 10
42.99884477570455
 20
164.487484630042
 10
43.01660703817376
 20
164.6008558510489
 10
43.06718997354116
 20
164.7174753514814
 10
43.14289269403841
 20
164.8195889085618
 10
43.23219001223194
 20
164.8916504342251
 10
43.32148733042547
 20
164.9226893975924
 10
43.39717661661459
 20
164.907988099123
  0
LWPOLYLINE
  5
10A3
330
1F
100
AcDbEntity
  8
0
  6
Continuous
 62
     8
370
    25
100
AcDbPolyline
 90
        4
 70
   128
 43
0.0
 10
43.06720340784884
 20
164.3363958364025
 10
43.06718997354116
 20
164.3364035563613
 10
43.01660703817376
 20
164.3946212807595
 10
42.99884477570455
 20
164.487484630042
  0
LWPOLYLINE
  5
10A4
330
1F
100
AcDbEntity
  8
0
  6
Continuous
 62
     8
370
    25
100
AcDbPolyline
 90
       10
 70
   128
 43
0.0
 10
42.40722709239705
 20
164.3365024032073
 10
42.33153787206217
 20
164.3512037396935
 10
42.2422404880144
 20
164.3201647383093
 10
42.15294310396618
 20
164.2481031746292
 10
42.07724051517786
 20
164.1459896935825
 10
42.02665757981092
 20
164.02937019315
 10
42.00889525148702
 20
163.915998934126
 10
42.02665757981092
 20
163.8231356228607
 10
42.07724051517786
 20
163.7649178984625
 10
42.0772538836313
 20
163.7649101404868
  0
LINE
  5
10A5
330
1F
100
AcDbEntity
  8
0
  6
Continuous
 62
     8
370
    25
100
AcDbLine
 10
129.6697639033837
 20
124.683065717162
 30
0.0
 11
126.2756613340621
 21
126.6424394239893
 31
0.0
  0
LINE
  5
10A6
330
1F
100
AcDbEntity
  8
0
  6
Continuous
 62
     8
370
    25
100
AcDbLine
 10
120.0531114200435
 20
119.1314904071328
 30
0.0
 11
129.6697639033837
 21
124.683065717162
 31
0.0
  0
LINE
  5
10A7
330
1F
100
AcDbEntity
  8
0
  6
Continuous
 62
     8
370
    25
100
AcDbLine
 10
116.6590088507218
 20
121.0908641139601
 30
0.0
 11
120.0531114200435
 21
119.1314904071328
 31
0.0
  0
LINE
  5
10A8
330
1F
100
AcDbEntity
  8
0
  6
Continuous
 62
     8
370
    25
100
AcDbLine
 10
126.2756613340621
 20
126.6424394239893
 30
0.0
 11
116.6590088507218
 21
121.0908641139601
 31
0.0
  0
LINE
  5
10A9
330
1F
100
AcDbEntity
  8
0
  6
Continuous
 62
     8
370
    25
100
AcDbLine
 10
120.0531114200435
 20
119.1314904071328
 30
0.0
 11
120.0531114200435
 21
118.5925734742084
 31
0.0
  0
LINE
  5
10AA
330
1F
100
AcDbEntity
  8
0
  6
Continuous
 62
     8
370
    25
100
AcDbLine
 10
129.6697639033837
 20
124.683065717162
 30
0.0
 11
129.6697639033837
 21
124.1441487842376
 31
0.0
  0
LINE
  5
10AB
330
1F
100
AcDbEntity
  8
0
  6
Continuous
 62
     8
370
    25
100
AcDbLine
 10
120.0531114200435
 20
118.5925734742084
 30
0.0
 11
120.189813010973
 21
118.6714896228745
 31
0.0
  0
LINE
  5
10AC
330
1F
100
AcDbEntity
  8
0
  6
Continuous
 62
     8
370
    25
100
AcDbLine
 10
120.8498666395503
 20
119.0525304719694
 30
0.0
 11
121.1797625351905
 21
119.2429753187903
 31
0.0
  0
LINE
  5
10AD
330
1F
100
AcDbEntity
  8
0
  6
Continuous
 62
     8
370
    25
100
AcDbLine
 10
121.8398161637678
 20
119.6240161678852
 30
0.0
 11
129.6697639033837
 21
124.1441487842376
 31
0.0
  0
LINE
  5
10AE
330
1F
100
AcDbEntity
  8
0
  6
Continuous
 62
     8
370
    25
100
AcDbLine
 10
116.6590088507218
 20
121.0908641139601
 30
0.0
 11
116.6590088507218
 21
120.5519471810357
 31
0.0
  0
LINE
  5
10AF
330
1F
100
AcDbEntity
  8
0
  6
Continuous
 62
     8
370
    25
100
AcDbLine
 10
116.6590088507218
 20
120.5519471810357
 30
0.0
 11
120.0531114200435
 21
118.5925734742084
 31
0.0
  0
LINE
  5
10B0
330
1F
100
AcDbEntity
  8
0
  6
Continuous
 62
     8
370
    25
100
AcDbLine
 10
124.0129089900783
 20
116.8455479276053
 30
0.0
 11
124.0129089900783
 21
116.3066309946809
 31
0.0
  0
LINE
  5
10B1
330
1F
100
AcDbEntity
  8
0
  6
Continuous
 62
     8
370
    25
100
AcDbLine
 10
124.0129089900783
 20
116.8455479276053
 30
0.0
 11
133.6295614734185
 21
122.3971232376348
 31
0.0
  0
LINE
  5
10B2
330
1F
100
AcDbEntity
  8
0
  6
Continuous
 62
     8
370
    25
100
AcDbLine
 10
133.6295614734185
 20
122.3971232376348
 30
0.0
 11
133.6295614734185
 21
121.8582063047101
 31
0.0
  0
LINE
  5
10B3
330
1F
100
AcDbEntity
  8
0
  6
Continuous
 62
     8
370
    25
100
AcDbLine
 10
124.0129089900783
 20
116.3066309946809
 30
0.0
 11
124.1496105810079
 21
116.3855471433471
 31
0.0
  0
LINE
  5
10B4
330
1F
100
AcDbEntity
  8
0
  6
Continuous
 62
     8
370
    25
100
AcDbLine
 10
124.8096642095852
 20
116.766587992442
 30
0.0
 11
125.1395601052254
 21
116.9570328392628
 31
0.0
  0
LINE
  5
10B5
330
1F
100
AcDbEntity
  8
0
  6
Continuous
 62
     8
370
    25
100
AcDbLine
 10
125.7996137338027
 20
117.3380736883578
 30
0.0
 11
133.6295614734185
 21
121.8582063047101
 31
0.0
  0
LINE
  5
10B6
330
1F
100
AcDbEntity
  8
0
  6
Continuous
 62
     8
370
    25
100
AcDbLine
 10
120.6188064207567
 20
118.8049216344329
 30
0.0
 11
120.6188064207567
 21
118.2660047015083
 31
0.0
  0
LINE
  5
10B7
330
1F
100
AcDbEntity
  8
0
  6
Continuous
 62
     8
370
    25
100
AcDbLine
 10
120.6188064207567
 20
118.8049216344329
 30
0.0
 11
124.0129089900783
 21
116.8455479276053
 31
0.0
  0
LINE
  5
10B8
330
1F
100
AcDbEntity
  8
0
  6
Continuous
 62
     8
370
    25
100
AcDbLine
 10
120.6188064207567
 20
118.2660047015083
 30
0.0
 11
124.0129089900783
 21
116.3066309946809
 31
0.0
  0
LINE
  5
10B9
330
1F
100
AcDbEntity
  8
0
  6
Continuous
 62
     8
370
    25
100
AcDbLine
 10
133.6295614734185
 20
122.3971232376348
 30
0.0
 11
130.2354589040969
 21
124.3564969444619
 31
0.0
  0
LINE
  5
10BA
330
1F
100
AcDbEntity
  8
0
  6
Continuous
 62
     8
370
    25
100
AcDbLine
 10
130.2354589040969
 20
124.3564969444619
 30
0.0
 11
120.6188064207567
 21
118.8049216344329
 31
0.0
  0
ARC
  5
10BB
330
1F
100
AcDbEntity
  8
0
  6
Continuous
 62
     8
370
    25
100
AcDbCircle
 10
111.2438333557284
 20
124.4932697292447
 30
0.0
 40
2.430729855373911
100
AcDbArc
 50
122.8476901024057
 51
173.2483041179327
  0
LWPOLYLINE
  5
10BC
330
1F
100
AcDbEntity
  8
0
  6
Continuous
 62
     8
370
    25
100
AcDbPolyline
 90
       10
 70
   128
 43
0.0
 10
113.8046535748276
 20
124.2626168122005
 10
113.728964288638
 20
124.2773181106699
 10
113.6396669704449
 20
124.2462791473026
 10
113.5503696522514
 20
124.1742176216394
 10
113.4746669317542
 20
124.0721040645589
 10
113.4240839963868
 20
123.9554845641264
 10
113.4063217339176
 20
123.8421133431195
 10
113.4240839963868
 20
123.7492499938371
 10
113.4746669317542
 20
123.6910322694389
 10
113.4746803660618
 20
123.69102454948
  0
LWPOLYLINE
  5
10BD
330
1F
100
AcDbEntity
  8
0
  6
Continuous
 62
     8
370
    25
100
AcDbPolyline
 90
       10
 70
   128
 43
0.0
 10
112.8147040506101
 20
123.6911311162848
 10
112.7390148302752
 20
123.7058324527711
 10
112.6497174462274
 20
123.6747934513869
 10
112.5604200621792
 20
123.6027318877068
 10
112.4847174733909
 20
123.5006184066601
 10
112.4341345380239
 20
123.3839989062276
 10
112.4163722097
 20
123.2706276472036
 10
112.4341345380239
 20
123.1777643359385
 10
112.4847174733909
 20
123.11954661154
 10
112.4847308418443
 20
123.1195388535643
  0
SPLINE
  5
10BE
330
1F
100
AcDbEntity
  8
0
  6
Continuous
 62
     8
370
    25
100
AcDbSpline
210
0.0
220
0.0
230
1.0
 70
     8
 71
     3
 72
    13
 73
     9
 74
     0
 42
0.000000001
 43
0.00000001
 40
0.0
 40
0.0
 40
0.0
 40
0.0
 40
0.0033417588814312
 40
0.2512350620456099
 40
0.5201245719735951
 40
0.7162141953010513
 40
0.8577943012978327
 40
1.0
 40
1.0
 40
1.0
 40
1.0
 10
111.9002553289119
 20
122.5154168541848
 30
0.0
 10
111.89982730996
 20
122.5146902499941
 30
0.0
 10
111.8676486364743
 20
122.4600637926492
 30
0.0
 10
111.791397955656
 20
122.3521458808106
 30
0.0
 10
111.658453765031
 20
122.2326015953811
 30
0.0
 10
111.5290390572586
 20
122.1719939711765
 30
0.0
 10
111.4222519426971
 20
122.1583519660723
 30
0.0
 10
111.367436989366
 20
122.1807226714877
 30
0.0
 10
111.3399690941833
 20
122.191932681789
 30
0.0
  0
ARC
  5
10BF
330
1F
100
AcDbEntity
  8
0
  6
Continuous
 62
     8
370
    25
100
AcDbCircle
 10
117.1106533161678
 20
123.9561425883525
 30
0.0
 40
8.321480371917263
100
AcDbArc
 50
174.3248203905863
 51
182.0293780539928
  0
LINE
  5
10C0
330
1F
100
AcDbEntity
  8
0
  6
Continuous
 62
     8
370
    25
100
AcDbLine
 10
108.7943921671922
 20
123.6614629619093
 30
0.0
 11
111.3399690941833
 21
122.191932681789
 31
0.0
  0
LINE
  5
10C1
330
1F
100
AcDbEntity
  8
0
  6
Continuous
 62
     8
370
    25
100
AcDbLine
 10
109.9253868443502
 20
126.5353633672648
 30
0.0
 11
110.7071317930322
 21
126.9866551201235
 31
0.0
  0
SPLINE
  5
10C2
330
1F
100
AcDbEntity
  8
0
  6
Continuous
 62
     8
370
    25
100
AcDbSpline
210
0.0
220
0.0
230
1.0
 70
     8
 71
     3
 72
    11
 73
     7
 74
     0
 42
0.000000001
 43
0.00000001
 40
0.0
 40
0.0
 40
0.0
 40
0.0
 40
0.0060477657347972
 40
0.4546611492006559
 40
0.9412718180825359
 40
1.0
 40
1.0
 40
1.0
 40
1.0
 10
114.3891289478197
 20
123.9522130113143
 30
0.0
 10
114.3895463997687
 20
123.9519743804503
 30
0.0
 10
114.4209297554225
 20
123.9340345018872
 30
0.0
 10
114.4727819841146
 20
123.9037968432371
 30
0.0
 10
114.510870330354
 20
123.8802567783277
 30
0.0
 10
114.5019996646806
 20
123.884303964131
 30
0.0
 10
114.5010443722663
 20
123.8847398103278
 30
0.0
  0
ARC
  5
10C3
330
1F
100
AcDbEntity
  8
0
  6
Continuous
 62
     8
370
    25
100
AcDbCircle
 10
111.1610791184448
 20
126.3791766639797
 30
0.0
 40
0.7583523250628429
100
AcDbArc
 50
64.54098994553542
 51
126.7694715617328
  0
LINE
  5
10C4
330
1F
100
AcDbEntity
  8
0
  6
Continuous
 62
     8
370
    25
100
AcDbLine
 10
54.69770868071188
 20
159.3202068438661
 30
0.0
 11
53.91596373202989
 21
158.8689150910072
 31
0.0
  0
LWPOLYLINE
  5
10C5
330
1F
100
AcDbEntity
  8
0
  6
Continuous
 62
     8
370
    25
100
AcDbPolyline
 90
        9
 70
   128
 43
0.0
 10
55.79313477630373
 20
158.8286384111384
 10
55.75168071661525
 20
159.0307105231493
 10
55.67556008377321
 20
159.2004074313749
 10
55.56727613716109
 20
159.332147255398
 10
55.4303910757321
 20
159.4215972278284
 10
55.26940697315965
 20
159.4658149994825
 10
55.08961892241538
 20
159.4633462965953
 10
54.8969403897631
 20
159.4142720859099
 10
54.69770868071188
 20
159.3202068438661
  0
LINE
  5
10C6
330
1F
100
AcDbEntity
  8
0
  6
Continuous
 62
     8
370
    25
100
AcDbLine
 10
53.28864383201196
 20
156.2857799453825
 30
0.0
 11
52.78496905487188
 21
155.9950146856522
 31
0.0
  0
ARC
  5
10C7
330
1F
100
AcDbEntity
  8
0
  6
Continuous
 62
     8
370
    25
100
AcDbCircle
 10
61.10123020384933
 20
156.2896943120952
 30
0.0
 40
8.321480371918948
100
AcDbArc
 50
174.3248203905858
 51
182.0293780539924
  0
ARC
  5
10C8
330
1F
100
AcDbEntity
  8
0
  6
Continuous
 62
     8
370
    25
100
AcDbCircle
 10
55.23441024340761
 20
156.8268214529871
 30
0.0
 40
2.430729855373855
100
AcDbArc
 50
122.8476901023914
 51
173.2483041179217
  0
ARC
  5
10C9
330
1F
100
AcDbEntity
  8
0
  6
Continuous
 62
     8
370
    25
100
AcDbCircle
 10
54.96395968929616
 20
156.9844193814442
 30
0.0
 40
1.932118611354516
100
AcDbArc
 50
122.8476903772868
 51
173.2483058234743
  0
ARC
  5
10CA
330
1F
100
AcDbEntity
  8
0
  6
Continuous
 62
     8
370
    25
100
AcDbCircle
 10
61.23204550508987
 20
156.406974362465
 30
0.0
 40
8.226248013953738
100
AcDbArc
 50
174.3870051538323
 51
180.1613530205508
  0
LINE
  5
10CB
330
1F
100
AcDbEntity
  8
0
  6
Continuous
 62
     8
370
    25
100
AcDbLine
 10
53.00583011087244
 20
156.3838081149388
 30
0.0
 11
53.06233289009558
 21
156.4164264750829
 31
0.0
  0
ARC
  5
10CC
330
1F
100
AcDbEntity
  8
0
  6
Continuous
 62
     8
370
    25
100
AcDbCircle
 10
55.04266380316946
 20
158.6322791336824
 30
0.0
 40
0.548644831220626
100
AcDbArc
 50
41.45219476249341
 51
128.9572460809044
  0
LINE
  5
10CD
330
1F
100
AcDbEntity
  8
0
  6
Continuous
 62
     8
370
    25
100
AcDbLine
 10
53.91596373202989
 20
158.6076220187929
 30
0.0
 11
54.69770868071188
 21
159.058913771652
 31
0.0
  0
LINE
  5
10CE
330
1F
100
AcDbEntity
  8
0
  6
Continuous
 62
     8
370
    25
100
AcDbLine
 10
50.23938462047315
 20
157.4645492997065
 30
0.0
 11
52.78496905487188
 21
155.9950146856522
 31
0.0
  0
SPLINE
  5
10CF
330
1F
100
AcDbEntity
  8
0
  6
Continuous
 62
     8
370
    25
100
AcDbSpline
210
0.0
220
0.0
230
1.0
 70
     8
 71
     3
 72
    10
 73
     6
 74
     0
 42
0.000000001
 43
0.00000001
 40
0.0
 40
0.0
 40
0.0
 40
0.0
 40
0.3586126108389333
 40
0.6786136487805384
 40
1.0
 40
1.0
 40
1.0
 40
1.0
 10
50.12243943063774
 20
157.7202328909952
 30
0.0
 10
50.12424032293299
 20
157.6824744161536
 30
0.0
 10
50.12764820669005
 20
157.6110228954585
 30
0.0
 10
50.16930236783625
 20
157.5192563713271
 30
0.0
 10
50.21599025634029
 20
157.4828112291679
 30
0.0
 10
50.23938462047315
 20
157.4645492997065
 30
0.0
  0
ARC
  5
10D0
330
1F
100
AcDbEntity
  8
0
  6
Continuous
 62
     8
370
    18
100
AcDbCircle
 10
113.734203013842
 20
123.0574475609551
 30
0.0
 40
1.807465803999841
100
AcDbArc
 50
122.8476901699468
 51
173.2483043662938
  0
ARC
  5
10D1
330
1F
100
AcDbEntity
  8
0
  6
Continuous
 62
     8
370
    18
100
AcDbCircle
 10
111.7014396794993
 20
123.9171190545237
 30
0.0
 40
0.6894909893589924
100
AcDbArc
 50
241.792212094509
 51
290.1780732920659
  0
ARC
  5
10D2
330
1F
100
AcDbEntity
  8
0
  6
Continuous
 62
     8
370
    18
100
AcDbCircle
 10
113.7894102827194
 20
123.0237394491241
 30
0.0
 40
2.430729855373848
100
AcDbArc
 50
122.8476901023921
 51
173.2483041179325
  0
ARC
  5
10D3
330
1F
100
AcDbEntity
  8
0
  6
Continuous
 62
     8
370
    18
100
AcDbCircle
 10
112.1396883980569
 20
124.547956398675
 30
0.0
 40
0.6147679541131306
100
AcDbArc
 50
2.607775818785539
 51
57.3937647693102
  0
LINE
  5
10D4
330
1F
100
AcDbEntity
  8
0
  6
Continuous
 62
     8
370
    18
100
AcDbLine
 10
109.9253868443502
 20
126.5353633672648
 30
0.0
 11
112.4709637713417
 21
125.0658330871442
 31
0.0
  0
LINE
  5
10D5
330
1F
100
AcDbEntity
  8
0
  6
Continuous
 62
     8
370
    18
100
AcDbLine
 10
108.8299606664404
 20
124.7790428380494
 30
0.0
 11
111.3755375934315
 21
123.3095125579289
 31
0.0
  0
LINE
  5
10D6
330
1F
100
AcDbEntity
  8
0
  6
Continuous
 62
     8
370
    18
100
AcDbLine
 10
113.5355646497496
 20
125.0272192091906
 30
0.0
 11
112.7538197010681
 21
124.5759274563315
 31
0.0
  0
LWPOLYLINE
  5
10D7
330
1F
100
AcDbEntity
  8
0
  6
Continuous
 62
     8
370
    18
100
AcDbPolyline
 90
        9
 70
   128
 43
0.0
 10
114.3501122930638
 20
124.6616939701885
 10
114.3192874051519
 20
124.8119527708495
 10
114.2626849778553
 20
124.9381376591159
 10
114.1821663213713
 20
125.0360981580595
 10
114.0803798382926
 20
125.1026120899951
 10
113.9606737006074
 20
125.1354919734322
 10
113.8269850825113
 20
125.1336562127944
 10
113.683711349101
 20
125.0971653085412
 10
113.5355646497496
 20
125.0272192091906
  0
ARC
  5
10D8
330
1F
100
AcDbEntity
  8
0
  6
Continuous
 62
     8
370
    18
100
AcDbCircle
 10
107.5653978556265
 20
123.9327672533707
 30
0.0
 40
6.823758799668997
100
AcDbArc
 50
0.1632767804829911
 51
6.132142811084321
  0
LINE
  5
10D9
330
1F
100
AcDbEntity
  8
0
  6
Continuous
 62
     8
370
    18
100
AcDbLine
 10
111.9002553289119
 20
122.5154168541848
 30
0.0
 11
112.7157348209366
 21
122.9861831443888
 31
0.0
  0
LINE
  5
10DA
330
1F
100
AcDbEntity
  8
0
  6
Continuous
 62
     8
370
    18
100
AcDbLine
 10
113.3757884495139
 20
123.367223993484
 30
0.0
 11
113.7056843451546
 21
123.5576688403046
 31
0.0
  0
LINE
  5
10DB
330
1F
100
AcDbEntity
  8
0
  6
Continuous
 62
     8
370
    18
100
AcDbLine
 10
114.3657379737315
 20
123.9387096893997
 30
0.0
 11
114.3891289478197
 21
123.9522130113143
 31
0.0
  0
ARC
  5
10DC
330
1F
100
AcDbEntity
  8
0
  6
Continuous
 62
     8
370
    18
100
AcDbCircle
 10
120.1026567661765
 20
122.4695435704457
 30
0.0
 40
8.202529713216931
100
AcDbArc
 50
174.4001733439672
 51
179.6795672379323
  0
ARC
  5
10DD
330
1F
100
AcDbEntity
  8
0
  6
Continuous
 62
     8
370
    18
100
AcDbCircle
 10
119.6562302431584
 20
122.486612308232
 30
0.0
 40
8.321480371916492
100
AcDbArc
 50
174.3248203905858
 51
182.029378053993
  0
LINE
  5
10DE
330
1F
100
AcDbEntity
  8
0
  6
Continuous
 62
     8
370
    18
100
AcDbLine
 10
112.4709637713417
 20
125.0658330871442
 30
0.0
 11
113.2527087200233
 21
125.5171248400029
 31
0.0
  0
ARC
  5
10DF
330
1F
100
AcDbEntity
  8
0
  6
Continuous
 62
     8
370
    18
100
AcDbCircle
 10
112.9214333467389
 20
124.9992481515341
 30
0.0
 40
0.6147679541126893
100
AcDbArc
 50
2.607775818787347
 51
57.3937647693345
  0
LINE
  5
10E0
330
1F
100
AcDbEntity
  8
0
  6
Continuous
 62
     8
370
    18
100
AcDbLine
 10
110.7071317930322
 20
126.9866551201235
 30
0.0
 11
113.2527087200233
 21
125.5171248400029
 31
0.0
  0
ARC
  5
10E1
330
1F
100
AcDbEntity
  8
0
  6
Continuous
 62
     8
370
    18
100
AcDbCircle
 10
113.7068309023584
 20
124.9090961554509
 30
0.0
 40
0.7588977781802462
100
AcDbArc
 50
64.68845426986661
 51
126.755179979717
  0
ARC
  5
10E2
330
1F
100
AcDbEntity
  8
0
  6
Continuous
 62
     8
370
    18
100
AcDbCircle
 10
114.2328467666921
 20
124.8620457228203
 30
0.0
 40
0.2321465667589634
100
AcDbArc
 50
300.3403630955818
 51
1.530064787320979
  0
LINE
  5
10E3
330
1F
100
AcDbEntity
  8
0
  6
Continuous
 62
     8
370
    18
100
AcDbLine
 10
52.82053755411968
 20
157.1125945617923
 30
0.0
 11
50.2749531197214
 21
158.5821291758466
 31
0.0
  0
ARC
  5
10E4
330
1F
100
AcDbEntity
  8
0
  6
Continuous
 62
     8
370
    18
100
AcDbCircle
 10
52.68882580900933
 20
158.2963560670418
 30
0.0
 40
2.430729855374001
100
AcDbArc
 50
122.8476901023911
 51
173.2483041179275
  0
LINE
  5
10E5
330
1F
100
AcDbEntity
  8
0
  6
Continuous
 62
     8
370
    18
100
AcDbLine
 10
53.91596373202989
 20
158.8689150910072
 30
0.0
 11
51.37037929763162
 21
160.3384497050619
 31
0.0
  0
ARC
  5
10E6
330
1F
100
AcDbEntity
  8
0
  6
Continuous
 62
     8
370
    18
100
AcDbCircle
 10
58.55564576945332
 20
157.7592289261497
 30
0.0
 40
8.321480371921947
100
AcDbArc
 50
174.3248203905879
 51
182.0293780539916
  0
LINE
  5
10E7
330
1F
100
AcDbEntity
  8
0
  6
Continuous
 62
     8
370
    18
100
AcDbLine
 10
52.15212424631315
 20
160.7897414579206
 30
0.0
 11
51.37037929763162
 21
160.3384497050619
 31
0.0
  0
LINE
  5
10E8
330
1F
100
AcDbEntity
  8
0
  6
Continuous
 62
     8
370
    18
100
AcDbLine
 10
54.69770868071188
 20
159.3202068438661
 30
0.0
 11
52.15212424631315
 21
160.7897414579206
 31
0.0
  0
ARC
  5
10E9
330
1F
100
AcDbEntity
  8
0
  6
Continuous
 62
     8
370
    18
100
AcDbCircle
 10
52.60840432939719
 20
160.1587055456471
 30
0.0
 40
0.7787155044034596
100
AcDbArc
 50
65.44108055691714
 51
125.8693809503808
  0
ARC
  5
10EA
330
1F
100
AcDbEntity
  8
0
  6
Continuous
 62
     8
370
    18
100
AcDbCircle
 10
50.33664448723309
 20
158.7502159453156
 30
0.0
 40
0.1790502356767619
100
AcDbArc
 50
181.8732183005007
 51
249.8458048239453
  0
ARC
  5
10EB
330
1F
100
AcDbEntity
  8
0
  6
Continuous
 62
     8
370
    18
100
AcDbCircle
 10
51.25429480800128
 20
160.1858004504543
 30
0.0
 40
0.1917743561190406
100
AcDbArc
 50
52.7482641311961
 51
115.9596563594635
  0
ARC
  5
10EC
330
1F
100
AcDbEntity
  8
0
  6
Continuous
 62
     8
370
    18
100
AcDbCircle
 10
52.03495610311026
 20
160.6261879005596
 30
0.0
 40
0.2011917988067984
100
AcDbArc
 50
54.38256456553582
 51
114.306971177656
  0
LINE
  5
10ED
330
1F
100
AcDbEntity
  8
0
  6
Continuous
 62
     8
370
    25
100
AcDbLine
 10
55.47764533202869
 20
159.3974394277418
 30
0.0
 11
52.93206089762995
 21
160.8669740417965
 31
0.0
  0
SPLINE
  5
10EE
330
1F
100
AcDbEntity
  8
0
  6
Continuous
 62
     8
370
    25
100
AcDbSpline
210
0.0
220
0.0
230
1.0
 70
     8
 71
     3
 72
    12
 73
     8
 74
     0
 42
0.000000001
 43
0.00000001
 40
0.0
 40
0.0
 40
0.0
 40
0.0
 40
0.1207671249134397
 40
0.3384101511322263
 40
0.5555568576453367
 40
0.7734206516719936
 40
0.9999999999999999
 40
0.9999999999999999
 40
0.9999999999999999
 40
0.9999999999999999
 10
51.17039553075162
 20
160.3582529375455
 30
0.0
 10
51.10806623170262
 20
160.318564863395
 30
0.0
 10
50.93340886922667
 20
160.2073520877245
 30
0.0
 10
50.67200219694038
 20
159.9488349523083
 30
0.0
 10
50.41885328445912
 20
159.5817765206336
 30
0.0
 10
50.22889896647209
 20
159.1667864321005
 30
0.0
 10
50.1817377563593
 20
158.887033047218
 30
0.0
 10
50.15769473434963
 20
158.7444133651963
 30
0.0
  0
SPLINE
  5
10EF
330
1F
100
AcDbEntity
  8
0
  6
Continuous
 62
     8
370
    25
100
AcDbSpline
210
0.0
220
0.0
230
1.0
 70
     8
 71
     3
 72
     9
 73
     5
 74
     0
 42
0.000000001
 43
0.00000001
 40
0.0
 40
0.0
 40
0.0
 40
0.0
 40
0.4487684484513544
 40
1.0
 40
1.0
 40
1.0
 40
1.0
 10
50.15769473434963
 20
158.7444133651963
 30
0.0
 10
50.14432472702535
 20
158.5874062770513
 30
0.0
 10
50.11453206363646
 20
158.2375441406045
 30
0.0
 10
50.11988466190903
 20
157.9040773049298
 30
0.0
 10
50.12283518295951
 20
157.7202598637111
 30
0.0
  0
LINE
  5
10F0
330
1F
100
AcDbEntity
  8
0
  6
Continuous
 62
     8
370
    25
100
AcDbLine
 10
51.95214047943361
 20
160.8095446904042
 30
0.0
 11
51.17039553075162
 21
160.3582529375455
 31
0.0
  0
SPLINE
  5
10F1
330
1F
100
AcDbEntity
  8
0
  6
Continuous
 62
     8
370
    25
100
AcDbSpline
210
0.0
220
0.0
230
1.0
 70
     8
 71
     3
 72
    11
 73
     7
 74
     0
 42
0.000000001
 43
0.00000001
 40
0.0
 40
0.0
 40
0.0
 40
0.0
 40
0.2642354053092508
 40
0.5751849562481859
 40
0.8979034149086416
 40
0.9999999999999999
 40
0.9999999999999999
 40
0.9999999999999999
 40
0.9999999999999999
 10
52.90713940025122
 20
160.869593033525
 30
0.0
 10
52.82820616304295
 20
160.9069499982536
 30
0.0
 10
52.656385091082
 20
160.9882682610266
 30
0.0
 10
52.35256935505319
 20
160.9743305564159
 30
0.0
 10
52.11484373907476
 20
160.8987145194344
 30
0.0
 10
51.98366653861191
 20
160.8268226067355
 30
0.0
 10
51.95214047943361
 20
160.8095446904042
 30
0.0
  0
LINE
  5
10F2
330
1F
100
AcDbEntity
  8
0
  6
Continuous
 62
     8
370
    25
100
AcDbLine
 10
111.6213711551991
 20
122.2191180001455
 30
0.0
 11
114.5022919189823
 21
123.8822381565694
 31
0.0
  0
SPLINE
  5
10F3
330
1F
100
AcDbEntity
  8
0
  6
Continuous
 62
     8
370
    25
100
AcDbSpline
210
0.0
220
0.0
230
1.0
 70
     8
 71
     3
 72
    11
 73
     7
 74
     0
 42
0.000000001
 43
0.00000001
 40
0.0
 40
0.0
 40
0.0
 40
0.0
 40
0.243856287356006
 40
0.6084061850521518
 40
0.955831080136448
 40
1.0
 40
1.0
 40
1.0
 40
1.0
 10
114.4649002886544
 20
124.8683458900125
 30
0.0
 10
114.4533863749475
 20
124.9412544683548
 30
0.0
 10
114.4246598803824
 20
125.1231568112791
 30
0.0
 10
114.2959913717336
 20
125.3682670328398
 30
0.0
 10
114.1466072134085
 20
125.5462098855785
 30
0.0
 10
114.0402182671937
 20
125.5847393728693
 30
0.0
 10
114.0282183717399
 20
125.5890852173936
 30
0.0
  0
LINE
  5
10F4
330
1F
100
AcDbEntity
  8
0
  6
Continuous
 62
     8
370
    25
100
AcDbLine
 10
114.0326453713405
 20
125.5943574238788
 30
0.0
 11
111.487068444349
 21
127.0638877039994
 31
0.0
  0
SPLINE
  5
10F5
330
1F
100
AcDbEntity
  8
0
  6
Continuous
 62
     8
370
    25
100
AcDbSpline
210
0.0
220
0.0
230
1.0
 70
     8
 71
     3
 72
     9
 73
     5
 74
     0
 42
0.000000001
 43
0.00000001
 40
0.0
 40
0.0
 40
0.0
 40
0.0
 40
0.3461881686706462
 40
1.0
 40
1.0
 40
1.0
 40
1.0
 10
114.501606505858
 20
123.8843315178071
 30
0.0
 10
114.5041172787123
 20
124.0015167556014
 30
0.0
 10
114.5113699033868
 20
124.3400183232427
 30
0.0
 10
114.4832714136723
 20
124.6594788306363
 30
0.0
 10
114.4649002886544
 20
124.8683458900125
 30
0.0
  0
LINE
  5
10F6
330
1F
100
AcDbEntity
  8
0
  6
Continuous
 62
     8
370
    25
100
AcDbLine
 10
54.69770868071143
 20
159.3202068438661
 30
0.0
 11
53.91596373202989
 21
158.8689150910072
 31
0.0
  0
LWPOLYLINE
  5
10F7
330
1F
100
AcDbEntity
  8
0
  6
Continuous
 62
     8
370
    25
100
AcDbPolyline
 90
        9
 70
   128
 43
0.0
 10
55.79313477630373
 20
158.8286384111386
 10
55.75168071661525
 20
159.0307105231493
 10
55.67556008377321
 20
159.2004074313747
 10
55.56727613716109
 20
159.3321472553978
 10
55.4303910757321
 20
159.4215972278286
 10
55.26940697315965
 20
159.4658149994823
 10
55.08961892241538
 20
159.4633462965953
 10
54.8969403897631
 20
159.4142720859101
 10
54.69770868071143
 20
159.3202068438661
  0
ARC
  5
10F8
330
1F
100
AcDbEntity
  8
0
  6
Continuous
 62
     8
370
    25
100
AcDbCircle
 10
48.3949827946976
 20
158.0453556571781
 30
0.0
 40
7.439501637582506
100
AcDbArc
 50
357.7410813585573
 51
6.043701678828699
  0
LINE
  5
10F9
330
1F
100
AcDbEntity
  8
0
  6
Continuous
 62
     8
370
    25
100
AcDbLine
 10
55.82870329201566
 20
157.7521250596094
 30
0.0
 11
55.73528611937988
 21
157.698196473749
 31
0.0
  0
LINE
  5
10FA
330
1F
100
AcDbEntity
  8
0
  6
Continuous
 62
     8
370
    25
100
AcDbLine
 10
53.95336326489175
 20
156.6695143059685
 30
0.0
 11
52.78496905487142
 21
155.995014685652
 31
0.0
  0
ARC
  5
10FB
330
1F
100
AcDbEntity
  8
0
  6
Continuous
 62
     8
370
    25
100
AcDbCircle
 10
61.10123020384933
 20
156.2896943120952
 30
0.0
 40
8.321480371918948
100
AcDbArc
 50
174.3248203905874
 51
182.0293780539924
  0
ARC
  5
10FC
330
1F
100
AcDbEntity
  8
0
  6
Continuous
 62
     8
370
    25
100
AcDbCircle
 10
55.23441024340761
 20
156.8268214529873
 30
0.0
 40
2.430729855373855
100
AcDbArc
 50
122.8476901023951
 51
173.2483041179325
  0
ARC
  5
10FD
330
1F
100
AcDbEntity
  8
0
  6
Continuous
 62
     8
370
    25
100
AcDbCircle
 10
54.96395968929616
 20
156.984419381444
 30
0.0
 40
1.932118611354516
100
AcDbArc
 50
122.8476903772831
 51
173.2483058234607
  0
ARC
  5
10FE
330
1F
100
AcDbEntity
  8
0
  6
Continuous
 62
     8
370
    25
100
AcDbCircle
 10
61.23204550508987
 20
156.406974362465
 30
0.0
 40
8.226248013953738
100
AcDbArc
 50
174.3870051538307
 51
180.1613530205508
  0
LINE
  5
10FF
330
1F
100
AcDbEntity
  8
0
  6
Continuous
 62
     8
370
    25
100
AcDbLine
 10
53.00583011087244
 20
156.3838081149385
 30
0.0
 11
53.72705233738085
 21
156.8001608439851
 31
0.0
  0
LINE
  5
1100
330
1F
100
AcDbEntity
  8
0
  6
Continuous
 62
     8
370
    25
100
AcDbLine
 10
55.50897519186944
 20
157.8288430117657
 30
0.0
 11
55.60784221543506
 21
157.8859177296005
 31
0.0
  0
ARC
  5
1101
330
1F
100
AcDbEntity
  8
0
  6
Continuous
 62
     8
370
    25
100
AcDbCircle
 10
48.66141352484189
 20
157.9280819118287
 30
0.0
 40
6.946556655765306
100
AcDbArc
 50
359.6522241676811
 51
6.115997612523345
  0
LWPOLYLINE
  5
1102
330
1F
100
AcDbEntity
  8
0
  6
Continuous
 62
     8
370
    25
100
AcDbPolyline
 90
        9
 70
   128
 43
0.0
 10
54.69770868071143
 20
159.0589137716517
 10
54.85607230297771
 20
159.133683593084
 10
55.00922710160327
 20
159.1726913107061
 10
55.15213560622939
 20
159.1746536597936
 10
55.28009725786657
 20
159.1395060618376
 10
55.38890356198223
 20
159.068405043467
 10
55.47497506575789
 20
158.9636885274346
 10
55.53548134489799
 20
158.82880137204
 10
55.56843201448143
 20
158.668179848277
  0
LINE
  5
1103
330
1F
100
AcDbEntity
  8
0
  6
Continuous
 62
     8
370
    25
100
AcDbLine
 10
53.91596373202989
 20
158.6076220187931
 30
0.0
 11
54.69770868071143
 21
159.0589137716517
 31
0.0
  0
LINE
  5
1104
330
1F
100
AcDbEntity
  8
0
  6
Continuous
 62
     8
370
    25
100
AcDbLine
 10
50.23938462047315
 20
157.4645492997067
 30
0.0
 11
52.78496905487142
 21
155.995014685652
 31
0.0
  0
LINE
  5
1105
330
1F
100
AcDbEntity
  8
0
  6
Continuous
 62
     8
370
    25
100
AcDbLine
 10
55.60784221543506
 20
157.8859177296005
 30
0.0
 11
54.136821038443
 21
158.7351201792955
 31
0.0
  0
SPLINE
  5
1106
330
1F
100
AcDbEntity
  8
0
  6
Continuous
 62
     8
370
    25
100
AcDbSpline
210
0.0
220
0.0
230
1.0
 70
     8
 71
     3
 72
    10
 73
     6
 74
     0
 42
0.000000001
 43
0.00000001
 40
0.0
 40
0.0
 40
0.0
 40
0.0
 40
0.3586126108389333
 40
0.6786136487805384
 40
1.0
 40
1.0
 40
1.0
 40
1.0
 10
50.12243943063774
 20
157.7202328909954
 30
0.0
 10
50.12424032293299
 20
157.6824744161536
 30
0.0
 10
50.12764820669005
 20
157.6110228954587
 30
0.0
 10
50.16930236783625
 20
157.5192563713269
 30
0.0
 10
50.21599025633984
 20
157.4828112291679
 30
0.0
 10
50.23938462047315
 20
157.4645492997067
 30
0.0
  0
ARC
  5
1107
330
1F
100
AcDbEntity
  8
0
  6
Continuous
 62
     8
370
    25
100
AcDbCircle
 10
111.2438333557279
 20
124.4932697292445
 30
0.0
 40
2.430729855373911
100
AcDbArc
 50
122.847690102392
 51
173.2483041179219
  0
LWPOLYLINE
  5
1108
330
1F
100
AcDbEntity
  8
0
  6
Continuous
 62
     8
370
    25
100
AcDbPolyline
 90
       17
 70
   128
 43
0.0
 10
113.8730122069719
 20
124.1115280185611
 10
113.8552498127937
 20
124.2043912918095
 10
113.8046670091353
 20
124.2626090542187
 10
113.728964288638
 20
124.2773181106699
 10
113.6396669704445
 20
124.2462791473024
 10
113.550369652251
 20
124.1742176216394
 10
113.4746669317537
 20
124.0721040645589
 10
113.4240839963868
 20
123.9554845641266
 10
113.4063217339176
 20
123.8421133431195
 10
113.4240839963868
 20
123.7492499938373
 10
113.4746669317537
 20
123.6910322694391
 10
113.550369652251
 20
123.6763232700223
 10
113.6396669704445
 20
123.7073622143782
 10
113.728964288638
 20
123.7794237590528
 10
113.8046670091353
 20
123.8815372590986
 10
113.8552498127937
 20
123.9981567215202
 10
113.8730122069719
 20
124.1115280185611
  0
LWPOLYLINE
  5
1109
330
1F
100
AcDbEntity
  8
0
  6
Continuous
 62
     8
370
    25
100
AcDbPolyline
 90
       17
 70
   128
 43
0.0
 10
112.8830626827543
 20
123.5400423226453
 10
112.8653003544304
 20
123.6329056339107
 10
112.8147174190635
 20
123.6911233202856
 10
112.7390148302747
 20
123.7058324527711
 10
112.649717446227
 20
123.6747934513866
 10
112.5604200621792
 20
123.6027318877065
 10
112.4847174733904
 20
123.5006184066601
 10
112.4341345380235
 20
123.3839989062278
 10
112.4163722097
 20
123.2706276472038
 10
112.4341345380235
 20
123.1777643359385
 10
112.4847174733904
 20
123.1195466115402
 10
112.5604200621792
 20
123.1048375360894
 10
112.649717446227
 20
123.1358765184625
 10
112.7390148302747
 20
123.207938101154
 10
112.8147174190635
 20
123.310051525166
 10
112.8653003544304
 20
123.4266710636213
 10
112.8830626827543
 20
123.5400423226453
  0
SPLINE
  5
110A
330
1F
100
AcDbEntity
  8
0
  6
Continuous
 62
     8
370
    25
100
AcDbSpline
210
0.0
220
0.0
230
1.0
 70
     8
 71
     3
 72
    13
 73
     9
 74
     0
 42
0.000000001
 43
0.00000001
 40
0.0
 40
0.0
 40
0.0
 40
0.0
 40
0.0033417588814312
 40
0.2512350620456099
 40
0.5201245719735951
 40
0.7162141953010513
 40
0.8577943012978327
 40
1.0
 40
1.0
 40
1.0
 40
1.0
 10
111.9002553289115
 20
122.5154168541851
 30
0.0
 10
111.8998273099596
 20
122.5146902499941
 30
0.0
 10
111.8676486364738
 20
122.4600637926494
 30
0.0
 10
111.7913979556556
 20
122.3521458808106
 30
0.0
 10
111.658453765031
 20
122.2326015953811
 30
0.0
 10
111.5290390572581
 20
122.1719939711768
 30
0.0
 10
111.4222519426971
 20
122.1583519660723
 30
0.0
 10
111.367436989366
 20
122.1807226714875
 30
0.0
 10
111.3399690941833
 20
122.191932681789
 30
0.0
  0
ARC
  5
110B
330
1F
100
AcDbEntity
  8
0
  6
Continuous
 62
     8
370
    25
100
AcDbCircle
 10
117.1106533161678
 20
123.9561425883523
 30
0.0
 40
8.321480371917263
100
AcDbArc
 50
174.3248203905831
 51
182.0293780539912
  0
LINE
  5
110C
330
1F
100
AcDbEntity
  8
0
  6
Continuous
 62
     8
370
    25
100
AcDbLine
 10
108.7943921671917
 20
123.6614629619096
 30
0.0
 11
111.3399690941833
 21
122.191932681789
 31
0.0
  0
LINE
  5
110D
330
1F
100
AcDbEntity
  8
0
  6
Continuous
 62
     8
370
    25
100
AcDbLine
 10
109.9253868443502
 20
126.5353633672646
 30
0.0
 11
110.7071317930317
 21
126.9866551201237
 31
0.0
  0
SPLINE
  5
110E
330
1F
100
AcDbEntity
  8
0
  6
Continuous
 62
     8
370
    25
100
AcDbSpline
210
0.0
220
0.0
230
1.0
 70
     8
 71
     3
 72
    11
 73
     7
 74
     0
 42
0.000000001
 43
0.00000001
 40
0.0
 40
0.0
 40
0.0
 40
0.0
 40
0.0060477657347972
 40
0.4546611492006559
 40
0.9412718180825359
 40
1.0
 40
1.0
 40
1.0
 40
1.0
 10
114.3891289478192
 20
123.9522130113143
 30
0.0
 10
114.3895463997687
 20
123.9519743804503
 30
0.0
 10
114.4209297554221
 20
123.934034501887
 30
0.0
 10
114.4727819841141
 20
123.9037968432369
 30
0.0
 10
114.510870330354
 20
123.8802567783275
 30
0.0
 10
114.5019996646806
 20
123.8843039641308
 30
0.0
 10
114.5010443722663
 20
123.8847398103278
 30
0.0
  0
ARC
  5
110F
330
1F
100
AcDbEntity
  8
0
  6
Continuous
 62
     8
370
    25
100
AcDbCircle
 10
111.1610791184448
 20
126.3791766639799
 30
0.0
 40
0.7583523250628429
100
AcDbArc
 50
64.54098994557383
 51
126.7694715617792
  0
LINE
  5
1110
330
1F
100
AcDbEntity
  8
0
  6
Continuous
 62
     8
370
    25
100
AcDbLine
 10
53.25256996570849
 20
157.8742040659938
 30
0.0
 11
53.93914074500705
 21
157.4778551916276
 31
0.0
  0
LINE
  5
1111
330
1F
100
AcDbEntity
  8
0
  6
Continuous
 62
     8
370
    25
100
AcDbLine
 10
53.93914074500705
 20
157.4778551916276
 30
0.0
 11
53.93914074500705
 21
157.2655545989707
 31
0.0
  0
LINE
  5
1112
330
1F
100
AcDbEntity
  8
0
  6
Continuous
 62
     8
370
    25
100
AcDbLine
 10
53.17431920480064
 20
157.7070766760705
 30
0.0
 11
53.93914074500705
 21
157.2655545989707
 31
0.0
  0
LINE
  5
1113
330
1F
100
AcDbEntity
  8
0
  6
Continuous
 62
     8
370
    25
100
AcDbLine
 10
54.78766888980678
 20
157.9677000629792
 30
0.0
 11
53.93914067915281
 21
158.4575449723477
 31
0.0
  0
LINE
  5
1114
330
1F
100
AcDbEntity
  8
0
  6
Continuous
 62
     8
370
    25
100
AcDbLine
 10
53.93914074500705
 20
157.4778551916276
 30
0.0
 11
54.78766888980678
 21
157.9677000629792
 31
0.0
  0
LINE
  5
1115
330
1F
100
AcDbEntity
  8
0
  6
Continuous
 62
     8
370
    25
100
AcDbLine
 10
53.93914067915281
 20
158.4575449723477
 30
0.0
 11
53.43827200955226
 21
158.1683996440185
 31
0.0
  0
LINE
  5
1116
330
1F
100
AcDbEntity
  8
0
  6
Continuous
 62
     8
370
    25
100
AcDbLine
 10
54.78766888980678
 20
157.9677000629792
 30
0.0
 11
54.78766888980678
 21
157.7553994703223
 31
0.0
  0
LINE
  5
1117
330
1F
100
AcDbEntity
  8
0
  6
Continuous
 62
     8
370
    25
100
AcDbLine
 10
53.93914074500705
 20
157.2655545989707
 30
0.0
 11
54.78766888980678
 21
157.7553994703223
 31
0.0
  0
LINE
  5
1118
330
1F
100
AcDbEntity
  8
0
  6
Continuous
 62
     8
370
    25
100
AcDbLine
 10
55.1101094030723
 20
156.8018693740894
 30
0.0
 11
55.1101094030723
 21
156.5895687814325
 31
0.0
  0
LINE
  5
1119
330
1F
100
AcDbEntity
  8
0
  6
Continuous
 62
     8
370
    25
100
AcDbLine
 10
55.1101094030723
 20
156.8018693740894
 30
0.0
 11
55.95863767958096
 21
156.312024426704
 31
0.0
  0
LINE
  5
111A
330
1F
100
AcDbEntity
  8
0
  6
Continuous
 62
     8
370
    25
100
AcDbLine
 10
55.95863767958096
 20
156.312024426704
 30
0.0
 11
55.95863767958096
 21
156.0997238340471
 31
0.0
  0
LINE
  5
111B
330
1F
100
AcDbEntity
  8
0
  6
Continuous
 62
     8
370
    25
100
AcDbLine
 10
55.1101094030723
 20
156.5895687814325
 30
0.0
 11
55.95863767958096
 21
156.0997238340471
 31
0.0
  0
LINE
  5
111C
330
1F
100
AcDbEntity
  8
0
  6
Continuous
 62
     8
370
    25
100
AcDbLine
 10
56.80716582438023
 20
156.8018692980554
 30
0.0
 11
55.95863754787203
 21
157.2917142454409
 31
0.0
  0
LINE
  5
111D
330
1F
100
AcDbEntity
  8
0
  6
Continuous
 62
     8
370
    25
100
AcDbLine
 10
55.95863767958096
 20
156.312024426704
 30
0.0
 11
56.80716582438023
 21
156.8018692980554
 31
0.0
  0
LINE
  5
111E
330
1F
100
AcDbEntity
  8
0
  6
Continuous
 62
     8
370
    25
100
AcDbLine
 10
55.95863754787203
 20
157.2917142454409
 30
0.0
 11
55.1101094030723
 21
156.8018693740894
 31
0.0
  0
LINE
  5
111F
330
1F
100
AcDbEntity
  8
0
  6
Continuous
 62
     8
370
    25
100
AcDbLine
 10
56.80716582438023
 20
156.8018692980554
 30
0.0
 11
56.80716582438023
 21
156.5895687053987
 31
0.0
  0
LINE
  5
1120
330
1F
100
AcDbEntity
  8
0
  6
Continuous
 62
     8
370
    25
100
AcDbLine
 10
55.95863767958096
 20
156.0997238340471
 30
0.0
 11
56.80716582438023
 21
156.5895687053987
 31
0.0
  0
LINE
  5
1121
330
1F
100
AcDbEntity
  8
0
  6
Continuous
 62
     8
370
    25
100
AcDbLine
 10
57.12960673277254
 20
155.6360383810636
 30
0.0
 11
57.12960673277254
 21
155.4237377884071
 31
0.0
  0
LINE
  5
1122
330
1F
100
AcDbEntity
  8
0
  6
Continuous
 62
     8
370
    25
100
AcDbLine
 10
57.12960673277254
 20
155.6360383810636
 30
0.0
 11
57.97813448244548
 21
155.1461937378142
 31
0.0
  0
LINE
  5
1123
330
1F
100
AcDbEntity
  8
0
  6
Continuous
 62
     8
370
    25
100
AcDbLine
 10
57.97813448244548
 20
155.1461937378142
 30
0.0
 11
57.97813448244548
 21
154.9338931451573
 31
0.0
  0
LINE
  5
1124
330
1F
100
AcDbEntity
  8
0
  6
Continuous
 62
     8
370
    25
100
AcDbLine
 10
57.12960673277254
 20
155.4237377884071
 30
0.0
 11
57.97813448244548
 21
154.9338931451573
 31
0.0
  0
LINE
  5
1125
330
1F
100
AcDbEntity
  8
0
  6
Continuous
 62
     8
370
    25
100
AcDbLine
 10
58.82666262724476
 20
155.6360386091655
 30
0.0
 11
57.97813487757227
 21
156.1258832524152
 31
0.0
  0
LINE
  5
1126
330
1F
100
AcDbEntity
  8
0
  6
Continuous
 62
     8
370
    25
100
AcDbLine
 10
57.97813448244548
 20
155.1461937378142
 30
0.0
 11
58.82666262724476
 21
155.6360386091655
 31
0.0
  0
LINE
  5
1127
330
1F
100
AcDbEntity
  8
0
  6
Continuous
 62
     8
370
    25
100
AcDbLine
 10
57.97813487757227
 20
156.1258832524152
 30
0.0
 11
57.12960673277254
 21
155.6360383810636
 31
0.0
  0
LINE
  5
1128
330
1F
100
AcDbEntity
  8
0
  6
Continuous
 62
     8
370
    25
100
AcDbLine
 10
58.82666262724476
 20
155.6360386091655
 30
0.0
 11
58.82666262724476
 21
155.4237380165088
 31
0.0
  0
LINE
  5
1129
330
1F
100
AcDbEntity
  8
0
  6
Continuous
 62
     8
370
    25
100
AcDbLine
 10
57.97813448244548
 20
154.9338931451573
 30
0.0
 11
58.82666262724476
 21
155.4237380165088
 31
0.0
  0
LINE
  5
112A
330
1F
100
AcDbEntity
  8
0
  6
Continuous
 62
     8
370
    25
100
AcDbLine
 10
59.14910353563707
 20
154.4702076921739
 30
0.0
 11
59.14910353563707
 21
154.2579070995173
 31
0.0
  0
LINE
  5
112B
330
1F
100
AcDbEntity
  8
0
  6
Continuous
 62
     8
370
    25
100
AcDbLine
 10
59.14910353563707
 20
154.4702076921739
 30
0.0
 11
59.99763181214573
 21
153.9803627447884
 31
0.0
  0
LINE
  5
112C
330
1F
100
AcDbEntity
  8
0
  6
Continuous
 62
     8
370
    25
100
AcDbLine
 10
59.99763181214573
 20
153.9803627447884
 30
0.0
 11
59.99763181214573
 21
153.7680621521319
 31
0.0
  0
LINE
  5
112D
330
1F
100
AcDbEntity
  8
0
  6
Continuous
 62
     8
370
    25
100
AcDbLine
 10
59.14910353563707
 20
154.2579070995173
 30
0.0
 11
59.99763181214573
 21
153.7680621521319
 31
0.0
  0
LINE
  5
112E
330
1F
100
AcDbEntity
  8
0
  6
Continuous
 62
     8
370
    25
100
AcDbLine
 10
60.84615995694546
 20
154.47020761614
 30
0.0
 11
59.9976316804368
 21
154.9600525635255
 31
0.0
  0
LINE
  5
112F
330
1F
100
AcDbEntity
  8
0
  6
Continuous
 62
     8
370
    25
100
AcDbLine
 10
59.99763181214573
 20
153.9803627447884
 30
0.0
 11
60.84615995694546
 21
154.47020761614
 31
0.0
  0
LINE
  5
1130
330
1F
100
AcDbEntity
  8
0
  6
Continuous
 62
     8
370
    25
100
AcDbLine
 10
59.9976316804368
 20
154.9600525635255
 30
0.0
 11
59.14910353563707
 21
154.4702076921739
 31
0.0
  0
LINE
  5
1131
330
1F
100
AcDbEntity
  8
0
  6
Continuous
 62
     8
370
    25
100
AcDbLine
 10
60.84615995694546
 20
154.47020761614
 30
0.0
 11
60.84615995694546
 21
154.2579070234835
 31
0.0
  0
LINE
  5
1132
330
1F
100
AcDbEntity
  8
0
  6
Continuous
 62
     8
370
    25
100
AcDbLine
 10
59.99763181214573
 20
153.7680621521319
 30
0.0
 11
60.84615995694546
 21
154.2579070234835
 31
0.0
  0
LINE
  5
1133
330
1F
100
AcDbEntity
  8
0
  6
Continuous
 62
     8
370
    25
100
AcDbLine
 10
61.16860033850205
 20
153.3043770032843
 30
0.0
 11
61.16860033850205
 21
153.0920764106274
 31
0.0
  0
LINE
  5
1134
330
1F
100
AcDbEntity
  8
0
  6
Continuous
 62
     8
370
    25
100
AcDbLine
 10
61.16860033850205
 20
153.3043770032843
 30
0.0
 11
62.01712808817453
 21
152.8145323600345
 31
0.0
  0
LINE
  5
1135
330
1F
100
AcDbEntity
  8
0
  6
Continuous
 62
     8
370
    25
100
AcDbLine
 10
62.01712808817453
 20
152.8145323600345
 30
0.0
 11
62.01712808817453
 21
152.6022317673778
 31
0.0
  0
LINE
  5
1136
330
1F
100
AcDbEntity
  8
0
  6
Continuous
 62
     8
370
    25
100
AcDbLine
 10
61.16860033850205
 20
153.0920764106274
 30
0.0
 11
62.01712808817453
 21
152.6022317673778
 31
0.0
  0
LINE
  5
1137
330
1F
100
AcDbEntity
  8
0
  6
Continuous
 62
     8
370
    25
100
AcDbLine
 10
62.86565623297426
 20
153.304377231386
 30
0.0
 11
62.01712848330132
 21
153.7942218746357
 31
0.0
  0
LINE
  5
1138
330
1F
100
AcDbEntity
  8
0
  6
Continuous
 62
     8
370
    25
100
AcDbLine
 10
62.01712808817453
 20
152.8145323600345
 30
0.0
 11
62.86565623297426
 21
153.304377231386
 31
0.0
  0
LINE
  5
1139
330
1F
100
AcDbEntity
  8
0
  6
Continuous
 62
     8
370
    25
100
AcDbLine
 10
62.01712848330132
 20
153.7942218746357
 30
0.0
 11
61.16860033850205
 21
153.3043770032843
 31
0.0
  0
LINE
  5
113A
330
1F
100
AcDbEntity
  8
0
  6
Continuous
 62
     8
370
    25
100
AcDbLine
 10
62.86565623297426
 20
153.304377231386
 30
0.0
 11
62.86565623297426
 21
153.0920766387291
 31
0.0
  0
LINE
  5
113B
330
1F
100
AcDbEntity
  8
0
  6
Continuous
 62
     8
370
    25
100
AcDbLine
 10
62.01712808817453
 20
152.6022317673778
 30
0.0
 11
62.86565623297426
 21
153.0920766387291
 31
0.0
  0
LINE
  5
113C
330
1F
100
AcDbEntity
  8
0
  6
Continuous
 62
     8
370
    25
100
AcDbLine
 10
64.88515408951022
 20
152.1385459342248
 30
0.0
 11
64.0366252861663
 21
152.6283911857458
 31
0.0
  0
LINE
  5
113D
330
1F
100
AcDbEntity
  8
0
  6
Continuous
 62
     8
370
    25
100
AcDbLine
 10
64.0366259447105
 20
151.6487010628732
 30
0.0
 11
64.88515408951022
 21
152.1385459342248
 31
0.0
  0
LINE
  5
113E
330
1F
100
AcDbEntity
  8
0
  6
Continuous
 62
     8
370
    25
100
AcDbLine
 10
63.18809714136657
 20
152.1385463143945
 30
0.0
 11
64.0366259447105
 21
151.6487010628732
 31
0.0
  0
LINE
  5
113F
330
1F
100
AcDbEntity
  8
0
  6
Continuous
 62
     8
370
    25
100
AcDbLine
 10
64.0366252861663
 20
152.6283911857458
 30
0.0
 11
63.18809714136657
 21
152.1385463143945
 31
0.0
  0
LINE
  5
1140
330
1F
100
AcDbEntity
  8
0
  6
Continuous
 62
     8
370
    25
100
AcDbLine
 10
64.0366259447105
 20
151.6487010628732
 30
0.0
 11
64.0366259447105
 21
151.4364004702165
 31
0.0
  0
LINE
  5
1141
330
1F
100
AcDbEntity
  8
0
  6
Continuous
 62
     8
370
    25
100
AcDbLine
 10
64.88515408951022
 20
152.1385459342248
 30
0.0
 11
64.88515408951022
 21
151.9262453415679
 31
0.0
  0
LINE
  5
1142
330
1F
100
AcDbEntity
  8
0
  6
Continuous
 62
     8
370
    25
100
AcDbLine
 10
64.0366259447105
 20
151.4364004702165
 30
0.0
 11
64.88515408951022
 21
151.9262453415679
 31
0.0
  0
LINE
  5
1143
330
1F
100
AcDbEntity
  8
0
  6
Continuous
 62
     8
370
    25
100
AcDbLine
 10
63.18809714136657
 20
152.1385463143945
 30
0.0
 11
63.18809714136657
 21
151.9262457217376
 31
0.0
  0
LINE
  5
1144
330
1F
100
AcDbEntity
  8
0
  6
Continuous
 62
     8
370
    25
100
AcDbLine
 10
63.18809714136657
 20
151.9262457217376
 30
0.0
 11
64.0366259447105
 21
151.4364004702165
 31
0.0
  0
LINE
  5
1145
330
1F
100
AcDbEntity
  8
0
  6
Continuous
 62
     8
370
    25
100
AcDbLine
 10
66.90465089237475
 20
150.9727152453349
 30
0.0
 11
66.05612208903082
 21
151.4625604968562
 31
0.0
  0
LINE
  5
1146
330
1F
100
AcDbEntity
  8
0
  6
Continuous
 62
     8
370
    25
100
AcDbLine
 10
66.05612274757547
 20
150.4828703739833
 30
0.0
 11
66.90465089237475
 21
150.9727152453349
 31
0.0
  0
LINE
  5
1147
330
1F
100
AcDbEntity
  8
0
  6
Continuous
 62
     8
370
    25
100
AcDbLine
 10
65.20759394423109
 20
150.9727156255046
 30
0.0
 11
66.05612274757547
 21
150.4828703739833
 31
0.0
  0
LINE
  5
1148
330
1F
100
AcDbEntity
  8
0
  6
Continuous
 62
     8
370
    25
100
AcDbLine
 10
66.05612208903082
 20
151.4625604968562
 30
0.0
 11
65.20759394423109
 21
150.9727156255046
 31
0.0
  0
LINE
  5
1149
330
1F
100
AcDbEntity
  8
0
  6
Continuous
 62
     8
370
    25
100
AcDbLine
 10
65.20759394423109
 20
150.9727156255046
 30
0.0
 11
65.20759394423109
 21
150.7604150328477
 31
0.0
  0
LINE
  5
114A
330
1F
100
AcDbEntity
  8
0
  6
Continuous
 62
     8
370
    25
100
AcDbLine
 10
66.05612274757547
 20
150.4828703739833
 30
0.0
 11
66.05612274757547
 21
150.2705697813267
 31
0.0
  0
LINE
  5
114B
330
1F
100
AcDbEntity
  8
0
  6
Continuous
 62
     8
370
    25
100
AcDbLine
 10
65.20759394423109
 20
150.7604150328477
 30
0.0
 11
66.05612274757547
 21
150.2705697813267
 31
0.0
  0
LINE
  5
114C
330
1F
100
AcDbEntity
  8
0
  6
Continuous
 62
     8
370
    25
100
AcDbLine
 10
66.90465089237475
 20
150.9727152453349
 30
0.0
 11
66.90465089237475
 21
150.760414652678
 31
0.0
  0
LINE
  5
114D
330
1F
100
AcDbEntity
  8
0
  6
Continuous
 62
     8
370
    25
100
AcDbLine
 10
66.05612274757547
 20
150.2705697813267
 30
0.0
 11
66.90465089237475
 21
150.760414652678
 31
0.0
  0
LINE
  5
114E
330
1F
100
AcDbEntity
  8
0
  6
Continuous
 62
     8
370
    25
100
AcDbLine
 10
68.07561955044
 20
149.3170396850935
 30
0.0
 11
68.07561955044
 21
149.104739092437
 31
0.0
  0
LINE
  5
114F
330
1F
100
AcDbEntity
  8
0
  6
Continuous
 62
     8
370
    25
100
AcDbLine
 10
68.07561955044
 20
149.3170396850935
 30
0.0
 11
68.92414769523972
 21
149.8068845564451
 31
0.0
  0
LINE
  5
1150
330
1F
100
AcDbEntity
  8
0
  6
Continuous
 62
     8
370
    25
100
AcDbLine
 10
68.92414769523972
 20
149.8068845564451
 30
0.0
 11
68.92414769523972
 21
149.5945839637884
 31
0.0
  0
LINE
  5
1151
330
1F
100
AcDbEntity
  8
0
  6
Continuous
 62
     8
370
    25
100
AcDbLine
 10
68.07561955044
 20
149.104739092437
 30
0.0
 11
68.92414769523972
 21
149.5945839637884
 31
0.0
  0
LINE
  5
1152
330
1F
100
AcDbEntity
  8
0
  6
Continuous
 62
     8
370
    25
100
AcDbLine
 10
67.22709180076706
 20
149.8068843283433
 30
0.0
 11
67.22709180076706
 21
149.5945837356867
 31
0.0
  0
LINE
  5
1153
330
1F
100
AcDbEntity
  8
0
  6
Continuous
 62
     8
370
    25
100
AcDbLine
 10
67.22709180076706
 20
149.8068843283433
 30
0.0
 11
68.07561955044
 21
149.3170396850935
 31
0.0
  0
LINE
  5
1154
330
1F
100
AcDbEntity
  8
0
  6
Continuous
 62
     8
370
    25
100
AcDbLine
 10
67.22709180076706
 20
149.5945837356867
 30
0.0
 11
68.07561955044
 21
149.104739092437
 31
0.0
  0
LINE
  5
1155
330
1F
100
AcDbEntity
  8
0
  6
Continuous
 62
     8
370
    25
100
AcDbLine
 10
68.92414769523972
 20
149.8068845564451
 30
0.0
 11
68.07561994556679
 21
150.2967291996949
 31
0.0
  0
LINE
  5
1156
330
1F
100
AcDbEntity
  8
0
  6
Continuous
 62
     8
370
    25
100
AcDbLine
 10
68.07561994556679
 20
150.2967291996949
 30
0.0
 11
67.22709180076706
 21
149.8068843283433
 31
0.0
  0
LINE
  5
1157
330
1F
100
AcDbEntity
  8
0
  6
Continuous
 62
     8
370
    25
100
AcDbLine
 10
70.94364555177523
 20
148.6410532592838
 30
0.0
 11
70.09511674843131
 21
149.1308985108051
 31
0.0
  0
LINE
  5
1158
330
1F
100
AcDbEntity
  8
0
  6
Continuous
 62
     8
370
    25
100
AcDbLine
 10
70.09511740697596
 20
148.1512083879322
 30
0.0
 11
70.94364555177523
 21
148.6410532592838
 31
0.0
  0
LINE
  5
1159
330
1F
100
AcDbEntity
  8
0
  6
Continuous
 62
     8
370
    25
100
AcDbLine
 10
69.24658860363203
 20
148.6410536394535
 30
0.0
 11
70.09511740697596
 21
148.1512083879322
 31
0.0
  0
LINE
  5
115A
330
1F
100
AcDbEntity
  8
0
  6
Continuous
 62
     8
370
    25
100
AcDbLine
 10
70.09511674843131
 20
149.1308985108051
 30
0.0
 11
69.24658860363203
 21
148.6410536394535
 31
0.0
  0
LINE
  5
115B
330
1F
100
AcDbEntity
  8
0
  6
Continuous
 62
     8
370
    25
100
AcDbLine
 10
69.24658860363203
 20
148.6410536394535
 30
0.0
 11
69.24658860363203
 21
148.4287530467968
 31
0.0
  0
LINE
  5
115C
330
1F
100
AcDbEntity
  8
0
  6
Continuous
 62
     8
370
    25
100
AcDbLine
 10
70.09511740697596
 20
148.1512083879322
 30
0.0
 11
70.09511740697596
 21
147.9389077952758
 31
0.0
  0
LINE
  5
115D
330
1F
100
AcDbEntity
  8
0
  6
Continuous
 62
     8
370
    25
100
AcDbLine
 10
69.24658860363203
 20
148.4287530467968
 30
0.0
 11
70.09511740697596
 21
147.9389077952758
 31
0.0
  0
LINE
  5
115E
330
1F
100
AcDbEntity
  8
0
  6
Continuous
 62
     8
370
    25
100
AcDbLine
 10
70.94364555177523
 20
148.6410532592838
 30
0.0
 11
70.94364555177523
 21
148.4287526666271
 31
0.0
  0
LINE
  5
115F
330
1F
100
AcDbEntity
  8
0
  6
Continuous
 62
     8
370
    25
100
AcDbLine
 10
70.09511740697596
 20
147.9389077952758
 30
0.0
 11
70.94364555177523
 21
148.4287526666271
 31
0.0
  0
LINE
  5
1160
330
1F
100
AcDbEntity
  8
0
  6
Continuous
 62
     8
370
    25
100
AcDbLine
 10
72.96314130096877
 20
147.4752231786653
 30
0.0
 11
72.11461355129583
 21
147.9650678219152
 31
0.0
  0
LINE
  5
1161
330
1F
100
AcDbEntity
  8
0
  6
Continuous
 62
     8
370
    25
100
AcDbLine
 10
72.1146131561695
 20
146.9853783073138
 30
0.0
 11
72.96314130096877
 21
147.4752231786653
 31
0.0
  0
LINE
  5
1162
330
1F
100
AcDbEntity
  8
0
  6
Continuous
 62
     8
370
    25
100
AcDbLine
 10
71.26608540649656
 20
147.4752229505636
 30
0.0
 11
72.1146131561695
 21
146.9853783073138
 31
0.0
  0
LINE
  5
1163
330
1F
100
AcDbEntity
  8
0
  6
Continuous
 62
     8
370
    25
100
AcDbLine
 10
72.11461355129583
 20
147.9650678219152
 30
0.0
 11
71.26608540649656
 21
147.4752229505636
 31
0.0
  0
LINE
  5
1164
330
1F
100
AcDbEntity
  8
0
  6
Continuous
 62
     8
370
    25
100
AcDbLine
 10
71.26608540649656
 20
147.4752229505636
 30
0.0
 11
71.26608540649656
 21
147.2629223579069
 31
0.0
  0
LINE
  5
1165
330
1F
100
AcDbEntity
  8
0
  6
Continuous
 62
     8
370
    25
100
AcDbLine
 10
72.1146131561695
 20
146.9853783073138
 30
0.0
 11
72.1146131561695
 21
146.7730777146573
 31
0.0
  0
LINE
  5
1166
330
1F
100
AcDbEntity
  8
0
  6
Continuous
 62
     8
370
    25
100
AcDbLine
 10
71.26608540649656
 20
147.2629223579069
 30
0.0
 11
72.1146131561695
 21
146.7730777146573
 31
0.0
  0
LINE
  5
1167
330
1F
100
AcDbEntity
  8
0
  6
Continuous
 62
     8
370
    25
100
AcDbLine
 10
72.96314130096877
 20
147.4752231786653
 30
0.0
 11
72.96314130096877
 21
147.2629225860089
 31
0.0
  0
LINE
  5
1168
330
1F
100
AcDbEntity
  8
0
  6
Continuous
 62
     8
370
    25
100
AcDbLine
 10
72.1146131561695
 20
146.7730777146573
 30
0.0
 11
72.96314130096877
 21
147.2629225860089
 31
0.0
  0
LINE
  5
1169
330
1F
100
AcDbEntity
  8
0
  6
Continuous
 62
     8
370
    25
100
AcDbLine
 10
74.134111012705
 20
145.8195470101527
 30
0.0
 11
74.134111012705
 21
145.607246417496
 31
0.0
  0
LINE
  5
116A
330
1F
100
AcDbEntity
  8
0
  6
Continuous
 62
     8
370
    25
100
AcDbLine
 10
74.134111012705
 20
145.8195470101527
 30
0.0
 11
74.98263915750474
 21
146.3093918815041
 31
0.0
  0
LINE
  5
116B
330
1F
100
AcDbEntity
  8
0
  6
Continuous
 62
     8
370
    25
100
AcDbLine
 10
74.98263915750474
 20
146.3093918815041
 30
0.0
 11
74.98263915750474
 21
146.0970912888476
 31
0.0
  0
LINE
  5
116C
330
1F
100
AcDbEntity
  8
0
  6
Continuous
 62
     8
370
    25
100
AcDbLine
 10
74.134111012705
 20
145.607246417496
 30
0.0
 11
74.98263915750474
 21
146.0970912888476
 31
0.0
  0
LINE
  5
116D
330
1F
100
AcDbEntity
  8
0
  6
Continuous
 62
     8
370
    25
100
AcDbLine
 10
73.28558326303252
 20
146.3093916534023
 30
0.0
 11
73.28558326303252
 21
146.0970910607459
 31
0.0
  0
LINE
  5
116E
330
1F
100
AcDbEntity
  8
0
  6
Continuous
 62
     8
370
    25
100
AcDbLine
 10
73.28558326303252
 20
146.3093916534023
 30
0.0
 11
74.134111012705
 21
145.8195470101527
 31
0.0
  0
LINE
  5
116F
330
1F
100
AcDbEntity
  8
0
  6
Continuous
 62
     8
370
    25
100
AcDbLine
 10
73.28558326303252
 20
146.0970910607459
 30
0.0
 11
74.134111012705
 21
145.607246417496
 31
0.0
  0
LINE
  5
1170
330
1F
100
AcDbEntity
  8
0
  6
Continuous
 62
     8
370
    25
100
AcDbLine
 10
74.98263915750474
 20
146.3093918815041
 30
0.0
 11
74.1341114078318
 21
146.7992365247539
 31
0.0
  0
LINE
  5
1171
330
1F
100
AcDbEntity
  8
0
  6
Continuous
 62
     8
370
    25
100
AcDbLine
 10
74.1341114078318
 20
146.7992365247539
 30
0.0
 11
73.28558326303252
 21
146.3093916534023
 31
0.0
  0
LINE
  5
1172
330
1F
100
AcDbEntity
  8
0
  6
Continuous
 62
     8
370
    25
100
AcDbLine
 10
77.00213490669827
 20
145.1435618008856
 30
0.0
 11
76.15360715702533
 21
145.6334064441355
 31
0.0
  0
LINE
  5
1173
330
1F
100
AcDbEntity
  8
0
  6
Continuous
 62
     8
370
    25
100
AcDbLine
 10
76.15360676189854
 20
144.6537169295343
 30
0.0
 11
77.00213490669827
 21
145.1435618008856
 31
0.0
  0
LINE
  5
1174
330
1F
100
AcDbEntity
  8
0
  6
Continuous
 62
     8
370
    25
100
AcDbLine
 10
75.3050790122256
 20
145.1435615727839
 30
0.0
 11
76.15360676189854
 21
144.6537169295343
 31
0.0
  0
LINE
  5
1175
330
1F
100
AcDbEntity
  8
0
  6
Continuous
 62
     8
370
    25
100
AcDbLine
 10
76.15360715702533
 20
145.6334064441355
 30
0.0
 11
75.3050790122256
 21
145.1435615727839
 31
0.0
  0
LINE
  5
1176
330
1F
100
AcDbEntity
  8
0
  6
Continuous
 62
     8
370
    25
100
AcDbLine
 10
75.3050790122256
 20
145.1435615727839
 30
0.0
 11
75.3050790122256
 21
144.9312609801275
 31
0.0
  0
LINE
  5
1177
330
1F
100
AcDbEntity
  8
0
  6
Continuous
 62
     8
370
    25
100
AcDbLine
 10
76.15360676189854
 20
144.6537169295343
 30
0.0
 11
76.15360676189854
 21
144.4414163368776
 31
0.0
  0
LINE
  5
1178
330
1F
100
AcDbEntity
  8
0
  6
Continuous
 62
     8
370
    25
100
AcDbLine
 10
75.3050790122256
 20
144.9312609801275
 30
0.0
 11
76.15360676189854
 21
144.4414163368776
 31
0.0
  0
LINE
  5
1179
330
1F
100
AcDbEntity
  8
0
  6
Continuous
 62
     8
370
    25
100
AcDbLine
 10
77.00213490669827
 20
145.1435618008856
 30
0.0
 11
77.00213490669827
 21
144.9312612082292
 31
0.0
  0
LINE
  5
117A
330
1F
100
AcDbEntity
  8
0
  6
Continuous
 62
     8
370
    25
100
AcDbLine
 10
76.15360676189854
 20
144.4414163368776
 30
0.0
 11
77.00213490669827
 21
144.9312612082292
 31
0.0
  0
LINE
  5
117B
330
1F
100
AcDbEntity
  8
0
  6
Continuous
 62
     8
370
    25
100
AcDbLine
 10
79.02163276323378
 20
143.9777305037246
 30
0.0
 11
78.1731050135613
 21
144.4675751469742
 31
0.0
  0
LINE
  5
117C
330
1F
100
AcDbEntity
  8
0
  6
Continuous
 62
     8
370
    25
100
AcDbLine
 10
78.17310461843451
 20
143.4878856323732
 30
0.0
 11
79.02163276323378
 21
143.9777305037246
 31
0.0
  0
LINE
  5
117D
330
1F
100
AcDbEntity
  8
0
  6
Continuous
 62
     8
370
    25
100
AcDbLine
 10
77.32457686876157
 20
143.9777302756226
 30
0.0
 11
78.17310461843451
 21
143.4878856323732
 31
0.0
  0
LINE
  5
117E
330
1F
100
AcDbEntity
  8
0
  6
Continuous
 62
     8
370
    25
100
AcDbLine
 10
78.1731050135613
 20
144.4675751469742
 30
0.0
 11
77.32457686876157
 21
143.9777302756226
 31
0.0
  0
LINE
  5
117F
330
1F
100
AcDbEntity
  8
0
  6
Continuous
 62
     8
370
    25
100
AcDbLine
 10
77.32457686876157
 20
143.9777302756226
 30
0.0
 11
77.32457686876157
 21
143.7654296829662
 31
0.0
  0
LINE
  5
1180
330
1F
100
AcDbEntity
  8
0
  6
Continuous
 62
     8
370
    25
100
AcDbLine
 10
78.17310461843451
 20
143.4878856323732
 30
0.0
 11
78.17310461843451
 21
143.2755850397163
 31
0.0
  0
LINE
  5
1181
330
1F
100
AcDbEntity
  8
0
  6
Continuous
 62
     8
370
    25
100
AcDbLine
 10
77.32457686876157
 20
143.7654296829662
 30
0.0
 11
78.17310461843451
 21
143.2755850397163
 31
0.0
  0
LINE
  5
1182
330
1F
100
AcDbEntity
  8
0
  6
Continuous
 62
     8
370
    25
100
AcDbLine
 10
79.02163276323378
 20
143.9777305037246
 30
0.0
 11
79.02163276323378
 21
143.7654299110679
 31
0.0
  0
LINE
  5
1183
330
1F
100
AcDbEntity
  8
0
  6
Continuous
 62
     8
370
    25
100
AcDbLine
 10
78.17310461843451
 20
143.2755850397163
 30
0.0
 11
79.02163276323378
 21
143.7654299110679
 31
0.0
  0
LINE
  5
1184
330
1F
100
AcDbEntity
  8
0
  6
Continuous
 62
     8
370
    25
100
AcDbLine
 10
80.19260036762805
 20
142.3220555517548
 30
0.0
 11
80.19260036762805
 21
142.1097549590979
 31
0.0
  0
LINE
  5
1185
330
1F
100
AcDbEntity
  8
0
  6
Continuous
 62
     8
370
    25
100
AcDbLine
 10
80.19260036762805
 20
142.3220555517548
 30
0.0
 11
81.04112851242732
 21
142.8119004231064
 31
0.0
  0
LINE
  5
1186
330
1F
100
AcDbEntity
  8
0
  6
Continuous
 62
     8
370
    25
100
AcDbLine
 10
81.04112851242732
 20
142.8119004231064
 30
0.0
 11
81.04112851242732
 21
142.5995998304495
 31
0.0
  0
LINE
  5
1187
330
1F
100
AcDbEntity
  8
0
  6
Continuous
 62
     8
370
    25
100
AcDbLine
 10
80.19260036762805
 20
142.1097549590979
 30
0.0
 11
81.04112851242732
 21
142.5995998304495
 31
0.0
  0
LINE
  5
1188
330
1F
100
AcDbEntity
  8
0
  6
Continuous
 62
     8
370
    25
100
AcDbLine
 10
79.3440726179551
 20
142.8119001950044
 30
0.0
 11
79.3440726179551
 21
142.5995996023478
 31
0.0
  0
LINE
  5
1189
330
1F
100
AcDbEntity
  8
0
  6
Continuous
 62
     8
370
    25
100
AcDbLine
 10
79.3440726179551
 20
142.8119001950044
 30
0.0
 11
80.19260036762805
 21
142.3220555517548
 31
0.0
  0
LINE
  5
118A
330
1F
100
AcDbEntity
  8
0
  6
Continuous
 62
     8
370
    25
100
AcDbLine
 10
79.3440726179551
 20
142.5995996023478
 30
0.0
 11
80.19260036762805
 21
142.1097549590979
 31
0.0
  0
LINE
  5
118B
330
1F
100
AcDbEntity
  8
0
  6
Continuous
 62
     8
370
    25
100
AcDbLine
 10
81.04112851242732
 20
142.8119004231064
 30
0.0
 11
80.19260076275484
 21
143.301745066356
 31
0.0
  0
LINE
  5
118C
330
1F
100
AcDbEntity
  8
0
  6
Continuous
 62
     8
370
    25
100
AcDbLine
 10
80.19260076275484
 20
143.301745066356
 30
0.0
 11
79.3440726179551
 21
142.8119001950044
 31
0.0
  0
LINE
  5
118D
330
1F
100
AcDbEntity
  8
0
  6
Continuous
 62
     8
370
    25
100
AcDbLine
 10
83.06062636896328
 20
141.6460691259451
 30
0.0
 11
82.21209861929034
 21
142.1359137691945
 31
0.0
  0
LINE
  5
118E
330
1F
100
AcDbEntity
  8
0
  6
Continuous
 62
     8
370
    25
100
AcDbLine
 10
82.21209822416355
 20
141.1562242545935
 30
0.0
 11
83.06062636896328
 21
141.6460691259451
 31
0.0
  0
LINE
  5
118F
330
1F
100
AcDbEntity
  8
0
  6
Continuous
 62
     8
370
    25
100
AcDbLine
 10
81.36357047449107
 20
141.6460688978432
 30
0.0
 11
82.21209822416355
 21
141.1562242545935
 31
0.0
  0
LINE
  5
1190
330
1F
100
AcDbEntity
  8
0
  6
Continuous
 62
     8
370
    25
100
AcDbLine
 10
82.21209861929034
 20
142.1359137691945
 30
0.0
 11
81.36357047449107
 21
141.6460688978432
 31
0.0
  0
LINE
  5
1191
330
1F
100
AcDbEntity
  8
0
  6
Continuous
 62
     8
370
    25
100
AcDbLine
 10
81.36357047449107
 20
141.6460688978432
 30
0.0
 11
81.36357047449107
 21
141.4337683051865
 31
0.0
  0
LINE
  5
1192
330
1F
100
AcDbEntity
  8
0
  6
Continuous
 62
     8
370
    25
100
AcDbLine
 10
82.21209822416355
 20
141.1562242545935
 30
0.0
 11
82.21209822416355
 21
140.9439236619366
 31
0.0
  0
LINE
  5
1193
330
1F
100
AcDbEntity
  8
0
  6
Continuous
 62
     8
370
    25
100
AcDbLine
 10
81.36357047449107
 20
141.4337683051865
 30
0.0
 11
82.21209822416355
 21
140.9439236619366
 31
0.0
  0
LINE
  5
1194
330
1F
100
AcDbEntity
  8
0
  6
Continuous
 62
     8
370
    25
100
AcDbLine
 10
83.06062636896328
 20
141.6460691259451
 30
0.0
 11
83.06062636896328
 21
141.4337685332882
 31
0.0
  0
LINE
  5
1195
330
1F
100
AcDbEntity
  8
0
  6
Continuous
 62
     8
370
    25
100
AcDbLine
 10
82.21209822416355
 20
140.9439236619366
 30
0.0
 11
83.06062636896328
 21
141.4337685332882
 31
0.0
  0
LINE
  5
1196
330
1F
100
AcDbEntity
  8
0
  6
Continuous
 62
     8
370
    25
100
AcDbLine
 10
83.38306622368461
 20
140.4802388172249
 30
0.0
 11
84.23159608069952
 21
139.9903929574322
 31
0.0
  0
LINE
  5
1197
330
1F
100
AcDbEntity
  8
0
  6
Continuous
 62
     8
370
    25
100
AcDbLine
 10
84.23159436848388
 20
140.9700836885763
 30
0.0
 11
83.38306622368461
 21
140.4802388172249
 31
0.0
  0
LINE
  5
1198
330
1F
100
AcDbEntity
  8
0
  6
Continuous
 62
     8
370
    25
100
AcDbLine
 10
83.38306622368461
 20
140.4802388172249
 30
0.0
 11
83.38306622368461
 21
140.267938224568
 31
0.0
  0
LINE
  5
1199
330
1F
100
AcDbEntity
  8
0
  6
Continuous
 62
     8
370
    25
100
AcDbLine
 10
84.23159608069952
 20
139.9903929574322
 30
0.0
 11
84.23159608069952
 21
139.7780923647753
 31
0.0
  0
LINE
  5
119A
330
1F
100
AcDbEntity
  8
0
  6
Continuous
 62
     8
370
    25
100
AcDbLine
 10
83.38306622368461
 20
140.267938224568
 30
0.0
 11
84.23159608069952
 21
139.7780923647753
 31
0.0
  0
LINE
  5
119B
330
1F
100
AcDbEntity
  8
0
  6
Continuous
 62
     8
370
    25
100
AcDbLine
 10
87.03264296744007
 20
139.3530727514446
 30
0.0
 11
87.03264296744007
 21
139.1407721587877
 31
0.0
  0
LINE
  5
119C
330
1F
100
AcDbEntity
  8
0
  6
Continuous
 62
     8
370
    25
100
AcDbLine
 10
89.05214293131846
 20
138.1872402377405
 30
0.0
 11
88.20361728898794
 21
138.6770836644471
 31
0.0
  0
LINE
  5
119D
330
1F
100
AcDbEntity
  8
0
  6
Continuous
 62
     8
370
    25
100
AcDbLine
 10
88.20361478651873
 20
137.6973953663889
 30
0.0
 11
89.05214293131846
 21
138.1872402377405
 31
0.0
  0
LINE
  5
119E
330
1F
100
AcDbEntity
  8
0
  6
Continuous
 62
     8
370
    25
100
AcDbLine
 10
87.35508914418821
 20
138.1872387930957
 30
0.0
 11
88.20361478651873
 21
137.6973953663889
 31
0.0
  0
LINE
  5
119F
330
1F
100
AcDbEntity
  8
0
  6
Continuous
 62
     8
370
    25
100
AcDbLine
 10
88.20361728898794
 20
138.6770836644471
 30
0.0
 11
87.35508914418821
 21
138.1872387930957
 31
0.0
  0
LINE
  5
11A0
330
1F
100
AcDbEntity
  8
0
  6
Continuous
 62
     8
370
    25
100
AcDbLine
 10
87.35508914418821
 20
138.1872387930957
 30
0.0
 11
87.35508914418821
 21
137.974938200439
 31
0.0
  0
LINE
  5
11A1
330
1F
100
AcDbEntity
  8
0
  6
Continuous
 62
     8
370
    25
100
AcDbLine
 10
88.20361478651873
 20
137.6973953663889
 30
0.0
 11
88.20361478651873
 21
137.4850947737322
 31
0.0
  0
LINE
  5
11A2
330
1F
100
AcDbEntity
  8
0
  6
Continuous
 62
     8
370
    25
100
AcDbLine
 10
87.35508914418821
 20
137.974938200439
 30
0.0
 11
88.20361478651873
 21
137.4850947737322
 31
0.0
  0
LINE
  5
11A3
330
1F
100
AcDbEntity
  8
0
  6
Continuous
 62
     8
370
    25
100
AcDbLine
 10
89.05214293131846
 20
138.1872402377405
 30
0.0
 11
89.05214293131846
 21
137.9749396450836
 31
0.0
  0
LINE
  5
11A4
330
1F
100
AcDbEntity
  8
0
  6
Continuous
 62
     8
370
    25
100
AcDbLine
 10
88.20361478651873
 20
137.4850947737322
 30
0.0
 11
89.05214293131846
 21
137.9749396450836
 31
0.0
  0
LINE
  5
11A5
330
1F
100
AcDbEntity
  8
0
  6
Continuous
 62
     8
370
    25
100
AcDbLine
 10
89.3745806786969
 20
137.0214111455632
 30
0.0
 11
89.3745806786969
 21
136.8091105529063
 31
0.0
  0
LINE
  5
11A6
330
1F
100
AcDbEntity
  8
0
  6
Continuous
 62
     8
370
    25
100
AcDbLine
 10
89.3745806786969
 20
137.0214111455632
 30
0.0
 11
90.22311475039712
 21
136.5315628526848
 31
0.0
  0
LINE
  5
11A7
330
1F
100
AcDbEntity
  8
0
  6
Continuous
 62
     8
370
    25
100
AcDbLine
 10
90.22311475039712
 20
136.5315628526848
 30
0.0
 11
90.22311475039712
 21
136.3192622600279
 31
0.0
  0
LINE
  5
11A8
330
1F
100
AcDbEntity
  8
0
  6
Continuous
 62
     8
370
    25
100
AcDbLine
 10
89.3745806786969
 20
136.8091105529063
 30
0.0
 11
90.22311475039712
 21
136.3192622600279
 31
0.0
  0
LINE
  5
11A9
330
1F
100
AcDbEntity
  8
0
  6
Continuous
 62
     8
370
    25
100
AcDbLine
 10
91.07164289519639
 20
137.0214077240364
 30
0.0
 11
90.22310882349663
 21
137.5112560169148
 31
0.0
  0
LINE
  5
11AA
330
1F
100
AcDbEntity
  8
0
  6
Continuous
 62
     8
370
    25
100
AcDbLine
 10
90.22311475039712
 20
136.5315628526848
 30
0.0
 11
91.07164289519639
 21
137.0214077240364
 31
0.0
  0
LINE
  5
11AB
330
1F
100
AcDbEntity
  8
0
  6
Continuous
 62
     8
370
    25
100
AcDbLine
 10
90.22310882349663
 20
137.5112560169148
 30
0.0
 11
89.3745806786969
 21
137.0214111455632
 31
0.0
  0
LINE
  5
11AC
330
1F
100
AcDbEntity
  8
0
  6
Continuous
 62
     8
370
    25
100
AcDbLine
 10
91.07164289519639
 20
137.0214077240364
 30
0.0
 11
91.07164289519639
 21
136.8091071313795
 31
0.0
  0
LINE
  5
11AD
330
1F
100
AcDbEntity
  8
0
  6
Continuous
 62
     8
370
    25
100
AcDbLine
 10
90.22311475039712
 20
136.3192622600279
 30
0.0
 11
91.07164289519639
 21
136.8091071313795
 31
0.0
  0
LINE
  5
11AE
330
1F
100
AcDbEntity
  8
0
  6
Continuous
 62
     8
370
    25
100
AcDbLine
 10
92.2426062849058
 20
135.365735205152
 30
0.0
 11
92.2426062849058
 21
135.1534346124956
 31
0.0
  0
LINE
  5
11AF
330
1F
100
AcDbEntity
  8
0
  6
Continuous
 62
     8
370
    25
100
AcDbLine
 10
92.2426062849058
 20
135.365735205152
 30
0.0
 11
93.09113442970508
 21
135.8555800765036
 31
0.0
  0
LINE
  5
11B0
330
1F
100
AcDbEntity
  8
0
  6
Continuous
 62
     8
370
    25
100
AcDbLine
 10
93.09113442970508
 20
135.8555800765036
 30
0.0
 11
93.09113442970508
 21
135.643279483847
 31
0.0
  0
LINE
  5
11B1
330
1F
100
AcDbEntity
  8
0
  6
Continuous
 62
     8
370
    25
100
AcDbLine
 10
92.2426062849058
 20
135.1534346124956
 30
0.0
 11
93.09113442970508
 21
135.643279483847
 31
0.0
  0
LINE
  5
11B2
330
1F
100
AcDbEntity
  8
0
  6
Continuous
 62
     8
370
    25
100
AcDbLine
 10
93.09113442970508
 20
135.8555800765036
 30
0.0
 11
92.24260878737456
 21
136.3454235032106
 31
0.0
  0
LINE
  5
11B3
330
1F
100
AcDbEntity
  8
0
  6
Continuous
 62
     8
370
    25
100
AcDbLine
 10
91.39408064257529
 20
135.8555786318591
 30
0.0
 11
92.2426062849058
 21
135.365735205152
 31
0.0
  0
LINE
  5
11B4
330
1F
100
AcDbEntity
  8
0
  6
Continuous
 62
     8
370
    25
100
AcDbLine
 10
92.24260878737456
 20
136.3454235032106
 30
0.0
 11
91.39408064257529
 21
135.8555786318591
 31
0.0
  0
LINE
  5
11B5
330
1F
100
AcDbEntity
  8
0
  6
Continuous
 62
     8
370
    25
100
AcDbLine
 10
91.39408064257529
 20
135.8555786318591
 30
0.0
 11
91.39408064257529
 21
135.6432780392022
 31
0.0
  0
LINE
  5
11B6
330
1F
100
AcDbEntity
  8
0
  6
Continuous
 62
     8
370
    25
100
AcDbLine
 10
91.39408064257529
 20
135.6432780392022
 30
0.0
 11
92.2426062849058
 21
135.1534346124956
 31
0.0
  0
LINE
  5
11B7
330
1F
100
AcDbEntity
  8
0
  6
Continuous
 62
     8
370
    25
100
AcDbLine
 10
95.11063439358347
 20
134.6897475627995
 30
0.0
 11
94.26210032188325
 21
135.1795958556779
 31
0.0
  0
LINE
  5
11B8
330
1F
100
AcDbEntity
  8
0
  6
Continuous
 62
     8
370
    25
100
AcDbLine
 10
94.26210624878419
 20
134.1999026914479
 30
0.0
 11
95.11063439358347
 21
134.6897475627995
 31
0.0
  0
LINE
  5
11B9
330
1F
100
AcDbEntity
  8
0
  6
Continuous
 62
     8
370
    25
100
AcDbLine
 10
93.41357217708398
 20
134.6897509843263
 30
0.0
 11
94.26210624878419
 21
134.1999026914479
 31
0.0
  0
LINE
  5
11BA
330
1F
100
AcDbEntity
  8
0
  6
Continuous
 62
     8
370
    25
100
AcDbLine
 10
94.26210032188325
 20
135.1795958556779
 30
0.0
 11
93.41357217708398
 21
134.6897509843263
 31
0.0
  0
LINE
  5
11BB
330
1F
100
AcDbEntity
  8
0
  6
Continuous
 62
     8
370
    25
100
AcDbLine
 10
93.41357217708398
 20
134.6897509843263
 30
0.0
 11
93.41357217708398
 21
134.4774503916699
 31
0.0
  0
LINE
  5
11BC
330
1F
100
AcDbEntity
  8
0
  6
Continuous
 62
     8
370
    25
100
AcDbLine
 10
94.26210624878419
 20
134.1999026914479
 30
0.0
 11
94.26210624878419
 21
133.9876020987915
 31
0.0
  0
LINE
  5
11BD
330
1F
100
AcDbEntity
  8
0
  6
Continuous
 62
     8
370
    25
100
AcDbLine
 10
93.41357217708398
 20
134.4774503916699
 30
0.0
 11
94.26210624878419
 21
133.9876020987915
 31
0.0
  0
LINE
  5
11BE
330
1F
100
AcDbEntity
  8
0
  6
Continuous
 62
     8
370
    25
100
AcDbLine
 10
95.11063439358347
 20
134.6897475627995
 30
0.0
 11
95.11063439358347
 21
134.4774469701428
 31
0.0
  0
LINE
  5
11BF
330
1F
100
AcDbEntity
  8
0
  6
Continuous
 62
     8
370
    25
100
AcDbLine
 10
94.26210624878419
 20
133.9876020987915
 30
0.0
 11
95.11063439358347
 21
134.4774469701428
 31
0.0
  0
LINE
  5
11C0
330
1F
100
AcDbEntity
  8
0
  6
Continuous
 62
     8
370
    25
100
AcDbLine
 10
95.43307214096237
 20
133.5239184706222
 30
0.0
 11
95.43307214096237
 21
133.3116178779657
 31
0.0
  0
LINE
  5
11C1
330
1F
100
AcDbEntity
  8
0
  6
Continuous
 62
     8
370
    25
100
AcDbLine
 10
95.43307214096237
 20
133.5239184706222
 30
0.0
 11
96.28159778329243
 21
133.0340750439154
 31
0.0
  0
LINE
  5
11C2
330
1F
100
AcDbEntity
  8
0
  6
Continuous
 62
     8
370
    25
100
AcDbLine
 10
96.28159778329243
 20
133.0340750439154
 30
0.0
 11
96.28159778329243
 21
132.8217744512587
 31
0.0
  0
LINE
  5
11C3
330
1F
100
AcDbEntity
  8
0
  6
Continuous
 62
     8
370
    25
100
AcDbLine
 10
95.43307214096237
 20
133.3116178779657
 30
0.0
 11
96.28159778329243
 21
132.8217744512587
 31
0.0
  0
LINE
  5
11C4
330
1F
100
AcDbEntity
  8
0
  6
Continuous
 62
     8
370
    25
100
AcDbLine
 10
97.13012592809216
 20
133.5239199152668
 30
0.0
 11
96.28160028576164
 21
134.0137633419738
 31
0.0
  0
LINE
  5
11C5
330
1F
100
AcDbEntity
  8
0
  6
Continuous
 62
     8
370
    25
100
AcDbLine
 10
96.28159778329243
 20
133.0340750439154
 30
0.0
 11
97.13012592809216
 21
133.5239199152668
 31
0.0
  0
LINE
  5
11C6
330
1F
100
AcDbEntity
  8
0
  6
Continuous
 62
     8
370
    25
100
AcDbLine
 10
96.28160028576164
 20
134.0137633419738
 30
0.0
 11
95.43307214096237
 21
133.5239184706222
 31
0.0
  0
LINE
  5
11C7
330
1F
100
AcDbEntity
  8
0
  6
Continuous
 62
     8
370
    25
100
AcDbLine
 10
97.13012592809216
 20
133.5239199152668
 30
0.0
 11
97.13012592809216
 21
133.3116193226103
 31
0.0
  0
LINE
  5
11C8
330
1F
100
AcDbEntity
  8
0
  6
Continuous
 62
     8
370
    25
100
AcDbLine
 10
96.28159778329243
 20
132.8217744512587
 30
0.0
 11
97.13012592809216
 21
133.3116193226103
 31
0.0
  0
LINE
  5
11C9
330
1F
100
AcDbEntity
  8
0
  6
Continuous
 62
     8
370
    25
100
AcDbLine
 10
98.30109774717081
 20
131.8682425302113
 30
0.0
 11
98.30109774717081
 21
131.6559419375546
 31
0.0
  0
LINE
  5
11CA
330
1F
100
AcDbEntity
  8
0
  6
Continuous
 62
     8
370
    25
100
AcDbLine
 10
98.30109774717081
 20
131.8682425302113
 30
0.0
 11
99.14962589197054
 21
132.3580874015626
 31
0.0
  0
LINE
  5
11CB
330
1F
100
AcDbEntity
  8
0
  6
Continuous
 62
     8
370
    25
100
AcDbLine
 10
99.14962589197054
 20
132.3580874015626
 30
0.0
 11
99.14962589197054
 21
132.1457868089062
 31
0.0
  0
LINE
  5
11CC
330
1F
100
AcDbEntity
  8
0
  6
Continuous
 62
     8
370
    25
100
AcDbLine
 10
98.30109774717081
 20
131.6559419375546
 30
0.0
 11
99.14962589197054
 21
132.1457868089062
 31
0.0
  0
LINE
  5
11CD
330
1F
100
AcDbEntity
  8
0
  6
Continuous
 62
     8
370
    25
100
AcDbLine
 10
99.14962589197054
 20
132.3580874015626
 30
0.0
 11
98.30110024964003
 21
132.8479308282697
 31
0.0
  0
LINE
  5
11CE
330
1F
100
AcDbEntity
  8
0
  6
Continuous
 62
     8
370
    25
100
AcDbLine
 10
97.4525721048403
 20
132.3580859569181
 30
0.0
 11
98.30109774717081
 21
131.8682425302113
 31
0.0
  0
LINE
  5
11CF
330
1F
100
AcDbEntity
  8
0
  6
Continuous
 62
     8
370
    25
100
AcDbLine
 10
98.30110024964003
 20
132.8479308282697
 30
0.0
 11
97.4525721048403
 21
132.3580859569181
 31
0.0
  0
LINE
  5
11D0
330
1F
100
AcDbEntity
  8
0
  6
Continuous
 62
     8
370
    25
100
AcDbLine
 10
97.4525721048403
 20
132.3580859569181
 30
0.0
 11
97.4525721048403
 21
132.1457853642616
 31
0.0
  0
LINE
  5
11D1
330
1F
100
AcDbEntity
  8
0
  6
Continuous
 62
     8
370
    25
100
AcDbLine
 10
97.4525721048403
 20
132.1457853642616
 30
0.0
 11
98.30109774717081
 21
131.6559419375546
 31
0.0
  0
LINE
  5
11D2
330
1F
100
AcDbEntity
  8
0
  6
Continuous
 62
     8
370
    25
100
AcDbLine
 10
101.1691258558485
 20
131.1922548878585
 30
0.0
 11
100.3205917841487
 21
131.6821031807369
 31
0.0
  0
LINE
  5
11D3
330
1F
100
AcDbEntity
  8
0
  6
Continuous
 62
     8
370
    25
100
AcDbLine
 10
100.3205977110492
 20
130.7024100165069
 30
0.0
 11
101.1691258558485
 21
131.1922548878585
 31
0.0
  0
LINE
  5
11D4
330
1F
100
AcDbEntity
  8
0
  6
Continuous
 62
     8
370
    25
100
AcDbLine
 10
99.47206363934899
 20
131.1922583093856
 30
0.0
 11
100.3205977110492
 21
130.7024100165069
 31
0.0
  0
LINE
  5
11D5
330
1F
100
AcDbEntity
  8
0
  6
Continuous
 62
     8
370
    25
100
AcDbLine
 10
100.3205917841487
 20
131.6821031807369
 30
0.0
 11
99.47206363934899
 21
131.1922583093856
 31
0.0
  0
LINE
  5
11D6
330
1F
100
AcDbEntity
  8
0
  6
Continuous
 62
     8
370
    25
100
AcDbLine
 10
99.47206363934899
 20
131.1922583093856
 30
0.0
 11
99.47206363934899
 21
130.9799577167289
 31
0.0
  0
LINE
  5
11D7
330
1F
100
AcDbEntity
  8
0
  6
Continuous
 62
     8
370
    25
100
AcDbLine
 10
100.3205977110492
 20
130.7024100165069
 30
0.0
 11
100.3205977110492
 21
130.4901094238505
 31
0.0
  0
LINE
  5
11D8
330
1F
100
AcDbEntity
  8
0
  6
Continuous
 62
     8
370
    25
100
AcDbLine
 10
99.47206363934899
 20
130.9799577167289
 30
0.0
 11
100.3205977110492
 21
130.4901094238505
 31
0.0
  0
LINE
  5
11D9
330
1F
100
AcDbEntity
  8
0
  6
Continuous
 62
     8
370
    25
100
AcDbLine
 10
101.1691258558485
 20
131.1922548878585
 30
0.0
 11
101.1691258558485
 21
130.9799542952021
 31
0.0
  0
LINE
  5
11DA
330
1F
100
AcDbEntity
  8
0
  6
Continuous
 62
     8
370
    25
100
AcDbLine
 10
100.3205977110492
 20
130.4901094238505
 30
0.0
 11
101.1691258558485
 21
130.9799542952021
 31
0.0
  0
LINE
  5
11DB
330
1F
100
AcDbEntity
  8
0
  6
Continuous
 62
     8
370
    25
100
AcDbLine
 10
101.4915636032274
 20
130.0264257956812
 30
0.0
 11
101.4915636032274
 21
129.8141252030248
 31
0.0
  0
LINE
  5
11DC
330
1F
100
AcDbEntity
  8
0
  6
Continuous
 62
     8
370
    25
100
AcDbLine
 10
101.4915636032274
 20
130.0264257956812
 30
0.0
 11
102.3400892455579
 21
129.5365823689746
 31
0.0
  0
LINE
  5
11DD
330
1F
100
AcDbEntity
  8
0
  6
Continuous
 62
     8
370
    25
100
AcDbLine
 10
102.3400892455579
 20
129.5365823689746
 30
0.0
 11
102.3400892455579
 21
129.3242817763177
 31
0.0
  0
LINE
  5
11DE
330
1F
100
AcDbEntity
  8
0
  6
Continuous
 62
     8
370
    25
100
AcDbLine
 10
101.4915636032274
 20
129.8141252030248
 30
0.0
 11
102.3400892455579
 21
129.3242817763177
 31
0.0
  0
LINE
  5
11DF
330
1F
100
AcDbEntity
  8
0
  6
Continuous
 62
     8
370
    25
100
AcDbLine
 10
103.1886173903572
 20
130.0264272403262
 30
0.0
 11
102.3400917480267
 21
130.5162706670328
 31
0.0
  0
LINE
  5
11E0
330
1F
100
AcDbEntity
  8
0
  6
Continuous
 62
     8
370
    25
100
AcDbLine
 10
102.3400892455579
 20
129.5365823689746
 30
0.0
 11
103.1886173903572
 21
130.0264272403262
 31
0.0
  0
LINE
  5
11E1
330
1F
100
AcDbEntity
  8
0
  6
Continuous
 62
     8
370
    25
100
AcDbLine
 10
102.3400917480267
 20
130.5162706670328
 30
0.0
 11
101.4915636032274
 21
130.0264257956812
 31
0.0
  0
LINE
  5
11E2
330
1F
100
AcDbEntity
  8
0
  6
Continuous
 62
     8
370
    25
100
AcDbLine
 10
103.1886173903572
 20
130.0264272403262
 30
0.0
 11
103.1886173903572
 21
129.8141266476693
 31
0.0
  0
LINE
  5
11E3
330
1F
100
AcDbEntity
  8
0
  6
Continuous
 62
     8
370
    25
100
AcDbLine
 10
102.3400892455579
 20
129.3242817763177
 30
0.0
 11
103.1886173903572
 21
129.8141266476693
 31
0.0
  0
LINE
  5
11E4
330
1F
100
AcDbEntity
  8
0
  6
Continuous
 62
     8
370
    25
100
AcDbLine
 10
104.3595892094358
 20
128.3707498552705
 30
0.0
 11
104.3595892094358
 21
128.1584492626136
 31
0.0
  0
LINE
  5
11E5
330
1F
100
AcDbEntity
  8
0
  6
Continuous
 62
     8
370
    25
100
AcDbLine
 10
104.3595892094358
 20
128.3707498552705
 30
0.0
 11
105.2081173542356
 21
128.8605947266221
 31
0.0
  0
LINE
  5
11E6
330
1F
100
AcDbEntity
  8
0
  6
Continuous
 62
     8
370
    25
100
AcDbLine
 10
105.2081173542356
 20
128.8605947266221
 30
0.0
 11
105.2081173542356
 21
128.6482941339652
 31
0.0
  0
LINE
  5
11E7
330
1F
100
AcDbEntity
  8
0
  6
Continuous
 62
     8
370
    25
100
AcDbLine
 10
104.3595892094358
 20
128.1584492626136
 30
0.0
 11
105.2081173542356
 21
128.6482941339652
 31
0.0
  0
LINE
  5
11E8
330
1F
100
AcDbEntity
  8
0
  6
Continuous
 62
     8
370
    25
100
AcDbLine
 10
105.2081173542356
 20
128.8605947266221
 30
0.0
 11
104.359591711905
 21
129.3504381533287
 31
0.0
  0
LINE
  5
11E9
330
1F
100
AcDbEntity
  8
0
  6
Continuous
 62
     8
370
    25
100
AcDbLine
 10
103.5110635671058
 20
128.8605932819771
 30
0.0
 11
104.3595892094358
 21
128.3707498552705
 31
0.0
  0
LINE
  5
11EA
330
1F
100
AcDbEntity
  8
0
  6
Continuous
 62
     8
370
    25
100
AcDbLine
 10
104.359591711905
 20
129.3504381533287
 30
0.0
 11
103.5110635671058
 21
128.8605932819771
 31
0.0
  0
LINE
  5
11EB
330
1F
100
AcDbEntity
  8
0
  6
Continuous
 62
     8
370
    25
100
AcDbLine
 10
103.5110635671058
 20
128.8605932819771
 30
0.0
 11
103.5110635671058
 21
128.6482926893206
 31
0.0
  0
LINE
  5
11EC
330
1F
100
AcDbEntity
  8
0
  6
Continuous
 62
     8
370
    25
100
AcDbLine
 10
103.5110635671058
 20
128.6482926893206
 30
0.0
 11
104.3595892094358
 21
128.1584492626136
 31
0.0
  0
LINE
  5
11ED
330
1F
100
AcDbEntity
  8
0
  6
Continuous
 62
     8
370
    25
100
AcDbLine
 10
107.2276173181139
 20
127.6947622129178
 30
0.0
 11
106.3790832464137
 21
128.1846105057961
 31
0.0
  0
LINE
  5
11EE
330
1F
100
AcDbEntity
  8
0
  6
Continuous
 62
     8
370
    25
100
AcDbLine
 10
106.3790891733142
 20
127.2049173415664
 30
0.0
 11
107.2276173181139
 21
127.6947622129178
 31
0.0
  0
LINE
  5
11EF
330
1F
100
AcDbEntity
  8
0
  6
Continuous
 62
     8
370
    25
100
AcDbLine
 10
105.5305551016145
 20
127.6947656344448
 30
0.0
 11
106.3790891733142
 21
127.2049173415664
 31
0.0
  0
LINE
  5
11F0
330
1F
100
AcDbEntity
  8
0
  6
Continuous
 62
     8
370
    25
100
AcDbLine
 10
106.3790832464137
 20
128.1846105057961
 30
0.0
 11
105.5305551016145
 21
127.6947656344448
 31
0.0
  0
LINE
  5
11F1
330
1F
100
AcDbEntity
  8
0
  6
Continuous
 62
     8
370
    25
100
AcDbLine
 10
106.3790891733142
 20
127.2049173415664
 30
0.0
 11
106.3790891733142
 21
126.9926167489095
 31
0.0
  0
LINE
  5
11F2
330
1F
100
AcDbEntity
  8
0
  6
Continuous
 62
     8
370
    25
100
AcDbLine
 10
107.2276173181139
 20
127.6947622129178
 30
0.0
 11
107.2276173181139
 21
127.4824616202611
 31
0.0
  0
LINE
  5
11F3
330
1F
100
AcDbEntity
  8
0
  6
Continuous
 62
     8
370
    25
100
AcDbLine
 10
106.3790891733142
 20
126.9926167489095
 30
0.0
 11
107.2276173181139
 21
127.4824616202611
 31
0.0
  0
LINE
  5
11F4
330
1F
100
AcDbEntity
  8
0
  6
Continuous
 62
     8
370
    25
100
AcDbLine
 10
105.5305551016145
 20
127.6947656344448
 30
0.0
 11
105.5305551016145
 21
127.4824650417879
 31
0.0
  0
LINE
  5
11F5
330
1F
100
AcDbEntity
  8
0
  6
Continuous
 62
     8
370
    25
100
AcDbLine
 10
105.5305551016145
 20
127.4824650417879
 30
0.0
 11
106.3790891733142
 21
126.9926167489095
 31
0.0
  0
LINE
  5
11F6
330
1F
100
AcDbEntity
  8
0
  6
Continuous
 62
     8
370
    25
100
AcDbLine
 10
108.3985807078229
 20
126.0390896940337
 30
0.0
 11
108.3985807078229
 21
125.826789101377
 31
0.0
  0
LINE
  5
11F7
330
1F
100
AcDbEntity
  8
0
  6
Continuous
 62
     8
370
    25
100
AcDbLine
 10
108.3985807078229
 20
126.0390896940337
 30
0.0
 11
109.2471088526226
 21
126.5289345653852
 31
0.0
  0
LINE
  5
11F8
330
1F
100
AcDbEntity
  8
0
  6
Continuous
 62
     8
370
    25
100
AcDbLine
 10
109.2471088526226
 20
126.5289345653852
 30
0.0
 11
109.2471088526226
 21
126.3166339727283
 31
0.0
  0
LINE
  5
11F9
330
1F
100
AcDbEntity
  8
0
  6
Continuous
 62
     8
370
    25
100
AcDbLine
 10
108.3985807078229
 20
125.826789101377
 30
0.0
 11
109.2471088526226
 21
126.3166339727283
 31
0.0
  0
LINE
  5
11FA
330
1F
100
AcDbEntity
  8
0
  6
Continuous
 62
     8
370
    25
100
AcDbLine
 10
109.2471088526226
 20
126.5289345653852
 30
0.0
 11
108.3985832102921
 21
127.018777992092
 31
0.0
  0
LINE
  5
11FB
330
1F
100
AcDbEntity
  8
0
  6
Continuous
 62
     8
370
    25
100
AcDbLine
 10
107.5500550654924
 20
126.5289331207407
 30
0.0
 11
108.3985807078229
 21
126.0390896940337
 31
0.0
  0
LINE
  5
11FC
330
1F
100
AcDbEntity
  8
0
  6
Continuous
 62
     8
370
    25
100
AcDbLine
 10
108.3985832102921
 20
127.018777992092
 30
0.0
 11
107.5500550654924
 21
126.5289331207407
 31
0.0
  0
LINE
  5
11FD
330
1F
100
AcDbEntity
  8
0
  6
Continuous
 62
     8
370
    25
100
AcDbLine
 10
107.5500550654924
 20
126.5289331207407
 30
0.0
 11
107.5500550654924
 21
126.3166325280838
 31
0.0
  0
LINE
  5
11FE
330
1F
100
AcDbEntity
  8
0
  6
Continuous
 62
     8
370
    25
100
AcDbLine
 10
107.5500550654924
 20
126.3166325280838
 30
0.0
 11
108.3985807078229
 21
125.826789101377
 31
0.0
  0
LINE
  5
11FF
330
1F
100
AcDbEntity
  8
0
  6
Continuous
 62
     8
370
    18
100
AcDbLine
 10
52.82053755411968
 20
157.1125945617921
 30
0.0
 11
50.27495311972095
 21
158.5821291758468
 31
0.0
  0
ARC
  5
1200
330
1F
100
AcDbEntity
  8
0
  6
Continuous
 62
     8
370
    18
100
AcDbCircle
 10
52.68882580900888
 20
158.2963560670416
 30
0.0
 40
2.430729855374001
100
AcDbArc
 50
122.8476901023911
 51
173.2483041179221
  0
LINE
  5
1201
330
1F
100
AcDbEntity
  8
0
  6
Continuous
 62
     8
370
    18
100
AcDbLine
 10
53.91596373202989
 20
158.8689150910072
 30
0.0
 11
51.37037929763116
 21
160.3384497050617
 31
0.0
  0
ARC
  5
1202
330
1F
100
AcDbEntity
  8
0
  6
Continuous
 62
     8
370
    18
100
AcDbCircle
 10
58.55564576945332
 20
157.7592289261497
 30
0.0
 40
8.321480371921947
100
AcDbArc
 50
174.3248203905879
 51
182.0293780539916
  0
LINE
  5
1203
330
1F
100
AcDbEntity
  8
0
  6
Continuous
 62
     8
370
    18
100
AcDbLine
 10
52.15212424631315
 20
160.7897414579208
 30
0.0
 11
51.37037929763116
 21
160.3384497050617
 31
0.0
  0
LINE
  5
1204
330
1F
100
AcDbEntity
  8
0
  6
Continuous
 62
     8
370
    18
100
AcDbLine
 10
54.69770868071143
 20
159.3202068438661
 30
0.0
 11
52.15212424631315
 21
160.7897414579208
 31
0.0
  0
ARC
  5
1205
330
1F
100
AcDbEntity
  8
0
  6
Continuous
 62
     8
370
    18
100
AcDbCircle
 10
52.60840432939719
 20
160.1587055456468
 30
0.0
 40
0.7787155044034596
100
AcDbArc
 50
65.44108055695453
 51
125.8693809503808
  0
LINE
  5
1206
330
1F
100
AcDbEntity
  8
0
  6
Continuous
 62
     8
370
    18
100
AcDbLine
 10
54.80072150537259
 20
159.1113696916243
 30
0.0
 11
55.56843201448143
 21
158.668179848277
 31
0.0
  0
ARC
  5
1207
330
1F
100
AcDbEntity
  8
0
  6
Continuous
 62
     8
370
    18
100
AcDbCircle
 10
50.33664448723263
 20
158.7502159453156
 30
0.0
 40
0.1790502356767619
100
AcDbArc
 50
181.873218300428
 51
249.8458048239453
  0
ARC
  5
1208
330
1F
100
AcDbEntity
  8
0
  6
Continuous
 62
     8
370
    18
100
AcDbCircle
 10
51.25429480800128
 20
160.1858004504545
 30
0.0
 40
0.1917743561190406
100
AcDbArc
 50
52.74826413133538
 51
115.9596563595015
  0
ARC
  5
1209
330
1F
100
AcDbEntity
  8
0
  6
Continuous
 62
     8
370
    18
100
AcDbCircle
 10
52.03495610311026
 20
160.6261879005594
 30
0.0
 40
0.2011917988067984
100
AcDbArc
 50
54.38256456553582
 51
114.306971177656
  0
ARC
  5
120A
330
1F
100
AcDbEntity
  8
0
  6
Continuous
 62
     8
370
    18
100
AcDbCircle
 10
113.7342030138416
 20
123.0574475609551
 30
0.0
 40
1.807465803999841
100
AcDbArc
 50
122.8476901699298
 51
173.2483043663011
  0
ARC
  5
120B
330
1F
100
AcDbEntity
  8
0
  6
Continuous
 62
     8
370
    18
100
AcDbCircle
 10
111.7014396794989
 20
123.9171190545237
 30
0.0
 40
0.6894909893589924
100
AcDbArc
 50
241.7922120945556
 51
290.1780732921017
  0
ARC
  5
120C
330
1F
100
AcDbEntity
  8
0
  6
Continuous
 62
     8
370
    18
100
AcDbCircle
 10
113.789410282719
 20
123.0237394491241
 30
0.0
 40
2.430729855373848
100
AcDbArc
 50
122.8476901023946
 51
173.2483041179271
  0
ARC
  5
120D
330
1F
100
AcDbEntity
  8
0
  6
Continuous
 62
     8
370
    18
100
AcDbCircle
 10
112.1396883980569
 20
124.5479563986753
 30
0.0
 40
0.6147679541131306
100
AcDbArc
 50
2.607775818785539
 51
57.39376476935573
  0
LINE
  5
120E
330
1F
100
AcDbEntity
  8
0
  6
Continuous
 62
     8
370
    18
100
AcDbLine
 10
109.9253868443502
 20
126.5353633672646
 30
0.0
 11
112.4709637713413
 21
125.065833087144
 31
0.0
  0
LINE
  5
120F
330
1F
100
AcDbEntity
  8
0
  6
Continuous
 62
     8
370
    18
100
AcDbLine
 10
108.82996066644
 20
124.7790428380497
 30
0.0
 11
111.3755375934315
 21
123.3095125579291
 31
0.0
  0
LINE
  5
1210
330
1F
100
AcDbEntity
  8
0
  6
Continuous
 62
     8
370
    18
100
AcDbLine
 10
113.5355646497496
 20
125.0272192091904
 30
0.0
 11
112.7538197010681
 21
124.5759274563318
 31
0.0
  0
LWPOLYLINE
  5
1211
330
1F
100
AcDbEntity
  8
0
  6
Continuous
 62
     8
370
    18
100
AcDbPolyline
 90
        9
 70
   128
 43
0.0
 10
114.3501122930638
 20
124.6616939701885
 10
114.3192874051519
 20
124.8119527708497
 10
114.2626849778553
 20
124.9381376591159
 10
114.1821663213709
 20
125.0360981580595
 10
114.0803798382926
 20
125.1026120899953
 10
113.9606737006074
 20
125.1354919734324
 10
113.8269850825108
 20
125.1336562127946
 10
113.683711349101
 20
125.0971653085414
 10
113.5355646497496
 20
125.0272192091904
  0
ARC
  5
1212
330
1F
100
AcDbEntity
  8
0
  6
Continuous
 62
     8
370
    18
100
AcDbCircle
 10
107.5653978556265
 20
123.9327672533707
 30
0.0
 40
6.823758799668997
100
AcDbArc
 50
0.1632767804829911
 51
6.132142811084321
  0
LINE
  5
1213
330
1F
100
AcDbEntity
  8
0
  6
Continuous
 62
     8
370
    18
100
AcDbLine
 10
111.9002553289115
 20
122.5154168541851
 30
0.0
 11
114.3891289478192
 21
123.9522130113143
 31
0.0
  0
ARC
  5
1214
330
1F
100
AcDbEntity
  8
0
  6
Continuous
 62
     8
370
    18
100
AcDbCircle
 10
120.1026567661765
 20
122.4695435704454
 30
0.0
 40
8.202529713216931
100
AcDbArc
 50
174.4001733439672
 51
179.6795672379292
  0
ARC
  5
1215
330
1F
100
AcDbEntity
  8
0
  6
Continuous
 62
     8
370
    18
100
AcDbCircle
 10
119.6562302431584
 20
122.486612308232
 30
0.0
 40
8.321480371916492
100
AcDbArc
 50
174.3248203905842
 51
182.0293780539914
  0
LINE
  5
1216
330
1F
100
AcDbEntity
  8
0
  6
Continuous
 62
     8
370
    18
100
AcDbLine
 10
112.4709637713413
 20
125.065833087144
 30
0.0
 11
113.2527087200233
 21
125.5171248400031
 31
0.0
  0
ARC
  5
1217
330
1F
100
AcDbEntity
  8
0
  6
Continuous
 62
     8
370
    18
100
AcDbCircle
 10
112.9214333467389
 20
124.9992481515344
 30
0.0
 40
0.6147679541126893
100
AcDbArc
 50
2.607775818766178
 51
57.39376476932271
  0
LINE
  5
1218
330
1F
100
AcDbEntity
  8
0
  6
Continuous
 62
     8
370
    18
100
AcDbLine
 10
110.7071317930317
 20
126.9866551201237
 30
0.0
 11
113.2527087200233
 21
125.5171248400031
 31
0.0
  0
ARC
  5
1219
330
1F
100
AcDbEntity
  8
0
  6
Continuous
 62
     8
370
    18
100
AcDbCircle
 10
113.7068309023584
 20
124.9090961554509
 30
0.0
 40
0.7588977781802462
100
AcDbArc
 50
64.68845426986661
 51
126.755179979717
  0
ARC
  5
121A
330
1F
100
AcDbEntity
  8
0
  6
Continuous
 62
     8
370
    18
100
AcDbCircle
 10
114.2328467666921
 20
124.8620457228203
 30
0.0
 40
0.2321465667589634
100
AcDbArc
 50
300.3403630955818
 51
1.530064787377077
  0
ARC
  5
121B
330
1F
100
AcDbEntity
  8
姿図
100
AcDbCircle
 10
38.88781433593928
 20
159.0515573313839
 30
0.0
 40
7.475000064410267
100
AcDbArc
 50
337.3801350519631
 51
22.61986494803977
  0
ARC
  5
121C
330
1F
100
AcDbEntity
  8
姿図
100
AcDbCircle
 10
40.88781433593928
 20
157.9891801659057
 30
0.0
 40
7.475000064410261
100
AcDbArc
 50
337.3801350519635
 51
22.61986494803977
  0
ARC
  5
121D
330
1F
100
AcDbEntity
  8
姿図
100
AcDbCircle
 10
52.68781445485044
 20
164.8015573809305
 30
0.0
 40
7.475000064410261
100
AcDbArc
 50
157.3801350519574
 51
202.6198649480426
  0
ARC
  5
121E
330
1F
100
AcDbEntity
  8
姿図
100
AcDbCircle
 10
54.68781445485044
 20
163.7391802154523
 30
0.0
 40
7.475000064410261
100
AcDbArc
 50
157.3801350519574
 51
202.6198649480426
  0
LINE
  5
121F
330
1F
100
AcDbEntity
  8
0
  6
Continuous
 62
     8
370
    25
100
AcDbLine
 10
45.57309069261825
 20
162.5088882486607
 30
0.0
 11
42.40722709239705
 21
164.3365024032073
 31
0.0
  0
LINE
  5
1220
330
1F
100
AcDbEntity
  8
0
  6
Continuous
 62
     8
370
    25
100
AcDbLine
 10
43.06720340784884
 20
164.3363958364025
 30
0.0
 11
45.4417957729265
 21
162.9655728428311
 31
0.0
  0
LINE
  5
1221
330
1F
100
AcDbEntity
  8
0
  6
Continuous
 62
     8
370
    25
100
AcDbLine
 10
42.0772538836313
 20
163.7649101404868
 30
0.0
 11
45.93776076549781
 21
161.5362869551636
 31
0.0
  0
LINE
  5
1222
330
1F
100
AcDbEntity
  8
0
  6
Continuous
 62
     8
370
    25
100
AcDbLine
 10
45.27718494589496
 20
163.822682392011
 30
0.0
 11
43.39717661661459
 21
164.907988099123
 31
0.0
  0
LINE
  5
1223
330
1F
100
AcDbEntity
  8
0
  6
Continuous
 62
     8
370
    25
100
AcDbLine
 10
51.2243994072746
 20
160.3894285623191
 30
0.0
 11
47.29111690608758
 21
162.6600642184155
 31
0.0
  0
LINE
  5
1224
330
1F
100
AcDbEntity
  8
0
  6
Continuous
 62
     8
370
    25
100
AcDbLine
 10
47.97723997689624
 20
160.3589206673693
 30
0.0
 11
50.22646173817517
 21
159.0604725828275
 31
0.0
  0
LINE
  5
1225
330
1F
100
AcDbEntity
  8
0
  6
Continuous
 62
     8
370
    25
100
AcDbLine
 10
47.47017741128954
 20
161.7946130475839
 30
0.0
 11
50.68280858435125
 21
159.9400005479124
 31
0.0
  0
LINE
  5
1226
330
1F
100
AcDbEntity
  8
0
  6
Continuous
 62
     8
370
    25
100
AcDbLine
 10
50.49419985675829
 20
159.6679923983711
 30
0.0
 11
47.61083577265887
 21
161.3325230535904
 31
0.0
  0
ARC
  5
1227
330
1F
100
AcDbEntity
  8
姿図
100
AcDbCircle
 10
77.67267159648915
 20
137.8753550318119
 30
0.0
 40
7.475000064410267
100
AcDbArc
 50
337.3801350519631
 51
22.61986494803977
  0
ARC
  5
1228
330
1F
100
AcDbEntity
  8
姿図
100
AcDbCircle
 10
79.67267159648915
 20
136.8129778663337
 30
0.0
 40
7.475000064410261
100
AcDbArc
 50
337.3801350519635
 51
22.61986494803977
  0
ARC
  5
1229
330
1F
100
AcDbEntity
  8
姿図
100
AcDbCircle
 10
91.47267171540031
 20
143.6253550813585
 30
0.0
 40
7.475000064410261
100
AcDbArc
 50
157.3801350519574
 51
202.6198649480426
  0
ARC
  5
122A
330
1F
100
AcDbEntity
  8
姿図
100
AcDbCircle
 10
93.47267171540031
 20
142.5629779158803
 30
0.0
 40
7.475000064410261
100
AcDbArc
 50
157.3801350519574
 51
202.6198649480426
  0
LINE
  5
122B
330
1F
100
AcDbEntity
  8
0
  6
Continuous
 62
     8
370
    25
100
AcDbLine
 10
85.09125866386191
 20
138.7919748476247
 30
0.0
 11
53.05449769011781
 21
157.2864032927889
 31
0.0
  0
LINE
  5
122C
330
1F
100
AcDbEntity
  8
0
  6
Continuous
 62
     8
370
    25
100
AcDbLine
 10
85.10348365149818
 20
138.6869326104015
 30
0.0
 11
53.04362195927703
 21
157.1946968164827
 31
0.0
  0
LINE
  5
122D
330
1F
100
AcDbEntity
  8
0
  6
Continuous
 62
     8
370
    18
100
AcDbLine
 10
85.09789621825209
 20
138.7365549385124
 30
0.0
 11
53.04811266894328
 21
157.2385011565297
 31
0.0
  0
LINE
  5
122E
330
1F
100
AcDbEntity
  8
0
  6
Continuous
 62
     8
370
    25
100
AcDbLine
 10
85.14764848734146
 20
137.8939680422895
 30
0.0
 11
53.00582973632524
 21
156.4490450513319
 31
0.0
  0
LINE
  5
122F
330
1F
100
AcDbEntity
  8
0
  6
Continuous
 62
     8
370
    25
100
AcDbLine
 10
84.42420273414152
 20
141.1364374484981
 30
0.0
 11
54.03795396548637
 21
158.6780454790171
 31
0.0
  0
LINE
  5
1230
330
1F
100
AcDbEntity
  8
0
  6
Continuous
 62
     8
370
    25
100
AcDbLine
 10
84.08824999601936
 20
142.4652077487887
 30
0.0
 11
55.14144216050906
 21
159.1758442163304
 31
0.0
  0
LINE
  5
1231
330
1F
100
AcDbEntity
  8
0
  6
Continuous
 62
     8
370
    18
100
AcDbLine
 10
84.17435441531595
 20
142.0097466664815
 30
0.0
 11
54.66941984770025
 21
159.042582838254
 31
0.0
  0
LINE
  5
1232
330
1F
100
AcDbEntity
  8
0
  6
Continuous
 62
     8
370
    18
100
AcDbLine
 10
53.88811717751011
 20
158.5910357634566
 30
0.0
 11
84.50609947804466
 21
140.9156508125052
 31
0.0
  0
LINE
  5
1233
330
1F
100
AcDbEntity
  8
0
  6
Continuous
 62
     8
370
    25
100
AcDbLine
 10
84.23159608069952
 20
139.7780923647753
 30
0.0
 11
84.80594093405304
 21
140.1096545911159
 31
0.0
  0
LINE
  5
1234
330
1F
100
AcDbEntity
  8
0
  6
Continuous
 62
     8
370
    25
100
AcDbLine
 10
84.23159608069952
 20
139.9903929574322
 30
0.0
 11
84.74753079671243
 21
140.2882357292249
 31
0.0
  0
LINE
  5
1235
330
1F
100
AcDbEntity
  8
0
  6
Continuous
 62
     8
370
    25
100
AcDbLine
 10
84.56024757432348
 20
140.7803562313076
 30
0.0
 11
84.23159436848388
 21
140.9700836885763
 31
0.0
  0
LINE
  5
1236
330
1F
100
AcDbEntity
  8
0
  6
Continuous
 62
     8
370
    25
100
AcDbLine
 10
110.8086459021019
 20
127.0398515301465
 30
0.0
 11
86.10497309999207
 21
141.3009782821864
 31
0.0
  0
LINE
  5
1237
330
1F
100
AcDbEntity
  8
0
  6
Continuous
 62
     8
370
    25
100
AcDbLine
 10
108.7941600961076
 20
124.2431274568609
 30
0.0
 11
87.14731137225814
 21
136.7395872305137
 31
0.0
  0
LINE
  5
1238
330
1F
100
AcDbEntity
  8
0
  6
Continuous
 62
     8
370
    25
100
AcDbLine
 10
86.7581171278525
 20
139.1945923576008
 30
0.0
 11
87.03264296744007
 21
139.3530727514446
 31
0.0
  0
LINE
  5
1239
330
1F
100
AcDbEntity
  8
0
  6
Continuous
 62
     8
370
    25
100
AcDbLine
 10
86.81579027240329
 20
139.0155857626105
 30
0.0
 11
87.03264296744007
 21
139.1407721587877
 31
0.0
  0
LINE
  5
123A
330
1F
100
AcDbEntity
  8
0
  6
Continuous
 62
     8
370
    25
100
AcDbLine
 10
108.8592487254973
 20
124.9730213419909
 30
0.0
 11
87.11353399869765
 21
137.5265552442902
 31
0.0
  0
LINE
  5
123B
330
1F
100
AcDbEntity
  8
0
  6
Continuous
 62
     8
370
    18
100
AcDbLine
 10
108.8680721311898
 20
125.0143244698615
 30
0.0
 11
87.10864978813694
 21
137.5757716105854
 31
0.0
  0
LINE
  5
123C
330
1F
100
AcDbEntity
  8
0
  6
Continuous
 62
     8
370
    25
100
AcDbLine
 10
108.8787795750972
 20
125.0597313245905
 30
0.0
 11
87.10280634339458
 21
137.6307330899562
 31
0.0
  0
LINE
  5
123D
330
1F
100
AcDbEntity
  8
0
  6
Continuous
 62
     8
370
    25
100
AcDbLine
 10
87.03264296744007
 20
139.3530727514446
 30
0.0
 11
86.60981153004147
 21
139.5971681445382
 31
0.0
  0
LINE
  5
123E
330
1F
100
AcDbEntity
  8
0
  6
Continuous
 62
     8
370
    18
100
AcDbLine
 10
86.5538839544183
 20
139.7334899972954
 30
0.0
 11
109.6950964640868
 21
126.3743523727034
 31
0.0
  0
LINE
  5
123F
330
1F
100
AcDbEntity
  8
0
  6
Continuous
 62
     8
370
    25
100
AcDbLine
 10
109.8255881778691
 20
126.4725297618856
 30
0.0
 11
86.46646559437428
 21
139.9574641944371
 31
0.0
  0
LINE
  5
1240
330
1F
100
AcDbEntity
  8
0
  6
Continuous
 62
     8
370
    18
100
AcDbLine
 10
110.4525311105471
 20
126.8396781643118
 30
0.0
 11
86.19868759021935
 21
140.8411239994427
 31
0.0
  0
ENDSEC
  0
SECTION
  2
OBJECTS
  0
DICTIONARY
  5
C
330
0
100
AcDbDictionary
281
     1
  3
ACAD_DETAILVIEWSTYLE
350
639
  3
ACAD_GROUP
350
D
  3
ACAD_IMAGE_VARS
350
633
  3
ACAD_LAYOUT
350
1A
  3
ACAD_MLINESTYLE
350
17
  3
ACAD_PLOTSETTINGS
350
19
  3
ACAD_PLOTSTYLENAME
350
E
  3
ACAD_SCALELIST
350
47
  3
ACAD_SECTIONVIEWSTYLE
350
63A
  3
AcDbVariableDictionary
350
634
  3
APPDATA
350
631
  3
DWGPROPS
350
1285
  0
DICTIONARY
  5
66F
330
2
100
AcDbDictionary
280
     1
281
     1
  3
ACAD_LAYERSTATES
360
670
  0
DICTIONARY
  5
639
102
{ACAD_REACTORS
330
C
102
}
330
C
100
AcDbDictionary
281
     1
  0
DICTIONARY
  5
D
102
{ACAD_REACTORS
330
C
102
}
330
C
100
AcDbDictionary
281
     1
  0
RASTERVARIABLES
  5
633
102
{ACAD_REACTORS
330
C
102
}
330
C
100
AcDbRasterVariables
 90
        0
 70
     1
 71
     1
 72
     1
  0
DICTIONARY
  5
1A
102
{ACAD_REACTORS
330
C
102
}
330
C
100
AcDbDictionary
281
     1
  3
Layout1
350
1E
  3
Layout2
350
26
  3
Model
350
22
  0
DICTIONARY
  5
17
102
{ACAD_REACTORS
330
C
102
}
330
C
100
AcDbDictionary
281
     1
  3
Standard
350
18
  0
DICTIONARY
  5
19
102
{ACAD_REACTORS
330
C
102
}
330
C
100
AcDbDictionary
281
     1
  0
ACDBDICTIONARYWDFLT
  5
E
102
{ACAD_REACTORS
330
C
102
}
330
C
100
AcDbDictionary
281
     1
  3
Normal
350
F
100
AcDbDictionaryWithDefault
340
F
  0
DICTIONARY
  5
47
102
{ACAD_REACTORS
330
C
102
}
330
C
100
AcDbDictionary
281
     1
  3
A0
350
48
  3
A1
350
49
  3
A2
350
4A
  3
A3
350
4B
  3
A4
350
4C
  3
A5
350
4D
  3
A6
350
4E
  3
A7
350
4F
  3
A8
350
50
  3
A9
350
51
  3
B0
350
52
  3
B1
350
53
  3
B2
350
54
  3
B3
350
55
  3
B4
350
56
  3
B5
350
57
  3
B6
350
58
  3
B7
350
59
  3
B8
350
5A
  3
B9
350
5B
  3
C0
350
5C
  3
C1
350
5D
  3
C2
350
5E
  3
C3
350
5F
  3
C4
350
60
  3
C5
350
61
  3
C6
350
62
  3
C7
350
63
  3
C8
350
64
  3
C9
350
65
  3
D0
350
66
  3
D1
350
67
  3
D2
350
68
  0
DICTIONARY
  5
63A
102
{ACAD_REACTORS
330
C
102
}
330
C
100
AcDbDictionary
281
     1
  0
DICTIONARY
  5
634
102
{ACAD_REACTORS
330
C
102
}
330
C
100
AcDbDictionary
281
     1
  0
DICTIONARY
  5
631
102
{ACAD_REACTORS
330
C
102
}
330
C
100
AcDbDictionary
281
     1
  0
XRECORD
  5
1285
102
{ACAD_REACTORS
330
C
102
}
330
C
100
AcDbXrecord
280
     1
  1
DWGPROPS COOKIE
  2

  3

  4

  6

  7

  8
ModuleX
  9

300
=
301
=
302
=
303
=
304
=
305
=
306
=
307
=
308
=
309
=
 40
0.0
 41
2458025.52667044
 42
2458674.032340417
  1

 90
        0
  0
DICTIONARY
  5
670
102
{ACAD_REACTORS
330
66F
102
}
330
66F
100
AcDbDictionary
281
     1
  0
LAYOUT
  5
1E
102
{ACAD_REACTORS
330
1A
102
}
330
1A
100
AcDbPlotSettings
  1

  2
none_device
  4

  6

 40
0.0
 41
0.0
 42
0.0
 43
0.0
 44
0.0
 45
0.0
 46
0.0
 47
0.0
 48
0.0
 49
0.0
140
0.0
141
0.0
142
1.0
143
1.0
 70
   688
 72
     1
 73
     0
 74
     5
  7

 75
    16
147
1.0
148
0.0
149
0.0
100
AcDbLayout
  1
Layout1
 70
     1
 71
     1
 10
0.0
 20
0.0
 11
420.0
 21
297.0
 12
0.0
 22
0.0
 32
0.0
 14
1.000000000000000E+20
 24
1.000000000000000E+20
 34
1.000000000000000E+20
 15
-1.000000000000000E+20
 25
-1.000000000000000E+20
 35
-1.000000000000000E+20
146
0.0
 13
0.0
 23
0.0
 33
0.0
 16
1.0
 26
0.0
 36
0.0
 17
0.0
 27
1.0
 37
0.0
 76
     0
330
1B
  0
LAYOUT
  5
26
102
{ACAD_REACTORS
330
1A
102
}
330
1A
100
AcDbPlotSettings
  1

  2
none_device
  4

  6

 40
0.0
 41
0.0
 42
0.0
 43
0.0
 44
0.0
 45
0.0
 46
0.0
 47
0.0
 48
0.0
 49
0.0
140
0.0
141
0.0
142
1.0
143
1.0
 70
   688
 72
     1
 73
     0
 74
     5
  7

 75
    16
147
1.0
148
0.0
149
0.0
100
AcDbLayout
  1
Layout2
 70
     1
 71
     2
 10
0.0
 20
0.0
 11
0.0
 21
0.0
 12
0.0
 22
0.0
 32
0.0
 14
0.0
 24
0.0
 34
0.0
 15
0.0
 25
0.0
 35
0.0
146
0.0
 13
0.0
 23
0.0
 33
0.0
 16
1.0
 26
0.0
 36
0.0
 17
0.0
 27
1.0
 37
0.0
 76
     0
330
23
  0
LAYOUT
  5
22
102
{ACAD_REACTORS
330
1A
102
}
330
1A
100
AcDbPlotSettings
  1

  2
none_device
  4
Letter_(8.50_x_11.00_Inches)
  6

 40
6.35
 41
6.35
 42
6.35000508
 43
6.35000508
 44
215.9
 45
279.4
 46
0.0
 47
0.0
 48
0.0
 49
0.0
140
0.0
141
0.0
142
1.0
143
1.0
 70
  1712
 72
     1
 73
     0
 74
     0
  7

 75
     0
147
1.0
148
0.0
149
0.0
100
AcDbLayout
  1
Model
 70
     1
 71
     0
 10
0.0
 20
0.0
 11
210.0
 21
297.0
 12
0.0
 22
0.0
 32
0.0
 14
37.40768316735645
 24
97.93969038501352
 34
0.0
 15
140.1087340649792
 25
168.3626790113496
 35
0.0
146
0.0
 13
0.0
 23
0.0
 33
0.0
 16
1.0
 26
0.0
 36
0.0
 17
0.0
 27
1.0
 37
0.0
 76
     0
330
1F
331
29
  0
MLINESTYLE
  5
18
102
{ACAD_REACTORS
330
17
102
}
330
17
100
AcDbMlineStyle
  2
Standard
 70
     0
  3

 62
   256
 51
90.0
 52
90.0
 71
     2
 49
0.5
 62
   256
  6
BYLAYER
 49
-0.5
 62
   256
  6
BYLAYER
  0
ACDBPLACEHOLDER
  5
F
102
{ACAD_REACTORS
330
E
102
}
330
E
  0
SCALE
  5
48
102
{ACAD_REACTORS
330
47
102
}
330
47
100
AcDbScale
 70
     0
300
1:1
140
1.0
141
1.0
290
     1
  0
SCALE
  5
49
102
{ACAD_REACTORS
330
47
102
}
330
47
100
AcDbScale
 70
     0
300
1:2
140
1.0
141
2.0
290
     0
  0
SCALE
  5
4A
102
{ACAD_REACTORS
330
47
102
}
330
47
100
AcDbScale
 70
     0
300
1:4
140
1.0
141
4.0
290
     0
  0
SCALE
  5
4B
102
{ACAD_REACTORS
330
47
102
}
330
47
100
AcDbScale
 70
     0
300
1:5
140
1.0
141
5.0
290
     0
  0
SCALE
  5
4C
102
{ACAD_REACTORS
330
47
102
}
330
47
100
AcDbScale
 70
     0
300
1:8
140
1.0
141
8.0
290
     0
  0
SCALE
  5
4D
102
{ACAD_REACTORS
330
47
102
}
330
47
100
AcDbScale
 70
     0
300
1:10
140
1.0
141
10.0
290
     0
  0
SCALE
  5
4E
102
{ACAD_REACTORS
330
47
102
}
330
47
100
AcDbScale
 70
     0
300
1:16
140
1.0
141
16.0
290
     0
  0
SCALE
  5
4F
102
{ACAD_REACTORS
330
47
102
}
330
47
100
AcDbScale
 70
     0
300
1:20
140
1.0
141
20.0
290
     0
  0
SCALE
  5
50
102
{ACAD_REACTORS
330
47
102
}
330
47
100
AcDbScale
 70
     0
300
1:30
140
1.0
141
30.0
290
     0
  0
SCALE
  5
51
102
{ACAD_REACTORS
330
47
102
}
330
47
100
AcDbScale
 70
     0
300
1:40
140
1.0
141
40.0
290
     0
  0
SCALE
  5
52
102
{ACAD_REACTORS
330
47
102
}
330
47
100
AcDbScale
 70
     0
300
1:50
140
1.0
141
50.0
290
     0
  0
SCALE
  5
53
102
{ACAD_REACTORS
330
47
102
}
330
47
100
AcDbScale
 70
     0
300
1:100
140
1.0
141
100.0
290
     0
  0
SCALE
  5
54
102
{ACAD_REACTORS
330
47
102
}
330
47
100
AcDbScale
 70
     0
300
2:1
140
2.0
141
1.0
290
     0
  0
SCALE
  5
55
102
{ACAD_REACTORS
330
47
102
}
330
47
100
AcDbScale
 70
     0
300
4:1
140
4.0
141
1.0
290
     0
  0
SCALE
  5
56
102
{ACAD_REACTORS
330
47
102
}
330
47
100
AcDbScale
 70
     0
300
8:1
140
8.0
141
1.0
290
     0
  0
SCALE
  5
57
102
{ACAD_REACTORS
330
47
102
}
330
47
100
AcDbScale
 70
     0
300
10:1
140
10.0
141
1.0
290
     0
  0
SCALE
  5
58
102
{ACAD_REACTORS
330
47
102
}
330
47
100
AcDbScale
 70
     0
300
100:1
140
100.0
141
1.0
290
     0
  0
SCALE
  5
59
102
{ACAD_REACTORS
330
47
102
}
330
47
100
AcDbScale
 70
     0
300
1/128" = 1'-0"
140
0.0078125
141
12.0
290
     0
  0
SCALE
  5
5A
102
{ACAD_REACTORS
330
47
102
}
330
47
100
AcDbScale
 70
     0
300
1/64" = 1'-0"
140
0.015625
141
12.0
290
     0
  0
SCALE
  5
5B
102
{ACAD_REACTORS
330
47
102
}
330
47
100
AcDbScale
 70
     0
300
1/32" = 1'-0"
140
0.03125
141
12.0
290
     0
  0
SCALE
  5
5C
102
{ACAD_REACTORS
330
47
102
}
330
47
100
AcDbScale
 70
     0
300
1/16" = 1'-0"
140
0.0625
141
12.0
290
     0
  0
SCALE
  5
5D
102
{ACAD_REACTORS
330
47
102
}
330
47
100
AcDbScale
 70
     0
300
3/32" = 1'-0"
140
0.09375
141
12.0
290
     0
  0
SCALE
  5
5E
102
{ACAD_REACTORS
330
47
102
}
330
47
100
AcDbScale
 70
     0
300
1/8" = 1'-0"
140
0.125
141
12.0
290
     0
  0
SCALE
  5
5F
102
{ACAD_REACTORS
330
47
102
}
330
47
100
AcDbScale
 70
     0
300
3/16" = 1'-0"
140
0.1875
141
12.0
290
     0
  0
SCALE
  5
60
102
{ACAD_REACTORS
330
47
102
}
330
47
100
AcDbScale
 70
     0
300
1/4" = 1'-0"
140
0.25
141
12.0
290
     0
  0
SCALE
  5
61
102
{ACAD_REACTORS
330
47
102
}
330
47
100
AcDbScale
 70
     0
300
3/8" = 1'-0"
140
0.375
141
12.0
290
     0
  0
SCALE
  5
62
102
{ACAD_REACTORS
330
47
102
}
330
47
100
AcDbScale
 70
     0
300
1/2" = 1'-0"
140
0.5
141
12.0
290
     0
  0
SCALE
  5
63
102
{ACAD_REACTORS
330
47
102
}
330
47
100
AcDbScale
 70
     0
300
3/4" = 1'-0"
140
0.75
141
12.0
290
     0
  0
SCALE
  5
64
102
{ACAD_REACTORS
330
47
102
}
330
47
100
AcDbScale
 70
     0
300
1" = 1'-0"
140
1.0
141
12.0
290
     0
  0
SCALE
  5
65
102
{ACAD_REACTORS
330
47
102
}
330
47
100
AcDbScale
 70
     0
300
1-1/2" = 1'-0"
140
1.5
141
12.0
290
     0
  0
SCALE
  5
66
102
{ACAD_REACTORS
330
47
102
}
330
47
100
AcDbScale
 70
     0
300
3" = 1'-0"
140
3.0
141
12.0
290
     0
  0
SCALE
  5
67
102
{ACAD_REACTORS
330
47
102
}
330
47
100
AcDbScale
 70
     0
300
6" = 1'-0"
140
6.0
141
12.0
290
     0
  0
SCALE
  5
68
102
{ACAD_REACTORS
330
47
102
}
330
47
100
AcDbScale
 70
     0
300
1'-0" = 1'-0"
140
12.0
141
12.0
290
     0
  0
ENDSEC
  0
EOF
