  0
SECTION
  2
HEADER
  9
$ACADVER
  1
AC1015
  9
$ACADMAINTVER
 70
    20
  9
$DWGCODEPAGE
  3
ANSI_932
  9
$INSBASE
 10
0.0
 20
0.0
 30
0.0
  9
$EXTMIN
 10
12741.77591493878
 20
-4200.306081659706
 30
-0.0015258207003583
  9
$EXTMAX
 10
12789.58707570248
 20
-4135.115803509925
 30
0.0000000349246037
  9
$LIMMIN
 10
0.0
 20
0.0
  9
$LIMMAX
 10
420.0
 20
297.0
  9
$ORTHOMODE
 70
     0
  9
$REGENMODE
 70
     1
  9
$FILLMODE
 70
     1
  9
$QTEXTMODE
 70
     0
  9
$MIRRTEXT
 70
     1
  9
$LTSCALE
 40
5.0
  9
$ATTMODE
 70
     0
  9
$TEXTSIZE
 40
3.5
  9
$TRACEWID
 40
1.0
  9
$TEXTSTYLE
  7
STANDARD
  9
$CLAYER
  8
0
  9
$CELTYPE
  6
BYLAYER
  9
$CECOLOR
 62
   256
  9
$CELTSCALE
 40
1.0
  9
$DISPSILH
 70
     0
  9
$DIMSCALE
 40
1.0
  9
$DIMASZ
 40
2.5
  9
$DIMEXO
 40
1.5
  9
$DIMDLI
 40
7.0
  9
$DIMRND
 40
0.0
  9
$DIMDLE
 40
0.0
  9
$DIMEXE
 40
1.0
  9
$DIMTP
 40
0.0
  9
$DIMTM
 40
0.0
  9
$DIMTXT
 40
3.0
  9
$DIMCEN
 40
0.0
  9
$DIMTSZ
 40
0.0
  9
$DIMTOL
 70
     0
  9
$DIMLIM
 70
     0
  9
$DIMTIH
 70
     0
  9
$DIMTOH
 70
     0
  9
$DIMSE1
 70
     0
  9
$DIMSE2
 70
     0
  9
$DIMTAD
 70
     3
  9
$DIMZIN
 70
     9
  9
$DIMBLK
  1
OPEN30
  9
$DIMASO
 70
     1
  9
$DIMSHO
 70
     0
  9
$DIMPOST
  1

  9
$DIMAPOST
  1

  9
$DIMALT
 70
     0
  9
$DIMALTD
 70
     0
  9
$DIMALTF
 40
25.4
  9
$DIMLFAC
 40
1.0
  9
$DIMTOFL
 70
     1
  9
$DIMTVP
 40
0.0
  9
$DIMTIX
 70
     0
  9
$DIMSOXD
 70
     0
  9
$DIMSAH
 70
     0
  9
$DIMBLK1
  1

  9
$DIMBLK2
  1

  9
$DIMSTYLE
  2
STANDARD
  9
$DIMCLRD
 70
     8
  9
$DIMCLRE
 70
     8
  9
$DIMCLRT
 70
   256
  9
$DIMTFAC
 40
0.6
  9
$DIMGAP
 40
1.0
  9
$DIMJUST
 70
     0
  9
$DIMSD1
 70
     0
  9
$DIMSD2
 70
     0
  9
$DIMTOLJ
 70
     1
  9
$DIMTZIN
 70
     9
  9
$DIMALTZ
 70
     9
  9
$DIMALTTZ
 70
     9
  9
$DIMUPT
 70
     0
  9
$DIMDEC
 70
     3
  9
$DIMTDEC
 70
     3
  9
$DIMALTU
 70
     2
  9
$DIMALTTD
 70
     0
  9
$DIMTXSTY
  7
STANDARD
  9
$DIMAUNIT
 70
     0
  9
$DIMADEC
 70
     3
  9
$DIMALTRND
 40
0.0
  9
$DIMAZIN
 70
     2
  9
$DIMDSEP
 70
    46
  9
$DIMATFIT
 70
     0
  9
$DIMFRAC
 70
     0
  9
$DIMLDRBLK
  1
OPEN30
  9
$DIMLUNIT
 70
     2
  9
$DIMLWD
 70
    -2
  9
$DIMLWE
 70
    -2
  9
$DIMTMOVE
 70
     0
  9
$LUNITS
 70
     2
  9
$LUPREC
 70
     2
  9
$SKETCHINC
 40
0.1
  9
$FILLETRAD
 40
1.0
  9
$AUNITS
 70
     0
  9
$AUPREC
 70
     1
  9
$MENU
  1
FM
  9
$ELEVATION
 40
0.0
  9
$PELEVATION
 40
0.0
  9
$THICKNESS
 40
0.0
  9
$LIMCHECK
 70
     0
  9
$CHAMFERA
 40
0.0
  9
$CHAMFERB
 40
0.0
  9
$CHAMFERC
 40
0.0
  9
$CHAMFERD
 40
0.0
  9
$SKPOLY
 70
     0
  9
$TDCREATE
 40
2448636.619629630
  9
$TDUCREATE
 40
2448636.244629629
  9
$TDUPDATE
 40
2457820.425602790
  9
$TDUUPDATE
 40
2457820.050602789
  9
$TDINDWG
 40
102.2557680671
  9
$TDUSRTIMER
 40
2457820.034499016
  9
$USRTIMER
 70
     1
  9
$ANGBASE
 50
0.0
  9
$ANGDIR
 70
     0
  9
$PDMODE
 70
     3
  9
$PDSIZE
 40
0.0
  9
$PLINEWID
 40
0.0
  9
$SPLFRAME
 70
     0
  9
$SPLINETYPE
 70
     6
  9
$SPLINESEGS
 70
     8
  9
$HANDSEED
  5
3D6D7F
  9
$SURFTAB1
 70
     6
  9
$SURFTAB2
 70
     6
  9
$SURFTYPE
 70
     6
  9
$SURFU
 70
     6
  9
$SURFV
 70
     6
  9
$UCSBASE
  2

  9
$UCSNAME
  2

  9
$UCSORG
 10
0.0
 20
0.0
 30
0.0
  9
$UCSXDIR
 10
1.0
 20
0.0
 30
0.0
  9
$UCSYDIR
 10
0.0
 20
1.0
 30
0.0
  9
$UCSORTHOREF
  2

  9
$UCSORTHOVIEW
 70
     0
  9
$UCSORGTOP
 10
0.0
 20
0.0
 30
0.0
  9
$UCSORGBOTTOM
 10
0.0
 20
0.0
 30
0.0
  9
$UCSORGLEFT
 10
0.0
 20
0.0
 30
0.0
  9
$UCSORGRIGHT
 10
0.0
 20
0.0
 30
0.0
  9
$UCSORGFRONT
 10
0.0
 20
0.0
 30
0.0
  9
$UCSORGBACK
 10
0.0
 20
0.0
 30
0.0
  9
$PUCSBASE
  2

  9
$PUCSNAME
  2

  9
$PUCSORG
 10
0.0
 20
0.0
 30
0.0
  9
$PUCSXDIR
 10
1.0
 20
0.0
 30
0.0
  9
$PUCSYDIR
 10
0.0
 20
1.0
 30
0.0
  9
$PUCSORTHOREF
  2

  9
$PUCSORTHOVIEW
 70
     0
  9
$PUCSORGTOP
 10
0.0
 20
0.0
 30
0.0
  9
$PUCSORGBOTTOM
 10
0.0
 20
0.0
 30
0.0
  9
$PUCSORGLEFT
 10
0.0
 20
0.0
 30
0.0
  9
$PUCSORGRIGHT
 10
0.0
 20
0.0
 30
0.0
  9
$PUCSORGFRONT
 10
0.0
 20
0.0
 30
0.0
  9
$PUCSORGBACK
 10
0.0
 20
0.0
 30
0.0
  9
$USERI1
 70
     0
  9
$USERI2
 70
     0
  9
$USERI3
 70
     0
  9
$USERI4
 70
     0
  9
$USERI5
 70
     0
  9
$USERR1
 40
0.0
  9
$USERR2
 40
0.0
  9
$USERR3
 40
0.0
  9
$USERR4
 40
0.0
  9
$USERR5
 40
0.0
  9
$WORLDVIEW
 70
     0
  9
$SHADEDGE
 70
     3
  9
$SHADEDIF
 70
    70
  9
$TILEMODE
 70
     1
  9
$MAXACTVP
 70
    16
  9
$PINSBASE
 10
0.0
 20
0.0
 30
0.0
  9
$PLIMCHECK
 70
     0
  9
$PEXTMIN
 10
1.000000000000000E+20
 20
1.000000000000000E+20
 30
1.000000000000000E+20
  9
$PEXTMAX
 10
-1.000000000000000E+20
 20
-1.000000000000000E+20
 30
-1.000000000000000E+20
  9
$PLIMMIN
 10
0.0
 20
0.0
  9
$PLIMMAX
 10
12.0
 20
9.0
  9
$UNITMODE
 70
     0
  9
$VISRETAIN
 70
     0
  9
$PLINEGEN
 70
     0
  9
$PSLTSCALE
 70
     0
  9
$TREEDEPTH
 70
  3020
  9
$CMLSTYLE
  2
STANDARD
  9
$CMLJUST
 70
     0
  9
$CMLSCALE
 40
1.0
  9
$PROXYGRAPHICS
 70
     1
  9
$MEASUREMENT
 70
     0
  9
$CELWEIGHT
370
    -1
  9
$ENDCAPS
280
     0
  9
$JOINSTYLE
280
     0
  9
$LWDISPLAY
290
     1
  9
$INSUNITS
 70
     0
  9
$HYPERLINKBASE
  1

  9
$STYLESHEET
  1
spax form.ctb
  9
$XEDIT
290
     1
  9
$CEPSNTYPE
380
     0
  9
$PSTYLEMODE
290
     1
  9
$FINGERPRINTGUID
  2
{E5B35D22-A717-11D3-9160-00E0294F7E09}
  9
$VERSIONGUID
  2
{B1E7E4AC-BCC3-4617-883D-8919BBC006F3}
  9
$EXTNAMES
290
     1
  9
$PSVPSCALE
 40
0.0
  9
$OLESTARTUP
290
     0
  0
ENDSEC
  0
SECTION
  2
CLASSES
  0
CLASS
  1
LWPOLYLINE
  2
AcDbPolyline
  3
ObjectDBX Classes
 90
        0
280
     0
281
     1
  0
CLASS
  1
ACDBDICTIONARYWDFLT
  2
AcDbDictionaryWithDefault
  3
ObjectDBX Classes
 90
        0
280
     0
281
     0
  0
CLASS
  1
ACDBPLACEHOLDER
  2
AcDbPlaceHolder
  3
ObjectDBX Classes
 90
        0
280
     0
281
     0
  0
CLASS
  1
LAYOUT
  2
AcDbLayout
  3
ObjectDBX Classes
 90
        0
280
     0
281
     0
  0
CLASS
  1
DICTIONARYVAR
  2
AcDbDictionaryVar
  3
ObjectDBX Classes
 90
        0
280
     0
281
     0
  0
CLASS
  1
MATERIAL
  2
AcDbMaterial
  3
ObjectDBX Classes
 90
     1153
280
     0
281
     0
  0
CLASS
  1
SORTENTSTABLE
  2
AcDbSortentsTable
  3
ObjectDBX Classes
 90
        0
280
     0
281
     0
  0
CLASS
  1
VISUALSTYLE
  2
AcDbVisualStyle
  3
ObjectDBX Classes
 90
     4095
280
     0
281
     0
  0
CLASS
  1
TABLESTYLE
  2
AcDbTableStyle
  3
ObjectDBX Classes
 90
     4095
280
     0
281
     0
  0
CLASS
  1
SCALE
  2
AcDbScale
  3
ObjectDBX Classes
 90
     1153
280
     0
281
     0
  0
CLASS
  1
MLEADERSTYLE
  2
AcDbMLeaderStyle
  3
ACDB_MLEADERSTYLE_CLASS
 90
     4095
280
     0
281
     0
  0
CLASS
  1
CELLSTYLEMAP
  2
AcDbCellStyleMap
  3
ObjectDBX Classes
 90
     1152
280
     0
281
     0
  0
CLASS
  1
MULTILEADER
  2
AcDbMLeader
  3
ACDB_MLEADER_CLASS
 90
    33793
280
     0
281
     1
  0
CLASS
  1
DIMASSOC
  2
AcDbDimAssoc
  3
"AcDbDimAssoc|Product Desc:     AcDim ARX App For Dimension|Company:          Autodesk, Inc.|WEB Address:      www.autodesk.com"
 90
    32768
280
     0
281
     0
  0
CLASS
  1
LARGE_RADIAL_DIMENSION
  2
AcDbRadialDimensionLarge
  3
ObjectDBX Classes
 90
    33793
280
     0
281
     1
  0
CLASS
  1
RASTERVARIABLES
  2
AcDbRasterVariables
  3
ISM
 90
        0
280
     0
281
     0
  0
CLASS
  1
AEC_VARS_DWG_SETUP
  2
AecDbVarsDwgSetup
  3
AecBase60
 90
      129
280
     0
281
     0
  0
CLASS
  1
AEC_DISP_REP_2D_SECTION
  2
AecDbDispRep2dSection
  3
AecBase60
 90
      129
280
     0
281
     0
  0
CLASS
  1
AEC_DISP_PROPS_2D_SECTION
  2
AecDbDispProps2dSection
  3
AecBase60
 90
      129
280
     0
281
     0
  0
CLASS
  1
AEC_DISP_REP_CLIP_VOLUME_MODEL
  2
AecDbDispRepClipVolModel
  3
AecBase60
 90
      129
280
     0
281
     0
  0
CLASS
  1
AEC_DISP_PROPS_CLIP_VOLUME
  2
AecDbDispPropsClipVol
  3
AecBase60
 90
      129
280
     0
281
     0
  0
CLASS
  1
AEC_DISP_REP_CLIP_VOLUME_PLAN
  2
AecDbDispRepClipVolPlan
  3
AecBase60
 90
      129
280
     0
281
     0
  0
CLASS
  1
AEC_DISP_REP_CLIP_VOLUME_RESULT
  2
AecDbDispRepClipVolResult
  3
AecBase60
 90
      129
280
     0
281
     0
  0
CLASS
  1
AEC_DISP_REP_CLIP_VOLUME_RESULT_SUBDIV
  2
AecDbDispRepClipVolResSubDiv
  3
AecBase60
 90
      129
280
     0
281
     0
  0
CLASS
  1
AEC_DISP_PROPS_CLIP_VOLUME_RESULT
  2
AecDbDispPropsClipVolResSubDiv
  3
AecBase60
 90
      129
280
     0
281
     0
  0
CLASS
  1
AEC_DISP_REP_DISPLAYTHEME
  2
AecDbDispRepDisplayTheme
  3
AecBase60
 90
      129
280
     0
281
     0
  0
CLASS
  1
AEC_DISP_PROPS_DISPLAYTHEME
  2
AecDbDispPropsDisplayTheme
  3
AecBase60
 90
      129
280
     0
281
     0
  0
CLASS
  1
AEC_DISP_REP_ENT_REF
  2
AecDbDispRepEntRef
  3
AecBase60
 90
      129
280
     0
281
     0
  0
CLASS
  1
AEC_DISP_PROPS_ENT_REF
  2
AecDbDispPropsEntRef
  3
AecBase60
 90
      129
280
     0
281
     0
  0
CLASS
  1
AEC_DISP_REP_LAYOUT_CURVE
  2
AecDbDispRepLayoutCurve
  3
AecBase60
 90
      129
280
     0
281
     0
  0
CLASS
  1
AEC_DISP_PROPS_LAYOUT_CURVE
  2
AecDbDispPropsLayoutCurve
  3
AecBase60
 90
      129
280
     0
281
     0
  0
CLASS
  1
AEC_DISP_REP_LAYOUT_GRID2D
  2
AecDbDispRepLayoutGrid2d
  3
AecBase60
 90
      129
280
     0
281
     0
  0
CLASS
  1
AEC_DISP_PROPS_LAYOUT_GRID2D
  2
AecDbDispPropsLayoutGrid2d
  3
AecBase60
 90
      129
280
     0
281
     0
  0
CLASS
  1
AEC_DISP_REP_LAYOUT_GRID3D
  2
AecDbDispRepLayoutGrid3d
  3
AecBase60
 90
      129
280
     0
281
     0
  0
CLASS
  1
AEC_DISP_PROPS_LAYOUT_GRID3D
  2
AecDbDispPropsLayoutGrid3d
  3
AecBase60
 90
      129
280
     0
281
     0
  0
CLASS
  1
AEC_DISP_REP_MASKBLOCK_REF
  2
AecDbDispRepMaskBlockRef
  3
AecBase60
 90
      129
280
     0
281
     0
  0
CLASS
  1
AEC_DISP_PROPS_MASKBLOCK
  2
AecDbDispPropsMaskBlock
  3
AecBase60
 90
      129
280
     0
281
     0
  0
CLASS
  1
AEC_DISP_REP_MASKBLOCK_REF_RCP
  2
AecDbDispRepMaskBlockRefRcp
  3
AecArchBase60
 90
      129
280
     0
281
     0
  0
CLASS
  1
AEC_DISP_REP_MASS_ELEM_MODEL
  2
AecDbDispRepMassElemModel
  3
AecBase60
 90
      129
280
     0
281
     0
  0
CLASS
  1
AEC_DISP_PROPS_MASS_ELEM_MODEL
  2
AecDbDispPropsMassElem
  3
AecBase60
 90
      129
280
     0
281
     0
  0
CLASS
  1
AEC_DISP_REP_MASS_ELEM_SCHEM
  2
AecDbDispRepMassElemSchem
  3
AecBase60
 90
      129
280
     0
281
     0
  0
CLASS
  1
AEC_DISPREPAECDBDISPREPMASSELEMPLAN50
  2
AecDbDispRepMassElemPlan50
  3
AecArchDACHBase60
 90
      129
280
     0
281
     0
  0
CLASS
  1
AEC_DISPROPSMASSELEMPLANCOMMON
  2
AecDbDispPropsMassElemPlanCommon
  3
AecArchDACHBase60
 90
      129
280
     0
281
     0
  0
CLASS
  1
AEC_DISPREPAECDBDISPREPMASSELEMPLAN100
  2
AecDbDispRepMassElemPlan100
  3
AecArchDACHBase60
 90
      129
280
     0
281
     0
  0
CLASS
  1
AEC_DISP_REP_MASS_ELEM_RCP
  2
AecDbDispRepMassElemRcp
  3
AecArchBase60
 90
      129
280
     0
281
     0
  0
CLASS
  1
AEC_DISP_REP_MASS_GROUP_MODEL
  2
AecDbDispRepMassGroupModel
  3
AecBase60
 90
      129
280
     0
281
     0
  0
CLASS
  1
AEC_DISP_PROPS_MASS_GROUP
  2
AecDbDispPropsMassGroup
  3
AecBase60
 90
      129
280
     0
281
     0
  0
CLASS
  1
AEC_DISP_REP_MASS_GROUP_PLAN
  2
AecDbDispRepMassGroupPlan
  3
AecBase60
 90
      129
280
     0
281
     0
  0
CLASS
  1
AEC_DISPREPAECDBDISPREPMASSGROUPPLAN50
  2
AecDbDispRepMassGroupPlan50
  3
AecArchDACHBase60
 90
      129
280
     0
281
     0
  0
CLASS
  1
AEC_DISPROPSMASSGROUPPLANCOMMON
  2
AecDbDispPropsMassGroupPlanCommon
  3
AecArchDACHBase60
 90
      129
280
     0
281
     0
  0
CLASS
  1
AEC_DISPREPAECDBDISPREPMASSGROUPPLAN100
  2
AecDbDispRepMassGroupPlan100
  3
AecArchDACHBase60
 90
      129
280
     0
281
     0
  0
CLASS
  1
AEC_DISP_REP_MASS_GROUP_RCP
  2
AecDbDispRepMassGroupRcp
  3
AecArchBase60
 90
      129
280
     0
281
     0
  0
CLASS
  1
AEC_DISP_REP_MVBLOCK_REF
  2
AecDbDispRepMvBlockRef
  3
AecBase60
 90
      129
280
     0
281
     0
  0
CLASS
  1
AEC_DISP_REP_MVBLOCK_REF_MODEL
  2
AecDbDispRepMvBlockRefModel
  3
AecBase60
 90
      129
280
     0
281
     0
  0
CLASS
  1
AEC_AECDBDISPREPMVBLOCKREFPLAN100
  2
AecDbDispRepMvBlockRefPlan100
  3
AecBase60
 90
      129
280
     0
281
     0
  0
CLASS
  1
AEC_AECDBDISPREPMVBLOCKREFPLAN50
  2
AecDbDispRepMvBlockRefPlan50
  3
AecBase60
 90
      129
280
     0
281
     0
  0
CLASS
  1
AEC_DISP_REP_POLYGON_MODEL
  2
AecDbDispRepPolygonModel
  3
AecBase60
 90
      129
280
     0
281
     0
  0
CLASS
  1
AEC_DISP_PROPS_POLYGON_MODEL
  2
AecDbDispPropsPolygonModel
  3
AecBase60
 90
      129
280
     0
281
     0
  0
CLASS
  1
AEC_DISP_REP_POLYGON_TRUECOLOUR
  2
AecDbDispRepPolygonTrueColour
  3
AecBase60
 90
      129
280
     0
281
     0
  0
CLASS
  1
AEC_DISP_PROPS_POLYGON_TRUECOLOUR
  2
AecDbDispPropsPolygonTrueColour
  3
AecBase60
 90
      129
280
     0
281
     0
  0
CLASS
  1
AEC_DISP_REP_SLICE
  2
AecDbDispRepSlice
  3
AecBase60
 90
      129
280
     0
281
     0
  0
CLASS
  1
AEC_DISP_PROPS_SLICE
  2
AecDbDispPropsSlice
  3
AecBase60
 90
      129
280
     0
281
     0
  0
CLASS
  1
AEC_DISP_REP_ANCHOR
  2
AecDbDispRepAnchor
  3
AecBase60
 90
      129
280
     0
281
     0
  0
CLASS
  1
AEC_DISP_REP_ANCHOR_ENT_TO_NODE
  2
AecDbDispRepAnchorEntToNode
  3
AecBase60
 90
      129
280
     0
281
     0
  0
CLASS
  1
AEC_DISP_PROPS_ENT
  2
AecDbDispPropsEnt
  3
AecBase60
 90
      129
280
     0
281
     0
  0
CLASS
  1
AEC_DISP_REP_MATERIAL
  2
AecDbDispRepMaterial
  3
AecBase60
 90
      129
280
     0
281
     0
  0
CLASS
  1
AEC_DISP_PROPS_MATERIAL
  2
AecDbDispPropsMaterial
  3
AecBase60
 90
      129
280
     0
281
     0
  0
CLASS
  1
AEC_DISP_REP_EDITINPLACEPROFILE
  2
AecDbDispRepEditInPlaceProfile
  3
AecBase60
 90
      129
280
     0
281
     0
  0
CLASS
  1
AEC_DISP_PROPS_EDITINPLACEPROFILE_MODEL
  2
AecDbDispPropsEditInPlaceProfile
  3
AecBase60
 90
      129
280
     0
281
     0
  0
CLASS
  1
SUN
  2
AcDbSun
  3
SCENEOE
 90
     1153
280
     0
281
     0
  0
ENDSEC
  0
SECTION
  2
TABLES
  0
TABLE
  2
VPORT
  5
8
330
0
100
AcDbSymbolTable
 70
     1
  0
VPORT
  5
3523F0
330
8
100
AcDbSymbolTableRecord
100
AcDbViewportTableRecord
  2
*Active
 70
     0
 10
0.0
 20
0.0
 11
1.0
 21
1.0
 12
12765.68149532063
 22
-4167.710942584816
 13
0.0
 23
0.0
 14
1.0
 24
1.0
 15
20.0
 25
20.0
 16
0.0
 26
0.0
 36
1.0
 17
0.0
 27
0.0
 37
0.0
 40
65.71671377413986
 41
1.808625336927223
 42
50.0
 43
0.0
 44
0.0
 50
0.0
 51
0.0
 71
    16
 72
   100
 73
     1
 74
     0
 75
     0
 76
     0
 77
     0
 78
     0
281
     0
 65
     1
110
0.0
120
0.0
130
0.0
111
1.0
121
0.0
131
0.0
112
0.0
122
1.0
132
0.0
 79
     0
146
0.0
  0
ENDTAB
  0
TABLE
  2
LTYPE
  5
5
330
0
100
AcDbSymbolTable
 70
     6
  0
LTYPE
  5
12
330
5
100
AcDbSymbolTableRecord
100
AcDbLinetypeTableRecord
  2
BYBLOCK
 70
     0
  3

 72
    65
 73
     0
 40
0.0
  0
LTYPE
  5
13
330
5
100
AcDbSymbolTableRecord
100
AcDbLinetypeTableRecord
  2
BYLAYER
 70
     0
  3

 72
    65
 73
     0
 40
0.0
  0
LTYPE
  5
14
330
5
100
AcDbSymbolTableRecord
100
AcDbLinetypeTableRecord
  2
CONTINUOUS
 70
     0
  3
Solid line
 72
    65
 73
     0
 40
0.0
  0
ENDTAB
  0
TABLE
  2
LAYER
  5
2
102
{ACAD_XDICTIONARY
360
559E
102
}
330
0
100
AcDbSymbolTable
 70
    34
  0
LAYER
  5
F
102
{ACAD_XDICTIONARY
360
CD7F
102
}
330
2
100
AcDbSymbolTableRecord
100
AcDbLayerTableRecord
  2
0
 70
     0
 62
     7
  6
CONTINUOUS
370
    -3
390
352
  0
LAYER
  5
36
330
2
100
AcDbSymbolTableRecord
100
AcDbLayerTableRecord
  2
DEFPOINTS
 70
     0
 62
     7
  6
CONTINUOUS
290
     0
370
    -3
390
352
  0
LAYER
  5
2A3
102
{ACAD_XDICTIONARY
360
CD89
102
}
330
2
100
AcDbSymbolTableRecord
100
AcDbLayerTableRecord
  2
ﾊｯﾁﾝｸﾞ
 70
     0
 62
     8
  6
CONTINUOUS
370
    -3
390
352
  0
LAYER
  5
2F4
102
{ACAD_XDICTIONARY
360
CD8D
102
}
330
2
100
AcDbSymbolTableRecord
100
AcDbLayerTableRecord
  2
文字
 70
     0
 62
     7
  6
CONTINUOUS
370
    -3
390
352
  0
LAYER
  5
306B15
330
2
100
AcDbSymbolTableRecord
100
AcDbLayerTableRecord
  2
C-SUNPO
 70
     0
 62
     7
  6
CONTINUOUS
370
    -3
390
352
  0
ENDTAB
  0
TABLE
  2
STYLE
  5
3
330
0
100
AcDbSymbolTable
 70
    11
  0
STYLE
  5
10
330
3
100
AcDbSymbolTableRecord
100
AcDbTextStyleTableRecord
  2
STANDARD
 70
     0
 40
0.0
 41
1.0
 50
0.0
 71
     0
 42
3.5
  3
MONOTXT
  4
BIGFONT
  0
ENDTAB
  0
TABLE
  2
VIEW
  5
6
330
0
100
AcDbSymbolTable
 70
     0
  0
ENDTAB
  0
TABLE
  2
UCS
  5
7
330
0
100
AcDbSymbolTable
 70
     0
  0
ENDTAB
  0
TABLE
  2
APPID
  5
9
330
0
100
AcDbSymbolTable
 70
    23
  0
APPID
  5
11
330
9
100
AcDbSymbolTableRecord
100
AcDbRegAppTableRecord
  2
ACAD
 70
     0
  0
APPID
  5
C058
330
9
100
AcDbSymbolTableRecord
100
AcDbRegAppTableRecord
  2
AcAecLayerStandard
 70
     0
  0
APPID
  5
CD77
330
9
100
AcDbSymbolTableRecord
100
AcDbRegAppTableRecord
  2
ACAD_MLEADERVER
 70
     0
  0
APPID
  5
D036
330
9
100
AcDbSymbolTableRecord
100
AcDbRegAppTableRecord
  2
ACAD_PSEXT
 70
     0
  0
APPID
  5
D28E
330
9
100
AcDbSymbolTableRecord
100
AcDbRegAppTableRecord
  2
ACAD_DSTYLE_DIMJAG
 70
     0
  0
APPID
  5
D28F
330
9
100
AcDbSymbolTableRecord
100
AcDbRegAppTableRecord
  2
ACAD_DSTYLE_DIMTALN
 70
     0
  0
APPID
  5
10E35
330
9
100
AcDbSymbolTableRecord
100
AcDbRegAppTableRecord
  2
ACAD_EXEMPT_FROM_CAD_STANDARDS
 70
     0
  0
APPID
  5
36B90
330
9
100
AcDbSymbolTableRecord
100
AcDbRegAppTableRecord
  2
ACAD_DSTYLE_DIMRADIAL_EXTENSION
 70
     0
  0
APPID
  5
4CBB9
330
9
100
AcDbSymbolTableRecord
100
AcDbRegAppTableRecord
  2
WACOM_STRING
 70
     0
  0
APPID
  5
4CBBA
330
9
100
AcDbSymbolTableRecord
100
AcDbRegAppTableRecord
  2
WACOM_DRSYM_ARROW
 70
     0
  0
APPID
  5
83B4C
330
9
100
AcDbSymbolTableRecord
100
AcDbRegAppTableRecord
  2
ACAD_DSTYLE_DIMRADIAL_EXTE
 70
     0
  0
APPID
  5
83B4D
330
9
100
AcDbSymbolTableRecord
100
AcDbRegAppTableRecord
  2
ACAD_DSTYLE_DIMBREAK
 70
     0
  0
APPID
  5
83B4E
330
9
100
AcDbSymbolTableRecord
100
AcDbRegAppTableRecord
  2
ACAD_DSTYLE_DIMARC_LENGTH_
 70
     0
  0
APPID
  5
8B472
330
9
100
AcDbSymbolTableRecord
100
AcDbRegAppTableRecord
  2
LAYER_SCALE
 70
     0
  0
APPID
  5
8B473
330
9
100
AcDbSymbolTableRecord
100
AcDbRegAppTableRecord
  2
KCAD_DIM_EXT
 70
     0
  0
APPID
  5
16ECBA
330
9
100
AcDbSymbolTableRecord
100
AcDbRegAppTableRecord
  2
GENIUS_GENDTOL_13
 70
     0
  0
APPID
  5
23CCFB
330
9
100
AcDbSymbolTableRecord
100
AcDbRegAppTableRecord
  2
AcadAnnotative
 70
     0
  0
APPID
  5
31A28D
330
9
100
AcDbSymbolTableRecord
100
AcDbRegAppTableRecord
  2
ACAD_DSTYLE_DIMFLIPARROW_WHICH_SYMBOL
 70
     0
  0
APPID
  5
355D3D
330
9
100
AcDbSymbolTableRecord
100
AcDbRegAppTableRecord
  2
AECBASE
 70
     0
  0
APPID
  5
355D3E
330
9
100
AcDbSymbolTableRecord
100
AcDbRegAppTableRecord
  2
AEC_2DSECTION_XDATA
 70
     0
  0
APPID
  5
355D3F
330
9
100
AcDbSymbolTableRecord
100
AcDbRegAppTableRecord
  2
AEC_MASSGROUP_XDADA
 70
     0
  0
APPID
  5
356897
330
9
100
AcDbSymbolTableRecord
100
AcDbRegAppTableRecord
  2
ACAD_SPLINE_DATA
 70
     0
  0
APPID
  5
356898
330
9
100
AcDbSymbolTableRecord
100
AcDbRegAppTableRecord
  2
ACAD_SPLINE_DATA2
 70
     0
  0
ENDTAB
  0
TABLE
  2
DIMSTYLE
  5
A
330
0
100
AcDbSymbolTable
 70
     7
100
AcDbDimStyleTable
 71
     0
  0
DIMSTYLE
105
1CC
330
A
100
AcDbSymbolTableRecord
100
AcDbDimStyleTableRecord
  2
STANDARD
 70
     0
 41
2.5
 42
1.5
 43
7.0
 44
1.0
 45
0.0
 73
     0
 74
     0
 77
     3
 78
     8
 79
     2
140
3.0
141
0.0
146
0.6
147
1.0
171
     0
172
     1
176
     8
177
     8
178
   256
179
     3
271
     3
272
     3
274
     0
289
     0
340
10
341
265D
342
265D
1001
ACAD_DSTYLE_DIMJAG
1070
   388
1040
1.5
1001
ACAD_DSTYLE_DIMTALN
1070
   392
1070
     0
  0
ENDTAB
  0
TABLE
  2
BLOCK_RECORD
  5
1
330
0
100
AcDbSymbolTable
 70
    17
  0
BLOCK_RECORD
  5
18
102
{ACAD_XDICTIONARY
360
D25F
102
}
330
1
100
AcDbSymbolTableRecord
100
AcDbBlockTableRecord
  2
*MODEL_SPACE
340
355
  0
BLOCK_RECORD
  5
15
330
1
100
AcDbSymbolTableRecord
100
AcDbBlockTableRecord
  2
*PAPER_SPACE
340
356
  0
BLOCK_RECORD
  5
265D
330
1
100
AcDbSymbolTableRecord
100
AcDbBlockTableRecord
  2
_OPEN30
340
0
102
{BLKREFS
331
3CD03F
331
3CD040
331
3D41B5
331
3D41B6
331
3D41C4
331
3D41C5
331
3D41D3
331
3D41D4
331
3D41DF
331
3D41E0
331
3D6CB6
331
3D6CB7
102
}
  0
ENDTAB
  0
ENDSEC
  0
SECTION
  2
BLOCKS
  0
BLOCK
  5
39
330
18
100
AcDbEntity
  8
0
100
AcDbBlockBegin
  2
*MODEL_SPACE
 70
     0
 10
0.0
 20
0.0
 30
0.0
  3
*MODEL_SPACE
  1

  0
ENDBLK
  5
3A
330
18
100
AcDbEntity
  8
0
100
AcDbBlockEnd
  0
BLOCK
  5
37
330
15
100
AcDbEntity
 67
     1
  8
0
100
AcDbBlockBegin
  2
*PAPER_SPACE
 70
     0
 10
0.0
 20
0.0
 30
0.0
  3
*PAPER_SPACE
  1

  0
ENDBLK
  5
38
330
15
100
AcDbEntity
 67
     1
  8
0
100
AcDbBlockEnd
  0
BLOCK
  5
265E
330
265D
100
AcDbEntity
  8
0
100
AcDbBlockBegin
  2
_OPEN30
 70
     0
 10
0.0
 20
0.0
 30
0.0
  3
_OPEN30
  1

  0
LINE
  5
265F
330
265D
100
AcDbEntity
  8
0
  6
ByBlock
 62
     0
100
AcDbLine
 10
-1.0
 20
0.26794919
 30
0.0
 11
0.0
 21
0.0
 31
0.0
  0
LINE
  5
2660
330
265D
100
AcDbEntity
  8
0
  6
ByBlock
 62
     0
100
AcDbLine
 10
0.0
 20
0.0
 30
0.0
 11
-1.0
 21
-0.26794919
 31
0.0
  0
LINE
  5
2661
330
265D
100
AcDbEntity
  8
0
  6
ByBlock
 62
     0
100
AcDbLine
 10
0.0
 20
0.0
 30
0.0
 11
-1.0
 21
0.0
 31
0.0
  0
ENDBLK
  5
2662
330
265D
100
AcDbEntity
  8
0
100
AcDbBlockEnd
  0
ENDSEC
  0
SECTION
  2
ENTITIES
  0
MTEXT
  5
8182F
330
18
100
AcDbEntity
  8
0
100
AcDbMText
 10
5598.734167156057
 20
-2635.335630549191
 30
0.0
 40
3.0
 41
0.0
 71
     7
 72
     1
  1
\A1;
 73
     1
 44
1.0
1001
ACAD
1000
MTEXTBEGIN
1070
    73
1070
     1
1070
    44
1040
1.0
1070
    74
1070
     0
1000
MTEXTEND
  0
MTEXT
  5
3073B9
330
18
100
AcDbEntity
  8
C-SUNPO
 62
     7
100
AcDbMText
 10
8897.245354628266
 20
-2466.345110988795
 30
0.0
 40
2.0
 41
0.0
 71
     5
 72
     1
  1
\A1;\P\P 
 11
0.9999986675605709
 21
0.0016324451239504
 31
0.0
 73
     1
 44
1.0
1001
ACAD
1000
MTEXTBEGIN
1070
    73
1070
     1
1070
    44
1040
1.0
1070
    74
1070
     0
1000
MTEXTEND
  0
HATCH
  5
35716B
330
18
100
AcDbEntity
  8
ﾊｯﾁﾝｸﾞ
100
AcDbHatch
 10
0.0
 20
0.0
 30
0.0000000000000118
210
0.0
220
0.0
230
1.0
  2
SOLID
 70
     1
 71
     0
 91
        0
 75
     0
 76
     1
 98
        1
 10
14275.27866896179
 20
-3855.455082819838
1001
ACAD
1010
0.0
1020
0.0
1030
0.0
  0
HATCH
  5
35809D
330
18
100
AcDbEntity
  8
ﾊｯﾁﾝｸﾞ
100
AcDbHatch
 10
0.0
 20
0.0
 30
0.0
210
0.0
220
0.0
230
1.0
  2
SOLID
 70
     1
 71
     0
 91
        0
 75
     0
 76
     1
 98
        1
 10
15442.72207670341
 20
-3039.490907736148
1001
ACAD
1010
0.0
1020
0.0
1030
0.0
  0
TEXT
  5
3C9962
330
18
100
AcDbEntity
  8
文字
100
AcDbText
 10
12742.64675227636
 20
-4200.168849428631
 30
0.0
 40
3.989999857499999
  1
MMP-060F/FLF
 11
12742.64675227636
 21
-4200.168849428631
 31
0.0
100
AcDbText
 73
     1
  0
LINE
  5
3D6B53
330
18
100
AcDbEntity
  8
0
  6
ByBlock
 62
     8
370
    15
100
AcDbLine
 10
12750.60086383353
 20
-4181.166201346104
 30
0.0
 11
12750.5975860048
 21
-4181.978437452627
 31
0.0
  0
SPLINE
  5
3D6B54
330
18
100
AcDbEntity
  8
0
  6
ByBlock
 62
     8
370
    15
100
AcDbSpline
210
0.0
220
0.0
230
1.0
 70
     8
 71
     3
 72
    14
 73
    10
 74
     0
 42
0.0000000001
 43
0.0000000001
 40
0.0
 40
0.0
 40
0.0
 40
0.0
 40
0.0690795107770064
 40
0.2342972165616753
 40
0.4033234893886473
 40
0.577814038659787
 40
0.7579602420987794
 40
0.9440613777122136
 40
1.0
 40
1.0
 40
1.0
 40
1.0
 10
12758.06642311607
 20
-4171.013523608351
 30
0.0
 10
12757.913323769
 20
-4171.188824437652
 30
0.0
 10
12757.39405618194
 20
-4171.783392869069
 30
0.0
 10
12756.53890152081
 20
-4172.84481773188
 30
0.0
 10
12755.5097383758
 20
-4174.225297720081
 30
0.0
 10
12754.50630263785
 20
-4175.690005911163
 30
0.0
 10
12753.53249239654
 20
-4177.245126001315
 30
0.0
 10
12752.80437320128
 20
-4178.480702615325
 30
0.0
 10
12752.42199254491
 20
-4179.208695186996
 30
0.0
 10
12752.33361926569
 20
-4179.376943998051
 30
0.0
  0
SPLINE
  5
3D6B55
330
18
100
AcDbEntity
  8
0
  6
ByBlock
 62
     8
370
    15
100
AcDbSpline
210
0.0
220
0.0
230
1.0
 70
     8
 71
     3
 72
    13
 73
     9
 74
     0
 42
0.0000000001
 43
0.0000000001
 40
0.0
 40
0.0
 40
0.0
 40
0.0
 40
0.1640412813848
 40
0.3592103317088895
 40
0.5474575850208476
 40
0.7291994324618658
 40
0.9048010163892268
 40
1.0
 40
1.0
 40
1.0
 40
1.0
 10
12780.13323996946
 20
-4179.490730284529
 30
0.0
 10
12779.86954450679
 20
-4178.998918459747
 30
0.0
 10
12779.29211586312
 20
-4177.921970710821
 30
0.0
 10
12778.33170245153
 20
-4176.327425026984
 30
0.0
 10
12777.28191654788
 20
-4174.720470662072
 30
0.0
 10
12776.20244284165
 20
-4173.217839268522
 30
0.0
 10
12775.26032633995
 20
-4172.00936881651
 30
0.0
 10
12774.66601405897
 20
-4171.315179061135
 30
0.0
 10
12774.45708567447
 20
-4171.071139103076
 30
0.0
  0
LINE
  5
3D6B56
330
18
100
AcDbEntity
  8
0
  6
ByBlock
 62
     8
370
    15
100
AcDbLine
 10
12781.74030320982
 20
-4181.640631196007
 30
0.0
 11
12781.74139582211
 21
-4181.369885154761
 31
0.0
  0
LINE
  5
3D6B57
330
18
100
AcDbEntity
  8
0
  6
ByBlock
 62
     8
370
    15
100
AcDbLine
 10
12781.28533598234
 20
-4182.102279752835
 30
0.0
 11
12781.28709290662
 21
-4181.666919198667
 31
0.0
  0
LINE
  5
3D6B58
330
18
100
AcDbEntity
  8
0
  6
ByBlock
 62
     8
370
    15
100
AcDbLine
 10
12781.77162930729
 20
-4181.441529968495
 30
0.0
 11
12781.77381452374
 21
-4180.900039903217
 31
0.0
  0
LINE
  5
3D6B5D
330
18
100
AcDbEntity
  8
0
  6
ByBlock
 62
     8
370
    15
100
AcDbLine
 10
12781.70878700142
 20
-4182.354875349112
 30
0.0
 11
12781.71097221786
 21
-4181.813385283836
 31
0.0
  0
LINE
  5
3D6B5E
330
18
100
AcDbEntity
  8
0
  6
ByBlock
 62
     8
370
    15
100
AcDbLine
 10
12781.66764179444
 20
-4182.696686780925
 30
0.0
 11
12781.66873440673
 21
-4182.42594073968
 31
0.0
  0
SPLINE
  5
3D6B5F
330
18
100
AcDbEntity
  8
0
  6
ByBlock
 62
     8
370
    15
100
AcDbSpline
210
0.0
220
0.0
230
1.0
 70
     8
 71
     3
 72
    16
 73
    12
 74
     0
 42
0.0000000001
 43
0.0000000001
 40
0.0
 40
0.0
 40
0.0
 40
0.0
 40
0.122112656806734
 40
0.2461458460760936
 40
0.3707886666963694
 40
0.4961036367826929
 40
0.6218188778107167
 40
0.7461909946403807
 40
0.8537272607133772
 40
0.967849021753293
 40
1.0
 40
1.0
 40
1.0
 40
1.0
 10
12778.25823175894
 20
-4176.236217860672
 30
0.0
 10
12778.44815357231
 20
-4176.160497919489
 30
0.0
 10
12778.83098420315
 20
-4176.007867148242
 30
0.0
 10
12779.32586325223
 20
-4175.76232626765
 30
0.0
 10
12779.76202626256
 20
-4175.503214264057
 30
0.0
 10
12780.12934518277
 20
-4175.229287825787
 30
0.0
 10
12780.42481989625
 20
-4174.939989284381
 30
0.0
 10
12780.63718699481
 20
-4174.645812769766
 30
0.0
 10
12780.76672277802
 20
-4174.34232613249
 30
0.0
 10
12780.82262515557
 20
-4174.107909519491
 30
0.0
 10
12780.80884408548
 20
-4173.972745387923
 30
0.0
 10
12780.80581498459
 20
-4173.943036099132
 30
0.0
  0
SPLINE
  5
3D6B60
330
18
100
AcDbEntity
  8
0
  6
ByBlock
 62
     8
370
    15
100
AcDbSpline
210
0.0
220
0.0
230
1.0
 70
     8
 71
     3
 72
    17
 73
    13
 74
     0
 42
0.0000000001
 43
0.0000000001
 40
0.0
 40
0.0
 40
0.0
 40
0.0
 40
0.0377292167738814
 40
0.1477584733959747
 40
0.2588184602866236
 40
0.3744580591281231
 40
0.495820054388638
 40
0.6211154352967647
 40
0.7477982199101909
 40
0.8741930087083796
 40
0.9999860367858721
 40
1.0
 40
1.0
 40
1.0
 40
1.0
 10
12751.69769557308
 20
-4173.859960927895
 30
0.0
 10
12751.69719252909
 20
-4173.894554818682
 30
0.0
 10
12751.69522246401
 20
-4174.030034452993
 30
0.0
 10
12751.75004009538
 20
-4174.26507940432
 30
0.0
 10
12751.88294444802
 20
-4174.556222162244
 30
0.0
 10
12752.08953080687
 20
-4174.83943980457
 30
0.0
 10
12752.37010541198
 20
-4175.117642645158
 30
0.0
 10
12752.72846511038
 20
-4175.389682804665
 30
0.0
 10
12753.15839988655
 20
-4175.653412538181
 30
0.0
 10
12753.66644605275
 20
-4175.902622943784
 30
0.0
 10
12754.02584084099
 20
-4176.067821703871
 30
0.0
 10
12754.23701858991
 20
-4176.141452970938
 30
0.0
 10
12754.23704202835
 20
-4176.141461143212
 30
0.0
  0
LINE
  5
3D6B61
330
18
100
AcDbEntity
  8
0
  6
ByBlock
 62
     8
370
    15
100
AcDbLine
 10
12780.81411838849
 20
-4173.977880745295
 30
0.0
 11
12780.8665636737
 21
-4160.982096737162
 31
0.0
  0
LINE
  5
3D6B62
330
18
100
AcDbEntity
  8
0
  6
ByBlock
 62
     8
370
    15
100
AcDbLine
 10
12751.74680116467
 20
-4160.864582150945
 30
0.0
 11
12751.69435587945
 21
-4173.860366159078
 31
0.0
  0
SPLINE
  5
3D6B63
330
18
100
AcDbEntity
  8
0
  6
ByBlock
 62
     8
370
    15
100
AcDbSpline
210
0.0
220
0.0
230
1.0
 70
     8
 71
     3
 72
    18
 73
    14
 74
     0
 42
0.0000000001
 43
0.0000000001
 40
0.0
 40
0.0
 40
0.0
 40
0.0
 40
0.0164711739437583
 40
0.123361497447167
 40
0.2299107532119999
 40
0.3360197684380521
 40
0.4415778828865606
 40
0.5465002625244951
 40
0.6508452097824346
 40
0.7550436583201026
 40
0.8601282592648571
 40
0.9693265425026496
 40
1.0
 40
1.0
 40
1.0
 40
1.0
 10
12777.02014822342
 20
-4171.975443525258
 30
0.0
 10
12777.05394296692
 20
-4171.985536984911
 30
0.0
 10
12777.30705001191
 20
-4172.061132343291
 30
0.0
 10
12777.72210256867
 20
-4172.212563646985
 30
0.0
 10
12778.25636565439
 20
-4172.428162507906
 30
0.0
 10
12778.71666364312
 20
-4172.651041397622
 30
0.0
 10
12779.10712706436
 20
-4172.877196796516
 30
0.0
 10
12779.42395510941
 20
-4173.1036797163
 30
0.0
 10
12779.66641864721
 20
-4173.326366766823
 30
0.0
 10
12779.83700327551
 20
-4173.540454836577
 30
0.0
 10
12779.93458360617
 20
-4173.742697016534
 30
0.0
 10
12779.97500713776
 20
-4173.883900230721
 30
0.0
 10
12779.96502823486
 20
-4173.964051764714
 30
0.0
 10
12779.96283989108
 20
-4173.981628758169
 30
0.0
  0
SPLINE
  5
3D6B64
330
18
100
AcDbEntity
  8
0
  6
ByBlock
 62
     8
370
    15
100
AcDbSpline
210
0.0
220
0.0
230
1.0
 70
     8
 71
     3
 72
    17
 73
    13
 74
     0
 42
0.0000000001
 43
0.0000000001
 40
0.0
 40
0.0
 40
0.0
 40
0.0
 40
0.0578733927975594
 40
0.1679961238431626
 40
0.2721193652036845
 40
0.3824801834252102
 40
0.4905431168370169
 40
0.5983529233202562
 40
0.7065379427289953
 40
0.8153350367822937
 40
0.9247131904843966
 40
1.0
 40
1.0
 40
1.0
 40
1.0
 10
12752.54067973961
 20
-4173.822982274486
 30
0.0
 10
12752.54433968243
 20
-4173.790947185696
 30
0.0
 10
12752.5549638428
 20
-4173.697955043997
 30
0.0
 10
12752.61391687791
 20
-4173.538946941145
 30
0.0
 10
12752.7469160626
 20
-4173.332687288124
 30
0.0
 10
12752.95141077995
 20
-4173.116046294207
 30
0.0
 10
12753.23299101637
 20
-4172.891707449823
 30
0.0
 10
12753.58481854292
 20
-4172.66889160108
 30
0.0
 10
12754.0062279027
 20
-4172.44910906546
 30
0.0
 10
12754.4987510853
 20
-4172.235031545477
 30
0.0
 10
12754.99167161211
 20
-4172.048737233492
 30
0.0
 10
12755.34536628557
 20
-4171.939108197032
 30
0.0
 10
12755.48956550476
 20
-4171.894413089516
 30
0.0
  0
LINE
  5
3D6B65
330
18
100
AcDbEntity
  8
0
  6
ByBlock
 62
     8
370
    15
100
AcDbLine
 10
12770.65494978446
 20
-4157.201180661575
 30
0.0
 11
12770.67777861769
 21
-4156.167683060879
 31
0.0
  0
SPLINE
  5
3D6B66
330
18
100
AcDbEntity
  8
0
  6
ByBlock
 62
     8
370
    15
100
AcDbSpline
210
0.0
220
0.0
230
1.0
 70
     8
 71
     3
 72
    22
 73
    18
 74
     0
 42
0.0000000001
 43
0.0000000001
 40
0.0
 40
0.0
 40
0.0
 40
0.0
 40
0.0638825242916621
 40
0.1343284628412071
 40
0.2048435113792753
 40
0.2754479047598135
 40
0.3461686108113721
 40
0.4170415416080403
 40
0.4881142924918517
 40
0.5594480330066885
 40
0.6311133591439987
 40
0.7031638599208844
 40
0.775540062633522
 40
0.8475289141614471
 40
0.9104164206332196
 40
0.9771891092476357
 40
0.9999999999999998
 40
0.9999999999999998
 40
0.9999999999999998
 40
0.9999999999999998
 10
12759.02528058921
 20
-4157.482048577298
 30
0.0
 10
12758.75399438626
 20
-4157.523137601066
 30
0.0
 10
12758.1835495105
 20
-4157.609537214479
 30
0.0
 10
12757.36480861651
 20
-4157.761762782397
 30
0.0
 10
12756.56260233176
 20
-4157.933190424772
 30
0.0
 10
12755.81129095228
 20
-4158.120219453741
 30
0.0
 10
12755.11333029075
 20
-4158.321645668745
 30
0.0
 10
12754.47231896336
 20
-4158.536986201631
 30
0.0
 10
12753.89108578454
 20
-4158.765723067669
 30
0.0
 10
12753.37218949399
 20
-4159.007647737547
 30
0.0
 10
12752.91794263397
 20
-4159.262969889996
 30
0.0
 10
12752.53049176607
 20
-4159.532516177935
 30
0.0
 10
12752.21385025708
 20
-4159.817317762075
 30
0.0
 10
12751.97923529656
 20
-4160.107550521234
 30
0.0
 10
12751.82556874791
 20
-4160.409068490773
 30
0.0
 10
12751.75037862448
 20
-4160.650235634683
 30
0.0
 10
12751.75516727982
 20
-4160.794469717607
 30
0.0
 10
12751.7563866271
 20
-4160.831196402692
 30
0.0
  0
SPLINE
  5
3D6B67
330
18
100
AcDbEntity
  8
0
  6
ByBlock
 62
     8
370
    15
100
AcDbSpline
210
0.0
220
0.0
230
1.0
 70
     8
 71
     3
 72
    23
 73
    19
 74
     0
 42
0.0000000001
 43
0.0000000001
 40
0.0
 40
0.0
 40
0.0
 40
0.0
 40
0.0180732399813233
 40
0.0807551503184571
 40
0.1434174532814159
 40
0.2081566926676284
 40
0.2761546428750472
 40
0.3467908024047606
 40
0.4185931882401814
 40
0.4904237098456256
 40
0.5619283845760279
 40
0.6331008401544448
 40
0.7039990259472565
 40
0.7746847192370855
 40
0.8452088506236222
 40
0.9156104790199631
 40
0.9859188505721256
 40
0.9999999999999998
 40
0.9999999999999998
 40
0.9999999999999998
 40
0.9999999999999998
 10
12780.85599019087
 20
-4161.054051890473
 30
0.0
 10
12780.86024039187
 20
-4161.025081249486
 30
0.0
 10
12780.87923121039
 20
-4160.895634151454
 30
0.0
 10
12780.8346034607
 20
-4160.663319721435
 30
0.0
 10
12780.7246888228
 20
-4160.369334521981
 30
0.0
 10
12780.53819130795
 20
-4160.084151435774
 30
0.0
 10
12780.27970151117
 20
-4159.804621393209
 30
0.0
 10
12779.94392610124
 20
-4159.530422144721
 30
0.0
 10
12779.53296577581
 20
-4159.264387214274
 30
0.0
 10
12779.05156799302
 20
-4159.009367518543
 30
0.0
 10
12778.50485637185
 20
-4158.766915065903
 30
0.0
 10
12777.89650688992
 20
-4158.537602334669
 30
0.0
 10
12777.22972324476
 20
-4158.321783370839
 30
0.0
 10
12776.50738590102
 20
-4158.120089552029
 30
0.0
 10
12775.73409768182
 20
-4157.932623643793
 30
0.0
 10
12774.909281439
 20
-4157.761905743583
 30
0.0
 10
12774.28101171161
 20
-4157.644334083506
 30
0.0
 10
12773.91734367244
 20
-4157.589086413522
 30
0.0
 10
12773.85666239422
 20
-4157.57986784364
 30
0.0
  0
SPLINE
  5
3D6B68
330
18
100
AcDbEntity
  8
0
  6
ByBlock
 62
     8
370
    15
100
AcDbSpline
210
0.0
220
0.0
230
1.0
 70
     8
 71
     3
 72
     9
 73
     5
 74
     0
 42
0.0000000001
 43
0.0000000001
 40
0.0
 40
0.0
 40
0.0
 40
0.0
 40
0.2952318283302154
 40
1.0
 40
1.0
 40
1.0
 40
1.0
 10
12756.44271533778
 20
-4155.877731233575
 30
0.0
 10
12756.39893143731
 20
-4155.90465010297
 30
0.0
 10
12756.2506279813
 20
-4155.995828854073
 30
0.0
 10
12756.14684836391
 20
-4156.093783807023
 30
0.0
 10
12756.07370779271
 20
-4156.16281934012
 30
0.0
  0
SPLINE
  5
3D6B69
330
18
100
AcDbEntity
  8
0
  6
ByBlock
 62
     8
370
    15
100
AcDbSpline
210
0.0
220
0.0
230
1.0
 70
     8
 71
     3
 72
    10
 73
     6
 74
     0
 42
0.0000000001
 43
0.0000000001
 40
0.0
 40
0.0
 40
0.0
 40
0.0
 40
0.2892302763455943
 40
0.8382862979562442
 40
1.0
 40
1.0
 40
1.0
 40
1.0
 10
12776.74635187768
 20
-4156.429610577355
 30
0.0
 10
12776.71147563948
 20
-4156.387319752885
 30
0.0
 10
12776.6103926098
 20
-4156.26474676664
 30
0.0
 10
12776.46087946854
 20
-4156.123149956459
 30
0.0
 10
12776.3159046169
 20
-4156.028001477975
 30
0.0
 10
12776.28292006624
 20
-4156.00635337988
 30
0.0
  0
LINE
  5
3D6B6A
330
18
100
AcDbEntity
  8
0
  6
ByBlock
 62
     8
370
    15
100
AcDbLine
 10
12753.21952178338
 20
-4157.11911440854
 30
0.0
 11
12753.21150199881
 21
-4159.106392914392
 31
0.0
  0
LINE
  5
3D6B6B
330
18
100
AcDbEntity
  8
0
  6
ByBlock
 62
     8
370
    15
100
AcDbLine
 10
12779.41610733437
 20
-4159.21054298695
 30
0.0
 11
12779.42370909954
 21
-4157.326848429375
 31
0.0
  0
SPLINE
  5
3D6B6D
330
18
100
AcDbEntity
  8
0
  6
ByBlock
 62
     8
370
    15
100
AcDbSpline
210
0.0
220
0.0
230
1.0
 70
     8
 71
     3
 72
    14
 73
    10
 74
     0
 42
0.0000000001
 43
0.0000000001
 40
0.0
 40
0.0
 40
0.0
 40
0.0
 40
0.0119789066826493
 40
0.1951539053522686
 40
0.3785732326782268
 40
0.5683895051008534
 40
0.7677657888414268
 40
0.9746425862384427
 40
1.0
 40
1.0
 40
1.0
 40
1.0
 10
12751.76122245684
 20
-4157.898667619714
 30
0.0
 10
12751.76047294097
 20
-4157.905244850169
 30
0.0
 10
12751.74826223141
 20
-4158.012397551503
 30
0.0
 10
12751.79690687697
 20
-4158.221808523469
 30
0.0
 10
12751.90889414304
 20
-4158.51510927997
 30
0.0
 10
12752.09868530021
 20
-4158.800144669082
 30
0.0
 10
12752.3663495334
 20
-4159.078462282113
 30
0.0
 10
12752.59038550584
 20
-4159.272837641347
 30
0.0
 10
12752.74528899225
 20
-4159.371016934421
 30
0.0
 10
12752.76220274401
 20
-4159.381737030074
 30
0.0
  0
SPLINE
  5
3D6B6E
330
18
100
AcDbEntity
  8
0
  6
ByBlock
 62
     8
370
    15
100
AcDbSpline
210
0.0
220
0.0
230
1.0
 70
     8
 71
     3
 72
    13
 73
     9
 74
     0
 42
0.0000000001
 43
0.0000000001
 40
0.0
 40
0.0
 40
0.0
 40
0.0
 40
0.1363523235364677
 40
0.3476758316408973
 40
0.5575692492779487
 40
0.740357578823009
 40
0.934420237424762
 40
1.0
 40
1.0
 40
1.0
 40
1.0
 10
12779.86272328684
 20
-4159.487573944965
 30
0.0
 10
12779.9477874175
 20
-4159.429540071765
 30
0.0
 10
12780.16468685568
 20
-4159.281563311233
 30
0.0
 10
12780.4317124162
 20
-4159.027596169269
 30
0.0
 10
12780.66241292834
 20
-4158.736710881949
 30
0.0
 10
12780.80906201391
 20
-4158.434514321141
 30
0.0
 10
12780.87908938656
 20
-4158.193815157934
 30
0.0
 10
12780.8715182575
 20
-4158.050691119359
 30
0.0
 10
12780.86960596272
 20
-4158.014541246675
 30
0.0
  0
LINE
  5
3D6B6F
330
18
100
AcDbEntity
  8
0
  6
ByBlock
 62
     8
370
    15
100
AcDbLine
 10
12780.87858238399
 20
-4158.003896461183
 30
0.0
 11
12780.95440952026
 21
-4139.214160055359
 31
0.0
  0
LINE
  5
3D6B70
330
18
100
AcDbEntity
  8
0
  6
ByBlock
 62
     8
370
    15
100
AcDbLine
 10
12751.83464701123
 20
-4139.096645469141
 30
0.0
 11
12751.75881987495
 21
-4157.886381874966
 31
0.0
  0
SPLINE
  5
3D6B71
330
18
100
AcDbEntity
  8
0
  6
ByBlock
 62
     8
370
    15
100
AcDbSpline
210
0.0
220
0.0
230
1.0
 70
     8
 71
     3
 72
    15
 73
    11
 74
     0
 42
0.0000000001
 43
0.0000000001
 40
0.0
 40
0.0
 40
0.0
 40
0.0
 40
0.1309760114738665
 40
0.2661160855491862
 40
0.4006357817764965
 40
0.5344017302583567
 40
0.667364415083399
 40
0.7997946278103525
 40
0.9324424155662484
 40
1.0
 40
1.0
 40
1.0
 40
1.0
 10
12777.57400440108
 20
-4156.124748979823
 30
0.0
 10
12777.76039104656
 20
-4156.19268597598
 30
0.0
 10
12778.13909004597
 20
-4156.33071985927
 30
0.0
 10
12778.6289199238
 20
-4156.549268597611
 30
0.0
 10
12779.05942811446
 20
-4156.774654112203
 30
0.0
 10
12779.4160748282
 20
-4157.002299019375
 30
0.0
 10
12779.70005078798
 20
-4157.228612335824
 30
0.0
 10
12779.90676481491
 20
-4157.448211101138
 30
0.0
 10
12780.02917916878
 20
-4157.624518131084
 30
0.0
 10
12780.06086897072
 20
-4157.719912702869
 30
0.0
 10
12780.07156242239
 20
-4157.752102782322
 30
0.0
  0
SPLINE
  5
3D6B72
330
18
100
AcDbEntity
  8
0
  6
ByBlock
 62
     8
370
    15
100
AcDbSpline
210
0.0
220
0.0
230
1.0
 70
     8
 71
     3
 72
    16
 73
    12
 74
     0
 42
0.0000000001
 43
0.0000000001
 40
0.0
 40
0.0
 40
0.0
 40
0.0
 40
0.0401589896098848
 40
0.1604504645698718
 40
0.2882900806966032
 40
0.411467501327526
 40
0.5336878717614896
 40
0.6560778961985813
 40
0.7791009891116155
 40
0.9028086272468481
 40
1.0
 40
1.0
 40
1.0
 40
1.0
 10
12752.54538423195
 20
-4157.705203793075
 30
0.0
 10
12752.54934113958
 20
-4157.685163571583
 30
0.0
 10
12752.56515049319
 20
-4157.605095251137
 30
0.0
 10
12752.6558884169
 20
-4157.446283257935
 30
0.0
 10
12752.82864462558
 20
-4157.230260585214
 30
0.0
 10
12753.0835176616
 20
-4157.00416106673
 30
0.0
 10
12753.40674536602
 20
-4156.779726825095
 30
0.0
 10
12753.80010061789
 20
-4156.557515719083
 30
0.0
 10
12754.26476835625
 20
-4156.340060079706
 30
0.0
 10
12754.75188252825
 20
-4156.143390120692
 30
0.0
 10
12755.11158244728
 20
-4156.024543607747
 30
0.0
 10
12755.26984358557
 20
-4155.972253397421
 30
0.0
  0
SPLINE
  5
3D6B73
330
18
100
AcDbEntity
  8
0
  6
ByBlock
 62
     8
370
    15
100
AcDbSpline
210
0.0
220
0.0
230
1.0
 70
     8
 71
     3
 72
    22
 73
    18
 74
     0
 42
0.0000000001
 43
0.0000000001
 40
0.0
 40
0.0
 40
0.0
 40
0.0
 40
0.0101157357643892
 40
0.0791153154925067
 40
0.1482069217931
 40
0.2197081739593476
 40
0.2948105570474804
 40
0.3727382824465496
 40
0.4518662139708119
 40
0.5309788890071483
 40
0.6097278851096104
 40
0.6881135992764244
 40
0.7662011404343359
 40
0.8440580185097292
 40
0.9217396948771902
 40
0.9992884361052398
 40
1.0
 40
1.0
 40
1.0
 40
1.0
 10
12780.94939013954
 20
-4139.226380198779
 30
0.0
 10
12780.95118177441
 20
-4139.211637733494
 30
0.0
 10
12780.9651941766
 20
-4139.096336699609
 30
0.0
 10
12780.91695740698
 20
-4138.8787591698
 30
0.0
 10
12780.80439926804
 20
-4138.585379835607
 30
0.0
 10
12780.61357226726
 20
-4138.30058773578
 30
0.0
 10
12780.35097565409
 20
-4138.021319861134
 30
0.0
 10
12780.01090771846
 20
-4137.747484009067
 30
0.0
 10
12779.59590045722
 20
-4137.481993449904
 30
0.0
 10
12779.11075677827
 20
-4137.227639771145
 30
0.0
 10
12778.56051656727
 20
-4136.985913447349
 30
0.0
 10
12777.94893561196
 20
-4136.757306660378
 30
0.0
 10
12777.27864349167
 20
-4136.542385353867
 30
0.0
 10
12776.5546563314
 20
-4136.340981104224
 30
0.0
 10
12775.77368204517
 20
-4136.156223206726
 30
0.0
 10
12775.23143926523
 20
-4136.03770628581
 30
0.0
 10
12774.93912611146
 20
-4135.985591146819
 30
0.0
 10
12774.93646832108
 20
-4135.985117301856
 30
0.0
  0
SPLINE
  5
3D6B74
330
18
100
AcDbEntity
  8
0
  6
ByBlock
 62
     8
370
    15
100
AcDbSpline
210
0.0
220
0.0
230
1.0
 70
     8
 71
     3
 72
    22
 73
    18
 74
     0
 42
0.0000000001
 43
0.0000000001
 40
0.0
 40
0.0
 40
0.0
 40
0.0
 40
0.0096906100089418
 40
0.0840672474351855
 40
0.1585183042805217
 40
0.2330656733625628
 40
0.3077384574494156
 40
0.3825753792431884
 40
0.4576278690709431
 40
0.5329616290337965
 40
0.608651168959857
 40
0.6847489720699911
 40
0.7611740053132513
 40
0.8370818442967728
 40
0.903187145534995
 40
0.9733698092767186
 40
1.0
 40
1.0
 40
1.0
 40
1.0
 10
12758.35372336923
 20
-4135.833819840514
 30
0.0
 10
12758.31515138068
 20
-4135.839889436488
 30
0.0
 10
12757.9805345813
 20
-4135.892543936691
 30
0.0
 10
12757.38946400925
 20
-4136.007614150098
 30
0.0
 10
12756.58859815325
 20
-4136.179292024166
 30
0.0
 10
12755.84206253744
 20
-4136.367757590527
 30
0.0
 10
12755.14830886957
 20
-4136.57023120732
 30
0.0
 10
12754.51197684771
 20
-4136.786665619594
 30
0.0
 10
12753.93557388468
 20
-4137.016446418061
 30
0.0
 10
12753.42171219077
 20
-4137.259415313358
 30
0.0
 10
12752.97266991075
 20
-4137.515824955874
 30
0.0
 10
12752.5906338117
 20
-4137.786552282237
 30
0.0
 10
12752.27972686146
 20
-4138.072593896857
 30
0.0
 10
12752.05129091414
 20
-4138.363912302056
 30
0.0
 10
12751.90382891211
 20
-4138.6659944642
 30
0.0
 10
12751.83354279806
 20
-4138.911137325187
 30
0.0
 10
12751.84170276057
 20
-4139.058713376342
 30
0.0
 10
12751.84394731125
 20
-4139.099306936052
 30
0.0
  0
ARC
  5
3D6B75
330
18
100
AcDbEntity
  8
0
  6
ByBlock
 62
     8
370
    15
100
AcDbCircle
 10
12755.95153557872
 20
-4156.472574261368
 30
0.0
 40
0.1120000000000221
100
AcDbArc
 50
310.5743099038889
 51
358.1285074143527
  0
LINE
  5
3D6B76
330
18
100
AcDbEntity
  8
0
  6
ByBlock
 62
     8
370
    15
100
AcDbLine
 10
12756.06346320324
 20
-4156.476404882582
 30
0.0
 11
12756.07783338322
 21
-4156.036552364758
 31
0.0
  0
SPLINE
  5
3D6B77
330
18
100
AcDbEntity
  8
0
  6
ByBlock
 62
     8
370
    15
100
AcDbSpline
210
0.0
220
0.0
230
1.0
 70
     8
 71
     3
 72
     9
 73
     5
 74
     0
 42
0.0000000001
 43
0.0000000001
 40
0.0
 40
0.0
 40
0.0
 40
0.0
 40
0.733512304030625
 40
1.0
 40
1.0
 40
1.0
 40
1.0
 10
12755.86854310781
 20
-4156.707458798616
 30
0.0
 10
12755.90366793771
 20
-4156.670855725746
 30
0.0
 10
12755.95155374644
 20
-4156.620954622969
 30
0.0
 10
12756.00905919746
 20
-4156.570966510062
 30
0.0
 10
12756.02438369261
 20
-4156.557645293027
 30
0.0
  0
ARC
  5
3D6B78
330
18
100
AcDbEntity
  8
0
  6
ByBlock
 62
     8
370
    15
100
AcDbCircle
 10
12776.84620973925
 20
-4156.699875909942
 30
0.0
 40
0.1120000000000313
100
AcDbArc
 50
180.939462574824
 51
222.7769800204002
  0
LINE
  5
3D6B79
330
18
100
AcDbEntity
  8
0
  6
ByBlock
 62
     8
370
    15
100
AcDbLine
 10
12776.72706112148
 20
-4156.265472325945
 30
0.0
 11
12776.73421332579
 21
-4156.701711758137
 31
0.0
  0
LINE
  5
3D6B7A
330
18
100
AcDbEntity
  8
0
  6
ByBlock
 62
     8
370
    15
100
AcDbLine
 10
12776.76400161916
 20
-4156.775940294199
 30
0.0
 11
12776.8471094029
 21
-4156.874303232556
 31
0.0
  0
ARC
  5
3D6B7B
330
18
100
AcDbEntity
  8
0
  6
ByBlock
 62
     8
370
    15
100
AcDbCircle
 10
12755.78586964749
 20
-4156.631900455664
 30
0.0
 40
0.1119999999999981
100
AcDbArc
 50
279.7504599478787
 51
317.5747092658551
  0
ARC
  5
3D6B7C
330
18
100
AcDbEntity
  8
0
  6
ByBlock
 62
     8
370
    15
100
AcDbCircle
 10
12776.93607651876
 20
-4156.806268167977
 30
0.0
 40
0.1120000000000126
100
AcDbArc
 50
217.4057831669453
 51
259.0816596656289
  0
SPLINE
  5
3D6B7D
330
18
100
AcDbEntity
  8
0
  6
ByBlock
 62
     8
370
    15
100
AcDbSpline
210
0.0
220
0.0
230
1.0
 70
     8
 71
     3
 72
    15
 73
    11
 74
     0
 42
0.0000000001
 43
0.0000000001
 40
0.0
 40
0.0
 40
0.0
 40
0.0
 40
0.1088218023562931
 40
0.2405426597611201
 40
0.3678430552519043
 40
0.5025339138667159
 40
0.6421279979325469
 40
0.7841708162689455
 40
0.9273600694710664
 40
1.0
 40
1.0
 40
1.0
 40
1.0
 10
12753.12874902424
 20
-4157.19174334136
 30
0.0
 10
12753.12908897888
 20
-4157.188866905744
 30
0.0
 10
12753.12984042385
 20
-4157.182508754542
 30
0.0
 10
12753.20422562546
 20
-4157.120478829866
 30
0.0
 10
12753.35155120381
 20
-4157.05773449882
 30
0.0
 10
12753.56025350815
 20
-4156.998626379514
 30
0.0
 10
12753.82654494239
 20
-4156.950021100667
 30
0.0
 10
12754.1363403658
 20
-4156.916317545138
 30
0.0
 10
12754.41715710362
 20
-4156.902200199496
 30
0.0
 10
12754.58868174242
 20
-4156.90216240497
 30
0.0
 10
12754.6464104408
 20
-4156.902149684764
 30
0.0
  0
LINE
  5
3D6B7E
330
18
100
AcDbEntity
  8
0
  6
ByBlock
 62
     8
370
    15
100
AcDbLine
 10
12754.6464104408
 20
-4156.902149684764
 30
0.0
 11
12755.11982723162
 21
-4156.906052653813
 31
0.0
  0
ARC
  5
3D6B7F
330
18
100
AcDbEntity
  8
0
  6
ByBlock
 62
     8
370
    15
100
AcDbCircle
 10
12755.12075065342
 20
-4156.794056434654
 30
0.0
 40
0.1120000000000199
100
AcDbArc
 50
269.5276496484186
 51
288.9853639299351
  0
ARC
  5
3D6B80
330
18
100
AcDbEntity
  8
0
  6
ByBlock
 62
     8
370
    15
100
AcDbCircle
 10
12777.57813988978
 20
-4156.979200892554
 30
0.0
 40
0.1119999999999896
100
AcDbArc
 50
249.269956626794
 51
269.5276496484224
  0
LINE
  5
3D6B81
330
18
100
AcDbEntity
  8
0
  6
ByBlock
 62
     8
370
    15
100
AcDbLine
 10
12777.57721665892
 20
-4157.091197113287
 30
0.0
 11
12778.05063344975
 21
-4157.095100082335
 31
0.0
  0
SPLINE
  5
3D6B82
330
18
100
AcDbEntity
  8
0
  6
ByBlock
 62
     8
370
    15
100
AcDbSpline
210
0.0
220
0.0
230
1.0
 70
     8
 71
     3
 72
    15
 73
    11
 74
     0
 42
0.0000000001
 43
0.0000000001
 40
0.0
 40
0.0
 40
0.0
 40
0.0
 40
0.0767828436865086
 40
0.2234902941288282
 40
0.3700269261199712
 40
0.5156618768779877
 40
0.6594635978269697
 40
0.7995536445816541
 40
0.932941748872029
 40
1.0
 40
1.0
 40
1.0
 40
1.0
 10
12778.05063344975
 20
-4157.095100082335
 30
0.0
 10
12778.11025508788
 20
-4157.096113144624
 30
0.0
 10
12778.28379460273
 20
-4157.099061844854
 30
0.0
 10
12778.56518649147
 20
-4157.118300834111
 30
0.0
 10
12778.87222615711
 20
-4157.157866053903
 30
0.0
 10
12779.13559237431
 20
-4157.212582384106
 30
0.0
 10
12779.3399655021
 20
-4157.278420163089
 30
0.0
 10
12779.47251465151
 20
-4157.345320196529
 30
0.0
 10
12779.51565321167
 20
-4157.396628150522
 30
0.0
 10
12779.51427689087
 20
-4157.395292481499
 30
0.0
 10
12779.51381645015
 20
-4157.394845640605
 30
0.0
  0
SPLINE
  5
3D6B83
330
18
100
AcDbEntity
  8
0
  6
ByBlock
 62
     8
370
    15
100
AcDbSpline
210
0.0
220
0.0
230
1.0
 70
     8
 71
     3
 72
    11
 73
     7
 74
     0
 42
0.0000000001
 43
0.0000000001
 40
0.0
 40
0.0
 40
0.0
 40
0.0
 40
0.1268360653517458
 40
0.5085618913312472
 40
0.9550746010390362
 40
1.0
 40
1.0
 40
1.0
 40
1.0
 10
12752.8052163375
 20
-4157.563252710651
 30
0.0
 10
12752.80456923441
 20
-4157.563978729766
 30
0.0
 10
12752.80197460987
 20
-4157.566889776029
 30
0.0
 10
12752.82108341544
 20
-4157.551020898653
 30
0.0
 10
12752.86917244143
 20
-4157.548043433742
 30
0.0
 10
12752.88295342953
 20
-4157.558527638431
 30
0.0
 10
12752.88421323494
 20
-4157.559486064468
 30
0.0
  0
SPLINE
  5
3D6B84
330
18
100
AcDbEntity
  8
0
  6
ByBlock
 62
     8
370
    15
100
AcDbSpline
210
0.0
220
0.0
230
1.0
 70
     8
 71
     3
 72
    10
 73
     6
 74
     0
 42
0.0000000001
 43
0.0000000001
 40
0.0
 40
0.0
 40
0.0
 40
0.0
 40
0.0189253556208478
 40
0.690461868069108
 40
1.0
 40
1.0
 40
1.0
 40
1.0
 10
12779.72243535441
 20
-4157.778812017608
 30
0.0
 10
12779.72278057493
 20
-4157.778539936789
 30
0.0
 10
12779.73537540332
 20
-4157.768613495564
 30
0.0
 10
12779.78696608667
 20
-4157.779830034217
 30
0.0
 10
12779.78551496616
 20
-4157.780640967259
 30
0.0
 10
12779.78505712421
 20
-4157.78089682414
 30
0.0
  0
ARC
  5
3D6B85
330
18
100
AcDbEntity
  8
0
  6
ByBlock
 62
     8
370
    15
100
AcDbCircle
 10
12780.39816083439
 20
-4181.667689763474
 30
0.0
 40
1.480724151166489
100
AcDbArc
 50
329.0046461843748
 51
332.1843415202578
  0
LWPOLYLINE
  5
3D6B86
330
18
100
AcDbEntity
  8
0
  6
ByBlock
 62
     8
370
    15
100
AcDbPolyline
 90
       43
 70
   128
 43
0.0
 10
12781.77327372195
 20
-4180.89720769266
 10
12781.61795273197
 20
-4180.605402534872
 10
12781.3788300459
 20
-4180.316993611028
 10
12781.05720845295
 20
-4180.033551006249
 10
12780.65483921465
 20
-4179.756617883263
 10
12780.17391223244
 20
-4179.487701724098
 10
12779.61704614434
 20
-4179.22826660182
 10
12778.98727219623
 20
-4178.9797249355
 10
12778.28801808554
 20
-4178.743429643906
 10
12777.52309278405
 20
-4178.520667238173
 10
12776.6966578392
 20
-4178.31265027103
 10
12775.81321421864
 20
-4178.120511377039
 10
12774.8775709586
 20
-4177.945296364876
 10
12773.89482148782
 20
-4177.787959500671
 10
12772.87031590785
 20
-4177.649356896214
 10
12771.80963199267
 20
-4177.53024334421
 10
12770.71854372735
 20
-4177.431267005483
 10
12769.60299120986
 20
-4177.352967033086
 10
12768.46904738531
 20
-4177.295769840451
 10
12767.32288550739
 20
-4177.259986173438
 10
12766.17074530493
 20
-4177.245811363341
 10
12765.0188990237
 20
-4177.25332265321
 10
12763.87361735444
 20
-4177.282478650975
 10
12762.74113534504
 20
-4177.333120910211
 10
12761.62761767274
 20
-4177.404973909797
 10
12760.53912716756
 20
-4177.497646124263
 10
12759.48158909721
 20
-4177.610633452913
 10
12758.46076055212
 20
-4177.74332056325
 10
12757.48219938688
 20
-4177.89498489042
 10
12756.55123260365
 20
-4178.064801164015
 10
12755.67292847723
 20
-4178.251844635851
 10
12754.85206847884
 20
-4178.455097231777
 10
12754.09312087416
 20
-4178.673452121451
 10
12753.40021831001
 20
-4178.905720980697
 10
12752.77713240954
 20
-4179.150639234435
 10
12752.22725553053
 20
-4179.406873353424
 10
12751.7535804106
 20
-4179.673028532561
 10
12751.35868714921
 20
-4179.947655897694
 10
12751.04472494322
 20
-4180.22926013466
 10
12750.81340207881
 20
-4180.516308449721
 10
12750.66597915961
 20
-4180.807237994131
 10
12750.60325804429
 20
-4181.100464982111
 10
12750.60086383353
 20
-4181.166201346104
  0
LINE
  5
3D6B87
330
18
100
AcDbEntity
  8
0
  6
ByBlock
 62
     8
370
    15
100
AcDbLine
 10
12781.77108850551
 20
-4181.438697757935
 30
0.0
 11
12781.77327372195
 21
-4180.89720769266
 31
0.0
  0
ARC
  5
3D6B88
330
18
100
AcDbEntity
  8
0
  6
ByBlock
 62
     8
370
    15
100
AcDbCircle
 10
12780.57458088535
 20
-4181.901102040367
 30
0.0
 40
1.282750250640354
100
AcDbArc
 50
21.12960422173561
 51
24.62859987911039
  0
LINE
  5
3D6B89
330
18
100
AcDbEntity
  8
0
  6
ByBlock
 62
     8
370
    15
100
AcDbLine
 10
12781.73954442984
 20
-4181.63728167344
 30
0.0
 11
12781.74063704213
 21
-4181.366535632196
 31
0.0
  0
LWPOLYLINE
  5
3D6B8A
330
18
100
AcDbEntity
  8
0
  6
ByBlock
 62
     8
370
    15
100
AcDbPolyline
 90
       83
 70
   128
 43
0.0
 10
12781.73954442984
 20
-4181.63728167344
 10
12781.56477848663
 20
-4181.347907312377
 10
12781.30748387092
 20
-4181.062263597716
 10
12780.96904604241
 20
-4180.781886886361
 10
12780.55128337404
 20
-4180.50828525444
 10
12780.05644457192
 20
-4180.242930496962
 10
12779.48718943153
 20
-4179.987249657623
 10
12778.84658201289
 20
-4179.742618057338
 10
12778.13806716562
 20
-4179.510351653572
 10
12777.36545435449
 20
-4179.291699459855
 10
12776.53290133854
 20
-4179.08783809183
 10
12775.64488551826
 20
-4178.899863551976
 10
12774.7061838731
 20
-4178.728787074652
 10
12773.72184418059
 20
-4178.575528771523
 10
12772.69716132191
 20
-4178.440913180734
 10
12771.63764788818
 20
-4178.3256642371
 10
12770.54900128737
 20
-4178.230401809323
 10
12769.43707841242
 20
-4178.155638299504
 10
12768.30785917354
 20
-4178.101775948775
 10
12767.16741763853
 20
-4178.069104471616
 10
12766.02188809915
 20
-4178.057799446255
 10
12764.87743204212
 20
-4178.067921776397
 10
12763.74020505493
 20
-4178.099417152416
 10
12762.61632429997
 20
-4178.152115783205
 10
12761.51183484639
 20
-4178.22573451233
 10
12760.43267695897
 20
-4178.319877346265
 10
12759.38465580112
 20
-4178.434037864297
 10
12758.37340836369
 20
-4178.567602137519
 10
12757.40437380143
 20
-4178.719851409933
 10
12756.48276438716
 20
-4178.88996717838
 10
12755.61353711527
 20
-4179.077034416026
 10
12754.80136728149
 20
-4179.280046407966
 10
12754.05062295909
 20
-4179.497911721972
 10
12753.36534383889
 20
-4179.729458422532
 10
12752.74921362882
 20
-4179.9734408915
 10
12752.20554808805
 20
-4180.2285469106
 10
12751.73727160743
 20
-4180.493404383571
 10
12751.34690105363
 20
-4180.766588650098
 10
12751.03653792926
 20
-4181.046630267275
 10
12750.8078511238
 20
-4181.332023045962
 10
12750.66207011892
 20
-4181.621231807604
 10
12750.59998021556
 20
-4181.912701088631
 10
12750.62191363959
 20
-4182.204863079451
 10
12750.72775416433
 20
-4182.496146273307
 10
12750.91693130383
 20
-4182.784984029182
 10
12751.18842810518
 20
-4183.069822648334
 10
12751.54078471894
 20
-4183.3491301475
 10
12751.97210411932
 20
-4183.621404118888
 10
12752.48006822841
 20
-4183.885180041661
 10
12753.06194467702
 20
-4184.139039183783
 10
12753.71460193629
 20
-4184.381616173888
 10
12754.4345317862
 20
-4184.611606101736
 10
12755.21786029385
 20
-4184.827771789878
 10
12756.0603744445
 20
-4185.028951061403
 10
12756.95754269804
 20
-4185.214061297898
 10
12757.90453952511
 20
-4185.382106822902
 10
12758.89627113241
 20
-4185.532184167413
 10
12759.92740338359
 20
-4185.663485757666
 10
12760.99239011355
 20
-4185.775305467958
 10
12762.0855023896
 20
-4185.867041787542
 10
12763.20086114366
 20
-4185.938201281286
 10
12764.33246710356
 20
-4185.988401496127
 10
12765.47423339435
 20
-4186.017372027756
 10
12766.62001887725
 20
-4186.024957189195
 10
12767.76366067552
 20
-4186.011116278941
 10
12768.89900730528
 20
-4185.97592358815
 10
12770.01995174102
 20
-4185.919568407252
 10
12771.12046553214
 20
-4185.842353977387
 10
12772.19462795528
 20
-4185.744695602973
 10
12773.23666281121
 20
-4185.627118561359
 10
12774.24096419573
 20
-4185.490255123652
 10
12775.20212983157
 20
-4185.334841637874
 10
12776.11499112067
 20
-4185.161713989288
 10
12776.97463742378
 20
-4184.971803545048
 10
12777.77644568269
 20
-4184.766131281118
 10
12778.51610103138
 20
-4184.545803962659
 10
12779.18962654628
 20
-4184.312006410226
 10
12779.79340029864
 20
-4184.065996320952
 10
12780.32417255327
 20
-4183.809096963215
 10
12780.77909026763
 20
-4183.542689931463
 10
12781.15570486775
 20
-4183.268208295125
 10
12781.45199263515
 20
-4182.98712845515
 10
12781.66635838421
 20
-4182.700962195236
  0
LWPOLYLINE
  5
3D6B8B
330
18
100
AcDbEntity
  8
0
  6
ByBlock
 62
     8
370
    15
100
AcDbPolyline
 90
        9
 70
   128
 43
0.0
 10
12781.20310664759
 20
-4181.6972678246
 10
12781.20313654581
 20
-4181.691236951887
 10
12781.20813434709
 20
-4181.685360970423
 10
12781.21787749045
 20
-4181.679901986614
 10
12781.23192972931
 20
-4181.675103555879
 10
12781.24966588675
 20
-4181.671179716025
 10
12781.27029441729
 20
-4181.668305565113
 10
12781.29289448049
 20
-4181.66660925557
 10
12781.31645805977
 20
-4181.66616649009
  0
ARC
  5
3D6B8C
330
18
100
AcDbEntity
  8
0
  6
ByBlock
 62
     8
370
    15
100
AcDbCircle
 10
12780.23934407799
 20
-4182.100637705532
 30
0.0
 40
1.044770573573262
100
AcDbArc
 50
329.4168942565212
 51
22.71109316177291
  0
LWPOLYLINE
  5
3D6B8D
330
18
100
AcDbEntity
  8
0
  6
ByBlock
 62
     8
370
    15
100
AcDbPolyline
 90
        9
 70
   128
 43
0.0
 10
12781.24772428636
 20
-4182.665138019869
 10
12781.22424831845
 20
-4182.664307448336
 10
12781.20190717538
 20
-4182.662240632001
 10
12781.18169731933
 20
-4182.65902979899
 10
12781.16452092174
 20
-4182.654818131108
 10
12781.15114454915
 20
-4182.649793571888
 10
12781.14216323281
 20
-4182.644180218847
 10
12781.13797922819
 20
-4182.638228540229
 10
12781.13877879619
 20
-4182.632204012868
  0
LINE
  5
3D6B8E
330
18
100
AcDbEntity
  8
0
  6
ByBlock
 62
     8
370
    15
100
AcDbLine
 10
12781.55760606396
 20
-4182.667692764463
 30
0.0
 11
12781.24772428636
 21
-4182.665138019869
 31
0.0
  0
LWPOLYLINE
  5
3D6B8F
330
18
100
AcDbEntity
  8
0
  6
ByBlock
 62
     8
370
    15
100
AcDbPolyline
 90
        9
 70
   128
 43
0.0
 10
12781.66635838421
 20
-4182.700962195236
 10
12781.66742878143
 20
-4182.694899174117
 10
12781.66344237309
 20
-4182.688896562354
 10
12781.65457978486
 20
-4182.683225907623
 10
12781.64124076575
 20
-4182.678143774793
 10
12781.62402934226
 20
-4182.67388002063
 10
12781.60372425755
 20
-4182.670627609494
 10
12781.5812441136
 20
-4182.66853358221
 10
12781.55760606396
 20
-4182.667692764463
  0
LWPOLYLINE
  5
3D6B90
330
18
100
AcDbEntity
  8
0
  6
ByBlock
 62
     8
370
    15
100
AcDbPolyline
 90
        9
 70
   128
 43
0.0
 10
12781.62633983736
 20
-4181.668721234682
 10
12781.65006672377
 20
-4181.668270905578
 10
12781.67280937259
 20
-4181.666549706557
 10
12781.69353874212
 20
-4181.663635593952
 10
12781.71131704921
 20
-4181.659660304075
 10
12781.72533989512
 20
-4181.654803749454
 10
12781.73497232574
 20
-4181.649285572386
 10
12781.73977975968
 20
-4181.643355459307
 10
12781.73954442984
 20
-4181.63728167344
  0
LINE
  5
3D6B91
330
18
100
AcDbEntity
  8
0
  6
ByBlock
 62
     8
370
    15
100
AcDbLine
 10
12781.62633983736
 20
-4181.668721234682
 30
0.0
 11
12781.31645805977
 21
-4181.66616649009
 31
0.0
  0
LWPOLYLINE
  5
3D6B92
330
18
100
AcDbEntity
  8
0
  6
ByBlock
 62
     8
370
    15
100
AcDbPolyline
 90
       82
 70
   128
 43
0.0
 10
12752.22371751183
 20
-4181.926087593995
 10
12752.24678681398
 20
-4182.202908615892
 10
12752.35390207269
 20
-4182.478758829851
 10
12752.54441776353
 20
-4182.75197923344
 10
12752.81718847339
 20
-4183.020926717197
 10
12753.17057450063
 20
-4183.28398366908
 10
12753.60245054752
 20
-4183.539568136334
 10
12754.11021761099
 20
-4183.78614299973
 10
12754.69082425286
 20
-4184.022225324851
 10
12755.34077747286
 20
-4184.246395162239
 10
12756.05616713505
 20
-4184.457304525744
 10
12756.83269363259
 20
-4184.65368480178
 10
12757.66568400741
 20
-4184.834355127267
 10
12758.55013010817
 20
-4184.998228954487
 10
12759.48071319954
 20
-4185.144320371266
 10
12760.45183531375
 20
-4185.271751008674
 10
12761.4576565029
 20
-4185.379754603659
 10
12762.49212819849
 20
-4185.467681263597
 10
12763.54902808058
 20
-4185.535002541217
 10
12764.62200064163
 20
-4185.581313364838
 10
12765.70459239546
 20
-4185.606335254297
 10
12766.79029265697
 20
-4185.609917721025
 10
12767.8725719121
 20
-4185.59203938229
 10
12768.94492107969
 20
-4185.552807486976
 10
12770.0008910281
 20
-4185.492458241358
 10
12771.0341310872
 20
-4185.41135420095
 10
12772.03842751369
 20
-4185.30998352375
 10
12773.00773952184
 20
-4185.188955745798
 10
12773.93623809075
 20
-4185.048998909489
 10
12774.81833946088
 20
-4184.890954254374
 10
12775.64873719897
 20
-4184.715772757936
 10
12776.42243870895
 20
-4184.524507723488
 10
12777.1347911582
 20
-4184.318309541551
 10
12777.78150912373
 20
-4184.098418204654
 10
12778.35870324462
 20
-4183.866156362401
 10
12778.86290272676
 20
-4183.622920730002
 10
12779.2910746731
 20
-4183.370174135585
 10
12779.64064451172
 20
-4183.109436778631
 10
12779.90951022579
 20
-4182.842276572931
 10
12780.09605443837
 20
-4182.57030033623
 10
12780.19915449418
 20
-4182.295143758216
 10
12780.21819147616
 20
-4182.018461683843
 10
12780.15305089535
 20
-4181.74191808701
 10
12780.00412337447
 20
-4181.467176135579
 10
12779.77230533777
 20
-4181.19588816504
 10
12779.45899134099
 20
-4180.929685824288
 10
12779.06606538075
 20
-4180.670169888822
 10
12778.59589003518
 20
-4180.418901261253
 10
12778.05129357818
 20
-4180.177391090699
 10
12777.43555077684
 20
-4179.947091704505
 10
12776.75236467674
 20
-4179.729388346009
 10
12776.0058453044
 20
-4179.525590221976
 10
12775.20048200243
 20
-4179.336923093354
 10
12774.34111684418
 20
-4179.164521342991
 10
12773.4329194573
 20
-4179.009422315686
 10
12772.48135157367
 20
-4178.872558312851
 10
12771.49213547658
 20
-4178.754752608781
 10
12770.47122127232
 20
-4178.656713595501
 10
12769.42474852189
 20
-4178.579031274801
 10
12768.35901083215
 20
-4178.522172444851
 10
12767.28041753673
 20
-4178.486479320404
 10
12766.19545558648
 20
-4178.472166292947
 10
12765.11065003282
 20
-4178.479319604927
 10
12764.03252487562
 20
-4178.507896229048
 10
12762.96756458349
 20
-4178.557724348957
 10
12761.92217316778
 20
-4178.628504085706
 10
12760.90263857123
 20
-4178.719810129828
 10
12759.91509188463
 20
-4178.831093000926
 10
12758.96547181929
 20
-4178.961683542225
 10
12758.05949079877
 20
-4179.110796630549
 10
12757.20259712135
 20
-4179.277535119905
 10
12756.39994269399
 20
-4179.460896224694
 10
12755.65635758172
 20
-4179.659777427183
 10
12754.97631099006
 20
-4179.87298240612
 10
12754.36389401146
 20
-4180.099229139528
 10
12753.82279097283
 20
-4180.337156849668
 10
12753.35625380204
 20
-4180.585334568685
 10
12752.96708995695
 20
-4180.842269749593
 10
12752.65763989318
 20
-4181.106417256453
 10
12752.42976392509
 20
-4181.376188332246
 10
12752.28483214569
 20
-4181.649960605991
 10
12752.22371751183
 20
-4181.926087593995
  0
LINE
  5
3D6B95
330
18
100
AcDbEntity
  8
0
  6
ByBlock
 62
     8
370
    15
100
AcDbLine
 10
12781.74063704213
 20
-4181.366535632196
 30
0.0
 11
12781.74139582211
 21
-4181.369885154761
 31
0.0
  0
LWPOLYLINE
  5
3D6B96
330
18
100
AcDbEntity
  8
0
  6
ByBlock
 62
     8
370
    15
100
AcDbPolyline
 90
        6
 70
   128
 43
0.0
 10
12781.7410278514
 20
-4181.460998173387
 10
12781.74195602783
 20
-4181.460748234271
 10
12781.75602389521
 20
-4181.455980485601
 10
12781.7658233201
 20
-4181.450552818228
 10
12781.77092036127
 20
-4181.444705614944
 10
12781.77108850551
 20
-4181.438697757935
  0
LINE
  5
3D6B97
330
18
100
AcDbEntity
  8
0
  6
ByBlock
 62
     8
370
    15
100
AcDbLine
 10
12781.77327372195
 20
-4180.89720769266
 30
0.0
 11
12781.77381452374
 21
-4180.900039903217
 31
0.0
  0
LWPOLYLINE
  5
3D6BA1
330
18
100
AcDbEntity
  8
0
  6
ByBlock
 62
     8
370
    15
100
AcDbPolyline
 90
        3
 70
   128
 43
0.0
 10
12781.28543726672
 20
-4182.323298291905
 10
12781.26221481623
 20
-4182.322483674083
 10
12781.25968013349
 20
-4182.322316993102
  0
LINE
  5
3D6BA2
330
18
100
AcDbEntity
  8
0
  6
ByBlock
 62
     8
370
    15
100
AcDbLine
 10
12781.59875127094
 20
-4182.32588133265
 30
0.0
 11
12781.28543726672
 21
-4182.323298291905
 31
0.0
  0
LWPOLYLINE
  5
3D6BA3
330
18
100
AcDbEntity
  8
0
  6
ByBlock
 62
     8
370
    15
100
AcDbPolyline
 90
        9
 70
   128
 43
0.0
 10
12781.70779246642
 20
-4182.35863766329
 10
12781.70845077976
 20
-4182.352633847364
 10
12781.7041636899
 20
-4182.346709278903
 10
12781.69512184885
 20
-4182.341126279317
 10
12781.68172564573
 20
-4182.336132109829
 10
12781.66456822715
 20
-4182.331947926757
 10
12781.64440904216
 20
-4182.328758955265
 10
12781.62214204463
 20
-4182.326706480866
 10
12781.59875127094
 20
-4182.32588133265
  0
LWPOLYLINE
  5
3D6BA4
330
18
100
AcDbEntity
  8
0
  6
ByBlock
 62
     8
370
    15
100
AcDbPolyline
 90
        9
 70
   128
 43
0.0
 10
12781.55869867625
 20
-4182.396946723218
 10
12781.58233672589
 20
-4182.397787540965
 10
12781.60481686984
 20
-4182.39988156825
 10
12781.62512195455
 20
-4182.403133979385
 10
12781.64233337804
 20
-4182.407397733547
 10
12781.65567239716
 20
-4182.412479866377
 10
12781.66453498538
 20
-4182.418150521111
 10
12781.66852139372
 20
-4182.424153132873
 10
12781.66873440673
 20
-4182.42594073968
  0
LINE
  5
3D6BA5
330
18
100
AcDbEntity
  8
0
  6
ByBlock
 62
     8
370
    15
100
AcDbLine
 10
12781.55869867625
 20
-4182.396946723218
 30
0.0
 11
12781.24881689866
 21
-4182.394391978625
 31
0.0
  0
LINE
  5
3D6BA6
330
18
100
AcDbEntity
  8
0
  6
ByBlock
 62
     8
370
    15
100
AcDbLine
 10
12781.24050925982
 20
-4182.394244661685
 30
0.0
 11
12781.24881689866
 21
-4182.394391978625
 31
0.0
  0
LINE
  5
3D6BA7
330
18
100
AcDbEntity
  8
0
  6
ByBlock
 62
     8
370
    15
100
AcDbLine
 10
12781.28762248316
 20
-4181.781808226627
 30
0.0
 11
12781.28543726672
 21
-4182.323298291905
 31
0.0
  0
LINE
  5
3D6BA8
330
18
100
AcDbEntity
  8
0
  6
ByBlock
 62
     8
370
    15
100
AcDbLine
 10
12781.59875127094
 20
-4182.32588133265
 30
0.0
 11
12781.60093648738
 21
-4181.784391267374
 31
0.0
  0
LINE
  5
3D6BA9
330
18
100
AcDbEntity
  8
0
  6
ByBlock
 62
     8
370
    15
100
AcDbLine
 10
12781.28762248316
 20
-4181.781808226627
 30
0.0
 11
12781.60093648738
 21
-4181.784391267374
 31
0.0
  0
LWPOLYLINE
  5
3D6BAA
330
18
100
AcDbEntity
  8
0
  6
ByBlock
 62
     8
370
    15
100
AcDbPolyline
 90
        9
 70
   128
 43
0.0
 10
12781.60093648738
 20
-4181.784391267374
 10
12781.62432726107
 20
-4181.785216415589
 10
12781.6465942586
 20
-4181.787268889988
 10
12781.66675344359
 20
-4181.79045786148
 10
12781.68391086217
 20
-4181.794642044552
 10
12781.69730706529
 20
-4181.79963621404
 10
12781.70634890635
 20
-4181.805219213625
 10
12781.71063599621
 20
-4181.811143782086
 10
12781.71097221786
 20
-4181.813385283836
  0
LINE
  5
3D6BAB
330
18
100
AcDbEntity
  8
0
  6
ByBlock
 62
     8
370
    15
100
AcDbLine
 10
12781.24881689866
 20
-4182.394391978625
 30
0.0
 11
12781.24772428636
 21
-4182.665138019869
 31
0.0
  0
LINE
  5
3D6BAC
330
18
100
AcDbEntity
  8
0
  6
ByBlock
 62
     8
370
    15
100
AcDbLine
 10
12781.55760606396
 20
-4182.667692764463
 30
0.0
 11
12781.55869867625
 21
-4182.396946723218
 31
0.0
  0
LWPOLYLINE
  5
3D6BAD
330
18
100
AcDbEntity
  8
0
  6
ByBlock
 62
     8
370
    15
100
AcDbPolyline
 90
       26
 70
   128
 43
0.0
 10
12777.92238894716
 20
-4172.135514551837
 10
12777.69151786526
 20
-4172.053584761373
 10
12776.99466926153
 20
-4171.831527220745
 10
12776.23321916545
 20
-4171.623653168697
 10
12775.41174812026
 20
-4171.431212656332
 10
12774.53519575801
 20
-4171.25536294625
 10
12773.60883412279
 20
-4171.097161909326
 10
12772.63823479128
 20
-4170.957560572495
 10
12771.62923473105
 20
-4170.837398847733
 10
12770.587902305
 20
-4170.73739913449
 10
12769.52049992776
 20
-4170.658163086168
 10
12768.43344746519
 20
-4170.600167052866
 10
12767.33328240589
 20
-4170.563759891231
 10
12766.22662120582
 20
-4170.549160783995
 10
12765.12011952498
 20
-4170.556457050373
 10
12764.02043196546
 20
-4170.585605409946
 10
12762.93417222459
 20
-4170.636430058335
 10
12761.86787331001
 20
-4170.708625530838
 10
12760.82794770535
 20
-4170.801757437906
 10
12759.82064981185
 20
-4170.915266145035
 10
12758.85203825712
 20
-4171.048468589787
 10
12757.92793718401
 20
-4171.200563547999
 10
12757.05390562207
 20
-4171.370636966633
 10
12756.23519812226
 20
-4171.557665362803
 10
12755.47674070615
 20
-4171.760524136507
 10
12755.09433526552
 20
-4171.876070116595
  0
LINE
  5
3D6BAE
330
18
100
AcDbEntity
  8
0
  6
ByBlock
 62
     8
370
    15
100
AcDbLine
 10
12780.81382941658
 20
-4173.950368080679
 30
0.0
 11
12780.81411838849
 21
-4173.977880745295
 31
0.0
  0
LINE
  5
3D6BAF
330
18
100
AcDbEntity
  8
0
  6
ByBlock
 62
     8
370
    15
100
AcDbLine
 10
12751.69435654538
 20
-4173.860053156139
 30
0.0
 11
12751.6965860793
 21
-4173.799106455355
 31
0.0
  0
LINE
  5
3D6BB0
330
18
100
AcDbEntity
  8
0
  6
ByBlock
 62
     8
370
    15
100
AcDbLine
 10
12751.74726941131
 20
-4160.838394263384
 30
0.0
 11
12751.74680116467
 21
-4160.864582150945
 31
0.0
  0
ARC
  5
3D6BB1
330
18
100
AcDbEntity
  8
0
  6
ByBlock
 62
     8
370
    15
100
AcDbCircle
 10
12766.09350340876
 20
-4214.238965383535
 30
0.0
 40
43.67221405329037
100
AcDbArc
 50
75.39583028146154
 51
104.1714248272633
  0
LWPOLYLINE
  5
3D6BB3
330
18
100
AcDbEntity
  8
0
  6
ByBlock
 62
     8
370
    15
100
AcDbPolyline
 90
        3
 70
   128
 43
0.0
 10
12752.54269173107
 20
-4173.792363911021
 10
12752.54123266825
 20
-4173.810794403369
 10
12752.53934196522
 20
-4173.85240865462
  0
SPLINE
  5
3D6BB7
330
18
100
AcDbEntity
  8
0
  6
ByBlock
 62
     8
370
    15
100
AcDbSpline
210
0.0
220
0.0
230
1.0
 70
     8
 71
     3
 72
    10
 73
     6
 74
     0
 42
0.0000000001
 43
0.0000000001
 40
0.0
 40
0.0
 40
0.0
 40
0.0
 40
0.291058078251193
 40
0.7087319695762827
 40
1.0
 40
1.0
 40
1.0
 40
1.0
 10
12765.19663439532
 20
-4155.885903446215
 30
0.0
 10
12765.17510061113
 20
-4156.011079262325
 30
0.0
 10
12765.12266543608
 20
-4156.315884761034
 30
0.0
 10
12765.01119617354
 20
-4156.708443025105
 30
0.0
 10
12764.89797896908
 20
-4156.938650407437
 30
0.0
 10
12764.85146380169
 20
-4157.03323086429
 30
0.0
  0
SPLINE
  5
3D6BB8
330
18
100
AcDbEntity
  8
0
  6
ByBlock
 62
     8
370
    15
100
AcDbSpline
210
0.0
220
0.0
230
1.0
 70
     8
 71
     3
 72
    11
 73
     7
 74
     0
 42
0.0000000001
 43
0.0000000001
 40
0.0
 40
0.0
 40
0.0
 40
0.0
 40
0.2757579792822773
 40
0.5595658649734137
 40
0.8353396863615586
 40
1.0
 40
1.0
 40
1.0
 40
1.0
 10
12769.58282508912
 20
-4155.267306604758
 30
0.0
 10
12769.58550537333
 20
-4155.463284907146
 30
0.0
 10
12769.5909441844
 20
-4155.860962495937
 30
0.0
 10
12769.59503239372
 20
-4156.401677718601
 30
0.0
 10
12769.59517123269
 20
-4156.832720129997
 30
0.0
 10
12769.58618143594
 20
-4157.044617253188
 30
0.0
 10
12769.58282051853
 20
-4157.12383692303
 30
0.0
  0
SPLINE
  5
3D6BB9
330
18
100
AcDbEntity
  8
0
  6
ByBlock
 62
     8
370
    15
100
AcDbSpline
210
0.0
220
0.0
230
1.0
 70
     8
 71
     3
 72
    11
 73
     7
 74
     0
 42
0.0000000001
 43
0.0000000001
 40
0.0
 40
0.0
 40
0.0
 40
0.0
 40
0.2739352835637679
 40
0.5560792091337583
 40
0.8299737252274963
 40
1.0
 40
1.0
 40
1.0
 40
1.0
 10
12770.69464663132
 20
-4155.380722859372
 30
0.0
 10
12770.69051995671
 20
-4155.573987557383
 30
0.0
 10
12770.68214294912
 20
-4155.966308250889
 30
0.0
 10
12770.67048653299
 20
-4156.496858347529
 30
0.0
 10
12770.65954830676
 20
-4156.921471638714
 30
0.0
 10
12770.64724175929
 20
-4157.130991335159
 30
0.0
 10
12770.64252822376
 20
-4157.211239555587
 30
0.0
  0
ARC
  5
3D6BBA
330
18
100
AcDbEntity
  8
0
  6
ByBlock
 62
     8
370
    15
100
AcDbCircle
 10
12766.10685517427
 20
-4208.44716818899
 30
0.0
 40
51.44395341855321
100
AcDbArc
 50
81.38641204884676
 51
97.83518088024973
  0
ARC
  5
3D6BBB
330
18
100
AcDbEntity
  8
0
  6
ByBlock
 62
     8
370
    15
100
AcDbCircle
 10
12770.66941876367
 20
-4148.271750795724
 30
0.0
 40
8.542773711911053
100
AcDbArc
 50
292.3881067984064
 51
294.4780876169231
  0
SPLINE
  5
3D6BBC
330
18
100
AcDbEntity
  8
0
  6
ByBlock
 62
     8
370
    15
100
AcDbSpline
210
0.0
220
0.0
230
1.0
 70
     8
 71
     3
 72
    10
 73
     6
 74
     0
 42
0.0000000001
 43
0.0000000001
 40
0.0
 40
0.0
 40
0.0
 40
0.0
 40
0.3339310690153915
 40
0.6678638101095518
 40
1.0
 40
1.0
 40
1.0
 40
1.0
 10
12774.20907607842
 20
-4156.046698305967
 30
0.0
 10
12774.21606906249
 20
-4156.245757483969
 30
0.0
 10
12774.23005506564
 20
-4156.643876836716
 30
0.0
 10
12774.31077338563
 20
-4157.199458195984
 30
0.0
 10
12774.39838301057
 20
-4157.520431125665
 30
0.0
 10
12774.44206967071
 20
-4157.680484719167
 30
0.0
  0
ARC
  5
3D6BBD
330
18
100
AcDbEntity
  8
0
  6
ByBlock
 62
     8
370
    15
100
AcDbCircle
 10
12766.64748380961
 20
-4189.548820095188
 30
0.0
 40
34.40695272211057
100
AcDbArc
 50
83.24487021103319
 51
85.10600805747158
  0
LINE
  5
3D6BBE
330
18
100
AcDbEntity
  8
0
  6
ByBlock
 62
     8
370
    15
100
AcDbLine
 10
12765.30598708295
 20
-4155.132728747543
 30
0.0
 11
12765.35926353413
 21
-4155.593793552347
 31
0.0
  0
SPLINE
  5
3D6BBF
330
18
100
AcDbEntity
  8
0
  6
ByBlock
 62
     8
370
    15
100
AcDbSpline
210
0.0
220
0.0
230
1.0
 70
     8
 71
     3
 72
    21
 73
    17
 74
     0
 42
0.0000000001
 43
0.0000000001
 40
0.0
 40
0.0
 40
0.0
 40
0.0
 40
0.4053035405394903
 40
0.5632406405548718
 40
0.6387547881096739
 40
0.6883647534382118
 40
0.7222977941675401
 40
0.7521269926191151
 40
0.7709946499766818
 40
0.7813581054901528
 40
0.7895096308020302
 40
0.7977119335822069
 40
0.8068118494907116
 40
0.8221051337074777
 40
0.8697140553048466
 40
1.0
 40
1.0
 40
1.0
 40
1.0
 10
12765.19663439532
 20
-4155.885903446215
 30
0.0
 10
12765.20806321305
 20
-4155.818801152798
 30
0.0
 10
12765.22394556781
 20
-4155.725550699876
 30
0.0
 10
12765.25195491816
 20
-4155.618761185265
 30
0.0
 10
12765.26703337179
 20
-4155.57181259838
 30
0.0
 10
12765.27709159889
 20
-4155.545776732907
 30
0.0
 10
12765.28564302774
 20
-4155.527663406508
 30
0.0
 10
12765.29324996986
 20
-4155.515025976472
 30
0.0
 10
12765.30032896519
 20
-4155.506937446751
 30
0.0
 10
12765.30603597406
 20
-4155.503027594331
 30
0.0
 10
12765.31081331205
 20
-4155.501479351549
 30
0.0
 10
12765.31559495164
 20
-4155.501703630224
 30
0.0
 10
12765.32104466379
 20
-4155.504102454012
 30
0.0
 10
12765.33039161254
 20
-4155.512844254052
 30
0.0
 10
12765.34578238599
 20
-4155.542927233975
 30
0.0
 10
12765.3535642691
 20
-4155.572289402491
 30
0.0
 10
12765.35926353413
 20
-4155.593793552347
 30
0.0
  0
ARC
  5
3D6BC0
330
18
100
AcDbEntity
  8
0
  6
ByBlock
 62
     8
370
    15
100
AcDbCircle
 10
12766.13217121846
 20
-4195.441615019809
 30
0.0
 40
40.3173522535422
100
AcDbArc
 50
91.1741886562236
 51
92.91469368211819
  0
SPLINE
  5
3D6BC1
330
18
100
AcDbEntity
  8
0
  6
ByBlock
 62
     8
370
    15
100
AcDbSpline
210
0.0
220
0.0
230
1.0
 70
     8
 71
     3
 72
    11
 73
     7
 74
     0
 42
0.0000000001
 43
0.0000000001
 40
0.0
 40
0.0
 40
0.0
 40
0.0
 40
0.2767943058183841
 40
0.5535899683754008
 40
0.8303058651176899
 40
1.0
 40
1.0
 40
1.0
 40
1.0
 10
12764.08207162899
 20
-4155.176419324152
 30
0.0
 10
12764.07984293712
 20
-4155.374960867513
 30
0.0
 10
12764.07538554246
 20
-4155.772044927406
 30
0.0
 10
12763.99774435326
 20
-4156.3199479787
 30
0.0
 10
12763.89221162644
 20
-4156.760137614686
 30
0.0
 10
12763.78817310664
 20
-4156.984309890915
 30
0.0
 10
12763.74862487662
 20
-4157.069524643684
 30
0.0
  0
ARC
  5
3D6BC2
330
18
100
AcDbEntity
  8
0
  6
ByBlock
 62
     8
370
    15
100
AcDbCircle
 10
12754.65303775837
 20
-4190.6409565246
 30
0.0
 40
35.45207284977155
100
AcDbArc
 50
80.28433468268181
 51
81.14936845199814
  0
LINE
  5
3D6BC3
330
18
100
AcDbEntity
  8
0
  6
ByBlock
 62
     8
370
    15
100
AcDbLine
 10
12760.67282979044
 20
-4155.711317671918
 30
0.0
 11
12760.63588971712
 21
-4155.697359803811
 31
0.0
  0
SPLINE
  5
3D6BC4
330
18
100
AcDbEntity
  8
0
  6
ByBlock
 62
     8
370
    15
100
AcDbSpline
210
0.0
220
0.0
230
1.0
 70
     8
 71
     3
 72
    11
 73
     7
 74
     0
 42
0.0000000001
 43
0.0000000001
 40
0.0
 40
0.0
 40
0.0
 40
0.0
 40
0.2980809924651033
 40
0.5962024153118959
 40
0.8938546285366959
 40
0.9999999999999998
 40
0.9999999999999998
 40
0.9999999999999998
 40
0.9999999999999998
 10
12760.10766040555
 20
-4155.611018455538
 30
0.0
 10
12760.09491804932
 20
-4155.809336382499
 30
0.0
 10
12760.06943160855
 20
-4156.205999135383
 30
0.0
 10
12759.91326898157
 20
-4156.761245008865
 30
0.0
 10
12759.74223627169
 20
-4157.172624828601
 30
0.0
 10
12759.59755479856
 20
-4157.37399560945
 30
0.0
 10
12759.55952270206
 20
-4157.426929497975
 30
0.0
  0
LINE
  5
3D6BC5
330
18
100
AcDbEntity
  8
0
  6
ByBlock
 62
     8
370
    15
100
AcDbLine
 10
12765.30801635947
 20
-4154.629880126207
 30
0.0
 11
12765.30598708295
 21
-4155.132728747543
 31
0.0
  0
LINE
  5
3D6BC6
330
18
100
AcDbEntity
  8
0
  6
ByBlock
 62
     8
370
    15
100
AcDbLine
 10
12767.70303992385
 20
-4155.15249066395
 30
0.0
 11
12767.70507924877
 21
-4154.647152079164
 31
0.0
  0
ARC
  5
3D6BC7
330
18
100
AcDbEntity
  8
0
  6
ByBlock
 62
     8
370
    15
100
AcDbCircle
 10
12767.26522593716
 20
-4157.790774047091
 30
0.0
 40
2.674363531140524
100
AcDbArc
 50
67.01056825613187
 51
80.57782781139406
  0
SPLINE
  5
3D6BC8
330
18
100
AcDbEntity
  8
0
  6
ByBlock
 62
     8
370
    15
100
AcDbSpline
210
0.0
220
0.0
230
1.0
 70
     8
 71
     3
 72
     9
 73
     5
 74
     0
 42
0.0000000001
 43
0.0000000001
 40
0.0
 40
0.0
 40
0.0
 40
0.0
 40
0.6172085275345541
 40
1.0
 40
1.0
 40
1.0
 40
1.0
 10
12768.35100678753
 20
-4155.371447531002
 30
0.0
 10
12768.34312945545
 20
-4155.359544162549
 30
0.0
 10
12768.33036661806
 20
-4155.340258349212
 30
0.0
 10
12768.31544195792
 20
-4155.331984062004
 30
0.0
 10
12768.30972892529
 20
-4155.32881673542
 30
0.0
  0
SPLINE
  5
3D6BC9
330
18
100
AcDbEntity
  8
0
  6
ByBlock
 62
     8
370
    15
100
AcDbSpline
210
0.0
220
0.0
230
1.0
 70
     8
 71
     3
 72
    10
 73
     6
 74
     0
 42
0.0000000001
 43
0.0000000001
 40
0.0
 40
0.0
 40
0.0
 40
0.0
 40
0.4281393722134102
 40
0.988112298331562
 40
0.9999999999999998
 40
0.9999999999999998
 40
0.9999999999999998
 40
0.9999999999999998
 10
12768.35100678753
 20
-4155.371447531002
 30
0.0
 10
12768.3597339141
 20
-4155.385430644281
 30
0.0
 10
12768.37987544197
 20
-4155.417702579771
 30
0.0
 10
12768.41009122071
 20
-4155.45236834157
 30
0.0
 10
12768.42756397699
 20
-4155.470785926708
 30
0.0
 10
12768.42792719646
 20
-4155.471168787053
 30
0.0
  0
ARC
  5
3D6BCA
330
18
100
AcDbEntity
  8
0
  6
ByBlock
 62
     8
370
    15
100
AcDbCircle
 10
12766.35196657485
 20
-4190.733126518514
 30
0.0
 40
35.32301339860126
100
AcDbArc
 50
84.99312963143616
 51
86.63074156813305
  0
ARC
  5
3D6BCB
330
18
100
AcDbEntity
  8
0
  6
ByBlock
 62
     8
370
    15
100
AcDbCircle
 10
12770.94590096221
 20
-4167.553965427724
 30
0.0
 40
11.96099947539986
100
AcDbArc
 50
70.40253518488739
 51
74.1679808573043
  0
SPLINE
  5
3D6BCC
330
18
100
AcDbEntity
  8
0
  6
ByBlock
 62
     8
370
    15
100
AcDbSpline
210
0.0
220
0.0
230
1.0
 70
     8
 71
     3
 72
    10
 73
     6
 74
     0
 42
0.0000000001
 43
0.0000000001
 40
0.0
 40
0.0
 40
0.0
 40
0.0
 40
0.3512230770402364
 40
0.7024937924184474
 40
1.0
 40
1.0
 40
1.0
 40
1.0
 10
12774.95773843151
 20
-4156.285839205039
 30
0.0
 10
12774.96031250634
 20
-4156.481356477736
 30
0.0
 10
12774.96546100511
 20
-4156.872417542228
 30
0.0
 10
12775.03233382051
 20
-4157.390416490637
 30
0.0
 10
12775.10926032051
 20
-4157.680786202916
 30
0.0
 10
12775.14453609939
 20
-4157.813939508525
 30
0.0
  0
ARC
  5
3D6BCD
330
18
100
AcDbEntity
  8
0
  6
ByBlock
 62
     8
370
    15
100
AcDbCircle
 10
12763.77260874027
 20
-4176.127825091323
 30
0.0
 40
20.84157385674911
100
AcDbArc
 50
100.1280081549891
 51
102.7279837671822
  0
SPLINE
  5
3D6BCE
330
18
100
AcDbEntity
  8
0
  6
ByBlock
 62
     8
370
    15
100
AcDbSpline
210
0.0
220
0.0
230
1.0
 70
     8
 71
     3
 72
    11
 73
     7
 74
     0
 42
0.0000000001
 43
0.0000000001
 40
0.0
 40
0.0
 40
0.0
 40
0.0
 40
0.3204554557441285
 40
0.6409125160911634
 40
0.9612770912751107
 40
0.9999999999999998
 40
0.9999999999999998
 40
0.9999999999999998
 40
0.9999999999999998
 10
12759.18073821139
 20
-4155.798390129368
 30
0.0
 10
12759.17414508978
 20
-4155.997597472411
 30
0.0
 10
12759.16095881354
 20
-4156.396013155979
 30
0.0
 10
12759.01822055896
 20
-4156.955545760273
 30
0.0
 10
12758.87933743953
 20
-4157.335399526156
 30
0.0
 10
12758.76398814884
 20
-4157.506479918876
 30
0.0
 10
12758.75154923004
 20
-4157.524928711244
 30
0.0
  0
ARC
  5
3D6BCF
330
18
100
AcDbEntity
  8
0
  6
ByBlock
 62
     8
370
    15
100
AcDbCircle
 10
12765.5702825732
 20
-4187.176420622325
 30
0.0
 40
32.03458841467369
100
AcDbArc
 50
92.66271274514874
 51
99.81820706883306
  0
ARC
  5
3D6BD0
330
18
100
AcDbEntity
  8
0
  6
ByBlock
 62
     8
370
    15
100
AcDbCircle
 10
12761.11231634148
 20
-4165.518576343099
 30
0.0
 40
9.910247933439954
100
AcDbArc
 50
101.2392993092256
 51
116.9521056322176
  0
ARC
  5
3D6BD1
330
18
100
AcDbEntity
  8
0
  6
ByBlock
 62
     8
370
    15
100
AcDbCircle
 10
12758.22749840322
 20
-4159.593882767676
 30
0.0
 40
3.323480686947858
100
AcDbArc
 50
118.9153221624725
 51
127.7646615323549
  0
ARC
  5
3D6BD2
330
18
100
AcDbEntity
  8
0
  6
ByBlock
 62
     8
370
    15
100
AcDbCircle
 10
12757.38102086332
 20
-4158.498910733209
 30
0.0
 40
1.939470370624158
100
AcDbArc
 50
127.8064336720355
 51
138.1054401815163
  0
LINE
  5
3D6BD3
330
18
100
AcDbEntity
  8
0
  6
ByBlock
 62
     8
370
    15
100
AcDbLine
 10
12755.93732769741
 20
-4157.203806350834
 30
0.0
 11
12755.94283801914
 21
-4156.633630124477
 31
0.0
  0
ARC
  5
3D6BD4
330
18
100
AcDbEntity
  8
0
  6
ByBlock
 62
     8
370
    15
100
AcDbCircle
 10
12775.67263727292
 20
-4158.188447758901
 30
0.0
 40
1.370649182132691
100
AcDbArc
 50
36.95486303417311
 51
40.09031979705007
  0
ARC
  5
3D6BD5
330
18
100
AcDbEntity
  8
0
  6
ByBlock
 62
     8
370
    15
100
AcDbCircle
 10
12773.78973925596
 20
-4160.339900456331
 30
0.0
 40
4.218961329915369
100
AcDbArc
 50
45.98585301992407
 51
73.92799398454129
  0
ARC
  5
3D6BD6
330
18
100
AcDbEntity
  8
0
  6
ByBlock
 62
     8
370
    15
100
AcDbCircle
 10
12768.20095259914
 20
-4178.146247674547
 30
0.0
 40
22.90169491623924
100
AcDbArc
 50
74.79080443011365
 51
83.7488471209077
  0
ARC
  5
3D6BD7
330
18
100
AcDbEntity
  8
0
  6
ByBlock
 62
     8
370
    15
100
AcDbCircle
 10
12766.27282358042
 20
-4194.01370556084
 30
0.0
 40
38.88752424687608
100
AcDbArc
 50
85.11722923802954
 51
87.89228430196757
  0
ARC
  5
3D6BD8
330
18
100
AcDbEntity
  8
0
  6
ByBlock
 62
     8
370
    15
100
AcDbCircle
 10
12766.3486791485
 20
-4191.026817385568
 30
0.0
 40
35.75182466175672
100
AcDbArc
 50
84.82413013911033
 51
86.85564873348111
  0
ARC
  5
3D6BD9
330
18
100
AcDbEntity
  8
0
  6
ByBlock
 62
     8
370
    15
100
AcDbCircle
 10
12759.21313121223
 20
-4160.101777414469
 30
0.0
 40
5.035635662262293
100
AcDbArc
 50
110.9789755789028
 51
122.6282123967993
  0
ARC
  5
3D6BDA
330
18
100
AcDbEntity
  8
0
  6
ByBlock
 62
     8
370
    15
100
AcDbCircle
 10
12765.64511431466
 20
-4186.038132928221
 30
0.0
 40
30.7515015057073
100
AcDbArc
 50
92.92294953208452
 51
99.37489463088237
  0
ARC
  5
3D6BDB
330
18
100
AcDbEntity
  8
0
  6
ByBlock
 62
     8
370
    15
100
AcDbCircle
 10
12768.25515766158
 20
-4176.111874220316
 30
0.0
 40
20.57620818804734
100
AcDbArc
 50
74.52862983878365
 51
83.09375996847736
  0
ARC
  5
3D6BDC
330
18
100
AcDbEntity
  8
0
  6
ByBlock
 62
     8
370
    15
100
AcDbCircle
 10
12773.39794455147
 20
-4160.161183356264
 30
0.0
 40
5.040797405533332
100
AcDbArc
 50
55.8954468839818
 51
68.47549434514196
  0
SPLINE
  5
3D6BDD
330
18
100
AcDbEntity
  8
0
  6
ByBlock
 62
     8
370
    15
100
AcDbSpline
210
0.0
220
0.0
230
1.0
 70
     8
 71
     3
 72
    11
 73
     7
 74
     0
 42
0.0000000001
 43
0.0000000001
 40
0.0
 40
0.0
 40
0.0
 40
0.0
 40
0.0094955322509044
 40
0.4425836108478246
 40
0.75531508829095
 40
1.0
 40
1.0
 40
1.0
 40
1.0
 10
12760.79635221398
 20
-4155.81112057504
 30
0.0
 10
12760.79604142281
 20
-4155.81080609926
 30
0.0
 10
12760.78155554974
 20
-4155.796148487371
 30
0.0
 10
12760.7528030159
 20
-4155.769694204779
 30
0.0
 10
12760.70886587909
 20
-4155.734591501255
 30
0.0
 10
12760.68382277494
 20
-4155.718417467006
 30
0.0
 10
12760.67282979044
 20
-4155.711317671918
 30
0.0
  0
LINE
  5
3D6BDE
330
18
100
AcDbEntity
  8
0
  6
ByBlock
 62
     8
370
    15
100
AcDbLine
 10
12773.90036273992
 20
-4156.177337440007
 30
0.0
 11
12773.92317721658
 21
-4156.170613917908
 31
0.0
  0
ARC
  5
3D6BDF
330
18
100
AcDbEntity
  8
0
  6
ByBlock
 62
     8
370
    15
100
AcDbCircle
 10
12768.26741988698
 20
-4176.196220969645
 30
0.0
 40
20.79629156743583
100
AcDbArc
 50
74.2843819624381
 51
83.3596341525895
  0
SPLINE
  5
3D6BE0
330
18
100
AcDbEntity
  8
0
  6
ByBlock
 62
     8
370
    15
100
AcDbSpline
210
0.0
220
0.0
230
1.0
 70
     8
 71
     3
 72
    13
 73
     9
 74
     0
 42
0.0000000001
 43
0.0000000001
 40
0.0
 40
0.0
 40
0.0
 40
0.0
 40
0.1448201239346141
 40
0.2889404862150955
 40
0.4931313208344838
 40
0.7743001281938583
 40
0.9924261903523877
 40
1.0
 40
1.0
 40
1.0
 40
1.0
 10
12773.90036273992
 20
-4156.177337440007
 30
0.0
 10
12773.89212183418
 20
-4156.179624850862
 30
0.0
 10
12773.87567984222
 20
-4156.184188619948
 30
0.0
 10
12773.84440007882
 20
-4156.199389428015
 30
0.0
 10
12773.80695574885
 20
-4156.222818973938
 30
0.0
 10
12773.7715389921
 20
-4156.251704737577
 30
0.0
 10
12773.75177566431
 20
-4156.272133700555
 30
0.0
 10
12773.74425415319
 20
-4156.280971655167
 30
0.0
 10
12773.74400175387
 20
-4156.281268230373
 30
0.0
  0
ARC
  5
3D6BE1
330
18
100
AcDbEntity
  8
0
  6
ByBlock
 62
     8
370
    15
100
AcDbCircle
 10
12756.2085941493
 20
-4212.573337814765
 30
0.0
 40
55.89013303993491
100
AcDbArc
 50
88.93908381003226
 51
89.57768909382808
  0
LINE
  5
3D6BE2
330
18
100
AcDbEntity
  8
0
  6
ByBlock
 62
     8
370
    15
100
AcDbLine
 10
12757.28768091118
 20
-4156.701220116185
 30
0.0
 11
12757.24342357764
 21
-4156.692785748094
 31
0.0
  0
SPLINE
  5
3D6BE3
330
18
100
AcDbEntity
  8
0
  6
ByBlock
 62
     8
370
    15
100
AcDbSpline
210
0.0
220
0.0
230
1.0
 70
     8
 71
     3
 72
    10
 73
     6
 74
     0
 42
0.0000000001
 43
0.0000000001
 40
0.0
 40
0.0
 40
0.0
 40
0.0
 40
0.4439680298137178
 40
0.8879961476597173
 40
1.0
 40
1.0
 40
1.0
 40
1.0
 10
12756.62054070481
 20
-4156.684722952191
 30
0.0
 10
12756.60619705193
 20
-4156.883885215746
 30
0.0
 10
12756.57750780485
 20
-4157.282236698102
 30
0.0
 10
12756.46539371864
 20
-4157.724777374784
 30
0.0
 10
12756.35293756502
 20
-4157.950280771563
 30
0.0
 10
12756.33028505024
 20
-4157.995704866777
 30
0.0
  0
SPLINE
  5
3D6BE4
330
18
100
AcDbEntity
  8
0
  6
ByBlock
 62
     8
370
    15
100
AcDbSpline
210
0.0
220
0.0
230
1.0
 70
     8
 71
     3
 72
     9
 73
     5
 74
     0
 42
0.0000000001
 43
0.0000000001
 40
0.0
 40
0.0
 40
0.0
 40
0.0
 40
0.849698609804532
 40
1.0
 40
1.0
 40
1.0
 40
1.0
 10
12776.6344370728
 20
-4157.318602651749
 30
0.0
 10
12776.61784902804
 20
-4157.322870003303
 30
0.0
 10
12776.59832675913
 20
-4157.327892197651
 30
0.0
 10
12776.58092653741
 20
-4157.339924286492
 30
0.0
 10
12776.5783112599
 20
-4157.341732726171
 30
0.0
  0
ARC
  5
3D6BE5
330
18
100
AcDbEntity
  8
0
  6
ByBlock
 62
     8
370
    15
100
AcDbCircle
 10
12771.72276994444
 20
-4123.833631319508
 30
0.0
 40
33.84328262891539
100
AcDbArc
 50
278.3447927620223
 51
278.4933236046184
  0
SPLINE
  5
3D6BE6
330
18
100
AcDbEntity
  8
0
  6
ByBlock
 62
     8
370
    15
100
AcDbSpline
210
0.0
220
0.0
230
1.0
 70
     8
 71
     3
 72
     9
 73
     5
 74
     0
 42
0.0000000001
 43
0.0000000001
 40
0.0
 40
0.0
 40
0.0
 40
0.0
 40
0.6415389538600395
 40
1.0
 40
1.0
 40
1.0
 40
1.0
 10
12776.72122531224
 20
-4157.305757380409
 30
0.0
 10
12776.72701249044
 20
-4157.507634400563
 30
0.0
 10
12776.73603326487
 20
-4157.822310569391
 30
0.0
 10
12776.81321284877
 20
-4158.113618850012
 30
0.0
 10
12776.84087872315
 20
-4158.218041521031
 30
0.0
  0
ARC
  5
3D6BE7
330
18
100
AcDbEntity
  8
0
  6
ByBlock
 62
     8
370
    15
100
AcDbCircle
 10
12761.31654079406
 20
-4165.043265610786
 30
0.0
 40
9.290898653838377
100
AcDbArc
 50
103.5050447868259
 51
116.0017518253763
  0
SPLINE
  5
3D6BE8
330
18
100
AcDbEntity
  8
0
  6
ByBlock
 62
     8
370
    15
100
AcDbSpline
210
0.0
220
0.0
230
1.0
 70
     8
 71
     3
 72
    11
 73
     7
 74
     0
 42
0.0000000001
 43
0.0000000001
 40
0.0
 40
0.0
 40
0.0
 40
0.0
 40
0.0094957376484202
 40
0.4425813060233361
 40
0.7553120611726853
 40
0.9999999999999998
 40
0.9999999999999998
 40
0.9999999999999998
 40
0.9999999999999998
 10
12757.39555992597
 20
-4156.785101859579
 30
0.0
 10
12757.39539035125
 20
-4156.784820930744
 30
0.0
 10
12757.38748674196
 20
-4156.771727282332
 30
0.0
 10
12757.36750921083
 20
-4156.748650661596
 30
0.0
 10
12757.32847776854
 20
-4156.719253113788
 30
0.0
 10
12757.30012626262
 20
-4156.706721201495
 30
0.0
 10
12757.28768091118
 20
-4156.701220116185
 30
0.0
  0
ARC
  5
3D6BE9
330
18
100
AcDbEntity
  8
0
  6
ByBlock
 62
     8
370
    15
100
AcDbCircle
 10
12775.40849738617
 20
-4165.504097959341
 30
0.0
 40
8.276790534130178
100
AcDbArc
 50
81.48213619264558
 51
85.28977203964242
  0
ARC
  5
3D6BEA
330
18
100
AcDbEntity
  8
0
  6
ByBlock
 62
     8
370
    15
100
AcDbCircle
 10
12757.02777770984
 20
-4163.907160112588
 30
0.0
 40
6.79146765322792
100
AcDbArc
 50
97.33314359396359
 51
99.23950438532322
  0
ARC
  5
3D6BEB
330
18
100
AcDbEntity
  8
0
  6
ByBlock
 62
     8
370
    15
100
AcDbCircle
 10
12776.09602479981
 20
-4157.372038654072
 30
0.0
 40
0.1170430770348203
100
AcDbArc
 50
93.85402520941536
 51
178.0904751792825
  0
ARC
  5
3D6BEC
330
18
100
AcDbEntity
  8
0
  6
ByBlock
 62
     8
370
    15
100
AcDbCircle
 10
12775.3785445893
 20
-4165.531426284174
 30
0.0
 40
8.170628562975368
100
AcDbArc
 50
82.32275419482641
 51
85.25659907240447
  0
SPLINE
  5
3D6BED
330
18
100
AcDbEntity
  8
0
  6
ByBlock
 62
     8
370
    15
100
AcDbSpline
210
0.0
220
0.0
230
1.0
 70
     8
 71
     3
 72
     9
 73
     5
 74
     0
 42
0.0000000001
 43
0.0000000001
 40
0.0
 40
0.0
 40
0.0
 40
0.0
 40
0.5311232026921911
 40
1.0
 40
1.0
 40
1.0
 40
1.0
 10
12756.19213371978
 20
-4156.966561987508
 30
0.0
 10
12756.18394709055
 20
-4157.167033211816
 30
0.0
 10
12756.16853328601
 20
-4157.544480898705
 30
0.0
 10
12756.05622325507
 20
-4157.90700612336
 30
0.0
 10
12756.00356368746
 20
-4158.076985789638
 30
0.0
  0
SPLINE
  5
3D6BEE
330
18
100
AcDbEntity
  8
0
  6
ByBlock
 62
     8
370
    15
100
AcDbSpline
210
0.0
220
0.0
230
1.0
 70
     8
 71
     3
 72
    11
 73
     7
 74
     0
 42
0.0000000001
 43
0.0000000001
 40
0.0
 40
0.0
 40
0.0
 40
0.0
 40
0.375418558110304
 40
0.8143102768976763
 40
0.989230146352042
 40
1.0
 40
1.0
 40
1.0
 40
1.0
 10
12776.5783112599
 20
-4157.341732726171
 30
0.0
 10
12776.56376591212
 20
-4157.352768205539
 30
0.0
 10
12776.53221599025
 20
-4157.376704966433
 30
0.0
 10
12776.49619689093
 20
-4157.409020724496
 30
0.0
 10
12776.4761274697
 20
-4157.428128597211
 30
0.0
 10
12776.47041177298
 20
-4157.433712650361
 30
0.0
 10
12776.4700802672
 20
-4157.434036520924
 30
0.0
  0
SPLINE
  5
3D6BEF
330
18
100
AcDbEntity
  8
0
  6
ByBlock
 62
     8
370
    15
100
AcDbSpline
210
0.0
220
0.0
230
1.0
 70
     8
 71
     3
 72
     9
 73
     5
 74
     0
 42
0.0000000001
 43
0.0000000001
 40
0.0
 40
0.0
 40
0.0
 40
0.0
 40
0.0241165634894862
 40
0.9999999999999998
 40
0.9999999999999998
 40
0.9999999999999998
 40
0.9999999999999998
 10
12776.88620800091
 20
-4158.230708557002
 30
0.0
 10
12776.88373075514
 20
-4158.224102038469
 30
0.0
 10
12776.78101107196
 20
-4157.950160913505
 30
0.0
 10
12776.77439367697
 20
-4157.653722467277
 30
0.0
 10
12776.76793587081
 20
-4157.364433097661
 30
0.0
  0
ARC
  5
3D6BF0
330
18
100
AcDbEntity
  8
0
  6
ByBlock
 62
     8
370
    15
100
AcDbCircle
 10
12776.05483491214
 20
-4157.239348038578
 30
0.0
 40
0.1494351536938697
100
AcDbArc
 50
239.5248623971158
 51
269.7572794085293
  0
ARC
  5
3D6BF4
330
18
100
AcDbEntity
  8
0
  6
ByBlock
 62
     8
370
    15
100
AcDbCircle
 10
12776.81721238716
 20
-4157.297077127551
 30
0.0
 40
0.0834565861551911
100
AcDbArc
 50
233.8114134065823
 51
266.2696402731311
  0
ARC
  5
3D6BF6
330
18
100
AcDbEntity
  8
0
  6
ByBlock
 62
     8
370
    15
100
AcDbCircle
 10
12776.27035767244
 20
-4157.372674040571
 30
0.0
 40
0.216755148241968
100
AcDbArc
 50
147.2013424182192
 51
184.261772608561
  0
LWPOLYLINE
  5
3D6C00
330
18
100
AcDbEntity
  8
0
  6
ByBlock
 62
     8
370
    15
100
AcDbPolyline
 90
       26
 70
   128
 43
0.0
 10
12777.83343490219
 20
-4156.106566022805
 10
12777.58806251779
 20
-4156.022827376068
 10
12776.87465478449
 20
-4155.804193848381
 10
12776.0977557024
 20
-4155.600064411597
 10
12775.26203707817
 20
-4155.411666995866
 10
12774.37252632169
 20
-4155.240134320361
 10
12773.43457189255
 20
-4155.086498023056
 10
12772.45381554379
 20
-4154.951682580573
 10
12771.43615525254
 20
-4154.836498087362
 10
12770.38771147168
 20
-4154.741637849737
 10
12769.31478948416
 20
-4154.6676719582
 10
12768.22384207997
 20
-4154.615045649909
 10
12767.12143052567
 20
-4154.584074997354
 10
12766.01418454262
 20
-4154.574946578412
 10
12764.90876352129
 20
-4154.587715294801
 10
12763.81181532626
 20
-4154.622304032455
 10
12762.72993725444
 20
-4154.678505201448
 10
12761.6696360133
 20
-4154.75598040603
 10
12760.63728814176
 20
-4154.854264107878
 10
12759.63910250423
 20
-4154.972764646728
 10
12758.68108180362
 20
-4155.110770040374
 10
12757.76898854038
 20
-4155.267449831775
 10
12756.90830699204
 20
-4155.441861690813
 10
12756.10421465229
 20
-4155.632957030149
 10
12755.36154690922
 20
-4155.839586299375
 10
12754.91566341023
 20
-4155.981045364824
  0
LWPOLYLINE
  5
3D6C01
330
18
100
AcDbEntity
  8
0
  6
ByBlock
 62
     8
370
    15
100
AcDbPolyline
 90
       26
 70
   128
 43
0.0
 10
12755.17877768944
 20
-4155.97525448486
 10
12755.50956302415
 20
-4155.871690135973
 10
12756.24219740005
 20
-4155.66785247902
 10
12757.03542662923
 20
-4155.479338710818
 10
12757.88448003863
 20
-4155.307282957145
 10
12758.78425151887
 20
-4155.152720031508
 10
12759.72932916468
 20
-4155.01657929625
 10
12760.71402901396
 20
-4154.899679621316
 10
12761.73242986628
 20
-4154.802723819973
 10
12762.77840665137
 20
-4154.726295200354
 10
12763.84566854569
 20
-4154.67085335821
 10
12764.9277969609
 20
-4154.636731830406
 10
12766.01828382566
 20
-4154.624135750842
 10
12767.11057085152
 20
-4154.633140844318
 10
12768.19808892516
 20
-4154.663692953382
 10
12769.27429760867
 20
-4154.715608363985
 10
12770.33272442213
 20
-4154.788574927251
 10
12771.36700392654
 20
-4154.882153711521
 10
12772.37091563984
 20
-4154.995781974641
 10
12773.33842165961
 20
-4155.128776133825
 10
12774.26370415777
 20
-4155.28033659625
 10
12775.14119823697
 20
-4155.449551753501
 10
12775.9656259444
 20
-4155.635404113312
 10
12776.73202927918
 20
-4155.836775891079
 10
12777.43579895495
 20
-4156.052455630237
 10
12777.66854301968
 20
-4156.131793565282
  0
LINE
  5
3D6C02
330
18
100
AcDbEntity
  8
0
  6
ByBlock
 62
     8
370
    15
100
AcDbLine
 10
12752.55536769454
 20
-4157.655423959417
 30
0.0
 11
12752.53299330129
 21
-4157.723832492266
 31
0.0
  0
LINE
  5
3D6C03
330
18
100
AcDbEntity
  8
0
  6
ByBlock
 62
     8
370
    15
100
AcDbLine
 10
12780.08392494432
 20
-4157.766517132855
 30
0.0
 11
12780.07793926621
 21
-4157.750154759599
 31
0.0
  0
ARC
  5
3D6C04
330
18
100
AcDbEntity
  8
0
  6
ByBlock
 62
     8
370
    15
100
AcDbCircle
 10
12779.02752695537
 20
-4157.526536302586
 30
0.0
 40
0.9149111704461388
100
AcDbArc
 50
342.0456055861038
 51
2.764379455962215
  0
ARC
  5
3D6C05
330
18
100
AcDbEntity
  8
0
  6
ByBlock
 62
     8
370
    15
100
AcDbCircle
 10
12753.59223493443
 20
-4157.424983864643
 30
0.0
 40
0.8935691872800152
100
AcDbArc
 50
176.3767331127465
 51
190.2799052053563
  0
SPLINE
  5
3D6C06
330
18
100
AcDbEntity
  8
0
  6
ByBlock
 62
     8
370
    15
100
AcDbSpline
210
0.0
220
0.0
230
1.0
 70
     8
 71
     3
 72
    12
 73
     8
 74
     0
 42
0.0000000001
 43
0.0000000001
 40
0.0
 40
0.0
 40
0.0
 40
0.0
 40
0.4999999999999999
 40
0.4999999999999999
 40
0.75
 40
0.75
 40
1.0
 40
1.0
 40
1.0
 40
1.0
 10
12752.71300978312
 20
-4157.584447649813
 30
0.0
 10
12752.71823776223
 20
-4157.613472761719
 30
0.0
 10
12752.72900140979
 20
-4157.631495940168
 30
0.0
 10
12752.75675629653
 20
-4157.62752789569
 30
0.0
 10
12752.76814311546
 20
-4157.620908216514
 30
0.0
 10
12752.79585864521
 20
-4157.590391936634
 30
0.0
 10
12752.81242304442
 20
-4157.56689680475
 30
0.0
 10
12752.83188560594
 20
-4157.525906665341
 30
0.0
  0
SPLINE
  5
3D6C07
330
18
100
AcDbEntity
  8
0
  6
ByBlock
 62
     8
370
    15
100
AcDbSpline
210
0.0
220
0.0
230
1.0
 70
     8
 71
     3
 72
    14
 73
    10
 74
     0
 42
0.0000000001
 43
0.0000000001
 40
0.0
 40
0.0
 40
0.0
 40
0.0
 40
0.1661387666711338
 40
0.3322810639598162
 40
0.4983185911495866
 40
0.6642256207955557
 40
0.8300897293427917
 40
0.9960093290257868
 40
1.0
 40
1.0
 40
1.0
 40
1.0
 10
12755.91764314434
 20
-4156.009717437899
 30
0.0
 10
12755.92955029747
 20
-4156.008663585236
 30
0.0
 10
12755.95336485676
 20
-4156.006555857521
 30
0.0
 10
12755.99197470242
 20
-4156.007464131683
 30
0.0
 10
12756.02714836547
 20
-4156.011341574318
 30
0.0
 10
12756.05582399424
 20
-4156.018026764853
 30
0.0
 10
12756.07310936037
 20
-4156.026641505955
 30
0.0
 10
12756.07969816557
 20
-4156.033242002513
 30
0.0
 10
12756.0777613143
 20
-4156.036468911312
 30
0.0
 10
12756.07771582361
 20
-4156.0365447015
 30
0.0
  0
ARC
  5
3D6C08
330
18
100
AcDbEntity
  8
0
  6
ByBlock
 62
     8
370
    15
100
AcDbCircle
 10
12756.65019405541
 20
-4162.822710651428
 30
0.0
 40
6.852262937519869
100
AcDbArc
 50
96.13701481673912
 51
105.5553317760808
  0
SPLINE
  5
3D6C09
330
18
100
AcDbEntity
  8
0
  6
ByBlock
 62
     8
370
    15
100
AcDbSpline
210
0.0
220
0.0
230
1.0
 70
     8
 71
     3
 72
     8
 73
     4
 74
     0
 42
0.0000000001
 43
0.0000000001
 40
0.0
 40
0.0
 40
0.0
 40
0.0
 40
1.0
 40
1.0
 40
1.0
 40
1.0
 10
12754.72561731958
 20
-4156.231077898545
 30
0.0
 10
12754.75873171977
 20
-4156.231350902126
 30
0.0
 10
12754.79108612726
 20
-4156.227764586871
 30
0.0
 10
12754.81263077001
 20
-4156.221432912325
 30
0.0
  0
LINE
  5
3D6C0A
330
18
100
AcDbEntity
  8
0
  6
ByBlock
 62
     8
370
    15
100
AcDbLine
 10
12754.65778172788
 20
-4156.230518656555
 30
0.0
 11
12754.72561695996
 21
-4156.231077907549
 31
0.0
  0
LINE
  5
3D6C0B
330
18
100
AcDbEntity
  8
0
  6
ByBlock
 62
     8
370
    15
100
AcDbLine
 10
12754.65778172788
 20
-4156.230518656555
 30
0.0
 11
12754.53711847844
 21
-4156.230407926492
 31
0.0
  0
LWPOLYLINE
  5
3D6C0C
330
18
100
AcDbEntity
  8
0
  6
ByBlock
 62
     8
370
    15
100
AcDbPolyline
 90
        3
 70
   128
 43
0.0
 10
12756.48496796588
 20
-4155.746332092532
 10
12756.13111689266
 20
-4155.747905279532
 10
12755.93385682949
 20
-4155.749742336012
  0
SPLINE
  5
3D6C0D
330
18
100
AcDbEntity
  8
0
  6
ByBlock
 62
     8
370
    15
100
AcDbSpline
210
0.0
220
0.0
230
1.0
 70
     8
 71
     3
 72
     8
 73
     4
 74
     0
 42
0.0000000001
 43
0.0000000001
 40
0.0
 40
0.0
 40
0.0
 40
0.0
 40
1.0
 40
1.0
 40
1.0
 40
1.0
 10
12756.63495014512
 20
-4155.721556372313
 30
0.0
 10
12756.60889643825
 20
-4155.736318175061
 30
0.0
 10
12756.54880096434
 20
-4155.746247492956
 30
0.0
 10
12756.48496839809
 20
-4155.746332088486
 30
0.0
  0
ARC
  5
3D6C0E
330
18
100
AcDbEntity
  8
0
  6
ByBlock
 62
     8
370
    15
100
AcDbCircle
 10
12759.38876880458
 20
-4160.646367902196
 30
0.0
 40
5.642453705058087
100
AcDbArc
 50
112.7203655399725
 51
119.2127128682855
  0
ARC
  5
3D6C0F
330
18
100
AcDbEntity
  8
0
  6
ByBlock
 62
     8
370
    15
100
AcDbCircle
 10
12773.89055639073
 20
-4159.368175742798
 30
0.0
 40
4.155635284373473
100
AcDbArc
 50
51.0808956496016
 51
67.99160739113067
  0
SPLINE
  5
3D6C10
330
18
100
AcDbEntity
  8
0
  6
ByBlock
 62
     8
370
    15
100
AcDbSpline
210
0.0
220
0.0
230
1.0
 70
     8
 71
     3
 72
    10
 73
     6
 74
     0
 42
0.0000000001
 43
0.0000000001
 40
0.0
 40
0.0
 40
0.0
 40
0.0
 40
0.5
 40
0.5
 40
1.0
 40
1.0
 40
1.0
 40
1.0
 10
12776.75663836526
 20
-4156.159235496492
 30
0.0
 10
12776.71269773786
 20
-4156.166674109551
 30
0.0
 10
12776.6553685037
 20
-4156.168262945815
 30
0.0
 10
12776.55630517544
 20
-4156.158869083106
 30
0.0
 10
12776.51624873066
 20
-4156.14799429344
 30
0.0
 10
12776.5012199983
 20
-4156.134951362404
 30
0.0
  0
ARC
  5
3D6C11
330
18
100
AcDbEntity
  8
0
  6
ByBlock
 62
     8
370
    15
100
AcDbCircle
 10
12772.06217665341
 20
-4128.379137368997
 30
0.0
 40
28.17395645298599
100
AcDbArc
 50
279.5915981682654
 51
280.9299041527172
  0
LWPOLYLINE
  5
3D6C12
330
18
100
AcDbEntity
  8
0
  6
ByBlock
 62
     8
370
    15
100
AcDbPolyline
 90
        3
 70
   128
 43
0.0
 10
12778.3714260761
 20
-4156.431881633032
 10
12778.25344466502
 20
-4156.427281242993
 10
12778.06200473683
 20
-4156.423469054125
  0
LINE
  5
3D6C13
330
18
100
AcDbEntity
  8
0
  6
ByBlock
 62
     8
370
    15
100
AcDbLine
 10
12778.06200473683
 20
-4156.423469054125
 30
0.0
 11
12777.99416950476
 21
-4156.422909803132
 31
0.0
  0
SPLINE
  5
3D6C14
330
18
100
AcDbEntity
  8
0
  6
ByBlock
 62
     8
370
    15
100
AcDbSpline
210
0.0
220
0.0
230
1.0
 70
     8
 71
     3
 72
     8
 73
     4
 74
     0
 42
0.0000000001
 43
0.0000000001
 40
0.0
 40
0.0
 40
0.0
 40
0.0
 40
1.0
 40
1.0
 40
1.0
 40
1.0
 10
12777.90858084097
 20
-4156.411841828989
 30
0.0
 10
12777.92923024462
 20
-4156.418521359207
 30
0.0
 10
12777.96105473213
 20
-4156.422636784511
 30
0.0
 10
12777.99416914679
 20
-4156.422909788212
 30
0.0
  0
ARC
  5
3D6C15
330
18
100
AcDbEntity
  8
0
  6
ByBlock
 62
     8
370
    15
100
AcDbCircle
 10
12776.16540275284
 20
-4162.025614074766
 30
0.0
 40
5.87818929136315
100
AcDbArc
 50
72.74948187402377
 51
81.28432921477475
  0
SPLINE
  5
3D6C16
330
18
100
AcDbEntity
  8
0
  6
ByBlock
 62
     8
370
    15
100
AcDbSpline
210
0.0
220
0.0
230
1.0
 70
     8
 71
     3
 72
     8
 73
     4
 74
     0
 42
0.0000000001
 43
0.0000000001
 40
0.0
 40
0.0
 40
0.0
 40
0.0
 40
1.0
 40
1.0
 40
1.0
 40
1.0
 10
12776.9339273596
 20
-4156.215493362356
 30
0.0
 10
12776.96984846915
 20
-4156.209387861738
 30
0.0
 10
12777.01921862727
 20
-4156.209311074229
 30
0.0
 10
12777.05613122396
 20
-4156.215303302837
 30
0.0
  0
ARC
  5
3D6C17
330
18
100
AcDbEntity
  8
0
  6
ByBlock
 62
     8
370
    15
100
AcDbCircle
 10
12771.73832437202
 20
-4125.645626121055
 30
0.0
 40
31.00824200316435
100
AcDbArc
 50
279.3523128334663
 51
279.6457237463402
  0
SPLINE
  5
3D6C18
330
18
100
AcDbEntity
  8
0
  6
ByBlock
 62
     8
370
    15
100
AcDbSpline
210
0.0
220
0.0
230
1.0
 70
     8
 71
     3
 72
    11
 73
     7
 74
     0
 42
0.0000000001
 43
0.0000000001
 40
0.0
 40
0.0
 40
0.0
 40
0.0
 40
0.1092650681943659
 40
0.4495829073167855
 40
0.7898745939633587
 40
1.0
 40
1.0
 40
1.0
 40
1.0
 10
12776.72845343197
 20
-4156.26542871781
 30
0.0
 10
12776.72804863024
 20
-4156.26440175579
 30
0.0
 10
12776.72638302987
 20
-4156.260176209799
 30
0.0
 10
12776.73650808586
 20
-4156.252944760011
 30
0.0
 10
12776.75479030714
 20
-4156.245926070162
 30
0.0
 10
12776.77108964812
 20
-4156.242866868789
 30
0.0
 10
12776.77731203054
 20
-4156.241698998208
 30
0.0
  0
ARC
  5
3D6C19
330
18
100
AcDbEntity
  8
0
  6
ByBlock
 62
     8
370
    15
100
AcDbCircle
 10
12766.56816323695
 20
-4182.160285955313
 30
0.0
 40
46.91480421015024
100
AcDbArc
 50
79.86612382494273
 51
89.90493003244839
  0
ARC
  5
3D6C1A
330
18
100
AcDbEntity
  8
0
  6
ByBlock
 62
     8
370
    15
100
AcDbCircle
 10
12765.97744378857
 20
-4183.64031030737
 30
0.0
 40
48.39938180296492
100
AcDbArc
 50
89.20852012935226
 51
98.97105875764745
  0
ARC
  5
3D6C1B
330
18
100
AcDbEntity
  8
0
  6
ByBlock
 62
     8
370
    15
100
AcDbCircle
 10
12756.66459159939
 20
-4163.106931457478
 30
0.0
 40
6.564946133232833
100
AcDbArc
 50
96.23935498418269
 51
105.5994110758259
  0
ARC
  5
3D6C1C
330
18
100
AcDbEntity
  8
0
  6
ByBlock
 62
     8
370
    15
100
AcDbCircle
 10
12754.94176418617
 20
-4156.663764845592
 30
0.0
 40
0.1273569570856913
100
AcDbArc
 50
177.6419717462865
 51
250.4813361210942
  0
ARC
  5
3D6C1D
330
18
100
AcDbEntity
  8
0
  6
ByBlock
 62
     8
370
    15
100
AcDbCircle
 10
12756.64089647481
 20
-4163.200127617304
 30
0.0
 40
6.791777020279686
100
AcDbArc
 50
96.23932748795212
 51
105.5994564947375
  0
ARC
  5
3D6C1E
330
18
100
AcDbEntity
  8
0
  6
ByBlock
 62
     8
370
    15
100
AcDbCircle
 10
12756.06671274648
 20
-4156.463643577295
 30
0.0
 40
0.1646486422092535
100
AcDbArc
 50
174.751066290252
 51
225.3974089606149
  0
LWPOLYLINE
  5
3D6C1F
330
18
100
AcDbEntity
  8
0
  6
ByBlock
 62
     8
370
    15
100
AcDbPolyline
 90
        3
 70
   128
 43
0.0
 10
12755.9027545369
 20
-4156.448581011328
 10
12755.90868311861
 20
-4156.273842743194
 10
12755.91764314434
 20
-4156.009717437899
  0
LWPOLYLINE
  5
3D6C20
330
18
100
AcDbEntity
  8
0
  6
ByBlock
 62
     8
370
    15
100
AcDbPolyline
 90
        3
 70
   128
 43
0.0
 10
12754.81263058265
 20
-4156.221432907801
 10
12754.8135682425
 20
-4156.438989508584
 10
12754.81451507014
 20
-4156.658524904067
  0
ARC
  5
3D6C21
330
18
100
AcDbEntity
  8
0
  6
ByBlock
 62
     8
370
    15
100
AcDbCircle
 10
12753.63773293743
 20
-4155.913118030617
 30
0.0
 40
1.795329734166357
100
AcDbArc
 50
242.867639156368
 51
256.4581204508943
  0
ARC
  5
3D6C22
330
18
100
AcDbEntity
  8
0
  6
ByBlock
 62
     8
370
    15
100
AcDbCircle
 10
12754.46705427995
 20
-4162.158637346411
 30
0.0
 40
5.359332436406159
100
AcDbArc
 50
88.00638643643003
 51
104.4719017065178
  0
LINE
  5
3D6C23
330
18
100
AcDbEntity
  8
0
  6
ByBlock
 62
     8
370
    15
100
AcDbLine
 10
12754.72503076025
 20
-4156.803138612569
 30
0.0
 11
12754.65349527292
 21
-4156.802548855725
 31
0.0
  0
SPLINE
  5
3D6C24
330
18
100
AcDbEntity
  8
0
  6
ByBlock
 62
     8
370
    15
100
AcDbSpline
210
0.0
220
0.0
230
1.0
 70
     8
 71
     3
 72
     8
 73
     4
 74
     0
 42
0.0000000001
 43
0.0000000001
 40
0.0
 40
0.0
 40
0.0
 40
0.0
 40
1.0
 40
1.0
 40
1.0
 40
1.0
 10
12754.89921293581
 20
-4156.783802909957
 30
0.0
 10
12754.85612504829
 20
-4156.796493581398
 30
0.0
 10
12754.79133997393
 20
-4156.803685260097
 30
0.0
 10
12754.72503067907
 20
-4156.803138589319
 30
0.0
  0
ARC
  5
3D6C25
330
18
100
AcDbEntity
  8
0
  6
ByBlock
 62
     8
370
    15
100
AcDbCircle
 10
12757.17288166867
 20
-4158.017064589876
 30
0.0
 40
1.885577084363151
100
AcDbArc
 50
130.388139880366
 51
137.3767089682403
  0
ARC
  5
3D6C26
330
18
100
AcDbEntity
  8
0
  6
ByBlock
 62
     8
370
    15
100
AcDbCircle
 10
12756.47844548433
 20
-4161.02789244707
 30
0.0
 40
4.343337952129691
100
AcDbArc
 50
99.18121998633946
 51
108.2216066251009
  0
LINE
  5
3D6C27
330
18
100
AcDbEntity
  8
0
  6
ByBlock
 62
     8
370
    15
100
AcDbLine
 10
12754.64689672347
 20
-4156.898451680545
 30
0.0
 11
12755.1203135143
 21
-4156.902354649593
 31
0.0
  0
ARC
  5
3D6C28
330
18
100
AcDbEntity
  8
0
  6
ByBlock
 62
     8
370
    15
100
AcDbCircle
 10
12776.90772281755
 20
-4156.664359402788
 30
0.0
 40
0.147447802301294
100
AcDbArc
 50
306.2915791432688
 51
4.496084863681885
  0
ARC
  5
3D6C29
330
18
100
AcDbEntity
  8
0
  6
ByBlock
 62
     8
370
    15
100
AcDbCircle
 10
12777.07471612235
 20
-4156.664725098404
 30
0.0
 40
0.1428027444920691
100
AcDbArc
 50
175.2744039120796
 51
236.0650935704303
  0
ARC
  5
3D6C2A
330
18
100
AcDbEntity
  8
0
  6
ByBlock
 62
     8
370
    15
100
AcDbCircle
 10
12776.99411873886
 20
-4157.082620634604
 30
0.0
 40
0.434070503903061
100
AcDbArc
 50
81.97504656012238
 51
98.17451786863816
  0
LWPOLYLINE
  5
3D6C2B
330
18
100
AcDbEntity
  8
0
  6
ByBlock
 62
     8
370
    15
100
AcDbPolyline
 90
        3
 70
   128
 43
0.0
 10
12777.05613167941
 20
-4156.215303297839
 10
12777.05525429136
 20
-4156.486762990951
 10
12777.05471687765
 20
-4156.652800825926
  0
LWPOLYLINE
  5
3D6C2C
330
18
100
AcDbEntity
  8
0
  6
ByBlock
 62
     8
370
    15
100
AcDbPolyline
 90
        3
 70
   128
 43
0.0
 10
12776.93239880973
 20
-4156.652960475052
 10
12776.93297925763
 20
-4156.486934165573
 10
12776.93392734927
 20
-4156.215493340748
  0
ARC
  5
3D6C2D
330
18
100
AcDbEntity
  8
0
  6
ByBlock
 62
     8
370
    15
100
AcDbCircle
 10
12776.16578414732
 20
-4162.430965856374
 30
0.0
 40
5.846143388436352
100
AcDbArc
 50
72.71403746534996
 51
81.25399016545093
  0
ARC
  5
3D6C2E
330
18
100
AcDbEntity
  8
0
  6
ByBlock
 62
     8
370
    15
100
AcDbCircle
 10
12777.77661001822
 20
-4156.852304187132
 30
0.0
 40
0.1263493592456375
100
AcDbArc
 50
287.6207377687729
 51
1.55679010385544
  0
ARC
  5
3D6C2F
330
18
100
AcDbEntity
  8
0
  6
ByBlock
 62
     8
370
    15
100
AcDbCircle
 10
12776.13574349972
 20
-4162.368416413236
 30
0.0
 40
5.650920872200369
100
AcDbArc
 50
72.71409736505041
 51
81.25394260197245
  0
ARC
  5
3D6C30
330
18
100
AcDbEntity
  8
0
  6
ByBlock
 62
     8
370
    15
100
AcDbCircle
 10
12771.73590584727
 20
-4126.052017349749
 30
0.0
 40
31.0390280013231
100
AcDbArc
 50
279.3607851749774
 51
279.6377317366955
  0
ARC
  5
3D6C31
330
18
100
AcDbEntity
  8
0
  6
ByBlock
 62
     8
370
    15
100
AcDbCircle
 10
12771.75533321921
 20
-4125.928156473712
 30
0.0
 40
31.29677402102697
100
AcDbArc
 50
279.3607809865593
 51
279.6377667972589
  0
ARC
  5
3D6C32
330
18
100
AcDbEntity
  8
0
  6
ByBlock
 62
     8
370
    15
100
AcDbCircle
 10
12776.92811138292
 20
-4156.689801600149
 30
0.0
 40
0.1441932857560401
100
AcDbArc
 50
175.1940195190029
 51
235.177944171134
  0
LWPOLYLINE
  5
3D6C33
330
18
100
AcDbEntity
  8
0
  6
ByBlock
 62
     8
370
    15
100
AcDbPolyline
 90
        3
 70
   128
 43
0.0
 10
12777.9029127404
 20
-4156.848871556809
 10
12777.9043480551
 20
-4156.738230311129
 10
12777.90858102874
 20
-4156.411841827558
  0
LWPOLYLINE
  5
3D6C34
330
18
100
AcDbEntity
  8
0
  6
ByBlock
 62
     8
370
    15
100
AcDbPolyline
 90
        3
 70
   128
 43
0.0
 10
12776.77731203054
 20
-4156.241698998208
 10
12776.78172311304
 20
-4156.512087728414
 10
12776.78442506351
 20
-4156.677720819061
  0
SPLINE
  5
3D6C35
330
18
100
AcDbEntity
  8
0
  6
ByBlock
 62
     8
370
    15
100
AcDbSpline
210
0.0
220
0.0
230
1.0
 70
     8
 71
     3
 72
     8
 73
     4
 74
     0
 42
0.0000000001
 43
0.0000000001
 40
0.0
 40
0.0
 40
0.0
 40
0.0
 40
1.0
 40
1.0
 40
1.0
 40
1.0
 10
12777.98618287549
 20
-4156.994909474536
 30
0.0
 10
12777.91987355175
 20
-4156.994362803519
 30
0.0
 10
12777.85615102347
 20
-4156.986111669612
 30
0.0
 10
12777.81485737025
 20
-4156.972725340859
 30
0.0
  0
LINE
  5
3D6C36
330
18
100
AcDbEntity
  8
0
  6
ByBlock
 62
     8
370
    15
100
AcDbLine
 10
12778.05771828186
 20
-4156.995499253297
 30
0.0
 11
12777.98618279452
 21
-4156.99490949645
 31
0.0
  0
ARC
  5
3D6C37
330
18
100
AcDbEntity
  8
0
  6
ByBlock
 62
     8
370
    15
100
AcDbCircle
 10
12778.2121825452
 20
-4161.57363920458
 30
0.0
 40
4.580744985500973
100
AcDbArc
 50
70.5088860334563
 51
91.93239930512758
  0
ARC
  5
3D6C38
330
18
100
AcDbEntity
  8
0
  6
ByBlock
 62
     8
370
    15
100
AcDbCircle
 10
12778.93854798113
 20
-4157.45503122667
 30
0.0
 40
0.8983613035719946
100
AcDbArc
 50
341.9584299769837
 51
10.16955744138542
  0
ARC
  5
3D6C39
330
18
100
AcDbEntity
  8
0
  6
ByBlock
 62
     8
370
    15
100
AcDbCircle
 10
12778.97094887447
 20
-4155.974830246337
 30
0.0
 40
1.940982631552461
100
AcDbArc
 50
283.4236229325934
 51
295.0487069871459
  0
LINE
  5
3D6C3A
330
18
100
AcDbEntity
  8
0
  6
ByBlock
 62
     8
370
    15
100
AcDbLine
 10
12777.5777029416
 20
-4157.087499109069
 30
0.0
 11
12778.05111973242
 21
-4157.091402078116
 31
0.0
  0
ARC
  5
3D6C3B
330
18
100
AcDbEntity
  8
0
  6
ByBlock
 62
     8
370
    15
100
AcDbCircle
 10
12776.22555926804
 20
-4160.829338801522
 30
0.0
 40
3.978650122585451
100
AcDbArc
 50
70.13227321109259
 51
79.71919468706892
  0
ARC
  5
3D6C3C
330
18
100
AcDbEntity
  8
0
  6
ByBlock
 62
     8
370
    15
100
AcDbCircle
 10
12775.75601757875
 20
-4157.819809457789
 30
0.0
 40
1.486933888403996
100
AcDbArc
 50
37.50267566001401
 51
42.87099257042574
  0
LWPOLYLINE
  5
3D6C3D
330
18
100
AcDbEntity
  8
0
  6
ByBlock
 62
     8
370
    15
100
AcDbPolyline
 90
        3
 70
   128
 43
0.0
 10
12755.78543280731
 20
-4156.74019866184
 10
12755.79769988376
 20
-4156.74274705981
 10
12755.80483790796
 20
-4156.742282607001
  0
ARC
  5
3D6C3E
330
18
100
AcDbEntity
  8
0
  6
ByBlock
 62
     8
370
    15
100
AcDbCircle
 10
12755.13431704815
 20
-4156.832785075012
 30
0.0
 40
0.0709649537998355
100
AcDbArc
 50
258.6191159704364
 51
288.800466864163
  0
ARC
  5
3D6C3F
330
18
100
AcDbEntity
  8
0
  6
ByBlock
 62
     8
370
    15
100
AcDbCircle
 10
12751.20548985157
 20
-4156.673233866364
 30
0.0
 40
3.521937457000435
100
AcDbArc
 50
357.8861968804902
 51
0.0820104485181274
  0
SPLINE
  5
3D6C40
330
18
100
AcDbEntity
  8
0
  6
ByBlock
 62
     8
370
    15
100
AcDbSpline
210
0.0
220
0.0
230
1.0
 70
     8
 71
     3
 72
     8
 73
     4
 74
     0
 42
0.0000000001
 43
0.0000000001
 40
0.0
 40
0.0
 40
0.0
 40
0.0
 40
1.0
 40
1.0
 40
1.0
 40
1.0
 10
12754.72742361857
 20
-4156.668192760711
 30
0.0
 10
12754.76057735505
 20
-4156.668731073074
 30
0.0
 10
12754.79297317611
 20
-4156.665134875977
 30
0.0
 10
12754.81451474694
 20
-4156.658524921027
 30
0.0
  0
ARC
  5
3D6C41
330
18
100
AcDbEntity
  8
0
  6
ByBlock
 62
     8
370
    15
100
AcDbCircle
 10
12751.13395436416
 20
-4156.672644109517
 30
0.0
 40
3.521937457065053
100
AcDbArc
 50
357.886196880484
 51
0.0820104484722573
  0
LWPOLYLINE
  5
3D6C42
330
18
100
AcDbEntity
  8
0
  6
ByBlock
 62
     8
370
    15
100
AcDbPolyline
 90
        3
 70
   128
 43
0.0
 10
12754.72742370075
 20
-4156.668192734637
 10
12754.72674266289
 20
-4156.503519796006
 10
12754.72561695996
 20
-4156.231077907549
  0
LINE
  5
3D6C43
330
18
100
AcDbEntity
  8
0
  6
ByBlock
 62
     8
370
    15
100
AcDbLine
 10
12754.65588821341
 20
-4156.667602977793
 30
0.0
 11
12754.65778172788
 21
-4156.230518656555
 31
0.0
  0
LINE
  5
3D6C44
330
18
100
AcDbEntity
  8
0
  6
ByBlock
 62
     8
370
    15
100
AcDbLine
 10
12754.65588821341
 20
-4156.667602977793
 30
0.0
 11
12754.72742370075
 21
-4156.668192734637
 31
0.0
  0
LWPOLYLINE
  5
3D6C45
330
18
100
AcDbEntity
  8
0
  6
ByBlock
 62
     8
370
    15
100
AcDbPolyline
 90
        3
 70
   128
 43
0.0
 10
12776.91486282096
 20
-4156.916240754244
 10
12776.92277214674
 20
-4156.916907555985
 10
12776.93563927318
 20
-4156.914566370811
  0
ARC
  5
3D6C46
330
18
100
AcDbEntity
  8
0
  6
ByBlock
 62
     8
370
    15
100
AcDbCircle
 10
12777.56455976525
 20
-4157.014358615401
 30
0.0
 40
0.0743120104575667
100
AcDbArc
 50
249.4675147869766
 51
280.1871942674568
  0
SPLINE
  5
3D6C47
330
18
100
AcDbEntity
  8
0
  6
ByBlock
 62
     8
370
    15
100
AcDbSpline
210
0.0
220
0.0
230
1.0
 70
     8
 71
     3
 72
     8
 73
     4
 74
     0
 42
0.0000000001
 43
0.0000000001
 40
0.0
 40
0.0
 40
0.0
 40
0.0
 40
1.0
 40
1.0
 40
1.0
 40
1.0
 10
12777.90291306237
 20
-4156.848871579089
 30
0.0
 10
12777.92355524635
 20
-4156.855829295863
 30
0.0
 10
12777.95541972487
 20
-4156.859955283589
 30
0.0
 10
12777.98857581499
 20
-4156.859963645927
 30
0.0
  0
ARC
  5
3D6C48
330
18
100
AcDbEntity
  8
0
  6
ByBlock
 62
     8
370
    15
100
AcDbCircle
 10
12774.46664188577
 20
-4156.865004750243
 30
0.0
 40
3.521937457065466
100
AcDbArc
 50
357.8861968804988
 51
0.082010448457419
  0
LWPOLYLINE
  5
3D6C49
330
18
100
AcDbEntity
  8
0
  6
ByBlock
 62
     8
370
    15
100
AcDbPolyline
 90
        3
 70
   128
 43
0.0
 10
12777.99416950476
 20
-4156.422909803132
 10
12777.99068344648
 20
-4156.695313671049
 10
12777.98857573502
 20
-4156.859963618521
  0
ARC
  5
3D6C4A
330
18
100
AcDbEntity
  8
0
  6
ByBlock
 62
     8
370
    15
100
AcDbCircle
 10
12774.53817737311
 20
-4156.865594507089
 30
0.0
 40
3.521937457064352
100
AcDbArc
 50
357.8861968805136
 51
0.0820104484870531
  0
LINE
  5
3D6C4B
330
18
100
AcDbEntity
  8
0
  6
ByBlock
 62
     8
370
    15
100
AcDbLine
 10
12777.98857573502
 20
-4156.859963618521
 30
0.0
 11
12778.06011122236
 21
-4156.860553375365
 31
0.0
  0
LINE
  5
3D6C4C
330
18
100
AcDbEntity
  8
0
  6
ByBlock
 62
     8
370
    15
100
AcDbLine
 10
12778.06011122236
 20
-4156.860553375365
 30
0.0
 11
12778.06200473683
 21
-4156.423469054125
 31
0.0
  0
LWPOLYLINE
  5
3D6C4D
330
18
100
AcDbEntity
  8
0
  6
ByBlock
 62
     8
370
    15
100
AcDbPolyline
 90
        3
 70
   128
 43
0.0
 10
12754.64689672347
 20
-4156.898451680545
 10
12754.64652601635
 20
-4156.901923760893
 10
12754.6464104408
 20
-4156.902149684764
  0
LWPOLYLINE
  5
3D6C4E
330
18
100
AcDbEntity
  8
0
  6
ByBlock
 62
     8
370
    15
100
AcDbPolyline
 90
        3
 70
   128
 43
0.0
 10
12778.05063344975
 20
-4157.095100082335
 10
12778.0507490253
 20
-4157.094874158465
 10
12778.05111973242
 20
-4157.091402078116
  0
ARC
  5
3D6C4F
330
18
100
AcDbEntity
  8
0
  6
ByBlock
 62
     8
370
    15
100
AcDbCircle
 10
12752.81911221849
 20
-4157.624178817413
 30
0.0
 40
0.1132975306758187
100
AcDbArc
 50
90.06834721423505
 51
159.4710998061771
  0
ARC
  5
3D6C50
330
18
100
AcDbEntity
  8
0
  6
ByBlock
 62
     8
370
    15
100
AcDbCircle
 10
12779.7904699291
 20
-4157.847484308777
 30
0.0
 40
0.1142468844877289
100
AcDbArc
 50
19.91615597288106
 51
88.86211068475516
  0
SPLINE
  5
3D6C51
330
18
100
AcDbEntity
  8
0
  6
ByBlock
 62
     8
370
    15
100
AcDbSpline
210
0.0
220
0.0
230
1.0
 70
     8
 71
     3
 72
     9
 73
     5
 74
     0
 42
0.0000000001
 43
0.0000000001
 40
0.0
 40
0.0
 40
0.0
 40
0.0
 40
0.2405252225589074
 40
1.0
 40
1.0
 40
1.0
 40
1.0
 10
12752.88654722795
 20
-4157.554907004944
 30
0.0
 10
12752.87977091064
 20
-4157.553371084164
 30
0.0
 10
12752.85159790975
 20
-4157.546985388878
 30
0.0
 10
12752.83305780764
 20
-4157.526465616731
 30
0.0
 10
12752.81897706772
 20
-4157.510881367348
 30
0.0
  0
LINE
  5
3D6C52
330
18
100
AcDbEntity
  8
0
  6
ByBlock
 62
     8
370
    15
100
AcDbLine
 10
12779.79273871338
 20
-4157.733259953962
 30
0.0
 11
12779.71879569027
 21
-4157.773077709891
 31
0.0
  0
LINE
  5
3D6C53
330
18
100
AcDbEntity
  8
0
  6
ByBlock
 62
     8
370
    15
100
AcDbLine
 10
12781.20313093094
 20
-4181.691250483848
 30
0.0
 11
12781.20310664759
 21
-4181.6972678246
 31
0.0
  0
LWPOLYLINE
  5
3D6C5B
330
18
100
AcDbEntity
  8
0
  6
ByBlock
 62
     8
370
    15
100
AcDbPolyline
 90
        9
 70
   128
 43
0.0
 10
12751.97544885656
 20
-4174.0721605204
 10
12751.99897933664
 20
-4174.354517954035
 10
12752.10823610647
 20
-4174.635885186673
 10
12752.30256236193
 20
-4174.914569993087
 10
12752.58078886326
 20
-4175.188896403031
 10
12752.94124264683
 20
-4175.457214580687
 10
12753.3817557415
 20
-4175.717910637636
 10
12753.89967906071
 20
-4175.969417053715
 10
12754.23768602609
 20
-4176.111825169546
  0
LWPOLYLINE
  5
3D6C5C
330
18
100
AcDbEntity
  8
0
  6
ByBlock
 62
     8
370
    15
100
AcDbPolyline
 90
       17
 70
   128
 43
0.0
 10
12778.25453559549
 20
-4176.20802036111
 10
12778.63313395032
 20
-4176.051030647957
 10
12779.14741656545
 20
-4175.802930317126
 10
12779.58415286593
 20
-4175.5451288356
 10
12779.94071402172
 20
-4175.279176674998
 10
12780.21495723807
 20
-4175.006673262743
 10
12780.40523162618
 20
-4174.729257488817
 10
12780.5103945362
 20
-4174.448597816695
 10
12780.52981225907
 20
-4174.166382082561
 10
12780.46336800937
 20
-4173.884307637143
 10
12780.31146264771
 20
-4173.604070845885
 10
12780.07500806283
 20
-4173.327357110402
 10
12779.75542787339
 20
-4173.055830667701
 10
12779.35464247362
 20
-4172.791124443175
 10
12778.87506447486
 20
-4172.534830471369
 10
12778.31957538613
 20
-4172.288489995863
 10
12777.92238894716
 20
-4172.135514551837
  0
LWPOLYLINE
  5
3D6C5D
330
18
100
AcDbEntity
  8
0
  6
ByBlock
 62
     8
370
    15
100
AcDbPolyline
 90
       10
 70
   128
 43
0.0
 10
12755.09433526552
 20
-4171.876070116595
 10
12754.7830939524
 20
-4171.977993250624
 10
12754.15842899175
 20
-4172.208764879094
 10
12753.60650297128
 20
-4172.451451183718
 10
12753.13063554341
 20
-4172.704592365376
 10
12752.73368837375
 20
-4172.966666335949
 10
12752.41804893509
 20
-4173.236096763268
 10
12752.18561519784
 20
-4173.511263251205
 10
12752.03778557403
 20
-4173.790510997891
 10
12751.97544885656
 20
-4174.0721605204
  0
LWPOLYLINE
  5
3D6C5E
330
18
100
AcDbEntity
  8
0
  6
ByBlock
 62
     8
370
    15
100
AcDbPolyline
 90
       42
 70
   128
 43
0.0
 10
12751.6965860793
 20
-4173.799106455355
 10
12751.75884449358
 20
-4173.5154252462
 10
12751.90616709841
 20
-4173.234113088295
 10
12752.13768898418
 20
-4172.95682083705
 10
12752.45205328769
 20
-4172.685175743347
 10
12752.84741497478
 20
-4172.420771976309
 10
12753.32145192328
 20
-4172.165161206288
 10
12753.87138434477
 20
-4171.919843323063
 10
12754.4939837131
 20
-4171.686257998431
 10
12755.18559737324
 20
-4171.465775846142
 10
12755.94216677379
 20
-4171.259691258046
 10
12756.75925106031
 20
-4171.069213156703
 10
12757.63205460262
 20
-4170.895459238014
 10
12758.55545769644
 20
-4170.739449575096
 10
12759.52404054111
 20
-4170.602099368831
 10
12760.53211794831
 20
-4170.484214978494
 10
12761.57377576152
 20
-4170.386487838752
 10
12762.64289973731
 20
-4170.309491772097
 10
12763.73321682717
 20
-4170.253678275775
 10
12764.83832826939
 20
-4170.219375198789
 10
12765.95174887085
 20
-4170.206783608139
 10
12767.06694445812
 20
-4170.215977565651
 10
12768.1773708826
 20
-4170.246903119688
 10
12769.27651156537
 20
-4170.299378614692
 10
12770.35791631945
 20
-4170.373096341076
 10
12771.41523872772
 20
-4170.467623375329
 10
12772.44227494923
 20
-4170.582405357538
 10
12773.43299659152
 20
-4170.716768358214
 10
12774.38159129755
 20
-4170.869924266317
 10
12775.28249122453
 20
-4171.040973949705
 10
12776.13040858554
 20
-4171.228913931408
 10
12776.920369773
 20
-4171.432640926467
 10
12777.64773831208
 20
-4171.650959478292
 10
12778.30824464798
 20
-4171.882588853486
 10
12778.89801285012
 20
-4172.126169246301
 10
12779.41358290699
 20
-4172.380271404345
 10
12779.85192795266
 20
-4172.643404084767
 10
12780.21047763196
 20
-4172.91402328984
 10
12780.48712585851
 20
-4173.19054084193
 10
12780.68024893792
 20
-4173.471333974823
 10
12780.78871534298
 20
-4173.754754922716
 10
12780.81382941658
 20
-4173.950368080679
  0
LWPOLYLINE
  5
3D6C5F
330
18
100
AcDbEntity
  8
0
  6
ByBlock
 62
     8
370
    15
100
AcDbPolyline
 90
       43
 70
   128
 43
0.0
 10
12780.8665636737
 20
-4160.982096737162
 10
12780.82914561871
 20
-4160.712154224238
 10
12780.70806102138
 20
-4160.431434825603
 10
12780.50388619206
 20
-4160.153553505319
 10
12780.21779744709
 20
-4159.880113715604
 10
12779.85144560454
 20
-4159.612692832557
 10
12779.40694610833
 20
-4159.352834029165
 10
12778.88686091423
 20
-4159.102036551074
 10
12778.29419279932
 20
-4158.861747424624
 10
12777.63236088998
 20
-4158.633353143036
 10
12776.90518350842
 20
-4158.418171146965
 10
12776.11685567671
 20
-4158.217443122784
 10
12775.27192668483
 20
-4158.032327370512
 10
12774.37527135543
 20
-4157.863891784699
 10
12773.43206225105
 20
-4157.713108305906
 10
12772.44774243919
 20
-4157.580846844855
 10
12771.4279903626
 20
-4157.467870205358
 10
12770.37869005661
 20
-4157.374830913126
 10
12769.30589583179
 20
-4157.302265073265
 10
12768.2157968332
 20
-4157.250591812144
 10
12767.11468296374
 20
-4157.220109006908
 10
12766.00890722726
 20
-4157.210992709055
 10
12764.90484951357
 20
-4157.223295516027
 10
12763.80887983577
 20
-4157.256946268129
 10
12762.72732193237
 20
-4157.311751078303
 10
12761.66641557382
 20
-4157.387393287339
 10
12760.63228193715
 20
-4157.483437167956
 10
12759.6308881287
 20
-4157.599327898291
 10
12758.66801106197
 20
-4157.734397115414
 10
12757.74920727266
 20
-4157.887865592146
 10
12756.87977713042
 20
-4158.058847729456
 10
12756.06473679931
 20
-4158.246357176618
 10
12755.30878971338
 20
-4158.44931191543
 10
12754.61629690864
 20
-4158.666540797852
 10
12753.99125356695
 20
-4158.896790799757
 10
12753.4372656238
 20
-4159.138733344327
 10
12752.9575314627
 20
-4159.390972529176
 10
12752.5548163274
 20
-4159.652053027452
 10
12752.23144549745
 20
-4159.920468276629
 10
12751.98928485737
 20
-4160.194669893202
 10
12751.82972991424
 20
-4160.473075627722
 10
12751.75370302971
 20
-4160.754079261795
 10
12751.74726941131
 20
-4160.838394263384
  0
LWPOLYLINE
  5
3D6C60
330
18
100
AcDbEntity
  8
0
  6
ByBlock
 62
     8
370
    15
100
AcDbPolyline
 90
       10
 70
   128
 43
0.0
 10
12752.26024753399
 20
-4174.074508473502
 10
12752.32134098398
 20
-4173.798477043166
 10
12752.46622241911
 20
-4173.524799488255
 10
12752.69401892022
 20
-4173.255121744207
 10
12753.00336251331
 20
-4172.991065717405
 10
12753.39239189368
 20
-4172.734219392041
 10
12753.85876662856
 20
-4172.486127571782
 10
12754.3996834729
 20
-4172.248282239914
 10
12755.01188844958
 20
-4172.022113815459
 10
12755.40150325459
 20
-4171.895802853798
  0
LWPOLYLINE
  5
3D6C61
330
18
100
AcDbEntity
  8
0
  6
ByBlock
 62
     8
370
    15
100
AcDbPolyline
 90
       18
 70
   128
 43
0.0
 10
12777.10500597968
 20
-4171.977764602593
 10
12777.46335589181
 20
-4172.096197469207
 10
12778.0788850494
 20
-4172.326417032087
 10
12778.62329315774
 20
-4172.56784373131
 10
12779.09330544064
 20
-4172.819025372444
 10
12779.48609566427
 20
-4173.078451488111
 10
12779.79930225227
 20
-4173.34456178239
 10
12780.03103909475
 20
-4173.615755861312
 10
12780.17991472357
 20
-4173.890402699871
 10
12780.24503371452
 20
-4174.166850594185
 10
12780.2260033202
 20
-4174.443436924063
 10
12780.12293799184
 20
-4174.718498263852
 10
12779.93645869345
 20
-4174.990380350661
 10
12779.66768699455
 20
-4175.257448109218
 10
12779.31823710218
 20
-4175.518095294069
 10
12778.89021309156
 20
-4175.770754407357
 10
12778.38618845055
 20
-4176.013905839084
 10
12778.19377233526
 20
-4176.095911525739
  0
LWPOLYLINE
  5
3D6C62
330
18
100
AcDbEntity
  8
0
  6
ByBlock
 62
     8
370
    15
100
AcDbPolyline
 90
        9
 70
   128
 43
0.0
 10
12754.3107256154
 20
-4176.005047286614
 10
12754.14609486212
 20
-4175.933920171373
 10
12753.63850245225
 20
-4175.687430661172
 10
12753.20677684335
 20
-4175.431934672087
 10
12752.85351290797
 20
-4175.168968690867
 10
12752.58083596673
 20
-4174.900114337992
 10
12752.39038681673
 20
-4174.626988469874
 10
12752.28330881844
 20
-4174.351233696984
 10
12752.26024753399
 20
-4174.074508473502
  0
LWPOLYLINE
  5
3D6C63
330
18
100
AcDbEntity
  8
0
  6
ByBlock
 62
     8
370
    15
100
AcDbPolyline
 90
        9
 70
   128
 43
0.0
 10
12752.53934196522
 20
-4173.85240865462
 10
12752.56463794595
 20
-4174.085371303348
 10
12752.67244256459
 20
-4174.358952348766
 10
12752.86398412139
 20
-4174.629850853589
 10
12753.13808046384
 20
-4174.896396525953
 10
12753.49304251595
 20
-4175.156946212662
 10
12753.92668197457
 20
-4175.409893371312
 10
12754.43632414708
 20
-4175.653678648663
 10
12754.49732211089
 20
-4175.680054091317
  0
LWPOLYLINE
  5
3D6C64
330
18
100
AcDbEntity
  8
0
  6
ByBlock
 62
     8
370
    15
100
AcDbPolyline
 90
        8
 70
   128
 43
0.0
 10
12777.98232546577
 20
-4175.780831095793
 10
12778.36339926596
 20
-4175.611355915696
 10
12778.83133513719
 20
-4175.365841574545
 10
12779.22172839335
 20
-4175.111436787541
 10
12779.53217226299
 20
-4174.849710214119
 10
12779.76075360066
 20
-4174.582275309837
 10
12779.90606187721
 20
-4174.310780991834
 10
12779.96720346922
 20
-4174.036901117863
  0
LINE
  5
3D6C6B
330
18
100
AcDbEntity
  8
0
  6
ByBlock
 62
     8
370
    15
100
AcDbLine
 10
12765.17489867551
 20
-4157.022586620791
 30
0.0
 11
12765.19663439532
 21
-4155.885903446215
 31
0.0
  0
LINE
  5
3D6C6C
330
18
100
AcDbEntity
  8
0
  6
ByBlock
 62
     8
370
    15
100
AcDbLine
 10
12773.92317721658
 20
-4156.170613917908
 30
0.0
 11
12773.9209179788
 21
-4157.589748403257
 31
0.0
  0
LINE
  5
3D6C6D
330
18
100
AcDbEntity
  8
0
  6
ByBlock
 62
     8
370
    15
100
AcDbLine
 10
12760.66642754889
 20
-4157.29487338095
 30
0.0
 11
12760.67282979044
 21
-4155.711317671918
 31
0.0
  0
LINE
  5
3D6C6E
330
18
100
AcDbEntity
  8
0
  6
ByBlock
 62
     8
370
    15
100
AcDbLine
 10
12768.36023184284
 20
-4157.067659706077
 30
0.0
 11
12768.35100678753
 21
-4155.371447531002
 31
0.0
  0
LINE
  5
3D6C6F
330
18
100
AcDbEntity
  8
0
  6
ByBlock
 62
     8
370
    15
100
AcDbLine
 10
12765.35926353413
 20
-4155.593793552347
 30
0.0
 11
12765.33300713138
 21
-4157.017383332958
 31
0.0
  0
LINE
  5
3D6C70
330
18
100
AcDbEntity
  8
0
  6
ByBlock
 62
     8
370
    15
100
AcDbLine
 10
12768.42792719646
 20
-4155.471168787053
 30
0.0
 11
12768.43716783264
 21
-4157.071194962685
 31
0.0
  0
LINE
  5
3D6C71
330
18
100
AcDbEntity
  8
0
  6
ByBlock
 62
     8
370
    15
100
AcDbLine
 10
12760.79635221398
 20
-4155.81112057504
 30
0.0
 11
12760.79069171597
 21
-4157.280048339274
 31
0.0
  0
ARC
  5
3D6C72
330
18
100
AcDbEntity
  8
0
  6
ByBlock
 62
     8
370
    15
100
AcDbCircle
 10
12765.66106426717
 20
-4185.966041124909
 30
0.0
 40
30.54479753950626
100
AcDbArc
 50
92.98971770485689
 51
99.16422703807917
  0
LINE
  5
3D6C73
330
18
100
AcDbEntity
  8
0
  6
ByBlock
 62
     8
370
    15
100
AcDbLine
 10
12769.45510230217
 20
-4157.117968481685
 30
0.0
 11
12769.43478950585
 21
-4155.544897260226
 31
0.0
  0
ARC
  5
3D6C74
330
18
100
AcDbEntity
  8
0
  6
ByBlock
 62
     8
370
    15
100
AcDbCircle
 10
12759.05047102201
 20
-4159.870248504021
 30
0.0
 40
4.72102405223684
100
AcDbArc
 50
106.1011704106699
 51
129.4917140249265
  0
ARC
  5
3D6C75
330
18
100
AcDbEntity
  8
0
  6
ByBlock
 62
     8
370
    15
100
AcDbCircle
 10
12773.73772792073
 20
-4159.545863565094
 30
0.0
 40
4.306742259980837
100
AcDbArc
 50
45.78794299496882
 51
74.1079487537004
  0
LINE
  5
3D6C76
330
18
100
AcDbEntity
  8
0
  6
ByBlock
 62
     8
370
    15
100
AcDbLine
 10
12776.76793587081
 20
-4157.364433097661
 30
0.0
 11
12776.76739552582
 21
-4156.779957605898
 31
0.0
  0
LINE
  5
3D6C77
330
18
100
AcDbEntity
  8
0
  6
ByBlock
 62
     8
370
    15
100
AcDbLine
 10
12773.74185181325
 20
-4157.572294831055
 30
0.0
 11
12773.74400175387
 21
-4156.281268230373
 31
0.0
  0
LINE
  5
3D6C78
330
18
100
AcDbEntity
  8
0
  6
ByBlock
 62
     8
370
    15
100
AcDbLine
 10
12757.39555992597
 20
-4156.785101859579
 30
0.0
 11
12757.40226528143
 21
-4157.758565577802
 31
0.0
  0
ARC
  5
3D6C79
330
18
100
AcDbEntity
  8
0
  6
ByBlock
 62
     8
370
    15
100
AcDbCircle
 10
12761.18569678111
 20
-4164.595871679683
 30
0.0
 40
8.68177761540228
100
AcDbArc
 50
103.7274272922684
 51
115.8847475636505
  0
LINE
  5
3D6C7A
330
18
100
AcDbEntity
  8
0
  6
ByBlock
 62
     8
370
    15
100
AcDbLine
 10
12757.29495171835
 20
-4157.780653298218
 30
0.0
 11
12757.28768091118
 21
-4156.701220116185
 31
0.0
  0
LINE
  5
3D6C7B
330
18
100
AcDbEntity
  8
0
  6
ByBlock
 62
     8
370
    15
100
AcDbLine
 10
12776.5783112599
 20
-4157.341732726171
 30
0.0
 11
12776.5753547654
 21
-4158.143842824591
 31
0.0
  0
LINE
  5
3D6C7C
330
18
100
AcDbEntity
  8
0
  6
ByBlock
 62
     8
370
    15
100
AcDbLine
 10
12775.96711260307
 20
-4157.99385036071
 30
0.0
 11
12775.97904671792
 21
-4157.368138623544
 31
0.0
  0
ARC
  5
3D6C7D
330
18
100
AcDbEntity
  8
0
  6
ByBlock
 62
     8
370
    15
100
AcDbCircle
 10
12773.61685256215
 20
-4159.945105920153
 30
0.0
 40
3.495814880299331
100
AcDbArc
 50
47.48986543197387
 51
66.6928079266319
  0
ARC
  5
3D6C7E
330
18
100
AcDbEntity
  8
0
  6
ByBlock
 62
     8
370
    15
100
AcDbCircle
 10
12773.75330254729
 20
-4159.759353222514
 30
0.0
 40
3.423745099325831
100
AcDbArc
 50
47.0030502675874
 51
68.62308671742583
  0
LWPOLYLINE
  5
3D6C7F
330
18
100
AcDbEntity
  8
0
  6
ByBlock
 62
     8
370
    15
100
AcDbPolyline
 90
        3
 70
   128
 43
0.0
 10
12755.22282525259
 20
-4156.877362372864
 10
12755.23338195289
 20
-4157.483928458623
 10
12755.24748204712
 20
-4158.287960088172
  0
LINE
  5
3D6C80
330
18
100
AcDbEntity
  8
0
  6
ByBlock
 62
     8
370
    15
100
AcDbLine
 10
12776.05420186586
 20
-4157.388781851391
 30
0.0
 11
12776.04258850979
 21
-4158.01210182571
 31
0.0
  0
LINE
  5
3D6C81
330
18
100
AcDbEntity
  8
0
  6
ByBlock
 62
     8
370
    15
100
AcDbLine
 10
12776.46733059933
 20
-4158.114811628053
 30
0.0
 11
12776.4700802672
 21
-4157.434036520924
 31
0.0
  0
SPLINE
  5
3D6C82
330
18
100
AcDbEntity
  8
0
  6
ByBlock
 62
     8
370
    15
100
AcDbSpline
210
0.0
220
0.0
230
1.0
 70
     8
 71
     3
 72
     9
 73
     5
 74
     0
 42
0.0000000001
 43
0.0000000001
 40
0.0
 40
0.0
 40
0.0
 40
0.0
 40
0.951089399698406
 40
0.9999999999999998
 40
0.9999999999999998
 40
0.9999999999999998
 40
0.9999999999999998
 10
12776.81178261221
 20
-4157.3803568929
 30
0.0
 10
12776.81829257064
 20
-4157.660789837876
 30
0.0
 10
12776.82513730935
 20
-4157.955644291165
 30
0.0
 10
12776.92490411878
 20
-4158.229491382827
 30
0.0
 10
12776.92978377332
 20
-4158.24288540847
 30
0.0
  0
LINE
  5
3D6C83
330
18
100
AcDbEntity
  8
0
  6
ByBlock
 62
     8
370
    15
100
AcDbLine
 10
12776.81159783751
 20
-4156.832273713073
 30
0.0
 11
12776.81178261221
 21
-4157.3803568929
 31
0.0
  0
LWPOLYLINE
  5
3D6C84
330
18
100
AcDbEntity
  8
0
  6
ByBlock
 62
     8
370
    15
100
AcDbPolyline
 90
        3
 70
   128
 43
0.0
 10
12777.43623697253
 20
-4158.393998007471
 10
12777.44933903083
 20
-4157.883047404471
 10
12777.47036335423
 20
-4157.058588451864
  0
LWPOLYLINE
  5
3D6C86
330
18
100
AcDbEntity
  8
0
  6
ByBlock
 62
     8
370
    15
100
AcDbPolyline
 90
        3
 70
   128
 43
0.0
 10
12755.15429227263
 20
-4158.314862531884
 10
12755.13423269443
 20
-4157.192600767309
 10
12755.12909395009
 20
-4156.90189152475
  0
LINE
  5
3D6C87
330
18
100
AcDbEntity
  8
0
  6
ByBlock
 62
     8
370
    15
100
AcDbLine
 10
12754.64351725964
 20
-4156.90216635462
 30
0.0
 11
12754.6371208782
 21
-4158.487170445394
 31
0.0
  0
LINE
  5
3D6C88
330
18
100
AcDbEntity
  8
0
  6
ByBlock
 62
     8
370
    15
100
AcDbLine
 10
12777.56207677704
 20
-4157.088989191598
 30
0.0
 11
12777.52747194339
 21
-4158.4235275101
 31
0.0
  0
LINE
  5
3D6C89
330
18
100
AcDbEntity
  8
0
  6
ByBlock
 62
     8
370
    15
100
AcDbLine
 10
12778.04774043217
 20
-4157.095076218856
 30
0.0
 11
12778.04167411179
 21
-4158.598292169839
 31
0.0
  0
LWPOLYLINE
  5
3D6C8F
330
18
100
AcDbEntity
  8
0
  6
ByBlock
 62
     8
370
    15
100
AcDbPolyline
 90
       14
 70
   128
 43
0.0
 10
12779.82453040746
 20
-4159.448395191513
 10
12780.08152877949
 20
-4159.237616654121
 10
12780.33491462738
 20
-4158.96373019731
 10
12780.50399945166
 20
-4158.685346112142
 10
12780.58776438335
 20
-4158.404138620151
 10
12780.58570800445
 20
-4158.121798958772
 10
12780.4978407912
 20
-4157.840025145579
 10
12780.32469207572
 20
-4157.560511795863
 10
12780.06730344516
 20
-4157.284939894897
 10
12779.72722212146
 20
-4157.014966852606
 10
12779.3064943617
 20
-4156.752216259229
 10
12778.80764941845
 20
-4156.498268344408
 10
12778.23368872617
 20
-4156.254650313153
 10
12777.83343490219
 20
-4156.106566022805
  0
LWPOLYLINE
  5
3D6C90
330
18
100
AcDbEntity
  8
0
  6
ByBlock
 62
     8
370
    15
100
AcDbPolyline
 90
       15
 70
   128
 43
0.0
 10
12754.91566341023
 20
-4155.981045364824
 10
12754.68476988412
 20
-4156.060507006142
 10
12754.07795492601
 20
-4156.294390421082
 10
12753.54474986775
 20
-4156.539829851856
 10
12753.08836277877
 20
-4156.795349286193
 10
12752.71153737456
 20
-4157.059411966148
 10
12752.41654088612
 20
-4157.330429862982
 10
12752.20514672646
 20
-4157.606772942929
 10
12752.07862648941
 20
-4157.886779291175
 10
12752.03774196914
 20
-4158.168764936805
 10
12752.08273716018
 20
-4158.451033960164
 10
12752.21334381073
 20
-4158.731888778464
 10
12752.42877446451
 20
-4159.009640278362
 10
12752.7277342818
 20
-4159.282618003632
 10
12752.81054986687
 20
-4159.346362602713
  0
LWPOLYLINE
  5
3D6C91
330
18
100
AcDbEntity
  8
0
  6
ByBlock
 62
     8
370
    15
100
AcDbPolyline
 90
       43
 70
   128
 43
0.0
 10
12751.75882967384
 20
-4157.896006502665
 10
12751.78151119986
 20
-4157.6830892732
 10
12751.88637859459
 20
-4157.400385119199
 10
12752.07594017297
 20
-4157.120877804152
 10
12752.34908444369
 20
-4156.846207589701
 10
12752.70420724244
 20
-4156.577986422693
 10
12753.13922597453
 20
-4156.317788095375
 10
12753.65158645078
 20
-4156.067139890474
 10
12754.23828342067
 20
-4155.827512311179
 10
12754.89587254742
 20
-4155.600311865719
 10
12755.62049606881
 20
-4155.386872102972
 10
12756.40790008742
 20
-4155.188444978024
 10
12757.25346418366
 20
-4155.006195112001
 10
12758.152228019
 20
-4154.841192298282
 10
12759.09891527705
 20
-4154.694404784676
 10
12760.08797108933
 20
-4154.566693730641
 10
12761.11359102629
 20
-4154.458808924824
 10
12762.16975697704
 20
-4154.37138296356
 10
12763.25027066885
 20
-4154.30492939947
 10
12764.3487910198
 20
-4154.259838261949
 10
12765.45887160577
 20
-4154.236373706372
 10
12766.57399799952
 20
-4154.23467352401
 10
12767.68762618911
 20
-4154.254748128918
 10
12768.79322101476
 20
-4154.296479279008
 10
12769.8842943861
 20
-4154.359621986925
 10
12770.95444351782
 20
-4154.443806165132
 10
12771.99738815894
 20
-4154.548537730734
 10
12773.00700769401
 20
-4154.673201571051
 10
12773.97737783738
 20
-4154.817066633572
 10
12774.90280386002
 20
-4154.979288327655
 10
12775.77785562797
 20
-4155.158914930667
 10
12776.59739597148
 20
-4155.35489234336
 10
12777.35661730609
 20
-4155.566070243103
 10
12778.0510646226
 20
-4155.791209188611
 10
12778.67666102953
 20
-4156.028988543645
 10
12779.22973654318
 20
-4156.278012698667
 10
12779.70704417063
 20
-4156.536819980416
 10
12780.10578430873
 20
-4156.803892029002
 10
12780.42361571314
 20
-4157.077661202496
 10
12780.65867459581
 20
-4157.356521173662
 10
12780.80958030408
 20
-4157.638835388057
 10
12780.87544819381
 20
-4157.92294712739
 10
12780.87851400637
 20
-4158.012124542056
  0
LWPOLYLINE
  5
3D6C92
330
18
100
AcDbEntity
  8
0
  6
ByBlock
 62
     8
370
    15
100
AcDbPolyline
 90
       22
 70
   128
 43
0.0
 10
12766.64982513579
 20
-4135.444937118184
 10
12765.53469874205
 20
-4135.446637300546
 10
12764.42461815607
 20
-4135.470101856124
 10
12763.32609780513
 20
-4135.515192993644
 10
12762.24558411332
 20
-4135.581646557735
 10
12761.18941816257
 20
-4135.669072518999
 10
12760.1637982256
 20
-4135.776957324816
 10
12759.17474241333
 20
-4135.904668378851
 10
12758.22805515528
 20
-4136.051455892457
 10
12757.32929131993
 20
-4136.216458706176
 10
12756.48372722369
 20
-4136.398708572198
 10
12755.69632320508
 20
-4136.597135697146
 10
12754.97169968369
 20
-4136.810575459895
 10
12754.31411055695
 20
-4137.037775905354
 10
12753.72741358705
 20
-4137.277403484648
 10
12753.21505311081
 20
-4137.52805168955
 10
12752.78003437871
 20
-4137.788250016868
 10
12752.42491157996
 20
-4138.056471183875
 10
12752.15176730925
 20
-4138.331141398326
 10
12751.96220573087
 20
-4138.610648713373
 10
12751.85733833613
 20
-4138.893352867375
 10
12751.83464701123
 20
-4139.096645469141
  0
LWPOLYLINE
  5
3D6C93
330
18
100
AcDbEntity
  8
0
  6
ByBlock
 62
     8
370
    15
100
AcDbPolyline
 90
       22
 70
   128
 43
0.0
 10
12780.95440952026
 20
-4139.214160055359
 10
12780.95127533009
 20
-4139.133210721564
 10
12780.88540744035
 20
-4138.849098982232
 10
12780.73450173208
 20
-4138.566784767836
 10
12780.49944284941
 20
-4138.28792479667
 10
12780.18161144501
 20
-4138.014155623176
 10
12779.78287130691
 20
-4137.747083574589
 10
12779.30556367945
 20
-4137.488276292841
 10
12778.75248816581
 20
-4137.23925213782
 10
12778.12689175887
 20
-4137.001472782785
 10
12777.43244444236
 20
-4136.776333837276
 10
12776.67322310775
 20
-4136.565155937534
 10
12775.85368276424
 20
-4136.369178524841
 10
12774.97863099629
 20
-4136.189551921829
 10
12774.05320497365
 20
-4136.027330227747
 10
12773.08283483029
 20
-4135.883465165225
 10
12772.07321529521
 20
-4135.758801324907
 10
12771.0302706541
 20
-4135.654069759306
 10
12769.96012152237
 20
-4135.5698855811
 10
12768.86904815103
 20
-4135.506742873181
 10
12767.76345332539
 20
-4135.465011723093
 10
12766.64982513579
 20
-4135.444937118184
  0
LWPOLYLINE
  5
3D6C94
330
18
100
AcDbEntity
  8
0
  6
ByBlock
 62
     8
370
    15
100
AcDbPolyline
 90
       15
 70
   128
 43
0.0
 10
12752.9159085853
 20
-4159.271832376033
 10
12752.91133289955
 20
-4159.268206461467
 10
12752.61641231458
 20
-4158.99891665393
 10
12752.40389155758
 20
-4158.724917567706
 10
12752.27505032484
 20
-4158.447857093018
 10
12752.23066303363
 20
-4158.16940152443
 10
12752.27099534068
 20
-4157.891225495955
 10
12752.39580587044
 20
-4157.615002029765
 10
12752.60434378756
 20
-4157.342392317923
 10
12752.89535573485
 20
-4157.075035884696
 10
12753.26708964413
 20
-4156.81454069814
 10
12753.71731106235
 20
-4156.562473380728
 10
12754.24331215333
 20
-4156.320349708662
 10
12754.8419300217
 20
-4156.089626118945
 10
12755.17877768944
 20
-4155.97525448486
  0
LWPOLYLINE
  5
3D6C95
330
18
100
AcDbEntity
  8
0
  6
ByBlock
 62
     8
370
    15
100
AcDbPolyline
 90
       14
 70
   128
 43
0.0
 10
12777.66854301968
 20
-4156.131793565282
 10
12778.07270200078
 20
-4156.281146541885
 10
12778.63890947162
 20
-4156.521473249475
 10
12779.13101463556
 20
-4156.771990449777
 10
12779.54605848876
 20
-4157.031191235286
 10
12779.88154473162
 20
-4157.297516925569
 10
12780.13545690384
 20
-4157.569365852543
 10
12780.30626606938
 20
-4157.845102998712
 10
12780.39294577765
 20
-4158.123070044488
 10
12780.39497451015
 20
-4158.401595308204
 10
12780.3123412575
 20
-4158.679003686957
 10
12780.14554168942
 20
-4158.953626823303
 10
12779.89557851239
 20
-4159.223813073746
 10
12779.71936194811
 20
-4159.372926567852
  0
ARC
  5
3D6C96
330
18
100
AcDbEntity
  8
0
  6
ByBlock
 62
     8
370
    15
100
AcDbCircle
 10
12753.89966728745
 20
-4157.908684785725
 30
0.0
 40
1.379118615212474
100
AcDbArc
 50
172.2970883812305
 51
240.0673652053142
  0
ARC
  5
3D6C97
330
18
100
AcDbEntity
  8
0
  6
ByBlock
 62
     8
370
    15
100
AcDbCircle
 10
12778.82280002213
 20
-4158.05896802068
 30
0.0
 40
1.294590124768866
100
AcDbArc
 50
297.2774437841098
 51
13.05594236051611
  0
SPLINE
  5
3D6C98
330
18
100
AcDbEntity
  8
0
  6
ByBlock
 62
     8
370
    15
100
AcDbSpline
210
0.0
220
0.0
230
1.0
 70
     8
 71
     3
 72
    11
 73
     7
 74
     0
 42
0.0000000001
 43
0.0000000001
 40
0.0
 40
0.0
 40
0.0
 40
0.0
 40
0.0398722001338179
 40
0.2483293151835056
 40
0.4558921093069478
 40
1.0
 40
1.0
 40
1.0
 40
1.0
 10
12779.77682119596
 20
-4157.779029836222
 30
0.0
 10
12779.77960559592
 20
-4157.783989540251
 30
0.0
 10
12779.79694720568
 20
-4157.814879230347
 30
0.0
 10
12779.82344656788
 20
-4157.840737379671
 30
0.0
 10
12779.86884235555
 20
-4157.864422990527
 30
0.0
 10
12779.8856891491
 20
-4157.83202121687
 30
0.0
 10
12779.89788394862
 20
-4157.808566716016
 30
0.0
  0
LINE
  5
3D6C99
330
18
100
AcDbEntity
  8
0
  6
ByBlock
 62
     8
370
    15
100
AcDbLine
 10
12756.63661506761
 20
-4155.582884609802
 30
0.0
 11
12756.63495047143
 21
-4155.721556392938
 31
0.0
  0
LINE
  5
3D6C9A
330
18
100
AcDbEntity
  8
0
  6
ByBlock
 62
     8
370
    15
100
AcDbLine
 10
12776.50122004183
 20
-4156.134951358756
 30
0.0
 11
12776.49989293996
 21
-4155.787958162338
 31
0.0
  0
LINE
  5
3D6C9B
330
18
100
AcDbEntity
  8
0
  6
ByBlock
 62
     8
370
    15
100
AcDbLine
 10
12776.75544040814
 20
-4155.858046699417
 30
0.0
 11
12776.75663844837
 21
-4156.159235473043
 31
0.0
  0
LINE
  5
3D6C9C
330
18
100
AcDbEntity
  8
0
  6
ByBlock
 62
     8
370
    15
100
AcDbLine
 10
12756.48496796588
 20
-4155.746332092532
 30
0.0
 11
12756.48649771749
 21
-4155.616550462569
 31
0.0
  0
LWPOLYLINE
  5
3D6C9D
330
18
100
AcDbEntity
  8
0
  6
ByBlock
 62
     8
370
    15
100
AcDbPolyline
 90
        9
 70
   128
 43
0.0
 10
12755.9027545369
 20
-4156.448581011328
 10
12755.9334500147
 20
-4156.447366243188
 10
12755.96564078635
 20
-4156.448236757931
 10
12755.99666507228
 20
-4156.451120508431
 10
12756.02395672161
 20
-4156.455778968375
 10
12756.0452569863
 20
-4156.461826690451
 10
12756.0588043996
 20
-4156.468763546774
 10
12756.06347900223
 20
-4156.476015658278
 10
12756.06347568032
 20
-4156.47623196321
  0
ARC
  5
3D6C9E
330
18
100
AcDbEntity
  8
0
  6
ByBlock
 62
     8
370
    15
100
AcDbCircle
 10
12755.95989105104
 20
-4156.481387705616
 30
0.0
 40
0.0998725210174288
100
AcDbArc
 50
264.9494996164122
 51
310.2219019972603
  0
ARC
  5
3D6C9F
330
18
100
AcDbEntity
  8
0
  6
ByBlock
 62
     8
370
    15
100
AcDbCircle
 10
12753.69036742803
 20
-4157.352767729288
 30
0.0
 40
0.8856190391952223
100
AcDbArc
 50
172.3099211798181
 51
190.2844158391462
  0
LWPOLYLINE
  5
3D6CA0
330
18
100
AcDbEntity
  8
0
  6
ByBlock
 62
     8
370
    15
100
AcDbPolyline
 90
       10
 70
   128
 43
0.0
 10
12753.21798161863
 20
-4157.501012382241
 10
12753.10943068134
 20
-4157.439746309097
 10
12753.02349839367
 20
-4157.343314942861
 10
12753.0302778293
 20
-4157.244783131658
 10
12753.12937499144
 20
-4157.149877195506
 10
12753.31503111668
 20
-4157.064112720845
 10
12753.57645569424
 20
-4156.992474016211
 10
12753.89845580284
 20
-4156.939124448801
 10
12754.26231781906
 20
-4156.907164554304
 10
12754.64689672347
 20
-4156.898451680545
  0
ARC
  5
3D6CA1
330
18
100
AcDbEntity
  8
0
  6
ByBlock
 62
     8
370
    15
100
AcDbCircle
 10
12755.79302989165
 20
-4156.637624158066
 30
0.0
 40
0.1028554544741866
100
AcDbArc
 50
265.7641757583492
 51
317.1804908464848
  0
LWPOLYLINE
  5
3D6CA2
330
18
100
AcDbEntity
  8
0
  6
ByBlock
 62
     8
370
    15
100
AcDbPolyline
 90
       10
 70
   128
 43
0.0
 10
12778.05111973242
 20
-4157.091402078116
 10
12778.43406429465
 20
-4157.106442611546
 10
12778.79311827095
 20
-4157.144362410291
 10
12779.10741605998
 20
-4157.202957780235
 10
12779.35869167658
 20
-4157.278823316335
 10
12779.53234201812
 20
-4157.367550005363
 10
12779.6182743058
 20
-4157.463981371599
 10
12779.61149487016
 20
-4157.562513182802
 10
12779.51239770802
 20
-4157.657419118952
 10
12779.42218195253
 20
-4157.705262258023
  0
ARC
  5
3D6CA3
330
18
100
AcDbEntity
  8
0
  6
ByBlock
 62
     8
370
    15
100
AcDbCircle
 10
12776.83896315496
 20
-4156.705612887837
 30
0.0
 40
0.1027870416668988
100
AcDbArc
 50
223.1731158041723
 51
273.798598921501
  0
LWPOLYLINE
  5
3D6CA4
330
18
100
AcDbEntity
  8
0
  6
ByBlock
 62
     8
370
    15
100
AcDbPolyline
 90
        8
 70
   128
 43
0.0
 10
12776.73422475313
 20
-4156.70171226511
 10
12776.73451743584
 20
-4156.699591958679
 10
12776.73703899082
 20
-4156.695383373689
 10
12776.74208985841
 20
-4156.691278853355
 10
12776.7495518058
 20
-4156.687373405875
 10
12776.7592527294
 20
-4156.683757536733
 10
12776.77096785337
 20
-4156.680514966327
 10
12776.78442506351
 20
-4156.677720819061
  0
ARC
  5
3D6CA5
330
18
100
AcDbEntity
  8
0
  6
ByBlock
 62
     8
370
    15
100
AcDbCircle
 10
12776.92979467082
 20
-4156.809954063088
 30
0.0
 40
0.1047754470480704
100
AcDbArc
 50
217.9293811053005
 51
273.1977430617581
  0
ARC
  5
3D6CA6
330
18
100
AcDbEntity
  8
0
  6
ByBlock
 62
     8
370
    15
100
AcDbCircle
 10
12754.55317387943
 20
-4163.662122000327
 30
0.0
 40
6.995273160569417
100
AcDbArc
 50
89.15867340825645
 51
99.37232855652663
  0
ARC
  5
3D6CA7
330
18
100
AcDbEntity
  8
0
  6
ByBlock
 62
     8
370
    15
100
AcDbCircle
 10
12778.09471383131
 20
-4163.135203460516
 30
0.0
 40
6.274745495367179
100
AcDbArc
 50
77.71237059701594
 51
90.31596397067986
  0
ARC
  5
3D6CA8
330
18
100
AcDbEntity
  8
0
  6
ByBlock
 62
     8
370
    15
100
AcDbCircle
 10
12753.31691029336
 20
-4157.160425016214
 30
0.0
 40
0.1929564110854028
100
AcDbArc
 50
190.8008401276531
 51
239.3992690089258
  0
LWPOLYLINE
  5
3D6CA9
330
18
100
AcDbEntity
  8
0
  6
ByBlock
 62
     8
370
    15
100
AcDbPolyline
 90
        3
 70
   128
 43
0.0
 10
12755.1203135143
 20
-4156.902354649593
 10
12755.11994280718
 20
-4156.905826729942
 10
12755.11982723162
 20
-4156.906052653813
  0
LWPOLYLINE
  5
3D6CAA
330
18
100
AcDbEntity
  8
0
  6
ByBlock
 62
     8
370
    15
100
AcDbPolyline
 90
        3
 70
   128
 43
0.0
 10
12777.57721665892
 20
-4157.091197113287
 10
12777.57733223447
 20
-4157.090971189417
 10
12777.5777029416
 20
-4157.087499109069
  0
LWPOLYLINE
  5
3D6CAB
330
18
100
AcDbEntity
  8
0
  6
ByBlock
 62
     8
370
    15
100
AcDbPolyline
 90
        3
 70
   128
 43
0.0
 10
12779.42288570307
 20
-4157.530759339544
 10
12779.50101251235
 20
-4157.451748835884
 10
12779.5151914688
 20
-4157.395439338973
  0
ENDSEC
  0
SECTION
  2
OBJECTS
  0
DICTIONARY
  5
C
330
0
100
AcDbDictionary
281
     1
  3
ACAD_COLOR
350
3D6D55
  3
ACAD_DETAILVIEWSTYLE
350
3BD5AB
  3
ACAD_GROUP
350
D
  3
ACAD_IMAGE_VARS
350
2F1759
  3
ACAD_LAYOUT
350
353
  3
ACAD_MATERIAL
350
3D6D2B
  3
ACAD_MLEADERSTYLE
350
3D6D58
  3
ACAD_MLINESTYLE
350
E
  3
ACAD_PLOTSETTINGS
350
354
  3
ACAD_PLOTSTYLENAME
350
351
  3
ACAD_SCALELIST
350
CD53
  3
ACAD_SECTIONVIEWSTYLE
350
3BD5AC
  3
ACAD_TABLESTYLE
350
3D6D56
  3
ACAD_VISUALSTYLE
350
3D6D44
  3
AcadDim
350
5182D
  3
ACDB_RECOMPOSE_DATA
350
3D6D75
  3
AcDbVariableDictionary
350
E0D
  3
AEC_DISP_REPS
350
355D42
  3
AEC_DISPLAY_PROPS_DEFAULTS
350
355D44
  3
AEC_VARS
350
355D40
  3
APPDATA
350
2F1758
  3
DWGPROPS
350
3D6D76
  0
DICTIONARY
  5
559E
330
2
100
AcDbDictionary
280
     1
281
     1
  3
ACAD_LAYERFILTERS
360
29A509
  3
ACAD_LAYERSTATES
360
559F
  3
ACLYDICTIONARY
360
29A508
  0
DICTIONARY
  5
CD7F
330
F
100
AcDbDictionary
280
     1
281
     1
  3
ADSK_XREC_LAYER_RECONCILED
360
CD80
  0
DICTIONARY
  5
CD89
330
2A3
100
AcDbDictionary
280
     1
281
     1
  3
ADSK_XREC_LAYER_RECONCILED
360
CD8A
  0
DICTIONARY
  5
CD8D
330
2F4
100
AcDbDictionary
280
     1
281
     1
  3
ADSK_XREC_LAYER_RECONCILED
360
CD8E
  0
DICTIONARY
  5
D25F
330
18
100
AcDbDictionary
280
     1
281
     1
  3
ACAD_SORTENTS
360
D260
  0
DICTIONARY
  5
3D6D55
102
{ACAD_REACTORS
330
C
102
}
330
C
100
AcDbDictionary
281
     1
  0
DICTIONARY
  5
3BD5AB
102
{ACAD_REACTORS
330
C
102
}
330
C
100
AcDbDictionary
281
     1
  0
DICTIONARY
  5
D
102
{ACAD_REACTORS
330
C
102
}
330
C
100
AcDbDictionary
281
     1
  3
*A1
350
2F273A
  3
*A10
350
2F2740
  3
*A11
350
2F2749
  3
*A12
350
2F273F
  3
*A13
350
2F274A
  3
*A14
350
2F2743
  3
*A15
350
2F2750
  3
*A16
350
2F274C
  3
*A17
350
2F2742
  3
*A18
350
2F274B
  3
*A19
350
2F2746
  3
*A2
350
2F2739
  3
*A20
350
2F2758
  3
*A21
350
2F274F
  3
*A22
350
2F273B
  3
*A23
350
2F2747
  3
*A24
350
2F2744
  3
*A25
350
2F2745
  3
*A26
350
2F274D
  3
*A27
350
2F274E
  3
*A28
350
2F275A
  3
*A29
350
2F273C
  3
*A3
350
2F2756
  3
*A30
350
2F2755
  3
*A31
350
2F2757
  3
*A32
350
2F273E
  3
*A33
350
2F2754
  3
*A34
350
2F2759
  3
*A4
350
2F2751
  3
*A5
350
2F2748
  3
*A6
350
2F273D
  3
*A7
350
2F2753
  3
*A8
350
2F2752
  3
*A9
350
2F2741
  0
RASTERVARIABLES
  5
2F1759
102
{ACAD_REACTORS
330
C
102
}
330
C
100
AcDbRasterVariables
 90
        0
 70
     1
 71
     1
 72
     0
  0
DICTIONARY
  5
353
102
{ACAD_REACTORS
330
C
102
}
330
C
100
AcDbDictionary
281
     1
  3
Model
350
355
  3
ﾚｲｱｳﾄ1
350
356
  0
DICTIONARY
  5
3D6D2B
102
{ACAD_REACTORS
330
C
102
}
330
C
100
AcDbDictionary
281
     1
  3
ByBlock
350
3D6D34
  3
ByLayer
350
3D6D2C
  3
Global
350
3D6D3C
  0
DICTIONARY
  5
3D6D58
102
{ACAD_REACTORS
330
C
102
}
330
C
100
AcDbDictionary
281
     1
  3
Standard
350
3D6D59
  0
DICTIONARY
  5
E
102
{ACAD_REACTORS
330
C
102
}
330
C
100
AcDbDictionary
281
     1
  3
STANDARD
350
1B
  0
DICTIONARY
  5
354
102
{ACAD_REACTORS
330
C
102
}
330
C
100
AcDbDictionary
281
     1
  0
ACDBDICTIONARYWDFLT
  5
351
102
{ACAD_REACTORS
330
C
102
}
330
C
100
AcDbDictionary
281
     1
  3
Normal
350
352
100
AcDbDictionaryWithDefault
340
352
  0
DICTIONARY
  5
CD53
102
{ACAD_REACTORS
330
C
102
}
330
C
100
AcDbDictionary
281
     1
  3
*A1
350
3BCD46
  3
A0
350
CD54
  3
A1
350
35DF8
  3
A2
350
35DF9
  3
A3
350
35DFA
  3
A4
350
35DFB
  3
A5
350
35DFC
  3
A6
350
35DFD
  3
A7
350
35DFE
  3
A8
350
35DFF
  3
A9
350
35E00
  3
B0
350
35E01
  3
B1
350
35E02
  3
B2
350
35E03
  3
B3
350
35E04
  3
B4
350
35E05
  3
B5
350
35E06
  3
B6
350
35E07
  3
B7
350
35E08
  3
B8
350
35E09
  3
B9
350
35E0A
  3
C0
350
35E0B
  3
C1
350
35E0C
  3
C2
350
35E0D
  3
C3
350
35E0E
  3
C4
350
35E0F
  3
C5
350
35E10
  3
C6
350
35E11
  3
C7
350
35E12
  3
C8
350
35E13
  3
C9
350
35E14
  3
D0
350
35E15
  3
D1
350
35E16
  3
D2
350
35E17
  0
DICTIONARY
  5
3BD5AC
102
{ACAD_REACTORS
330
C
102
}
330
C
100
AcDbDictionary
281
     1
  0
DICTIONARY
  5
3D6D56
102
{ACAD_REACTORS
330
C
102
}
330
C
100
AcDbDictionary
281
     1
  3
Standard
350
3D6D57
  0
DICTIONARY
  5
3D6D44
102
{ACAD_REACTORS
330
C
102
}
330
C
100
AcDbDictionary
281
     1
  3
2dWireframe
350
3D6D4A
  3
3D Hidden
350
3D6D4C
  3
3dWireframe
350
3D6D4B
  3
Basic
350
3D6D49
  3
Brighten
350
3D6D50
  3
ColorChange
350
3D6D54
  3
Conceptual
350
3D6D4D
  3
Dim
350
3D6D4F
  3
Facepattern
350
3D6D53
  3
Flat
350
3D6D45
  3
FlatWithEdges
350
3D6D46
  3
Gouraud
350
3D6D47
  3
GouraudWithEdges
350
3D6D48
  3
Linepattern
350
3D6D52
  3
Realistic
350
3D6D4E
  3
Thicken
350
3D6D51
  0
XRECORD
  5
5182D
102
{ACAD_REACTORS
330
C
102
}
330
C
100
AcDbXrecord
280
     1
 90
   990106
  3
OPEN30
 60
     0
 61
     0
 62
     4
 63
     4
 64
     1
 65
     0
 66
     0
 67
     3
 68
     1
 69
     0
 70
     0
 71
     0
 72
     0
 40
0.0
170
     0
340
0
  0
XRECORD
  5
3D6D75
102
{ACAD_REACTORS
330
C
102
}
330
C
100
AcDbXrecord
280
     1
 90
        1
330
3D6D57
  0
DICTIONARY
  5
E0D
102
{ACAD_REACTORS
330
C
102
}
330
C
100
AcDbDictionary
281
     1
  3
CANNOSCALE
350
3D6D72
  3
CMLEADERSTYLE
350
3D6D71
  3
CTABLESTYLE
350
3D6D70
  3
DIMASSOC
350
E0E
  3
INDEXCTL
350
D04A
  3
PROJECTNAME
350
E0F
  3
SORTENTS
350
D049
  0
DICTIONARY
  5
355D42
102
{ACAD_REACTORS
330
C
102
}
330
C
100
AcDbDictionary
281
     1
  3
AecDbDispRep2dSection
350
355D43
  3
AecDbDispRepAnchor
350
355D79
  3
AecDbDispRepAnchorEntToNode
350
355D7A
  3
AecDbDispRepClipVolModel
350
355D46
  3
AecDbDispRepClipVolPlan
350
355D48
  3
AecDbDispRepClipVolResSubDiv
350
355D4B
  3
AecDbDispRepClipVolResult
350
355D4A
  3
AecDbDispRepDisplayTheme
350
355D4D
  3
AecDbDispRepEditInPlaceProfile
350
355D7E
  3
AecDbDispRepEntRef
350
355D4F
  3
AecDbDispRepLayoutCurve
350
355D51
  3
AecDbDispRepLayoutGrid2d
350
355D53
  3
AecDbDispRepLayoutGrid3d
350
355D55
  3
AecDbDispRepMaskBlockRef
350
355D57
  3
AecDbDispRepMaskBlockRefRcp
350
355D59
  3
AecDbDispRepMassElemModel
350
355D5B
  3
AecDbDispRepMassElemPlan100
350
355D61
  3
AecDbDispRepMassElemPlan50
350
355D5F
  3
AecDbDispRepMassElemRcp
350
355D63
  3
AecDbDispRepMassElemSchem
350
355D5D
  3
AecDbDispRepMassGroupModel
350
355D65
  3
AecDbDispRepMassGroupPlan
350
355D67
  3
AecDbDispRepMassGroupPlan100
350
355D6B
  3
AecDbDispRepMassGroupPlan50
350
355D69
  3
AecDbDispRepMassGroupRcp
350
355D6D
  3
AecDbDispRepMaterial
350
355D7C
  3
AecDbDispRepMvBlockRef
350
355D6F
  3
AecDbDispRepMvBlockRefModel
350
355D70
  3
AecDbDispRepMvBlockRefPlan100
350
355D71
  3
AecDbDispRepMvBlockRefPlan50
350
355D72
  3
AecDbDispRepPolygonModel
350
355D73
  3
AecDbDispRepPolygonTrueColour
350
355D75
  3
AecDbDispRepSlice
350
355D77
  0
DICTIONARY
  5
355D44
102
{ACAD_REACTORS
330
C
102
}
330
C
100
AcDbDictionary
281
     1
  3
*A1
350
355D45
  3
*A10
350
355D52
  3
*A11
350
355D54
  3
*A12
350
355D68
  3
*A13
350
355D56
  3
*A14
350
355D5A
  3
*A15
350
355D5C
  3
*A16
350
355D5E
  3
*A17
350
355D60
  3
*A18
350
355D62
  3
*A19
350
355D64
  3
*A2
350
355D7B
  3
*A20
350
355D66
  3
*A21
350
355D6A
  3
*A22
350
355D47
  3
*A23
350
355D6C
  3
*A24
350
355D6E
  3
*A25
350
355D74
  3
*A26
350
355D76
  3
*A27
350
355D78
  3
*A3
350
355D7D
  3
*A4
350
355D58
  3
*A5
350
355D7F
  3
*A6
350
355D49
  3
*A7
350
355D4C
  3
*A8
350
355D4E
  3
*A9
350
355D50
  0
DICTIONARY
  5
355D40
102
{ACAD_REACTORS
330
C
102
}
330
C
100
AcDbDictionary
281
     1
  3
AEC_VARS_DWG_SETUP
350
355D41
  0
DICTIONARY
  5
2F1758
102
{ACAD_REACTORS
330
C
102
}
330
C
100
AcDbDictionary
281
     1
  0
XRECORD
  5
3D6D76
102
{ACAD_REACTORS
330
C
102
}
330
C
100
AcDbXrecord
280
     1
  1
DWGPROPS COOKIE
  2

  3

  4

  6

  7

  8
SPAX
  9

300
=
301
=
302
=
303
=
304
=
305
=
306
=
307
=
308
=
309
=
 40
102.2557680092592
 41
2448636.61962963
 42
2457820.42560279
  1

 90
        0
  0
DICTIONARY
  5
29A509
102
{ACAD_REACTORS
330
559E
102
}
330
559E
100
AcDbDictionary
281
     1
  0
DICTIONARY
  5
559F
102
{ACAD_REACTORS
330
559E
102
}
330
559E
100
AcDbDictionary
281
     1
  0
DICTIONARY
  5
29A508
102
{ACAD_REACTORS
330
559E
102
}
330
559E
100
AcDbDictionary
281
     1
1001
ACAD
1000
<All
  0
XRECORD
  5
CD80
102
{ACAD_REACTORS
330
CD7F
102
}
330
CD7F
100
AcDbXrecord
280
     1
290
     1
  0
XRECORD
  5
CD8A
102
{ACAD_REACTORS
330
CD89
102
}
330
CD89
100
AcDbXrecord
280
     1
290
     1
  0
XRECORD
  5
CD8E
102
{ACAD_REACTORS
330
CD8D
102
}
330
CD8D
100
AcDbXrecord
280
     1
290
     1
  0
SORTENTSTABLE
  5
D260
102
{ACAD_REACTORS
330
D25F
102
}
330
D25F
100
AcDbSortentsTable
330
18
331
8182F
  5
2FEC53
331
3073B9
  5
307455
  0
GROUP
  5
2F273A
102
{ACAD_REACTORS
330
D
102
}
330
D
100
AcDbGroup
300

 70
     0
 71
     1
  0
GROUP
  5
2F2740
102
{ACAD_REACTORS
330
D
102
}
330
D
100
AcDbGroup
300

 70
     0
 71
     1
  0
GROUP
  5
2F2749
102
{ACAD_REACTORS
330
D
102
}
330
D
100
AcDbGroup
300

 70
     0
 71
     1
  0
GROUP
  5
2F273F
102
{ACAD_REACTORS
330
D
102
}
330
D
100
AcDbGroup
300

 70
     0
 71
     1
  0
GROUP
  5
2F274A
102
{ACAD_REACTORS
330
D
102
}
330
D
100
AcDbGroup
300

 70
     0
 71
     1
  0
GROUP
  5
2F2743
102
{ACAD_REACTORS
330
D
102
}
330
D
100
AcDbGroup
300

 70
     0
 71
     1
  0
GROUP
  5
2F2750
102
{ACAD_REACTORS
330
D
102
}
330
D
100
AcDbGroup
300

 70
     0
 71
     1
  0
GROUP
  5
2F274C
102
{ACAD_REACTORS
330
D
102
}
330
D
100
AcDbGroup
300

 70
     0
 71
     1
  0
GROUP
  5
2F2742
102
{ACAD_REACTORS
330
D
102
}
330
D
100
AcDbGroup
300

 70
     0
 71
     1
  0
GROUP
  5
2F274B
102
{ACAD_REACTORS
330
D
102
}
330
D
100
AcDbGroup
300

 70
     0
 71
     1
  0
GROUP
  5
2F2746
102
{ACAD_REACTORS
330
D
102
}
330
D
100
AcDbGroup
300

 70
     0
 71
     1
  0
GROUP
  5
2F2739
102
{ACAD_REACTORS
330
D
102
}
330
D
100
AcDbGroup
300

 70
     0
 71
     1
  0
GROUP
  5
2F2758
102
{ACAD_REACTORS
330
D
102
}
330
D
100
AcDbGroup
300

 70
     0
 71
     1
  0
GROUP
  5
2F274F
102
{ACAD_REACTORS
330
D
102
}
330
D
100
AcDbGroup
300

 70
     0
 71
     1
  0
GROUP
  5
2F273B
102
{ACAD_REACTORS
330
D
102
}
330
D
100
AcDbGroup
300

 70
     0
 71
     1
  0
GROUP
  5
2F2747
102
{ACAD_REACTORS
330
D
102
}
330
D
100
AcDbGroup
300

 70
     0
 71
     1
  0
GROUP
  5
2F2744
102
{ACAD_REACTORS
330
D
102
}
330
D
100
AcDbGroup
300

 70
     0
 71
     1
  0
GROUP
  5
2F2745
102
{ACAD_REACTORS
330
D
102
}
330
D
100
AcDbGroup
300

 70
     0
 71
     1
  0
GROUP
  5
2F274D
102
{ACAD_REACTORS
330
D
102
}
330
D
100
AcDbGroup
300

 70
     0
 71
     1
  0
GROUP
  5
2F274E
102
{ACAD_REACTORS
330
D
102
}
330
D
100
AcDbGroup
300

 70
     0
 71
     1
  0
GROUP
  5
2F275A
102
{ACAD_REACTORS
330
D
102
}
330
D
100
AcDbGroup
300

 70
     0
 71
     1
  0
GROUP
  5
2F273C
102
{ACAD_REACTORS
330
D
102
}
330
D
100
AcDbGroup
300

 70
     0
 71
     1
  0
GROUP
  5
2F2756
102
{ACAD_REACTORS
330
D
102
}
330
D
100
AcDbGroup
300

 70
     0
 71
     1
  0
GROUP
  5
2F2755
102
{ACAD_REACTORS
330
D
102
}
330
D
100
AcDbGroup
300

 70
     0
 71
     1
  0
GROUP
  5
2F2757
102
{ACAD_REACTORS
330
D
102
}
330
D
100
AcDbGroup
300

 70
     0
 71
     1
  0
GROUP
  5
2F273E
102
{ACAD_REACTORS
330
D
102
}
330
D
100
AcDbGroup
300

 70
     0
 71
     1
  0
GROUP
  5
2F2754
102
{ACAD_REACTORS
330
D
102
}
330
D
100
AcDbGroup
300

 70
     0
 71
     1
  0
GROUP
  5
2F2759
102
{ACAD_REACTORS
330
D
102
}
330
D
100
AcDbGroup
300

 70
     0
 71
     1
  0
GROUP
  5
2F2751
102
{ACAD_REACTORS
330
D
102
}
330
D
100
AcDbGroup
300

 70
     0
 71
     1
  0
GROUP
  5
2F2748
102
{ACAD_REACTORS
330
D
102
}
330
D
100
AcDbGroup
300

 70
     0
 71
     1
  0
GROUP
  5
2F273D
102
{ACAD_REACTORS
330
D
102
}
330
D
100
AcDbGroup
300

 70
     0
 71
     1
  0
GROUP
  5
2F2753
102
{ACAD_REACTORS
330
D
102
}
330
D
100
AcDbGroup
300

 70
     0
 71
     1
  0
GROUP
  5
2F2752
102
{ACAD_REACTORS
330
D
102
}
330
D
100
AcDbGroup
300

 70
     0
 71
     1
  0
GROUP
  5
2F2741
102
{ACAD_REACTORS
330
D
102
}
330
D
100
AcDbGroup
300

 70
     0
 71
     1
  0
LAYOUT
  5
355
102
{ACAD_XDICTIONARY
360
3D6D77
102
}
102
{ACAD_REACTORS
330
353
102
}
330
353
100
AcDbPlotSettings
  1

  2
JUST PDF 3
  4
A4
  6

 40
3.174999952316284
 41
3.174999952316284
 42
3.175003051757812
 43
3.17498779296875
 44
209.8886566162109
 45
297.0530090332031
 46
14.27171755861522
 47
9.855173074625639
 48
13518.95909429803
 49
-4907.794307035012
140
14043.94474978275
141
-4094.816281619011
142
1.0
143
3.0
 70
  3748
 72
     1
 73
     0
 74
     4
  7
spax form.ctb
 75
    16
147
1.0
148
-13518.95909429803
149
4907.794307035012
100
AcDbLayout
  1
Model
 70
     1
 71
     0
 10
0.0
 20
0.0
 11
12.0
 21
9.0
 12
0.0
 22
0.0
 32
0.0
 14
12742.64675227636
 24
-4200.168849428631
 34
0.0
 15
12789.19675061386
 25
-4135.240928504405
 35
0.0
146
0.0
 13
0.0
 23
0.0
 33
0.0
 16
1.0
 26
0.0
 36
0.0
 17
0.0
 27
1.0
 37
0.0
 76
     0
330
18
331
3523F0
1001
ACAD_PSEXT
1000
JUST PDF 3
1000
JUST PDF 3
1000
JUST PDF 3 Port:
1000

1070
     0
  0
LAYOUT
  5
356
102
{ACAD_XDICTIONARY
360
3D6D79
102
}
102
{ACAD_REACTORS
330
353
102
}
330
353
100
AcDbPlotSettings
  1

  2
Canon LASER SHOT LBP-750
  4

  6

 40
0.0
 41
0.0
 42
0.0
 43
0.0
 44
0.0
 45
0.0
 46
0.0
 47
0.0
 48
0.0
 49
0.0
140
0.0
141
0.0
142
1.0
143
1.0
 70
   688
 72
     0
 73
     0
 74
     5
  7
spax form.ctb
 75
    16
147
1.0
148
0.0
149
0.0
100
AcDbLayout
  1
ﾚｲｱｳﾄ1
 70
     0
 71
     1
 10
0.0
 20
0.0
 11
12.0
 21
9.0
 12
0.0
 22
0.0
 32
0.0
 14
1.000000000000000E+20
 24
1.000000000000000E+20
 34
1.000000000000000E+20
 15
-1.000000000000000E+20
 25
-1.000000000000000E+20
 35
-1.000000000000000E+20
146
0.0
 13
0.0
 23
0.0
 33
0.0
 16
1.0
 26
0.0
 36
0.0
 17
0.0
 27
1.0
 37
0.0
 76
     0
330
15
  0
MATERIAL
  5
3D6D34
102
{ACAD_XDICTIONARY
360
3D6D35
102
}
102
{ACAD_REACTORS
330
3D6D2B
102
}
330
3D6D2B
100
AcDbMaterial
  1
ByBlock
 72
     0
 43
0.0208333333333333
 43
0.0
 43
0.0
 43
0.0
 43
0.0
 43
0.0208333333333333
 43
0.0
 43
0.0
 43
0.0
 43
0.0
 43
1.0
 43
0.0
 43
0.0
 43
0.0
 43
0.0
 43
1.0
 77
     0
 47
0.0208333333333333
 47
0.0
 47
0.0
 47
0.0
 47
0.0
 47
0.0208333333333333
 47
0.0
 47
0.0
 47
0.0
 47
0.0
 47
1.0
 47
0.0
 47
0.0
 47
0.0
 47
0.0
 47
1.0
171
     0
 49
0.0208333333333333
 49
0.0
 49
0.0
 49
0.0
 49
0.0
 49
0.0208333333333333
 49
0.0
 49
0.0
 49
0.0
 49
0.0
 49
1.0
 49
0.0
 49
0.0
 49
0.0
 49
0.0
 49
1.0
175
     0
142
0.0208333333333333
142
0.0
142
0.0
142
0.0
142
0.0
142
0.0208333333333333
142
0.0
142
0.0
142
0.0
142
0.0
142
1.0
142
0.0
142
0.0
142
0.0
142
0.0
142
1.0
179
     0
144
0.0208333333333333
144
0.0
144
0.0
144
0.0
144
0.0
144
0.0208333333333333
144
0.0
144
0.0
144
0.0
144
0.0
144
1.0
144
0.0
144
0.0
144
0.0
144
0.0
144
1.0
147
0.0208333333333333
147
0.0
147
0.0
147
0.0
147
0.0
147
0.0208333333333333
147
0.0
147
0.0
147
0.0
147
0.0
147
1.0
147
0.0
147
0.0
147
0.0
147
0.0
147
1.0
  0
MATERIAL
  5
3D6D2C
102
{ACAD_XDICTIONARY
360
3D6D2D
102
}
102
{ACAD_REACTORS
330
3D6D2B
102
}
330
3D6D2B
100
AcDbMaterial
  1
ByLayer
 72
     0
 43
0.0208333333333333
 43
0.0
 43
0.0
 43
0.0
 43
0.0
 43
0.0208333333333333
 43
0.0
 43
0.0
 43
0.0
 43
0.0
 43
1.0
 43
0.0
 43
0.0
 43
0.0
 43
0.0
 43
1.0
 77
     0
 47
0.0208333333333333
 47
0.0
 47
0.0
 47
0.0
 47
0.0
 47
0.0208333333333333
 47
0.0
 47
0.0
 47
0.0
 47
0.0
 47
1.0
 47
0.0
 47
0.0
 47
0.0
 47
0.0
 47
1.0
171
     0
 49
0.0208333333333333
 49
0.0
 49
0.0
 49
0.0
 49
0.0
 49
0.0208333333333333
 49
0.0
 49
0.0
 49
0.0
 49
0.0
 49
1.0
 49
0.0
 49
0.0
 49
0.0
 49
0.0
 49
1.0
175
     0
142
0.0208333333333333
142
0.0
142
0.0
142
0.0
142
0.0
142
0.0208333333333333
142
0.0
142
0.0
142
0.0
142
0.0
142
1.0
142
0.0
142
0.0
142
0.0
142
0.0
142
1.0
179
     0
144
0.0208333333333333
144
0.0
144
0.0
144
0.0
144
0.0
144
0.0208333333333333
144
0.0
144
0.0
144
0.0
144
0.0
144
1.0
144
0.0
144
0.0
144
0.0
144
0.0
144
1.0
147
0.0208333333333333
147
0.0
147
0.0
147
0.0
147
0.0
147
0.0208333333333333
147
0.0
147
0.0
147
0.0
147
0.0
147
1.0
147
0.0
147
0.0
147
0.0
147
0.0
147
1.0
  0
MATERIAL
  5
3D6D3C
102
{ACAD_XDICTIONARY
360
3D6D3D
102
}
102
{ACAD_REACTORS
330
3D6D2B
102
}
330
3D6D2B
100
AcDbMaterial
  1
Global
 72
     0
 43
0.0208333333333333
 43
0.0
 43
0.0
 43
0.0
 43
0.0
 43
0.0208333333333333
 43
0.0
 43
0.0
 43
0.0
 43
0.0
 43
1.0
 43
0.0
 43
0.0
 43
0.0
 43
0.0
 43
1.0
 77
     0
 47
0.0208333333333333
 47
0.0
 47
0.0
 47
0.0
 47
0.0
 47
0.0208333333333333
 47
0.0
 47
0.0
 47
0.0
 47
0.0
 47
1.0
 47
0.0
 47
0.0
 47
0.0
 47
0.0
 47
1.0
171
     0
 49
0.0208333333333333
 49
0.0
 49
0.0
 49
0.0
 49
0.0
 49
0.0208333333333333
 49
0.0
 49
0.0
 49
0.0
 49
0.0
 49
1.0
 49
0.0
 49
0.0
 49
0.0
 49
0.0
 49
1.0
175
     0
142
0.0208333333333333
142
0.0
142
0.0
142
0.0
142
0.0
142
0.0208333333333333
142
0.0
142
0.0
142
0.0
142
0.0
142
1.0
142
0.0
142
0.0
142
0.0
142
0.0
142
1.0
179
     0
144
0.0208333333333333
144
0.0
144
0.0
144
0.0
144
0.0
144
0.0208333333333333
144
0.0
144
0.0
144
0.0
144
0.0
144
1.0
144
0.0
144
0.0
144
0.0
144
0.0
144
1.0
147
0.0208333333333333
147
0.0
147
0.0
147
0.0
147
0.0
147
0.0208333333333333
147
0.0
147
0.0
147
0.0
147
0.0
147
1.0
147
0.0
147
0.0
147
0.0
147
0.0
147
1.0
  0
MLEADERSTYLE
  5
3D6D59
102
{ACAD_REACTORS
330
3D6D58
102
}
330
3D6D58
100
AcDbMLeaderStyle
170
     2
171
     1
172
     0
 90
        2
 40
0.0
 41
0.0
173
     1
 91
-1056964608
340
12
 92
       -2
290
     1
 42
0.09
291
     1
 43
0.36
  3
Standard
 44
0.18
300

342
10
174
     1
178
     6
175
     1
176
     0
 93
-1056964608
 45
0.18
292
     0
297
     0
 46
0.18
 94
-1056964608
 47
1.0
 49
1.0
140
1.0
293
     1
141
0.0
294
     1
177
     0
142
1.0
295
     0
296
     0
143
0.125
1001
ACAD_MLEADERVER
1070
     2
  0
MLINESTYLE
  5
1B
102
{ACAD_REACTORS
330
E
102
}
330
E
100
AcDbMlineStyle
  2
STANDARD
 70
     0
  3

 62
     0
 51
90.0
 52
90.0
 71
     2
 49
0.5
 62
   256
  6
BYLAYER
 49
-0.5
 62
   256
  6
BYLAYER
  0
ACDBPLACEHOLDER
  5
352
102
{ACAD_REACTORS
330
351
102
}
330
351
  0
SCALE
  5
3BCD46
102
{ACAD_REACTORS
330
CD53
102
}
330
CD53
100
AcDbScale
 70
     0
300
1:1_XREF_XREF
140
1.0
141
1.0
290
     0
  0
SCALE
  5
CD54
102
{ACAD_REACTORS
330
CD53
102
}
330
CD53
100
AcDbScale
 70
     0
300
1:1
140
1.0
141
1.0
290
     1
1001
ACAD
1000
AcRTDxfName
1000
SCALE
1000
AcRTDxfName
1000
SCALE
  0
SCALE
  5
35DF8
102
{ACAD_REACTORS
330
CD53
102
}
330
CD53
100
AcDbScale
 70
     0
300
1:2
140
1.0
141
2.0
290
     0
1001
ACAD
1000
AcRTDxfName
1000
SCALE
1000
AcRTDxfName
1000
SCALE
  0
SCALE
  5
35DF9
102
{ACAD_REACTORS
330
CD53
102
}
330
CD53
100
AcDbScale
 70
     0
300
1:4
140
1.0
141
4.0
290
     0
1001
ACAD
1000
AcRTDxfName
1000
SCALE
1000
AcRTDxfName
1000
SCALE
  0
SCALE
  5
35DFA
102
{ACAD_REACTORS
330
CD53
102
}
330
CD53
100
AcDbScale
 70
     0
300
1:5
140
1.0
141
5.0
290
     0
1001
ACAD
1000
AcRTDxfName
1000
SCALE
1000
AcRTDxfName
1000
SCALE
  0
SCALE
  5
35DFB
102
{ACAD_REACTORS
330
CD53
102
}
330
CD53
100
AcDbScale
 70
     0
300
1:8
140
1.0
141
8.0
290
     0
1001
ACAD
1000
AcRTDxfName
1000
SCALE
1000
AcRTDxfName
1000
SCALE
  0
SCALE
  5
35DFC
102
{ACAD_REACTORS
330
CD53
102
}
330
CD53
100
AcDbScale
 70
     0
300
1:10
140
1.0
141
10.0
290
     0
1001
ACAD
1000
AcRTDxfName
1000
SCALE
1000
AcRTDxfName
1000
SCALE
  0
SCALE
  5
35DFD
102
{ACAD_REACTORS
330
CD53
102
}
330
CD53
100
AcDbScale
 70
     0
300
1:16
140
1.0
141
16.0
290
     0
1001
ACAD
1000
AcRTDxfName
1000
SCALE
1000
AcRTDxfName
1000
SCALE
  0
SCALE
  5
35DFE
102
{ACAD_REACTORS
330
CD53
102
}
330
CD53
100
AcDbScale
 70
     0
300
1:20
140
1.0
141
20.0
290
     0
1001
ACAD
1000
AcRTDxfName
1000
SCALE
1000
AcRTDxfName
1000
SCALE
  0
SCALE
  5
35DFF
102
{ACAD_REACTORS
330
CD53
102
}
330
CD53
100
AcDbScale
 70
     0
300
1:30
140
1.0
141
30.0
290
     0
1001
ACAD
1000
AcRTDxfName
1000
SCALE
1000
AcRTDxfName
1000
SCALE
  0
SCALE
  5
35E00
102
{ACAD_REACTORS
330
CD53
102
}
330
CD53
100
AcDbScale
 70
     0
300
1:40
140
1.0
141
40.0
290
     0
1001
ACAD
1000
AcRTDxfName
1000
SCALE
1000
AcRTDxfName
1000
SCALE
  0
SCALE
  5
35E01
102
{ACAD_REACTORS
330
CD53
102
}
330
CD53
100
AcDbScale
 70
     0
300
1:50
140
1.0
141
50.0
290
     0
1001
ACAD
1000
AcRTDxfName
1000
SCALE
1000
AcRTDxfName
1000
SCALE
  0
SCALE
  5
35E02
102
{ACAD_REACTORS
330
CD53
102
}
330
CD53
100
AcDbScale
 70
     0
300
1:100
140
1.0
141
100.0
290
     0
1001
ACAD
1000
AcRTDxfName
1000
SCALE
1000
AcRTDxfName
1000
SCALE
  0
SCALE
  5
35E03
102
{ACAD_REACTORS
330
CD53
102
}
330
CD53
100
AcDbScale
 70
     0
300
2:1
140
2.0
141
1.0
290
     0
1001
ACAD
1000
AcRTDxfName
1000
SCALE
1000
AcRTDxfName
1000
SCALE
  0
SCALE
  5
35E04
102
{ACAD_REACTORS
330
CD53
102
}
330
CD53
100
AcDbScale
 70
     0
300
4:1
140
4.0
141
1.0
290
     0
1001
ACAD
1000
AcRTDxfName
1000
SCALE
1000
AcRTDxfName
1000
SCALE
  0
SCALE
  5
35E05
102
{ACAD_REACTORS
330
CD53
102
}
330
CD53
100
AcDbScale
 70
     0
300
8:1
140
8.0
141
1.0
290
     0
1001
ACAD
1000
AcRTDxfName
1000
SCALE
1000
AcRTDxfName
1000
SCALE
  0
SCALE
  5
35E06
102
{ACAD_REACTORS
330
CD53
102
}
330
CD53
100
AcDbScale
 70
     0
300
10:1
140
10.0
141
1.0
290
     0
1001
ACAD
1000
AcRTDxfName
1000
SCALE
1000
AcRTDxfName
1000
SCALE
  0
SCALE
  5
35E07
102
{ACAD_REACTORS
330
CD53
102
}
330
CD53
100
AcDbScale
 70
     0
300
100:1
140
100.0
141
1.0
290
     0
1001
ACAD
1000
AcRTDxfName
1000
SCALE
1000
AcRTDxfName
1000
SCALE
  0
SCALE
  5
35E08
102
{ACAD_REACTORS
330
CD53
102
}
330
CD53
100
AcDbScale
 70
     0
300
1/128" = 1'-0"
140
0.0078125
141
12.0
290
     0
1001
ACAD
1000
AcRTDxfName
1000
SCALE
1000
AcRTDxfName
1000
SCALE
  0
SCALE
  5
35E09
102
{ACAD_REACTORS
330
CD53
102
}
330
CD53
100
AcDbScale
 70
     0
300
1/64" = 1'-0"
140
0.015625
141
12.0
290
     0
1001
ACAD
1000
AcRTDxfName
1000
SCALE
1000
AcRTDxfName
1000
SCALE
  0
SCALE
  5
35E0A
102
{ACAD_REACTORS
330
CD53
102
}
330
CD53
100
AcDbScale
 70
     0
300
1/32" = 1'-0"
140
0.03125
141
12.0
290
     0
1001
ACAD
1000
AcRTDxfName
1000
SCALE
1000
AcRTDxfName
1000
SCALE
  0
SCALE
  5
35E0B
102
{ACAD_REACTORS
330
CD53
102
}
330
CD53
100
AcDbScale
 70
     0
300
1/16" = 1'-0"
140
0.0625
141
12.0
290
     0
1001
ACAD
1000
AcRTDxfName
1000
SCALE
1000
AcRTDxfName
1000
SCALE
  0
SCALE
  5
35E0C
102
{ACAD_REACTORS
330
CD53
102
}
330
CD53
100
AcDbScale
 70
     0
300
3/32" = 1'-0"
140
0.09375
141
12.0
290
     0
1001
ACAD
1000
AcRTDxfName
1000
SCALE
1000
AcRTDxfName
1000
SCALE
  0
SCALE
  5
35E0D
102
{ACAD_REACTORS
330
CD53
102
}
330
CD53
100
AcDbScale
 70
     0
300
1/8" = 1'-0"
140
0.125
141
12.0
290
     0
1001
ACAD
1000
AcRTDxfName
1000
SCALE
1000
AcRTDxfName
1000
SCALE
  0
SCALE
  5
35E0E
102
{ACAD_REACTORS
330
CD53
102
}
330
CD53
100
AcDbScale
 70
     0
300
3/16" = 1'-0"
140
0.1875
141
12.0
290
     0
1001
ACAD
1000
AcRTDxfName
1000
SCALE
1000
AcRTDxfName
1000
SCALE
  0
SCALE
  5
35E0F
102
{ACAD_REACTORS
330
CD53
102
}
330
CD53
100
AcDbScale
 70
     0
300
1/4" = 1'-0"
140
0.25
141
12.0
290
     0
1001
ACAD
1000
AcRTDxfName
1000
SCALE
1000
AcRTDxfName
1000
SCALE
  0
SCALE
  5
35E10
102
{ACAD_REACTORS
330
CD53
102
}
330
CD53
100
AcDbScale
 70
     0
300
3/8" = 1'-0"
140
0.375
141
12.0
290
     0
1001
ACAD
1000
AcRTDxfName
1000
SCALE
1000
AcRTDxfName
1000
SCALE
  0
SCALE
  5
35E11
102
{ACAD_REACTORS
330
CD53
102
}
330
CD53
100
AcDbScale
 70
     0
300
1/2" = 1'-0"
140
0.5
141
12.0
290
     0
1001
ACAD
1000
AcRTDxfName
1000
SCALE
1000
AcRTDxfName
1000
SCALE
  0
SCALE
  5
35E12
102
{ACAD_REACTORS
330
CD53
102
}
330
CD53
100
AcDbScale
 70
     0
300
3/4" = 1'-0"
140
0.75
141
12.0
290
     0
1001
ACAD
1000
AcRTDxfName
1000
SCALE
1000
AcRTDxfName
1000
SCALE
  0
SCALE
  5
35E13
102
{ACAD_REACTORS
330
CD53
102
}
330
CD53
100
AcDbScale
 70
     0
300
1" = 1'-0"
140
1.0
141
12.0
290
     0
1001
ACAD
1000
AcRTDxfName
1000
SCALE
1000
AcRTDxfName
1000
SCALE
  0
SCALE
  5
35E14
102
{ACAD_REACTORS
330
CD53
102
}
330
CD53
100
AcDbScale
 70
     0
300
1-1/2" = 1'-0"
140
1.5
141
12.0
290
     0
1001
ACAD
1000
AcRTDxfName
1000
SCALE
1000
AcRTDxfName
1000
SCALE
  0
SCALE
  5
35E15
102
{ACAD_REACTORS
330
CD53
102
}
330
CD53
100
AcDbScale
 70
     0
300
3" = 1'-0"
140
3.0
141
12.0
290
     0
1001
ACAD
1000
AcRTDxfName
1000
SCALE
1000
AcRTDxfName
1000
SCALE
  0
SCALE
  5
35E16
102
{ACAD_REACTORS
330
CD53
102
}
330
CD53
100
AcDbScale
 70
     0
300
6" = 1'-0"
140
6.0
141
12.0
290
     0
1001
ACAD
1000
AcRTDxfName
1000
SCALE
1000
AcRTDxfName
1000
SCALE
  0
SCALE
  5
35E17
102
{ACAD_REACTORS
330
CD53
102
}
330
CD53
100
AcDbScale
 70
     0
300
1'-0" = 1'-0"
140
12.0
141
12.0
290
     0
1001
ACAD
1000
AcRTDxfName
1000
SCALE
1000
AcRTDxfName
1000
SCALE
  0
TABLESTYLE
  5
3D6D57
102
{ACAD_XDICTIONARY
360
3D6D73
102
}
102
{ACAD_REACTORS
330
3D6D56
102
}
330
3D6D56
100
AcDbTableStyle
  3
Standard
 70
     0
 71
     0
 40
0.06
 41
0.06
280
     0
281
     0
  7
STANDARD
140
0.18
170
     2
 62
     0
 63
     7
283
     0
274
    -2
284
     1
 64
     0
275
    -2
285
     1
 65
     0
276
    -2
286
     1
 66
     0
277
    -2
287
     1
 67
     0
278
    -2
288
     1
 68
     0
279
    -2
289
     1
 69
     0
  7
STANDARD
140
0.25
170
     5
 62
     0
 63
     7
283
     0
274
    -2
284
     1
 64
     0
275
    -2
285
     1
 65
     0
276
    -2
286
     1
 66
     0
277
    -2
287
     1
 67
     0
278
    -2
288
     1
 68
     0
279
    -2
289
     1
 69
     0
  7
STANDARD
140
0.18
170
     5
 62
     0
 63
     7
283
     0
274
    -2
284
     1
 64
     0
275
    -2
285
     1
 65
     0
276
    -2
286
     1
 66
     0
277
    -2
287
     1
 67
     0
278
    -2
288
     1
 68
     0
279
    -2
289
     1
 69
     0
  0
VISUALSTYLE
  5
3D6D4A
102
{ACAD_REACTORS
330
3D6D44
102
}
330
3D6D44
100
AcDbVisualStyle
  2
2dWireframe
 70
     4
 71
     0
 72
     2
 73
     0
 90
        0
 40
-0.6
 41
-30.0
 62
     5
 63
     7
 74
     1
 91
        4
 64
     7
 65
   257
 75
     1
175
     1
 42
1.0
 92
        0
 66
   257
 43
1.0
 76
     1
 77
     6
 78
     2
 67
     7
 79
     5
170
     0
171
     0
290
     0
174
     0
 93
        1
 44
0.0
173
     0
291
     0
 45
0.0
1001
ACAD
1000
AcDbSavedByObjectVersion
1070
     0
  0
VISUALSTYLE
  5
3D6D4C
102
{ACAD_REACTORS
330
3D6D44
102
}
330
3D6D44
100
AcDbVisualStyle
  2
3D Hidden
 70
     6
 71
     1
 72
     2
 73
     2
 90
        0
 40
-0.6
 41
-30.0
 62
     5
 63
     7
 74
     2
 91
        2
 64
     7
 65
   257
 75
     2
175
     1
 42
40.0
 92
        0
 66
   257
 43
1.0
 76
     1
 77
     6
 78
     2
 67
     7
 79
     3
170
     0
171
     0
290
     0
174
     0
 93
        1
 44
0.0
173
     0
291
     0
 45
0.0
1001
ACAD
1000
AcDbSavedByObjectVersion
1070
     0
  0
VISUALSTYLE
  5
3D6D4B
102
{ACAD_REACTORS
330
3D6D44
102
}
330
3D6D44
100
AcDbVisualStyle
  2
3dWireframe
 70
     5
 71
     0
 72
     2
 73
     0
 90
        0
 40
-0.6
 41
-30.0
 62
     5
 63
     7
 74
     1
 91
        4
 64
     7
 65
   257
 75
     1
175
     1
 42
1.0
 92
        0
 66
   257
 43
1.0
 76
     1
 77
     6
 78
     2
 67
     7
 79
     5
170
     0
171
     0
290
     0
174
     0
 93
        1
 44
0.0
173
     0
291
     0
 45
0.0
1001
ACAD
1000
AcDbSavedByObjectVersion
1070
     0
  0
VISUALSTYLE
  5
3D6D49
102
{ACAD_REACTORS
330
3D6D44
102
}
330
3D6D44
100
AcDbVisualStyle
  2
Basic
 70
     7
 71
     1
 72
     0
 73
     1
 90
        0
 40
-0.6
 41
-30.0
 62
     5
 63
     7
 74
     0
 91
        4
 64
     7
 65
   257
 75
     1
175
     1
 42
1.0
 92
        8
 66
     7
 43
1.0
 76
     1
 77
     6
 78
     2
 67
     7
 79
     5
170
     0
171
     0
290
     0
174
     0
 93
        1
 44
0.0
173
     0
291
     1
 45
0.0
1001
ACAD
1000
AcDbSavedByObjectVersion
1070
     0
  0
VISUALSTYLE
  5
3D6D50
102
{ACAD_REACTORS
330
3D6D44
102
}
330
3D6D44
100
AcDbVisualStyle
  2
Brighten
 70
    12
 71
     2
 72
     2
 73
     0
 90
        0
 40
-0.6
 41
-30.0
 62
     5
 63
     7
 74
     1
 91
        4
 64
     7
 65
   257
 75
     1
175
     1
 42
1.0
 92
        8
 66
     7
 43
1.0
 76
     1
 77
     6
 78
     2
 67
     7
 79
     5
170
     0
171
     0
290
     0
174
     0
 93
        1
 44
50.0
173
     0
291
     1
 45
0.0
1001
ACAD
1000
AcDbSavedByObjectVersion
1070
     0
  0
VISUALSTYLE
  5
3D6D54
102
{ACAD_REACTORS
330
3D6D44
102
}
330
3D6D44
100
AcDbVisualStyle
  2
ColorChange
 70
    16
 71
     2
 72
     2
 73
     3
 90
        0
 40
-0.6
 41
-30.0
 62
     5
 63
     8
 74
     1
 91
        4
 64
     7
 65
   257
 75
     1
175
     1
 42
1.0
 92
        8
 66
     8
 43
1.0
 76
     1
 77
     6
 78
     2
 67
     7
 79
     5
170
     0
171
     0
290
     0
174
     0
 93
        1
 44
0.0
173
     0
291
     1
 45
0.0
1001
ACAD
1000
AcDbSavedByObjectVersion
1070
     0
  0
VISUALSTYLE
  5
3D6D4D
102
{ACAD_REACTORS
330
3D6D44
102
}
330
3D6D44
100
AcDbVisualStyle
  2
Conceptual
 70
     9
 71
     3
 72
     2
 73
     0
 90
        0
 40
-0.6
 41
-30.0
 62
     5
 63
     7
 74
     2
 91
        2
 64
     7
 65
   257
 75
     1
175
     1
 42
40.0
 92
        8
 66
     7
 43
1.0
 76
     1
 77
     6
 78
     2
 67
     7
 79
     3
170
     0
171
     0
290
     0
174
     0
 93
        1
 44
0.0
173
     0
291
     0
 45
0.0
1001
ACAD
1000
AcDbSavedByObjectVersion
1070
     0
  0
VISUALSTYLE
  5
3D6D4F
102
{ACAD_REACTORS
330
3D6D44
102
}
330
3D6D44
100
AcDbVisualStyle
  2
Dim
 70
    11
 71
     2
 72
     2
 73
     0
 90
        0
 40
-0.6
 41
-30.0
 62
     5
 63
     7
 74
     1
 91
        4
 64
     7
 65
   257
 75
     1
175
     1
 42
1.0
 92
        8
 66
     7
 43
1.0
 76
     1
 77
     6
 78
     2
 67
     7
 79
     5
170
     0
171
     0
290
     0
174
     0
 93
        1
 44
-50.0
173
     0
291
     1
 45
0.0
1001
ACAD
1000
AcDbSavedByObjectVersion
1070
     0
  0
VISUALSTYLE
  5
3D6D53
102
{ACAD_REACTORS
330
3D6D44
102
}
330
3D6D44
100
AcDbVisualStyle
  2
Facepattern
 70
    15
 71
     2
 72
     2
 73
     0
 90
        0
 40
-0.6
 41
-30.0
 62
     5
 63
     7
 74
     1
 91
        4
 64
     7
 65
   257
 75
     1
175
     1
 42
1.0
 92
        8
 66
     7
 43
1.0
 76
     1
 77
     6
 78
     2
 67
     7
 79
     5
170
     0
171
     0
290
     0
174
     0
 93
        1
 44
0.0
173
     0
291
     1
 45
0.0
1001
ACAD
1000
AcDbSavedByObjectVersion
1070
     0
  0
VISUALSTYLE
  5
3D6D45
102
{ACAD_REACTORS
330
3D6D44
102
}
330
3D6D44
100
AcDbVisualStyle
  2
Flat
 70
     0
 71
     2
 72
     1
 73
     1
 90
        2
 40
-0.6
 41
30.0
 62
     5
 63
     7
 74
     0
 91
        4
 64
     7
 65
   257
 75
     1
175
     1
 42
1.0
 92
        8
 66
     7
 43
1.0
 76
     1
 77
     6
 78
     2
 67
     7
 79
     5
170
     0
171
     0
290
     0
174
     0
 93
       13
 44
0.0
173
     0
291
     1
 45
0.0
1001
ACAD
1000
AcDbSavedByObjectVersion
1070
     0
  0
VISUALSTYLE
  5
3D6D46
102
{ACAD_REACTORS
330
3D6D44
102
}
330
3D6D44
100
AcDbVisualStyle
  2
FlatWithEdges
 70
     1
 71
     2
 72
     1
 73
     1
 90
        2
 40
-0.6
 41
30.0
 62
     5
 63
     7
 74
     1
 91
        4
 64
     7
 65
   257
 75
     1
175
     1
 42
1.0
 92
        0
 66
   257
 43
1.0
 76
     1
 77
     6
 78
     2
 67
     7
 79
     5
170
     0
171
     0
290
     0
174
     0
 93
       13
 44
0.0
173
     0
291
     1
 45
0.0
1001
ACAD
1000
AcDbSavedByObjectVersion
1070
     0
  0
VISUALSTYLE
  5
3D6D47
102
{ACAD_REACTORS
330
3D6D44
102
}
330
3D6D44
100
AcDbVisualStyle
  2
Gouraud
 70
     2
 71
     2
 72
     2
 73
     1
 90
        2
 40
-0.6
 41
30.0
 62
     5
 63
     7
 74
     0
 91
        4
 64
     7
 65
   257
 75
     1
175
     1
 42
1.0
 92
        0
 66
     7
 43
1.0
 76
     1
 77
     6
 78
     2
 67
     7
 79
     5
170
     0
171
     0
290
     0
174
     0
 93
       13
 44
0.0
173
     0
291
     1
 45
0.0
1001
ACAD
1000
AcDbSavedByObjectVersion
1070
     0
  0
VISUALSTYLE
  5
3D6D48
102
{ACAD_REACTORS
330
3D6D44
102
}
330
3D6D44
100
AcDbVisualStyle
  2
GouraudWithEdges
 70
     3
 71
     2
 72
     2
 73
     1
 90
        2
 40
-0.6
 41
30.0
 62
     5
 63
     7
 74
     1
 91
        4
 64
     7
 65
   257
 75
     1
175
     1
 42
1.0
 92
        0
 66
   257
 43
1.0
 76
     1
 77
     6
 78
     2
 67
     7
 79
     5
170
     0
171
     0
290
     0
174
     0
 93
       13
 44
0.0
173
     0
291
     1
 45
0.0
1001
ACAD
1000
AcDbSavedByObjectVersion
1070
     0
  0
VISUALSTYLE
  5
3D6D52
102
{ACAD_REACTORS
330
3D6D44
102
}
330
3D6D44
100
AcDbVisualStyle
  2
Linepattern
 70
    14
 71
     2
 72
     2
 73
     0
 90
        0
 40
-0.6
 41
-30.0
 62
     5
 63
     7
 74
     1
 91
        4
 64
     7
 65
   257
 75
     7
175
     7
 42
1.0
 92
        8
 66
     7
 43
1.0
 76
     1
 77
     6
 78
     2
 67
     7
 79
     5
170
     0
171
     0
290
     0
174
     0
 93
        1
 44
0.0
173
     0
291
     1
 45
0.0
1001
ACAD
1000
AcDbSavedByObjectVersion
1070
     0
  0
VISUALSTYLE
  5
3D6D4E
102
{ACAD_REACTORS
330
3D6D44
102
}
330
3D6D44
100
AcDbVisualStyle
  2
Realistic
 70
     8
 71
     2
 72
     2
 73
     0
 90
        0
 40
-0.6
 41
-30.0
 62
     5
 63
     7
 74
     1
 91
        0
 64
     7
 65
   257
 75
     1
175
     1
 42
1.0
 92
        8
 66
     8
 43
1.0
 76
     1
 77
     6
 78
     2
 67
     7
 79
     5
170
     0
171
     0
290
     0
174
     0
 93
       13
 44
0.0
173
     0
291
     0
 45
0.0
1001
ACAD
1000
AcDbSavedByObjectVersion
1070
     0
  0
VISUALSTYLE
  5
3D6D51
102
{ACAD_REACTORS
330
3D6D44
102
}
330
3D6D44
100
AcDbVisualStyle
  2
Thicken
 70
    13
 71
     2
 72
     2
 73
     0
 90
        0
 40
-0.6
 41
-30.0
 62
     5
 63
     7
 74
     1
 91
        4
 64
     7
 65
   257
 75
     1
175
     1
 42
1.0
 92
       12
 66
     7
 43
1.0
 76
     1
 77
     6
 78
     2
 67
     7
 79
     5
170
     0
171
     0
290
     0
174
     0
 93
        1
 44
0.0
173
     0
291
     1
 45
0.0
1001
ACAD
1000
AcDbSavedByObjectVersion
1070
     0
  0
DICTIONARYVAR
  5
3D6D72
102
{ACAD_REACTORS
330
E0D
102
}
330
E0D
100
DictionaryVariables
280
     0
  1
1:1
  0
DICTIONARYVAR
  5
3D6D71
102
{ACAD_REACTORS
330
E0D
102
}
330
E0D
100
DictionaryVariables
280
     0
  1
STANDARD
  0
DICTIONARYVAR
  5
3D6D70
102
{ACAD_REACTORS
330
E0D
102
}
330
E0D
100
DictionaryVariables
280
     0
  1
STANDARD
  0
DICTIONARYVAR
  5
E0E
102
{ACAD_REACTORS
330
E0D
102
}
330
E0D
100
DictionaryVariables
280
     0
  1
1
  0
DICTIONARYVAR
  5
D04A
102
{ACAD_REACTORS
330
E0D
102
}
330
E0D
100
DictionaryVariables
280
     0
  1
0
  0
DICTIONARYVAR
  5
E0F
102
{ACAD_REACTORS
330
E0D
102
}
330
E0D
100
DictionaryVariables
280
     0
  1

  0
DICTIONARYVAR
  5
D049
102
{ACAD_REACTORS
330
E0D
102
}
330
E0D
100
DictionaryVariables
280
     0
  1
127
  0
ACAD_PROXY_OBJECT
  5
355D43
102
{ACAD_REACTORS
330
355D42
102
}
330
355D42
100
AcDbProxyObject
 90
      499
 91
      517
 95
       31
 70
     0
 93
      107
310
51B4D1465180051946946A81802C
340
355D45
 94
        0
1001
ACAD
1000
AcRTDxfName
1000
AEC_DISP_REP_2D_SECTION
1000
AcRTDxfName
1000
AEC_DISP_REP_2D_SECTION
1000
AcRTDxfName
1000
AEC_DISP_REP_2D_SECTION
1000
AcRTDxfName
1000
AEC_DISP_REP_2D_SECTION
  0
ACAD_PROXY_OBJECT
  5
355D79
102
{ACAD_REACTORS
330
355D42
102
}
330
355D42
100
AcDbProxyObject
 90
      499
 91
      562
 95
       31
 70
     0
 93
      107
310
51B4D1465180051946946A81802C
340
0
 94
        0
1001
ACAD
1000
AcRTDxfName
1000
AEC_DISP_REP_ANCHOR
1000
AcRTDxfName
1000
AEC_DISP_REP_ANCHOR
1000
AcRTDxfName
1000
AEC_DISP_REP_ANCHOR
1000
AcRTDxfName
1000
AEC_DISP_REP_ANCHOR
  0
ACAD_PROXY_OBJECT
  5
355D7A
102
{ACAD_REACTORS
330
355D42
102
}
330
355D42
100
AcDbProxyObject
 90
      499
 91
      563
 95
       31
 70
     0
 93
      107
310
51B4D1465180051946946A81802C
340
355D7B
 94
        0
1001
ACAD
1000
AcRTDxfName
1000
AEC_DISP_REP_ANCHOR_ENT_TO_NODE
1000
AcRTDxfName
1000
AEC_DISP_REP_ANCHOR_ENT_TO_NODE
1000
AcRTDxfName
1000
AEC_DISP_REP_ANCHOR_ENT_TO_NODE
1000
AcRTDxfName
1000
AEC_DISP_REP_ANCHOR_ENT_TO_NODE
  0
ACAD_PROXY_OBJECT
  5
355D46
102
{ACAD_REACTORS
330
355D42
102
}
330
355D42
100
AcDbProxyObject
 90
      499
 91
      519
 95
       31
 70
     0
 93
      117
310
51B4D146518005194694651AA0600C
340
355D47
 94
        0
1001
ACAD
1000
AcRTDxfName
1000
AEC_DISP_REP_CLIP_VOLUME_MODEL
1000
AcRTDxfName
1000
AEC_DISP_REP_CLIP_VOLUME_MODEL
1000
AcRTDxfName
1000
AEC_DISP_REP_CLIP_VOLUME_MODEL
1000
AcRTDxfName
1000
AEC_DISP_REP_CLIP_VOLUME_MODEL
  0
ACAD_PROXY_OBJECT
  5
355D48
102
{ACAD_REACTORS
330
355D42
102
}
330
355D42
100
AcDbProxyObject
 90
      499
 91
      521
 95
       31
 70
     0
 93
      117
310
51B4D146518005194694651AA0600C
340
355D49
 94
        0
1001
ACAD
1000
AcRTDxfName
1000
AEC_DISP_REP_CLIP_VOLUME_PLAN
1000
AcRTDxfName
1000
AEC_DISP_REP_CLIP_VOLUME_PLAN
1000
AcRTDxfName
1000
AEC_DISP_REP_CLIP_VOLUME_PLAN
1000
AcRTDxfName
1000
AEC_DISP_REP_CLIP_VOLUME_PLAN
  0
ACAD_PROXY_OBJECT
  5
355D4B
102
{ACAD_REACTORS
330
355D42
102
}
330
355D42
100
AcDbProxyObject
 90
      499
 91
      523
 95
       31
 70
     0
 93
      117
310
51B4D146518005194694651AA0600C
340
355D4C
 94
        0
1001
ACAD
1000
AcRTDxfName
1000
AEC_DISP_REP_CLIP_VOLUME_RESULT_SUBDIV
1000
AcRTDxfName
1000
AEC_DISP_REP_CLIP_VOLUME_RESULT_SUBDIV
1000
AcRTDxfName
1000
AEC_DISP_REP_CLIP_VOLUME_RESULT_SUBDIV
1000
AcRTDxfName
1000
AEC_DISP_REP_CLIP_VOLUME_RESULT_SUBDIV
  0
ACAD_PROXY_OBJECT
  5
355D4A
102
{ACAD_REACTORS
330
355D42
102
}
330
355D42
100
AcDbProxyObject
 90
      499
 91
      522
 95
       31
 70
     0
 93
      107
310
51B4D1465180051946946A81802C
340
0
 94
        0
1001
ACAD
1000
AcRTDxfName
1000
AEC_DISP_REP_CLIP_VOLUME_RESULT
1000
AcRTDxfName
1000
AEC_DISP_REP_CLIP_VOLUME_RESULT
1000
AcRTDxfName
1000
AEC_DISP_REP_CLIP_VOLUME_RESULT
1000
AcRTDxfName
1000
AEC_DISP_REP_CLIP_VOLUME_RESULT
  0
ACAD_PROXY_OBJECT
  5
355D4D
102
{ACAD_REACTORS
330
355D42
102
}
330
355D42
100
AcDbProxyObject
 90
      499
 91
      525
 95
       31
 70
     0
 93
      107
310
51B4D1465180051946946A81802C
340
355D4E
 94
        0
1001
ACAD
1000
AcRTDxfName
1000
AEC_DISP_REP_DISPLAYTHEME
1000
AcRTDxfName
1000
AEC_DISP_REP_DISPLAYTHEME
1000
AcRTDxfName
1000
AEC_DISP_REP_DISPLAYTHEME
1000
AcRTDxfName
1000
AEC_DISP_REP_DISPLAYTHEME
  0
ACAD_PROXY_OBJECT
  5
355D7E
102
{ACAD_REACTORS
330
355D42
102
}
330
355D42
100
AcDbProxyObject
 90
      499
 91
      567
 95
       31
 70
     0
 93
      107
310
51B4D1465180051946946A81802C
340
355D7F
 94
        0
1001
ACAD
1000
AcRTDxfName
1000
AEC_DISP_REP_EDITINPLACEPROFILE
1000
AcRTDxfName
1000
AEC_DISP_REP_EDITINPLACEPROFILE
1000
AcRTDxfName
1000
AEC_DISP_REP_EDITINPLACEPROFILE
1000
AcRTDxfName
1000
AEC_DISP_REP_EDITINPLACEPROFILE
  0
ACAD_PROXY_OBJECT
  5
355D4F
102
{ACAD_REACTORS
330
355D42
102
}
330
355D42
100
AcDbProxyObject
 90
      499
 91
      527
 95
       31
 70
     0
 93
      107
310
51B4D1465180051946946A81802C
340
355D50
 94
        0
1001
ACAD
1000
AcRTDxfName
1000
AEC_DISP_REP_ENT_REF
1000
AcRTDxfName
1000
AEC_DISP_REP_ENT_REF
1000
AcRTDxfName
1000
AEC_DISP_REP_ENT_REF
1000
AcRTDxfName
1000
AEC_DISP_REP_ENT_REF
  0
ACAD_PROXY_OBJECT
  5
355D51
102
{ACAD_REACTORS
330
355D42
102
}
330
355D42
100
AcDbProxyObject
 90
      499
 91
      529
 95
       31
 70
     0
 93
      107
310
51B4D1465180051946946A81802C
340
355D52
 94
        0
1001
ACAD
1000
AcRTDxfName
1000
AEC_DISP_REP_LAYOUT_CURVE
1000
AcRTDxfName
1000
AEC_DISP_REP_LAYOUT_CURVE
1000
AcRTDxfName
1000
AEC_DISP_REP_LAYOUT_CURVE
1000
AcRTDxfName
1000
AEC_DISP_REP_LAYOUT_CURVE
  0
ACAD_PROXY_OBJECT
  5
355D53
102
{ACAD_REACTORS
330
355D42
102
}
330
355D42
100
AcDbProxyObject
 90
      499
 91
      531
 95
       31
 70
     0
 93
      107
310
51B4D1465180051946946A81802C
340
355D54
 94
        0
1001
ACAD
1000
AcRTDxfName
1000
AEC_DISP_REP_LAYOUT_GRID2D
1000
AcRTDxfName
1000
AEC_DISP_REP_LAYOUT_GRID2D
1000
AcRTDxfName
1000
AEC_DISP_REP_LAYOUT_GRID2D
1000
AcRTDxfName
1000
AEC_DISP_REP_LAYOUT_GRID2D
  0
ACAD_PROXY_OBJECT
  5
355D55
102
{ACAD_REACTORS
330
355D42
102
}
330
355D42
100
AcDbProxyObject
 90
      499
 91
      533
 95
       31
 70
     0
 93
      107
310
51B4D1465180051946946A81802C
340
355D56
 94
        0
1001
ACAD
1000
AcRTDxfName
1000
AEC_DISP_REP_LAYOUT_GRID3D
1000
AcRTDxfName
1000
AEC_DISP_REP_LAYOUT_GRID3D
1000
AcRTDxfName
1000
AEC_DISP_REP_LAYOUT_GRID3D
1000
AcRTDxfName
1000
AEC_DISP_REP_LAYOUT_GRID3D
  0
ACAD_PROXY_OBJECT
  5
355D57
102
{ACAD_REACTORS
330
355D42
102
}
330
355D42
100
AcDbProxyObject
 90
      499
 91
      535
 95
       31
 70
     0
 93
      107
310
51B4D1465180051946946A81802C
340
355D58
 94
        0
1001
ACAD
1000
AcRTDxfName
1000
AEC_DISP_REP_MASKBLOCK_REF
1000
AcRTDxfName
1000
AEC_DISP_REP_MASKBLOCK_REF
1000
AcRTDxfName
1000
AEC_DISP_REP_MASKBLOCK_REF
1000
AcRTDxfName
1000
AEC_DISP_REP_MASKBLOCK_REF
  0
ACAD_PROXY_OBJECT
  5
355D59
102
{ACAD_REACTORS
330
355D42
102
}
330
355D42
100
AcDbProxyObject
 90
      499
 91
      537
 95
       31
 70
     0
 93
      117
310
51B4D146518005194694651AA0600C
340
355D5A
 94
        0
1001
ACAD
1000
AcRTDxfName
1000
AEC_DISP_REP_MASKBLOCK_REF_RCP
1000
AcRTDxfName
1000
AEC_DISP_REP_MASKBLOCK_REF_RCP
1000
AcRTDxfName
1000
AEC_DISP_REP_MASKBLOCK_REF_RCP
1000
AcRTDxfName
1000
AEC_DISP_REP_MASKBLOCK_REF_RCP
  0
ACAD_PROXY_OBJECT
  5
355D5B
102
{ACAD_REACTORS
330
355D42
102
}
330
355D42
100
AcDbProxyObject
 90
      499
 91
      538
 95
       31
 70
     0
 93
      117
310
51B4D146518005194694651AA0600C
340
355D5C
 94
        0
1001
ACAD
1000
AcRTDxfName
1000
AEC_DISP_REP_MASS_ELEM_MODEL
1000
AcRTDxfName
1000
AEC_DISP_REP_MASS_ELEM_MODEL
1000
AcRTDxfName
1000
AEC_DISP_REP_MASS_ELEM_MODEL
1000
AcRTDxfName
1000
AEC_DISP_REP_MASS_ELEM_MODEL
  0
ACAD_PROXY_OBJECT
  5
355D61
102
{ACAD_REACTORS
330
355D42
102
}
330
355D42
100
AcDbProxyObject
 90
      499
 91
      543
 95
       31
 70
     0
 93
      127
310
51B4D146518005194694651946A81802
340
355D62
 94
        0
1001
ACAD
1000
AcRTDxfName
1000
AEC_DISPREPAECDBDISPREPMASSELEMPLAN100
1000
AcRTDxfName
1000
AEC_DISPREPAECDBDISPREPMASSELEMPLAN100
1000
AcRTDxfName
1000
AEC_DISPREPAECDBDISPREPMASSELEMPLAN100
1000
AcRTDxfName
1000
AEC_DISPREPAECDBDISPREPMASSELEMPLAN100
  0
ACAD_PROXY_OBJECT
  5
355D5F
102
{ACAD_REACTORS
330
355D42
102
}
330
355D42
100
AcDbProxyObject
 90
      499
 91
      541
 95
       31
 70
     0
 93
      127
310
51B4D146518005194694651946A81802
340
355D60
 94
        0
1001
ACAD
1000
AcRTDxfName
1000
AEC_DISPREPAECDBDISPREPMASSELEMPLAN50
1000
AcRTDxfName
1000
AEC_DISPREPAECDBDISPREPMASSELEMPLAN50
1000
AcRTDxfName
1000
AEC_DISPREPAECDBDISPREPMASSELEMPLAN50
1000
AcRTDxfName
1000
AEC_DISPREPAECDBDISPREPMASSELEMPLAN50
  0
ACAD_PROXY_OBJECT
  5
355D63
102
{ACAD_REACTORS
330
355D42
102
}
330
355D42
100
AcDbProxyObject
 90
      499
 91
      544
 95
       31
 70
     0
 93
      127
310
51B4D146518005194694651946A81802
340
355D64
 94
        0
1001
ACAD
1000
AcRTDxfName
1000
AEC_DISP_REP_MASS_ELEM_RCP
1000
AcRTDxfName
1000
AEC_DISP_REP_MASS_ELEM_RCP
1000
AcRTDxfName
1000
AEC_DISP_REP_MASS_ELEM_RCP
1000
AcRTDxfName
1000
AEC_DISP_REP_MASS_ELEM_RCP
  0
ACAD_PROXY_OBJECT
  5
355D5D
102
{ACAD_REACTORS
330
355D42
102
}
330
355D42
100
AcDbProxyObject
 90
      499
 91
      540
 95
       31
 70
     0
 93
      117
310
51B4D146518005194694651AA0600C
340
355D5E
 94
        0
1001
ACAD
1000
AcRTDxfName
1000
AEC_DISP_REP_MASS_ELEM_SCHEM
1000
AcRTDxfName
1000
AEC_DISP_REP_MASS_ELEM_SCHEM
1000
AcRTDxfName
1000
AEC_DISP_REP_MASS_ELEM_SCHEM
1000
AcRTDxfName
1000
AEC_DISP_REP_MASS_ELEM_SCHEM
  0
ACAD_PROXY_OBJECT
  5
355D65
102
{ACAD_REACTORS
330
355D42
102
}
330
355D42
100
AcDbProxyObject
 90
      499
 91
      545
 95
       31
 70
     0
 93
      117
310
51B4D146518005194694651AA0600C
340
355D66
 94
        0
1001
ACAD
1000
AcRTDxfName
1000
AEC_DISP_REP_MASS_GROUP_MODEL
1000
AcRTDxfName
1000
AEC_DISP_REP_MASS_GROUP_MODEL
1000
AcRTDxfName
1000
AEC_DISP_REP_MASS_GROUP_MODEL
1000
AcRTDxfName
1000
AEC_DISP_REP_MASS_GROUP_MODEL
  0
ACAD_PROXY_OBJECT
  5
355D67
102
{ACAD_REACTORS
330
355D42
102
}
330
355D42
100
AcDbProxyObject
 90
      499
 91
      547
 95
       31
 70
     0
 93
      117
310
51B4D146518005194694651AA0600C
340
355D68
 94
        0
1001
ACAD
1000
AcRTDxfName
1000
AEC_DISP_REP_MASS_GROUP_PLAN
1000
AcRTDxfName
1000
AEC_DISP_REP_MASS_GROUP_PLAN
1000
AcRTDxfName
1000
AEC_DISP_REP_MASS_GROUP_PLAN
1000
AcRTDxfName
1000
AEC_DISP_REP_MASS_GROUP_PLAN
  0
ACAD_PROXY_OBJECT
  5
355D6B
102
{ACAD_REACTORS
330
355D42
102
}
330
355D42
100
AcDbProxyObject
 90
      499
 91
      550
 95
       31
 70
     0
 93
      127
310
51B4D146518005194694651946A81802
340
355D6C
 94
        0
1001
ACAD
1000
AcRTDxfName
1000
AEC_DISPREPAECDBDISPREPMASSGROUPPLAN100
1000
AcRTDxfName
1000
AEC_DISPREPAECDBDISPREPMASSGROUPPLAN100
1000
AcRTDxfName
1000
AEC_DISPREPAECDBDISPREPMASSGROUPPLAN100
1000
AcRTDxfName
1000
AEC_DISPREPAECDBDISPREPMASSGROUPPLAN100
  0
ACAD_PROXY_OBJECT
  5
355D69
102
{ACAD_REACTORS
330
355D42
102
}
330
355D42
100
AcDbProxyObject
 90
      499
 91
      548
 95
       31
 70
     0
 93
      127
310
51B4D146518005194694651946A81802
340
355D6A
 94
        0
1001
ACAD
1000
AcRTDxfName
1000
AEC_DISPREPAECDBDISPREPMASSGROUPPLAN50
1000
AcRTDxfName
1000
AEC_DISPREPAECDBDISPREPMASSGROUPPLAN50
1000
AcRTDxfName
1000
AEC_DISPREPAECDBDISPREPMASSGROUPPLAN50
1000
AcRTDxfName
1000
AEC_DISPREPAECDBDISPREPMASSGROUPPLAN50
  0
ACAD_PROXY_OBJECT
  5
355D6D
102
{ACAD_REACTORS
330
355D42
102
}
330
355D42
100
AcDbProxyObject
 90
      499
 91
      551
 95
       31
 70
     0
 93
      127
310
51B4D146518005194694651946A81802
340
355D6E
 94
        0
1001
ACAD
1000
AcRTDxfName
1000
AEC_DISP_REP_MASS_GROUP_RCP
1000
AcRTDxfName
1000
AEC_DISP_REP_MASS_GROUP_RCP
1000
AcRTDxfName
1000
AEC_DISP_REP_MASS_GROUP_RCP
1000
AcRTDxfName
1000
AEC_DISP_REP_MASS_GROUP_RCP
  0
ACAD_PROXY_OBJECT
  5
355D7C
102
{ACAD_REACTORS
330
355D42
102
}
330
355D42
100
AcDbProxyObject
 90
      499
 91
      565
 95
       31
 70
     0
 93
      107
310
51B4D1465180051946946A81802C
340
355D7D
 94
        0
1001
ACAD
1000
AcRTDxfName
1000
AEC_DISP_REP_MATERIAL
1000
AcRTDxfName
1000
AEC_DISP_REP_MATERIAL
1000
AcRTDxfName
1000
AEC_DISP_REP_MATERIAL
1000
AcRTDxfName
1000
AEC_DISP_REP_MATERIAL
  0
ACAD_PROXY_OBJECT
  5
355D6F
102
{ACAD_REACTORS
330
355D42
102
}
330
355D42
100
AcDbProxyObject
 90
      499
 91
      552
 95
       31
 70
     0
 93
      107
310
51B4D1465180051946946A81802C
340
0
 94
        0
1001
ACAD
1000
AcRTDxfName
1000
AEC_DISP_REP_MVBLOCK_REF
1000
AcRTDxfName
1000
AEC_DISP_REP_MVBLOCK_REF
1000
AcRTDxfName
1000
AEC_DISP_REP_MVBLOCK_REF
1000
AcRTDxfName
1000
AEC_DISP_REP_MVBLOCK_REF
  0
ACAD_PROXY_OBJECT
  5
355D70
102
{ACAD_REACTORS
330
355D42
102
}
330
355D42
100
AcDbProxyObject
 90
      499
 91
      553
 95
       31
 70
     0
 93
      117
310
51B4D146518005194694651AA0600C
340
0
 94
        0
1001
ACAD
1000
AcRTDxfName
1000
AEC_DISP_REP_MVBLOCK_REF_MODEL
1000
AcRTDxfName
1000
AEC_DISP_REP_MVBLOCK_REF_MODEL
1000
AcRTDxfName
1000
AEC_DISP_REP_MVBLOCK_REF_MODEL
1000
AcRTDxfName
1000
AEC_DISP_REP_MVBLOCK_REF_MODEL
  0
ACAD_PROXY_OBJECT
  5
355D71
102
{ACAD_REACTORS
330
355D42
102
}
330
355D42
100
AcDbProxyObject
 90
      499
 91
      554
 95
       31
 70
     0
 93
      117
310
51B4D146518005194694651AA0600C
340
0
 94
        0
1001
ACAD
1000
AcRTDxfName
1000
AEC_AECDBDISPREPMVBLOCKREFPLAN100
1000
AcRTDxfName
1000
AEC_AECDBDISPREPMVBLOCKREFPLAN100
1000
AcRTDxfName
1000
AEC_AECDBDISPREPMVBLOCKREFPLAN100
1000
AcRTDxfName
1000
AEC_AECDBDISPREPMVBLOCKREFPLAN100
  0
ACAD_PROXY_OBJECT
  5
355D72
102
{ACAD_REACTORS
330
355D42
102
}
330
355D42
100
AcDbProxyObject
 90
      499
 91
      555
 95
       31
 70
     0
 93
      117
310
51B4D146518005194694651AA0600C
340
0
 94
        0
1001
ACAD
1000
AcRTDxfName
1000
AEC_AECDBDISPREPMVBLOCKREFPLAN50
1000
AcRTDxfName
1000
AEC_AECDBDISPREPMVBLOCKREFPLAN50
1000
AcRTDxfName
1000
AEC_AECDBDISPREPMVBLOCKREFPLAN50
1000
AcRTDxfName
1000
AEC_AECDBDISPREPMVBLOCKREFPLAN50
  0
ACAD_PROXY_OBJECT
  5
355D73
102
{ACAD_REACTORS
330
355D42
102
}
330
355D42
100
AcDbProxyObject
 90
      499
 91
      556
 95
       31
 70
     0
 93
      117
310
51B4D146518005194694651AA0600C
340
355D74
 94
        0
1001
ACAD
1000
AcRTDxfName
1000
AEC_DISP_REP_POLYGON_MODEL
1000
AcRTDxfName
1000
AEC_DISP_REP_POLYGON_MODEL
1000
AcRTDxfName
1000
AEC_DISP_REP_POLYGON_MODEL
1000
AcRTDxfName
1000
AEC_DISP_REP_POLYGON_MODEL
  0
ACAD_PROXY_OBJECT
  5
355D75
102
{ACAD_REACTORS
330
355D42
102
}
330
355D42
100
AcDbProxyObject
 90
      499
 91
      558
 95
       31
 70
     0
 93
      117
310
51B4D146518005194694651AA0600C
340
355D76
 94
        0
1001
ACAD
1000
AcRTDxfName
1000
AEC_DISP_REP_POLYGON_TRUECOLOUR
1000
AcRTDxfName
1000
AEC_DISP_REP_POLYGON_TRUECOLOUR
1000
AcRTDxfName
1000
AEC_DISP_REP_POLYGON_TRUECOLOUR
1000
AcRTDxfName
1000
AEC_DISP_REP_POLYGON_TRUECOLOUR
  0
ACAD_PROXY_OBJECT
  5
355D77
102
{ACAD_REACTORS
330
355D42
102
}
330
355D42
100
AcDbProxyObject
 90
      499
 91
      560
 95
       31
 70
     0
 93
      107
310
51B4D1465180051946946A81802C
340
355D78
 94
        0
1001
ACAD
1000
AcRTDxfName
1000
AEC_DISP_REP_SLICE
1000
AcRTDxfName
1000
AEC_DISP_REP_SLICE
1000
AcRTDxfName
1000
AEC_DISP_REP_SLICE
1000
AcRTDxfName
1000
AEC_DISP_REP_SLICE
  0
ACAD_PROXY_OBJECT
  5
355D45
102
{ACAD_REACTORS
330
355D44
102
}
330
355D44
100
AcDbProxyObject
 90
      499
 91
      518
 95
       31
 70
     0
 93
     3236
310
51B4D14651800519465194651913D0951946946C00000060801FDFEA035684A8CA34A3600000030400FEFF501406B4254651A51B000000182007F7FA80D5A12A328D28D8000000C1003FBFD40501AD0951946946C00000060801FDFEA0280D684A8CA34A3600000030400FEFF501406B4254651A51B000000182007F7FA80A
310
035A12A328D28D8000000C1003FBFD40501AD0951946946C00000060801FDFEA0280D684A8CA34A3600000030400FEFF501406B4254651A51B000000182007F7FA80A035A12A328D28D8000000C1003FBFD40501AD0951946946C00000060801FDFEA0280D684A8CA34A3600000030400FEFF501406B4254651A51B0000001
310
82007F7FA80D5A12A328D28D8000000C1003FBFD406AD0951946946C00000060801FDFEA0280D684A8CA34A3600000030400FEFF501406B4254651A51B000000182007F7FA80A034A328D28CA3203A14A328D28C8000000C1003FBFD406A51A0000000000000E100182D4454FB21E93F00000000000005080A555555555555
310
55555555555520E82009C00A6009200620066006201A801C
340
F
340
12
340
0
340
F
340
12
340
0
340
F
340
12
340
0
340
F
340
12
340
0
340
F
340
12
340
0
340
F
340
12
340
0
340
F
340
12
340
0
340
F
340
12
340
0
340
F
340
12
340
0
340
F
340
12
340
0
340
F
340
12
340
0
340
F
340
12
340
0
340
F
340
12
340
0
340
F
340
12
340
0
340
F
340
12
340
0
340
F
340
12
340
0
340
F
340
12
340
0
340
F
340
12
340
0
340
F
340
12
340
0
340
F
340
12
340
0
 94
        0
1001
ACAD
1000
AcRTDxfName
1000
AEC_DISP_PROPS_2D_SECTION
1000
AcRTDxfName
1000
AEC_DISP_PROPS_2D_SECTION
1000
AcRTDxfName
1000
AEC_DISP_PROPS_2D_SECTION
1000
AcRTDxfName
1000
AEC_DISP_PROPS_2D_SECTION
  0
ACAD_PROXY_OBJECT
  5
355D52
102
{ACAD_REACTORS
330
355D44
102
}
330
355D44
100
AcDbProxyObject
 90
      499
 91
      530
 95
       31
 70
     0
 93
      266
310
51B4D14651800519465194651901D0951946946C00000060801FDFEA03535505004C
340
F
340
12
340
0
 94
        0
1001
ACAD
1000
AcRTDxfName
1000
AEC_DISP_PROPS_LAYOUT_CURVE
1000
AcRTDxfName
1000
AEC_DISP_PROPS_LAYOUT_CURVE
1000
AcRTDxfName
1000
AEC_DISP_PROPS_LAYOUT_CURVE
1000
AcRTDxfName
1000
AEC_DISP_PROPS_LAYOUT_CURVE
  0
ACAD_PROXY_OBJECT
  5
355D54
102
{ACAD_REACTORS
330
355D44
102
}
330
355D44
100
AcDbProxyObject
 90
      499
 91
      532
 95
       31
 70
     0
 93
      653
310
51B4D14651800519465194651904D0951946946400000060801FDFEA035684A8CA34A3200000030400FEFF501AB4254651A51B000000182007F7FA80D5A12A328D28D8000000C1003FBFD406A6AAAAA1600C
340
F
340
12
340
0
340
F
340
12
340
0
340
F
340
12
340
0
340
F
340
12
340
0
 94
        0
1001
ACAD
1000
AcRTDxfName
1000
AEC_DISP_PROPS_LAYOUT_GRID2D
1000
AcRTDxfName
1000
AEC_DISP_PROPS_LAYOUT_GRID2D
1000
AcRTDxfName
1000
AEC_DISP_PROPS_LAYOUT_GRID2D
1000
AcRTDxfName
1000
AEC_DISP_PROPS_LAYOUT_GRID2D
  0
ACAD_PROXY_OBJECT
  5
355D68
102
{ACAD_REACTORS
330
355D44
102
}
330
355D44
100
AcDbProxyObject
 90
      499
 91
      546
 95
       31
 70
     0
 93
      403
310
51B4D146518005194651A5194640B4254651A51B000000182007F7FA80A035A12A328D28D8000000C1003FBFD406AAAA83802C
340
F
340
12
340
0
340
F
340
12
340
0
 94
        0
1001
ACAD
1000
AcRTDxfName
1000
AEC_DISP_PROPS_MASS_GROUP
1000
AcRTDxfName
1000
AEC_DISP_PROPS_MASS_GROUP
1000
AcRTDxfName
1000
AEC_DISP_PROPS_MASS_GROUP
1000
AcRTDxfName
1000
AEC_DISP_PROPS_MASS_GROUP
  0
ACAD_PROXY_OBJECT
  5
355D56
102
{ACAD_REACTORS
330
355D44
102
}
330
355D44
100
AcDbProxyObject
 90
      499
 91
      534
 95
       31
 70
     0
 93
      824
310
51B4D14651800519465194651904D0951946946400000060801FDFEA035684A8CA34A3200000030400FEFF501AB4254651A51B000000182007F7FA80D5A12A328D28D8000000C1003FBFD406A546519464074254651A51B000000182007F7FA80D555555543801CC
340
F
340
12
340
0
340
F
340
12
340
0
340
F
340
12
340
0
340
F
340
12
340
0
340
F
340
12
340
0
 94
        0
1001
ACAD
1000
AcRTDxfName
1000
AEC_DISP_PROPS_LAYOUT_GRID3D
1000
AcRTDxfName
1000
AEC_DISP_PROPS_LAYOUT_GRID3D
1000
AcRTDxfName
1000
AEC_DISP_PROPS_LAYOUT_GRID3D
1000
AcRTDxfName
1000
AEC_DISP_PROPS_LAYOUT_GRID3D
  0
ACAD_PROXY_OBJECT
  5
355D5A
102
{ACAD_REACTORS
330
355D44
102
}
330
355D44
100
AcDbProxyObject
 90
      499
 91
      536
 95
       31
 70
     0
 93
      393
310
51B4D14651800519465194651902D0951946946C00000060801FDFEA035684A8CA34A3600000030400FEFF501AAAAA0E00CC
340
F
340
12
340
0
340
F
340
12
340
0
 94
        0
1001
ACAD
1000
AcRTDxfName
1000
AEC_DISP_PROPS_MASKBLOCK
1000
AcRTDxfName
1000
AEC_DISP_PROPS_MASKBLOCK
1000
AcRTDxfName
1000
AEC_DISP_PROPS_MASKBLOCK
1000
AcRTDxfName
1000
AEC_DISP_PROPS_MASKBLOCK
  0
ACAD_PROXY_OBJECT
  5
355D5C
102
{ACAD_REACTORS
330
355D44
102
}
330
355D44
100
AcDbProxyObject
 90
      499
 91
      539
 95
       31
 70
     0
 93
      881
310
51B4D14651800519465194651903D0951946946C00000060801FDFEA0280D684A8CA34A3200000030400FEFF501AB4294651A519000000182007F7FA80A034A340000000000001C200305A88A9F643D27E0000000000000A1014AAAAA90741004E00530049003100330031008C00CC
340
F
340
12
340
0
340
F
340
12
340
0
340
F
340
12
340
0
 94
        0
1001
ACAD
1000
AcRTDxfName
1000
AEC_DISP_PROPS_MASS_ELEM_MODEL
1000
AcRTDxfName
1000
AEC_DISP_PROPS_MASS_ELEM_MODEL
1000
AcRTDxfName
1000
AEC_DISP_PROPS_MASS_ELEM_MODEL
1000
AcRTDxfName
1000
AEC_DISP_PROPS_MASS_ELEM_MODEL
  0
ACAD_PROXY_OBJECT
  5
355D5E
102
{ACAD_REACTORS
330
355D44
102
}
330
355D44
100
AcDbProxyObject
 90
      499
 91
      539
 95
       31
 70
     0
 93
      881
310
51B4D14651800519465194651903D0951946946C00000060801FDFEA0280D684A8CA34A3200000030400FEFF501AB4294651A519000000182007F7FA80A034A340000000000001C200305A88A9F643D27E0000000000000A1014AAAAA90741004E00530049003100330031008C00CC
340
F
340
12
340
0
340
F
340
12
340
0
340
F
340
12
340
0
 94
        0
1001
ACAD
1000
AcRTDxfName
1000
AEC_DISP_PROPS_MASS_ELEM_MODEL
1000
AcRTDxfName
1000
AEC_DISP_PROPS_MASS_ELEM_MODEL
1000
AcRTDxfName
1000
AEC_DISP_PROPS_MASS_ELEM_MODEL
1000
AcRTDxfName
1000
AEC_DISP_PROPS_MASS_ELEM_MODEL
  0
ACAD_PROXY_OBJECT
  5
355D60
102
{ACAD_REACTORS
330
355D44
102
}
330
355D44
100
AcDbProxyObject
 90
      499
 91
      542
 95
       31
 70
     0
 93
     1191
310
51B4D14651800519465194651903D0951946946C00000060801FDFEA035684A8CA34A3200000030400FEFF501AB4294651A519000000182007F7FA80A034A340000000000001C200305A88A9F643D27E0000000000000A1014A5194651902D0951946946C00000060801FDFEA0280D684A8CA34A3600000030400FEFF501AA
310
00AAAA90741004E0053004900310033003100AAA5802
340
F
340
12
340
0
340
F
340
12
340
0
340
F
340
12
340
0
340
F
340
12
340
0
340
F
340
12
340
0
 94
        0
1001
ACAD
1000
AcRTDxfName
1000
AEC_DISPROPSMASSELEMPLANCOMMON
1000
AcRTDxfName
1000
AEC_DISPROPSMASSELEMPLANCOMMON
1000
AcRTDxfName
1000
AEC_DISPROPSMASSELEMPLANCOMMON
1000
AcRTDxfName
1000
AEC_DISPROPSMASSELEMPLANCOMMON
  0
ACAD_PROXY_OBJECT
  5
355D62
102
{ACAD_REACTORS
330
355D44
102
}
330
355D44
100
AcDbProxyObject
 90
      499
 91
      542
 95
       31
 70
     0
 93
     1191
310
51B4D14651800519465194651903D0951946946C00000060801FDFEA035684A8CA34A3200000030400FEFF501AB4294651A519000000182007F7FA80A034A340000000000001C200305A88A9F643D27E0000000000000A1014A5194651902D0951946946C00000060801FDFEA0280D684A8CA34A3600000030400FEFF501AA
310
00AAAA90741004E0053004900310033003100AAA5802
340
F
340
12
340
0
340
F
340
12
340
0
340
F
340
12
340
0
340
F
340
12
340
0
340
F
340
12
340
0
 94
        0
1001
ACAD
1000
AcRTDxfName
1000
AEC_DISPROPSMASSELEMPLANCOMMON
1000
AcRTDxfName
1000
AEC_DISPROPSMASSELEMPLANCOMMON
1000
AcRTDxfName
1000
AEC_DISPROPSMASSELEMPLANCOMMON
1000
AcRTDxfName
1000
AEC_DISPROPSMASSELEMPLANCOMMON
  0
ACAD_PROXY_OBJECT
  5
355D64
102
{ACAD_REACTORS
330
355D44
102
}
330
355D44
100
AcDbProxyObject
 90
      499
 91
      539
 95
       31
 70
     0
 93
      881
310
51B4D14651800519465194651903D0951946946C00000060801FDFEA0280D684A8CA34A3200000030400FEFF501AB4294651A519000000182007F7FA80A034A340000000000001C200305A88A9F643D27E0000000000000A1014AAAAA90741004E00530049003100330031008C00CC
340
F
340
12
340
0
340
F
340
12
340
0
340
F
340
12
340
0
 94
        0
1001
ACAD
1000
AcRTDxfName
1000
AEC_DISP_PROPS_MASS_ELEM_MODEL
1000
AcRTDxfName
1000
AEC_DISP_PROPS_MASS_ELEM_MODEL
1000
AcRTDxfName
1000
AEC_DISP_PROPS_MASS_ELEM_MODEL
1000
AcRTDxfName
1000
AEC_DISP_PROPS_MASS_ELEM_MODEL
  0
ACAD_PROXY_OBJECT
  5
355D7B
102
{ACAD_REACTORS
330
355D44
102
}
330
355D44
100
AcDbProxyObject
 90
      499
 91
      564
 95
       31
 70
     0
 93
      232
310
51B4D146518005194651B4254651A51B000000182007F7FA80D5541001CC
340
F
340
12
340
0
 94
        0
1001
ACAD
1000
AcRTDxfName
1000
AEC_DISP_PROPS_ENT
1000
AcRTDxfName
1000
AEC_DISP_PROPS_ENT
1000
AcRTDxfName
1000
AEC_DISP_PROPS_ENT
1000
AcRTDxfName
1000
AEC_DISP_PROPS_ENT
  0
ACAD_PROXY_OBJECT
  5
355D66
102
{ACAD_REACTORS
330
355D44
102
}
330
355D44
100
AcDbProxyObject
 90
      499
 91
      546
 95
       31
 70
     0
 93
      403
310
51B4D146518005194651A5194640B4254651A51B000000182007F7FA80A035A12A328D28D8000000C1003FBFD406AAAA83802C
340
F
340
12
340
0
340
F
340
12
340
0
 94
        0
1001
ACAD
1000
AcRTDxfName
1000
AEC_DISP_PROPS_MASS_GROUP
1000
AcRTDxfName
1000
AEC_DISP_PROPS_MASS_GROUP
1000
AcRTDxfName
1000
AEC_DISP_PROPS_MASS_GROUP
1000
AcRTDxfName
1000
AEC_DISP_PROPS_MASS_GROUP
  0
ACAD_PROXY_OBJECT
  5
355D6A
102
{ACAD_REACTORS
330
355D44
102
}
330
355D44
100
AcDbProxyObject
 90
      499
 91
      549
 95
       31
 70
     0
 93
     1193
310
51B4D146518005194651A5194640B4254651A51B000000182007F7FA80D5A12A328D28D8000000C1003FBFD406A5194651903D0951946946C00000060801FDFEA0280D68528CA34A3200000030400FEFF50140694680000000000003840060B51153EC87A4FC0000000000001420295A12A328D28D8000000C1003FBFD406A
310
802AAAAA90741004E0053004900310033003100A9600CC
340
F
340
12
340
0
340
F
340
12
340
0
340
F
340
12
340
0
340
F
340
12
340
0
340
F
340
12
340
0
 94
        0
1001
ACAD
1000
AcRTDxfName
1000
AEC_DISPROPSMASSGROUPPLANCOMMON
1000
AcRTDxfName
1000
AEC_DISPROPSMASSGROUPPLANCOMMON
1000
AcRTDxfName
1000
AEC_DISPROPSMASSGROUPPLANCOMMON
1000
AcRTDxfName
1000
AEC_DISPROPSMASSGROUPPLANCOMMON
  0
ACAD_PROXY_OBJECT
  5
355D47
102
{ACAD_REACTORS
330
355D44
102
}
330
355D44
100
AcDbProxyObject
 90
      499
 91
      520
 95
       31
 70
     0
 93
      522
310
51B4D14651800519465194651903D0951946946C00000060801FDFEA035684A8CA34A3600000030400FEFF501AB4254651A51B000000182007F7FA80D5555509004C
340
F
340
12
340
0
340
F
340
12
340
0
340
F
340
12
340
0
 94
        0
1001
ACAD
1000
AcRTDxfName
1000
AEC_DISP_PROPS_CLIP_VOLUME
1000
AcRTDxfName
1000
AEC_DISP_PROPS_CLIP_VOLUME
1000
AcRTDxfName
1000
AEC_DISP_PROPS_CLIP_VOLUME
1000
AcRTDxfName
1000
AEC_DISP_PROPS_CLIP_VOLUME
  0
ACAD_PROXY_OBJECT
  5
355D6C
102
{ACAD_REACTORS
330
355D44
102
}
330
355D44
100
AcDbProxyObject
 90
      499
 91
      549
 95
       31
 70
     0
 93
     1193
310
51B4D146518005194651A5194640B4254651A51B000000182007F7FA80D5A12A328D28D8000000C1003FBFD406A5194651903D0951946946C00000060801FDFEA0280D68528CA34A3200000030400FEFF50140694680000000000003840060B51153EC87A4FC0000000000001420295A12A328D28D8000000C1003FBFD406A
310
802AAAAA90741004E0053004900310033003100A9600CC
340
F
340
12
340
0
340
F
340
12
340
0
340
F
340
12
340
0
340
F
340
12
340
0
340
F
340
12
340
0
 94
        0
1001
ACAD
1000
AcRTDxfName
1000
AEC_DISPROPSMASSGROUPPLANCOMMON
1000
AcRTDxfName
1000
AEC_DISPROPSMASSGROUPPLANCOMMON
1000
AcRTDxfName
1000
AEC_DISPROPSMASSGROUPPLANCOMMON
1000
AcRTDxfName
1000
AEC_DISPROPSMASSGROUPPLANCOMMON
  0
ACAD_PROXY_OBJECT
  5
355D6E
102
{ACAD_REACTORS
330
355D44
102
}
330
355D44
100
AcDbProxyObject
 90
      499
 91
      546
 95
       31
 70
     0
 93
      403
310
51B4D146518005194651A5194640B4254651A51B000000182007F7FA80A035A12A328D28D8000000C1003FBFD406AAAA83802C
340
F
340
12
340
0
340
F
340
12
340
0
 94
        0
1001
ACAD
1000
AcRTDxfName
1000
AEC_DISP_PROPS_MASS_GROUP
1000
AcRTDxfName
1000
AEC_DISP_PROPS_MASS_GROUP
1000
AcRTDxfName
1000
AEC_DISP_PROPS_MASS_GROUP
1000
AcRTDxfName
1000
AEC_DISP_PROPS_MASS_GROUP
  0
ACAD_PROXY_OBJECT
  5
355D74
102
{ACAD_REACTORS
330
355D44
102
}
330
355D44
100
AcDbProxyObject
 90
      499
 91
      557
 95
       31
 70
     0
 93
     1595
310
51B4D14651800519465194651906D0951946946C00000060801FDFEA035684A8CA34A3600000030400FEFF501AB4254651A51B000000182007F7FA80D5A12A328D28D8000000C1003FBFD406AD0A51946946400000060801FDFEA03528D000000000000070800C16A22A7D90F49F8000000000000284052B4294651A519000
310
000182007F7FA80D4A340000000000001C200305A88A9F643D27E0000000000000A1014AAAAAAA90741004E0053004900310033003100A41D040138014C012400C400CC00C4004806C
340
F
340
12
340
0
340
F
340
12
340
0
340
F
340
12
340
0
340
F
340
12
340
0
340
F
340
12
340
0
340
F
340
12
340
0
 94
        0
1001
ACAD
1000
AcRTDxfName
1000
AEC_DISP_PROPS_POLYGON_MODEL
1000
AcRTDxfName
1000
AEC_DISP_PROPS_POLYGON_MODEL
1000
AcRTDxfName
1000
AEC_DISP_PROPS_POLYGON_MODEL
1000
AcRTDxfName
1000
AEC_DISP_PROPS_POLYGON_MODEL
  0
ACAD_PROXY_OBJECT
  5
355D76
102
{ACAD_REACTORS
330
355D44
102
}
330
355D44
100
AcDbProxyObject
 90
      499
 91
      559
 95
       31
 70
     0
 93
      171
310
51B4D146518005194651BFFFFFFFFFFFD0240A81002C
 94
        0
1001
ACAD
1000
AcRTDxfName
1000
AEC_DISP_PROPS_POLYGON_TRUECOLOUR
1000
AcRTDxfName
1000
AEC_DISP_PROPS_POLYGON_TRUECOLOUR
1000
AcRTDxfName
1000
AEC_DISP_PROPS_POLYGON_TRUECOLOUR
1000
AcRTDxfName
1000
AEC_DISP_PROPS_POLYGON_TRUECOLOUR
  0
ACAD_PROXY_OBJECT
  5
355D78
102
{ACAD_REACTORS
330
355D44
102
}
330
355D44
100
AcDbProxyObject
 90
      499
 91
      561
 95
       31
 70
     0
 93
      522
310
51B4D14651800519465194651903D0951946946C00000060801FDFEA035684A8CA34A3600000030400FEFF501AB4254651A51B000000182007F7FA80D5555509004C
340
F
340
12
340
0
340
F
340
12
340
0
340
F
340
12
340
0
 94
        0
1001
ACAD
1000
AcRTDxfName
1000
AEC_DISP_PROPS_SLICE
1000
AcRTDxfName
1000
AEC_DISP_PROPS_SLICE
1000
AcRTDxfName
1000
AEC_DISP_PROPS_SLICE
1000
AcRTDxfName
1000
AEC_DISP_PROPS_SLICE
  0
ACAD_PROXY_OBJECT
  5
355D7D
102
{ACAD_REACTORS
330
355D44
102
}
330
355D44
100
AcDbProxyObject
 90
      499
 91
      566
 95
       31
 70
     0
 93
     2230
310
51B4D14651800519465194651905D0951946946C00000060801FDFEA035684A8CA34A3600000030400FEFF501AB4254651A51B000000182007F7FA80D5A12A328D28D8000000C1003FBFD406AD0951946946C00000060801FDFEA03528CA3207A14A328D28C8000000C1003FBFD406A51A0000000000000E100182D4454FB2
310
1E93F00000000000005080A568528CA34A3200000030400FEFF501A94680000000000003840060B51153EC87A4FC0000000000001420295A14A328D28C8000000C1003FBFD406A51A0000000000000E100182D4454FB21E93F00000000000005080A555555555483A080270029802480188019801880520E82009C00A60092
310
00620066006201483A0802700298024801880198018804B00C
340
F
340
12
340
0
340
F
340
12
340
0
340
F
340
12
340
0
340
F
340
12
340
0
340
F
340
12
340
0
340
F
340
12
340
0
340
F
340
12
340
0
340
F
340
12
340
0
340
0
340
0
340
0
 94
        0
1001
ACAD
1000
AcRTDxfName
1000
AEC_DISP_PROPS_MATERIAL
1000
AcRTDxfName
1000
AEC_DISP_PROPS_MATERIAL
1000
AcRTDxfName
1000
AEC_DISP_PROPS_MATERIAL
1000
AcRTDxfName
1000
AEC_DISP_PROPS_MATERIAL
  0
ACAD_PROXY_OBJECT
  5
355D58
102
{ACAD_REACTORS
330
355D44
102
}
330
355D44
100
AcDbProxyObject
 90
      499
 91
      536
 95
       31
 70
     0
 93
      393
310
51B4D14651800519465194651902D0951946946C00000060801FDFEA035684A8CA34A3600000030400FEFF501AAAAA0E00CC
340
F
340
12
340
0
340
F
340
12
340
0
 94
        0
1001
ACAD
1000
AcRTDxfName
1000
AEC_DISP_PROPS_MASKBLOCK
1000
AcRTDxfName
1000
AEC_DISP_PROPS_MASKBLOCK
1000
AcRTDxfName
1000
AEC_DISP_PROPS_MASKBLOCK
1000
AcRTDxfName
1000
AEC_DISP_PROPS_MASKBLOCK
  0
ACAD_PROXY_OBJECT
  5
355D7F
102
{ACAD_REACTORS
330
355D44
102
}
330
355D44
100
AcDbProxyObject
 90
      499
 91
      568
 95
       31
 70
     0
 93
      994
310
51B4D14651800519465194651904D0951946946C00000060801FDFEA03568528CA34A3200000030400FEFF501A94680000000000003840060B51153EC87A4FC0000000000001420295A12A328D28D8000000C1003FBFD406AD0951946946C00000060801FDFEA035555483A0802700298024801880198018805548004C
340
F
340
12
340
0
340
F
340
12
340
0
340
F
340
12
340
0
340
F
340
12
340
0
 94
        0
1001
ACAD
1000
AcRTDxfName
1000
AEC_DISP_PROPS_EDITINPLACEPROFILE_MODEL
1000
AcRTDxfName
1000
AEC_DISP_PROPS_EDITINPLACEPROFILE_MODEL
1000
AcRTDxfName
1000
AEC_DISP_PROPS_EDITINPLACEPROFILE_MODEL
1000
AcRTDxfName
1000
AEC_DISP_PROPS_EDITINPLACEPROFILE_MODEL
  0
ACAD_PROXY_OBJECT
  5
355D49
102
{ACAD_REACTORS
330
355D44
102
}
330
355D44
100
AcDbProxyObject
 90
      499
 91
      520
 95
       31
 70
     0
 93
      522
310
51B4D14651800519465194651903D0951946946C00000060801FDFEA035684A8CA34A3600000030400FEFF501AB4254651A51B000000182007F7FA80D5555509004C
340
F
340
12
340
0
340
F
340
12
340
0
340
F
340
12
340
0
 94
        0
1001
ACAD
1000
AcRTDxfName
1000
AEC_DISP_PROPS_CLIP_VOLUME
1000
AcRTDxfName
1000
AEC_DISP_PROPS_CLIP_VOLUME
1000
AcRTDxfName
1000
AEC_DISP_PROPS_CLIP_VOLUME
1000
AcRTDxfName
1000
AEC_DISP_PROPS_CLIP_VOLUME
  0
ACAD_PROXY_OBJECT
  5
355D4C
102
{ACAD_REACTORS
330
355D44
102
}
330
355D44
100
AcDbProxyObject
 90
      499
 91
      524
 95
       31
 70
     0
 93
     1586
310
51B4D1465180051946519465190AD0951946946C00000060801FDFEA035684A8CA34A3600000030400FEFF501AB4254651A51B000000182007F7FA80D5A12A328D28D8000000C1003FBFD406AD0951946946C00000060801FDFEA035684A8CA34A3600000030400FEFF501AB4254651A51B000000182007F7FA80D5A12A328
310
D28D8000000C1003FBFD406AD0951946946C00000060801FDFEA035684A8CA34A3600000030400FEFF501A94651901D0951946946C00000060801FDFEA03555555555555551A004C
340
F
340
12
340
0
340
F
340
12
340
0
340
F
340
12
340
0
340
F
340
12
340
0
340
F
340
12
340
0
340
F
340
12
340
0
340
F
340
12
340
0
340
F
340
12
340
0
340
F
340
12
340
0
340
F
340
12
340
0
340
F
340
12
340
0
 94
        0
1001
ACAD
1000
AcRTDxfName
1000
AEC_DISP_PROPS_CLIP_VOLUME_RESULT
1000
AcRTDxfName
1000
AEC_DISP_PROPS_CLIP_VOLUME_RESULT
1000
AcRTDxfName
1000
AEC_DISP_PROPS_CLIP_VOLUME_RESULT
1000
AcRTDxfName
1000
AEC_DISP_PROPS_CLIP_VOLUME_RESULT
  0
ACAD_PROXY_OBJECT
  5
355D4E
102
{ACAD_REACTORS
330
355D44
102
}
330
355D44
100
AcDbProxyObject
 90
      499
 91
      526
 95
       31
 70
     0
 93
     1123
310
51B4D14651800519465194651905D0951946946C00000060801FDFEA03568528CA34A3200000030400FEFF501A94680000000000003840060B51153EC87A4FC0000000000001420295A12A328D28D8000000C1003FBFD406AD0951946946C00000060801FDFEA035684A8CA34A3600000030400FEFF501AAAAA41D04013801
310
4C012400C400CC00C402AAA5002C
340
F
340
12
340
0
340
F
340
12
340
0
340
F
340
12
340
0
340
F
340
12
340
0
340
F
340
12
340
0
 94
        0
1001
ACAD
1000
AcRTDxfName
1000
AEC_DISP_PROPS_DISPLAYTHEME
1000
AcRTDxfName
1000
AEC_DISP_PROPS_DISPLAYTHEME
1000
AcRTDxfName
1000
AEC_DISP_PROPS_DISPLAYTHEME
1000
AcRTDxfName
1000
AEC_DISP_PROPS_DISPLAYTHEME
  0
ACAD_PROXY_OBJECT
  5
355D50
102
{ACAD_REACTORS
330
355D44
102
}
330
355D44
100
AcDbProxyObject
 90
      499
 91
      528
 95
       31
 70
     0
 93
      395
310
51B4D146518005194651A5194640B4254651A51B000000182007F7FA80D5A12A328D28D8000000C1003FBFD406AAAA83802C
340
F
340
12
340
0
340
F
340
12
340
0
 94
        0
1001
ACAD
1000
AcRTDxfName
1000
AEC_DISP_PROPS_ENT_REF
1000
AcRTDxfName
1000
AEC_DISP_PROPS_ENT_REF
1000
AcRTDxfName
1000
AEC_DISP_PROPS_ENT_REF
1000
AcRTDxfName
1000
AEC_DISP_PROPS_ENT_REF
  0
ACAD_PROXY_OBJECT
  5
355D41
102
{ACAD_REACTORS
330
355D40
102
}
330
355D40
100
AcDbProxyObject
 90
      499
 91
      516
 95
       31
 70
     0
 93
     1856
310
51B4D146518005194651A8FC812095550000000000000B08000000000000008200000000000001807E8F2048F205000200001204000000000000581F8000000000000B0807EC3FA6DEBC0E99F8000000000001C07FE8FCC02A41A4E2D20CA600E2005C008C00E8005C008321803A80170023003A0017002089800620064006
310
001202DA008C2080248020801000140019001A801B00100021803780360037803900148010001000100010002080220019001A801B0021082008600820088008200A4008600900087A08032803180260030803C803280390029803A003200170032003B80338049C09CC
330
0
 94
        0
1001
ACAD
1000
AcRTDxfName
1000
AEC_VARS_DWG_SETUP
1000
AcRTDxfName
1000
AEC_VARS_DWG_SETUP
1000
AcRTDxfName
1000
AEC_VARS_DWG_SETUP
1000
AcRTDxfName
1000
AEC_VARS_DWG_SETUP
  0
DICTIONARY
  5
3D6D77
330
355
100
AcDbDictionary
280
     1
281
     1
  3
ACAD_XREC_ROUNDTRIP
360
3D6D78
  0
DICTIONARY
  5
3D6D79
330
356
100
AcDbDictionary
280
     1
281
     1
  3
ACAD_XREC_ROUNDTRIP
360
3D6D7A
  0
DICTIONARY
  5
3D6D35
330
3D6D34
100
AcDbDictionary
280
     1
281
     1
  3
ACAD_XREC_ROUNDTRIP
360
3D6D7C
  3
BUMPTILE
360
3D6D37
  3
DIFFUSETILE
360
3D6D36
  3
OPACITYTILE
360
3D6D3A
  3
REFLECTIONTILE
360
3D6D39
  3
REFRACTIONTILE
360
3D6D3B
  3
SPECULARTILE
360
3D6D38
  0
DICTIONARY
  5
3D6D2D
330
3D6D2C
100
AcDbDictionary
280
     1
281
     1
  3
ACAD_XREC_ROUNDTRIP
360
3D6D7B
  3
BUMPTILE
360
3D6D2F
  3
DIFFUSETILE
360
3D6D2E
  3
OPACITYTILE
360
3D6D32
  3
REFLECTIONTILE
360
3D6D31
  3
REFRACTIONTILE
360
3D6D33
  3
SPECULARTILE
360
3D6D30
  0
DICTIONARY
  5
3D6D3D
330
3D6D3C
100
AcDbDictionary
280
     1
281
     1
  3
ACAD_XREC_ROUNDTRIP
360
3D6D7D
  3
BUMPTILE
360
3D6D3F
  3
DIFFUSETILE
360
3D6D3E
  3
OPACITYTILE
360
3D6D42
  3
REFLECTIONTILE
360
3D6D41
  3
REFRACTIONTILE
360
3D6D43
  3
SPECULARTILE
360
3D6D40
  0
DICTIONARY
  5
3D6D73
330
3D6D57
100
AcDbDictionary
280
     1
281
     1
  3
ACAD_ROUNDTRIP_2008_TABLESTYLE_CELLSTYLEMAP
360
3D6D74
  3
ACAD_XREC_ROUNDTRIP
360
3D6D7E
  0
XRECORD
  5
3D6D78
102
{ACAD_REACTORS
330
3D6D77
102
}
330
3D6D77
100
AcDbXrecord
280
     1
102
SHADEPLOT
 70
     0
102
SHADEPLOTRESLEVEL
 70
     2
102
SHADEPLOTCUSTOMDPI
 70
   300
  0
XRECORD
  5
3D6D7A
102
{ACAD_REACTORS
330
3D6D79
102
}
330
3D6D79
100
AcDbXrecord
280
     1
102
SHADEPLOT
 70
     0
102
SHADEPLOTRESLEVEL
 70
     2
102
SHADEPLOTCUSTOMDPI
 70
   300
  0
XRECORD
  5
3D6D7C
102
{ACAD_REACTORS
330
3D6D35
102
}
330
3D6D35
100
AcDbXrecord
280
     1
102
MATERIAL
148
0.0
149
0.0
149
0.0
 93
        0
 94
      127
282
     0
 72
     0
 77
     0
171
     0
175
     0
179
     0
273
     0
  0
XRECORD
  5
3D6D37
102
{ACAD_REACTORS
330
3D6D35
102
}
330
3D6D35
100
AcDbXrecord
280
     1
270
     1
271
     1
  0
XRECORD
  5
3D6D36
102
{ACAD_REACTORS
330
3D6D35
102
}
330
3D6D35
100
AcDbXrecord
280
     1
270
     1
271
     1
  0
XRECORD
  5
3D6D3A
102
{ACAD_REACTORS
330
3D6D35
102
}
330
3D6D35
100
AcDbXrecord
280
     1
270
     1
271
     1
  0
XRECORD
  5
3D6D39
102
{ACAD_REACTORS
330
3D6D35
102
}
330
3D6D35
100
AcDbXrecord
280
     1
270
     1
271
     1
  0
XRECORD
  5
3D6D3B
102
{ACAD_REACTORS
330
3D6D35
102
}
330
3D6D35
100
AcDbXrecord
280
     1
270
     1
271
     1
  0
XRECORD
  5
3D6D38
102
{ACAD_REACTORS
330
3D6D35
102
}
330
3D6D35
100
AcDbXrecord
280
     1
270
     1
271
     1
  0
XRECORD
  5
3D6D7B
102
{ACAD_REACTORS
330
3D6D2D
102
}
330
3D6D2D
100
AcDbXrecord
280
     1
102
MATERIAL
148
0.0
149
0.0
149
0.0
 93
        0
 94
      127
282
     0
 72
     0
 77
     0
171
     0
175
     0
179
     0
273
     0
  0
XRECORD
  5
3D6D2F
102
{ACAD_REACTORS
330
3D6D2D
102
}
330
3D6D2D
100
AcDbXrecord
280
     1
270
     1
271
     1
  0
XRECORD
  5
3D6D2E
102
{ACAD_REACTORS
330
3D6D2D
102
}
330
3D6D2D
100
AcDbXrecord
280
     1
270
     1
271
     1
  0
XRECORD
  5
3D6D32
102
{ACAD_REACTORS
330
3D6D2D
102
}
330
3D6D2D
100
AcDbXrecord
280
     1
270
     1
271
     1
  0
XRECORD
  5
3D6D31
102
{ACAD_REACTORS
330
3D6D2D
102
}
330
3D6D2D
100
AcDbXrecord
280
     1
270
     1
271
     1
  0
XRECORD
  5
3D6D33
102
{ACAD_REACTORS
330
3D6D2D
102
}
330
3D6D2D
100
AcDbXrecord
280
     1
270
     1
271
     1
  0
XRECORD
  5
3D6D30
102
{ACAD_REACTORS
330
3D6D2D
102
}
330
3D6D2D
100
AcDbXrecord
280
     1
270
     1
271
     1
  0
XRECORD
  5
3D6D7D
102
{ACAD_REACTORS
330
3D6D3D
102
}
330
3D6D3D
100
AcDbXrecord
280
     1
102
MATERIAL
148
0.0
149
0.0
149
0.0
 93
        0
 94
      127
282
     0
 72
     0
 77
     0
171
     0
175
     0
179
     0
273
     0
  0
XRECORD
  5
3D6D3F
102
{ACAD_REACTORS
330
3D6D3D
102
}
330
3D6D3D
100
AcDbXrecord
280
     1
270
     1
271
     1
  0
XRECORD
  5
3D6D3E
102
{ACAD_REACTORS
330
3D6D3D
102
}
330
3D6D3D
100
AcDbXrecord
280
     1
270
     1
271
     1
  0
XRECORD
  5
3D6D42
102
{ACAD_REACTORS
330
3D6D3D
102
}
330
3D6D3D
100
AcDbXrecord
280
     1
270
     1
271
     1
  0
XRECORD
  5
3D6D41
102
{ACAD_REACTORS
330
3D6D3D
102
}
330
3D6D3D
100
AcDbXrecord
280
     1
270
     1
271
     1
  0
XRECORD
  5
3D6D43
102
{ACAD_REACTORS
330
3D6D3D
102
}
330
3D6D3D
100
AcDbXrecord
280
     1
270
     1
271
     1
  0
XRECORD
  5
3D6D40
102
{ACAD_REACTORS
330
3D6D3D
102
}
330
3D6D3D
100
AcDbXrecord
280
     1
270
     1
271
     1
  0
CELLSTYLEMAP
  5
3D6D74
102
{ACAD_REACTORS
330
3D6D73
102
}
330
3D6D73
100
AcDbCellStyleMap
 90
        3
300
CELLSTYLE
  1
TABLEFORMAT_BEGIN
 90
        5
170
     1
 91
        0
 92
    32768
 62
   257
 93
        1
300
CONTENTFORMAT
  1
CONTENTFORMAT_BEGIN
 90
        0
 91
        0
 92
      512
 93
        0
300

 40
0.0
140
1.0
 94
        5
 62
     0
340
10
144
0.25
309
CONTENTFORMAT_END
171
     0
 94
        0
309
TABLEFORMAT_END
  1
CELLSTYLE_BEGIN
 90
        1
 91
        1
300
_TITLE
309
CELLSTYLE_END
300
CELLSTYLE
  1
TABLEFORMAT_BEGIN
 90
        5
170
     1
 91
        0
 92
        0
 62
   257
 93
        1
300
CONTENTFORMAT
  1
CONTENTFORMAT_BEGIN
 90
        0
 91
        0
 92
      512
 93
        0
300

 40
0.0
140
1.0
 94
        5
 62
     0
340
10
144
0.18
309
CONTENTFORMAT_END
171
     0
 94
        0
309
TABLEFORMAT_END
  1
CELLSTYLE_BEGIN
 90
        2
 91
        1
300
_HEADER
309
CELLSTYLE_END
300
CELLSTYLE
  1
TABLEFORMAT_BEGIN
 90
        5
170
     1
 91
        0
 92
        0
 62
   257
 93
        1
300
CONTENTFORMAT
  1
CONTENTFORMAT_BEGIN
 90
        0
 91
        0
 92
      512
 93
        0
300

 40
0.0
140
1.0
 94
        2
 62
     0
340
10
144
0.18
309
CONTENTFORMAT_END
171
     0
 94
        0
309
TABLEFORMAT_END
  1
CELLSTYLE_BEGIN
 90
        3
 91
        2
300
_DATA
309
CELLSTYLE_END
  0
XRECORD
  5
3D6D7E
102
{ACAD_REACTORS
330
3D6D73
102
}
330
3D6D73
100
AcDbXrecord
280
     1
102
ACAD_ROUNDTRIP_PRE2007_TABLESTYLE
 90
      512
 91
        0
  1

 92
      512
 93
        0
  2

 94
      512
 95
        0
  3

  0
ENDSEC
  0
EOF
