  0
SECTION
  2
HEADER
  9
$ACADVER
  1
AC1015
  9
$ACADMAINTVER
 70
    20
  9
$DWGCODEPAGE
  3
ANSI_932
  9
$INSBASE
 10
0.0
 20
0.0
 30
0.0
  9
$EXTMIN
 10
3141.707779059733
 20
-4813.98365637001
 30
-0.0000000000000001
  9
$EXTMAX
 10
3275.91752444346
 20
-4665.812082762642
 30
0.0000000000000233
  9
$LIMMIN
 10
0.0
 20
0.0
  9
$LIMMAX
 10
420.0
 20
297.0
  9
$ORTHOMODE
 70
     0
  9
$REGENMODE
 70
     1
  9
$FILLMODE
 70
     1
  9
$QTEXTMODE
 70
     0
  9
$MIRRTEXT
 70
     1
  9
$LTSCALE
 40
5.0
  9
$ATTMODE
 70
     0
  9
$TEXTSIZE
 40
3.5
  9
$TRACEWID
 40
1.0
  9
$TEXTSTYLE
  7
STANDARD
  9
$CLAYER
  8
0
  9
$CELTYPE
  6
BYLAYER
  9
$CECOLOR
 62
   256
  9
$CELTSCALE
 40
1.0
  9
$DISPSILH
 70
     0
  9
$DIMSCALE
 40
1.0
  9
$DIMASZ
 40
2.5
  9
$DIMEXO
 40
1.5
  9
$DIMDLI
 40
0.38
  9
$DIMRND
 40
0.0
  9
$DIMDLE
 40
0.0
  9
$DIMEXE
 40
1.0
  9
$DIMTP
 40
0.0
  9
$DIMTM
 40
0.0
  9
$DIMTXT
 40
2.500000000000002
  9
$DIMCEN
 40
0.0
  9
$DIMTSZ
 40
0.0
  9
$DIMTOL
 70
     0
  9
$DIMLIM
 70
     0
  9
$DIMTIH
 70
     0
  9
$DIMTOH
 70
     0
  9
$DIMSE1
 70
     0
  9
$DIMSE2
 70
     0
  9
$DIMTAD
 70
     3
  9
$DIMZIN
 70
     8
  9
$DIMBLK
  1

  9
$DIMASO
 70
     1
  9
$DIMSHO
 70
     0
  9
$DIMPOST
  1

  9
$DIMAPOST
  1

  9
$DIMALT
 70
     0
  9
$DIMALTD
 70
     0
  9
$DIMALTF
 40
25.4
  9
$DIMLFAC
 40
1.0
  9
$DIMTOFL
 70
     1
  9
$DIMTVP
 40
0.0
  9
$DIMTIX
 70
     0
  9
$DIMSOXD
 70
     0
  9
$DIMSAH
 70
     1
  9
$DIMBLK1
  1
OPEN
  9
$DIMBLK2
  1
OPEN
  9
$DIMSTYLE
  2
STANDARD
  9
$DIMCLRD
 70
     8
  9
$DIMCLRE
 70
     8
  9
$DIMCLRT
 70
   256
  9
$DIMTFAC
 40
1.0
  9
$DIMGAP
 40
1.0
  9
$DIMJUST
 70
     0
  9
$DIMSD1
 70
     0
  9
$DIMSD2
 70
     0
  9
$DIMTOLJ
 70
     1
  9
$DIMTZIN
 70
     0
  9
$DIMALTZ
 70
     0
  9
$DIMALTTZ
 70
     0
  9
$DIMUPT
 70
     0
  9
$DIMDEC
 70
     2
  9
$DIMTDEC
 70
     2
  9
$DIMALTU
 70
     2
  9
$DIMALTTD
 70
     0
  9
$DIMTXSTY
  7
STANDARD
  9
$DIMAUNIT
 70
     0
  9
$DIMADEC
 70
     2
  9
$DIMALTRND
 40
0.0
  9
$DIMAZIN
 70
     2
  9
$DIMDSEP
 70
    46
  9
$DIMATFIT
 70
     1
  9
$DIMFRAC
 70
     0
  9
$DIMLDRBLK
  1
OPEN
  9
$DIMLUNIT
 70
     2
  9
$DIMLWD
 70
    -2
  9
$DIMLWE
 70
    -2
  9
$DIMTMOVE
 70
     0
  9
$LUNITS
 70
     2
  9
$LUPREC
 70
     2
  9
$SKETCHINC
 40
0.1
  9
$FILLETRAD
 40
0.0
  9
$AUNITS
 70
     0
  9
$AUPREC
 70
     1
  9
$MENU
  1
FM
  9
$ELEVATION
 40
0.0
  9
$PELEVATION
 40
0.0
  9
$THICKNESS
 40
0.0
  9
$LIMCHECK
 70
     0
  9
$CHAMFERA
 40
0.0
  9
$CHAMFERB
 40
0.0
  9
$CHAMFERC
 40
0.0
  9
$CHAMFERD
 40
0.0
  9
$SKPOLY
 70
     0
  9
$TDCREATE
 40
2457970.585992349
  9
$TDUCREATE
 40
2457970.210992349
  9
$TDUPDATE
 40
2458064.386824040
  9
$TDUUPDATE
 40
2458064.011824039
  9
$TDINDWG
 40
3.4777234144
  9
$TDUSRTIMER
 40
3.4777227083
  9
$USRTIMER
 70
     1
  9
$ANGBASE
 50
0.0
  9
$ANGDIR
 70
     0
  9
$PDMODE
 70
     3
  9
$PDSIZE
 40
0.0
  9
$PLINEWID
 40
0.0
  9
$SPLFRAME
 70
     0
  9
$SPLINETYPE
 70
     6
  9
$SPLINESEGS
 70
     8
  9
$HANDSEED
  5
33217
  9
$SURFTAB1
 70
     6
  9
$SURFTAB2
 70
     6
  9
$SURFTYPE
 70
     6
  9
$SURFU
 70
     6
  9
$SURFV
 70
     6
  9
$UCSBASE
  2

  9
$UCSNAME
  2

  9
$UCSORG
 10
0.0
 20
0.0
 30
0.0
  9
$UCSXDIR
 10
1.0
 20
0.0
 30
0.0
  9
$UCSYDIR
 10
0.0
 20
1.0
 30
0.0
  9
$UCSORTHOREF
  2

  9
$UCSORTHOVIEW
 70
     0
  9
$UCSORGTOP
 10
0.0
 20
0.0
 30
0.0
  9
$UCSORGBOTTOM
 10
0.0
 20
0.0
 30
0.0
  9
$UCSORGLEFT
 10
0.0
 20
0.0
 30
0.0
  9
$UCSORGRIGHT
 10
0.0
 20
0.0
 30
0.0
  9
$UCSORGFRONT
 10
0.0
 20
0.0
 30
0.0
  9
$UCSORGBACK
 10
0.0
 20
0.0
 30
0.0
  9
$PUCSBASE
  2

  9
$PUCSNAME
  2

  9
$PUCSORG
 10
0.0
 20
0.0
 30
0.0
  9
$PUCSXDIR
 10
1.0
 20
0.0
 30
0.0
  9
$PUCSYDIR
 10
0.0
 20
1.0
 30
0.0
  9
$PUCSORTHOREF
  2

  9
$PUCSORTHOVIEW
 70
     0
  9
$PUCSORGTOP
 10
0.0
 20
0.0
 30
0.0
  9
$PUCSORGBOTTOM
 10
0.0
 20
0.0
 30
0.0
  9
$PUCSORGLEFT
 10
0.0
 20
0.0
 30
0.0
  9
$PUCSORGRIGHT
 10
0.0
 20
0.0
 30
0.0
  9
$PUCSORGFRONT
 10
0.0
 20
0.0
 30
0.0
  9
$PUCSORGBACK
 10
0.0
 20
0.0
 30
0.0
  9
$USERI1
 70
     0
  9
$USERI2
 70
     0
  9
$USERI3
 70
     0
  9
$USERI4
 70
     0
  9
$USERI5
 70
     0
  9
$USERR1
 40
0.0
  9
$USERR2
 40
0.0
  9
$USERR3
 40
0.0
  9
$USERR4
 40
0.0
  9
$USERR5
 40
0.0
  9
$WORLDVIEW
 70
     0
  9
$SHADEDGE
 70
     3
  9
$SHADEDIF
 70
    70
  9
$TILEMODE
 70
     1
  9
$MAXACTVP
 70
    16
  9
$PINSBASE
 10
0.0
 20
0.0
 30
0.0
  9
$PLIMCHECK
 70
     0
  9
$PEXTMIN
 10
1.000000000000000E+20
 20
1.000000000000000E+20
 30
1.000000000000000E+20
  9
$PEXTMAX
 10
-1.000000000000000E+20
 20
-1.000000000000000E+20
 30
-1.000000000000000E+20
  9
$PLIMMIN
 10
0.0
 20
0.0
  9
$PLIMMAX
 10
12.0
 20
9.0
  9
$UNITMODE
 70
     0
  9
$VISRETAIN
 70
     0
  9
$PLINEGEN
 70
     0
  9
$PSLTSCALE
 70
     0
  9
$TREEDEPTH
 70
  3020
  9
$CMLSTYLE
  2
STANDARD
  9
$CMLJUST
 70
     0
  9
$CMLSCALE
 40
1.0
  9
$PROXYGRAPHICS
 70
     1
  9
$MEASUREMENT
 70
     0
  9
$CELWEIGHT
370
    -1
  9
$ENDCAPS
280
     0
  9
$JOINSTYLE
280
     0
  9
$LWDISPLAY
290
     0
  9
$INSUNITS
 70
     0
  9
$HYPERLINKBASE
  1

  9
$STYLESHEET
  1
SPAX FORM.CTB
  9
$XEDIT
290
     1
  9
$CEPSNTYPE
380
     0
  9
$PSTYLEMODE
290
     1
  9
$FINGERPRINTGUID
  2
{FF1FE549-18E5-4BA6-B4E6-F8277B8E0FDE}
  9
$VERSIONGUID
  2
{DB45C9AA-451C-4E50-8922-3487E0D0201E}
  9
$EXTNAMES
290
     1
  9
$PSVPSCALE
 40
0.0
  9
$OLESTARTUP
290
     0
  0
ENDSEC
  0
SECTION
  2
CLASSES
  0
CLASS
  1
ACDBDICTIONARYWDFLT
  2
AcDbDictionaryWithDefault
  3
ObjectDBX Classes
 90
        0
280
     0
281
     0
  0
CLASS
  1
ACDBPLACEHOLDER
  2
AcDbPlaceHolder
  3
ObjectDBX Classes
 90
        0
280
     0
281
     0
  0
CLASS
  1
LAYOUT
  2
AcDbLayout
  3
ObjectDBX Classes
 90
        0
280
     0
281
     0
  0
CLASS
  1
DICTIONARYVAR
  2
AcDbDictionaryVar
  3
ObjectDBX Classes
 90
        0
280
     0
281
     0
  0
CLASS
  1
MATERIAL
  2
AcDbMaterial
  3
ObjectDBX Classes
 90
     1153
280
     0
281
     0
  0
CLASS
  1
VISUALSTYLE
  2
AcDbVisualStyle
  3
ObjectDBX Classes
 90
     4095
280
     0
281
     0
  0
CLASS
  1
TABLESTYLE
  2
AcDbTableStyle
  3
ObjectDBX Classes
 90
     4095
280
     0
281
     0
  0
CLASS
  1
SCALE
  2
AcDbScale
  3
ObjectDBX Classes
 90
     1153
280
     0
281
     0
  0
CLASS
  1
MLEADERSTYLE
  2
AcDbMLeaderStyle
  3
ACDB_MLEADERSTYLE_CLASS
 90
     4095
280
     0
281
     0
  0
CLASS
  1
MULTILEADER
  2
AcDbMLeader
  3
ACDB_MLEADER_CLASS
 90
    33793
280
     0
281
     1
  0
CLASS
  1
CELLSTYLEMAP
  2
AcDbCellStyleMap
  3
ObjectDBX Classes
 90
     1152
280
     0
281
     0
  0
CLASS
  1
SORTENTSTABLE
  2
AcDbSortentsTable
  3
ObjectDBX Classes
 90
        0
280
     0
281
     0
  0
CLASS
  1
ACAD_EVALUATION_GRAPH
  2
AcDbEvalGraph
  3
ObjectDBX Classes
 90
    33921
280
     0
281
     0
  0
CLASS
  1
ACAECUSTOBJ
  2
AcAeEditorObj
  3
AcAeEditorObj
 90
    33792
280
     0
281
     0
  0
CLASS
  1
ACDB_DYNAMICBLOCKPURGEPREVENTER_VERSION
  2
AcDbDynamicBlockPurgePreventer
  3
ObjectDBX Classes
 90
    33921
280
     0
281
     0
  0
ENDSEC
  0
SECTION
  2
TABLES
  0
TABLE
  2
VPORT
  5
8
102
{ACAD_XDICTIONARY
360
B1B
102
}
330
0
100
AcDbSymbolTable
 70
     1
  0
VPORT
  5
AAC
330
8
100
AcDbSymbolTableRecord
100
AcDbViewportTableRecord
  2
*Active
 70
     0
 10
0.0
 20
0.0
 11
1.0
 21
1.0
 12
3208.812651751597
 22
-4739.897869566326
 13
0.0
 23
0.0
 14
1.0
 24
1.0
 15
20.0
 25
20.0
 16
0.0
 26
0.0
 36
1.0
 17
0.0
 27
0.0
 37
0.0
 40
149.3649017169573
 41
1.762096774193548
 42
50.0
 43
0.0
 44
0.0
 50
0.0
 51
0.0
 71
     0
 72
   100
 73
     1
 74
     0
 75
     0
 76
     0
 77
     0
 78
     0
281
     0
 65
     1
110
0.0
120
0.0
130
0.0
111
1.0
121
0.0
131
0.0
112
0.0
122
1.0
132
0.0
 79
     0
146
0.0
  0
ENDTAB
  0
TABLE
  2
LTYPE
  5
5
330
0
100
AcDbSymbolTable
 70
     2
  0
LTYPE
  5
12
330
5
100
AcDbSymbolTableRecord
100
AcDbLinetypeTableRecord
  2
BYBLOCK
 70
     0
  3

 72
    65
 73
     0
 40
0.0
  0
LTYPE
  5
13
330
5
100
AcDbSymbolTableRecord
100
AcDbLinetypeTableRecord
  2
BYLAYER
 70
     0
  3

 72
    65
 73
     0
 40
0.0
  0
LTYPE
  5
14
330
5
100
AcDbSymbolTableRecord
100
AcDbLinetypeTableRecord
  2
CONTINUOUS
 70
     0
  3
Solid line
 72
    65
 73
     0
 40
0.0
  0
ENDTAB
  0
TABLE
  2
LAYER
  5
2
102
{ACAD_XDICTIONARY
360
9EB
102
}
330
0
100
AcDbSymbolTable
 70
     4
  0
LAYER
  5
F
102
{ACAD_XDICTIONARY
360
B03
102
}
330
2
100
AcDbSymbolTableRecord
100
AcDbLayerTableRecord
  2
0
 70
     0
 62
     7
  6
CONTINUOUS
370
    -3
390
616
  0
LAYER
  5
36
330
2
100
AcDbSymbolTableRecord
100
AcDbLayerTableRecord
  2
DEFPOINTS
 70
     0
 62
     7
  6
CONTINUOUS
290
     0
370
    -3
390
616
  0
LAYER
  5
2F4
102
{ACAD_XDICTIONARY
360
B11
102
}
330
2
100
AcDbSymbolTableRecord
100
AcDbLayerTableRecord
  2
文字
 70
     0
 62
     7
  6
CONTINUOUS
370
    -3
390
616
  0
LAYER
  5
F51
102
{ACAD_XDICTIONARY
360
F52
102
}
330
2
100
AcDbSymbolTableRecord
100
AcDbLayerTableRecord
  2
姿図
 70
     0
 62
     8
  6
CONTINUOUS
370
    -3
390
616
  0
ENDTAB
  0
TABLE
  2
STYLE
  5
3
330
0
100
AcDbSymbolTable
 70
     2
  0
STYLE
  5
10
330
3
100
AcDbSymbolTableRecord
100
AcDbTextStyleTableRecord
  2
STANDARD
 70
     0
 40
0.0
 41
1.0
 50
0.0
 71
     0
 42
3.5
  3
MONOTXT
  4
BIGFONT
  0
STYLE
  5
27A3
330
3
100
AcDbSymbolTableRecord
100
AcDbTextStyleTableRecord
  2
ROMANS
 70
     0
 40
0.0
 41
1.0
 50
0.0
 71
     0
 42
3.5
  3
romans.shx
  4
bigfont.shx
  0
ENDTAB
  0
TABLE
  2
VIEW
  5
6
330
0
100
AcDbSymbolTable
 70
     0
  0
ENDTAB
  0
TABLE
  2
UCS
  5
7
330
0
100
AcDbSymbolTable
 70
     0
  0
ENDTAB
  0
TABLE
  2
APPID
  5
9
330
0
100
AcDbSymbolTable
 70
    16
  0
APPID
  5
11
330
9
100
AcDbSymbolTableRecord
100
AcDbRegAppTableRecord
  2
ACAD
 70
     0
  0
APPID
  5
AFD
330
9
100
AcDbSymbolTableRecord
100
AcDbRegAppTableRecord
  2
ACAD_MLEADERVER
 70
     0
  0
APPID
  5
B3A
330
9
100
AcDbSymbolTableRecord
100
AcDbRegAppTableRecord
  2
ACAD_DSTYLE_DIMJAG
 70
     0
  0
APPID
  5
B3B
330
9
100
AcDbSymbolTableRecord
100
AcDbRegAppTableRecord
  2
ACAD_DSTYLE_DIMTALN
 70
     0
  0
APPID
  5
BE7
330
9
100
AcDbSymbolTableRecord
100
AcDbRegAppTableRecord
  2
AcAecLayerStandard
 70
     0
  0
APPID
  5
BE8
330
9
100
AcDbSymbolTableRecord
100
AcDbRegAppTableRecord
  2
ACAD_PSEXT
 70
     0
  0
APPID
  5
11AA
330
9
100
AcDbSymbolTableRecord
100
AcDbRegAppTableRecord
  2
ACAD_EXEMPT_FROM_CAD_STANDARDS
 70
     0
  0
APPID
  5
148D
330
9
100
AcDbSymbolTableRecord
100
AcDbRegAppTableRecord
  2
ACAD_DSTYLE_DIMRADIAL_EXTENSION
 70
     0
  0
APPID
  5
14ED
330
9
100
AcDbSymbolTableRecord
100
AcDbRegAppTableRecord
  2
AcDbDynamicBlockGUID
 70
     0
  0
APPID
  5
14EE
330
9
100
AcDbSymbolTableRecord
100
AcDbRegAppTableRecord
  2
AcDbBlockRepETag
 70
     0
  0
APPID
  5
1B7A
330
9
100
AcDbSymbolTableRecord
100
AcDbRegAppTableRecord
  2
ACAUTHENVIRON
 70
     0
  0
APPID
  5
1B7D
330
9
100
AcDbSymbolTableRecord
100
AcDbRegAppTableRecord
  2
AcDbDynamicBlockTrueName
 70
     0
  0
APPID
  5
1E3A
330
9
100
AcDbSymbolTableRecord
100
AcDbRegAppTableRecord
  2
PLOTTRANSPARENCY
 70
     0
  0
APPID
  5
27A6
330
9
100
AcDbSymbolTableRecord
100
AcDbRegAppTableRecord
  2
ACAD_SPLINE_DATA
 70
     0
  0
APPID
  5
27A7
330
9
100
AcDbSymbolTableRecord
100
AcDbRegAppTableRecord
  2
ACAD_SPLINE_DATA2
 70
     0
  0
APPID
  5
2D21E
330
9
100
AcDbSymbolTableRecord
100
AcDbRegAppTableRecord
  2
ACAD_DSTYLE_DIMARC_LENGTH_SYMBOL
 70
     0
  0
ENDTAB
  0
TABLE
  2
DIMSTYLE
  5
A
330
0
100
AcDbSymbolTable
 70
     1
100
AcDbDimStyleTable
 71
     1
340
1CC
  0
DIMSTYLE
105
1CC
330
A
100
AcDbSymbolTableRecord
100
AcDbDimStyleTableRecord
  2
STANDARD
 70
     0
 41
2.5
 42
1.5
 44
1.0
 73
     0
 74
     0
 77
     3
 78
     8
 79
     2
140
2.500000000000002
141
0.0
147
1.0
171
     0
172
     1
173
     1
176
     8
177
     8
178
   256
179
     2
271
     2
272
     2
274
     0
289
     1
340
10
341
608
343
608
344
608
1001
ACAD_DSTYLE_DIMJAG
1070
   388
1040
1.5
1001
ACAD_DSTYLE_DIMTALN
1070
   392
1070
     0
  0
ENDTAB
  0
TABLE
  2
BLOCK_RECORD
  5
1
330
0
100
AcDbSymbolTable
 70
     1
  0
BLOCK_RECORD
  5
18
102
{ACAD_XDICTIONARY
360
3C90
102
}
330
1
100
AcDbSymbolTableRecord
100
AcDbBlockTableRecord
  2
*MODEL_SPACE
340
619
  0
BLOCK_RECORD
  5
15
330
1
100
AcDbSymbolTableRecord
100
AcDbBlockTableRecord
  2
*PAPER_SPACE
340
61A
  0
BLOCK_RECORD
  5
608
330
1
100
AcDbSymbolTableRecord
100
AcDbBlockTableRecord
  2
_OPEN
340
0
  0
ENDTAB
  0
ENDSEC
  0
SECTION
  2
BLOCKS
  0
BLOCK
  5
39
330
18
100
AcDbEntity
  8
0
100
AcDbBlockBegin
  2
*MODEL_SPACE
 70
     0
 10
0.0
 20
0.0
 30
0.0
  3
*MODEL_SPACE
  1

  0
ENDBLK
  5
3A
330
18
100
AcDbEntity
  8
0
100
AcDbBlockEnd
  0
BLOCK
  5
37
330
15
100
AcDbEntity
 67
     1
  8
0
100
AcDbBlockBegin
  2
*PAPER_SPACE
 70
     0
 10
0.0
 20
0.0
 30
0.0
  3
*PAPER_SPACE
  1

  0
ENDBLK
  5
38
330
15
100
AcDbEntity
 67
     1
  8
0
100
AcDbBlockEnd
  0
BLOCK
  5
609
330
608
100
AcDbEntity
  8
0
100
AcDbBlockBegin
  2
_OPEN
 70
     0
 10
0.0
 20
0.0
 30
0.0
  3
_OPEN
  1

  0
LINE
  5
60A
330
608
100
AcDbEntity
  8
0
  6
ByBlock
 62
     0
100
AcDbLine
 10
-1.0
 20
0.1666666666666666
 30
0.0
 11
0.0
 21
0.0
 31
0.0
  0
LINE
  5
60B
330
608
100
AcDbEntity
  8
0
  6
ByBlock
 62
     0
100
AcDbLine
 10
0.0
 20
0.0
 30
0.0
 11
-1.0
 21
-0.1666666666666666
 31
0.0
  0
LINE
  5
60C
330
608
100
AcDbEntity
  8
0
  6
ByBlock
 62
     0
100
AcDbLine
 10
0.0
 20
0.0
 30
0.0
 11
-1.0
 21
0.0
 31
0.0
  0
ENDBLK
  5
60D
330
608
100
AcDbEntity
  8
0
100
AcDbBlockEnd
  0
ENDSEC
  0
SECTION
  2
ENTITIES
  0
HATCH
  5
116F3
330
18
100
AcDbEntity
  8
0
 62
    30
100
AcDbHatch
 10
0.0
 20
0.0
 30
0.0
210
0.0
220
0.0
230
1.0
  2
ANSI31
 70
     0
 71
     0
 91
        1
 92
        1
 93
        3
 72
     1
 10
2767.340159975371
 20
-1439.155376456886
 11
2767.340764987308
 21
-1439.154798065018
 72
     1
 10
2767.340764987308
 20
-1439.154798065018
 11
2767.346822933602
 21
-1439.134372843345
 72
     1
 10
2767.346822933602
 20
-1439.134372843345
 11
2767.340159975371
 21
-1439.155376456886
 97
        0
 75
     0
 76
     1
 52
-50.00000000000002
 41
0.5
 77
     0
 78
     1
 53
354.9999999999998
 43
2524.265709789967
 44
-1326.847669670556
 45
0.1383597416119081
 46
1.581459083220645
 79
     0
 98
        1
 10
2524.265709789967
 20
-1326.847669670556
  0
MTEXT
  5
2A018
330
18
100
AcDbEntity
  8
0
 62
     7
 48
2.0
100
AcDbMText
 10
995.1765029882718
 20
-1140.906115768989
 30
0.0
 40
3.0
 41
0.0
 71
     9
 72
     1
  1

  7
ROMANS
 73
     1
 44
1.0
1001
ACAD
1000
MTEXTBEGIN
1070
    73
1070
     1
1070
    44
1040
1.0
1070
    74
1070
     0
1000
MTEXTEND
  0
MTEXT
  5
2A025
330
18
100
AcDbEntity
  8
0
 62
     7
 48
2.0
100
AcDbMText
 10
1517.008774148222
 20
-1172.557458507101
 30
0.0
 40
3.0
 41
0.0
 71
     9
 72
     1
  1

  7
ROMANS
 73
     1
 44
1.0
1001
ACAD
1000
MTEXTBEGIN
1070
    73
1070
     1
1070
    44
1040
1.0
1070
    74
1070
     0
1000
MTEXTEND
  0
MTEXT
  5
2A028
330
18
100
AcDbEntity
  8
0
 62
     7
 48
2.0
100
AcDbMText
 10
1242.465305055173
 20
-1256.605882776364
 30
0.0
 40
3.0
 41
0.0
 71
     9
 72
     1
  1

  7
ROMANS
 73
     1
 44
1.0
1001
ACAD
1000
MTEXTBEGIN
1070
    73
1070
     1
1070
    44
1040
1.0
1070
    74
1070
     0
1000
MTEXTEND
  0
ELLIPSE
  5
2E997
330
18
100
AcDbEntity
  8
姿図
100
AcDbEllipse
 10
3223.518846458985
 20
-4719.623627983955
 30
0.0
 11
-39.90419578639974
 21
0.0
 31
0.0
210
0.0
220
0.0
230
1.0
 40
0.3162393162393342
 41
3.141592653589792
 42
6.283185307179584
  0
SPLINE
  5
2E998
330
18
100
AcDbEntity
  8
姿図
100
AcDbSpline
210
0.0
220
0.0
230
1.0
 70
     8
 71
     3
 72
    38
 73
    34
 74
     0
 42
0.0000000001
 43
0.0000000001
 40
2.738560322738701
 40
2.738560322738701
 40
2.738560322738701
 40
2.738560322738701
 40
2.828726728502814
 40
2.828726728502814
 40
2.935055276349024
 40
2.935055276349024
 40
3.005077107470266
 40
3.005077107470266
 40
3.073936795897681
 40
3.073936795897681
 40
3.157988052531477
 40
3.157988052531477
 40
3.225839156113562
 40
3.225839156113562
 40
3.269732088010311
 40
3.269732088010311
 40
3.325387713629903
 40
3.325387713629903
 40
3.381043339249491
 40
3.381043339249491
 40
3.48976551148901
 40
3.48976551148901
 40
3.598487683728528
 40
3.598487683728528
 40
3.707209855968048
 40
3.707209855968048
 40
3.980799305892631
 40
3.980799305892631
 40
4.254388755817216
 40
4.254388755817216
 40
4.527978205741797
 40
4.527978205741797
 40
4.632319406408221
 40
4.632319406408221
 40
4.632319406408221
 40
4.632319406408221
 10
3258.796731453607
 20
-4752.363611450872
 30
0.0
 10
3259.161823886007
 20
-4752.092917543268
 30
0.0
 10
3259.466376105257
 20
-4751.833634582694
 30
0.0
 10
3259.99645640352
 20
-4751.314256817224
 30
0.0
 10
3260.202590464068
 20
-4751.059423620046
 30
0.0
 10
3260.427669174607
 20
-4750.721228058114
 30
0.0
 10
3260.484638876854
 20
-4750.612632344527
 30
0.0
 10
3260.562645249032
 20
-4750.433693931859
 30
0.0
 10
3260.58104066004
 20
-4750.370131533986
 30
0.0
 10
3260.602958671292
 20
-4750.267675511691
 30
0.0
 10
3260.605717961706
 20
-4750.220579616654
 30
0.0
 10
3260.601823101198
 20
-4750.143221450561
 30
0.0
 10
3260.596957049242
 20
-4750.105895744729
 30
0.0
 10
3260.57363958989
 20
-4750.019008577985
 30
0.0
 10
3260.559909690132
 20
-4749.976540142545
 30
0.0
 10
3260.507755554523
 20
-4749.848825007346
 30
0.0
 10
3260.47024612987
 20
-4749.77143816192
 30
0.0
 10
3260.358829857495
 20
-4749.582164260046
 30
0.0
 10
3260.285451003721
 20
-4749.472293263734
 30
0.0
 10
3260.009161606988
 20
-4749.114284070027
 30
0.0
 10
3259.74876840902
 20
-4748.834755353662
 30
0.0
 10
3259.043569890768
 20
-4748.220846647297
 30
0.0
 10
3258.604506102749
 20
-4747.890187017236
 30
0.0
 10
3257.555267325765
 20
-4747.215449636108
 30
0.0
 10
3256.944828136431
 20
-4746.869786850655
 30
0.0
 10
3254.526547213206
 20
-4745.66460831777
 30
0.0
 10
3252.299890579068
 20
-4744.824452219901
 30
0.0
 10
3247.107371137448
 20
-4743.350827723884
 30
0.0
 10
3244.140542061705
 20
-4742.713121940442
 30
0.0
 10
3237.728125802907
 20
-4741.713880992569
 30
0.0
 10
3234.283253907157
 20
-4741.35027144971
 30
0.0
 10
3229.388260211287
 20
-4741.061777671133
 30
0.0
 10
3228.022619420698
 20
-4741.004601604906
 30
0.0
 10
3226.650811106971
 20
-4740.969953849149
 30
0.0
  0
SPLINE
  5
2E999
330
18
100
AcDbEntity
  8
姿図
100
AcDbSpline
210
0.0
220
0.0
230
1.0
 70
     8
 71
     3
 72
    26
 73
    22
 74
     0
 42
0.0000000001
 43
0.0000000001
 40
4.732508529947621
 40
4.732508529947621
 40
4.732508529947621
 40
4.732508529947621
 40
4.876782162743083
 40
4.876782162743083
 40
5.167354927147019
 40
5.167354927147019
 40
5.45792769155096
 40
5.45792769155096
 40
5.665320540210744
 40
5.665320540210744
 40
5.836365821431987
 40
5.836365821431987
 40
5.964914474929377
 40
5.964914474929377
 40
6.093463128426765
 40
6.093463128426765
 40
6.222011781924153
 40
6.222011781924153
 40
6.273158440482625
 40
6.273158440482625
 40
6.283185307179584
 40
6.283185307179584
 40
6.283185307179584
 40
6.283185307179584
 10
3222.689207492185
 20
-4740.932508977634
 30
0.0
 10
3220.786262070718
 20
-4740.944492925378
 30
0.0
 10
3218.886277810151
 20
-4740.999650177591
 30
0.0
 10
3213.23260645125
 20
-4741.296463807922
 30
0.0
 10
3209.554273009113
 20
-4741.669158316915
 30
0.0
 10
3202.732449317731
 20
-4742.724859574928
 30
0.0
 10
3199.590615039241
 20
-4743.407314146584
 30
0.0
 10
3194.933767939322
 20
-4744.768056639708
 30
0.0
 10
3193.209938856115
 20
-4745.38923986829
 30
0.0
 10
3190.562637035613
 20
-4746.568016934893
 30
0.0
 10
3189.546181019156
 20
-4747.119293676713
 30
0.0
 10
3188.146477930555
 20
-4748.042713511411
 30
0.0
 10
3187.665108385078
 20
-4748.429341637281
 30
0.0
 10
3186.943867378359
 20
-4749.12018030592
 30
0.0
 10
3186.713168533068
 20
-4749.418232642226
 30
0.0
 10
3186.436788235603
 20
-4749.873141432629
 30
0.0
 10
3186.39307497933
 20
-4750.019533041299
 30
0.0
 10
3186.370505823576
 20
-4750.136005487767
 30
0.0
 10
3186.36793245558
 20
-4750.159759760278
 30
0.0
 10
3186.366905349064
 20
-4750.19363763432
 30
0.0
 10
3186.366813571329
 20
-4750.198699384678
 30
0.0
 10
3186.366813571329
 20
-4750.205751493552
 30
0.0
  0
ELLIPSE
  5
2E99A
330
18
100
AcDbEntity
  8
姿図
100
AcDbEllipse
 10
3223.318688371081
 20
-4750.121740886051
 30
0.0
 11
0.0
 21
-35.75585310653186
 31
0.0
210
0.0
220
0.0
230
1.0
 40
0.9941864669745836
 41
4.719626491807218
 42
7.836514099397996
  0
SPLINE
  5
2E99B
330
18
100
AcDbEntity
  8
姿図
100
AcDbSpline
210
0.0
220
0.0
230
1.0
 70
     8
 71
     3
 72
     8
 73
     4
 74
     0
 42
0.0000000001
 43
0.0000000001
 40
0.2097007835722609
 40
0.2097007835722609
 40
0.2097007835722609
 40
0.2097007835722609
 40
0.2510836869134597
 40
0.2510836869134597
 40
0.2510836869134597
 40
0.2510836869134597
 10
3187.640969647387
 20
-4750.205830478421
 30
0.0
 10
3187.673710971561
 20
-4750.254431520885
 30
0.0
 10
3187.716809146988
 20
-4750.313099519029
 30
0.0
 10
3187.771634123039
 20
-4750.380522022093
 30
0.0
  0
SPLINE
  5
2E99C
330
18
100
AcDbEntity
  8
姿図
100
AcDbSpline
210
0.0
220
0.0
230
1.0
 70
     8
 71
     3
 72
    20
 73
    16
 74
     0
 42
0.0000000001
 43
0.0000000001
 40
3.351327104104421
 40
3.351327104104421
 40
3.351327104104421
 40
3.351327104104421
 40
3.462842996285111
 40
3.462842996285111
 40
3.574358888465799
 40
3.574358888465799
 40
3.736801532016718
 40
3.736801532016718
 40
3.959449063157832
 40
3.959449063157832
 40
4.182096594298946
 40
4.182096594298946
 40
4.518618569114176
 40
4.518618569114176
 40
4.631543533424835
 40
4.631543533424835
 40
4.631543533424835
 40
4.631543533424835
 10
3259.329522360707
 20
-4750.205218904993
 30
0.0
 10
3259.239692033681
 20
-4750.071820932521
 30
0.0
 10
3259.076814862551
 20
-4749.869400838796
 30
0.0
 10
3258.552927253367
 20
-4749.3717112814
 30
0.0
 10
3258.191442578548
 20
-4749.076834807482
 30
0.0
 10
3257.077597005738
 20
-4748.313317638137
 30
0.0
 10
3256.212067591857
 20
-4747.821232130767
 30
0.0
 10
3253.744120310322
 20
-4746.669939894692
 30
0.0
 10
3251.981416254131
 20
-4746.010779924048
 30
0.0
 10
3247.945620381944
 20
-4744.814183497076
 30
0.0
 10
3245.667196923256
 20
-4744.274692955545
 30
0.0
 10
3239.481955202058
 20
-4743.126751737629
 30
0.0
 10
3235.334466983103
 20
-4742.628227694278
 30
0.0
 10
3229.583864060267
 20
-4742.271462177241
 30
0.0
 10
3228.12107882622
 20
-4742.207862803867
 30
0.0
 10
3226.650823715877
 20
-4742.170379784127
 30
0.0
  0
SPLINE
  5
2E99D
330
18
100
AcDbEntity
  8
姿図
100
AcDbSpline
210
0.0
220
0.0
230
1.0
 70
     8
 71
     3
 72
    24
 73
    20
 74
     0
 42
0.0000000001
 43
0.0000000001
 40
4.732702678832413
 40
4.732702678832413
 40
4.732702678832413
 40
4.732702678832413
 40
4.855140543929405
 40
4.855140543929405
 40
5.132383725851283
 40
5.132383725851283
 40
5.397981570621475
 40
5.397981570621475
 40
5.663579415391664
 40
5.663579415391664
 40
5.805301648609042
 40
5.805301648609042
 40
5.906844270358043
 40
5.906844270358043
 40
5.988718245816558
 40
5.988718245816558
 40
6.070592221275076
 40
6.070592221275076
 40
6.073534209610157
 40
6.073534209610157
 40
6.073534209610157
 40
6.073534209610157
 10
3222.689157421307
 20
-4742.132575498794
 30
0.0
 10
3221.089635530149
 20
-4742.142734278789
 30
0.0
 10
3219.492345665848
 20
-4742.183676243366
 30
0.0
 10
3214.329019844226
 20
-4742.418134295725
 30
0.0
 10
3210.826445913648
 20
-4742.739477046916
 30
0.0
 10
3204.418920882273
 20
-4743.643959707376
 30
0.0
 10
3201.495093104608
 20
-4744.217495397278
 30
0.0
 10
3196.321456109057
 20
-4745.555155761735
 30
0.0
 10
3194.067658650897
 20
-4746.323950213244
 30
0.0
 10
3191.329687931783
 20
-4747.538474994752
 30
0.0
 10
3190.50216717912
 20
-4747.970974797508
 30
0.0
 10
3189.345596141707
 20
-4748.676051791272
 30
0.0
 10
3188.943908186886
 20
-4748.95907115099
 30
0.0
 10
3188.354215233033
 20
-4749.43167715608
 30
0.0
 10
3188.141845589183
 20
-4749.627037409488
 30
0.0
 10
3187.824605879305
 20
-4749.957716607614
 30
0.0
 10
3187.716088373286
 20
-4750.095954152968
 30
0.0
 10
3187.645695760036
 20
-4750.198847366491
 30
0.0
 10
3187.643306624964
 20
-4750.202365034904
 30
0.0
 10
3187.640969647387
 20
-4750.20583047842
 30
0.0
  0
SPLINE
  5
2E99E
330
18
100
AcDbEntity
  8
姿図
100
AcDbSpline
210
0.0
220
0.0
230
1.0
 70
     8
 71
     3
 72
    14
 73
    10
 74
     0
 42
0.0000000001
 43
0.0000000001
 40
0.0
 40
0.0
 40
0.0
 40
0.0
 40
0.0850825423317431
 40
0.0850825423317431
 40
0.1701650846634861
 40
0.1701650846634861
 40
0.2552476269952291
 40
0.2552476269952291
 40
0.3725508738152958
 40
0.3725508738152958
 40
0.3725508738152958
 40
0.3725508738152958
 10
3186.366813571329
 20
-4750.205751493552
 30
0.0
 10
3186.366813571329
 20
-4750.265591857393
 30
0.0
 10
3186.368901919676
 20
-4750.288511700396
 30
0.0
 10
3186.406963490475
 20
-4750.427612920388
 30
0.0
 10
3186.444708487846
 20
-4750.532188462408
 30
0.0
 10
3186.591704966902
 20
-4750.802670217846
 30
0.0
 10
3186.701513494243
 20
-4750.969851990545
 30
0.0
 10
3187.085943932834
 20
-4751.435048703259
 30
0.0
 10
3187.403518296923
 20
-4751.752772451681
 30
0.0
 10
3187.824824604206
 20
-4752.094046544274
 30
0.0
  0
ELLIPSE
  5
2E99F
330
18
100
AcDbEntity
  8
姿図
100
AcDbEllipse
 10
3223.518846458985
 20
-4721.186190888563
 30
0.0
 11
-39.90419578639974
 21
0.0
 31
0.0
210
0.0
220
0.0
230
1.0
 40
0.3162393162393342
 41
3.141592653589792
 42
6.283185307179584
  0
ELLIPSE
  5
2E9A0
330
18
100
AcDbEntity
  8
姿図
100
AcDbEllipse
 10
3223.485380700309
 20
-4750.205751493552
 30
0.0
 11
-40.71856712897933
 21
0.0
 31
0.0
210
0.0
220
0.0
230
1.0
 40
0.3162393162393341
 41
2.618134997042513
 42
6.57783654570895
  0
LINE
  5
2E9A1
330
18
100
AcDbEntity
  8
姿図
100
AcDbLine
 10
3188.968954301676
 20
-4743.374557565812
 30
0.0
 11
3189.81458712114
 21
-4714.430444577984
 31
0.0
  0
LINE
  5
2E9A2
330
18
100
AcDbEntity
  8
姿図
100
AcDbLine
 10
3186.526236642336
 20
-4744.801635356355
 30
0.0
 11
3187.372376158838
 21
-4715.840179266471
 31
0.0
  0
LINE
  5
2E9A3
330
18
100
AcDbEntity
  8
姿図
100
AcDbLine
 10
3185.298421469315
 20
-4745.736160390219
 30
0.0
 11
3186.144869511321
 21
-4716.764144164968
 31
0.0
  0
LINE
  5
2E9A4
330
18
100
AcDbEntity
  8
姿図
100
AcDbLine
 10
3184.061436653321
 20
-4746.984541717506
 30
0.0
 11
3184.908277267318
 21
-4717.999088634279
 31
0.0
  0
LINE
  5
2E9A5
330
18
100
AcDbEntity
  8
姿図
100
AcDbLine
 10
3182.766813571329
 20
-4750.205751493548
 30
0.0
 11
3183.614650672585
 21
-4721.186190888563
 31
0.0
  0
LINE
  5
2E9A6
330
18
100
AcDbEntity
  8
姿図
100
AcDbLine
 10
3191.402055154192
 20
-4742.276641483305
 30
0.0
 11
3192.247255518328
 21
-4713.347330470607
 31
0.0
  0
LINE
  5
2E9A8
330
18
100
AcDbEntity
  8
姿図
100
AcDbLine
 10
3259.236350496097
 20
-4744.042167976578
 30
0.0
 11
3258.457248576121
 21
-4715.089634084853
 31
0.0
  0
LINE
  5
2E9A9
330
18
100
AcDbEntity
  8
姿図
100
AcDbLine
 10
3261.683050549851
 20
-4745.74532259131
 30
0.0
 11
3260.903419093472
 21
-4716.773110374766
 31
0.0
  0
LINE
  5
2E9AA
330
18
100
AcDbEntity
  8
姿図
100
AcDbLine
 10
3262.917087972667
 20
-4746.994058710924
 30
0.0
 11
3262.137094862986
 21
-4718.008406944048
 31
0.0
  0
LINE
  5
2E9AB
330
18
100
AcDbEntity
  8
姿図
100
AcDbLine
 10
3264.203947829286
 20
-4750.205751493548
 30
0.0
 11
3263.417263091946
 21
-4720.971429338816
 31
0.0
  0
ARC
  5
2E9AC
330
18
100
AcDbEntity
  8
姿図
100
AcDbCircle
 10
3227.446020637267
 20
-4746.727074255441
 30
0.0
 40
30.76368190432983
100
AcDbArc
 50
177.7199488899111
 51
220.946347272829
  0
ARC
  5
2E9AD
330
18
100
AcDbEntity
  8
姿図
100
AcDbCircle
 10
3231.956374596173
 20
-4746.201017898844
 30
0.0
 40
36.96803731669277
100
AcDbArc
 50
186.4591937975239
 51
230.9369369997774
  0
ARC
  5
2E9AE
330
18
100
AcDbEntity
  8
姿図
100
AcDbCircle
 10
3224.067857417978
 20
-4753.946285458397
 30
0.0
 40
26.2444129180722
100
AcDbArc
 50
298.6123990733923
 51
2.914615195463625
  0
SPLINE
  5
2E9AF
330
18
100
AcDbEntity
  8
姿図
100
AcDbSpline
210
0.0
220
0.0
230
1.0
 70
     8
 71
     3
 72
    10
 73
     6
 74
     0
 42
0.0000000001
 43
0.0000000001
 40
2.827419403083657
 40
2.827419403083657
 40
2.827419403083657
 40
2.827419403083657
 40
2.869480933888198
 40
2.869480933888198
 40
2.930906669443938
 40
2.930906669443938
 40
2.930906669443938
 40
2.930906669443938
 10
3258.861250675039
 20
-4750.746275726237
 30
0.0
 10
3258.954631509273
 20
-4750.655248611825
 30
0.0
 10
3259.034837509585
 20
-4750.570451155882
 30
0.0
 10
3259.204174164601
 20
-4750.37805643227
 30
0.0
 10
3259.279472789171
 20
-4750.278881797187
 30
0.0
 10
3259.329522360707
 20
-4750.205218904995
 30
0.0
  0
LINE
  5
2E9B0
330
18
100
AcDbEntity
  8
姿図
100
AcDbLine
 10
3199.880527029279
 20
-4739.713406626656
 30
0.0
 11
3200.724432937473
 21
-4710.828401934791
 31
0.0
  0
LINE
  5
2E9B1
330
18
100
AcDbEntity
  8
姿図
100
AcDbLine
 10
3195.041132349001
 20
-4740.99169451525
 30
0.0
 11
3195.885752307484
 21
-4712.082249485018
 31
0.0
  0
LINE
  5
2E9B2
330
18
100
AcDbEntity
  8
姿図
100
AcDbLine
 10
3248.323725590284
 20
-4740.002152212482
 30
0.0
 11
3247.5462744966
 21
-4711.11096537052
 31
0.0
  0
LINE
  5
2E9B3
330
18
100
AcDbEntity
  8
姿図
100
AcDbLine
 10
3254.374703774883
 20
-4741.815859680585
 30
0.0
 11
3253.596406000406
 21
-4712.893208977746
 31
0.0
  0
TEXT
  5
2EA28
330
18
100
AcDbEntity
  8
文字
100
AcDbText
 10
3141.803424101258
 20
-4675.707486694782
 30
0.0
 40
9.599737700291976
  1
姿図
 72
     1
 11
3151.723153058226
 21
-4675.707486694782
 31
0.0
100
AcDbText
  0
ELLIPSE
  5
2EC4B
330
18
100
AcDbEntity
  8
姿図
100
AcDbEllipse
 10
3224.670498009969
 20
-4744.59379233602
 30
0.0
 11
-1.980290144381189
 21
0.0
 31
0.0
210
0.0
220
0.0
230
1.0
 40
0.3461483454428979
 41
0.0
 42
6.283185307179584
  0
ELLIPSE
  5
2EC4C
330
18
100
AcDbEntity
  8
姿図
100
AcDbEllipse
 10
3224.670498009969
 20
-4738.784756265347
 30
0.0
 11
-1.980290144381189
 21
0.0
 31
0.0
210
0.0
220
0.0
230
1.0
 40
0.3461483454428979
 41
3.141589017755944
 42
6.283188943013431
  0
ELLIPSE
  5
2EC4D
330
18
100
AcDbEntity
  8
姿図
100
AcDbEllipse
 10
3224.670498009969
 20
-4744.674961956973
 30
0.0
 11
1.837784011295298
 21
0.0
 31
0.0
210
0.0
220
0.0
230
1.0
 40
0.2371786109951774
 41
0.0
 42
6.283185307179584
  0
LINE
  5
2EC4E
330
18
100
AcDbEntity
  8
姿図
100
AcDbLine
 10
3222.690268825397
 20
-4744.588413848936
 30
0.0
 11
3222.6902078656
 21
-4738.784758757616
 31
0.0
  0
LINE
  5
2EC4F
330
18
100
AcDbEntity
  8
姿図
100
AcDbLine
 10
3226.650849114161
 20
-4744.588413848936
 30
0.0
 11
3226.650788154362
 21
-4738.784758757616
 31
0.0
  0
LINE
  5
2EC50
330
18
100
AcDbEntity
  8
姿図
100
AcDbLine
 10
3222.844504240774
 20
-4744.625667118821
 30
0.0
 11
3226.496491779165
 21
-4744.625667118821
 31
0.0
  0
LINE
  5
2EC51
330
18
100
AcDbEntity
  8
姿図
100
AcDbLine
 10
3222.844504240774
 20
-4744.798603244411
 30
0.0
 11
3226.496491779165
 21
-4744.798603244411
 31
0.0
  0
ELLIPSE
  5
2EC52
330
18
100
AcDbEntity
  8
姿図
100
AcDbEllipse
 10
3186.501923985085
 20
-4758.978215452263
 30
0.0
 11
-1.980290144381189
 21
0.0
 31
0.0
210
0.0
220
0.0
230
1.0
 40
0.3461483454428979
 41
0.0
 42
6.283185307179584
  0
ELLIPSE
  5
2EC53
330
18
100
AcDbEntity
  8
姿図
100
AcDbEllipse
 10
3186.501923985085
 20
-4753.169179381589
 30
0.0
 11
-1.980290144381189
 21
0.0
 31
0.0
210
0.0
220
0.0
230
1.0
 40
0.3461483454428979
 41
3.955898311845443
 42
6.283188943013431
  0
ELLIPSE
  5
2EC54
330
18
100
AcDbEntity
  8
姿図
100
AcDbEllipse
 10
3186.501923985085
 20
-4759.059385073213
 30
0.0
 11
1.837784011295298
 21
0.0
 31
0.0
210
0.0
220
0.0
230
1.0
 40
0.2371786109951774
 41
0.0
 42
6.283185307179584
  0
LINE
  5
2EC55
330
18
100
AcDbEntity
  8
姿図
100
AcDbLine
 10
3184.521694800512
 20
-4758.972836965177
 30
0.0
 11
3184.521633840716
 21
-4753.169181873859
 31
0.0
  0
LINE
  5
2EC56
330
18
100
AcDbEntity
  8
姿図
100
AcDbLine
 10
3188.482275089275
 20
-4758.972836965177
 30
0.0
 11
3188.482256888176
 21
-4757.240007972475
 31
0.0
  0
LINE
  5
2EC57
330
18
100
AcDbEntity
  8
姿図
100
AcDbLine
 10
3184.67593021589
 20
-4759.010090235062
 30
0.0
 11
3188.327917754281
 21
-4759.010090235062
 31
0.0
  0
LINE
  5
2EC58
330
18
100
AcDbEntity
  8
姿図
100
AcDbLine
 10
3184.67593021589
 20
-4759.183026360651
 30
0.0
 11
3188.327917754281
 21
-4759.183026360651
 31
0.0
  0
ELLIPSE
  5
2EC59
330
18
100
AcDbEntity
  8
姿図
100
AcDbEllipse
 10
3256.77126990942
 20
-4761.793036196933
 30
0.0
 11
-1.980290144381189
 21
0.0
 31
0.0
210
0.0
220
0.0
230
1.0
 40
0.3461483454428979
 41
1.523036450779593
 42
4.523395008955262
  0
ELLIPSE
  5
2EC5A
330
18
100
AcDbEntity
  8
姿図
100
AcDbEllipse
 10
3256.77126990942
 20
-4755.984000126258
 30
0.0
 11
-1.980290144381189
 21
0.0
 31
0.0
210
0.0
220
0.0
230
1.0
 40
0.3461483454428979
 41
3.141589017755944
 42
3.706120449458522
  0
ELLIPSE
  5
2EC5B
330
18
100
AcDbEntity
  8
姿図
100
AcDbEllipse
 10
3256.77126990942
 20
-4761.874205817885
 30
0.0
 11
1.837784011295298
 21
0.0
 31
0.0
210
0.0
220
0.0
230
1.0
 40
0.2371786109951774
 41
4.69409780729338
 42
7.70846198179726
  0
LINE
  5
2EC5C
330
18
100
AcDbEntity
  8
姿図
100
AcDbLine
 10
3258.751621013611
 20
-4761.787657709848
 30
0.0
 11
3258.751560053814
 21
-4755.984002618528
 31
0.0
  0
LINE
  5
2EC5D
330
18
100
AcDbEntity
  8
姿図
100
AcDbLine
 10
3256.908611405508
 20
-4761.824910979732
 30
0.0
 11
3258.597263678617
 21
-4761.824910979732
 31
0.0
  0
LINE
  5
2EC5E
330
18
100
AcDbEntity
  8
姿図
100
AcDbLine
 10
3256.84856303148
 20
-4761.997847105322
 30
0.0
 11
3258.597263678617
 21
-4761.997847105322
 31
0.0
  0
LINE
  5
2EE8E
330
18
100
AcDbEntity
  8
姿図
100
AcDbLine
 10
3208.661412458802
 20
-4767.546387456486
 30
0.0
 11
3208.658353151982
 21
-4768.304474489243
 31
0.0
  0
SPLINE
  5
2EE8F
330
18
100
AcDbEntity
  8
姿図
100
AcDbSpline
210
0.0
220
0.0
230
1.0
 70
     8
 71
     3
 72
    14
 73
    10
 74
     0
 42
0.0000000001
 43
0.0000000001
 40
0.0
 40
0.0
 40
0.0
 40
0.0
 40
0.0690795107770064
 40
0.2342972165616753
 40
0.4033234893886475
 40
0.577814038659787
 40
0.7579602420987796
 40
0.9440613777122134
 40
1.0
 40
1.0
 40
1.0
 40
1.0
 10
3215.629267789176
 20
-4758.070554901251
 30
0.0
 10
3215.486375065242
 20
-4758.234169008598
 30
0.0
 10
3215.001725317319
 20
-4758.789099544588
 30
0.0
 10
3214.203580966932
 20
-4759.779762749878
 30
0.0
 10
3213.243028698253
 20
-4761.068210738867
 30
0.0
 10
3212.306488676162
 20
-4762.435271717207
 30
0.0
 10
3211.397599117612
 20
-4763.886717134684
 30
0.0
 10
3210.718021202032
 20
-4765.039921974426
 30
0.0
 10
3210.361132589423
 20
-4765.719381707987
 30
0.0
 10
3210.278650862152
 20
-4765.876413931638
 30
0.0
  0
SPLINE
  5
2EE90
330
18
100
AcDbEntity
  8
姿図
100
AcDbSpline
210
0.0
220
0.0
230
1.0
 70
     8
 71
     3
 72
    13
 73
     9
 74
     0
 42
0.0000000001
 43
0.0000000001
 40
0.0
 40
0.0
 40
0.0
 40
0.0
 40
0.1640412813848
 40
0.3592103317088895
 40
0.5474575850208476
 40
0.7291994324618658
 40
0.9048010163892268
 40
1.0
 40
1.0
 40
1.0
 40
1.0
 10
3236.224963518999
 20
-4765.982614465684
 30
0.0
 10
3235.978847753842
 20
-4765.523590095887
 30
0.0
 10
3235.439914353084
 20
-4764.518438863556
 30
0.0
 10
3234.543528502265
 20
-4763.030196225309
 30
0.0
 10
3233.563728325531
 20
-4761.530372151391
 30
0.0
 10
3232.556219533047
 20
-4760.127916184077
 30
0.0
 10
3231.676910798125
 20
-4759.000010428867
 30
0.0
 10
3231.122219335877
 20
-4758.352099990516
 30
0.0
 10
3230.927219510345
 20
-4758.124329362995
 30
0.0
  0
LINE
  5
2EE91
330
18
100
AcDbEntity
  8
姿図
100
AcDbLine
 10
3237.724889210007
 20
-4767.98918864973
 30
0.0
 11
3237.725908981479
 21
-4767.736492344567
 31
0.0
  0
LINE
  5
2EE92
330
18
100
AcDbEntity
  8
姿図
100
AcDbLine
 10
3237.300253131026
 20
-4768.420060636103
 30
0.0
 11
3237.301892927018
 21
-4768.013724118879
 31
0.0
  0
LINE
  5
2EE93
330
18
100
AcDbEntity
  8
姿図
100
AcDbLine
 10
3237.754126900981
 20
-4767.803360837385
 30
0.0
 11
3237.75616643633
 21
-4767.297970109793
 31
0.0
  0
LINE
  5
2EE94
330
18
100
AcDbEntity
  8
姿図
100
AcDbLine
 10
3237.695474082165
 20
-4768.655816525962
 30
0.0
 11
3237.697513617511
 21
-4768.15042579837
 31
0.0
  0
LINE
  5
2EE95
330
18
100
AcDbEntity
  8
姿図
100
AcDbLine
 10
3237.657071888981
 20
-4768.974840528986
 30
0.0
 11
3237.658091660454
 21
-4768.722144223825
 31
0.0
  0
SPLINE
  5
2EE96
330
18
100
AcDbEntity
  8
姿図
100
AcDbSpline
210
0.0
220
0.0
230
1.0
 70
     8
 71
     3
 72
    16
 73
    12
 74
     0
 42
0.0000000001
 43
0.0000000001
 40
0.0
 40
0.0
 40
0.0
 40
0.0
 40
0.122112656806734
 40
0.2461458460760936
 40
0.3707886666963694
 40
0.4961036367826929
 40
0.6218188778107167
 40
0.7461909946403808
 40
0.8537272607133772
 40
0.967849021753293
 40
1.0
 40
1.0
 40
1.0
 40
1.0
 10
3234.474955855854
 20
-4762.945069536751
 30
0.0
 10
3234.652216214995
 20
-4762.874397591644
 30
0.0
 10
3235.009524803783
 20
-4762.731942205149
 30
0.0
 10
3235.471411916257
 20
-4762.502770716598
 30
0.0
 10
3235.878497392564
 20
-4762.260932846578
 30
0.0
 10
3236.221328384761
 20
-4762.005268170859
 30
0.0
 10
3236.497104784009
 20
-4761.735256198879
 30
0.0
 10
3236.695314076
 20
-4761.460691451904
 30
0.0
 10
3236.816214140322
 20
-4761.177437257113
 30
0.0
 10
3236.868389692701
 20
-4760.958648418315
 30
0.0
 10
3236.855527360619
 20
-4760.832495228852
 30
0.0
 10
3236.85270019979
 20
-4760.804766559313
 30
0.0
  0
SPLINE
  5
2EE97
330
18
100
AcDbEntity
  8
姿図
100
AcDbSpline
210
0.0
220
0.0
230
1.0
 70
     8
 71
     3
 72
    17
 73
    13
 74
     0
 42
0.0000000001
 43
0.0000000001
 40
0.0
 40
0.0
 40
0.0
 40
0.0
 40
0.0377292167738814
 40
0.1477584733959747
 40
0.2588184602866236
 40
0.3744580591281231
 40
0.495820054388638
 40
0.6211154352967647
 40
0.7477982199101909
 40
0.8741930087083796
 40
0.9999860367858719
 40
1.0
 40
1.0
 40
1.0
 40
1.0
 10
3209.685122082384
 20
-4760.727229732824
 30
0.0
 10
3209.684652574657
 20
-4760.759517364227
 30
0.0
 10
3209.682813847245
 20
-4760.885965022917
 30
0.0
 10
3209.733976969861
 20
-4761.10534031082
 30
0.0
 10
3209.858021032321
 20
-4761.377073551551
 30
0.0
 10
3210.05083496725
 20
-4761.641410017722
 30
0.0
 10
3210.312704598687
 20
-4761.901066002272
 30
0.0
 10
3210.647173650524
 20
-4762.154970151144
 30
0.0
 10
3211.048446108286
 20
-4762.401117902427
 30
0.0
 10
3211.522622530076
 20
-4762.633714280988
 30
0.0
 10
3211.85805766576
 20
-4762.787899790402
 30
0.0
 10
3212.055156898089
 20
-4762.856622306331
 30
0.0
 10
3212.055178773969
 20
-4762.856629933788
 30
0.0
  0
LINE
  5
2EE98
330
18
100
AcDbEntity
  8
姿図
100
AcDbLine
 10
3236.860450043427
 20
-4760.837288229065
 30
0.0
 11
3236.909398976298
 21
-4748.707889821473
 31
0.0
  0
LINE
  5
2EE99
330
18
100
AcDbEntity
  8
姿図
100
AcDbLine
 10
3209.730953967863
 20
-4748.598209541007
 30
0.0
 11
3209.682005034994
 21
-4760.727607948598
 31
0.0
  0
SPLINE
  5
2EE9A
330
18
100
AcDbEntity
  8
姿図
100
AcDbSpline
210
0.0
220
0.0
230
1.0
 70
     8
 71
     3
 72
    18
 73
    14
 74
     0
 42
0.0000000001
 43
0.0000000001
 40
0.0
 40
0.0
 40
0.0
 40
0.0
 40
0.0164711739437583
 40
0.123361497447167
 40
0.2299107532119999
 40
0.3360197684380521
 40
0.4415778828865606
 40
0.5465002625244951
 40
0.6508452097824346
 40
0.7550436583201026
 40
0.8601282592648571
 40
0.9693265425026496
 40
1.0
 40
1.0
 40
1.0
 40
1.0
 10
3233.319411222699
 20
-4758.968346823697
 30
0.0
 10
3233.3509529833
 20
-4758.977767386041
 30
0.0
 10
3233.58718622529
 20
-4759.048323053862
 30
0.0
 10
3233.9745686116
 20
-4759.189658937309
 30
0.0
 10
3234.473214158271
 20
-4759.390884540837
 30
0.0
 10
3234.902825614419
 20
-4759.598904837904
 30
0.0
 10
3235.267258140911
 20
-4759.809983210206
 30
0.0
 10
3235.562964316291
 20
-4760.02136726867
 30
0.0
 10
3235.789263618235
 20
-4760.229208515825
 30
0.0
 10
3235.948475937985
 20
-4760.429024047595
 30
0.0
 10
3236.039550913266
 20
-4760.617783415555
 30
0.0
 10
3236.077279542752
 20
-4760.749573082128
 30
0.0
 10
3236.067965900045
 20
-4760.824381180524
 30
0.0
 10
3236.06592344585
 20
-4760.840786374415
 30
0.0
  0
SPLINE
  5
2EE9B
330
18
100
AcDbEntity
  8
姿図
100
AcDbSpline
210
0.0
220
0.0
230
1.0
 70
     8
 71
     3
 72
    17
 73
    13
 74
     0
 42
0.0000000001
 43
0.0000000001
 40
0.0
 40
0.0
 40
0.0
 40
0.0
 40
0.0578733927975594
 40
0.1679961238431626
 40
0.2721193652036845
 40
0.3824801834252102
 40
0.4905431168370171
 40
0.5983529233202562
 40
0.7065379427289953
 40
0.8153350367822936
 40
0.9247131904843966
 40
1.0
 40
1.0
 40
1.0
 40
1.0
 10
3210.471907304477
 20
-4760.692716322977
 30
0.0
 10
3210.475323251105
 20
-4760.662816906775
 30
0.0
 10
3210.485239134116
 20
-4760.576024241187
 30
0.0
 10
3210.540261966887
 20
-4760.427616678525
 30
0.0
 10
3210.664394539263
 20
-4760.23510766904
 30
0.0
 10
3210.855256275458
 20
-4760.03290940805
 30
0.0
 10
3211.118064496122
 20
-4759.823526486624
 30
0.0
 10
3211.446436854231
 20
-4759.615565027798
 30
0.0
 10
3211.839752256694
 20
-4759.41043466122
 30
0.0
 10
3212.29944056045
 20
-4759.210628975902
 30
0.0
 10
3212.759499718805
 20
-4759.036754284715
 30
0.0
 10
3213.08961474737
 20
-4758.934433850688
 30
0.0
 10
3213.224200685279
 20
-4758.892718417005
 30
0.0
  0
LINE
  5
2EE9C
330
18
100
AcDbEntity
  8
姿図
100
AcDbLine
 10
3227.378559346334
 20
-4745.179034817594
 30
0.0
 11
3227.399866257353
 21
-4744.214437056945
 31
0.0
  0
SPLINE
  5
2EE9D
330
18
100
AcDbEntity
  8
姿図
100
AcDbSpline
210
0.0
220
0.0
230
1.0
 70
     8
 71
     3
 72
    22
 73
    18
 74
     0
 42
0.0000000001
 43
0.0000000001
 40
0.0
 40
0.0
 40
0.0
 40
0.0
 40
0.0638825242916621
 40
0.1343284628412071
 40
0.2048435113792753
 40
0.2754479047598135
 40
0.3461686108113721
 40
0.4170415416080405
 40
0.4881142924918517
 40
0.5594480330066886
 40
0.6311133591439987
 40
0.7031638599208844
 40
0.775540062633522
 40
0.8475289141614471
 40
0.9104164206332196
 40
0.9771891092476355
 40
0.9999999999999998
 40
0.9999999999999998
 40
0.9999999999999998
 40
0.9999999999999998
 10
3216.52420143077
 20
-4745.441178205601
 30
0.0
 10
3216.271000974681
 20
-4745.479527961118
 30
0.0
 10
3215.738585757307
 20
-4745.560167600304
 30
0.0
 10
3214.974427589583
 20
-4745.702244797025
 30
0.0
 10
3214.22570172381
 20
-4745.86224392991
 30
0.0
 10
3213.524477769635
 20
-4746.036804356949
 30
0.0
 10
3212.873047818875
 20
-4746.22480215762
 30
0.0
 10
3212.274770579973
 20
-4746.425786654977
 30
0.0
 10
3211.732286279743
 20
-4746.639274396613
 30
0.0
 10
3211.247983075234
 20
-4746.865070755169
 30
0.0
 10
3210.824019339211
 20
-4747.103371430787
 30
0.0
 10
3210.462398529169
 20
-4747.354947966195
 30
0.0
 10
3210.166866454114
 20
-4747.620762778061
 30
0.0
 10
3209.947892490963
 20
-4747.891646686609
 30
0.0
 10
3209.804470378891
 20
-4748.173063458177
 30
0.0
 10
3209.734292930349
 20
-4748.398152792495
 30
0.0
 10
3209.738762342008
 20
-4748.532771269888
 30
0.0
 10
3209.73990039947
 20
-4748.567049509301
 30
0.0
  0
SPLINE
  5
2EE9E
330
18
100
AcDbEntity
  8
姿図
100
AcDbSpline
210
0.0
220
0.0
230
1.0
 70
     8
 71
     3
 72
    23
 73
    19
 74
     0
 42
0.0000000001
 43
0.0000000001
 40
0.0
 40
0.0
 40
0.0
 40
0.0
 40
0.0180732399813233
 40
0.0807551503184571
 40
0.1434174532814159
 40
0.2081566926676284
 40
0.2761546428750472
 40
0.3467908024047606
 40
0.4185931882401814
 40
0.4904237098456256
 40
0.5619283845760279
 40
0.6331008401544448
 40
0.7039990259472565
 40
0.7746847192370855
 40
0.8452088506236222
 40
0.9156104790199631
 40
0.9859188505721256
 40
0.9999999999999998
 40
0.9999999999999998
 40
0.9999999999999998
 40
0.9999999999999998
 10
3236.89953039232
 20
-4748.775047964564
 30
0.0
 10
3236.903497246585
 20
-4748.748008699645
 30
0.0
 10
3236.921222010536
 20
-4748.627191408149
 30
0.0
 10
3236.879569444159
 20
-4748.410364606796
 30
0.0
 10
3236.776982448784
 20
-4748.13597842064
 30
0.0
 10
3236.602918101598
 20
-4747.869807540179
 30
0.0
 10
3236.361660957932
 20
-4747.608912833785
 30
0.0
 10
3236.048270575326
 20
-4747.352993535196
 30
0.0
 10
3235.664707604934
 20
-4747.10469426678
 30
0.0
 10
3235.21540300766
 20
-4746.866675884097
 30
0.0
 10
3234.705138827898
 20
-4746.640386928297
 30
0.0
 10
3234.137345978095
 20
-4746.42636171248
 30
0.0
 10
3233.515014575947
 20
-4746.224930679573
 30
0.0
 10
3232.840833055124
 20
-4746.036683115351
 30
0.0
 10
3232.119097383872
 20
-4745.86171493433
 30
0.0
 10
3231.349268890575
 20
-4745.702378227467
 30
0.0
 10
3230.762883811675
 20
-4745.592644678063
 30
0.0
 10
3230.423460308451
 20
-4745.541080186079
 30
0.0
 10
3230.366824448775
 20
-4745.532476187521
 30
0.0
  0
SPLINE
  5
2EE9F
330
18
100
AcDbEntity
  8
姿図
100
AcDbSpline
210
0.0
220
0.0
230
1.0
 70
     8
 71
     3
 72
     9
 73
     5
 74
     0
 42
0.0000000001
 43
0.0000000001
 40
0.0
 40
0.0
 40
0.0
 40
0.0
 40
0.2952318283302154
 40
1.0
 40
1.0
 40
1.0
 40
1.0
 10
3214.113807196098
 20
-4743.943815351461
 30
0.0
 10
3214.072942222329
 20
-4743.968939629563
 30
0.0
 10
3213.934525663387
 20
-4744.054039797258
 30
0.0
 10
3213.837664687162
 20
-4744.145464420012
 30
0.0
 10
3213.769400154036
 20
-4744.209897584235
 30
0.0
  0
SPLINE
  5
2EEA0
330
18
100
AcDbEntity
  8
姿図
100
AcDbSpline
210
0.0
220
0.0
230
1.0
 70
     8
 71
     3
 72
    10
 73
     6
 74
     0
 42
0.0000000001
 43
0.0000000001
 40
0.0
 40
0.0
 40
0.0
 40
0.0
 40
0.2892302763455943
 40
0.8382862979562442
 40
1.0
 40
1.0
 40
1.0
 40
1.0
 10
3233.063867966678
 20
-4744.45890273899
 30
0.0
 10
3233.031316811024
 20
-4744.419431302815
 30
0.0
 10
3232.93697264999
 20
-4744.305029848987
 30
0.0
 10
3232.797427051473
 20
-4744.172872826153
 30
0.0
 10
3232.662117189947
 20
-4744.084067579566
 30
0.0
 10
3232.631331609327
 20
-4744.063862688011
 30
0.0
  0
LINE
  5
2EEA1
330
18
100
AcDbEntity
  8
姿図
100
AcDbLine
 10
3211.10549321199
 20
-4745.102439648095
 30
0.0
 11
3211.098008079726
 21
-4746.957232920226
 31
0.0
  0
LINE
  5
2EEA2
330
18
100
AcDbEntity
  8
姿図
100
AcDbLine
 10
3235.55563972625
 20
-4747.054439654608
 30
0.0
 11
3235.562734707082
 21
-4745.296324734207
 31
0.0
  0
SPLINE
  5
2EEA3
330
18
100
AcDbEntity
  8
姿図
100
AcDbSpline
210
0.0
220
0.0
230
1.0
 70
     8
 71
     3
 72
    14
 73
    10
 74
     0
 42
0.0000000001
 43
0.0000000001
 40
0.0
 40
0.0
 40
0.0
 40
0.0
 40
0.0119789066826493
 40
0.1951539053522686
 40
0.3785732326782268
 40
0.5683895051008534
 40
0.7677657888414268
 40
0.9746425862384427
 40
1.0
 40
1.0
 40
1.0
 40
1.0
 10
3209.744413840559
 20
-4745.830022645191
 30
0.0
 10
3209.743714292408
 20
-4745.836161393616
 30
0.0
 10
3209.732317630159
 20
-4745.936170581526
 30
0.0
 10
3209.777719299343
 20
-4746.131620822028
 30
0.0
 10
3209.882240747673
 20
-4746.405368194761
 30
0.0
 10
3210.05937916104
 20
-4746.671401224599
 30
0.0
 10
3210.309199112012
 20
-4746.931164330096
 30
0.0
 10
3210.518299352956
 20
-4747.112581332046
 30
0.0
 10
3210.662875940272
 20
-4747.204215338917
 30
0.0
 10
3210.678662108584
 20
-4747.214220761526
 30
0.0
  0
SPLINE
  5
2EEA4
330
18
100
AcDbEntity
  8
姿図
100
AcDbSpline
210
0.0
220
0.0
230
1.0
 70
     8
 71
     3
 72
    13
 73
     9
 74
     0
 42
0.0000000001
 43
0.0000000001
 40
0.0
 40
0.0
 40
0.0
 40
0.0
 40
0.1363523235364677
 40
0.3476758316408973
 40
0.5575692492779487
 40
0.740357578823009
 40
0.934420237424762
 40
1.0
 40
1.0
 40
1.0
 40
1.0
 10
3235.972481281894
 20
-4747.313001882091
 30
0.0
 10
3236.051874470508
 20
-4747.258836933769
 30
0.0
 10
3236.254313946141
 20
-4747.120725290606
 30
0.0
 10
3236.503537802622
 20
-4746.883689291442
 30
0.0
 10
3236.718858280619
 20
-4746.612196356609
 30
0.0
 10
3236.855730760487
 20
-4746.330146233189
 30
0.0
 10
3236.921089641626
 20
-4746.105493680861
 30
0.0
 10
3236.914023254504
 20
-4745.971911244857
 30
0.0
 10
3236.912238446044
 20
-4745.938171363688
 30
0.0
  0
LINE
  5
2EEA5
330
18
100
AcDbEntity
  8
姿図
100
AcDbLine
 10
3236.920616439231
 20
-4745.928236230561
 30
0.0
 11
3236.932905443062
 21
-4742.883058026349
 31
0.0
  0
LINE
  5
2EEA6
330
18
100
AcDbEntity
  8
姿図
100
AcDbLine
 10
3209.753884214193
 20
-4742.916163437569
 30
0.0
 11
3209.742171430797
 21
-4745.818555950092
 31
0.0
  0
SPLINE
  5
2EEA7
330
18
100
AcDbEntity
  8
姿図
100
AcDbSpline
210
0.0
220
0.0
230
1.0
 70
     8
 71
     3
 72
    15
 73
    11
 74
     0
 42
0.0000000001
 43
0.0000000001
 40
0.0
 40
0.0
 40
0.0
 40
0.0
 40
0.1309760114738665
 40
0.2661160855491862
 40
0.4006357817764965
 40
0.5344017302583567
 40
0.667364415083399
 40
0.7997946278103525
 40
0.9324424155662484
 40
1.0
 40
1.0
 40
1.0
 40
1.0
 10
3233.836343655183
 20
-4744.174365247958
 30
0.0
 10
3234.010304524292
 20
-4744.237773111038
 30
0.0
 10
3234.363756923747
 20
-4744.366604735442
 30
0.0
 10
3234.820931476387
 20
-4744.570583557893
 30
0.0
 10
3235.222739121006
 20
-4744.780943371512
 30
0.0
 10
3235.555609387164
 20
-4744.99341195154
 30
0.0
 10
3235.820653616289
 20
-4745.20463771356
 30
0.0
 10
3236.013586708091
 20
-4745.409596561187
 30
0.0
 10
3236.12784010503
 20
-4745.574149789135
 30
0.0
 10
3236.157417253515
 20
-4745.663184722801
 30
0.0
 10
3236.167397808401
 20
-4745.693228796958
 30
0.0
  0
SPLINE
  5
2EEA8
330
18
100
AcDbEntity
  8
姿図
100
AcDbSpline
210
0.0
220
0.0
230
1.0
 70
     8
 71
     3
 72
    16
 73
    12
 74
     0
 42
0.0000000001
 43
0.0000000001
 40
0.0
 40
0.0
 40
0.0
 40
0.0
 40
0.0401589896098848
 40
0.1604504645698718
 40
0.2882900806966032
 40
0.411467501327526
 40
0.5336878717614896
 40
0.6560778961985813
 40
0.7791009891116155
 40
0.9028086272468479
 40
1.0
 40
1.0
 40
1.0
 40
1.0
 10
3210.476298163996
 20
-4745.649456406993
 30
0.0
 10
3210.479991277782
 20
-4745.630752200267
 30
0.0
 10
3210.494746674488
 20
-4745.556021767852
 30
0.0
 10
3210.579435403282
 20
-4745.407797240864
 30
0.0
 10
3210.740674531385
 20
-4745.206176079658
 30
0.0
 10
3210.978556031668
 20
-4744.995149862405
 30
0.0
 10
3211.28023522246
 20
-4744.785677903546
 30
0.0
 10
3211.647366790868
 20
-4744.578280871268
 30
0.0
 10
3212.081056680006
 20
-4744.375322274517
 30
0.0
 10
3212.53569657387
 20
-4744.191763646102
 30
0.0
 10
3212.871416498304
 20
-4744.080840234021
 30
0.0
 10
3213.01912689404
 20
-4744.032036037717
 30
0.0
  0
ARC
  5
2EEA9
330
18
100
AcDbEntity
  8
姿図
100
AcDbCircle
 10
3213.65537275431
 20
-4744.499002177401
 30
0.0
 40
0.104533333333354
100
AcDbArc
 50
310.5743099038715
 51
358.1285074143648
  0
LINE
  5
2EEAA
330
18
100
AcDbEntity
  8
姿図
100
AcDbLine
 10
3213.759838537195
 20
-4744.502577423864
 30
0.0
 11
3213.773250705175
 21
-4744.092048407231
 31
0.0
  0
SPLINE
  5
2EEAB
330
18
100
AcDbEntity
  8
姿図
100
AcDbSpline
210
0.0
220
0.0
230
1.0
 70
     8
 71
     3
 72
     9
 73
     5
 74
     0
 42
0.0000000001
 43
0.0000000001
 40
0.0
 40
0.0
 40
0.0
 40
0.0
 40
0.733512304030625
 40
1.0
 40
1.0
 40
1.0
 40
1.0
 10
3213.577913114793
 20
-4744.718227745496
 30
0.0
 10
3213.610696289365
 20
-4744.684064877485
 30
0.0
 10
3213.655389710856
 20
-4744.637490514896
 30
0.0
 10
3213.709061465139
 20
-4744.590834942848
 30
0.0
 10
3213.723364327278
 20
-4744.578401806949
 30
0.0
  0
ARC
  5
2EEAC
330
18
100
AcDbEntity
  8
姿図
100
AcDbCircle
 10
3233.157068637471
 20
-4744.711150382737
 30
0.0
 40
0.1045333333333625
100
AcDbArc
 50
180.9394625748169
 51
222.776980020406
  0
LINE
  5
2EEAD
330
18
100
AcDbEntity
  8
姿図
100
AcDbLine
 10
3233.045863260891
 20
-4744.30570703767
 30
0.0
 11
3233.05253865158
 21
-4744.712863841052
 31
0.0
  0
LINE
  5
2EEAE
330
18
100
AcDbEntity
  8
姿図
100
AcDbLine
 10
3233.08034105872
 20
-4744.782143808039
 30
0.0
 11
3233.157908323542
 21
-4744.873949217176
 31
0.0
  0
ARC
  5
2EEAF
330
18
100
AcDbEntity
  8
姿図
100
AcDbCircle
 10
3213.500751218497
 20
-4744.64770662541
 30
0.0
 40
0.1045333333333315
100
AcDbArc
 50
279.7504599477544
 51
317.5747092655013
  0
ARC
  5
2EEB0
330
18
100
AcDbEntity
  8
姿図
100
AcDbCircle
 10
3233.240944298346
 20
-4744.810449823567
 30
0.0
 40
0.1045333333333451
100
AcDbArc
 50
217.4057831665615
 51
259.0816596655425
  0
SPLINE
  5
2EEB1
330
18
100
AcDbEntity
  8
姿図
100
AcDbSpline
210
0.0
220
0.0
230
1.0
 70
     8
 71
     3
 72
    15
 73
    11
 74
     0
 42
0.0000000001
 43
0.0000000001
 40
0.0
 40
0.0
 40
0.0
 40
0.0
 40
0.1088218023562931
 40
0.2405426597611201
 40
0.3678430552519043
 40
0.5025339138667159
 40
0.6421279979325469
 40
0.7841708162689455
 40
0.9273600694710664
 40
1.0
 40
1.0
 40
1.0
 40
1.0
 10
3211.020771970126
 20
-4745.170226652059
 30
0.0
 10
3211.021089261132
 20
-4745.167541978818
 30
0.0
 10
3211.021790609764
 20
-4745.161607704363
 30
0.0
 10
3211.091216797938
 20
-4745.103713107998
 30
0.0
 10
3211.228720671064
 20
-4745.045151732357
 30
0.0
 10
3211.423509488443
 20
-4744.989984154336
 30
0.0
 10
3211.672048160408
 20
-4744.944619227413
 30
0.0
 10
3211.961190555586
 20
-4744.913162575584
 30
0.0
 10
3212.223286177549
 20
-4744.89998638632
 30
0.0
 10
3212.383375840436
 20
-4744.89995111143
 30
0.0
 10
3212.437255958918
 20
-4744.899939239238
 30
0.0
  0
LINE
  5
2EEB2
330
18
100
AcDbEntity
  8
姿図
100
AcDbLine
 10
3212.437255958918
 20
-4744.899939239238
 30
0.0
 11
3212.879111630354
 21
-4744.90358201035
 31
0.0
  0
ARC
  5
2EEB3
330
18
100
AcDbEntity
  8
姿図
100
AcDbCircle
 10
3212.879973490699
 20
-4744.799052205801
 30
0.0
 40
0.1045333333333519
100
AcDbArc
 50
269.5276496484657
 51
288.9853639298777
  0
ARC
  5
2EEB4
330
18
100
AcDbEntity
  8
姿図
100
AcDbCircle
 10
3233.840203444635
 20
-4744.97185369984
 30
0.0
 40
0.1045333333333236
100
AcDbArc
 50
249.2699566267887
 51
269.5276496484657
  0
LINE
  5
2EEB5
330
18
100
AcDbEntity
  8
姿図
100
AcDbLine
 10
3233.839341762495
 20
-4745.07638350586
 30
0.0
 11
3234.281197433936
 21
-4745.080026276968
 31
0.0
  0
SPLINE
  5
2EEB6
330
18
100
AcDbEntity
  8
姿図
100
AcDbSpline
210
0.0
220
0.0
230
1.0
 70
     8
 71
     3
 72
    15
 73
    11
 74
     0
 42
0.0000000001
 43
0.0000000001
 40
0.0
 40
0.0
 40
0.0
 40
0.0
 40
0.0767828436865086
 40
0.2234902941288282
 40
0.3700269261199712
 40
0.5156618768779877
 40
0.6594635978269699
 40
0.7995536445816543
 40
0.932941748872029
 40
1.0
 40
1.0
 40
1.0
 40
1.0
 10
3234.281197433936
 20
-4745.080026276968
 30
0.0
 10
3234.336844296193
 20
-4745.080971801774
 30
0.0
 10
3234.498814510057
 20
-4745.083723921988
 30
0.0
 10
3234.761446939541
 20
-4745.101680311962
 30
0.0
 10
3235.048017294147
 20
-4745.138607850434
 30
0.0
 10
3235.293825763527
 20
-4745.189676425288
 30
0.0
 10
3235.48457401613
 20
-4745.251125019005
 30
0.0
 10
3235.608286555581
 20
-4745.313565050217
 30
0.0
 10
3235.64854921173
 20
-4745.361452473944
 30
0.0
 10
3235.647264645657
 20
-4745.360205849523
 30
0.0
 10
3235.646834900979
 20
-4745.359788798022
 30
0.0
  0
SPLINE
  5
2EEB7
330
18
100
AcDbEntity
  8
姿図
100
AcDbSpline
210
0.0
220
0.0
230
1.0
 70
     8
 71
     3
 72
    11
 73
     7
 74
     0
 42
0.0000000001
 43
0.0000000001
 40
0.0
 40
0.0
 40
0.0
 40
0.0
 40
0.1268360653517458
 40
0.5085618913312472
 40
0.9550746010390362
 40
1.0
 40
1.0
 40
1.0
 40
1.0
 10
3210.718808129171
 20
-4745.516968730065
 30
0.0
 10
3210.718204166293
 20
-4745.517646347905
 30
0.0
 10
3210.715782516716
 20
-4745.520363324417
 30
0.0
 10
3210.733617401916
 20
-4745.5055523722
 30
0.0
 10
3210.778500492839
 20
-4745.502773404949
 30
0.0
 10
3210.791362748401
 20
-4745.512558662659
 30
0.0
 10
3210.792538566785
 20
-4745.513453193628
 30
0.0
  0
SPLINE
  5
2EEB8
330
18
100
AcDbEntity
  8
姿図
100
AcDbSpline
210
0.0
220
0.0
230
1.0
 70
     8
 71
     3
 72
    10
 73
     6
 74
     0
 42
0.0000000001
 43
0.0000000001
 40
0.0
 40
0.0
 40
0.0
 40
0.0
 40
0.0189253556208478
 40
0.6904618680691082
 40
1.0
 40
1.0
 40
1.0
 40
1.0
 10
3235.841545878289
 20
-4745.718157416558
 30
0.0
 10
3235.841868084109
 20
-4745.71790347446
 30
0.0
 10
3235.853623257268
 20
-4745.708638795983
 30
0.0
 10
3235.901774561727
 20
-4745.719107565391
 30
0.0
 10
3235.900420182593
 20
-4745.719864436233
 30
0.0
 10
3235.899992863436
 20
-4745.720103235987
 30
0.0
  0
ARC
  5
2EEB9
330
18
100
AcDbEntity
  8
姿図
100
AcDbCircle
 10
3236.472222992941
 20
-4768.0144433127
 30
0.0
 40
1.382009207755389
100
AcDbArc
 50
329.0046461843577
 51
332.1843415202794
  0
LWPOLYLINE
  5
2EEBA
330
18
100
AcDbEntity
  8
姿図
100
AcDbPolyline
 90
       43
 70
   128
 43
0.0
 10
3237.755661687997
 20
-4767.295326713273
 10
3237.610695430677
 20
-4767.022975232667
 10
3237.387514257011
 20
-4766.753793570416
 10
3237.087334103591
 20
-4766.489247139289
 10
3236.711789481179
 20
-4766.230776224502
 10
3236.262924297782
 20
-4765.979787809281
 10
3235.743182615562
 20
-4765.737648361823
 10
3235.15539359732
 20
-4765.505676139922
 10
3234.502756427347
 20
-4765.285133867769
 10
3233.788826145953
 20
-4765.077222289085
 10
3233.017486864095
 20
-4764.883073119754
 10
3232.192939484904
 20
-4764.70374348536
 10
3231.319672442197
 20
-4764.540209474009
 10
3230.402439602801
 20
-4764.393361734081
 10
3229.446234394831
 20
-4764.263999303255
 10
3228.456262740664
 20
-4764.152826654719
 10
3227.437913693033
 20
-4764.060448738574
 10
3226.396731343375
 20
-4763.987368764339
 10
3225.338383773794
 20
-4763.933984717879
 10
3224.268632687734
 20
-4763.900586628665
 10
3223.193301832109
 20
-4763.887356805908
 10
3222.118245302958
 20
-4763.894367343119
 10
3221.049315744988
 20
-4763.921579607703
 10
3219.99233253621
 20
-4763.96884571632
 10
3218.953049375395
 20
-4764.035908515935
 10
3217.9371249039
 20
-4764.12240258277
 10
3216.950089371574
 20
-4764.227857422843
 10
3215.997316062818
 20
-4764.351698725824
 10
3215.083992308591
 20
-4764.49325209785
 10
3214.215089977582
 20
-4764.651747286537
 10
3213.395339459586
 20
-4764.826321193585
 10
3212.629203461086
 20
-4765.016023616449
 10
3211.920852363386
 20
-4765.219821513476
 10
3211.274143303518
 20
-4765.436605782108
 10
3210.692596463073
 20
-4765.665196152263
 10
3210.179378042667
 20
-4765.904347996651
 10
3209.737281264067
 20
-4766.152759497178
 10
3209.368714220102
 20
-4766.409078371306
 10
3209.075682827846
 20
-4766.671908992472
 10
3208.85978148773
 20
-4766.939820753196
 10
3208.722186763142
 20
-4767.211354994644
 10
3208.663647055513
 20
-4767.485033516762
 10
3208.661412458802
 20
-4767.546387456486
  0
LINE
  5
2EEBB
330
18
100
AcDbEntity
  8
姿図
100
AcDbLine
 10
3237.753622152649
 20
-4767.800717440864
 30
0.0
 11
3237.755661687997
 21
-4767.295326713273
 31
0.0
  0
ARC
  5
2EEBC
330
18
100
AcDbEntity
  8
姿図
100
AcDbCircle
 10
3236.636881707164
 20
-4768.232294771133
 30
0.0
 40
1.19723356726433
100
AcDbArc
 50
21.12960422172358
 51
24.62859987908626
  0
LINE
  5
2EEBD
330
18
100
AcDbEntity
  8
姿図
100
AcDbLine
 10
3237.724181015357
 20
-4767.986062428668
 30
0.0
 11
3237.72520078683
 21
-4767.733366123507
 31
0.0
  0
LWPOLYLINE
  5
2EEBE
330
18
100
AcDbEntity
  8
姿図
100
AcDbPolyline
 90
       83
 70
   128
 43
0.0
 10
3237.724181015357
 20
-4767.986062428668
 10
3237.561066135026
 20
-4767.715979691677
 10
3237.320924493699
 20
-4767.449378891326
 10
3237.005049187093
 20
-4767.187693960727
 10
3236.615137363278
 20
-4766.9323324376
 10
3236.153287814629
 20
-4766.68466799729
 10
3235.621983016935
 20
-4766.446032547238
 10
3235.024082759537
 20
-4766.217709720307
 10
3234.362802235422
 20
-4766.000927743458
 10
3233.641696945027
 20
-4765.796852362654
 10
3232.864647463475
 20
-4765.606581752499
 10
3232.035832697881
 20
-4765.431138848636
 10
3231.159711162403
 20
-4765.271467469798
 10
3230.240994116055
 20
-4765.128426386879
 10
3229.284623447959
 20
-4765.002785168809
 10
3228.295744243145
 20
-4764.895219488083
 10
3227.279674082382
 20
-4764.806307888825
 10
3226.241879399093
 20
-4764.736528612995
 10
3225.187941442809
 20
-4764.686257085648
 10
3224.123529343471
 20
-4764.655763706964
 10
3223.054368440047
 20
-4764.645212349961
 10
3221.986209453484
 20
-4764.654659858093
 10
3220.924797598771
 20
-4764.684055542377
 10
3219.875842227479
 20
-4764.733240931113
 10
3218.844985404138
 20
-4764.801951744965
 10
3217.837771375875
 20
-4764.889818389971
 10
3216.85961829522
 20
-4764.996368206801
 10
3215.915787353617
 20
-4765.121028195141
 10
3215.011355095512
 20
-4765.263127516062
 10
3214.151186308851
 20
-4765.421902233278
 10
3213.339907521756
 20
-4765.596498321747
 10
3212.581882343562
 20
-4765.785976180891
 10
3211.88118764266
 20
-4765.989317140631
 10
3211.24159379714
 20
-4766.205427394488
 10
3210.666538934401
 20
-4766.433144365525
 10
3210.15911776302
 20
-4766.671243316685
 10
3209.722059714439
 20
-4766.918443624791
 10
3209.357713864231
 20
-4767.173415606881
 10
3209.068041614811
 20
-4767.434787782915
 10
3208.854600596384
 20
-4767.701154376354
 10
3208.718538325169
 20
-4767.971082553887
 10
3208.660587748692
 20
-4768.243120549513
 10
3208.681058944455
 20
-4768.515805074278
 10
3208.779843434216
 20
-4768.787669388546
 10
3208.956408764414
 20
-4769.057251294026
 10
3209.20980577901
 20
-4769.323100671901
 10
3209.538671951849
 20
-4769.583787671125
 10
3209.941236725536
 20
-4769.837910044419
 10
3210.415336560685
 20
-4770.084100905672
 10
3210.958421246058
 20
-4770.321036104987
 10
3211.567568021371
 20
-4770.547441295753
 10
3212.23950254796
 20
-4770.762098561744
 10
3212.970609155102
 20
-4770.96385320401
 10
3213.756955695707
 20
-4771.1516205241
 10
3214.594312732348
 20
-4771.324390078162
 10
3215.478176437613
 20
-4771.481232568166
 10
3216.403792604425
 20
-4771.621304756374
 10
3217.366182705522
 20
-4771.74385290728
 10
3218.360170320156
 20
-4771.848217970218
 10
3219.380408444465
 20
-4771.933838535163
 10
3220.421409948255
 20
-4772.000254062656
 10
3221.477575510834
 20
-4772.04710759651
 10
3222.543224048898
 20
-4772.074146759362
 10
3223.612623832936
 20
-4772.081226243373
 10
3224.680022844662
 20
-4772.068308060468
 10
3225.739679699103
 20
-4772.035461549064
 10
3226.785894505793
 20
-4771.982863380226
 10
3227.813040710837
 20
-4771.910796579017
 10
3228.815592305764
 20
-4771.819648762895
 10
3229.788158171302
 20
-4771.709910190727
 10
3230.725506130188
 20
-4771.582170982199
 10
3231.622594056975
 20
-4771.43711839547
 10
3232.474597926803
 20
-4771.275532590125
 10
3233.276934476369
 20
-4771.098282842168
 10
3234.025288851351
 20
-4770.9063220625
 10
3234.715633843467
 20
-4770.700683231939
 10
3235.34425765737
 20
-4770.482472183
 10
3235.907779826238
 20
-4770.252862766346
 10
3236.403167263893
 20
-4770.013090032457
 10
3236.827757130626
 20
-4769.764443469488
 10
3237.17926409074
 20
-4769.508260608907
 10
3237.455799340308
 20
-4769.245919424929
 10
3237.655874039433
 20
-4768.978830915677
  0
LWPOLYLINE
  5
2EEBF
330
18
100
AcDbEntity
  8
姿図
100
AcDbPolyline
 90
        9
 70
   128
 43
0.0
 10
3237.22350575192
 20
-4768.042049503082
 10
3237.223533656925
 20
-4768.036420688551
 10
3237.228198271459
 20
-4768.030936439185
 10
3237.237291871924
 20
-4768.025841387628
 10
3237.250407294864
 20
-4768.021362852278
 10
3237.266961041803
 20
-4768.017700601746
 10
3237.286214336979
 20
-4768.015018060896
 10
3237.3073077293
 20
-4768.013434838654
 10
3237.329300403292
 20
-4768.013021590873
  0
ARC
  5
2EEC0
330
18
100
AcDbEntity
  8
姿図
100
AcDbCircle
 10
3236.323994020295
 20
-4768.418528058622
 30
0.0
 40
0.9751192020017118
100
AcDbArc
 50
329.4168942565544
 51
22.71109316180119
  0
LWPOLYLINE
  5
2EEC1
330
18
100
AcDbEntity
  8
姿図
100
AcDbPolyline
 90
        9
 70
   128
 43
0.0
 10
3237.265148881444
 20
-4768.945395018667
 10
3237.243237978058
 20
-4768.944619818571
 10
3237.222386244527
 20
-4768.94269078999
 10
3237.203523712216
 20
-4768.939694012514
 10
3237.187492407799
 20
-4768.935763122491
 10
3237.175007793382
 20
-4768.931073533885
 10
3237.166625231458
 20
-4768.925834404382
 10
3237.162720160486
 20
-4768.920279504338
 10
3237.163466423951
 20
-4768.914656612134
  0
LINE
  5
2EEC2
330
18
100
AcDbEntity
  8
姿図
100
AcDbLine
 10
3237.554371873865
 20
-4768.947779446956
 30
0.0
 11
3237.265148881444
 21
-4768.945395018667
 31
0.0
  0
LWPOLYLINE
  5
2EEC3
330
18
100
AcDbEntity
  8
姿図
100
AcDbPolyline
 90
        9
 70
   128
 43
0.0
 10
3237.655874039433
 20
-4768.978830915677
 10
3237.656873076837
 20
-4768.973172095966
 10
3237.653152429059
 20
-4768.967569658321
 10
3237.644880680047
 20
-4768.962277047239
 10
3237.632430928869
 20
-4768.957533723262
 10
3237.616366933614
 20
-4768.953554219378
 10
3237.597415521216
 20
-4768.950518635652
 10
3237.576434053532
 20
-4768.948564210186
 10
3237.554371873865
 20
-4768.947779446956
  0
LWPOLYLINE
  5
2EEC4
330
18
100
AcDbEntity
  8
姿図
100
AcDbPolyline
 90
        9
 70
   128
 43
0.0
 10
3237.618523395712
 20
-4768.015406019161
 10
3237.64066848969
 20
-4768.014985711997
 10
3237.661894961927
 20
-4768.013379259576
 10
3237.681242373481
 20
-4768.010659421146
 10
3237.697835460107
 20
-4768.006949150595
 10
3237.710923449618
 20
-4768.002416366281
 10
3237.719913718193
 20
-4767.997266067683
 10
3237.724400656538
 20
-4767.991731295477
 10
3237.724181015357
 20
-4767.986062428668
  0
LINE
  5
2EEC5
330
18
100
AcDbEntity
  8
姿図
100
AcDbLine
 10
3237.618523395712
 20
-4768.015406019161
 30
0.0
 11
3237.329300403292
 21
-4768.013021590873
 31
0.0
  0
LWPOLYLINE
  5
2EEC6
330
18
100
AcDbEntity
  8
姿図
100
AcDbPolyline
 90
       82
 70
   128
 43
0.0
 10
3210.176075891886
 20
-4768.255614621187
 10
3210.197607240554
 20
-4768.513980908289
 10
3210.297581482016
 20
-4768.771441107985
 10
3210.475396126803
 20
-4769.026446818001
 10
3210.729982122668
 20
-4769.277464469506
 10
3211.059809081432
 20
-4769.522984291265
 10
3211.462893391861
 20
-4769.761529794037
 10
3211.936809317766
 20
-4769.991666333205
 10
3212.478708850172
 20
-4770.212009836652
 10
3213.085331855509
 20
-4770.421235018214
 10
3213.753028873548
 20
-4770.618083757485
 10
3214.47778693792
 20
-4770.801372015117
 10
3215.255244621086
 20
-4770.969997652239
 10
3216.080727648468
 20
-4771.122946557645
 10
3216.949271867072
 20
-4771.259298546639
 10
3217.855652507008
 20
-4771.378233808221
 10
3218.794418950209
 20
-4771.479037163538
 10
3219.759925866098
 20
-4771.561102046148
 10
3220.746365756053
 20
-4771.623935238594
 10
3221.747806813029
 20
-4771.667158673973
 10
3222.758225783268
 20
-4771.690512437467
 10
3223.771546027347
 20
-4771.693856073079
 10
3224.781673332132
 20
-4771.677169623592
 10
3225.782532555213
 20
-4771.640553187969
 10
3226.768104507069
 20
-4771.584227225392
 10
3227.732461895559
 20
-4771.50853012101
 10
3228.669805226947
 20
-4771.413917488955
 10
3229.574496434562
 20
-4771.300958229535
 10
3230.441095098875
 20
-4771.17033184898
 10
3231.264389710997
 20
-4771.022823504206
 10
3232.039427599881
 20
-4770.859320774197
 10
3232.76154900919
 20
-4770.680806742046
 10
3233.426411295158
 20
-4770.488355105572
 10
3234.030014729651
 20
-4770.283123191133
 10
3234.568729242486
 20
-4770.066345471698
 10
3235.039315425817
 20
-4769.839325548125
 10
3235.438942575739
 20
-4769.603428726668
 10
3235.76520775844
 20
-4769.360073860179
 10
3236.016149091578
 20
-4769.110724334859
 10
3236.190257023322
 20
-4768.856879847271
 10
3236.286483742074
 20
-4768.600067041125
 10
3236.304251591918
 20
-4768.341830438377
 10
3236.243453716495
 20
-4768.083723081333
 10
3236.10445469701
 20
-4767.827297259997
 10
3235.88809119609
 20
-4767.574095154161
 10
3235.595664799099
 20
-4767.325639636124
 10
3235.228933902874
 20
-4767.083424763025
 10
3234.790103580337
 20
-4766.848907377293
 10
3234.281813553813
 20
-4766.623497884776
 10
3233.707120272556
 20
-4766.408551790996
 10
3233.069479912464
 20
-4766.205361989729
 10
3232.372728498281
 20
-4766.015150407302
 10
3231.62105608311
 20
-4765.839061087254
 10
3230.818981935407
 20
-4765.678152786914
 10
3229.971331040989
 20
-4765.533393694763
 10
3229.08320101627
 20
-4765.405653958785
 10
3228.159932658982
 20
-4765.295701968319
 10
3227.207079401674
 20
-4765.204198889256
 10
3226.230371501273
 20
-4765.131695389936
 10
3225.235682990847
 20
-4765.078627148652
 10
3224.228995915125
 20
-4765.045313565834
 10
3223.216364761556
 20
-4765.031954740208
 10
3222.203879578141
 20
-4765.038631164721
 10
3221.197629431418
 20
-4765.065302680568
 10
3220.203666492098
 20
-4765.111808925817
 10
3219.227967837436
 20
-4765.177870013448
 10
3218.27640221399
 20
-4765.263088987963
 10
3217.354691973162
 20
-4765.366953000988
 10
3216.468379912178
 20
-4765.488837506199
 10
3215.622797626357
 20
-4765.628009721971
 10
3214.823030194104
 20
-4765.783632312035
 10
3214.0738860619
 20
-4765.95476934317
 10
3213.379873290443
 20
-4766.140391798827
 10
3212.745163138226
 20
-4766.339383112502
 10
3212.173573958204
 20
-4766.55054673035
 10
3211.668544455479
 20
-4766.772612593146
 10
3211.233109762745
 20
-4767.004245130897
 10
3210.869890173988
 20
-4767.244051299742
 10
3210.581070114471
 20
-4767.490588972811
 10
3210.368385877595
 20
-4767.74237531022
 10
3210.233116216816
 20
-4767.997896099049
 10
3210.176075891886
 20
-4768.255614621187
  0
LINE
  5
2EEC7
330
18
100
AcDbEntity
  8
姿図
100
AcDbLine
 10
3237.72520078683
 20
-4767.733366123507
 30
0.0
 11
3237.725908981479
 21
-4767.736492344567
 31
0.0
  0
LWPOLYLINE
  5
2EEC8
330
18
100
AcDbEntity
  8
姿図
100
AcDbPolyline
 90
        6
 70
   128
 43
0.0
 10
3237.725565542143
 20
-4767.821531161952
 10
3237.726431840147
 20
-4767.821297885443
 10
3237.739561849699
 20
-4767.816847986686
 10
3237.748707979604
 20
-4767.811782163803
 10
3237.753465218022
 20
-4767.80632477407
 10
3237.753622152649
 20
-4767.800717440864
  0
LINE
  5
2EEC9
330
18
100
AcDbEntity
  8
姿図
100
AcDbLine
 10
3237.755661687997
 20
-4767.295326713273
 30
0.0
 11
3237.75616643633
 21
-4767.297970109793
 31
0.0
  0
LWPOLYLINE
  5
2EECA
330
18
100
AcDbEntity
  8
姿図
100
AcDbPolyline
 90
        3
 70
   128
 43
0.0
 10
3237.300347663109
 20
-4768.626344605901
 10
3237.278673375988
 20
-4768.625584295935
 10
3237.2763076721
 20
-4768.625428727019
  0
LINE
  5
2EECB
330
18
100
AcDbEntity
  8
姿図
100
AcDbLine
 10
3237.592774067048
 20
-4768.628755443931
 30
0.0
 11
3237.300347663109
 21
-4768.626344605901
 31
0.0
  0
LWPOLYLINE
  5
2EECC
330
18
100
AcDbEntity
  8
姿図
100
AcDbPolyline
 90
        9
 70
   128
 43
0.0
 10
3237.694545849495
 20
-4768.659328019195
 10
3237.695160275285
 20
-4768.653724457663
 10
3237.691158991417
 20
-4768.648194860432
 10
3237.682719939762
 20
-4768.642984060821
 10
3237.670216816852
 20
-4768.638322835964
 10
3237.654203226177
 20
-4768.63441759843
 10
3237.635387986851
 20
-4768.631441225037
 10
3237.614605455826
 20
-4768.629525582265
 10
3237.592774067048
 20
-4768.628755443931
  0
LWPOLYLINE
  5
2EECD
330
18
100
AcDbEntity
  8
姿図
100
AcDbPolyline
 90
        9
 70
   128
 43
0.0
 10
3237.555391645339
 20
-4768.695083141794
 10
3237.577453825001
 20
-4768.695867905024
 10
3237.598435292688
 20
-4768.69782233049
 10
3237.617386705086
 20
-4768.700857914216
 10
3237.633450700342
 20
-4768.704837418101
 10
3237.64590045152
 20
-4768.709580742075
 10
3237.654172200531
 20
-4768.71487335316
 10
3237.65789284831
 20
-4768.720475790805
 10
3237.658091660454
 20
-4768.722144223825
  0
LINE
  5
2EECE
330
18
100
AcDbEntity
  8
姿図
100
AcDbLine
 10
3237.555391645339
 20
-4768.695083141794
 30
0.0
 11
3237.266168652917
 21
-4768.692698713507
 31
0.0
  0
LINE
  5
2EECF
330
18
100
AcDbEntity
  8
姿図
100
AcDbLine
 10
3237.258414856672
 20
-4768.692561217697
 30
0.0
 11
3237.266168652917
 21
-4768.692698713507
 31
0.0
  0
LINE
  5
2EED0
330
18
100
AcDbEntity
  8
姿図
100
AcDbLine
 10
3237.302387198456
 20
-4768.120953878308
 30
0.0
 11
3237.300347663109
 21
-4768.626344605901
 31
0.0
  0
LINE
  5
2EED1
330
18
100
AcDbEntity
  8
姿図
100
AcDbLine
 10
3237.592774067048
 20
-4768.628755443931
 30
0.0
 11
3237.594813602397
 21
-4768.12336471634
 31
0.0
  0
LINE
  5
2EED2
330
18
100
AcDbEntity
  8
姿図
100
AcDbLine
 10
3237.302387198456
 20
-4768.120953878308
 30
0.0
 11
3237.594813602397
 21
-4768.12336471634
 31
0.0
  0
LWPOLYLINE
  5
2EED3
330
18
100
AcDbEntity
  8
姿図
100
AcDbPolyline
 90
        9
 70
   128
 43
0.0
 10
3237.594813602397
 20
-4768.12336471634
 10
3237.616644991173
 20
-4768.124134854672
 10
3237.637427522199
 20
-4768.126050497445
 10
3237.656242761524
 20
-4768.129026870838
 10
3237.672256352198
 20
-4768.132932108373
 10
3237.684759475109
 20
-4768.137593333228
 10
3237.693198526763
 20
-4768.142804132841
 10
3237.697199810633
 20
-4768.148333730072
 10
3237.697513617511
 20
-4768.15042579837
  0
LINE
  5
2EED4
330
18
100
AcDbEntity
  8
姿図
100
AcDbLine
 10
3237.266168652917
 20
-4768.692698713507
 30
0.0
 11
3237.265148881444
 21
-4768.945395018667
 31
0.0
  0
LINE
  5
2EED5
330
18
100
AcDbEntity
  8
姿図
100
AcDbLine
 10
3237.554371873865
 20
-4768.947779446956
 30
0.0
 11
3237.555391645339
 21
-4768.695083141794
 31
0.0
  0
LWPOLYLINE
  5
2EED6
330
18
100
AcDbEntity
  8
姿図
100
AcDbPolyline
 90
       26
 70
   128
 43
0.0
 10
3234.161502564858
 20
-4759.117746448505
 10
3233.946022888412
 20
-4759.041278644071
 10
3233.295630858267
 20
-4758.834024939487
 10
3232.584944101926
 20
-4758.640009157573
 10
3231.818237793085
 20
-4758.4603980127
 10
3231.000122254987
 20
-4758.296271616624
 10
3230.135518062107
 20
-4758.148617315494
 10
3229.229625352701
 20
-4758.018322734453
 10
3228.287891963152
 20
-4757.90617179134
 10
3227.315981698843
 20
-4757.812838725648
 10
3226.319739480081
 20
-4757.738885080548
 10
3225.305157181686
 20
-4757.684755449464
 10
3224.278336459668
 20
-4757.650775431938
 10
3223.245452672943
 20
-4757.637149598519
 10
3222.212717770823
 20
-4757.643959447139
 10
3221.186342715265
 20
-4757.67116458274
 10
3220.17250029046
 20
-4757.718600921235
 10
3219.17728797018
 20
-4757.785983362238
 10
3218.206690739169
 20
-4757.872906475504
 10
3217.266546038569
 20
-4757.978847935489
 10
3216.362508587485
 20
-4758.103170217256
 10
3215.50001425258
 20
-4758.24512551159
 10
3214.68425146144
 20
-4758.403860702315
 10
3213.92012446162
 20
-4758.578420538738
 10
3213.212230873243
 20
-4758.767755394194
 10
3212.855319128663
 20
-4758.875598308946
  0
LINE
  5
2EED7
330
18
100
AcDbEntity
  8
姿図
100
AcDbLine
 10
3236.860180336318
 20
-4760.81160974209
 30
0.0
 11
3236.860450043427
 21
-4760.837288229065
 31
0.0
  0
LINE
  5
2EED8
330
18
100
AcDbEntity
  8
姿図
100
AcDbLine
 10
3209.682005656531
 20
-4760.727315812519
 30
0.0
 11
3209.684086554857
 21
-4760.670432225121
 31
0.0
  0
LINE
  5
2EED9
330
18
100
AcDbEntity
  8
姿図
100
AcDbLine
 10
3209.731390998061
 20
-4748.573767512616
 30
0.0
 11
3209.730953967863
 21
-4748.598209541007
 31
0.0
  0
ARC
  5
2EEDA
330
18
100
AcDbEntity
  8
姿図
100
AcDbCircle
 10
3223.121209395682
 20
-4798.41430055809
 30
0.0
 40
40.76073311640434
100
AcDbArc
 50
75.39583028151175
 51
104.1714248273001
  0
LWPOLYLINE
  5
2EEDB
330
18
100
AcDbEntity
  8
姿図
100
AcDbPolyline
 90
        3
 70
   128
 43
0.0
 10
3210.473785163173
 20
-4760.664139183742
 10
3210.472423371202
 20
-4760.681340976601
 10
3210.470658715044
 20
-4760.720180944436
  0
SPLINE
  5
2EEDC
330
18
100
AcDbEntity
  8
姿図
100
AcDbSpline
210
0.0
220
0.0
230
1.0
 70
     8
 71
     3
 72
     8
 73
     4
 74
     0
 42
0.0000000001
 43
0.0000000001
 40
0.88936115038059
 40
0.88936115038059
 40
0.88936115038059
 40
0.88936115038059
 40
1.0
 40
1.0
 40
1.0
 40
1.0
 10
3222.011150102286
 20
-4744.921271892918
 30
0.0
 10
3221.994954368744
 20
-4744.955218668073
 30
0.0
 10
3221.978463398914
 20
-4744.988750170768
 30
0.0
 10
3221.961972429085
 20
-4745.022281673461
 30
0.0
  0
SPLINE
  5
2EEDD
330
18
100
AcDbEntity
  8
姿図
100
AcDbSpline
210
0.0
220
0.0
230
1.0
 70
     8
 71
     3
 72
    11
 73
     7
 74
     0
 42
0.0000000001
 43
0.0000000001
 40
0.0
 40
0.0
 40
0.0
 40
0.0
 40
0.2739352835637679
 40
0.5560792091337583
 40
0.8299737252274963
 40
1.0
 40
1.0
 40
1.0
 40
1.0
 10
3227.41560973674
 20
-4743.47994086887
 30
0.0
 10
3227.411758173771
 20
-4743.66032125368
 30
0.0
 10
3227.403939633347
 20
-4744.026487234285
 30
0.0
 10
3227.39306031163
 20
-4744.521667324484
 30
0.0
 10
3227.382851300482
 20
-4744.917973062923
 30
0.0
 10
3227.371365189514
 20
-4745.113524779607
 30
0.0
 10
3227.366965889684
 20
-4745.188423118672
 30
0.0
  0
ARC
  5
2EEDE
330
18
100
AcDbEntity
  8
姿図
100
AcDbCircle
 10
3223.133671043491
 20
-4793.008623176514
 30
0.0
 40
48.01435652398297
100
AcDbArc
 50
91.33963208706331
 51
97.83518088024656
  0
ARC
  5
2EEDF
330
18
100
AcDbEntity
  8
姿図
100
AcDbCircle
 10
3227.392063726929
 20
-4736.844900276133
 30
0.0
 40
7.973255464450315
100
AcDbArc
 50
292.3881067984226
 51
294.4780876169073
  0
SPLINE
  5
2EEE0
330
18
100
AcDbEntity
  8
姿図
100
AcDbSpline
210
0.0
220
0.0
230
1.0
 70
     8
 71
     3
 72
    10
 73
     6
 74
     0
 42
0.0000000001
 43
0.0000000001
 40
0.0
 40
0.0
 40
0.0
 40
0.0
 40
0.3339310690153915
 40
0.6678638101095518
 40
1.0
 40
1.0
 40
1.0
 40
1.0
 10
3230.695743887365
 20
-4744.101517952361
 30
0.0
 10
3230.702270672497
 20
-4744.287306518496
 30
0.0
 10
3230.715324275442
 20
-4744.658884581059
 30
0.0
 10
3230.790661374097
 20
-4745.177427183043
 30
0.0
 10
3230.872430357366
 20
-4745.477001917412
 30
0.0
 10
3230.913204573503
 20
-4745.626385271346
 30
0.0
  0
ARC
  5
2EEE1
330
18
100
AcDbEntity
  8
姿図
100
AcDbCircle
 10
3223.638257769807
 20
-4775.370164955631
 30
0.0
 40
32.11315587396986
100
AcDbArc
 50
83.2448702110115
 51
83.52623779705607
  0
ARC
  5
2EEE2
330
18
100
AcDbEntity
  8
姿図
100
AcDbCircle
 10
3223.157299351405
 20
-4780.870106885276
 30
0.0
 40
37.62952876997271
100
AcDbArc
 50
91.74542905689571
 51
92.91469368215702
  0
SPLINE
  5
2EEE3
330
18
100
AcDbEntity
  8
姿図
100
AcDbSpline
210
0.0
220
0.0
230
1.0
 70
     8
 71
     3
 72
    11
 73
     7
 74
     0
 42
0.0000000001
 43
0.0000000001
 40
0.0
 40
0.0
 40
0.0
 40
0.0
 40
0.2767943058183841
 40
0.5535899683754008
 40
0.8303058651176899
 40
1.0
 40
1.0
 40
1.0
 40
1.0
 10
3221.243873067898
 20
-4743.289257569332
 30
0.0
 10
3221.241792955485
 20
-4743.474563009804
 30
0.0
 10
3221.237632720466
 20
-4743.845174799036
 30
0.0
 10
3221.165167610546
 20
-4744.356550980244
 30
0.0
 10
3221.066670398851
 20
-4744.767394640498
 30
0.0
 10
3220.969567780366
 20
-4744.976622098312
 30
0.0
 10
3220.932656099018
 20
-4745.056155867563
 30
0.0
  0
ARC
  5
2EEE4
330
18
100
AcDbEntity
  8
姿図
100
AcDbCircle
 10
3212.443441455322
 20
-4776.389492289751
 30
0.0
 40
33.08860132645345
100
AcDbArc
 50
80.28433468266252
 51
81.14936845203709
  0
LINE
  5
2EEE5
330
18
100
AcDbEntity
  8
姿図
100
AcDbLine
 10
3218.061914018579
 20
-4743.788496027247
 30
0.0
 11
3218.027436616822
 21
-4743.775468683678
 31
0.0
  0
SPLINE
  5
2EEE6
330
18
100
AcDbEntity
  8
姿図
100
AcDbSpline
210
0.0
220
0.0
230
1.0
 70
     8
 71
     3
 72
    11
 73
     7
 74
     0
 42
0.0000000001
 43
0.0000000001
 40
0.0
 40
0.0
 40
0.0
 40
0.0
 40
0.2980809924651033
 40
0.5962024153118959
 40
0.8938546285366959
 40
0.9999999999999998
 40
0.9999999999999998
 40
0.9999999999999998
 40
0.9999999999999998
 10
3217.53442259269
 20
-4743.69488342529
 30
0.0
 10
3217.522529726875
 20
-4743.879980157123
 30
0.0
 10
3217.498742382149
 20
-4744.250198726479
 30
0.0
 10
3217.352990596971
 20
-4744.768428208398
 30
0.0
 10
3217.193360067748
 20
-4745.152382706819
 30
0.0
 10
3217.058324026164
 20
-4745.340328768945
 30
0.0
 10
3217.022827402761
 20
-4745.38973373157
 30
0.0
  0
ARC
  5
2EEE7
330
18
100
AcDbEntity
  8
姿図
100
AcDbCircle
 10
3227.650113778898
 20
-4754.841633932666
 30
0.0
 40
11.1635995103732
100
AcDbArc
 50
70.40253518484471
 51
74.16798085732891
  0
SPLINE
  5
2EEE8
330
18
100
AcDbEntity
  8
姿図
100
AcDbSpline
210
0.0
220
0.0
230
1.0
 70
     8
 71
     3
 72
    10
 73
     6
 74
     0
 42
0.0000000001
 43
0.0000000001
 40
0.0
 40
0.0
 40
0.0
 40
0.0
 40
0.3512230770402364
 40
0.7024937924184475
 40
1.0
 40
1.0
 40
1.0
 40
1.0
 10
3231.394495416918
 20
-4744.324716124826
 30
0.0
 10
3231.396897886752
 20
-4744.507198912679
 30
0.0
 10
3231.401703152278
 20
-4744.872189239536
 30
0.0
 10
3231.464117779978
 20
-4745.355654924719
 30
0.0
 10
3231.535915846647
 20
-4745.626666656177
 30
0.0
 10
3231.568839906934
 20
-4745.750943074747
 30
0.0
  0
ARC
  5
2EEE9
330
18
100
AcDbEntity
  8
姿図
100
AcDbCircle
 10
3220.955041038422
 20
-4762.843902952025
 30
0.0
 40
19.4521355996325
100
AcDbArc
 50
100.1280081549757
 51
102.7279837671569
  0
SPLINE
  5
2EEEA
330
18
100
AcDbEntity
  8
姿図
100
AcDbSpline
210
0.0
220
0.0
230
1.0
 70
     8
 71
     3
 72
    11
 73
     7
 74
     0
 42
0.0000000001
 43
0.0000000001
 40
0.0
 40
0.0
 40
0.0
 40
0.0
 40
0.3204554557441285
 40
0.6409125160911634
 40
0.9612770912751107
 40
0.9999999999999998
 40
0.9999999999999998
 40
0.9999999999999998
 40
0.9999999999999998
 10
3216.669295211469
 20
-4743.8697636542
 30
0.0
 10
3216.663141631298
 20
-4744.055690507706
 30
0.0
 10
3216.650834440146
 20
-4744.427545145703
 30
0.0
 10
3216.517612069199
 20
-4744.949775576378
 30
0.0
 10
3216.387987824406
 20
-4745.304305757871
 30
0.0
 10
3216.280328486426
 20
-4745.463980791076
 30
0.0
 10
3216.26871882888
 20
-4745.481199663951
 30
0.0
  0
ARC
  5
2EEEB
330
18
100
AcDbEntity
  8
姿図
100
AcDbCircle
 10
3222.632869949162
 20
-4773.155925447627
 30
0.0
 40
29.89894918702877
100
AcDbArc
 50
92.66271274518436
 51
99.81820706877615
  0
ARC
  5
2EEEC
330
18
100
AcDbEntity
  8
姿図
100
AcDbCircle
 10
3218.472101466222
 20
-4752.941937453683
 30
0.0
 40
9.249564737877282
100
AcDbArc
 50
101.23929930928
 51
116.9521056321998
  0
ARC
  5
2EEED
330
18
100
AcDbEntity
  8
姿図
100
AcDbCircle
 10
3215.779604723846
 20
-4747.412223449955
 30
0.0
 40
3.101915307817998
100
AcDbArc
 50
118.9153221624494
 51
127.7646615323202
  0
ARC
  5
2EEEE
330
18
100
AcDbEntity
  8
姿図
100
AcDbCircle
 10
3214.989559019937
 20
-4746.390249551118
 30
0.0
 40
1.810172345915879
100
AcDbArc
 50
127.8064336719893
 51
138.1054401815565
  0
LINE
  5
2EEEF
330
18
100
AcDbEntity
  8
姿図
100
AcDbLine
 10
3213.642112065091
 20
-4745.181485460901
 30
0.0
 11
3213.647255032042
 21
-4744.649320982968
 31
0.0
  0
ARC
  5
2EEF0
330
18
100
AcDbEntity
  8
姿図
100
AcDbCircle
 10
3232.061734335569
 20
-4746.100484108429
 30
0.0
 40
1.27927256999051
100
AcDbArc
 50
36.95486303419815
 51
40.09031979706453
  0
ARC
  5
2EEF1
330
18
100
AcDbEntity
  8
姿図
100
AcDbCircle
 10
3230.304362853069
 20
-4748.108506626032
 30
0.0
 40
3.937697241254344
100
AcDbArc
 50
45.98585301991191
 51
73.92799398454726
  0
ARC
  5
2EEF2
330
18
100
AcDbEntity
  8
姿図
100
AcDbCircle
 10
3225.088161973375
 20
-4764.727764029699
 30
0.0
 40
21.37491525515663
100
AcDbArc
 50
74.79080443009499
 51
83.74884712086737
  0
ARC
  5
2EEF3
330
18
100
AcDbEntity
  8
姿図
100
AcDbCircle
 10
3216.699528678923
 20
-4747.886258453628
 30
0.0
 40
4.699926618111471
100
AcDbArc
 50
110.9789755788509
 51
122.6282123967666
  0
ARC
  5
2EEF4
330
18
100
AcDbEntity
  8
姿図
100
AcDbCircle
 10
3222.702712907857
 20
-4772.093523599795
 30
0.0
 40
28.70140140532681
100
AcDbArc
 50
92.92294953213819
 51
99.37489463092544
  0
ARC
  5
2EEF5
330
18
100
AcDbEntity
  8
姿図
100
AcDbCircle
 10
3225.138753364979
 20
-4762.829015472418
 30
0.0
 40
19.20446097551084
100
AcDbArc
 50
74.5286298388292
 51
83.09375996853043
  0
ARC
  5
2EEF6
330
18
100
AcDbEntity
  8
姿図
100
AcDbCircle
 10
3229.938687795549
 20
-4747.941703999305
 30
0.0
 40
4.704744245164443
100
AcDbArc
 50
55.89544688397644
 51
68.47549434512041
  0
SPLINE
  5
2EEF7
330
18
100
AcDbEntity
  8
姿図
100
AcDbSpline
210
0.0
220
0.0
230
1.0
 70
     8
 71
     3
 72
    11
 73
     7
 74
     0
 42
0.0000000001
 43
0.0000000001
 40
0.0
 40
0.0
 40
0.0
 40
0.0
 40
0.0094955322509044
 40
0.4425836108478248
 40
0.75531508829095
 40
1.0
 40
1.0
 40
1.0
 40
1.0
 10
3218.177201613884
 20
-4743.881645403495
 30
0.0
 10
3218.176911542132
 20
-4743.881351892764
 30
0.0
 10
3218.163391393928
 20
-4743.867671455002
 30
0.0
 10
3218.136555695677
 20
-4743.842980791248
 30
0.0
 10
3218.095547701323
 20
-4743.810218267962
 30
0.0
 10
3218.07217413745
 20
-4743.795122502659
 30
0.0
 10
3218.061914018579
 20
-4743.788496027247
 30
0.0
  0
LINE
  5
2EEF8
330
18
100
AcDbEntity
  8
姿図
100
AcDbLine
 10
3230.407611438103
 20
-4744.223447810798
 30
0.0
 11
3230.428904949648
 21
-4744.217172523504
 31
0.0
  0
ARC
  5
2EEF9
330
18
100
AcDbEntity
  8
姿図
100
AcDbCircle
 10
3225.150198108683
 20
-4762.907739105126
 30
0.0
 40
19.40987212960677
100
AcDbArc
 50
74.28438196243265
 51
83.35963415257159
  0
SPLINE
  5
2EEFA
330
18
100
AcDbEntity
  8
姿図
100
AcDbSpline
210
0.0
220
0.0
230
1.0
 70
     8
 71
     3
 72
    13
 73
     9
 74
     0
 42
0.0000000001
 43
0.0000000001
 40
0.0
 40
0.0
 40
0.0
 40
0.0
 40
0.1448201239346141
 40
0.2889404862150955
 40
0.4931313208344838
 40
0.7743001281938584
 40
0.9924261903523875
 40
1.0
 40
1.0
 40
1.0
 40
1.0
 10
3230.407611438103
 20
-4744.223447810798
 30
0.0
 10
3230.39991992607
 20
-4744.225582727594
 30
0.0
 10
3230.38457406691
 20
-4744.229842245409
 30
0.0
 10
3230.355379621073
 20
-4744.244029666271
 30
0.0
 10
3230.320431579764
 20
-4744.265897242466
 30
0.0
 10
3230.287375940137
 20
-4744.292857288529
 30
0.0
 10
3230.268930167525
 20
-4744.311924320641
 30
0.0
 10
3230.261910090481
 20
-4744.320173078278
 30
0.0
 10
3230.261674517785
 20
-4744.320449881806
 30
0.0
  0
ARC
  5
2EEFB
330
18
100
AcDbEntity
  8
姿図
100
AcDbCircle
 10
3213.895294086854
 20
-4796.859714827236
 30
0.0
 40
52.16412417060591
100
AcDbArc
 50
88.93908381002075
 51
89.57768909377263
  0
LINE
  5
2EEFC
330
18
100
AcDbEntity
  8
姿図
100
AcDbLine
 10
3214.902441731269
 20
-4744.712404975229
 30
0.0
 11
3214.861134886636
 21
-4744.704532898345
 31
0.0
  0
SPLINE
  5
2EEFD
330
18
100
AcDbEntity
  8
姿図
100
AcDbSpline
210
0.0
220
0.0
230
1.0
 70
     8
 71
     3
 72
    10
 73
     6
 74
     0
 42
0.0000000001
 43
0.0000000001
 40
0.0
 40
0.0
 40
0.0
 40
0.0
 40
0.4439680298137179
 40
0.8879961476597173
 40
1.0
 40
1.0
 40
1.0
 40
1.0
 10
3214.27977753866
 20
-4744.697007622169
 30
0.0
 10
3214.266390129305
 20
-4744.882892401486
 30
0.0
 10
3214.239613498703
 20
-4745.254687118352
 30
0.0
 10
3214.134973684905
 20
-4745.667725083255
 30
0.0
 10
3214.030014608194
 20
-4745.87819492025
 30
0.0
 10
3214.008872261062
 20
-4745.920590742448
 30
0.0
  0
SPLINE
  5
2EEFE
330
18
100
AcDbEntity
  8
姿図
100
AcDbSpline
210
0.0
220
0.0
230
1.0
 70
     8
 71
     3
 72
     9
 73
     5
 74
     0
 42
0.0000000001
 43
0.0000000001
 40
0.0
 40
0.0
 40
0.0
 40
0.0
 40
0.8496986098045319
 40
1.0
 40
1.0
 40
1.0
 40
1.0
 10
3232.959414148781
 20
-4745.288628675089
 30
0.0
 10
3232.943931973677
 20
-4745.29261153654
 30
0.0
 10
3232.925711189358
 20
-4745.297298917931
 30
0.0
 10
3232.909470982423
 20
-4745.308528867517
 30
0.0
 10
3232.907030056747
 20
-4745.310216744552
 30
0.0
  0
ARC
  5
2EEFF
330
18
100
AcDbEntity
  8
姿図
100
AcDbCircle
 10
3228.375191495653
 20
-4714.035988764998
 30
0.0
 40
31.58706378698769
100
AcDbArc
 50
278.3447927620396
 51
278.4933236046372
  0
SPLINE
  5
2EF00
330
18
100
AcDbEntity
  8
姿図
100
AcDbSpline
210
0.0
220
0.0
230
1.0
 70
     8
 71
     3
 72
     9
 73
     5
 74
     0
 42
0.0000000001
 43
0.0000000001
 40
0.0
 40
0.0
 40
0.0
 40
0.0
 40
0.6415389538600395
 40
1.0
 40
1.0
 40
1.0
 40
1.0
 10
3233.040416505597
 20
-4745.276639755171
 30
0.0
 10
3233.045817871913
 20
-4745.465058307315
 30
0.0
 10
3233.054237261387
 20
-4745.758756064889
 30
0.0
 10
3233.126271539691
 20
-4746.030643793466
 30
0.0
 10
3233.152093022449
 20
-4746.128104953085
 30
0.0
  0
ARC
  5
2EF01
330
18
100
AcDbEntity
  8
姿図
100
AcDbCircle
 10
3218.662710955292
 20
-4752.498314103521
 30
0.0
 40
8.671505410249151
100
AcDbArc
 50
103.5050447868242
 51
116.001751825369
  0
SPLINE
  5
2EF02
330
18
100
AcDbEntity
  8
姿図
100
AcDbSpline
210
0.0
220
0.0
230
1.0
 70
     8
 71
     3
 72
    11
 73
     7
 74
     0
 42
0.0000000001
 43
0.0000000001
 40
0.0
 40
0.0
 40
0.0
 40
0.0
 40
0.0094957376484202
 40
0.4425813060233362
 40
0.7553120611726854
 40
0.9999999999999998
 40
0.9999999999999998
 40
0.9999999999999998
 40
0.9999999999999998
 10
3215.003128811746
 20
-4744.790694602396
 30
0.0
 10
3215.00297054201
 20
-4744.790432402153
 30
0.0
 10
3214.995593840007
 20
-4744.778211663635
 30
0.0
 10
3214.976948144285
 20
-4744.756673484281
 30
0.0
 10
3214.940518798141
 20
-4744.729235772992
 30
0.0
 10
3214.914057392615
 20
-4744.717539321519
 30
0.0
 10
3214.902441731269
 20
-4744.712404975229
 30
0.0
  0
ARC
  5
2EF03
330
18
100
AcDbEntity
  8
姿図
100
AcDbCircle
 10
3231.815203774598
 20
-4752.928424295509
 30
0.0
 40
7.725004498521497
100
AcDbArc
 50
81.4821361926389
 51
85.2897720396653
  0
ARC
  5
2EF04
330
18
100
AcDbEntity
  8
姿図
100
AcDbCircle
 10
3214.65986541002
 20
-4751.437948971873
 30
0.0
 40
6.338703143012724
100
AcDbArc
 50
97.33314359393309
 51
99.23950438527331
  0
ARC
  5
2EF05
330
18
100
AcDbEntity
  8
姿図
100
AcDbCircle
 10
3232.456896027333
 20
-4745.338502277257
 30
0.0
 40
0.109240205232499
100
AcDbArc
 50
93.85402520940791
 51
178.0904751792664
  0
ARC
  5
2EF06
330
18
100
AcDbEntity
  8
姿図
100
AcDbCircle
 10
3231.787247830857
 20
-4752.95393073202
 30
0.0
 40
7.625919992110342
100
AcDbArc
 50
82.32275419479831
 51
85.25659907243896
  0
SPLINE
  5
2EF07
330
18
100
AcDbEntity
  8
姿図
100
AcDbSpline
210
0.0
220
0.0
230
1.0
 70
     8
 71
     3
 72
     9
 73
     5
 74
     0
 42
0.0000000001
 43
0.0000000001
 40
0.0
 40
0.0
 40
0.0
 40
0.0
 40
0.5311232026921912
 40
1.0
 40
1.0
 40
1.0
 40
1.0
 10
3213.879931019297
 20
-4744.960057388463
 30
0.0
 10
3213.87229016535
 20
-4745.147163864486
 30
0.0
 10
3213.857903947783
 20
-4745.499448372249
 30
0.0
 10
3213.753081252241
 20
-4745.837805248592
 30
0.0
 10
3213.70393232247
 20
-4745.996452937119
 30
0.0
  0
SPLINE
  5
2EF08
330
18
100
AcDbEntity
  8
姿図
100
AcDbSpline
210
0.0
220
0.0
230
1.0
 70
     8
 71
     3
 72
    11
 73
     7
 74
     0
 42
0.0000000001
 43
0.0000000001
 40
0.0
 40
0.0
 40
0.0
 40
0.0
 40
0.375418558110304
 40
0.8143102768976763
 40
0.989230146352042
 40
1.0
 40
1.0
 40
1.0
 40
1.0
 10
3232.907030056747
 20
-4745.310216744552
 30
0.0
 10
3232.893454398821
 20
-4745.320516525294
 30
0.0
 10
3232.864007805078
 20
-4745.342857502127
 30
0.0
 10
3232.830389979044
 20
-4745.37301887632
 30
0.0
 10
3232.811658519229
 20
-4745.390852890855
 30
0.0
 10
3232.806323868955
 20
-4745.396064673795
 30
0.0
 10
3232.806014463557
 20
-4745.396366952983
 30
0.0
  0
SPLINE
  5
2EF09
330
18
100
AcDbEntity
  8
姿図
100
AcDbSpline
210
0.0
220
0.0
230
1.0
 70
     8
 71
     3
 72
     9
 73
     5
 74
     0
 42
0.0000000001
 43
0.0000000001
 40
0.0
 40
0.0
 40
0.0
 40
0.0
 40
0.0241165634894862
 40
0.9999999999999998
 40
0.9999999999999998
 40
0.9999999999999998
 40
0.9999999999999998
 10
3233.194400348351
 20
-4746.139927519993
 30
0.0
 10
3233.192088252307
 20
-4746.133761436029
 30
0.0
 10
3233.096216548005
 20
-4745.878083052729
 30
0.0
 10
3233.090040312684
 20
-4745.601407169582
 30
0.0
 10
3233.084013026932
 20
-4745.33140375794
 30
0.0
  0
ARC
  5
2EF0A
330
18
100
AcDbEntity
  8
姿図
100
AcDbCircle
 10
3232.418452132173
 20
-4745.214657702796
 30
0.0
 40
0.1394728101142784
100
AcDbArc
 50
239.5248623971394
 51
269.7572794085342
  0
ARC
  5
2EF0B
330
18
100
AcDbEntity
  8
姿図
100
AcDbCircle
 10
3233.13000444219
 20
-4745.268538185836
 30
0.0
 40
0.077892813744845
100
AcDbArc
 50
233.8114134069323
 51
266.2696402731024
  0
ARC
  5
2EF0C
330
18
100
AcDbEntity
  8
姿図
100
AcDbCircle
 10
3232.619606708452
 20
-4745.339095304657
 30
0.0
 40
0.2023048050258367
100
AcDbArc
 50
147.2013424182549
 51
184.2617726085881
  0
LWPOLYLINE
  5
2EF0D
330
18
100
AcDbEntity
  8
姿図
100
AcDbPolyline
 90
       10
 70
   128
 43
0.0
 10
3234.078478789548
 20
-4744.157394488075
 10
3233.849464564107
 20
-4744.079238417787
 10
3233.183617346359
 20
-4743.875180458611
 10
3232.458511536413
 20
-4743.684659650948
 10
3231.678507487136
 20
-4743.508822062931
 10
3230.848297447753
 20
-4743.348724899127
 10
3229.972873313889
 20
-4743.205331021641
 10
3229.05750072171
 20
-4743.079503275325
 10
3228.107684449874
 20
-4742.97199774833
 10
3227.258958600661
 20
-4742.895207426135
  0
LWPOLYLINE
  5
2EF0E
330
18
100
AcDbEntity
  8
姿図
100
AcDbPolyline
 90
       12
 70
   128
 43
0.0
 10
3222.011150102286
 20
-4742.739936127073
 10
3220.991633852019
 20
-4742.772083297082
 10
3219.981880984985
 20
-4742.824537721474
 10
3218.992266493252
 20
-4742.896847912418
 10
3218.028741813149
 20
-4742.988579367476
 10
3217.097101884788
 20
-4743.099179870404
 10
3216.202949230887
 20
-4743.22798490447
 10
3215.35166218519
 20
-4743.374219376447
 10
3214.548359406748
 20
-4743.537003778217
 10
3213.797873222981
 20
-4743.715359428263
 10
3213.104716662781
 20
-4743.908213412874
 10
3212.688558730387
 20
-4744.04024187396
  0
LWPOLYLINE
  5
2EF0F
330
18
100
AcDbEntity
  8
姿図
100
AcDbPolyline
 90
       12
 70
   128
 43
0.0
 10
3212.934132057651
 20
-4744.03483705266
 10
3213.24286503671
 20
-4743.938176993697
 10
3213.926657120889
 20
-4743.747928513875
 10
3214.667004401452
 20
-4743.57198233022
 10
3215.459454250232
 20
-4743.411396960126
 10
3216.299240965115
 20
-4743.267138229531
 10
3217.181313434537
 20
-4743.14007354329
 10
3218.100366627206
 20
-4743.030967180017
 10
3219.050874089364
 20
-4742.940475098765
 10
3220.027119088781
 20
-4742.869141720454
 10
3221.023230190148
 20
-4742.817396001117
 10
3222.011150102286
 20
-4742.786245043176
  0
LWPOLYLINE
  5
2EF10
330
18
100
AcDbEntity
  8
姿図
100
AcDbPolyline
 90
       10
 70
   128
 43
0.0
 10
3227.258958600661
 20
-4742.943658782667
 10
3228.043143212278
 20
-4743.01460966421
 10
3228.98012747802
 20
-4743.12066270979
 10
3229.883133096475
 20
-4743.244790591695
 10
3230.746730094755
 20
-4743.386247023289
 10
3231.565724568682
 20
-4743.544181170055
 10
3232.335190428954
 20
-4743.717643372549
 10
3233.05050020807
 20
-4743.905590365129
 10
3233.707351905461
 20
-4744.10689145501
 10
3233.92457969921
 20
-4744.180940194388
  0
LINE
  5
2EF11
330
18
100
AcDbEntity
  8
姿図
100
AcDbLine
 10
3210.485616062414
 20
-4745.602995228913
 30
0.0
 11
3210.464733295383
 21
-4745.666843192906
 31
0.0
  0
LINE
  5
2EF12
330
18
100
AcDbEntity
  8
姿図
100
AcDbLine
 10
3236.178936162207
 20
-4745.706682190788
 30
0.0
 11
3236.173349529299
 21
-4745.691410642417
 31
0.0
  0
ARC
  5
2EF13
330
18
100
AcDbEntity
  8
姿図
100
AcDbCircle
 10
3235.192964705848
 20
-4745.482700082538
 30
0.0
 40
0.8539170924163961
100
AcDbArc
 50
342.0456055861413
 51
2.764379455954788
  0
ARC
  5
2EF14
330
18
100
AcDbEntity
  8
姿図
100
AcDbCircle
 10
3211.453358819642
 20
-4745.387917807124
 30
0.0
 40
0.8339979081280141
100
AcDbArc
 50
176.3767331127639
 51
190.2799052053299
  0
SPLINE
  5
2EF15
330
18
100
AcDbEntity
  8
姿図
100
AcDbSpline
210
0.0
220
0.0
230
1.0
 70
     8
 71
     3
 72
    12
 73
     8
 74
     0
 42
0.0000000001
 43
0.0000000001
 40
0.0
 40
0.0
 40
0.0
 40
0.0
 40
0.5
 40
0.5
 40
0.75
 40
0.75
 40
1.0
 40
1.0
 40
1.0
 40
1.0
 10
3210.632748678423
 20
-4745.536750673282
 30
0.0
 10
3210.637628125585
 20
-4745.563840777728
 30
0.0
 10
3210.647674196648
 20
-4745.580662410946
 30
0.0
 10
3210.673578757596
 20
-4745.576958902769
 30
0.0
 10
3210.684206455269
 20
-4745.570780535536
 30
0.0
 10
3210.710074283039
 20
-4745.542298674314
 30
0.0
 10
3210.725534388964
 20
-4745.520369884557
 30
0.0
 10
3210.743699446386
 20
-4745.482112421109
 30
0.0
  0
SPLINE
  5
2EF16
330
18
100
AcDbEntity
  8
姿図
100
AcDbSpline
210
0.0
220
0.0
230
1.0
 70
     8
 71
     3
 72
    14
 73
    10
 74
     0
 42
0.0000000001
 43
0.0000000001
 40
0.0
 40
0.0
 40
0.0
 40
0.0
 40
0.1661387666711338
 40
0.3322810639598162
 40
0.4983185911495866
 40
0.6642256207955557
 40
0.8300897293427917
 40
0.9960093290257868
 40
1.0
 40
1.0
 40
1.0
 40
1.0
 10
3213.623739815561
 20
-4744.067002475496
 30
0.0
 10
3213.63485315848
 20
-4744.066018879677
 30
0.0
 10
3213.657080080486
 20
-4744.064051667143
 30
0.0
 10
3213.693115936435
 20
-4744.064899389695
 30
0.0
 10
3213.725944688614
 20
-4744.068518336153
 30
0.0
 10
3213.752708608794
 20
-4744.074757847321
 30
0.0
 10
3213.768841617188
 20
-4744.082798272347
 30
0.0
 10
3213.774991168707
 20
-4744.088958735802
 30
0.0
 10
3213.773183440856
 20
-4744.09197051735
 30
0.0
 10
3213.773140982875
 20
-4744.092041254858
 30
0.0
  0
ARC
  5
2EF17
330
18
100
AcDbEntity
  8
姿図
100
AcDbCircle
 10
3214.307453999218
 20
-4750.425796141455
 30
0.0
 40
6.395445408351878
100
AcDbArc
 50
96.13701481676201
 51
105.5553317761068
  0
SPLINE
  5
2EF18
330
18
100
AcDbEntity
  8
姿図
100
AcDbSpline
210
0.0
220
0.0
230
1.0
 70
     8
 71
     3
 72
     8
 73
     4
 74
     0
 42
0.0000000001
 43
0.0000000001
 40
0.0
 40
0.0
 40
0.0
 40
0.0
 40
1.0
 40
1.0
 40
1.0
 40
1.0
 10
3212.511182379111
 20
-4744.273605572097
 30
0.0
 10
3212.542089152632
 20
-4744.273860375441
 30
0.0
 10
3212.572286599615
 20
-4744.27051314787
 30
0.0
 10
3212.592394932851
 20
-4744.26460358496
 30
0.0
  0
LINE
  5
2EF19
330
18
100
AcDbEntity
  8
姿図
100
AcDbLine
 10
3212.447869160197
 20
-4744.273083612909
 30
0.0
 11
3212.511182043469
 21
-4744.273605580504
 31
0.0
  0
LINE
  5
2EF1A
330
18
100
AcDbEntity
  8
姿図
100
AcDbLine
 10
3212.447869160197
 20
-4744.273083612909
 30
0.0
 11
3212.335250127386
 21
-4744.272980264849
 31
0.0
  0
LWPOLYLINE
  5
2EF1B
330
18
100
AcDbEntity
  8
姿図
100
AcDbPolyline
 90
        3
 70
   128
 43
0.0
 10
3214.153242982329
 20
-4743.821176153153
 10
3213.822981980654
 20
-4743.822644461021
 10
3213.638872588364
 20
-4743.824359047067
  0
SPLINE
  5
2EF1C
330
18
100
AcDbEntity
  8
姿図
100
AcDbSpline
210
0.0
220
0.0
230
1.0
 70
     8
 71
     3
 72
     8
 73
     4
 74
     0
 42
0.0000000001
 43
0.0000000001
 40
0.0
 40
0.0
 40
0.0
 40
0.0
 40
1.0
 40
1.0
 40
1.0
 40
1.0
 10
3214.293226349622
 20
-4743.798052147615
 30
0.0
 10
3214.268909556544
 20
-4743.811829830177
 30
0.0
 10
3214.21282044756
 20
-4743.821097193549
 30
0.0
 10
3214.153243385724
 20
-4743.821176149377
 30
0.0
  0
ARC
  5
2EF1D
330
18
100
AcDbEntity
  8
姿図
100
AcDbCircle
 10
3216.863457098444
 20
-4748.394542908839
 30
0.0
 40
5.266290124720879
100
AcDbArc
 50
112.7203655399928
 51
119.2127128682783
  0
ARC
  5
2EF1E
330
18
100
AcDbEntity
  8
姿図
100
AcDbCircle
 10
3230.398458845524
 20
-4747.201563560067
 30
0.0
 40
3.878592932081906
100
AcDbArc
 50
51.08089564963721
 51
67.99160739106231
  0
SPLINE
  5
2EF1F
330
18
100
AcDbEntity
  8
姿図
100
AcDbSpline
210
0.0
220
0.0
230
1.0
 70
     8
 71
     3
 72
    10
 73
     6
 74
     0
 42
0.0000000001
 43
0.0000000001
 40
0.0
 40
0.0
 40
0.0
 40
0.0
 40
0.5
 40
0.5
 40
1.0
 40
1.0
 40
1.0
 40
1.0
 10
3233.073468688421
 20
-4744.206552663515
 30
0.0
 10
3233.032457436178
 20
-4744.213495369038
 30
0.0
 10
3232.978950150963
 20
-4744.214978282886
 30
0.0
 10
3232.886491044582
 20
-4744.206210677689
 30
0.0
 10
3232.849105029452
 20
-4744.196060874002
 30
0.0
 10
3232.835078212588
 20
-4744.183887471701
 30
0.0
  0
ARC
  5
2EF20
330
18
100
AcDbEntity
  8
姿図
100
AcDbCircle
 10
3228.691971090686
 20
-4718.278461077852
 30
0.0
 40
26.29569268945359
100
AcDbArc
 50
279.5915981682189
 51
280.9299041527392
  0
LWPOLYLINE
  5
2EF21
330
18
100
AcDbEntity
  8
姿図
100
AcDbPolyline
 90
        3
 70
   128
 43
0.0
 10
3234.580603885201
 20
-4744.461022390954
 10
3234.470487901524
 20
-4744.456728693584
 10
3234.291810635218
 20
-4744.453170650639
  0
LINE
  5
2EF22
330
18
100
AcDbEntity
  8
姿図
100
AcDbLine
 10
3234.291810635218
 20
-4744.453170650639
 30
0.0
 11
3234.228497751947
 21
-4744.452648683046
 31
0.0
  0
SPLINE
  5
2EF23
330
18
100
AcDbEntity
  8
姿図
100
AcDbSpline
210
0.0
220
0.0
230
1.0
 70
     8
 71
     3
 72
     8
 73
     4
 74
     0
 42
0.0000000001
 43
0.0000000001
 40
0.0
 40
0.0
 40
0.0
 40
0.0
 40
1.0
 40
1.0
 40
1.0
 40
1.0
 10
3234.148614999077
 20
-4744.442318573847
 30
0.0
 10
3234.167887775822
 20
-4744.44855280205
 30
0.0
 10
3234.197590630831
 20
-4744.452393865667
 30
0.0
 10
3234.228497417841
 20
-4744.452648669122
 30
0.0
  0
ARC
  5
2EF24
330
18
100
AcDbEntity
  8
姿図
100
AcDbCircle
 10
3232.521648783488
 20
-4749.681839336573
 30
0.0
 40
5.486310005272271
100
AcDbArc
 50
72.74948187401945
 51
81.28432921480047
  0
SPLINE
  5
2EF25
330
18
100
AcDbEntity
  8
姿図
100
AcDbSpline
210
0.0
220
0.0
230
1.0
 70
     8
 71
     3
 72
     8
 73
     4
 74
     0
 42
0.0000000001
 43
0.0000000001
 40
0.0
 40
0.0
 40
0.0
 40
0.0
 40
1.0
 40
1.0
 40
1.0
 40
1.0
 10
3233.238938416469
 20
-4744.259060004988
 30
0.0
 10
3233.272464785379
 20
-4744.253361537746
 30
0.0
 10
3233.318543599629
 20
-4744.253289869405
 30
0.0
 10
3233.352995356539
 20
-4744.258882616104
 30
0.0
  0
ARC
  5
2EF26
330
18
100
AcDbEntity
  8
姿図
100
AcDbCircle
 10
3228.389708961389
 20
-4715.727183913108
 30
0.0
 40
28.94102586962006
100
AcDbArc
 50
279.3523128334842
 51
279.6457237462933
  0
SPLINE
  5
2EF27
330
18
100
AcDbEntity
  8
姿図
100
AcDbSpline
210
0.0
220
0.0
230
1.0
 70
     8
 71
     3
 72
    11
 73
     7
 74
     0
 42
0.0000000001
 43
0.0000000001
 40
0.0
 40
0.0
 40
0.0
 40
0.0
 40
0.1092650681943659
 40
0.4495829073167856
 40
0.7898745939633587
 40
1.0
 40
1.0
 40
1.0
 40
1.0
 10
3233.047162750676
 20
-4744.305666336747
 30
0.0
 10
3233.046784935727
 20
-4744.30470783886
 30
0.0
 10
3233.045230375382
 20
-4744.300763995936
 30
0.0
 10
3233.05468042764
 20
-4744.294014642802
 30
0.0
 10
3233.07174383417
 20
-4744.287463865608
 30
0.0
 10
3233.086956552418
 20
-4744.284608610995
 30
0.0
 10
3233.092764109341
 20
-4744.283518598449
 30
0.0
  0
ARC
  5
2EF28
330
18
100
AcDbEntity
  8
姿図
100
AcDbCircle
 10
3214.320891706935
 20
-4750.691068893767
 30
0.0
 40
6.127283057683976
100
AcDbArc
 50
96.23935498419513
 51
105.5994110758136
  0
ARC
  5
2EF29
330
18
100
AcDbEntity
  8
姿図
100
AcDbCircle
 10
3212.712919454599
 20
-4744.677446722675
 30
0.0
 40
0.1188664932799786
100
AcDbArc
 50
177.6419717462918
 51
250.4813361209662
  0
ARC
  5
2EF2A
330
18
100
AcDbEntity
  8
姿図
100
AcDbCircle
 10
3214.298776257332
 20
-4750.778051976275
 30
0.0
 40
6.338991885594371
100
AcDbArc
 50
96.23932748795006
 51
105.5994564946983
  0
ARC
  5
2EF2B
330
18
100
AcDbEntity
  8
姿図
100
AcDbCircle
 10
3213.762871444222
 20
-4744.490666872265
 30
0.0
 40
0.1536720660619699
100
AcDbArc
 50
174.7510662902669
 51
225.3974089606002
  0
LWPOLYLINE
  5
2EF2C
330
18
100
AcDbEntity
  8
姿図
100
AcDbPolyline
 90
        3
 70
   128
 43
0.0
 10
3213.609843781949
 20
-4744.476608477362
 10
3213.615377124872
 20
-4744.313519427103
 10
3213.623739815561
 20
-4744.067002475496
  0
LWPOLYLINE
  5
2EF2D
330
18
100
AcDbEntity
  8
姿図
100
AcDbPolyline
 90
        3
 70
   128
 43
0.0
 10
3212.592394757979
 20
-4744.264603580738
 10
3212.593269907169
 20
-4744.467656408136
 10
3212.594153612967
 20
-4744.672556110587
  0
ARC
  5
2EF2E
330
18
100
AcDbEntity
  8
姿図
100
AcDbCircle
 10
3211.495823622441
 20
-4743.9768430287
 30
0.0
 40
1.675641085221933
100
AcDbArc
 50
242.8676391563436
 51
256.4581204509281
  0
ARC
  5
2EF2F
330
18
100
AcDbEntity
  8
姿図
100
AcDbCircle
 10
3212.269856875461
 20
-4749.805994390107
 30
0.0
 40
5.002043607312415
100
AcDbArc
 50
88.00638643644218
 51
104.4719017064754
  0
LINE
  5
2EF30
330
18
100
AcDbEntity
  8
姿図
100
AcDbLine
 10
3212.510634923744
 20
-4744.807528905189
 30
0.0
 11
3212.443868468895
 21
-4744.806978465467
 31
0.0
  0
SPLINE
  5
2EF31
330
18
100
AcDbEntity
  8
姿図
100
AcDbSpline
210
0.0
220
0.0
230
1.0
 70
     8
 71
     3
 72
     8
 73
     4
 74
     0
 42
0.0000000001
 43
0.0000000001
 40
0.0
 40
0.0
 40
0.0
 40
0.0
 40
1.0
 40
1.0
 40
1.0
 40
1.0
 10
3212.673204954262
 20
-4744.789482249417
 30
0.0
 10
3212.632989592579
 20
-4744.801326876095
 30
0.0
 10
3212.572523523173
 20
-4744.808039109547
 30
0.0
 10
3212.510634847972
 20
-4744.807528883487
 30
0.0
  0
ARC
  5
2EF32
330
18
100
AcDbEntity
  8
姿図
100
AcDbCircle
 10
3214.795295771597
 20
-4745.940526484008
 30
0.0
 40
1.759871945405605
100
AcDbArc
 50
130.3881398803988
 51
137.3767089682357
  0
ARC
  5
2EF33
330
18
100
AcDbEntity
  8
姿図
100
AcDbCircle
 10
3214.147155332879
 20
-4748.750632484056
 30
0.0
 40
4.053782088654378
100
AcDbArc
 50
99.18121998630734
 51
108.2216066250741
  0
LINE
  5
2EF34
330
18
100
AcDbEntity
  8
姿図
100
AcDbLine
 10
3212.437709822749
 20
-4744.896487768632
 30
0.0
 11
3212.879565494188
 21
-4744.900130539744
 31
0.0
  0
ARC
  5
2EF35
330
18
100
AcDbEntity
  8
姿図
100
AcDbCircle
 10
3233.214480843886
 20
-4744.678001642728
 30
0.0
 40
0.1376179488145411
100
AcDbArc
 50
306.2915791434554
 51
4.496084863745019
  0
ARC
  5
2EF36
330
18
100
AcDbEntity
  8
姿図
100
AcDbCircle
 10
3233.370341261703
 20
-4744.678342958634
 30
0.0
 40
0.1332825615259311
100
AcDbArc
 50
175.2744039121713
 51
236.0650935706463
  0
ARC
  5
2EF37
330
18
100
AcDbEntity
  8
姿図
100
AcDbCircle
 10
3233.295117037108
 20
-4745.068378792422
 30
0.0
 40
0.4051324703095239
100
AcDbArc
 50
81.97504656011208
 51
98.17451786857416
  0
LWPOLYLINE
  5
2EF38
330
18
100
AcDbEntity
  8
姿図
100
AcDbPolyline
 90
        3
 70
   128
 43
0.0
 10
3233.352995781624
 20
-4744.258882611442
 10
3233.352176886112
 20
-4744.512244991677
 10
3233.351675299982
 20
-4744.667213637653
  0
LWPOLYLINE
  5
2EF39
330
18
100
AcDbEntity
  8
姿図
100
AcDbPolyline
 90
        3
 70
   128
 43
0.0
 10
3233.237511769921
 20
-4744.667362643506
 10
3233.238053521294
 20
-4744.512404754657
 10
3233.238938406824
 20
-4744.259059984821
  0
ARC
  5
2EF3A
330
18
100
AcDbEntity
  8
姿図
100
AcDbCircle
 10
3232.52200475167
 20
-4750.060167666073
 30
0.0
 40
5.456400495873927
100
AcDbArc
 50
72.7140374653916
 51
81.25399016540887
  0
ARC
  5
2EF3B
330
18
100
AcDbEntity
  8
姿図
100
AcDbCircle
 10
3234.025442231178
 20
-4744.85341677478
 30
0.0
 40
0.1179260686292616
100
AcDbArc
 50
287.6207377687777
 51
1.556790103901946
  0
ARC
  5
2EF3C
330
18
100
AcDbEntity
  8
姿図
100
AcDbCircle
 10
3232.493966813915
 20
-4750.001788185808
 30
0.0
 40
5.274192814053678
100
AcDbArc
 50
72.71409736501559
 51
81.25394260195646
  0
ARC
  5
2EF3D
330
18
100
AcDbEntity
  8
姿図
100
AcDbCircle
 10
3228.387451671625
 20
-4716.106482393223
 30
0.0
 40
28.96975946790155
100
AcDbArc
 50
279.3607851749855
 51
279.6377317367109
  0
ARC
  5
2EF3E
330
18
100
AcDbEntity
  8
姿図
100
AcDbCircle
 10
3228.405583885435
 20
-4715.990878908921
 30
0.0
 40
29.21032241962516
100
AcDbArc
 50
279.3607809865721
 51
279.6377667973041
  0
ARC
  5
2EF3F
330
18
100
AcDbEntity
  8
姿図
100
AcDbCircle
 10
3233.233510171565
 20
-4744.701747693595
 30
0.0
 40
0.1345804000389708
100
AcDbArc
 50
175.1940195190529
 51
235.1779441710998
  0
LWPOLYLINE
  5
2EF40
330
18
100
AcDbEntity
  8
姿図
100
AcDbPolyline
 90
        3
 70
   128
 43
0.0
 10
3234.143324771882
 20
-4744.850212986478
 10
3234.144664398936
 20
-4744.746947823844
 10
3234.14861517433
 20
-4744.442318572509
  0
LWPOLYLINE
  5
2EF41
330
18
100
AcDbEntity
  8
姿図
100
AcDbPolyline
 90
        3
 70
   128
 43
0.0
 10
3233.092764109341
 20
-4744.283518598449
 10
3233.096881119674
 20
-4744.535881413308
 10
3233.099402940115
 20
-4744.690472297913
  0
SPLINE
  5
2EF42
330
18
100
AcDbEntity
  8
姿図
100
AcDbSpline
210
0.0
220
0.0
230
1.0
 70
     8
 71
     3
 72
     8
 73
     4
 74
     0
 42
0.0000000001
 43
0.0000000001
 40
0.0
 40
0.0
 40
0.0
 40
0.0
 40
1.0
 40
1.0
 40
1.0
 40
1.0
 10
3234.221043564629
 20
-4744.986515043025
 30
0.0
 10
3234.159154862475
 20
-4744.986004816742
 30
0.0
 10
3234.09968050274
 20
-4744.978303758427
 30
0.0
 10
3234.061139759742
 20
-4744.965809851593
 30
0.0
  0
LINE
  5
2EF43
330
18
100
AcDbEntity
  8
姿図
100
AcDbLine
 10
3234.287809943913
 20
-4744.987065503201
 30
0.0
 11
3234.221043489064
 21
-4744.986515063477
 31
0.0
  0
ARC
  5
2EF44
330
18
100
AcDbEntity
  8
姿図
100
AcDbCircle
 10
3234.431976589692
 20
-4749.259996124399
 30
0.0
 40
4.275361986467572
100
AcDbArc
 50
70.50888603346044
 51
91.93239930509562
  0
ARC
  5
2EF45
330
18
100
AcDbEntity
  8
姿図
100
AcDbCircle
 10
3235.109917663228
 20
-4745.415962011683
 30
0.0
 40
0.838470550000528
100
AcDbArc
 50
341.9584299769679
 51
10.169557441369
  0
ARC
  5
2EF46
330
18
100
AcDbEntity
  8
姿図
100
AcDbCircle
 10
3235.14015849701
 20
-4744.034441096704
 30
0.0
 40
1.811583789448961
100
AcDbArc
 50
283.4236229325421
 51
295.0487069871563
  0
LINE
  5
2EF47
330
18
100
AcDbEntity
  8
姿図
100
AcDbLine
 10
3233.839795626329
 20
-4745.072932035252
 30
0.0
 11
3234.281651297768
 21
-4745.076574806366
 31
0.0
  0
ARC
  5
2EF48
330
18
100
AcDbEntity
  8
姿図
100
AcDbCircle
 10
3232.577794864344
 20
-4748.565315748211
 30
0.0
 40
3.713406781079751
100
AcDbArc
 50
70.13227321105532
 51
79.71919468711177
  0
ARC
  5
2EF49
330
18
100
AcDbEntity
  8
姿図
100
AcDbCircle
 10
3232.139555954342
 20
-4745.756421694061
 30
0.0
 40
1.387804962510394
100
AcDbArc
 50
37.50267566002096
 51
42.87099257041048
  0
LWPOLYLINE
  5
2EF4A
330
18
100
AcDbEntity
  8
姿図
100
AcDbPolyline
 90
        3
 70
   128
 43
0.0
 10
3213.500343500992
 20
-4744.748784951175
 10
3213.511792772351
 20
-4744.751163455947
 10
3213.518454928269
 20
-4744.750729966659
  0
ARC
  5
2EF4B
330
18
100
AcDbEntity
  8
姿図
100
AcDbCircle
 10
3212.892635459115
 20
-4744.835198936801
 30
0.0
 40
0.0662339568798465
100
AcDbArc
 50
258.6191159704128
 51
288.8004668639286
  0
ARC
  5
2EF4C
330
18
100
AcDbEntity
  8
姿図
100
AcDbCircle
 10
3209.225730075635
 20
-4744.686284475397
 30
0.0
 40
3.287141626533738
100
AcDbArc
 50
357.8861968804728
 51
0.0820104485107621
  0
SPLINE
  5
2EF4D
330
18
100
AcDbEntity
  8
姿図
100
AcDbSpline
210
0.0
220
0.0
230
1.0
 70
     8
 71
     3
 72
     8
 73
     4
 74
     0
 42
0.0000000001
 43
0.0000000001
 40
0.0
 40
0.0
 40
0.0
 40
0.0
 40
1.0
 40
1.0
 40
1.0
 40
1.0
 10
3212.512868258169
 20
-4744.681579443454
 30
0.0
 10
3212.543811745558
 20
-4744.682081868325
 30
0.0
 10
3212.57404784521
 20
-4744.678725417702
 30
0.0
 10
3212.594153311315
 20
-4744.672556126416
 30
0.0
  0
ARC
  5
2EF4E
330
18
100
AcDbEntity
  8
姿図
100
AcDbCircle
 10
3209.158963620724
 20
-4744.685734035672
 30
0.0
 40
3.287141626594048
100
AcDbArc
 50
357.8861968804728
 51
0.0820104484521381
  0
LWPOLYLINE
  5
2EF4F
330
18
100
AcDbEntity
  8
姿図
100
AcDbPolyline
 90
        3
 70
   128
 43
0.0
 10
3212.512868334871
 20
-4744.681579419117
 10
3212.51223269954
 20
-4744.527884676396
 10
3212.511182043469
 20
-4744.273605580504
  0
LINE
  5
2EF50
330
18
100
AcDbEntity
  8
姿図
100
AcDbLine
 10
3212.446101880022
 20
-4744.681028979399
 30
0.0
 11
3212.447869160197
 21
-4744.273083612909
 31
0.0
  0
LINE
  5
2EF51
330
18
100
AcDbEntity
  8
姿図
100
AcDbLine
 10
3212.446101880022
 20
-4744.681028979399
 30
0.0
 11
3212.512868334871
 21
-4744.681579419117
 31
0.0
  0
LWPOLYLINE
  5
2EF52
330
18
100
AcDbEntity
  8
姿図
100
AcDbPolyline
 90
        3
 70
   128
 43
0.0
 10
3233.22114484707
 20
-4744.913090904085
 10
3233.228526884465
 20
-4744.913713252376
 10
3233.240536202475
 20
-4744.911528146213
  0
ARC
  5
2EF53
330
18
100
AcDbEntity
  8
姿図
100
AcDbCircle
 10
3233.827528661744
 20
-4745.004667574497
 30
0.0
 40
0.0693578764270622
100
AcDbArc
 50
249.4675147869732
 51
280.1871942675965
  0
SPLINE
  5
2EF54
330
18
100
AcDbEntity
  8
姿図
100
AcDbSpline
210
0.0
220
0.0
230
1.0
 70
     8
 71
     3
 72
     8
 73
     4
 74
     0
 42
0.0000000001
 43
0.0000000001
 40
0.0
 40
0.0
 40
0.0
 40
0.0
 40
1.0
 40
1.0
 40
1.0
 40
1.0
 10
3234.143325072383
 20
-4744.850213007274
 30
0.0
 10
3234.162591110772
 20
-4744.856706876263
 30
0.0
 10
3234.192331290717
 20
-4744.860557798141
 30
0.0
 10
3234.223276974827
 20
-4744.86056560299
 30
0.0
  0
ARC
  5
2EF55
330
18
100
AcDbEntity
  8
姿図
100
AcDbCircle
 10
3230.936138640893
 20
-4744.865270633684
 30
0.0
 40
3.287141626594435
100
AcDbArc
 50
357.8861968804728
 51
0.0820104484521381
  0
LWPOLYLINE
  5
2EF56
330
18
100
AcDbEntity
  8
姿図
100
AcDbPolyline
 90
        3
 70
   128
 43
0.0
 10
3234.228497751947
 20
-4744.452648683046
 10
3234.225244097557
 20
-4744.706892293102
 10
3234.22327690019
 20
-4744.86056557741
  0
ARC
  5
2EF57
330
18
100
AcDbEntity
  8
姿図
100
AcDbCircle
 10
3231.002905095746
 20
-4744.865821073406
 30
0.0
 40
3.287141626593395
100
AcDbArc
 50
357.8861968805314
 51
0.0820104485107621
  0
LINE
  5
2EF58
330
18
100
AcDbEntity
  8
姿図
100
AcDbLine
 10
3234.22327690019
 20
-4744.86056557741
 30
0.0
 11
3234.29004335504
 21
-4744.861116017133
 31
0.0
  0
LINE
  5
2EF59
330
18
100
AcDbEntity
  8
姿図
100
AcDbLine
 10
3234.29004335504
 20
-4744.861116017133
 30
0.0
 11
3234.291810635218
 21
-4744.453170650639
 31
0.0
  0
LWPOLYLINE
  5
2EF5A
330
18
100
AcDbEntity
  8
姿図
100
AcDbPolyline
 90
        3
 70
   128
 43
0.0
 10
3212.437709822749
 20
-4744.896487768632
 10
3212.437363829438
 20
-4744.899728376956
 10
3212.437255958918
 20
-4744.899939239238
  0
LWPOLYLINE
  5
2EF5B
330
18
100
AcDbEntity
  8
姿図
100
AcDbPolyline
 90
        3
 70
   128
 43
0.0
 10
3234.281197433936
 20
-4745.080026276968
 10
3234.281305304456
 20
-4745.079815414691
 10
3234.281651297768
 20
-4745.076574806366
  0
ARC
  5
2EF5C
330
18
100
AcDbEntity
  8
姿図
100
AcDbCircle
 10
3210.731777618101
 20
-4745.573833096377
 30
0.0
 40
0.1057443619640974
100
AcDbArc
 50
90.06834721418853
 51
159.4710998061616
  0
ARC
  5
2EF5D
330
18
100
AcDbEntity
  8
姿図
100
AcDbCircle
 10
3235.90504481467
 20
-4745.782251554982
 30
0.0
 40
0.1066304255218803
100
AcDbArc
 50
19.91615597258382
 51
88.86211068472851
  0
SPLINE
  5
2EF5E
330
18
100
AcDbEntity
  8
姿図
100
AcDbSpline
210
0.0
220
0.0
230
1.0
 70
     8
 71
     3
 72
     9
 73
     5
 74
     0
 42
0.0000000001
 43
0.0000000001
 40
0.0
 40
0.0
 40
0.0
 40
0.0
 40
0.2405252225589074
 40
1.0
 40
1.0
 40
1.0
 40
1.0
 10
3210.794716960256
 20
-4745.509179404737
 30
0.0
 10
3210.788392397436
 20
-4745.507745878676
 30
0.0
 10
3210.762097596604
 20
-4745.501785896411
 30
0.0
 10
3210.744793501308
 20
-4745.482634109072
 30
0.0
 10
3210.731651477381
 20
-4745.468088809649
 30
0.0
  0
LINE
  5
2EF5F
330
18
100
AcDbEntity
  8
姿図
100
AcDbLine
 10
3235.907162346661
 20
-4745.675642157155
 30
0.0
 11
3235.838148858424
 21
-4745.712805396023
 31
0.0
  0
LINE
  5
2EF60
330
18
100
AcDbEntity
  8
姿図
100
AcDbLine
 10
3237.223528416379
 20
-4768.036433318381
 30
0.0
 11
3237.22350575192
 21
-4768.042049503082
 31
0.0
  0
LWPOLYLINE
  5
2EF61
330
18
100
AcDbEntity
  8
姿図
100
AcDbPolyline
 90
        9
 70
   128
 43
0.0
 10
3209.944358480294
 20
-4760.925282685829
 10
3209.966320261704
 20
-4761.188816290557
 10
3210.068293246879
 20
-4761.451425707686
 10
3210.249664418642
 20
-4761.711531527004
 10
3210.509342486549
 20
-4761.967569509621
 10
3210.845766017877
 20
-4762.217999808765
 10
3211.256911572905
 20
-4762.461316128584
 10
3211.740306670834
 20
-4762.696055450255
 10
3212.055779838523
 20
-4762.8289696917
  0
LWPOLYLINE
  5
2EF62
330
18
100
AcDbEntity
  8
姿図
100
AcDbPolyline
 90
       17
 70
   128
 43
0.0
 10
3234.471506103293
 20
-4762.918751870492
 10
3234.824864567806
 20
-4762.772228138217
 10
3235.304861675262
 20
-4762.540667829441
 10
3235.71248222237
 20
-4762.30005311335
 10
3236.045272634443
 20
-4762.051831096787
 10
3236.301232969704
 20
-4761.797494578682
 10
3236.478822398611
 20
-4761.538573189687
 10
3236.576974447962
 20
-4761.276624162372
 10
3236.595097655975
 20
-4761.013222810515
 10
3236.533083022916
 20
-4760.749953328123
 10
3236.391304685371
 20
-4760.488398989617
 10
3236.170613739478
 20
-4760.230132836499
 10
3235.872338896003
 20
-4759.976708156645
 10
3235.498272522884
 20
-4759.729649013753
 10
3235.050666390707
 20
-4759.490441306736
 10
3234.532209907894
 20
-4759.260523529595
 10
3234.161502564858
 20
-4759.117746448505
  0
LWPOLYLINE
  5
2EF63
330
18
100
AcDbEntity
  8
姿図
100
AcDbPolyline
 90
       10
 70
   128
 43
0.0
 10
3212.855319128663
 20
-4758.875598308946
 10
3212.56482723641
 20
-4758.970726567373
 10
3211.98180660647
 20
-4759.186113420611
 10
3211.466675654039
 20
-4759.41262063826
 10
3211.022532721351
 20
-4759.648885741141
 10
3210.652048696336
 20
-4759.893488113674
 10
3210.35745188692
 20
-4760.144956512506
 10
3210.140513732162
 20
-4760.401778567913
 10
3210.002539416598
 20
-4760.662409798156
 10
3209.944358480294
 20
-4760.925282685829
  0
LWPOLYLINE
  5
2EF64
330
18
100
AcDbEntity
  8
姿図
100
AcDbPolyline
 90
       42
 70
   128
 43
0.0
 10
3209.684086554857
 20
-4760.670432225121
 10
3209.74219440818
 20
-4760.405663096577
 10
3209.879695506026
 20
-4760.143105082533
 10
3210.095782599411
 20
-4759.88429898137
 10
3210.389189282686
 20
-4759.630763560582
 10
3210.758193523966
 20
-4759.383986711344
 10
3211.200628009238
 20
-4759.145416659325
 10
3211.713898269294
 20
-4758.91645330165
 10
3212.294991013064
 20
-4758.698440331992
 10
3212.94049709586
 20
-4758.492656989854
 10
3213.646628536372
 20
-4758.300311374301
 10
3214.40924053713
 20
-4758.122531813046
 10
3215.223857176616
 20
-4757.960361488936
 10
3216.085700064184
 20
-4757.814752470213
 10
3216.989710719206
 20
-4757.686558944365
 10
3217.930582965928
 20
-4757.576533513383
 10
3218.902796924923
 20
-4757.485321516292
 10
3219.900645968991
 20
-4757.413458520747
 10
3220.918275252866
 20
-4757.361365924181
 10
3221.949712598937
 20
-4757.329349718991
 10
3222.988905160299
 20
-4757.317597567719
 10
3224.029754375087
 20
-4757.32617859473
 10
3225.066152371265
 20
-4757.355042445166
 10
3226.092017008514
 20
-4757.404019573836
 10
3227.101328112323
 20
-4757.472822785127
 10
3228.088162360047
 20
-4757.561048017097
 10
3229.046729500117
 20
-4757.668177867159
 10
3229.971403032925
 20
-4757.793583334456
 10
3230.856758091882
 20
-4757.936528848686
 10
3231.697598023732
 20
-4758.096175219848
 10
3232.488987560681
 20
-4758.271585869438
 10
3233.226284668973
 20
-4758.461731064826
 10
3233.905161972113
 20
-4758.66549504653
 10
3234.521634552286
 20
-4758.881682463377
 10
3235.072084874288
 20
-4759.109024163336
 10
3235.553283594031
 20
-4759.346186177512
 10
3235.962405636653
 20
-4759.59177667924
 10
3236.297052003998
 20
-4759.844354603975
 10
3236.555257015453
 20
-4760.102437652591
 10
3236.735505222898
 20
-4760.364511243292
 10
3236.83674053429
 20
-4760.629037461325
 10
3236.860180336318
 20
-4760.81160974209
  0
LWPOLYLINE
  5
2EF65
330
18
100
AcDbEntity
  8
姿図
100
AcDbPolyline
 90
       18
 70
   128
 43
0.0
 10
3236.909398976298
 20
-4748.707889821473
 10
3236.874475458299
 20
-4748.45594347608
 10
3236.761463167463
 20
-4748.193938704019
 10
3236.570899993433
 20
-4747.934582805088
 10
3236.303883831463
 20
-4747.679372334687
 10
3235.961955445082
 20
-4747.42977951051
 10
3235.547089248617
 20
-4747.187244627343
 10
3235.061676400784
 20
-4746.953166981125
 10
3234.50851949354
 20
-4746.728897129772
 10
3233.890809711487
 20
-4746.515729133625
 10
3233.212110822027
 20
-4746.314892603958
 10
3232.476338179103
 20
-4746.127546448056
 10
3231.687737786676
 20
-4745.954771745934
 10
3230.850859479243
 20
-4745.797565199175
 10
3229.970530981817
 20
-4745.656833952303
 10
3229.051832490753
 20
-4745.533389921988
 10
3228.100063885932
 20
-4745.427945058459
 10
3227.258958600661
 20
-4745.35336598897
  0
LWPOLYLINE
  5
2EF66
330
18
100
AcDbEntity
  8
姿図
100
AcDbPolyline
 90
       21
 70
   128
 43
0.0
 10
3222.011150102286
 20
-4745.1996952751
 10
3220.988894060891
 20
-4745.231082717045
 10
3219.97944001772
 20
-4745.282233873207
 10
3218.989260749735
 20
-4745.352833268307
 10
3218.02406935551
 20
-4745.442474223549
 10
3217.089435134297
 20
-4745.550638905196
 10
3216.190749872016
 20
-4745.676703507842
 10
3215.333199668652
 20
-4745.819940752794
 10
3214.521731535895
 20
-4745.97952408095
 10
3213.761027226866
 20
-4746.154532898299
 10
3213.055476613326
 20
-4746.343957321192
 10
3212.409149995568
 20
-4746.546704278119
 10
3211.825776209991
 20
-4746.761604279897
 10
3211.308720796389
 20
-4746.987417321498
 10
3210.860968912695
 20
-4747.222840560687
 10
3210.485101453077
 20
-4747.466515692411
 10
3210.183288678462
 20
-4747.717036591644
 10
3209.957272081055
 20
-4747.972958100445
 10
3209.808354134126
 20
-4748.232803452665
 10
3209.737395708567
 20
-4748.495073511132
 10
3209.731390998061
 20
-4748.573767512616
  0
LWPOLYLINE
  5
2EF67
330
18
100
AcDbEntity
  8
姿図
100
AcDbPolyline
 90
       10
 70
   128
 43
0.0
 10
3210.210170579234
 20
-4760.927474108725
 10
3210.267191132555
 20
-4760.669844773746
 10
3210.402413805343
 20
-4760.414412389162
 10
3210.615023873049
 20
-4760.162713161383
 10
3210.903744559929
 20
-4759.916260869703
 10
3211.266838648275
 20
-4759.676537632695
 10
3211.70212173416
 20
-4759.444985267122
 10
3212.206977455548
 20
-4759.222996290709
 10
3212.778368767118
 20
-4759.011905761219
 10
3213.142009251789
 20
-4758.894015530333
  0
LWPOLYLINE
  5
2EF68
330
18
100
AcDbEntity
  8
姿図
100
AcDbPolyline
 90
       18
 70
   128
 43
0.0
 10
3233.398611795212
 20
-4758.970513162544
 10
3233.733071713192
 20
-4759.081050504716
 10
3234.30756559361
 20
-4759.295922096739
 10
3234.815679828069
 20
-4759.521253682678
 10
3235.254357958772
 20
-4759.75568988107
 10
3235.620962167494
 20
-4759.99782092236
 10
3235.913288316287
 20
-4760.246190530354
 10
3236.129576035942
 20
-4760.499305004016
 10
3236.268526622839
 20
-4760.755642053339
 10
3236.329304347727
 20
-4761.013660088029
 10
3236.311542646361
 20
-4761.271807329248
 10
3236.215348339892
 20
-4761.528531246383
 10
3236.04130099473
 20
-4761.782287860741
 10
3235.790447409087
 20
-4762.031551102061
 10
3235.464294176208
 20
-4762.274821807921
 10
3235.064805099629
 20
-4762.510636980322
 10
3234.594382101351
 20
-4762.737578316602
 10
3234.414793727079
 20
-4762.81411695748
  0
LWPOLYLINE
  5
2EF69
330
18
100
AcDbEntity
  8
姿図
100
AcDbPolyline
 90
        9
 70
   128
 43
0.0
 10
3212.123950121885
 20
-4762.729310334297
 10
3211.970294752152
 20
-4762.662925026739
 10
3211.496541836277
 20
-4762.43286815055
 10
3211.093597934634
 20
-4762.194405227406
 10
3210.763884928278
 20
-4761.948970311599
 10
3210.509386449786
 20
-4761.698039582249
 10
3210.331633909792
 20
-4761.443122105339
 10
3210.231694444716
 20
-4761.185750983973
 10
3210.210170579234
 20
-4760.927474108725
  0
LWPOLYLINE
  5
2EF6A
330
18
100
AcDbEntity
  8
姿図
100
AcDbPolyline
 90
        9
 70
   128
 43
0.0
 10
3210.470658715044
 20
-4760.720180944436
 10
3210.494268297063
 20
-4760.937612749915
 10
3210.594885941122
 20
-4761.192955058972
 10
3210.773658060805
 20
-4761.445793663472
 10
3211.029481313762
 20
-4761.694569624347
 10
3211.360779229062
 20
-4761.937749331942
 10
3211.765509390435
 20
-4762.173833346681
 10
3212.241175418111
 20
-4762.401366272209
 10
3212.298106851003
 20
-4762.425983352019
  0
LWPOLYLINE
  5
2EF6B
330
18
100
AcDbEntity
  8
姿図
100
AcDbPolyline
 90
        8
 70
   128
 43
0.0
 10
3234.217443315563
 20
-4762.520041889531
 10
3234.573112195732
 20
-4762.361865054773
 10
3235.009852342213
 20
-4762.132718336364
 10
3235.374219381295
 20
-4761.895273868494
 10
3235.663966992962
 20
-4761.6509957333
 10
3235.877309574791
 20
-4761.40138982264
 10
3236.012930632903
 20
-4761.147995125836
 10
3236.069996118778
 20
-4760.892373910129
  0
LINE
  5
2EF6C
330
18
100
AcDbEntity
  8
姿図
100
AcDbLine
 10
3230.428904949648
 20
-4744.217172523504
 30
0.0
 11
3230.426796327722
 21
-4745.541698043163
 31
0.0
  0
LINE
  5
2EF6D
330
18
100
AcDbEntity
  8
姿図
100
AcDbLine
 10
3218.055938593141
 20
-4745.266481355678
 30
0.0
 11
3218.061914018579
 21
-4743.788496027247
 31
0.0
  0
LINE
  5
2EF6E
330
18
100
AcDbEntity
  8
姿図
100
AcDbLine
 10
3218.177201613884
 20
-4743.881645403494
 30
0.0
 11
3218.171918482408
 21
-4745.252644650113
 31
0.0
  0
ARC
  5
2EF6F
330
18
100
AcDbEntity
  8
姿図
100
AcDbCircle
 10
3222.717599530201
 20
-4772.026237916704
 30
0.0
 40
28.50847770353917
100
AcDbArc
 50
92.98971770485577
 51
99.16422703813466
  0
ARC
  5
2EF70
330
18
100
AcDbEntity
  8
姿図
100
AcDbCircle
 10
3216.547712501385
 20
-4747.670164803877
 30
0.0
 40
4.406289115421048
100
AcDbArc
 50
106.1011704106315
 51
129.4917140249248
  0
ARC
  5
2EF71
330
18
100
AcDbEntity
  8
姿図
100
AcDbCircle
 10
3230.255818940188
 20
-4747.367405527545
 30
0.0
 40
4.019626109315446
100
AcDbArc
 50
45.78794299499274
 51
74.10794875365898
  0
LINE
  5
2EF72
330
18
100
AcDbEntity
  8
姿図
100
AcDbLine
 10
3233.084013026932
 20
-4745.33140375794
 30
0.0
 11
3233.083508704935
 21
-4744.785893298963
 31
0.0
  0
LINE
  5
2EF73
330
18
100
AcDbEntity
  8
姿図
100
AcDbLine
 10
3230.259667906543
 20
-4745.525408042443
 30
0.0
 11
3230.261674517785
 21
-4744.320449881806
 31
0.0
  0
LINE
  5
2EF74
330
18
100
AcDbEntity
  8
姿図
100
AcDbLine
 10
3215.003128811746
 20
-4744.790694602396
 30
0.0
 11
3215.009387143505
 21
-4745.699260739405
 31
0.0
  0
ARC
  5
2EF75
330
18
100
AcDbEntity
  8
姿図
100
AcDbCircle
 10
3218.54058987654
 20
-4752.080746434495
 30
0.0
 40
8.102992441042127
100
AcDbArc
 50
103.7274272922694
 51
115.8847475636791
  0
LINE
  5
2EF76
330
18
100
AcDbEntity
  8
姿図
100
AcDbLine
 10
3214.909227817968
 20
-4745.719875945126
 30
0.0
 11
3214.902441731269
 21
-4744.712404975229
 31
0.0
  0
LINE
  5
2EF77
330
18
100
AcDbEntity
  8
姿図
100
AcDbLine
 10
3232.907030056747
 20
-4745.310216744552
 30
0.0
 11
3232.904270661882
 21
-4746.05885283641
 31
0.0
  0
LINE
  5
2EF78
330
18
100
AcDbEntity
  8
姿図
100
AcDbLine
 10
3232.33657797704
 20
-4745.918859870119
 30
0.0
 11
3232.34771648423
 21
-4745.334862248766
 31
0.0
  0
ARC
  5
2EF79
330
18
100
AcDbEntity
  8
姿図
100
AcDbCircle
 10
3230.143001938849
 20
-4747.740031725601
 30
0.0
 40
3.262760554946041
100
AcDbArc
 50
47.48986543195168
 51
66.69280792665015
  0
ARC
  5
2EF7A
330
18
100
AcDbEntity
  8
姿図
100
AcDbCircle
 10
3230.270355258311
 20
-4747.566662541137
 30
0.0
 40
3.195495426037441
100
AcDbArc
 50
47.00305026759178
 51
68.62308671739389
  0
LWPOLYLINE
  5
2EF7B
330
18
100
AcDbEntity
  8
姿図
100
AcDbPolyline
 90
        3
 70
   128
 43
0.0
 10
3212.97524311659
 20
-4744.876804414796
 10
3212.985096036872
 20
-4745.442932761505
 10
3212.998256124823
 20
-4746.193362282415
  0
LINE
  5
2EF7C
330
18
100
AcDbEntity
  8
姿図
100
AcDbLine
 10
3232.417861288972
 20
-4745.35412926142
 30
0.0
 11
3232.407022156642
 21
-4745.935894570786
 31
0.0
  0
LINE
  5
2EF7D
330
18
100
AcDbEntity
  8
姿図
100
AcDbLine
 10
3232.803448106881
 20
-4746.031757052974
 30
0.0
 11
3232.806014463557
 21
-4745.396366952983
 31
0.0
  0
SPLINE
  5
2EF7E
330
18
100
AcDbEntity
  8
姿図
100
AcDbSpline
210
0.0
220
0.0
230
1.0
 70
     8
 71
     3
 72
     9
 73
     5
 74
     0
 42
0.0000000001
 43
0.0000000001
 40
0.0
 40
0.0
 40
0.0
 40
0.0
 40
0.9510893996984059
 40
0.9999999999999998
 40
0.9999999999999998
 40
0.9999999999999998
 40
0.9999999999999998
 10
3233.124936652235
 20
-4745.346265966831
 30
0.0
 10
3233.131012613436
 20
-4745.608003382143
 30
0.0
 10
3233.137401036231
 20
-4745.883200871876
 30
0.0
 10
3233.230516725034
 20
-4746.138791490762
 30
0.0
 10
3233.235071069272
 20
-4746.151292581362
 30
0.0
  0
LINE
  5
2EF7F
330
18
100
AcDbEntity
  8
姿図
100
AcDbLine
 10
3233.124764195851
 20
-4744.834721665659
 30
0.0
 11
3233.124936652235
 21
-4745.346265966831
 31
0.0
  0
LWPOLYLINE
  5
2EF80
330
18
100
AcDbEntity
  8
姿図
100
AcDbPolyline
 90
        3
 70
   128
 43
0.0
 10
3233.707760721863
 20
-4746.292331007097
 10
3233.719989309615
 20
-4745.815443777629
 10
3233.739612011456
 20
-4745.045948755197
  0
LWPOLYLINE
  5
2EF81
330
18
100
AcDbEntity
  8
姿図
100
AcDbPolyline
 90
        3
 70
   128
 43
0.0
 10
3212.911279001957
 20
-4746.218471229882
 10
3212.892556728978
 20
-4745.171026916278
 10
3212.887760567588
 20
-4744.89969828989
  0
LINE
  5
2EF82
330
18
100
AcDbEntity
  8
姿図
100
AcDbLine
 10
3212.434555656505
 20
-4744.899954797769
 30
0.0
 11
3212.428585700497
 21
-4746.379291949158
 31
0.0
  0
LINE
  5
2EF83
330
18
100
AcDbEntity
  8
姿図
100
AcDbLine
 10
3233.825211206076
 20
-4745.074322778949
 30
0.0
 11
3233.792913361334
 21
-4746.319891876217
 31
0.0
  0
LINE
  5
2EF84
330
18
100
AcDbEntity
  8
姿図
100
AcDbLine
 10
3234.278497284194
 20
-4745.080004004388
 30
0.0
 11
3234.27283538518
 21
-4746.483005558641
 31
0.0
  0
LWPOLYLINE
  5
2EF85
330
18
100
AcDbEntity
  8
姿図
100
AcDbPolyline
 90
       14
 70
   128
 43
0.0
 10
3235.936834594467
 20
-4747.276435045537
 10
3236.176699741701
 20
-4747.079708410637
 10
3236.413193199725
 20
-4746.824081050947
 10
3236.571005702391
 20
-4746.56425590479
 10
3236.649186305298
 20
-4746.301795578932
 10
3236.647267018324
 20
-4746.038278561644
 10
3236.565257619297
 20
-4745.77528966933
 10
3236.403652151516
 20
-4745.51441054293
 10
3236.16342276299
 20
-4745.257210102027
 10
3235.846013527536
 20
-4745.005235262556
 10
3235.45333428509
 20
-4744.760001375403
 10
3234.987745671392
 20
-4744.522983321568
 10
3234.452049025269
 20
-4744.295606492399
 10
3234.078478789548
 20
-4744.157394488075
  0
LWPOLYLINE
  5
2EF86
330
18
100
AcDbEntity
  8
姿図
100
AcDbPolyline
 90
       15
 70
   128
 43
0.0
 10
3212.688558730387
 20
-4744.04024187396
 10
3212.473058106017
 20
-4744.114406072525
 10
3211.906697478446
 20
-4744.3326972598
 10
3211.409039424069
 20
-4744.561774061856
 10
3210.98307814103
 20
-4744.800258867238
 10
3210.631374430427
 20
-4745.046717368529
 10
3210.356044374554
 20
-4745.299667405573
 10
3210.158743158868
 20
-4745.557587613522
 10
3210.040657604289
 20
-4745.818926871886
 10
3210.002498718704
 20
-4746.082113474474
 10
3210.04449423034
 20
-4746.345564562942
 10
3210.166393770856
 20
-4746.60769572669
 10
3210.367462381049
 20
-4746.866930459929
 10
3210.646491543857
 20
-4747.121709670178
 10
3210.723786089916
 20
-4747.181204629321
  0
LWPOLYLINE
  5
2EF87
330
18
100
AcDbEntity
  8
姿図
100
AcDbPolyline
 90
       21
 70
   128
 43
0.0
 10
3209.742180576429
 20
-4745.827538935945
 10
3209.763350000705
 20
-4745.628816188443
 10
3209.861226235793
 20
-4745.364958978043
 10
3210.038150375617
 20
-4745.104085484
 10
3210.29308502828
 20
-4744.847726617178
 10
3210.62453297378
 20
-4744.597386861303
 10
3211.030550457069
 20
-4744.354535089141
 10
3211.508753568234
 20
-4744.120596764566
 10
3212.0563374068
 20
-4743.896944357225
 10
3212.670087258427
 20
-4743.684890608128
 10
3213.346402545062
 20
-4743.485680162899
 10
3214.081312962431
 20
-4743.300481512947
 10
3214.87050611892
 20
-4743.130381637992
 10
3215.709352365244
 20
-4742.976379011854
 10
3216.592927139423
 20
-4742.839377332487
 10
3217.51604589755
 20
-4742.720180348723
 10
3218.473291172048
 20
-4742.619487863293
 10
3219.459046059416
 20
-4742.537890299447
 10
3220.467525505104
 20
-4742.475866972962
 10
3221.492811165982
 20
-4742.433781911276
 10
3222.011150102286
 20
-4742.422825415926
  0
LWPOLYLINE
  5
2EF88
330
18
100
AcDbEntity
  8
姿図
100
AcDbPolyline
 90
       19
 70
   128
 43
0.0
 10
3227.258958600661
 20
-4742.574087530896
 10
3227.658086830808
 20
-4742.605485287579
 10
3228.631501829181
 20
-4742.703234748808
 10
3229.573813395254
 20
-4742.819587666438
 10
3230.479492195724
 20
-4742.953861724791
 10
3231.343223150191
 20
-4743.105268639267
 10
3232.15993813361
 20
-4743.272920135413
 10
3232.924842454222
 20
-4743.455832387261
 10
3233.633449033188
 20
-4743.652931760354
 10
3234.28159986193
 20
-4743.863061442827
 10
3234.865489841737
 20
-4744.084988840858
 10
3235.381693654473
 20
-4744.317411385547
 10
3235.82718077343
 20
-4744.55896484851
 10
3236.199338235657
 20
-4744.808232093858
 10
3236.49598087977
 20
-4745.06374998912
 10
3236.715369170262
 20
-4745.324019295541
 10
3236.856214497981
 20
-4745.587512562311
 10
3236.917691195064
 20
-4745.852683519021
 10
3236.920552620123
 20
-4745.935915772708
  0
LWPOLYLINE
  5
2EF89
330
18
100
AcDbEntity
  8
姿図
100
AcDbPolyline
 90
       15
 70
   128
 43
0.0
 10
3210.822120893786
 20
-4747.11164308442
 10
3210.817850253756
 20
-4747.108258897494
 10
3210.542591041112
 20
-4746.856921743792
 10
3210.344238334582
 20
-4746.601189263316
 10
3210.223986517359
 20
-4746.342599486941
 10
3210.182558378889
 20
-4746.082707622924
 10
3210.220201865473
 20
-4745.823076663014
 10
3210.336691693248
 20
-4745.56526809457
 10
3210.531327082563
 20
-4745.310832363521
 10
3210.802938233368
 20
-4745.061299692507
 10
3211.149889882025
 20
-4744.818170851721
 10
3211.570096539031
 20
-4744.582908022136
 10
3212.061030890614
 20
-4744.356925928205
 10
3212.619740901097
 20
-4744.14158391114
 10
3212.934132057651
 20
-4744.03483705266
  0
LWPOLYLINE
  5
2EF8A
330
18
100
AcDbEntity
  8
姿図
100
AcDbPolyline
 90
       14
 70
   128
 43
0.0
 10
3233.92457969921
 20
-4744.180940194388
 10
3234.301794748229
 20
-4744.320336305881
 10
3234.830255054353
 20
-4744.544641232965
 10
3235.289553207364
 20
-4744.778457286582
 10
3235.676927470353
 20
-4745.020378019723
 10
3235.990047963682
 20
-4745.268948663988
 10
3236.227032657762
 20
-4745.522674329163
 10
3236.386454545597
 20
-4745.780028998921
 10
3236.467355606648
 20
-4746.039464908313
 10
3236.469249090311
 20
-4746.299421821115
 10
3236.392124721169
 20
-4746.558336307949
 10
3236.236445124302
 20
-4746.814651235207
 10
3236.003146159073
 20
-4747.066825068953
 10
3235.838677365741
 20
-4747.205997663452
  0
ARC
  5
2EF8B
330
18
100
AcDbEntity
  8
姿図
100
AcDbCircle
 10
3211.740295682459
 20
-4745.839372000133
 30
0.0
 40
1.287177374198309
100
AcDbArc
 50
172.2970883812463
 51
240.0673652053413
  0
ARC
  5
2EF8C
330
18
100
AcDbEntity
  8
姿図
100
AcDbCircle
 10
3235.00188623483
 20
-4745.979636352759
 30
0.0
 40
1.208284116450942
100
AcDbArc
 50
297.2774437840772
 51
13.05594236055221
  0
SPLINE
  5
2EF8D
330
18
100
AcDbEntity
  8
姿図
100
AcDbSpline
210
0.0
220
0.0
230
1.0
 70
     8
 71
     3
 72
    11
 73
     7
 74
     0
 42
0.0000000001
 43
0.0000000001
 40
0.0
 40
0.0
 40
0.0
 40
0.0
 40
0.0398722001338179
 40
0.2483293151835056
 40
0.4558921093069479
 40
1.0
 40
1.0
 40
1.0
 40
1.0
 10
3235.89230599707
 20
-4745.718360713929
 30
0.0
 10
3235.894904770365
 20
-4745.722989771024
 30
0.0
 10
3235.911090272807
 20
-4745.751820148448
 30
0.0
 10
3235.935823010863
 20
-4745.775954421151
 30
0.0
 10
3235.978192412685
 20
-4745.798060991282
 30
0.0
 10
3235.993916086669
 20
-4745.76781933587
 30
0.0
 10
3236.005297899553
 20
-4745.745928468405
 30
0.0
  0
LINE
  5
2EF8E
330
18
100
AcDbEntity
  8
姿図
100
AcDbLine
 10
3214.294780277274
 20
-4743.668625169273
 30
0.0
 11
3214.29322665417
 21
-4743.798052166867
 31
0.0
  0
LINE
  5
2EF8F
330
18
100
AcDbEntity
  8
姿図
100
AcDbLine
 10
3232.835078253219
 20
-4744.183887468296
 30
0.0
 11
3232.833839624808
 21
-4743.860027151639
 31
0.0
  0
LINE
  5
2EF90
330
18
100
AcDbEntity
  8
姿図
100
AcDbLine
 10
3233.072350595102
 20
-4743.92544311958
 30
0.0
 11
3233.073468765986
 21
-4744.206552641631
 31
0.0
  0
LINE
  5
2EF91
330
18
100
AcDbEntity
  8
姿図
100
AcDbLine
 10
3214.153242982329
 20
-4743.821176153153
 30
0.0
 11
3214.1546707505
 21
-4743.700046631854
 31
0.0
  0
LWPOLYLINE
  5
2EF92
330
18
100
AcDbEntity
  8
姿図
100
AcDbPolyline
 90
        9
 70
   128
 43
0.0
 10
3213.609843781949
 20
-4744.476608477362
 10
3213.638492894559
 20
-4744.475474693766
 10
3213.668537614764
 20
-4744.476287174193
 10
3213.697493614971
 20
-4744.478978674659
 10
3213.722965821009
 20
-4744.483326570605
 10
3213.74284606805
 20
-4744.488971111211
 10
3213.755490320469
 20
-4744.495445510447
 10
3213.759853282918
 20
-4744.502214147849
 10
3213.759850182474
 20
-4744.502416032452
  0
ARC
  5
2EF93
330
18
100
AcDbEntity
  8
姿図
100
AcDbCircle
 10
3213.663171195147
 20
-4744.507228058699
 30
0.0
 40
0.0932143529496002
100
AcDbArc
 50
264.94949961643
 51
310.2219019972762
  0
ARC
  5
2EF94
330
18
100
AcDbEntity
  8
姿図
100
AcDbCircle
 10
3211.544949147003
 20
-4745.320516080794
 30
0.0
 40
0.8265777699155407
100
AcDbArc
 50
172.3099211797995
 51
190.2844158391558
  0
LWPOLYLINE
  5
2EF95
330
18
100
AcDbEntity
  8
姿図
100
AcDbPolyline
 90
       10
 70
   128
 43
0.0
 10
3211.104055724895
 20
-4745.458877756881
 10
3211.002741516757
 20
-4745.401696088612
 10
3210.922538048261
 20
-4745.311693480127
 10
3210.92886552152
 20
-4745.219730456339
 10
3211.021356206185
 20
-4745.131151582596
 10
3211.194635256408
 20
-4745.051104739578
 10
3211.4386315288
 20
-4744.984241948587
 10
3211.739164963487
 20
-4744.934449019004
 10
3212.078769511966
 20
-4744.904619784142
 10
3212.437709822749
 20
-4744.896487768632
  0
ARC
  5
2EF96
330
18
100
AcDbEntity
  8
姿図
100
AcDbCircle
 10
3213.507434113042
 20
-4744.653048747653
 30
0.0
 40
0.0959984241759075
100
AcDbArc
 50
265.7641757583645
 51
317.1804908461787
  0
LWPOLYLINE
  5
2EF97
330
18
100
AcDbEntity
  8
姿図
100
AcDbPolyline
 90
       10
 70
   128
 43
0.0
 10
3234.281651297768
 20
-4745.076574806366
 10
3234.639066222516
 20
-4745.090612637567
 10
3234.974183267063
 20
-4745.126004449729
 10
3235.267527870156
 20
-4745.180693461676
 10
3235.502051778984
 20
-4745.251501295371
 10
3235.664125431086
 20
-4745.334312871796
 10
3235.744328899583
 20
-4745.424315480283
 10
3235.738001426327
 20
-4745.516278504072
 10
3235.64551074166
 20
-4745.604857377812
 10
3235.561309369873
 20
-4745.649510974278
  0
ARC
  5
2EF98
330
18
100
AcDbEntity
  8
姿図
100
AcDbCircle
 10
3233.150305158799
 20
-4744.716504895438
 30
0.0
 40
0.0959345722224389
100
AcDbArc
 50
223.1731158037902
 51
273.7985989215188
  0
LWPOLYLINE
  5
2EF99
330
18
100
AcDbEntity
  8
姿図
100
AcDbPolyline
 90
        8
 70
   128
 43
0.0
 10
3233.052549317096
 20
-4744.712864314227
 10
3233.052822487624
 20
-4744.710885361555
 10
3233.055175938936
 20
-4744.706957348901
 10
3233.05989008202
 20
-4744.703126463255
 10
3233.066854566252
 20
-4744.69948137894
 10
3233.075908761616
 20
-4744.696106567739
 10
3233.086842877314
 20
-4744.693080168697
 10
3233.099402940115
 20
-4744.690472297913
  0
ARC
  5
2EF9A
330
18
100
AcDbEntity
  8
姿図
100
AcDbCircle
 10
3233.235081240271
 20
-4744.813889992338
 30
0.0
 40
0.0977904172448657
100
AcDbArc
 50
217.929381105301
 51
273.1977430617551
  0
ARC
  5
2EF9B
330
18
100
AcDbEntity
  8
姿図
100
AcDbCircle
 10
3212.350235168303
 20
-4751.209246733762
 30
0.0
 40
6.528921616531455
100
AcDbArc
 50
89.15867340825197
 51
99.37232855655032
  0
ARC
  5
2EF9C
330
18
100
AcDbEntity
  8
姿図
100
AcDbCircle
 10
3234.322339123393
 20
-4750.717456096604
 30
0.0
 40
5.856429129009367
100
AcDbArc
 50
77.71237059704775
 51
90.31596397071242
  0
ARC
  5
2EF9D
330
18
100
AcDbEntity
  8
姿図
100
AcDbCircle
 10
3211.196389154646
 20
-4745.140996215256
 30
0.0
 40
0.1800926503463759
100
AcDbArc
 50
190.8008401276724
 51
239.399269008832
  0
LWPOLYLINE
  5
2EF9E
330
18
100
AcDbEntity
  8
姿図
100
AcDbPolyline
 90
        3
 70
   128
 43
0.0
 10
3212.879565494188
 20
-4744.900130539744
 10
3212.879219500877
 20
-4744.903371148068
 10
3212.879111630354
 20
-4744.90358201035
  0
LWPOLYLINE
  5
2EF9F
330
18
100
AcDbEntity
  8
姿図
100
AcDbPolyline
 90
        3
 70
   128
 43
0.0
 10
3233.839341762495
 20
-4745.07638350586
 10
3233.839449633016
 20
-4745.076172643577
 10
3233.839795626329
 20
-4745.072932035252
  0
LWPOLYLINE
  5
2EFA0
330
18
100
AcDbEntity
  8
姿図
100
AcDbPolyline
 90
        3
 70
   128
 43
0.0
 10
3235.56196620371
 20
-4745.486641583698
 10
3235.634884559029
 20
-4745.412898446949
 10
3235.648118251722
 20
-4745.360342916497
  0
TEXT
  5
331FC
330
18
100
AcDbEntity
  8
文字
100
AcDbText
 10
3179.005218893836
 20
-4813.650045267359
 30
0.0
 40
9.599737700291976
  1
MMP-060KH
 72
     1
 11
3220.604082261767
 21
-4813.650045267359
 31
0.0
100
AcDbText
  0
ENDSEC
  0
SECTION
  2
OBJECTS
  0
DICTIONARY
  5
C
330
0
100
AcDbDictionary
281
     1
  3
ACAD_2007HEADERVARS_RT
350
33210
  3
ACAD_COLOR
350
6D0
  3
ACAD_GROUP
350
D
  3
ACAD_LAYOUT
350
617
  3
ACAD_MATERIAL
350
6CF
  3
ACAD_MLEADERSTYLE
350
AFB
  3
ACAD_MLINESTYLE
350
E
  3
ACAD_PLOTSETTINGS
350
618
  3
ACAD_PLOTSTYLENAME
350
615
  3
ACAD_SCALELIST
350
AD9
  3
ACAD_TABLESTYLE
350
AD7
  3
ACAD_VISUALSTYLE
350
AC6
  3
AcadDim
350
117B
  3
ACDB_RECOMPOSE_DATA
350
B19
  3
AcDbVariableDictionary
350
6DE
  3
DWGPROPS
350
3320F
  0
DICTIONARY
  5
B1B
330
8
100
AcDbDictionary
280
     1
281
     1
  0
DICTIONARY
  5
9EB
330
2
100
AcDbDictionary
280
     1
281
     1
  3
ACAD_LAYERFILTERS
360
2519C
  3
ACAD_LAYERSTATES
360
9EC
  3
ACLYDICTIONARY
360
2519B
  0
DICTIONARY
  5
B03
330
F
100
AcDbDictionary
280
     1
281
     1
  3
ADSK_XREC_LAYER_RECONCILED
360
B04
  0
DICTIONARY
  5
B11
330
2F4
100
AcDbDictionary
280
     1
281
     1
  3
ADSK_XREC_LAYER_RECONCILED
360
B12
  0
DICTIONARY
  5
F52
330
F51
100
AcDbDictionary
280
     1
281
     1
  3
ADSK_XREC_LAYER_RECONCILED
360
F53
  0
DICTIONARY
  5
3C90
330
18
100
AcDbDictionary
280
     1
281
     1
  3
ACAD_SORTENTS
360
3C91
  0
DICTIONARY
  5
33210
102
{ACAD_REACTORS
330
C
102
}
330
C
100
AcDbDictionary
281
     1
  3
DIMARCSYM
350
33211
  0
DICTIONARY
  5
6D0
102
{ACAD_REACTORS
330
C
102
}
330
C
100
AcDbDictionary
281
     1
  0
DICTIONARY
  5
D
102
{ACAD_REACTORS
330
C
102
}
330
C
100
AcDbDictionary
281
     1
  3
*A1
350
EDB6
  3
*A10
350
276C9
  3
*A100
350
2514D
  3
*A101
350
23C1D
  3
*A102
350
288F6
  3
*A103
350
285A1
  3
*A104
350
23C8A
  3
*A105
350
28468
  3
*A106
350
18EF8
  3
*A107
350
2428C
  3
*A108
350
F131
  3
*A109
350
2428D
  3
*A11
350
27A66
  3
*A110
350
12E6B
  3
*A111
350
17AD7
  3
*A112
350
18EE8
  3
*A113
350
28F63
  3
*A114
350
17AD9
  3
*A115
350
177E3
  3
*A116
350
177EE
  3
*A117
350
17AD6
  3
*A118
350
17ADA
  3
*A119
350
272D8
  3
*A12
350
10FD5
  3
*A120
350
288ED
  3
*A121
350
28469
  3
*A122
350
2846A
  3
*A123
350
288EE
  3
*A124
350
28F64
  3
*A125
350
2349D
  3
*A126
350
25193
  3
*A127
350
2519D
  3
*A128
350
251CA
  3
*A129
350
251D1
  3
*A13
350
191ED
  3
*A130
350
27290
  3
*A131
350
251D8
  3
*A132
350
18EFF
  3
*A133
350
13A26
  3
*A134
350
1136E
  3
*A135
350
28F65
  3
*A136
350
276A2
  3
*A137
350
16D97
  3
*A138
350
18F0E
  3
*A139
350
2846B
  3
*A14
350
28465
  3
*A140
350
26E86
  3
*A141
350
288EF
  3
*A142
350
26E87
  3
*A143
350
18EF7
  3
*A144
350
26E88
  3
*A145
350
13A27
  3
*A15
350
2C2B7
  3
*A16
350
2C2B8
  3
*A17
350
28521
  3
*A18
350
2C2B9
  3
*A19
350
2846E
  3
*A2
350
288F0
  3
*A20
350
2C2BA
  3
*A21
350
2C2BB
  3
*A22
350
2C2BC
  3
*A23
350
2C2CE
  3
*A24
350
28F66
  3
*A25
350
2C2E0
  3
*A26
350
17ADB
  3
*A27
350
2C311
  3
*A28
350
2C4C4
  3
*A29
350
13529
  3
*A3
350
27245
  3
*A30
350
2C4D2
  3
*A31
350
2C4DF
  3
*A32
350
2C4E0
  3
*A33
350
2724A
  3
*A34
350
2C4E1
  3
*A35
350
13578
  3
*A36
350
2C4E7
  3
*A37
350
2C4F9
  3
*A38
350
288F2
  3
*A39
350
18E4A
  3
*A4
350
27246
  3
*A40
350
2C522
  3
*A41
350
13A9E
  3
*A42
350
2C523
  3
*A43
350
2C535
  3
*A44
350
2C536
  3
*A45
350
2848C
  3
*A46
350
13685
  3
*A47
350
284BD
  3
*A48
350
2728C
  3
*A49
350
284EF
  3
*A5
350
134F7
  3
*A50
350
288F3
  3
*A51
350
191EE
  3
*A52
350
24FDD
  3
*A53
350
28F67
  3
*A54
350
28F68
  3
*A55
350
28F69
  3
*A56
350
28466
  3
*A57
350
18EE7
  3
*A58
350
13A55
  3
*A59
350
152DF
  3
*A6
350
27247
  3
*A60
350
1B2D5
  3
*A61
350
1BD4D
  3
*A62
350
2728D
  3
*A63
350
1136D
  3
*A64
350
17AD8
  3
*A65
350
25123
  3
*A66
350
1D045
  3
*A67
350
284F0
  3
*A68
350
1D40F
  3
*A69
350
288F4
  3
*A7
350
28479
  3
*A70
350
1F11A
  3
*A71
350
10FF2
  3
*A72
350
28467
  3
*A73
350
16B1E
  3
*A74
350
11890
  3
*A75
350
2517D
  3
*A76
350
1F11B
  3
*A77
350
2728E
  3
*A78
350
30F5B
  3
*A79
350
30F5C
  3
*A8
350
27248
  3
*A80
350
288F1
  3
*A81
350
30F5D
  3
*A82
350
32935
  3
*A83
350
32936
  3
*A84
350
2728F
  3
*A85
350
32937
  3
*A86
350
32938
  3
*A87
350
32939
  3
*A88
350
3293A
  3
*A89
350
3293B
  3
*A9
350
27249
  3
*A90
350
3293C
  3
*A91
350
288F5
  3
*A92
350
3293D
  3
*A93
350
3293E
  3
*A94
350
329B7
  3
*A95
350
237D2
  3
*A96
350
237D3
  3
*A97
350
12DBE
  3
*A98
350
23BCB
  3
*A99
350
1185F
  0
DICTIONARY
  5
617
102
{ACAD_REACTORS
330
C
102
}
330
C
100
AcDbDictionary
281
     1
  3
Model
350
619
  3
ﾚｲｱｳﾄ1
350
61A
  0
DICTIONARY
  5
6CF
102
{ACAD_REACTORS
330
C
102
}
330
C
100
AcDbDictionary
281
     1
  3
ByBlock
350
AB6
  3
ByLayer
350
AAE
  3
Global
350
ABE
  0
DICTIONARY
  5
AFB
102
{ACAD_REACTORS
330
C
102
}
330
C
100
AcDbDictionary
281
     1
  3
Standard
350
AFC
  0
DICTIONARY
  5
E
102
{ACAD_REACTORS
330
C
102
}
330
C
100
AcDbDictionary
281
     1
  3
STANDARD
350
1B
  0
DICTIONARY
  5
618
102
{ACAD_REACTORS
330
C
102
}
330
C
100
AcDbDictionary
281
     1
  0
ACDBDICTIONARYWDFLT
  5
615
102
{ACAD_REACTORS
330
C
102
}
330
C
100
AcDbDictionary
281
     1
  3
Normal
350
616
100
AcDbDictionaryWithDefault
340
616
  0
DICTIONARY
  5
AD9
102
{ACAD_REACTORS
330
C
102
}
330
C
100
AcDbDictionary
281
     1
  3
*A1
350
1E3B
  3
*A2
350
1E3C
  3
A0
350
ADA
  3
A1
350
ADB
  3
A2
350
ADC
  3
A3
350
ADD
  3
A4
350
ADE
  3
A5
350
ADF
  3
A6
350
AE0
  3
A7
350
AE1
  3
A8
350
AE2
  3
A9
350
AE3
  3
B0
350
AE4
  3
B1
350
AE5
  3
B2
350
AE6
  3
B3
350
AE7
  3
B4
350
AE8
  3
B5
350
AE9
  3
B6
350
AEA
  3
B7
350
AEB
  3
B8
350
AEC
  3
B9
350
AED
  3
C0
350
AEE
  3
C1
350
AEF
  3
C2
350
AF0
  3
C3
350
AF1
  3
C4
350
AF2
  3
C5
350
AF3
  3
C6
350
AF4
  3
C7
350
AF5
  3
C8
350
AF6
  3
C9
350
AF7
  3
D0
350
AF8
  3
D1
350
AF9
  3
D2
350
AFA
  0
DICTIONARY
  5
AD7
102
{ACAD_REACTORS
330
C
102
}
330
C
100
AcDbDictionary
281
     1
  3
Standard
350
AD8
  0
DICTIONARY
  5
AC6
102
{ACAD_REACTORS
330
C
102
}
330
C
100
AcDbDictionary
281
     1
  3
2dWireframe
350
ACC
  3
3D Hidden
350
ACE
  3
3dWireframe
350
ACD
  3
Basic
350
ACB
  3
Brighten
350
AD2
  3
ColorChange
350
AD6
  3
Conceptual
350
ACF
  3
Dim
350
AD1
  3
Facepattern
350
AD5
  3
Flat
350
AC7
  3
FlatWithEdges
350
AC8
  3
Gouraud
350
AC9
  3
GouraudWithEdges
350
ACA
  3
Linepattern
350
AD4
  3
Realistic
350
AD0
  3
Thicken
350
AD3
  0
XRECORD
  5
117B
102
{ACAD_REACTORS
330
C
102
}
330
C
100
AcDbXrecord
280
     1
 90
   990106
  3

 60
     0
 61
     0
 62
     4
 63
     4
 64
     1
 65
     0
 66
     0
 67
     2
 68
     1
 69
     0
 70
     0
 71
     0
 72
     0
 40
0.0
170
     2
340
0
  0
XRECORD
  5
B19
102
{ACAD_REACTORS
330
C
102
}
330
C
100
AcDbXrecord
280
     1
 90
        1
330
AD8
  0
DICTIONARY
  5
6DE
102
{ACAD_REACTORS
330
C
102
}
330
C
100
AcDbDictionary
281
     1
  3
CANNOSCALE
350
B33
  3
CMLEADERSTYLE
350
B32
  3
CTABLESTYLE
350
B31
  3
DIMASSOC
350
6DF
  3
INDEXCTL
350
B35
  3
PROJECTNAME
350
6E0
  3
SORTENTS
350
B34
  0
XRECORD
  5
3320F
102
{ACAD_REACTORS
330
C
102
}
330
C
100
AcDbXrecord
280
     1
  1
DWGPROPS COOKIE
  2

  3

  4

  6

  7

  8
SPAX
  9

300
=
301
=
302
=
303
=
304
=
305
=
306
=
307
=
308
=
309
=
 40
3.477723298611111
 41
2457970.585992349
 42
2458064.38682404
  1

 90
        0
  0
DICTIONARY
  5
2519C
102
{ACAD_REACTORS
330
9EB
102
}
330
9EB
100
AcDbDictionary
281
     1
  0
DICTIONARY
  5
9EC
102
{ACAD_REACTORS
330
9EB
102
}
330
9EB
100
AcDbDictionary
281
     1
  0
DICTIONARY
  5
2519B
102
{ACAD_REACTORS
330
9EB
102
}
330
9EB
100
AcDbDictionary
281
     1
1001
ACAD
1000
<All
  0
XRECORD
  5
B04
102
{ACAD_REACTORS
330
B03
102
}
330
B03
100
AcDbXrecord
280
     1
290
     1
  0
XRECORD
  5
B12
102
{ACAD_REACTORS
330
B11
102
}
330
B11
100
AcDbXrecord
280
     1
290
     1
  0
XRECORD
  5
F53
102
{ACAD_REACTORS
330
F52
102
}
330
F52
100
AcDbXrecord
280
     1
290
     1
  0
SORTENTSTABLE
  5
3C91
102
{ACAD_REACTORS
330
3C90
102
}
330
3C90
100
AcDbSortentsTable
330
18
331
2EED4
  5
2EED4
331
2EF0F
  5
2EF0F
331
2EED0
  5
2EED0
331
2EECC
  5
2EECC
331
2EF0B
  5
2EF0B
331
2EEC8
  5
2EEC8
331
2E9B2
  5
2E9B2
331
2EF4C
  5
2EF4C
331
2EF48
  5
2EF48
331
2EF87
  5
2EF87
331
2E9AE
  5
2E9AE
331
2EE9D
  5
2EE9D
331
2EE99
  5
2EE99
331
2EF44
  5
2EF44
331
2EF83
  5
2EF83
331
2E9AA
  5
2E9AA
331
2EF40
  5
2EF40
331
2EF07
  5
2EF07
331
2EEC4
  5
2EEC4
331
2EF03
  5
2EF03
331
2EEFF
  5
2EEFF
331
2EEC0
  5
2EEC0
331
2EEBC
  5
2EEBC
331
2EEFB
  5
2EEFB
331
2EEB8
  5
2EEB8
331
2E9A6
  5
2E9A6
331
2EE95
  5
2EE95
331
2EF7F
  5
2EF7F
331
2EF7B
  5
2EF7B
331
2E9A2
  5
2E9A2
331
2EE91
  5
2EE91
331
2EF3C
  5
2EF3C
331
2EF38
  5
2EF38
331
2EF77
  5
2EF77
331
2E99E
  5
2E99E
331
2EF34
  5
2EF34
331
2EF73
  5
2EF73
331
2E99A
  5
2E99A
331
2EF30
  5
2EF30
331
2EEF7
  5
2EEF7
331
2EEB4
  5
2EEB4
331
2EEF3
  5
2EEF3
331
2EEEF
  5
2EEEF
331
2EEB0
  5
2EEB0
331
2EEEB
  5
2EEEB
331
2EEAC
  5
2EEAC
331
2EEA8
  5
2EEA8
331
2EC5D
  5
2EC5D
331
2EF6F
  5
2EF6F
331
2EF6B
  5
2EF6B
331
2EC59
  5
2EC59
331
2EF2C
  5
2EF2C
331
2EF67
  5
2EF67
331
2EC55
  5
2EC55
331
2EF28
  5
2EF28
331
2EC51
  5
2EC51
331
2EF24
  5
2EF24
331
2EF63
  5
2EF63
331
2EF20
  5
2EF20
331
2EF9E
  5
2EF9E
331
2EF9A
  5
2EF9A
331
2EEE7
  5
2EEE7
331
2EEA4
  5
2EEA4
331
2EEE3
  5
2EEE3
331
2EEA0
  5
2EEA0
331
2EEDF
  5
2EEDF
331
2EEDB
  5
2EEDB
331
2EC4D
  5
2EC4D
331
2EF5F
  5
2EF5F
331
2EF1C
  5
2EF1C
331
2EF5B
  5
2EF5B
331
2EF57
  5
2EF57
331
2EF96
  5
2EF96
331
2EF18
  5
2EF18
331
2EF14
  5
2EF14
331
2EF92
  5
2EF92
331
2EF53
  5
2EF53
331
2EF10
  5
2EF10
331
2EF8E
  5
2EF8E
331
2EF8A
  5
2EF8A
331
2EED7
  5
2EED7
331
2EED3
  5
2EED3
331
2EF0E
  5
2EF0E
331
2EECF
  5
2EECF
331
2EECB
  5
2EECB
331
2EF0A
  5
2EF0A
331
2EF4F
  5
2EF4F
331
2E9B1
  5
2E9B1
331
2EF4B
  5
2EF4B
331
2EE9C
  5
2EE9C
331
2EF47
  5
2EF47
331
2EF86
  5
2EF86
331
2E9AD
  5
2E9AD
331
2EE98
  5
2EE98
331
2EF43
  5
2EF43
331
2EF82
  5
2EF82
331
2E9A9
  5
2E9A9
331
2EEC7
  5
2EEC7
331
2EF06
  5
2EF06
331
2EEC3
  5
2EEC3
331
2EF02
  5
2EF02
331
2EEFE
  5
2EEFE
331
2EEBF
  5
2EEBF
331
2EEBB
  5
2EEBB
331
2EEFA
  5
2EEFA
331
2E9A5
  5
2E9A5
331
2EE94
  5
2EE94
331
2EF3F
  5
2EF3F
331
2EF7E
  5
2EF7E
331
2EF7A
  5
2EF7A
331
2E9A1
  5
2E9A1
331
2EE90
  5
2EE90
331
2EF3B
  5
2EF3B
331
2EF37
  5
2EF37
331
2EF76
  5
2EF76
331
2E99D
  5
2E99D
331
2EF33
  5
2EF33
331
2EF72
  5
2EF72
331
2E999
  5
2E999
331
2EEB7
  5
2EEB7
331
2EEF6
  5
2EEF6
331
2EEB3
  5
2EEB3
331
2EEF2
  5
2EEF2
331
2EEEE
  5
2EEEE
331
2EEAF
  5
2EEAF
331
2EEAB
  5
2EEAB
331
2EEEA
  5
2EEEA
331
2EC5C
  5
2EC5C
331
2EF2F
  5
2EF2F
331
2EF6E
  5
2EF6E
331
2EF6A
  5
2EF6A
331
2EC58
  5
2EC58
331
2EF2B
  5
2EF2B
331
2EF27
  5
2EF27
331
2EF66
  5
2EF66
331
2EC54
  5
2EC54
331
2EC50
  5
2EC50
331
2EF23
  5
2EF23
331
2EF62
  5
2EF62
331
2EF9D
  5
2EF9D
331
2EF99
  5
2EF99
331
2EEA7
  5
2EEA7
331
2EEE6
  5
2EEE6
331
2EEA3
  5
2EEA3
331
2EEE2
  5
2EEE2
331
2EEDE
  5
2EEDE
331
2EEDA
  5
2EEDA
331
2A025
  5
2A026
331
2EC4C
  5
2EC4C
331
2EF1F
  5
2EF1F
331
2EF5E
  5
2EF5E
331
2EF5A
  5
2EF5A
331
116F3
  5
11853
331
2EF1B
  5
2EF1B
331
2EF56
  5
2EF56
331
2EF95
  5
2EF95
331
2EF17
  5
2EF17
331
2EA28
  5
2EA28
331
2EF13
  5
2EF13
331
2EF91
  5
2EF91
331
2EF52
  5
2EF52
331
2EF8D
  5
2EF8D
331
2EF89
  5
2EF89
331
2EED6
  5
2EED6
331
2EED2
  5
2EED2
331
2EF0D
  5
2EF0D
331
2EECE
  5
2EECE
331
2EECA
  5
2EECA
331
2EF09
  5
2EF09
331
2EF4E
  5
2EF4E
331
2E9B0
  5
2E9B0
331
2EE9F
  5
2EE9F
331
2EF4A
  5
2EF4A
331
2EE9B
  5
2EE9B
331
2EF46
  5
2EF46
331
2EF85
  5
2EF85
331
2E9AC
  5
2E9AC
331
2E9A8
  5
2E9A8
331
2EF42
  5
2EF42
331
2EF81
  5
2EF81
331
2EEC6
  5
2EEC6
331
2EF05
  5
2EF05
331
2EEC2
  5
2EEC2
331
2EF01
  5
2EF01
331
2EEFD
  5
2EEFD
331
2EEBE
  5
2EEBE
331
2EEBA
  5
2EEBA
331
2EE97
  5
2EE97
331
2EEF9
  5
2EEF9
331
2E9A4
  5
2E9A4
331
2EE93
  5
2EE93
331
2EF3E
  5
2EF3E
331
2EF7D
  5
2EF7D
331
2EF79
  5
2EF79
331
2E9A0
  5
2E9A0
331
2EE8F
  5
2EE8F
331
2EF3A
  5
2EF3A
331
2EF36
  5
2EF36
331
2EF75
  5
2EF75
331
2E99C
  5
2E99C
331
2EF32
  5
2EF32
331
2EF71
  5
2EF71
331
2E998
  5
2E998
331
2EEB6
  5
2EEB6
331
2EEF5
  5
2EEF5
331
2EEB2
  5
2EEB2
331
2EEF1
  5
2EEF1
331
2EEED
  5
2EEED
331
2EEAE
  5
2EEAE
331
2EEAA
  5
2EEAA
331
2EEE9
  5
2EEE9
331
2EC5B
  5
2EC5B
331
2EF2E
  5
2EF2E
331
2EF6D
  5
2EF6D
331
2EF69
  5
2EF69
331
2EC57
  5
2EC57
331
2EF2A
  5
2EF2A
331
2EF26
  5
2EF26
331
2EF65
  5
2EF65
331
2EC53
  5
2EC53
331
2EF22
  5
2EF22
331
2EFA0
  5
2EFA0
331
2EF61
  5
2EF61
331
2A028
  5
2A029
331
2EF9C
  5
2EF9C
331
2EF98
  5
2EF98
331
2EEA6
  5
2EEA6
331
2EEE5
  5
2EEE5
331
2EEA2
  5
2EEA2
331
2EEE1
  5
2EEE1
331
2EEDD
  5
2EEDD
331
2EC4F
  5
2EC4F
331
2EED9
  5
2EED9
331
2EC4B
  5
2EC4B
331
2EF1E
  5
2EF1E
331
2EF5D
  5
2EF5D
331
2EF59
  5
2EF59
331
2EF1A
  5
2EF1A
331
2EF16
  5
2EF16
331
2EF94
  5
2EF94
331
2EF55
  5
2EF55
331
2EF12
  5
2EF12
331
2EF90
  5
2EF90
331
2EF51
  5
2EF51
331
2A018
  5
2A019
331
2EF8C
  5
2EF8C
331
2EF88
  5
2EF88
331
2EED5
  5
2EED5
331
2EED1
  5
2EED1
331
2EECD
  5
2EECD
331
2EF0C
  5
2EF0C
331
2EEC9
  5
2EEC9
331
2EF08
  5
2EF08
331
2E9B3
  5
2E9B3
331
2EF4D
  5
2EF4D
331
2EF49
  5
2EF49
331
2E9AF
  5
2E9AF
331
2EE9E
  5
2EE9E
331
2EE9A
  5
2EE9A
331
2EF45
  5
2EF45
331
2EF84
  5
2EF84
331
2E9AB
  5
2E9AB
331
2EF41
  5
2EF41
331
2EF80
  5
2EF80
331
2EEC5
  5
2EEC5
331
2EF04
  5
2EF04
331
2EF00
  5
2EF00
331
2EEC1
  5
2EEC1
331
2EEFC
  5
2EEFC
331
2EEBD
  5
2EEBD
331
2EEB9
  5
2EEB9
331
2EE96
  5
2EE96
331
2EEF8
  5
2EEF8
331
2EF7C
  5
2EF7C
331
2E9A3
  5
2E9A3
331
2EE92
  5
2EE92
331
2EF3D
  5
2EF3D
331
2EF78
  5
2EF78
331
2E99F
  5
2E99F
331
2EE8E
  5
2EE8E
331
2EF39
  5
2EF39
331
2EF35
  5
2EF35
331
2EF74
  5
2EF74
331
2E99B
  5
2E99B
331
2EF31
  5
2EF31
331
2EF70
  5
2EF70
331
2EEB5
  5
2EEB5
331
2EEF4
  5
2EEF4
331
2EEB1
  5
2EEB1
331
2EEF0
  5
2EEF0
331
2EEEC
  5
2EEEC
331
2EEAD
  5
2EEAD
331
2EEA9
  5
2EEA9
331
2E997
  5
2E997
331
2EC5E
  5
2EC5E
331
2EEE8
  5
2EEE8
331
2EC5A
  5
2EC5A
331
2EF2D
  5
2EF2D
331
2EF6C
  5
2EF6C
331
2EF68
  5
2EF68
331
2EC56
  5
2EC56
331
2EF29
  5
2EF29
331
2EC52
  5
2EC52
331
2EF25
  5
2EF25
331
2EF64
  5
2EF64
331
2EF21
  5
2EF21
331
2EF9F
  5
2EF9F
331
2EF60
  5
2EF60
331
2EF9B
  5
2EF9B
331
2EEA5
  5
2EEA5
331
2EEE4
  5
2EEE4
331
2EEA1
  5
2EEA1
331
2EEE0
  5
2EEE0
331
2EEDC
  5
2EEDC
331
2EC4E
  5
2EC4E
331
2EED8
  5
2EED8
331
2EF1D
  5
2EF1D
331
2EF5C
  5
2EF5C
331
2EF58
  5
2EF58
331
2EF97
  5
2EF97
331
2EF19
  5
2EF19
331
2EF15
  5
2EF15
331
2EF93
  5
2EF93
331
2EF54
  5
2EF54
331
2EF11
  5
2EF11
331
2EF8F
  5
2EF8F
331
2EF50
  5
2EF50
331
2EF8B
  5
2EF8B
  0
XRECORD
  5
33211
102
{ACAD_REACTORS
330
33210
102
}
330
33210
100
AcDbXrecord
280
     1
 70
     2
  0
GROUP
  5
EDB6
102
{ACAD_REACTORS
330
D
102
}
330
D
100
AcDbGroup
300

 70
     1
 71
     1
  0
GROUP
  5
276C9
102
{ACAD_REACTORS
330
D
102
}
330
D
100
AcDbGroup
300

 70
     1
 71
     1
  0
GROUP
  5
2514D
102
{ACAD_REACTORS
330
D
102
}
330
D
100
AcDbGroup
300

 70
     1
 71
     1
  0
GROUP
  5
23C1D
102
{ACAD_REACTORS
330
D
102
}
330
D
100
AcDbGroup
300

 70
     1
 71
     1
  0
GROUP
  5
288F6
102
{ACAD_REACTORS
330
D
102
}
330
D
100
AcDbGroup
300

 70
     1
 71
     1
  0
GROUP
  5
285A1
102
{ACAD_REACTORS
330
D
102
}
330
D
100
AcDbGroup
300

 70
     1
 71
     1
  0
GROUP
  5
23C8A
102
{ACAD_REACTORS
330
D
102
}
330
D
100
AcDbGroup
300

 70
     1
 71
     1
  0
GROUP
  5
28468
102
{ACAD_REACTORS
330
D
102
}
330
D
100
AcDbGroup
300

 70
     1
 71
     1
  0
GROUP
  5
18EF8
102
{ACAD_REACTORS
330
D
102
}
330
D
100
AcDbGroup
300

 70
     1
 71
     1
  0
GROUP
  5
2428C
102
{ACAD_REACTORS
330
D
102
}
330
D
100
AcDbGroup
300

 70
     1
 71
     1
  0
GROUP
  5
F131
102
{ACAD_REACTORS
330
D
102
}
330
D
100
AcDbGroup
300

 70
     1
 71
     1
  0
GROUP
  5
2428D
102
{ACAD_REACTORS
330
D
102
}
330
D
100
AcDbGroup
300

 70
     1
 71
     1
  0
GROUP
  5
27A66
102
{ACAD_REACTORS
330
D
102
}
330
D
100
AcDbGroup
300

 70
     1
 71
     1
  0
GROUP
  5
12E6B
102
{ACAD_REACTORS
330
D
102
}
330
D
100
AcDbGroup
300

 70
     1
 71
     1
  0
GROUP
  5
17AD7
102
{ACAD_REACTORS
330
D
102
}
330
D
100
AcDbGroup
300

 70
     1
 71
     1
  0
GROUP
  5
18EE8
102
{ACAD_REACTORS
330
D
102
}
330
D
100
AcDbGroup
300

 70
     1
 71
     1
  0
GROUP
  5
28F63
102
{ACAD_REACTORS
330
D
102
}
330
D
100
AcDbGroup
300

 70
     1
 71
     1
  0
GROUP
  5
17AD9
102
{ACAD_REACTORS
330
D
102
}
330
D
100
AcDbGroup
300

 70
     1
 71
     1
  0
GROUP
  5
177E3
102
{ACAD_REACTORS
330
D
102
}
330
D
100
AcDbGroup
300

 70
     1
 71
     1
  0
GROUP
  5
177EE
102
{ACAD_REACTORS
330
D
102
}
330
D
100
AcDbGroup
300

 70
     1
 71
     1
  0
GROUP
  5
17AD6
102
{ACAD_REACTORS
330
D
102
}
330
D
100
AcDbGroup
300

 70
     1
 71
     1
  0
GROUP
  5
17ADA
102
{ACAD_REACTORS
330
D
102
}
330
D
100
AcDbGroup
300

 70
     1
 71
     1
  0
GROUP
  5
272D8
102
{ACAD_REACTORS
330
D
102
}
330
D
100
AcDbGroup
300

 70
     1
 71
     1
  0
GROUP
  5
10FD5
102
{ACAD_REACTORS
330
D
102
}
330
D
100
AcDbGroup
300

 70
     1
 71
     1
  0
GROUP
  5
288ED
102
{ACAD_REACTORS
330
D
102
}
330
D
100
AcDbGroup
300

 70
     1
 71
     1
  0
GROUP
  5
28469
102
{ACAD_REACTORS
330
D
102
}
330
D
100
AcDbGroup
300

 70
     1
 71
     1
  0
GROUP
  5
2846A
102
{ACAD_REACTORS
330
D
102
}
330
D
100
AcDbGroup
300

 70
     1
 71
     1
  0
GROUP
  5
288EE
102
{ACAD_REACTORS
330
D
102
}
330
D
100
AcDbGroup
300

 70
     1
 71
     1
  0
GROUP
  5
28F64
102
{ACAD_REACTORS
330
D
102
}
330
D
100
AcDbGroup
300

 70
     1
 71
     1
  0
GROUP
  5
2349D
102
{ACAD_REACTORS
330
D
102
}
330
D
100
AcDbGroup
300

 70
     1
 71
     1
  0
GROUP
  5
25193
102
{ACAD_REACTORS
330
D
102
}
330
D
100
AcDbGroup
300

 70
     1
 71
     1
  0
GROUP
  5
2519D
102
{ACAD_REACTORS
330
D
102
}
330
D
100
AcDbGroup
300

 70
     1
 71
     1
  0
GROUP
  5
251CA
102
{ACAD_REACTORS
330
D
102
}
330
D
100
AcDbGroup
300

 70
     1
 71
     1
  0
GROUP
  5
251D1
102
{ACAD_REACTORS
330
D
102
}
330
D
100
AcDbGroup
300

 70
     1
 71
     1
  0
GROUP
  5
191ED
102
{ACAD_REACTORS
330
D
102
}
330
D
100
AcDbGroup
300

 70
     1
 71
     1
  0
GROUP
  5
27290
102
{ACAD_REACTORS
330
D
102
}
330
D
100
AcDbGroup
300

 70
     1
 71
     1
  0
GROUP
  5
251D8
102
{ACAD_REACTORS
330
D
102
}
330
D
100
AcDbGroup
300

 70
     1
 71
     1
  0
GROUP
  5
18EFF
102
{ACAD_REACTORS
330
D
102
}
330
D
100
AcDbGroup
300

 70
     1
 71
     1
  0
GROUP
  5
13A26
102
{ACAD_REACTORS
330
D
102
}
330
D
100
AcDbGroup
300

 70
     1
 71
     1
  0
GROUP
  5
1136E
102
{ACAD_REACTORS
330
D
102
}
330
D
100
AcDbGroup
300

 70
     1
 71
     1
  0
GROUP
  5
28F65
102
{ACAD_REACTORS
330
D
102
}
330
D
100
AcDbGroup
300

 70
     1
 71
     1
  0
GROUP
  5
276A2
102
{ACAD_REACTORS
330
D
102
}
330
D
100
AcDbGroup
300

 70
     1
 71
     1
  0
GROUP
  5
16D97
102
{ACAD_REACTORS
330
D
102
}
330
D
100
AcDbGroup
300

 70
     1
 71
     1
  0
GROUP
  5
18F0E
102
{ACAD_REACTORS
330
D
102
}
330
D
100
AcDbGroup
300

 70
     1
 71
     1
  0
GROUP
  5
2846B
102
{ACAD_REACTORS
330
D
102
}
330
D
100
AcDbGroup
300

 70
     1
 71
     1
  0
GROUP
  5
28465
102
{ACAD_REACTORS
330
D
102
}
330
D
100
AcDbGroup
300

 70
     1
 71
     1
  0
GROUP
  5
26E86
102
{ACAD_REACTORS
330
D
102
}
330
D
100
AcDbGroup
300

 70
     1
 71
     1
  0
GROUP
  5
288EF
102
{ACAD_REACTORS
330
D
102
}
330
D
100
AcDbGroup
300

 70
     1
 71
     1
  0
GROUP
  5
26E87
102
{ACAD_REACTORS
330
D
102
}
330
D
100
AcDbGroup
300

 70
     1
 71
     1
  0
GROUP
  5
18EF7
102
{ACAD_REACTORS
330
D
102
}
330
D
100
AcDbGroup
300

 70
     1
 71
     1
  0
GROUP
  5
26E88
102
{ACAD_REACTORS
330
D
102
}
330
D
100
AcDbGroup
300

 70
     1
 71
     1
  0
GROUP
  5
13A27
102
{ACAD_REACTORS
330
D
102
}
330
D
100
AcDbGroup
300

 70
     1
 71
     1
  0
GROUP
  5
2C2B7
102
{ACAD_REACTORS
330
D
102
}
330
D
100
AcDbGroup
300

 70
     1
 71
     1
  0
GROUP
  5
2C2B8
102
{ACAD_REACTORS
330
D
102
}
330
D
100
AcDbGroup
300

 70
     1
 71
     1
  0
GROUP
  5
28521
102
{ACAD_REACTORS
330
D
102
}
330
D
100
AcDbGroup
300

 70
     1
 71
     1
  0
GROUP
  5
2C2B9
102
{ACAD_REACTORS
330
D
102
}
330
D
100
AcDbGroup
300

 70
     1
 71
     1
  0
GROUP
  5
2846E
102
{ACAD_REACTORS
330
D
102
}
330
D
100
AcDbGroup
300

 70
     1
 71
     1
  0
GROUP
  5
288F0
102
{ACAD_REACTORS
330
D
102
}
330
D
100
AcDbGroup
300

 70
     1
 71
     1
  0
GROUP
  5
2C2BA
102
{ACAD_REACTORS
330
D
102
}
330
D
100
AcDbGroup
300

 70
     1
 71
     1
  0
GROUP
  5
2C2BB
102
{ACAD_REACTORS
330
D
102
}
330
D
100
AcDbGroup
300

 70
     1
 71
     1
  0
GROUP
  5
2C2BC
102
{ACAD_REACTORS
330
D
102
}
330
D
100
AcDbGroup
300

 70
     1
 71
     1
  0
GROUP
  5
2C2CE
102
{ACAD_REACTORS
330
D
102
}
330
D
100
AcDbGroup
300

 70
     1
 71
     1
  0
GROUP
  5
28F66
102
{ACAD_REACTORS
330
D
102
}
330
D
100
AcDbGroup
300

 70
     1
 71
     1
  0
GROUP
  5
2C2E0
102
{ACAD_REACTORS
330
D
102
}
330
D
100
AcDbGroup
300

 70
     1
 71
     1
  0
GROUP
  5
17ADB
102
{ACAD_REACTORS
330
D
102
}
330
D
100
AcDbGroup
300

 70
     1
 71
     1
  0
GROUP
  5
2C311
102
{ACAD_REACTORS
330
D
102
}
330
D
100
AcDbGroup
300

 70
     1
 71
     1
  0
GROUP
  5
2C4C4
102
{ACAD_REACTORS
330
D
102
}
330
D
100
AcDbGroup
300

 70
     1
 71
     1
  0
GROUP
  5
13529
102
{ACAD_REACTORS
330
D
102
}
330
D
100
AcDbGroup
300

 70
     1
 71
     1
  0
GROUP
  5
27245
102
{ACAD_REACTORS
330
D
102
}
330
D
100
AcDbGroup
300

 70
     1
 71
     1
  0
GROUP
  5
2C4D2
102
{ACAD_REACTORS
330
D
102
}
330
D
100
AcDbGroup
300

 70
     1
 71
     1
  0
GROUP
  5
2C4DF
102
{ACAD_REACTORS
330
D
102
}
330
D
100
AcDbGroup
300

 70
     1
 71
     1
  0
GROUP
  5
2C4E0
102
{ACAD_REACTORS
330
D
102
}
330
D
100
AcDbGroup
300

 70
     1
 71
     1
  0
GROUP
  5
2724A
102
{ACAD_REACTORS
330
D
102
}
330
D
100
AcDbGroup
300

 70
     1
 71
     1
  0
GROUP
  5
2C4E1
102
{ACAD_REACTORS
330
D
102
}
330
D
100
AcDbGroup
300

 70
     1
 71
     1
  0
GROUP
  5
13578
102
{ACAD_REACTORS
330
D
102
}
330
D
100
AcDbGroup
300

 70
     1
 71
     1
  0
GROUP
  5
2C4E7
102
{ACAD_REACTORS
330
D
102
}
330
D
100
AcDbGroup
300

 70
     1
 71
     1
  0
GROUP
  5
2C4F9
102
{ACAD_REACTORS
330
D
102
}
330
D
100
AcDbGroup
300

 70
     1
 71
     1
  0
GROUP
  5
288F2
102
{ACAD_REACTORS
330
D
102
}
330
D
100
AcDbGroup
300

 70
     1
 71
     1
  0
GROUP
  5
18E4A
102
{ACAD_REACTORS
330
D
102
}
330
D
100
AcDbGroup
300

 70
     1
 71
     1
  0
GROUP
  5
27246
102
{ACAD_REACTORS
330
D
102
}
330
D
100
AcDbGroup
300

 70
     1
 71
     1
  0
GROUP
  5
2C522
102
{ACAD_REACTORS
330
D
102
}
330
D
100
AcDbGroup
300

 70
     1
 71
     1
  0
GROUP
  5
13A9E
102
{ACAD_REACTORS
330
D
102
}
330
D
100
AcDbGroup
300

 70
     1
 71
     1
  0
GROUP
  5
2C523
102
{ACAD_REACTORS
330
D
102
}
330
D
100
AcDbGroup
300

 70
     1
 71
     1
  0
GROUP
  5
2C535
102
{ACAD_REACTORS
330
D
102
}
330
D
100
AcDbGroup
300

 70
     1
 71
     1
  0
GROUP
  5
2C536
102
{ACAD_REACTORS
330
D
102
}
330
D
100
AcDbGroup
300

 70
     1
 71
     1
  0
GROUP
  5
2848C
102
{ACAD_REACTORS
330
D
102
}
330
D
100
AcDbGroup
300

 70
     1
 71
     1
  0
GROUP
  5
13685
102
{ACAD_REACTORS
330
D
102
}
330
D
100
AcDbGroup
300

 70
     1
 71
     1
  0
GROUP
  5
284BD
102
{ACAD_REACTORS
330
D
102
}
330
D
100
AcDbGroup
300

 70
     1
 71
     1
  0
GROUP
  5
2728C
102
{ACAD_REACTORS
330
D
102
}
330
D
100
AcDbGroup
300

 70
     1
 71
     1
  0
GROUP
  5
284EF
102
{ACAD_REACTORS
330
D
102
}
330
D
100
AcDbGroup
300

 70
     1
 71
     1
  0
GROUP
  5
134F7
102
{ACAD_REACTORS
330
D
102
}
330
D
100
AcDbGroup
300

 70
     1
 71
     1
  0
GROUP
  5
288F3
102
{ACAD_REACTORS
330
D
102
}
330
D
100
AcDbGroup
300

 70
     1
 71
     1
  0
GROUP
  5
191EE
102
{ACAD_REACTORS
330
D
102
}
330
D
100
AcDbGroup
300

 70
     1
 71
     1
  0
GROUP
  5
24FDD
102
{ACAD_REACTORS
330
D
102
}
330
D
100
AcDbGroup
300

 70
     1
 71
     1
  0
GROUP
  5
28F67
102
{ACAD_REACTORS
330
D
102
}
330
D
100
AcDbGroup
300

 70
     1
 71
     1
  0
GROUP
  5
28F68
102
{ACAD_REACTORS
330
D
102
}
330
D
100
AcDbGroup
300

 70
     1
 71
     1
  0
GROUP
  5
28F69
102
{ACAD_REACTORS
330
D
102
}
330
D
100
AcDbGroup
300

 70
     1
 71
     1
  0
GROUP
  5
28466
102
{ACAD_REACTORS
330
D
102
}
330
D
100
AcDbGroup
300

 70
     1
 71
     1
  0
GROUP
  5
18EE7
102
{ACAD_REACTORS
330
D
102
}
330
D
100
AcDbGroup
300

 70
     1
 71
     1
  0
GROUP
  5
13A55
102
{ACAD_REACTORS
330
D
102
}
330
D
100
AcDbGroup
300

 70
     1
 71
     1
  0
GROUP
  5
152DF
102
{ACAD_REACTORS
330
D
102
}
330
D
100
AcDbGroup
300

 70
     1
 71
     1
  0
GROUP
  5
27247
102
{ACAD_REACTORS
330
D
102
}
330
D
100
AcDbGroup
300

 70
     1
 71
     1
  0
GROUP
  5
1B2D5
102
{ACAD_REACTORS
330
D
102
}
330
D
100
AcDbGroup
300

 70
     1
 71
     1
  0
GROUP
  5
1BD4D
102
{ACAD_REACTORS
330
D
102
}
330
D
100
AcDbGroup
300

 70
     1
 71
     1
  0
GROUP
  5
2728D
102
{ACAD_REACTORS
330
D
102
}
330
D
100
AcDbGroup
300

 70
     1
 71
     1
  0
GROUP
  5
1136D
102
{ACAD_REACTORS
330
D
102
}
330
D
100
AcDbGroup
300

 70
     1
 71
     1
  0
GROUP
  5
17AD8
102
{ACAD_REACTORS
330
D
102
}
330
D
100
AcDbGroup
300

 70
     1
 71
     1
  0
GROUP
  5
25123
102
{ACAD_REACTORS
330
D
102
}
330
D
100
AcDbGroup
300

 70
     1
 71
     1
  0
GROUP
  5
1D045
102
{ACAD_REACTORS
330
D
102
}
330
D
100
AcDbGroup
300

 70
     1
 71
     1
  0
GROUP
  5
284F0
102
{ACAD_REACTORS
330
D
102
}
330
D
100
AcDbGroup
300

 70
     1
 71
     1
  0
GROUP
  5
1D40F
102
{ACAD_REACTORS
330
D
102
}
330
D
100
AcDbGroup
300

 70
     1
 71
     1
  0
GROUP
  5
288F4
102
{ACAD_REACTORS
330
D
102
}
330
D
100
AcDbGroup
300

 70
     1
 71
     1
  0
GROUP
  5
28479
102
{ACAD_REACTORS
330
D
102
}
330
D
100
AcDbGroup
300

 70
     1
 71
     1
  0
GROUP
  5
1F11A
102
{ACAD_REACTORS
330
D
102
}
330
D
100
AcDbGroup
300

 70
     1
 71
     1
  0
GROUP
  5
10FF2
102
{ACAD_REACTORS
330
D
102
}
330
D
100
AcDbGroup
300

 70
     1
 71
     1
  0
GROUP
  5
28467
102
{ACAD_REACTORS
330
D
102
}
330
D
100
AcDbGroup
300

 70
     1
 71
     1
  0
GROUP
  5
16B1E
102
{ACAD_REACTORS
330
D
102
}
330
D
100
AcDbGroup
300

 70
     1
 71
     1
  0
GROUP
  5
11890
102
{ACAD_REACTORS
330
D
102
}
330
D
100
AcDbGroup
300

 70
     1
 71
     1
  0
GROUP
  5
2517D
102
{ACAD_REACTORS
330
D
102
}
330
D
100
AcDbGroup
300

 70
     1
 71
     1
  0
GROUP
  5
1F11B
102
{ACAD_REACTORS
330
D
102
}
330
D
100
AcDbGroup
300

 70
     1
 71
     1
  0
GROUP
  5
2728E
102
{ACAD_REACTORS
330
D
102
}
330
D
100
AcDbGroup
300

 70
     1
 71
     1
  0
GROUP
  5
30F5B
102
{ACAD_REACTORS
330
D
102
}
330
D
100
AcDbGroup
300

 70
     1
 71
     1
  0
GROUP
  5
30F5C
102
{ACAD_REACTORS
330
D
102
}
330
D
100
AcDbGroup
300

 70
     1
 71
     1
  0
GROUP
  5
27248
102
{ACAD_REACTORS
330
D
102
}
330
D
100
AcDbGroup
300

 70
     1
 71
     1
  0
GROUP
  5
288F1
102
{ACAD_REACTORS
330
D
102
}
330
D
100
AcDbGroup
300

 70
     1
 71
     1
  0
GROUP
  5
30F5D
102
{ACAD_REACTORS
330
D
102
}
330
D
100
AcDbGroup
300

 70
     1
 71
     1
  0
GROUP
  5
32935
102
{ACAD_REACTORS
330
D
102
}
330
D
100
AcDbGroup
300

 70
     1
 71
     1
  0
GROUP
  5
32936
102
{ACAD_REACTORS
330
D
102
}
330
D
100
AcDbGroup
300

 70
     1
 71
     1
  0
GROUP
  5
2728F
102
{ACAD_REACTORS
330
D
102
}
330
D
100
AcDbGroup
300

 70
     1
 71
     1
  0
GROUP
  5
32937
102
{ACAD_REACTORS
330
D
102
}
330
D
100
AcDbGroup
300

 70
     1
 71
     1
  0
GROUP
  5
32938
102
{ACAD_REACTORS
330
D
102
}
330
D
100
AcDbGroup
300

 70
     1
 71
     1
  0
GROUP
  5
32939
102
{ACAD_REACTORS
330
D
102
}
330
D
100
AcDbGroup
300

 70
     1
 71
     1
  0
GROUP
  5
3293A
102
{ACAD_REACTORS
330
D
102
}
330
D
100
AcDbGroup
300

 70
     1
 71
     1
  0
GROUP
  5
3293B
102
{ACAD_REACTORS
330
D
102
}
330
D
100
AcDbGroup
300

 70
     1
 71
     1
  0
GROUP
  5
27249
102
{ACAD_REACTORS
330
D
102
}
330
D
100
AcDbGroup
300

 70
     1
 71
     1
  0
GROUP
  5
3293C
102
{ACAD_REACTORS
330
D
102
}
330
D
100
AcDbGroup
300

 70
     1
 71
     1
  0
GROUP
  5
288F5
102
{ACAD_REACTORS
330
D
102
}
330
D
100
AcDbGroup
300

 70
     1
 71
     1
  0
GROUP
  5
3293D
102
{ACAD_REACTORS
330
D
102
}
330
D
100
AcDbGroup
300

 70
     1
 71
     1
  0
GROUP
  5
3293E
102
{ACAD_REACTORS
330
D
102
}
330
D
100
AcDbGroup
300

 70
     1
 71
     1
  0
GROUP
  5
329B7
102
{ACAD_REACTORS
330
D
102
}
330
D
100
AcDbGroup
300

 70
     1
 71
     1
  0
GROUP
  5
237D2
102
{ACAD_REACTORS
330
D
102
}
330
D
100
AcDbGroup
300

 70
     1
 71
     1
  0
GROUP
  5
237D3
102
{ACAD_REACTORS
330
D
102
}
330
D
100
AcDbGroup
300

 70
     1
 71
     1
  0
GROUP
  5
12DBE
102
{ACAD_REACTORS
330
D
102
}
330
D
100
AcDbGroup
300

 70
     1
 71
     1
  0
GROUP
  5
23BCB
102
{ACAD_REACTORS
330
D
102
}
330
D
100
AcDbGroup
300

 70
     1
 71
     1
  0
GROUP
  5
1185F
102
{ACAD_REACTORS
330
D
102
}
330
D
100
AcDbGroup
300

 70
     1
 71
     1
  0
LAYOUT
  5
619
102
{ACAD_XDICTIONARY
360
33212
102
}
102
{ACAD_REACTORS
330
617
102
}
330
617
100
AcDbPlotSettings
  1

  2
設計107カラー
  4
A4
  6

 40
4.900083065032958
 41
4.900054931640625
 42
4.90008544921875
 43
4.90008544921875
 44
210.0156707763672
 45
297.0106506347656
 46
12.61014188360491
 47
8.108917557619632
 48
3139.802917781882
 49
-5677.679253575352
140
3839.783791761505
141
-4593.708553020683
142
1.0
143
4.0
 70
  3748
 72
     1
 73
     0
 74
     4
  7
spax form.ctb
 75
     0
147
0.1363714580486498
148
-3139.802917781882
149
5677.679253575352
100
AcDbLayout
  1
Model
 70
     1
 71
     0
 10
0.0
 20
0.0
 11
12.0
 21
9.0
 12
0.0
 22
0.0
 32
0.0
 14
0.0
 24
0.0
 34
0.0
 15
0.0
 25
0.0
 35
0.0
146
0.0
 13
0.0
 23
0.0
 33
0.0
 16
1.0
 26
0.0
 36
0.0
 17
0.0
 27
1.0
 37
0.0
 76
     0
330
18
331
AAC
1001
ACAD_PSEXT
1000
設計107カラー
1000
FX ApeosPort-V C3375 T2
1000
192.168.6.107
1000

1070
     0
  0
LAYOUT
  5
61A
102
{ACAD_XDICTIONARY
360
33214
102
}
102
{ACAD_REACTORS
330
617
102
}
330
617
100
AcDbPlotSettings
  1

  2
Canon LASER SHOT LBP-750
  4

  6

 40
0.0
 41
0.0
 42
0.0
 43
0.0
 44
0.0
 45
0.0
 46
0.0
 47
0.0
 48
0.0
 49
0.0
140
0.0
141
0.0
142
1.0
143
1.0
 70
   688
 72
     0
 73
     0
 74
     5
  7
spax form.ctb
 75
    16
147
1.0
148
0.0
149
0.0
100
AcDbLayout
  1
ﾚｲｱｳﾄ1
 70
     0
 71
     1
 10
0.0
 20
0.0
 11
12.0
 21
9.0
 12
0.0
 22
0.0
 32
0.0
 14
1.000000000000000E+20
 24
1.000000000000000E+20
 34
1.000000000000000E+20
 15
-1.000000000000000E+20
 25
-1.000000000000000E+20
 35
-1.000000000000000E+20
146
0.0
 13
0.0
 23
0.0
 33
0.0
 16
1.0
 26
0.0
 36
0.0
 17
0.0
 27
1.0
 37
0.0
 76
     0
330
15
  0
MATERIAL
  5
AB6
102
{ACAD_XDICTIONARY
360
AB7
102
}
102
{ACAD_REACTORS
330
6CF
102
}
330
6CF
100
AcDbMaterial
  1
ByBlock
 72
     0
 43
0.0208333333333333
 43
0.0
 43
0.0
 43
0.0
 43
0.0
 43
0.0208333333333333
 43
0.0
 43
0.0
 43
0.0
 43
0.0
 43
1.0
 43
0.0
 43
0.0
 43
0.0
 43
0.0
 43
1.0
 77
     0
 47
0.0208333333333333
 47
0.0
 47
0.0
 47
0.0
 47
0.0
 47
0.0208333333333333
 47
0.0
 47
0.0
 47
0.0
 47
0.0
 47
1.0
 47
0.0
 47
0.0
 47
0.0
 47
0.0
 47
1.0
171
     0
 49
0.0208333333333333
 49
0.0
 49
0.0
 49
0.0
 49
0.0
 49
0.0208333333333333
 49
0.0
 49
0.0
 49
0.0
 49
0.0
 49
1.0
 49
0.0
 49
0.0
 49
0.0
 49
0.0
 49
1.0
175
     0
142
0.0208333333333333
142
0.0
142
0.0
142
0.0
142
0.0
142
0.0208333333333333
142
0.0
142
0.0
142
0.0
142
0.0
142
1.0
142
0.0
142
0.0
142
0.0
142
0.0
142
1.0
179
     0
144
0.0208333333333333
144
0.0
144
0.0
144
0.0
144
0.0
144
0.0208333333333333
144
0.0
144
0.0
144
0.0
144
0.0
144
1.0
144
0.0
144
0.0
144
0.0
144
0.0
144
1.0
147
0.0208333333333333
147
0.0
147
0.0
147
0.0
147
0.0
147
0.0208333333333333
147
0.0
147
0.0
147
0.0
147
0.0
147
1.0
147
0.0
147
0.0
147
0.0
147
0.0
147
1.0
  0
MATERIAL
  5
AAE
102
{ACAD_XDICTIONARY
360
AAF
102
}
102
{ACAD_REACTORS
330
6CF
102
}
330
6CF
100
AcDbMaterial
  1
ByLayer
 72
     0
 43
0.0208333333333333
 43
0.0
 43
0.0
 43
0.0
 43
0.0
 43
0.0208333333333333
 43
0.0
 43
0.0
 43
0.0
 43
0.0
 43
1.0
 43
0.0
 43
0.0
 43
0.0
 43
0.0
 43
1.0
 77
     0
 47
0.0208333333333333
 47
0.0
 47
0.0
 47
0.0
 47
0.0
 47
0.0208333333333333
 47
0.0
 47
0.0
 47
0.0
 47
0.0
 47
1.0
 47
0.0
 47
0.0
 47
0.0
 47
0.0
 47
1.0
171
     0
 49
0.0208333333333333
 49
0.0
 49
0.0
 49
0.0
 49
0.0
 49
0.0208333333333333
 49
0.0
 49
0.0
 49
0.0
 49
0.0
 49
1.0
 49
0.0
 49
0.0
 49
0.0
 49
0.0
 49
1.0
175
     0
142
0.0208333333333333
142
0.0
142
0.0
142
0.0
142
0.0
142
0.0208333333333333
142
0.0
142
0.0
142
0.0
142
0.0
142
1.0
142
0.0
142
0.0
142
0.0
142
0.0
142
1.0
179
     0
144
0.0208333333333333
144
0.0
144
0.0
144
0.0
144
0.0
144
0.0208333333333333
144
0.0
144
0.0
144
0.0
144
0.0
144
1.0
144
0.0
144
0.0
144
0.0
144
0.0
144
1.0
147
0.0208333333333333
147
0.0
147
0.0
147
0.0
147
0.0
147
0.0208333333333333
147
0.0
147
0.0
147
0.0
147
0.0
147
1.0
147
0.0
147
0.0
147
0.0
147
0.0
147
1.0
  0
MATERIAL
  5
ABE
102
{ACAD_XDICTIONARY
360
ABF
102
}
102
{ACAD_REACTORS
330
6CF
102
}
330
6CF
100
AcDbMaterial
  1
Global
 72
     0
 43
0.0208333333333333
 43
0.0
 43
0.0
 43
0.0
 43
0.0
 43
0.0208333333333333
 43
0.0
 43
0.0
 43
0.0
 43
0.0
 43
1.0
 43
0.0
 43
0.0
 43
0.0
 43
0.0
 43
1.0
 77
     0
 47
0.0208333333333333
 47
0.0
 47
0.0
 47
0.0
 47
0.0
 47
0.0208333333333333
 47
0.0
 47
0.0
 47
0.0
 47
0.0
 47
1.0
 47
0.0
 47
0.0
 47
0.0
 47
0.0
 47
1.0
171
     0
 49
0.0208333333333333
 49
0.0
 49
0.0
 49
0.0
 49
0.0
 49
0.0208333333333333
 49
0.0
 49
0.0
 49
0.0
 49
0.0
 49
1.0
 49
0.0
 49
0.0
 49
0.0
 49
0.0
 49
1.0
175
     0
142
0.0208333333333333
142
0.0
142
0.0
142
0.0
142
0.0
142
0.0208333333333333
142
0.0
142
0.0
142
0.0
142
0.0
142
1.0
142
0.0
142
0.0
142
0.0
142
0.0
142
1.0
179
     0
144
0.0208333333333333
144
0.0
144
0.0
144
0.0
144
0.0
144
0.0208333333333333
144
0.0
144
0.0
144
0.0
144
0.0
144
1.0
144
0.0
144
0.0
144
0.0
144
0.0
144
1.0
147
0.0208333333333333
147
0.0
147
0.0
147
0.0
147
0.0
147
0.0208333333333333
147
0.0
147
0.0
147
0.0
147
0.0
147
1.0
147
0.0
147
0.0
147
0.0
147
0.0
147
1.0
  0
MLEADERSTYLE
  5
AFC
102
{ACAD_REACTORS
330
AFB
102
}
330
AFB
100
AcDbMLeaderStyle
170
     2
171
     1
172
     0
 90
        2
 40
0.0
 41
0.0
173
     1
 91
-1023410168
340
12
 92
       -2
290
     1
 42
0.09
291
     1
 43
0.36
  3
Standard
341
608
 44
2.5
300

342
10
174
     6
178
     6
175
     1
176
     0
 93
-1056964608
 45
2.5
292
     0
297
     0
 46
0.18
 94
-1056964608
 47
1.0
 49
1.0
140
1.0
293
     1
141
0.0
294
     1
177
     0
142
1.0
295
     0
296
     0
143
0.125
1001
ACAD
1000
AcRTDxfName
1000
MLEADERSTYLE
1000
AcRTDxfName
1000
MLEADERSTYLE
1000
AcRTDxfName
1000
MLEADERSTYLE
1000
AcRTDxfName
1000
MLEADERSTYLE
1000
AcRTDxfName
1000
MLEADERSTYLE
1000
AcRTDxfName
1000
MLEADERSTYLE
1001
ACAD_MLEADERVER
1070
     2
  0
MLINESTYLE
  5
1B
102
{ACAD_REACTORS
330
E
102
}
330
E
100
AcDbMlineStyle
  2
STANDARD
 70
     0
  3

 62
     0
 51
90.0
 52
90.0
 71
     2
 49
0.5
 62
   256
  6
BYLAYER
 49
-0.5
 62
   256
  6
BYLAYER
  0
ACDBPLACEHOLDER
  5
616
102
{ACAD_REACTORS
330
615
102
}
330
615
  0
SCALE
  5
1E3B
102
{ACAD_REACTORS
330
AD9
102
}
330
AD9
100
AcDbScale
 70
     0
300
1:1_XREF_XREF
140
1.0
141
1.0
290
     0
  0
SCALE
  5
1E3C
102
{ACAD_REACTORS
330
AD9
102
}
330
AD9
100
AcDbScale
 70
     0
300
1:1.5
140
1.0
141
1.5
290
     0
  0
SCALE
  5
ADA
102
{ACAD_REACTORS
330
AD9
102
}
330
AD9
100
AcDbScale
 70
     0
300
1:1
140
1.0
141
1.0
290
     1
1001
ACAD
1000
AcRTDxfName
1000
SCALE
1000
AcRTDxfName
1000
SCALE
1000
AcRTDxfName
1000
SCALE
1000
AcRTDxfName
1000
SCALE
1000
AcRTDxfName
1000
SCALE
1000
AcRTDxfName
1000
SCALE
  0
SCALE
  5
ADB
102
{ACAD_REACTORS
330
AD9
102
}
330
AD9
100
AcDbScale
 70
     0
300
1:2
140
1.0
141
2.0
290
     0
1001
ACAD
1000
AcRTDxfName
1000
SCALE
1000
AcRTDxfName
1000
SCALE
1000
AcRTDxfName
1000
SCALE
1000
AcRTDxfName
1000
SCALE
1000
AcRTDxfName
1000
SCALE
1000
AcRTDxfName
1000
SCALE
  0
SCALE
  5
ADC
102
{ACAD_REACTORS
330
AD9
102
}
330
AD9
100
AcDbScale
 70
     0
300
1:4
140
1.0
141
4.0
290
     0
1001
ACAD
1000
AcRTDxfName
1000
SCALE
1000
AcRTDxfName
1000
SCALE
1000
AcRTDxfName
1000
SCALE
1000
AcRTDxfName
1000
SCALE
1000
AcRTDxfName
1000
SCALE
1000
AcRTDxfName
1000
SCALE
  0
SCALE
  5
ADD
102
{ACAD_REACTORS
330
AD9
102
}
330
AD9
100
AcDbScale
 70
     0
300
1:5
140
1.0
141
5.0
290
     0
1001
ACAD
1000
AcRTDxfName
1000
SCALE
1000
AcRTDxfName
1000
SCALE
1000
AcRTDxfName
1000
SCALE
1000
AcRTDxfName
1000
SCALE
1000
AcRTDxfName
1000
SCALE
1000
AcRTDxfName
1000
SCALE
  0
SCALE
  5
ADE
102
{ACAD_REACTORS
330
AD9
102
}
330
AD9
100
AcDbScale
 70
     0
300
1:8
140
1.0
141
8.0
290
     0
1001
ACAD
1000
AcRTDxfName
1000
SCALE
1000
AcRTDxfName
1000
SCALE
1000
AcRTDxfName
1000
SCALE
1000
AcRTDxfName
1000
SCALE
1000
AcRTDxfName
1000
SCALE
1000
AcRTDxfName
1000
SCALE
  0
SCALE
  5
ADF
102
{ACAD_REACTORS
330
AD9
102
}
330
AD9
100
AcDbScale
 70
     0
300
1:10
140
1.0
141
10.0
290
     0
1001
ACAD
1000
AcRTDxfName
1000
SCALE
1000
AcRTDxfName
1000
SCALE
1000
AcRTDxfName
1000
SCALE
1000
AcRTDxfName
1000
SCALE
1000
AcRTDxfName
1000
SCALE
1000
AcRTDxfName
1000
SCALE
  0
SCALE
  5
AE0
102
{ACAD_REACTORS
330
AD9
102
}
330
AD9
100
AcDbScale
 70
     0
300
1:16
140
1.0
141
16.0
290
     0
1001
ACAD
1000
AcRTDxfName
1000
SCALE
1000
AcRTDxfName
1000
SCALE
1000
AcRTDxfName
1000
SCALE
1000
AcRTDxfName
1000
SCALE
1000
AcRTDxfName
1000
SCALE
1000
AcRTDxfName
1000
SCALE
  0
SCALE
  5
AE1
102
{ACAD_REACTORS
330
AD9
102
}
330
AD9
100
AcDbScale
 70
     0
300
1:20
140
1.0
141
20.0
290
     0
1001
ACAD
1000
AcRTDxfName
1000
SCALE
1000
AcRTDxfName
1000
SCALE
1000
AcRTDxfName
1000
SCALE
1000
AcRTDxfName
1000
SCALE
1000
AcRTDxfName
1000
SCALE
1000
AcRTDxfName
1000
SCALE
  0
SCALE
  5
AE2
102
{ACAD_REACTORS
330
AD9
102
}
330
AD9
100
AcDbScale
 70
     0
300
1:30
140
1.0
141
30.0
290
     0
1001
ACAD
1000
AcRTDxfName
1000
SCALE
1000
AcRTDxfName
1000
SCALE
1000
AcRTDxfName
1000
SCALE
1000
AcRTDxfName
1000
SCALE
1000
AcRTDxfName
1000
SCALE
1000
AcRTDxfName
1000
SCALE
  0
SCALE
  5
AE3
102
{ACAD_REACTORS
330
AD9
102
}
330
AD9
100
AcDbScale
 70
     0
300
1:40
140
1.0
141
40.0
290
     0
1001
ACAD
1000
AcRTDxfName
1000
SCALE
1000
AcRTDxfName
1000
SCALE
1000
AcRTDxfName
1000
SCALE
1000
AcRTDxfName
1000
SCALE
1000
AcRTDxfName
1000
SCALE
1000
AcRTDxfName
1000
SCALE
  0
SCALE
  5
AE4
102
{ACAD_REACTORS
330
AD9
102
}
330
AD9
100
AcDbScale
 70
     0
300
1:50
140
1.0
141
50.0
290
     0
1001
ACAD
1000
AcRTDxfName
1000
SCALE
1000
AcRTDxfName
1000
SCALE
1000
AcRTDxfName
1000
SCALE
1000
AcRTDxfName
1000
SCALE
1000
AcRTDxfName
1000
SCALE
1000
AcRTDxfName
1000
SCALE
  0
SCALE
  5
AE5
102
{ACAD_REACTORS
330
AD9
102
}
330
AD9
100
AcDbScale
 70
     0
300
1:100
140
1.0
141
100.0
290
     0
1001
ACAD
1000
AcRTDxfName
1000
SCALE
1000
AcRTDxfName
1000
SCALE
1000
AcRTDxfName
1000
SCALE
1000
AcRTDxfName
1000
SCALE
1000
AcRTDxfName
1000
SCALE
1000
AcRTDxfName
1000
SCALE
  0
SCALE
  5
AE6
102
{ACAD_REACTORS
330
AD9
102
}
330
AD9
100
AcDbScale
 70
     0
300
2:1
140
2.0
141
1.0
290
     0
1001
ACAD
1000
AcRTDxfName
1000
SCALE
1000
AcRTDxfName
1000
SCALE
1000
AcRTDxfName
1000
SCALE
1000
AcRTDxfName
1000
SCALE
1000
AcRTDxfName
1000
SCALE
1000
AcRTDxfName
1000
SCALE
  0
SCALE
  5
AE7
102
{ACAD_REACTORS
330
AD9
102
}
330
AD9
100
AcDbScale
 70
     0
300
4:1
140
4.0
141
1.0
290
     0
1001
ACAD
1000
AcRTDxfName
1000
SCALE
1000
AcRTDxfName
1000
SCALE
1000
AcRTDxfName
1000
SCALE
1000
AcRTDxfName
1000
SCALE
1000
AcRTDxfName
1000
SCALE
1000
AcRTDxfName
1000
SCALE
  0
SCALE
  5
AE8
102
{ACAD_REACTORS
330
AD9
102
}
330
AD9
100
AcDbScale
 70
     0
300
8:1
140
8.0
141
1.0
290
     0
1001
ACAD
1000
AcRTDxfName
1000
SCALE
1000
AcRTDxfName
1000
SCALE
1000
AcRTDxfName
1000
SCALE
1000
AcRTDxfName
1000
SCALE
1000
AcRTDxfName
1000
SCALE
1000
AcRTDxfName
1000
SCALE
  0
SCALE
  5
AE9
102
{ACAD_REACTORS
330
AD9
102
}
330
AD9
100
AcDbScale
 70
     0
300
10:1
140
10.0
141
1.0
290
     0
1001
ACAD
1000
AcRTDxfName
1000
SCALE
1000
AcRTDxfName
1000
SCALE
1000
AcRTDxfName
1000
SCALE
1000
AcRTDxfName
1000
SCALE
1000
AcRTDxfName
1000
SCALE
1000
AcRTDxfName
1000
SCALE
  0
SCALE
  5
AEA
102
{ACAD_REACTORS
330
AD9
102
}
330
AD9
100
AcDbScale
 70
     0
300
100:1
140
100.0
141
1.0
290
     0
1001
ACAD
1000
AcRTDxfName
1000
SCALE
1000
AcRTDxfName
1000
SCALE
1000
AcRTDxfName
1000
SCALE
1000
AcRTDxfName
1000
SCALE
1000
AcRTDxfName
1000
SCALE
1000
AcRTDxfName
1000
SCALE
  0
SCALE
  5
AEB
102
{ACAD_REACTORS
330
AD9
102
}
330
AD9
100
AcDbScale
 70
     0
300
1/128" = 1'-0"
140
0.0078125
141
12.0
290
     0
1001
ACAD
1000
AcRTDxfName
1000
SCALE
1000
AcRTDxfName
1000
SCALE
1000
AcRTDxfName
1000
SCALE
1000
AcRTDxfName
1000
SCALE
1000
AcRTDxfName
1000
SCALE
1000
AcRTDxfName
1000
SCALE
  0
SCALE
  5
AEC
102
{ACAD_REACTORS
330
AD9
102
}
330
AD9
100
AcDbScale
 70
     0
300
1/64" = 1'-0"
140
0.015625
141
12.0
290
     0
1001
ACAD
1000
AcRTDxfName
1000
SCALE
1000
AcRTDxfName
1000
SCALE
1000
AcRTDxfName
1000
SCALE
1000
AcRTDxfName
1000
SCALE
1000
AcRTDxfName
1000
SCALE
1000
AcRTDxfName
1000
SCALE
  0
SCALE
  5
AED
102
{ACAD_REACTORS
330
AD9
102
}
330
AD9
100
AcDbScale
 70
     0
300
1/32" = 1'-0"
140
0.03125
141
12.0
290
     0
1001
ACAD
1000
AcRTDxfName
1000
SCALE
1000
AcRTDxfName
1000
SCALE
1000
AcRTDxfName
1000
SCALE
1000
AcRTDxfName
1000
SCALE
1000
AcRTDxfName
1000
SCALE
1000
AcRTDxfName
1000
SCALE
  0
SCALE
  5
AEE
102
{ACAD_REACTORS
330
AD9
102
}
330
AD9
100
AcDbScale
 70
     0
300
1/16" = 1'-0"
140
0.0625
141
12.0
290
     0
1001
ACAD
1000
AcRTDxfName
1000
SCALE
1000
AcRTDxfName
1000
SCALE
1000
AcRTDxfName
1000
SCALE
1000
AcRTDxfName
1000
SCALE
1000
AcRTDxfName
1000
SCALE
1000
AcRTDxfName
1000
SCALE
  0
SCALE
  5
AEF
102
{ACAD_REACTORS
330
AD9
102
}
330
AD9
100
AcDbScale
 70
     0
300
3/32" = 1'-0"
140
0.09375
141
12.0
290
     0
1001
ACAD
1000
AcRTDxfName
1000
SCALE
1000
AcRTDxfName
1000
SCALE
1000
AcRTDxfName
1000
SCALE
1000
AcRTDxfName
1000
SCALE
1000
AcRTDxfName
1000
SCALE
1000
AcRTDxfName
1000
SCALE
  0
SCALE
  5
AF0
102
{ACAD_REACTORS
330
AD9
102
}
330
AD9
100
AcDbScale
 70
     0
300
1/8" = 1'-0"
140
0.125
141
12.0
290
     0
1001
ACAD
1000
AcRTDxfName
1000
SCALE
1000
AcRTDxfName
1000
SCALE
1000
AcRTDxfName
1000
SCALE
1000
AcRTDxfName
1000
SCALE
1000
AcRTDxfName
1000
SCALE
1000
AcRTDxfName
1000
SCALE
  0
SCALE
  5
AF1
102
{ACAD_REACTORS
330
AD9
102
}
330
AD9
100
AcDbScale
 70
     0
300
3/16" = 1'-0"
140
0.1875
141
12.0
290
     0
1001
ACAD
1000
AcRTDxfName
1000
SCALE
1000
AcRTDxfName
1000
SCALE
1000
AcRTDxfName
1000
SCALE
1000
AcRTDxfName
1000
SCALE
1000
AcRTDxfName
1000
SCALE
1000
AcRTDxfName
1000
SCALE
  0
SCALE
  5
AF2
102
{ACAD_REACTORS
330
AD9
102
}
330
AD9
100
AcDbScale
 70
     0
300
1/4" = 1'-0"
140
0.25
141
12.0
290
     0
1001
ACAD
1000
AcRTDxfName
1000
SCALE
1000
AcRTDxfName
1000
SCALE
1000
AcRTDxfName
1000
SCALE
1000
AcRTDxfName
1000
SCALE
1000
AcRTDxfName
1000
SCALE
1000
AcRTDxfName
1000
SCALE
  0
SCALE
  5
AF3
102
{ACAD_REACTORS
330
AD9
102
}
330
AD9
100
AcDbScale
 70
     0
300
3/8" = 1'-0"
140
0.375
141
12.0
290
     0
1001
ACAD
1000
AcRTDxfName
1000
SCALE
1000
AcRTDxfName
1000
SCALE
1000
AcRTDxfName
1000
SCALE
1000
AcRTDxfName
1000
SCALE
1000
AcRTDxfName
1000
SCALE
1000
AcRTDxfName
1000
SCALE
  0
SCALE
  5
AF4
102
{ACAD_REACTORS
330
AD9
102
}
330
AD9
100
AcDbScale
 70
     0
300
1/2" = 1'-0"
140
0.5
141
12.0
290
     0
1001
ACAD
1000
AcRTDxfName
1000
SCALE
1000
AcRTDxfName
1000
SCALE
1000
AcRTDxfName
1000
SCALE
1000
AcRTDxfName
1000
SCALE
1000
AcRTDxfName
1000
SCALE
1000
AcRTDxfName
1000
SCALE
  0
SCALE
  5
AF5
102
{ACAD_REACTORS
330
AD9
102
}
330
AD9
100
AcDbScale
 70
     0
300
3/4" = 1'-0"
140
0.75
141
12.0
290
     0
1001
ACAD
1000
AcRTDxfName
1000
SCALE
1000
AcRTDxfName
1000
SCALE
1000
AcRTDxfName
1000
SCALE
1000
AcRTDxfName
1000
SCALE
1000
AcRTDxfName
1000
SCALE
1000
AcRTDxfName
1000
SCALE
  0
SCALE
  5
AF6
102
{ACAD_REACTORS
330
AD9
102
}
330
AD9
100
AcDbScale
 70
     0
300
1" = 1'-0"
140
1.0
141
12.0
290
     0
1001
ACAD
1000
AcRTDxfName
1000
SCALE
1000
AcRTDxfName
1000
SCALE
1000
AcRTDxfName
1000
SCALE
1000
AcRTDxfName
1000
SCALE
1000
AcRTDxfName
1000
SCALE
1000
AcRTDxfName
1000
SCALE
  0
SCALE
  5
AF7
102
{ACAD_REACTORS
330
AD9
102
}
330
AD9
100
AcDbScale
 70
     0
300
1-1/2" = 1'-0"
140
1.5
141
12.0
290
     0
1001
ACAD
1000
AcRTDxfName
1000
SCALE
1000
AcRTDxfName
1000
SCALE
1000
AcRTDxfName
1000
SCALE
1000
AcRTDxfName
1000
SCALE
1000
AcRTDxfName
1000
SCALE
1000
AcRTDxfName
1000
SCALE
  0
SCALE
  5
AF8
102
{ACAD_REACTORS
330
AD9
102
}
330
AD9
100
AcDbScale
 70
     0
300
3" = 1'-0"
140
3.0
141
12.0
290
     0
1001
ACAD
1000
AcRTDxfName
1000
SCALE
1000
AcRTDxfName
1000
SCALE
1000
AcRTDxfName
1000
SCALE
1000
AcRTDxfName
1000
SCALE
1000
AcRTDxfName
1000
SCALE
1000
AcRTDxfName
1000
SCALE
  0
SCALE
  5
AF9
102
{ACAD_REACTORS
330
AD9
102
}
330
AD9
100
AcDbScale
 70
     0
300
6" = 1'-0"
140
6.0
141
12.0
290
     0
1001
ACAD
1000
AcRTDxfName
1000
SCALE
1000
AcRTDxfName
1000
SCALE
1000
AcRTDxfName
1000
SCALE
1000
AcRTDxfName
1000
SCALE
1000
AcRTDxfName
1000
SCALE
1000
AcRTDxfName
1000
SCALE
  0
SCALE
  5
AFA
102
{ACAD_REACTORS
330
AD9
102
}
330
AD9
100
AcDbScale
 70
     0
300
1'-0" = 1'-0"
140
12.0
141
12.0
290
     0
1001
ACAD
1000
AcRTDxfName
1000
SCALE
1000
AcRTDxfName
1000
SCALE
1000
AcRTDxfName
1000
SCALE
1000
AcRTDxfName
1000
SCALE
1000
AcRTDxfName
1000
SCALE
1000
AcRTDxfName
1000
SCALE
  0
TABLESTYLE
  5
AD8
102
{ACAD_XDICTIONARY
360
B17
102
}
102
{ACAD_REACTORS
330
AD7
102
}
330
AD7
100
AcDbTableStyle
  3
Standard
 70
     0
 71
     0
 40
0.06
 41
0.06
280
     0
281
     0
  7
STANDARD
140
0.18
170
     2
 62
     0
 63
     7
283
     0
274
    -2
284
     1
 64
     0
275
    -2
285
     1
 65
     0
276
    -2
286
     1
 66
     0
277
    -2
287
     1
 67
     0
278
    -2
288
     1
 68
     0
279
    -2
289
     1
 69
     0
  7
STANDARD
140
0.25
170
     5
 62
     0
 63
     7
283
     0
274
    -2
284
     1
 64
     0
275
    -2
285
     1
 65
     0
276
    -2
286
     1
 66
     0
277
    -2
287
     1
 67
     0
278
    -2
288
     1
 68
     0
279
    -2
289
     1
 69
     0
  7
STANDARD
140
0.18
170
     5
 62
     0
 63
     7
283
     0
274
    -2
284
     1
 64
     0
275
    -2
285
     1
 65
     0
276
    -2
286
     1
 66
     0
277
    -2
287
     1
 67
     0
278
    -2
288
     1
 68
     0
279
    -2
289
     1
 69
     0
  0
VISUALSTYLE
  5
ACC
102
{ACAD_REACTORS
330
AC6
102
}
330
AC6
100
AcDbVisualStyle
  2
2dWireframe
 70
     4
 71
     0
 72
     2
 73
     0
 90
        0
 40
-0.6
 41
-30.0
 62
     5
 63
     7
 74
     1
 91
        4
 64
     7
 65
   257
 75
     1
175
     1
 42
1.0
 92
        0
 66
   257
 43
1.0
 76
     1
 77
     6
 78
     2
 67
     7
 79
     5
170
     0
171
     0
290
     0
174
     0
 93
        1
 44
0.0
173
     0
291
     0
 45
0.0
1001
ACAD
1000
AcDbSavedByObjectVersion
1070
     0
1000
AcDbSavedByObjectVersion
1070
     0
1000
AcDbSavedByObjectVersion
1070
     0
  0
VISUALSTYLE
  5
ACE
102
{ACAD_REACTORS
330
AC6
102
}
330
AC6
100
AcDbVisualStyle
  2
3D Hidden
 70
     6
 71
     1
 72
     2
 73
     2
 90
        0
 40
-0.6
 41
-30.0
 62
     5
 63
     7
 74
     2
 91
        2
 64
     7
 65
   257
 75
     2
175
     1
 42
40.0
 92
        0
 66
   257
 43
1.0
 76
     1
 77
     6
 78
     2
 67
     7
 79
     3
170
     0
171
     0
290
     0
174
     0
 93
        1
 44
0.0
173
     0
291
     0
 45
0.0
1001
ACAD
1000
AcDbSavedByObjectVersion
1070
     0
1000
AcDbSavedByObjectVersion
1070
     0
1000
AcDbSavedByObjectVersion
1070
     0
  0
VISUALSTYLE
  5
ACD
102
{ACAD_REACTORS
330
AC6
102
}
330
AC6
100
AcDbVisualStyle
  2
3dWireframe
 70
     5
 71
     0
 72
     2
 73
     0
 90
        0
 40
-0.6
 41
-30.0
 62
     5
 63
     7
 74
     1
 91
        4
 64
     7
 65
   257
 75
     1
175
     1
 42
1.0
 92
        0
 66
   257
 43
1.0
 76
     1
 77
     6
 78
     2
 67
     7
 79
     5
170
     0
171
     0
290
     0
174
     0
 93
        1
 44
0.0
173
     0
291
     0
 45
0.0
1001
ACAD
1000
AcDbSavedByObjectVersion
1070
     0
1000
AcDbSavedByObjectVersion
1070
     0
1000
AcDbSavedByObjectVersion
1070
     0
  0
VISUALSTYLE
  5
ACB
102
{ACAD_REACTORS
330
AC6
102
}
330
AC6
100
AcDbVisualStyle
  2
Basic
 70
     7
 71
     1
 72
     0
 73
     1
 90
        0
 40
-0.6
 41
-30.0
 62
     5
 63
     7
 74
     0
 91
        4
 64
     7
 65
   257
 75
     1
175
     1
 42
1.0
 92
        8
 66
     7
 43
1.0
 76
     1
 77
     6
 78
     2
 67
     7
 79
     5
170
     0
171
     0
290
     0
174
     0
 93
        1
 44
0.0
173
     0
291
     1
 45
0.0
1001
ACAD
1000
AcDbSavedByObjectVersion
1070
     0
1000
AcDbSavedByObjectVersion
1070
     0
1000
AcDbSavedByObjectVersion
1070
     0
  0
VISUALSTYLE
  5
AD2
102
{ACAD_REACTORS
330
AC6
102
}
330
AC6
100
AcDbVisualStyle
  2
Brighten
 70
    12
 71
     2
 72
     2
 73
     0
 90
        0
 40
-0.6
 41
-30.0
 62
     5
 63
     7
 74
     1
 91
        4
 64
     7
 65
   257
 75
     1
175
     1
 42
1.0
 92
        8
 66
     7
 43
1.0
 76
     1
 77
     6
 78
     2
 67
     7
 79
     5
170
     0
171
     0
290
     0
174
     0
 93
        1
 44
50.0
173
     0
291
     1
 45
0.0
1001
ACAD
1000
AcDbSavedByObjectVersion
1070
     0
1000
AcDbSavedByObjectVersion
1070
     0
1000
AcDbSavedByObjectVersion
1070
     0
  0
VISUALSTYLE
  5
AD6
102
{ACAD_REACTORS
330
AC6
102
}
330
AC6
100
AcDbVisualStyle
  2
ColorChange
 70
    16
 71
     2
 72
     2
 73
     3
 90
        0
 40
-0.6
 41
-30.0
 62
     5
 63
     8
 74
     1
 91
        4
 64
     7
 65
   257
 75
     1
175
     1
 42
1.0
 92
        8
 66
     8
 43
1.0
 76
     1
 77
     6
 78
     2
 67
     7
 79
     5
170
     0
171
     0
290
     0
174
     0
 93
        1
 44
0.0
173
     0
291
     1
 45
0.0
1001
ACAD
1000
AcDbSavedByObjectVersion
1070
     0
1000
AcDbSavedByObjectVersion
1070
     0
1000
AcDbSavedByObjectVersion
1070
     0
  0
VISUALSTYLE
  5
ACF
102
{ACAD_REACTORS
330
AC6
102
}
330
AC6
100
AcDbVisualStyle
  2
Conceptual
 70
     9
 71
     3
 72
     2
 73
     0
 90
        0
 40
-0.6
 41
-30.0
 62
     5
 63
     7
 74
     2
 91
        2
 64
     7
 65
   257
 75
     1
175
     1
 42
40.0
 92
        8
 66
     7
 43
1.0
 76
     1
 77
     6
 78
     2
 67
     7
 79
     3
170
     0
171
     0
290
     0
174
     0
 93
        1
 44
0.0
173
     0
291
     0
 45
0.0
1001
ACAD
1000
AcDbSavedByObjectVersion
1070
     0
1000
AcDbSavedByObjectVersion
1070
     0
1000
AcDbSavedByObjectVersion
1070
     0
  0
VISUALSTYLE
  5
AD1
102
{ACAD_REACTORS
330
AC6
102
}
330
AC6
100
AcDbVisualStyle
  2
Dim
 70
    11
 71
     2
 72
     2
 73
     0
 90
        0
 40
-0.6
 41
-30.0
 62
     5
 63
     7
 74
     1
 91
        4
 64
     7
 65
   257
 75
     1
175
     1
 42
1.0
 92
        8
 66
     7
 43
1.0
 76
     1
 77
     6
 78
     2
 67
     7
 79
     5
170
     0
171
     0
290
     0
174
     0
 93
        1
 44
-50.0
173
     0
291
     1
 45
0.0
1001
ACAD
1000
AcDbSavedByObjectVersion
1070
     0
1000
AcDbSavedByObjectVersion
1070
     0
1000
AcDbSavedByObjectVersion
1070
     0
  0
VISUALSTYLE
  5
AD5
102
{ACAD_REACTORS
330
AC6
102
}
330
AC6
100
AcDbVisualStyle
  2
Facepattern
 70
    15
 71
     2
 72
     2
 73
     0
 90
        0
 40
-0.6
 41
-30.0
 62
     5
 63
     7
 74
     1
 91
        4
 64
     7
 65
   257
 75
     1
175
     1
 42
1.0
 92
        8
 66
     7
 43
1.0
 76
     1
 77
     6
 78
     2
 67
     7
 79
     5
170
     0
171
     0
290
     0
174
     0
 93
        1
 44
0.0
173
     0
291
     1
 45
0.0
1001
ACAD
1000
AcDbSavedByObjectVersion
1070
     0
1000
AcDbSavedByObjectVersion
1070
     0
1000
AcDbSavedByObjectVersion
1070
     0
  0
VISUALSTYLE
  5
AC7
102
{ACAD_REACTORS
330
AC6
102
}
330
AC6
100
AcDbVisualStyle
  2
Flat
 70
     0
 71
     2
 72
     1
 73
     1
 90
        2
 40
-0.6
 41
30.0
 62
     5
 63
     7
 74
     0
 91
        4
 64
     7
 65
   257
 75
     1
175
     1
 42
1.0
 92
        8
 66
     7
 43
1.0
 76
     1
 77
     6
 78
     2
 67
     7
 79
     5
170
     0
171
     0
290
     0
174
     0
 93
       13
 44
0.0
173
     0
291
     1
 45
0.0
1001
ACAD
1000
AcDbSavedByObjectVersion
1070
     0
1000
AcDbSavedByObjectVersion
1070
     0
1000
AcDbSavedByObjectVersion
1070
     0
  0
VISUALSTYLE
  5
AC8
102
{ACAD_REACTORS
330
AC6
102
}
330
AC6
100
AcDbVisualStyle
  2
FlatWithEdges
 70
     1
 71
     2
 72
     1
 73
     1
 90
        2
 40
-0.6
 41
30.0
 62
     5
 63
     7
 74
     1
 91
        4
 64
     7
 65
   257
 75
     1
175
     1
 42
1.0
 92
        0
 66
   257
 43
1.0
 76
     1
 77
     6
 78
     2
 67
     7
 79
     5
170
     0
171
     0
290
     0
174
     0
 93
       13
 44
0.0
173
     0
291
     1
 45
0.0
1001
ACAD
1000
AcDbSavedByObjectVersion
1070
     0
1000
AcDbSavedByObjectVersion
1070
     0
1000
AcDbSavedByObjectVersion
1070
     0
  0
VISUALSTYLE
  5
AC9
102
{ACAD_REACTORS
330
AC6
102
}
330
AC6
100
AcDbVisualStyle
  2
Gouraud
 70
     2
 71
     2
 72
     2
 73
     1
 90
        2
 40
-0.6
 41
30.0
 62
     5
 63
     7
 74
     0
 91
        4
 64
     7
 65
   257
 75
     1
175
     1
 42
1.0
 92
        0
 66
     7
 43
1.0
 76
     1
 77
     6
 78
     2
 67
     7
 79
     5
170
     0
171
     0
290
     0
174
     0
 93
       13
 44
0.0
173
     0
291
     1
 45
0.0
1001
ACAD
1000
AcDbSavedByObjectVersion
1070
     0
1000
AcDbSavedByObjectVersion
1070
     0
1000
AcDbSavedByObjectVersion
1070
     0
  0
VISUALSTYLE
  5
ACA
102
{ACAD_REACTORS
330
AC6
102
}
330
AC6
100
AcDbVisualStyle
  2
GouraudWithEdges
 70
     3
 71
     2
 72
     2
 73
     1
 90
        2
 40
-0.6
 41
30.0
 62
     5
 63
     7
 74
     1
 91
        4
 64
     7
 65
   257
 75
     1
175
     1
 42
1.0
 92
        0
 66
   257
 43
1.0
 76
     1
 77
     6
 78
     2
 67
     7
 79
     5
170
     0
171
     0
290
     0
174
     0
 93
       13
 44
0.0
173
     0
291
     1
 45
0.0
1001
ACAD
1000
AcDbSavedByObjectVersion
1070
     0
1000
AcDbSavedByObjectVersion
1070
     0
1000
AcDbSavedByObjectVersion
1070
     0
  0
VISUALSTYLE
  5
AD4
102
{ACAD_REACTORS
330
AC6
102
}
330
AC6
100
AcDbVisualStyle
  2
Linepattern
 70
    14
 71
     2
 72
     2
 73
     0
 90
        0
 40
-0.6
 41
-30.0
 62
     5
 63
     7
 74
     1
 91
        4
 64
     7
 65
   257
 75
     7
175
     7
 42
1.0
 92
        8
 66
     7
 43
1.0
 76
     1
 77
     6
 78
     2
 67
     7
 79
     5
170
     0
171
     0
290
     0
174
     0
 93
        1
 44
0.0
173
     0
291
     1
 45
0.0
1001
ACAD
1000
AcDbSavedByObjectVersion
1070
     0
1000
AcDbSavedByObjectVersion
1070
     0
1000
AcDbSavedByObjectVersion
1070
     0
  0
VISUALSTYLE
  5
AD0
102
{ACAD_REACTORS
330
AC6
102
}
330
AC6
100
AcDbVisualStyle
  2
Realistic
 70
     8
 71
     2
 72
     2
 73
     0
 90
        0
 40
-0.6
 41
-30.0
 62
     5
 63
     7
 74
     1
 91
        0
 64
     7
 65
   257
 75
     1
175
     1
 42
1.0
 92
        8
 66
     8
 43
1.0
 76
     1
 77
     6
 78
     2
 67
     7
 79
     5
170
     0
171
     0
290
     0
174
     0
 93
       13
 44
0.0
173
     0
291
     0
 45
0.0
1001
ACAD
1000
AcDbSavedByObjectVersion
1070
     0
1000
AcDbSavedByObjectVersion
1070
     0
1000
AcDbSavedByObjectVersion
1070
     0
  0
VISUALSTYLE
  5
AD3
102
{ACAD_REACTORS
330
AC6
102
}
330
AC6
100
AcDbVisualStyle
  2
Thicken
 70
    13
 71
     2
 72
     2
 73
     0
 90
        0
 40
-0.6
 41
-30.0
 62
     5
 63
     7
 74
     1
 91
        4
 64
     7
 65
   257
 75
     1
175
     1
 42
1.0
 92
       12
 66
     7
 43
1.0
 76
     1
 77
     6
 78
     2
 67
     7
 79
     5
170
     0
171
     0
290
     0
174
     0
 93
        1
 44
0.0
173
     0
291
     1
 45
0.0
1001
ACAD
1000
AcDbSavedByObjectVersion
1070
     0
1000
AcDbSavedByObjectVersion
1070
     0
1000
AcDbSavedByObjectVersion
1070
     0
  0
DICTIONARYVAR
  5
B33
102
{ACAD_REACTORS
330
6DE
102
}
330
6DE
100
DictionaryVariables
280
     0
  1
1:1
  0
DICTIONARYVAR
  5
B32
102
{ACAD_REACTORS
330
6DE
102
}
330
6DE
100
DictionaryVariables
280
     0
  1
STANDARD
  0
DICTIONARYVAR
  5
B31
102
{ACAD_REACTORS
330
6DE
102
}
330
6DE
100
DictionaryVariables
280
     0
  1
STANDARD
  0
DICTIONARYVAR
  5
6DF
102
{ACAD_REACTORS
330
6DE
102
}
330
6DE
100
DictionaryVariables
280
     0
  1
1
  0
DICTIONARYVAR
  5
B35
102
{ACAD_REACTORS
330
6DE
102
}
330
6DE
100
DictionaryVariables
280
     0
  1
0
  0
DICTIONARYVAR
  5
6E0
102
{ACAD_REACTORS
330
6DE
102
}
330
6DE
100
DictionaryVariables
280
     0
  1

  0
DICTIONARYVAR
  5
B34
102
{ACAD_REACTORS
330
6DE
102
}
330
6DE
100
DictionaryVariables
280
     0
  1
127
  0
DICTIONARY
  5
33212
330
619
100
AcDbDictionary
280
     1
281
     1
  3
ACAD_XREC_ROUNDTRIP
360
33213
  0
DICTIONARY
  5
33214
330
61A
100
AcDbDictionary
280
     1
281
     1
  3
ACAD_XREC_ROUNDTRIP
360
33215
  0
DICTIONARY
  5
AB7
330
AB6
100
AcDbDictionary
280
     1
281
     1
  3
ACAD_XREC_ROUNDTRIP
360
331F3
  3
BUMPTILE
360
AB9
  3
DIFFUSETILE
360
AB8
  3
OPACITYTILE
360
ABC
  3
REFLECTIONTILE
360
ABB
  3
REFRACTIONTILE
360
ABD
  3
SPECULARTILE
360
ABA
  0
DICTIONARY
  5
AAF
330
AAE
100
AcDbDictionary
280
     1
281
     1
  3
ACAD_XREC_ROUNDTRIP
360
331F2
  3
BUMPTILE
360
AB1
  3
DIFFUSETILE
360
AB0
  3
OPACITYTILE
360
AB4
  3
REFLECTIONTILE
360
AB3
  3
REFRACTIONTILE
360
AB5
  3
SPECULARTILE
360
AB2
  0
DICTIONARY
  5
ABF
330
ABE
100
AcDbDictionary
280
     1
281
     1
  3
ACAD_XREC_ROUNDTRIP
360
331F4
  3
BUMPTILE
360
AC1
  3
DIFFUSETILE
360
AC0
  3
OPACITYTILE
360
AC4
  3
REFLECTIONTILE
360
AC3
  3
REFRACTIONTILE
360
AC5
  3
SPECULARTILE
360
AC2
  0
DICTIONARY
  5
B17
330
AD8
100
AcDbDictionary
280
     1
281
     1
  3
ACAD_ROUNDTRIP_2008_TABLESTYLE_CELLSTYLEMAP
360
3320E
  3
ACAD_XREC_ROUNDTRIP
360
33216
  0
XRECORD
  5
33213
102
{ACAD_REACTORS
330
33212
102
}
330
33212
100
AcDbXrecord
280
     1
102
SHADEPLOT
 70
     1
102
SHADEPLOTRESLEVEL
 70
     2
102
SHADEPLOTCUSTOMDPI
 70
   300
  0
XRECORD
  5
33215
102
{ACAD_REACTORS
330
33214
102
}
330
33214
100
AcDbXrecord
280
     1
102
SHADEPLOT
 70
     0
102
SHADEPLOTRESLEVEL
 70
     2
102
SHADEPLOTCUSTOMDPI
 70
   300
  0
XRECORD
  5
331F3
102
{ACAD_REACTORS
330
AB7
102
}
330
AB7
100
AcDbXrecord
280
     1
102
MATERIAL
148
0.0
149
0.0
149
0.0
 93
        0
 94
      127
282
     0
 72
     0
 77
     0
171
     0
175
     0
179
     0
273
     0
  0
XRECORD
  5
AB9
102
{ACAD_REACTORS
330
AB7
102
}
330
AB7
100
AcDbXrecord
280
     1
270
     1
271
     1
  0
XRECORD
  5
AB8
102
{ACAD_REACTORS
330
AB7
102
}
330
AB7
100
AcDbXrecord
280
     1
270
     1
271
     1
  0
XRECORD
  5
ABC
102
{ACAD_REACTORS
330
AB7
102
}
330
AB7
100
AcDbXrecord
280
     1
270
     1
271
     1
  0
XRECORD
  5
ABB
102
{ACAD_REACTORS
330
AB7
102
}
330
AB7
100
AcDbXrecord
280
     1
270
     1
271
     1
  0
XRECORD
  5
ABD
102
{ACAD_REACTORS
330
AB7
102
}
330
AB7
100
AcDbXrecord
280
     1
270
     1
271
     1
  0
XRECORD
  5
ABA
102
{ACAD_REACTORS
330
AB7
102
}
330
AB7
100
AcDbXrecord
280
     1
270
     1
271
     1
  0
XRECORD
  5
331F2
102
{ACAD_REACTORS
330
AAF
102
}
330
AAF
100
AcDbXrecord
280
     1
102
MATERIAL
148
0.0
149
0.0
149
0.0
 93
        0
 94
      127
282
     0
 72
     0
 77
     0
171
     0
175
     0
179
     0
273
     0
  0
XRECORD
  5
AB1
102
{ACAD_REACTORS
330
AAF
102
}
330
AAF
100
AcDbXrecord
280
     1
270
     1
271
     1
  0
XRECORD
  5
AB0
102
{ACAD_REACTORS
330
AAF
102
}
330
AAF
100
AcDbXrecord
280
     1
270
     1
271
     1
  0
XRECORD
  5
AB4
102
{ACAD_REACTORS
330
AAF
102
}
330
AAF
100
AcDbXrecord
280
     1
270
     1
271
     1
  0
XRECORD
  5
AB3
102
{ACAD_REACTORS
330
AAF
102
}
330
AAF
100
AcDbXrecord
280
     1
270
     1
271
     1
  0
XRECORD
  5
AB5
102
{ACAD_REACTORS
330
AAF
102
}
330
AAF
100
AcDbXrecord
280
     1
270
     1
271
     1
  0
XRECORD
  5
AB2
102
{ACAD_REACTORS
330
AAF
102
}
330
AAF
100
AcDbXrecord
280
     1
270
     1
271
     1
  0
XRECORD
  5
331F4
102
{ACAD_REACTORS
330
ABF
102
}
330
ABF
100
AcDbXrecord
280
     1
102
MATERIAL
148
0.0
149
0.0
149
0.0
 93
        0
 94
      127
282
     0
 72
     0
 77
     0
171
     0
175
     0
179
     0
273
     0
  0
XRECORD
  5
AC1
102
{ACAD_REACTORS
330
ABF
102
}
330
ABF
100
AcDbXrecord
280
     1
270
     1
271
     1
  0
XRECORD
  5
AC0
102
{ACAD_REACTORS
330
ABF
102
}
330
ABF
100
AcDbXrecord
280
     1
270
     1
271
     1
  0
XRECORD
  5
AC4
102
{ACAD_REACTORS
330
ABF
102
}
330
ABF
100
AcDbXrecord
280
     1
270
     1
271
     1
  0
XRECORD
  5
AC3
102
{ACAD_REACTORS
330
ABF
102
}
330
ABF
100
AcDbXrecord
280
     1
270
     1
271
     1
  0
XRECORD
  5
AC5
102
{ACAD_REACTORS
330
ABF
102
}
330
ABF
100
AcDbXrecord
280
     1
270
     1
271
     1
  0
XRECORD
  5
AC2
102
{ACAD_REACTORS
330
ABF
102
}
330
ABF
100
AcDbXrecord
280
     1
270
     1
271
     1
  0
CELLSTYLEMAP
  5
3320E
102
{ACAD_REACTORS
330
B17
102
}
330
B17
100
AcDbCellStyleMap
 90
        3
300
CELLSTYLE
  1
TABLEFORMAT_BEGIN
 90
        5
170
     1
 91
        0
 92
    32768
 62
   257
 93
        1
300
CONTENTFORMAT
  1
CONTENTFORMAT_BEGIN
 90
        0
 91
        0
 92
      512
 93
        0
300

 40
0.0
140
1.0
 94
        5
 62
     0
340
10
144
0.25
309
CONTENTFORMAT_END
171
     1
301
MARGIN
  1
CELLMARGIN_BEGIN
 40
0.06
 40
0.06
 40
0.06
 40
0.06
 40
0.18
 40
0.18
309
CELLMARGIN_END
 94
        6
 95
        1
302
GRIDFORMAT
  1
GRIDFORMAT_BEGIN
 90
        0
 91
        1
 62
     0
 92
       -2
340
0
 93
        0
 40
0.045
309
GRIDFORMAT_END
 95
        2
302
GRIDFORMAT
  1
GRIDFORMAT_BEGIN
 90
        0
 91
        1
 62
     0
 92
       -2
340
0
 93
        0
 40
0.045
309
GRIDFORMAT_END
 95
        4
302
GRIDFORMAT
  1
GRIDFORMAT_BEGIN
 90
        0
 91
        1
 62
     0
 92
       -2
340
0
 93
        0
 40
0.045
309
GRIDFORMAT_END
 95
        8
302
GRIDFORMAT
  1
GRIDFORMAT_BEGIN
 90
        0
 91
        1
 62
     0
 92
       -2
340
0
 93
        0
 40
0.045
309
GRIDFORMAT_END
 95
       16
302
GRIDFORMAT
  1
GRIDFORMAT_BEGIN
 90
        0
 91
        1
 62
     0
 92
       -2
340
0
 93
        0
 40
0.045
309
GRIDFORMAT_END
 95
       32
302
GRIDFORMAT
  1
GRIDFORMAT_BEGIN
 90
        0
 91
        1
 62
     0
 92
       -2
340
0
 93
        0
 40
0.045
309
GRIDFORMAT_END
309
TABLEFORMAT_END
  1
CELLSTYLE_BEGIN
 90
        1
 91
        1
300
_TITLE
309
CELLSTYLE_END
300
CELLSTYLE
  1
TABLEFORMAT_BEGIN
 90
        5
170
     1
 91
        0
 92
        0
 62
   257
 93
        1
300
CONTENTFORMAT
  1
CONTENTFORMAT_BEGIN
 90
        0
 91
        0
 92
      512
 93
        0
300

 40
0.0
140
1.0
 94
        5
 62
     0
340
10
144
0.18
309
CONTENTFORMAT_END
171
     1
301
MARGIN
  1
CELLMARGIN_BEGIN
 40
0.06
 40
0.06
 40
0.06
 40
0.06
 40
0.18
 40
0.18
309
CELLMARGIN_END
 94
        6
 95
        1
302
GRIDFORMAT
  1
GRIDFORMAT_BEGIN
 90
        0
 91
        1
 62
     0
 92
       -2
340
0
 93
        0
 40
0.045
309
GRIDFORMAT_END
 95
        2
302
GRIDFORMAT
  1
GRIDFORMAT_BEGIN
 90
        0
 91
        1
 62
     0
 92
       -2
340
0
 93
        0
 40
0.045
309
GRIDFORMAT_END
 95
        4
302
GRIDFORMAT
  1
GRIDFORMAT_BEGIN
 90
        0
 91
        1
 62
     0
 92
       -2
340
0
 93
        0
 40
0.045
309
GRIDFORMAT_END
 95
        8
302
GRIDFORMAT
  1
GRIDFORMAT_BEGIN
 90
        0
 91
        1
 62
     0
 92
       -2
340
0
 93
        0
 40
0.045
309
GRIDFORMAT_END
 95
       16
302
GRIDFORMAT
  1
GRIDFORMAT_BEGIN
 90
        0
 91
        1
 62
     0
 92
       -2
340
0
 93
        0
 40
0.045
309
GRIDFORMAT_END
 95
       32
302
GRIDFORMAT
  1
GRIDFORMAT_BEGIN
 90
        0
 91
        1
 62
     0
 92
       -2
340
0
 93
        0
 40
0.045
309
GRIDFORMAT_END
309
TABLEFORMAT_END
  1
CELLSTYLE_BEGIN
 90
        2
 91
        1
300
_HEADER
309
CELLSTYLE_END
300
CELLSTYLE
  1
TABLEFORMAT_BEGIN
 90
        5
170
     1
 91
        0
 92
        0
 62
   257
 93
        1
300
CONTENTFORMAT
  1
CONTENTFORMAT_BEGIN
 90
        0
 91
        0
 92
      512
 93
        0
300

 40
0.0
140
1.0
 94
        2
 62
     0
340
10
144
0.18
309
CONTENTFORMAT_END
171
     1
301
MARGIN
  1
CELLMARGIN_BEGIN
 40
0.06
 40
0.06
 40
0.06
 40
0.06
 40
0.18
 40
0.18
309
CELLMARGIN_END
 94
        6
 95
        1
302
GRIDFORMAT
  1
GRIDFORMAT_BEGIN
 90
        0
 91
        1
 62
     0
 92
       -2
340
0
 93
        0
 40
0.045
309
GRIDFORMAT_END
 95
        2
302
GRIDFORMAT
  1
GRIDFORMAT_BEGIN
 90
        0
 91
        1
 62
     0
 92
       -2
340
0
 93
        0
 40
0.045
309
GRIDFORMAT_END
 95
        4
302
GRIDFORMAT
  1
GRIDFORMAT_BEGIN
 90
        0
 91
        1
 62
     0
 92
       -2
340
0
 93
        0
 40
0.045
309
GRIDFORMAT_END
 95
        8
302
GRIDFORMAT
  1
GRIDFORMAT_BEGIN
 90
        0
 91
        1
 62
     0
 92
       -2
340
0
 93
        0
 40
0.045
309
GRIDFORMAT_END
 95
       16
302
GRIDFORMAT
  1
GRIDFORMAT_BEGIN
 90
        0
 91
        1
 62
     0
 92
       -2
340
0
 93
        0
 40
0.045
309
GRIDFORMAT_END
 95
       32
302
GRIDFORMAT
  1
GRIDFORMAT_BEGIN
 90
        0
 91
        1
 62
     0
 92
       -2
340
0
 93
        0
 40
0.045
309
GRIDFORMAT_END
309
TABLEFORMAT_END
  1
CELLSTYLE_BEGIN
 90
        3
 91
        2
300
_DATA
309
CELLSTYLE_END
  0
XRECORD
  5
33216
102
{ACAD_REACTORS
330
B17
102
}
330
B17
100
AcDbXrecord
280
     1
102
ACAD_ROUNDTRIP_PRE2007_TABLESTYLE
 90
      512
 91
        0
  1

 92
      512
 93
        0
  2

 94
      512
 95
        0
  3

  0
ENDSEC
  0
EOF
