  0
SECTION
  2
HEADER
  9
$ACADVER
  1
AC1015
  9
$ACADMAINTVER
 70
     6
  9
$DWGCODEPAGE
  3
ANSI_932
  9
$INSBASE
 10
0.0
 20
0.0
 30
0.0
  9
$EXTMIN
 10
12500.36333606041
 20
-6959.689272583413
 30
0.0
  9
$EXTMAX
 10
12545.86333606041
 20
-6880.004981080306
 30
0.0
  9
$LIMMIN
 10
0.0
 20
0.0
  9
$LIMMAX
 10
420.0
 20
297.0
  9
$ORTHOMODE
 70
     0
  9
$REGENMODE
 70
     1
  9
$FILLMODE
 70
     1
  9
$QTEXTMODE
 70
     0
  9
$MIRRTEXT
 70
     1
  9
$LTSCALE
 40
5.0
  9
$ATTMODE
 70
     0
  9
$TEXTSIZE
 40
3.5
  9
$TRACEWID
 40
1.0
  9
$TEXTSTYLE
  7
STANDARD
  9
$CLAYER
  8
0
  9
$CELTYPE
  6
BYLAYER
  9
$CECOLOR
 62
   256
  9
$CELTSCALE
 40
1.0
  9
$DISPSILH
 70
     0
  9
$DIMSCALE
 40
1.0
  9
$DIMASZ
 40
2.5
  9
$DIMEXO
 40
1.5
  9
$DIMDLI
 40
7.0
  9
$DIMRND
 40
0.0
  9
$DIMDLE
 40
0.0
  9
$DIMEXE
 40
1.0
  9
$DIMTP
 40
0.0
  9
$DIMTM
 40
0.0
  9
$DIMTXT
 40
3.0
  9
$DIMCEN
 40
0.0
  9
$DIMTSZ
 40
0.0
  9
$DIMTOL
 70
     0
  9
$DIMLIM
 70
     0
  9
$DIMTIH
 70
     0
  9
$DIMTOH
 70
     0
  9
$DIMSE1
 70
     0
  9
$DIMSE2
 70
     0
  9
$DIMTAD
 70
     3
  9
$DIMZIN
 70
     9
  9
$DIMBLK
  1
OPEN30
  9
$DIMASO
 70
     1
  9
$DIMSHO
 70
     0
  9
$DIMPOST
  1

  9
$DIMAPOST
  1

  9
$DIMALT
 70
     0
  9
$DIMALTD
 70
     0
  9
$DIMALTF
 40
25.4
  9
$DIMLFAC
 40
1.0
  9
$DIMTOFL
 70
     1
  9
$DIMTVP
 40
0.0
  9
$DIMTIX
 70
     0
  9
$DIMSOXD
 70
     0
  9
$DIMSAH
 70
     0
  9
$DIMBLK1
  1

  9
$DIMBLK2
  1

  9
$DIMSTYLE
  2
STANDARD
  9
$DIMCLRD
 70
     8
  9
$DIMCLRE
 70
     8
  9
$DIMCLRT
 70
   256
  9
$DIMTFAC
 40
0.6
  9
$DIMGAP
 40
1.0
  9
$DIMJUST
 70
     0
  9
$DIMSD1
 70
     0
  9
$DIMSD2
 70
     0
  9
$DIMTOLJ
 70
     1
  9
$DIMTZIN
 70
     9
  9
$DIMALTZ
 70
     9
  9
$DIMALTTZ
 70
     9
  9
$DIMUPT
 70
     0
  9
$DIMDEC
 70
     3
  9
$DIMTDEC
 70
     3
  9
$DIMALTU
 70
     2
  9
$DIMALTTD
 70
     0
  9
$DIMTXSTY
  7
STANDARD
  9
$DIMAUNIT
 70
     0
  9
$DIMADEC
 70
     3
  9
$DIMALTRND
 40
0.0
  9
$DIMAZIN
 70
     2
  9
$DIMDSEP
 70
    46
  9
$DIMATFIT
 70
     0
  9
$DIMFRAC
 70
     0
  9
$DIMLDRBLK
  1
OPEN30
  9
$DIMLUNIT
 70
     2
  9
$DIMLWD
 70
    -2
  9
$DIMLWE
 70
    -2
  9
$DIMTMOVE
 70
     0
  9
$LUNITS
 70
     2
  9
$LUPREC
 70
     2
  9
$SKETCHINC
 40
0.1
  9
$FILLETRAD
 40
10.0
  9
$AUNITS
 70
     0
  9
$AUPREC
 70
     1
  9
$MENU
  1
FM
  9
$ELEVATION
 40
0.0
  9
$PELEVATION
 40
0.0
  9
$THICKNESS
 40
0.0
  9
$LIMCHECK
 70
     0
  9
$CHAMFERA
 40
0.0
  9
$CHAMFERB
 40
0.0
  9
$CHAMFERC
 40
0.0
  9
$CHAMFERD
 40
0.0
  9
$SKPOLY
 70
     0
  9
$TDCREATE
 40
2448636.619629618
  9
$TDUCREATE
 40
2448636.244629618
  9
$TDUPDATE
 40
2458074.547625185
  9
$TDUUPDATE
 40
2458074.172625185
  9
$TDINDWG
 40
101.9135239236
  9
$TDUSRTIMER
 40
2458074.17208831
  9
$USRTIMER
 70
     1
  9
$ANGBASE
 50
0.0
  9
$ANGDIR
 70
     0
  9
$PDMODE
 70
     3
  9
$PDSIZE
 40
0.0
  9
$PLINEWID
 40
0.0
  9
$SPLFRAME
 70
     0
  9
$SPLINETYPE
 70
     6
  9
$SPLINESEGS
 70
     8
  9
$HANDSEED
  5
36C0DA
  9
$SURFTAB1
 70
     6
  9
$SURFTAB2
 70
     6
  9
$SURFTYPE
 70
     6
  9
$SURFU
 70
     6
  9
$SURFV
 70
     6
  9
$UCSBASE
  2

  9
$UCSNAME
  2

  9
$UCSORG
 10
0.0
 20
0.0
 30
0.0
  9
$UCSXDIR
 10
1.0
 20
0.0
 30
0.0
  9
$UCSYDIR
 10
0.0
 20
1.0
 30
0.0
  9
$UCSORTHOREF
  2

  9
$UCSORTHOVIEW
 70
     0
  9
$UCSORGTOP
 10
0.0
 20
0.0
 30
0.0
  9
$UCSORGBOTTOM
 10
0.0
 20
0.0
 30
0.0
  9
$UCSORGLEFT
 10
0.0
 20
0.0
 30
0.0
  9
$UCSORGRIGHT
 10
0.0
 20
0.0
 30
0.0
  9
$UCSORGFRONT
 10
0.0
 20
0.0
 30
0.0
  9
$UCSORGBACK
 10
0.0
 20
0.0
 30
0.0
  9
$PUCSBASE
  2

  9
$PUCSNAME
  2

  9
$PUCSORG
 10
0.0
 20
0.0
 30
0.0
  9
$PUCSXDIR
 10
1.0
 20
0.0
 30
0.0
  9
$PUCSYDIR
 10
0.0
 20
1.0
 30
0.0
  9
$PUCSORTHOREF
  2

  9
$PUCSORTHOVIEW
 70
     0
  9
$PUCSORGTOP
 10
0.0
 20
0.0
 30
0.0
  9
$PUCSORGBOTTOM
 10
0.0
 20
0.0
 30
0.0
  9
$PUCSORGLEFT
 10
0.0
 20
0.0
 30
0.0
  9
$PUCSORGRIGHT
 10
0.0
 20
0.0
 30
0.0
  9
$PUCSORGFRONT
 10
0.0
 20
0.0
 30
0.0
  9
$PUCSORGBACK
 10
0.0
 20
0.0
 30
0.0
  9
$USERI1
 70
     0
  9
$USERI2
 70
     0
  9
$USERI3
 70
     0
  9
$USERI4
 70
     0
  9
$USERI5
 70
     0
  9
$USERR1
 40
0.0
  9
$USERR2
 40
0.0
  9
$USERR3
 40
0.0
  9
$USERR4
 40
0.0
  9
$USERR5
 40
0.0
  9
$WORLDVIEW
 70
     0
  9
$SHADEDGE
 70
     3
  9
$SHADEDIF
 70
    70
  9
$TILEMODE
 70
     1
  9
$MAXACTVP
 70
    16
  9
$PINSBASE
 10
0.0
 20
0.0
 30
0.0
  9
$PLIMCHECK
 70
     0
  9
$PEXTMIN
 10
1.000000000000000E+20
 20
1.000000000000000E+20
 30
1.000000000000000E+20
  9
$PEXTMAX
 10
-1.000000000000000E+20
 20
-1.000000000000000E+20
 30
-1.000000000000000E+20
  9
$PLIMMIN
 10
0.0
 20
0.0
  9
$PLIMMAX
 10
0.0
 20
0.0
  9
$UNITMODE
 70
     0
  9
$VISRETAIN
 70
     0
  9
$PLINEGEN
 70
     0
  9
$PSLTSCALE
 70
     0
  9
$TREEDEPTH
 70
  3020
  9
$CMLSTYLE
  2
STANDARD
  9
$CMLJUST
 70
     0
  9
$CMLSCALE
 40
1.0
  9
$PROXYGRAPHICS
 70
     1
  9
$MEASUREMENT
 70
     0
  9
$CELWEIGHT
370
    -1
  9
$ENDCAPS
280
     0
  9
$JOINSTYLE
280
     0
  9
$LWDISPLAY
290
     1
  9
$INSUNITS
 70
     0
  9
$HYPERLINKBASE
  1

  9
$STYLESHEET
  1
spax form.ctb
  9
$XEDIT
290
     1
  9
$CEPSNTYPE
380
     0
  9
$PSTYLEMODE
290
     1
  9
$FINGERPRINTGUID
  2
{E5B35D22-A717-11D3-9160-00E0294F7E09}
  9
$VERSIONGUID
  2
{EAD81149-804E-4DE0-8C5F-33F378674376}
  9
$EXTNAMES
290
     1
  9
$PSVPSCALE
 40
0.0
  9
$OLESTARTUP
290
     0
  0
ENDSEC
  0
SECTION
  2
CLASSES
  0
CLASS
  1
ACDBDICTIONARYWDFLT
  2
AcDbDictionaryWithDefault
  3
ObjectDBX Classes
 90
        0
280
     0
281
     0
  0
CLASS
  1
ACDBPLACEHOLDER
  2
AcDbPlaceHolder
  3
ObjectDBX Classes
 90
        0
280
     0
281
     0
  0
CLASS
  1
LAYOUT
  2
AcDbLayout
  3
ObjectDBX Classes
 90
        0
280
     0
281
     0
  0
CLASS
  1
DICTIONARYVAR
  2
AcDbDictionaryVar
  3
ObjectDBX Classes
 90
        0
280
     0
281
     0
  0
CLASS
  1
MATERIAL
  2
AcDbMaterial
  3
ObjectDBX Classes
 90
     1153
280
     0
281
     0
  0
CLASS
  1
SORTENTSTABLE
  2
AcDbSortentsTable
  3
ObjectDBX Classes
 90
        0
280
     0
281
     0
  0
CLASS
  1
VISUALSTYLE
  2
AcDbVisualStyle
  3
ObjectDBX Classes
 90
     4095
280
     0
281
     0
  0
CLASS
  1
TABLESTYLE
  2
AcDbTableStyle
  3
ObjectDBX Classes
 90
     4095
280
     0
281
     0
  0
CLASS
  1
SCALE
  2
AcDbScale
  3
ObjectDBX Classes
 90
     1153
280
     0
281
     0
  0
CLASS
  1
MLEADERSTYLE
  2
AcDbMLeaderStyle
  3
ACDB_MLEADERSTYLE_CLASS
 90
     4095
280
     0
281
     0
  0
CLASS
  1
CELLSTYLEMAP
  2
AcDbCellStyleMap
  3
ObjectDBX Classes
 90
     1152
280
     0
281
     0
  0
CLASS
  1
MULTILEADER
  2
AcDbMLeader
  3
ACDB_MLEADER_CLASS
 90
     1025
280
     0
281
     1
  0
CLASS
  1
DIMASSOC
  2
AcDbDimAssoc
  3
"AcDbDimAssoc|Product Desc:     AcDim ARX App For Dimension|Company:          Autodesk, Inc.|WEB Address:      www.autodesk.com"
 90
        0
280
     0
281
     0
  0
CLASS
  1
LARGE_RADIAL_DIMENSION
  2
AcDbRadialDimensionLarge
  3
ObjectDBX Classes
 90
     1025
280
     0
281
     1
  0
CLASS
  1
RASTERVARIABLES
  2
AcDbRasterVariables
  3
ISM
 90
        0
280
     0
281
     0
  0
CLASS
  1
SUN
  2
AcDbSun
  3
SCENEOE
 90
     1153
280
     0
281
     0
  0
ENDSEC
  0
SECTION
  2
TABLES
  0
TABLE
  2
VPORT
  5
8
102
{ACAD_XDICTIONARY
360
361384
102
}
330
0
100
AcDbSymbolTable
 70
     1
  0
VPORT
  5
3572AF
330
8
100
AcDbSymbolTableRecord
100
AcDbViewportTableRecord
  2
*Active
 70
     0
 10
0.0
 20
0.0
 11
1.0
 21
1.0
 12
12523.11333606041
 22
-6919.847126831859
 13
0.0
 23
0.0
 14
1.0
 24
1.0
 15
20.0
 25
20.0
 16
0.0
 26
0.0
 36
1.0
 17
0.0
 27
0.0
 37
0.0
 40
81.27797733316964
 41
2.262839879154078
 42
50.0
 43
0.0
 44
0.0
 50
0.0
 51
0.0
 71
    16
 72
   100
 73
     1
 74
     0
 75
     0
 76
     0
 77
     0
 78
     0
281
     0
 65
     1
110
0.0
120
0.0
130
0.0
111
1.0
121
0.0
131
0.0
112
0.0
122
1.0
132
0.0
 79
     0
146
0.0
  0
ENDTAB
  0
TABLE
  2
LTYPE
  5
5
330
0
100
AcDbSymbolTable
 70
     1
  0
LTYPE
  5
12
330
5
100
AcDbSymbolTableRecord
100
AcDbLinetypeTableRecord
  2
BYBLOCK
 70
     0
  3

 72
    65
 73
     0
 40
0.0
  0
LTYPE
  5
13
330
5
100
AcDbSymbolTableRecord
100
AcDbLinetypeTableRecord
  2
BYLAYER
 70
     0
  3

 72
    65
 73
     0
 40
0.0
  0
LTYPE
  5
14
330
5
100
AcDbSymbolTableRecord
100
AcDbLinetypeTableRecord
  2
CONTINUOUS
 70
     0
  3
Solid line
 72
    65
 73
     0
 40
0.0
  0
ENDTAB
  0
TABLE
  2
LAYER
  5
2
102
{ACAD_XDICTIONARY
360
559E
102
}
330
0
100
AcDbSymbolTable
 70
     6
  0
LAYER
  5
F
102
{ACAD_XDICTIONARY
360
CD7F
102
}
330
2
100
AcDbSymbolTableRecord
100
AcDbLayerTableRecord
  2
0
 70
     0
 62
     7
  6
CONTINUOUS
370
    -3
390
352
  0
LAYER
  5
36
330
2
100
AcDbSymbolTableRecord
100
AcDbLayerTableRecord
  2
DEFPOINTS
 70
     0
 62
     7
  6
CONTINUOUS
290
     0
370
    -3
390
352
  0
LAYER
  5
2A3
102
{ACAD_XDICTIONARY
360
CD89
102
}
330
2
100
AcDbSymbolTableRecord
100
AcDbLayerTableRecord
  2
ﾊｯﾁﾝｸﾞ
 70
     0
 62
     8
  6
CONTINUOUS
370
    -3
390
352
  0
LAYER
  5
2F4
102
{ACAD_XDICTIONARY
360
CD8D
102
}
330
2
100
AcDbSymbolTableRecord
100
AcDbLayerTableRecord
  2
文字
 70
     0
 62
     7
  6
CONTINUOUS
370
    -3
390
352
  0
LAYER
  5
306B15
330
2
100
AcDbSymbolTableRecord
100
AcDbLayerTableRecord
  2
C-SUNPO
 70
     0
 62
     7
  6
CONTINUOUS
370
    -3
390
352
  0
LAYER
  5
31D3CB
330
2
100
AcDbSymbolTableRecord
100
AcDbLayerTableRecord
  2
姿図
 70
     0
 62
     8
  6
CONTINUOUS
370
    -3
390
352
  0
ENDTAB
  0
TABLE
  2
STYLE
  5
3
330
0
100
AcDbSymbolTable
 70
     1
  0
STYLE
  5
10
330
3
100
AcDbSymbolTableRecord
100
AcDbTextStyleTableRecord
  2
STANDARD
 70
     0
 40
0.0
 41
1.0
 50
0.0
 71
     0
 42
3.5
  3
MONOTXT
  4
BIGFONT
  0
ENDTAB
  0
TABLE
  2
VIEW
  5
6
330
0
100
AcDbSymbolTable
 70
     0
  0
ENDTAB
  0
TABLE
  2
UCS
  5
7
330
0
100
AcDbSymbolTable
 70
     0
  0
ENDTAB
  0
TABLE
  2
APPID
  5
9
330
0
100
AcDbSymbolTable
 70
    20
  0
APPID
  5
11
330
9
100
AcDbSymbolTableRecord
100
AcDbRegAppTableRecord
  2
ACAD
 70
     0
  0
APPID
  5
C058
330
9
100
AcDbSymbolTableRecord
100
AcDbRegAppTableRecord
  2
AcAecLayerStandard
 70
     0
  0
APPID
  5
CD77
330
9
100
AcDbSymbolTableRecord
100
AcDbRegAppTableRecord
  2
ACAD_MLEADERVER
 70
     0
  0
APPID
  5
D036
330
9
100
AcDbSymbolTableRecord
100
AcDbRegAppTableRecord
  2
ACAD_PSEXT
 70
     0
  0
APPID
  5
D28E
330
9
100
AcDbSymbolTableRecord
100
AcDbRegAppTableRecord
  2
ACAD_DSTYLE_DIMJAG
 70
     0
  0
APPID
  5
D28F
330
9
100
AcDbSymbolTableRecord
100
AcDbRegAppTableRecord
  2
ACAD_DSTYLE_DIMTALN
 70
     0
  0
APPID
  5
10E35
330
9
100
AcDbSymbolTableRecord
100
AcDbRegAppTableRecord
  2
ACAD_EXEMPT_FROM_CAD_STANDARDS
 70
     0
  0
APPID
  5
36B90
330
9
100
AcDbSymbolTableRecord
100
AcDbRegAppTableRecord
  2
ACAD_DSTYLE_DIMRADIAL_EXTENSION
 70
     0
  0
APPID
  5
4CBB9
330
9
100
AcDbSymbolTableRecord
100
AcDbRegAppTableRecord
  2
WACOM_STRING
 70
     0
  0
APPID
  5
4CBBA
330
9
100
AcDbSymbolTableRecord
100
AcDbRegAppTableRecord
  2
WACOM_DRSYM_ARROW
 70
     0
  0
APPID
  5
83B4C
330
9
100
AcDbSymbolTableRecord
100
AcDbRegAppTableRecord
  2
ACAD_DSTYLE_DIMRADIAL_EXTE
 70
     0
  0
APPID
  5
83B4D
330
9
100
AcDbSymbolTableRecord
100
AcDbRegAppTableRecord
  2
ACAD_DSTYLE_DIMBREAK
 70
     0
  0
APPID
  5
83B4E
330
9
100
AcDbSymbolTableRecord
100
AcDbRegAppTableRecord
  2
ACAD_DSTYLE_DIMARC_LENGTH_
 70
     0
  0
APPID
  5
8B472
330
9
100
AcDbSymbolTableRecord
100
AcDbRegAppTableRecord
  2
LAYER_SCALE
 70
     0
  0
APPID
  5
8B473
330
9
100
AcDbSymbolTableRecord
100
AcDbRegAppTableRecord
  2
KCAD_DIM_EXT
 70
     0
  0
APPID
  5
16ECBA
330
9
100
AcDbSymbolTableRecord
100
AcDbRegAppTableRecord
  2
GENIUS_GENDTOL_13
 70
     0
  0
APPID
  5
23CCFB
330
9
100
AcDbSymbolTableRecord
100
AcDbRegAppTableRecord
  2
AcadAnnotative
 70
     0
  0
APPID
  5
31A28D
330
9
100
AcDbSymbolTableRecord
100
AcDbRegAppTableRecord
  2
ACAD_DSTYLE_DIMFLIPARROW_WHICH_SYMBOL
 70
     0
  0
APPID
  5
357D85
330
9
100
AcDbSymbolTableRecord
100
AcDbRegAppTableRecord
  2
ACAD_SPLINE_DATA
 70
     0
  0
APPID
  5
357D86
330
9
100
AcDbSymbolTableRecord
100
AcDbRegAppTableRecord
  2
ACAD_SPLINE_DATA2
 70
     0
  0
ENDTAB
  0
TABLE
  2
DIMSTYLE
  5
A
330
0
100
AcDbSymbolTable
 70
     1
100
AcDbDimStyleTable
  0
DIMSTYLE
105
1CC
330
A
100
AcDbSymbolTableRecord
100
AcDbDimStyleTableRecord
  2
STANDARD
 70
     0
 41
2.5
 42
1.5
 43
7.0
 44
1.0
 73
     0
 74
     0
 77
     3
 78
     8
 79
     2
140
3.0
141
0.0
146
0.6
147
1.0
171
     0
172
     1
176
     8
177
     8
271
     3
178
   256
179
     3
271
     3
272
     3
274
     0
289
     0
340
10
341
265D
342
265D
1001
ACAD_DSTYLE_DIMJAG
1070
   388
1040
1.5
1001
ACAD_DSTYLE_DIMTALN
1070
   392
1070
     0
  0
ENDTAB
  0
TABLE
  2
BLOCK_RECORD
  5
1
330
0
100
AcDbSymbolTable
 70
     1
  0
BLOCK_RECORD
  5
18
102
{ACAD_XDICTIONARY
360
D25F
102
}
330
1
100
AcDbSymbolTableRecord
100
AcDbBlockTableRecord
  2
*MODEL_SPACE
340
355
  0
BLOCK_RECORD
  5
15
330
1
100
AcDbSymbolTableRecord
100
AcDbBlockTableRecord
  2
*PAPER_SPACE
340
356
  0
BLOCK_RECORD
  5
265D
330
1
100
AcDbSymbolTableRecord
100
AcDbBlockTableRecord
  2
_OPEN30
340
0
  0
ENDTAB
  0
ENDSEC
  0
SECTION
  2
BLOCKS
  0
BLOCK
  5
39
330
18
100
AcDbEntity
  8
0
100
AcDbBlockBegin
  2
*MODEL_SPACE
 70
     0
 10
0.0
 20
0.0
 30
0.0
  3
*MODEL_SPACE
  1

  0
ENDBLK
  5
3A
330
18
100
AcDbEntity
  8
0
100
AcDbBlockEnd
  0
BLOCK
  5
37
330
15
100
AcDbEntity
 67
     1
  8
0
100
AcDbBlockBegin
  2
*PAPER_SPACE
 70
     0
 10
0.0
 20
0.0
 30
0.0
  3
*PAPER_SPACE
  1

  0
ENDBLK
  5
38
330
15
100
AcDbEntity
 67
     1
  8
0
100
AcDbBlockEnd
  0
BLOCK
  5
265E
330
265D
100
AcDbEntity
  8
0
100
AcDbBlockBegin
  2
_OPEN30
 70
     0
 10
0.0
 20
0.0
 30
0.0
  3
_OPEN30
  1

  0
LINE
  5
265F
330
265D
100
AcDbEntity
  8
0
  6
ByBlock
 62
     0
100
AcDbLine
 10
-1.0
 20
0.26794919
 30
0.0
 11
0.0
 21
0.0
 31
0.0
  0
LINE
  5
2660
330
265D
100
AcDbEntity
  8
0
  6
ByBlock
 62
     0
100
AcDbLine
 10
0.0
 20
0.0
 30
0.0
 11
-1.0
 21
-0.26794919
 31
0.0
  0
LINE
  5
2661
330
265D
100
AcDbEntity
  8
0
  6
ByBlock
 62
     0
100
AcDbLine
 10
0.0
 20
0.0
 30
0.0
 11
-1.0
 21
0.0
 31
0.0
  0
ENDBLK
  5
2662
330
265D
100
AcDbEntity
  8
0
100
AcDbBlockEnd
  0
ENDSEC
  0
SECTION
  2
ENTITIES
  0
MTEXT
  5
8182F
330
18
100
AcDbEntity
  8
0
100
AcDbMText
 10
5598.734167156057
 20
-2635.335630549191
 30
0.0
 40
3.0
 41
0.0
 71
     7
 72
     1
  1
\A1;
 73
     1
 44
1.0
  0
MTEXT
  5
3073B9
330
18
100
AcDbEntity
  8
C-SUNPO
 62
     7
100
AcDbMText
 10
8897.245354628267
 20
-2466.345110988795
 30
0.0
 40
2.0
 41
0.0
 71
     5
 72
     1
  1
\A1;\P\P 
 11
0.9999986675605709
 21
0.0016324451239504
 31
0.0
 73
     1
 44
1.0
  0
HATCH
  5
35417E
330
18
100
AcDbEntity
  8
ﾊｯﾁﾝｸﾞ
100
AcDbHatch
 10
0.0
 20
0.0
 30
0.0
210
0.0
220
0.0
230
1.0
  2
SOLID
 70
     1
 71
     0
 91
        0
 75
     0
 76
     1
 98
        1
 10
12783.76359976519
 20
-4313.157896004636
1001
ACAD
1010
0.0
1020
0.0
1030
0.0
  0
LINE
  5
369CC4
330
18
100
AcDbEntity
  8
姿図
100
AcDbLine
 10
12522.66894605587
 20
-6895.641170117085
 30
0.0
 11
12522.84012215856
 21
-6897.812618592929
 31
0.0
  0
SPLINE
  5
369CC5
330
18
100
AcDbEntity
  8
姿図
100
AcDbSpline
210
0.0
220
0.0
230
1.0
 70
     8
 71
     3
 72
     9
 73
     5
 74
     0
 42
0.000000001
 43
0.0000000001
 40
0.0
 40
0.0
 40
0.0
 40
0.0
 40
0.5000580188662364
 40
1.0
 40
1.0
 40
1.0
 40
1.0
 10
12530.16248174194
 20
-6897.898620694371
 30
0.0
 10
12530.19770088118
 20
-6897.528581945294
 30
0.0
 10
12530.26813098709
 20
-6896.788590314087
 30
0.0
 10
12530.33822209242
 20
-6896.049697509299
 30
0.0
 10
12530.37326357848
 20
-6895.680293976628
 30
0.0
  0
LINE
  5
369CC6
330
18
100
AcDbEntity
  8
姿図
100
AcDbLine
 10
12524.84872592824
 20
-6885.026017521335
 30
0.0
 11
12524.82488045591
 21
-6882.811443237
 31
0.0
  0
LWPOLYLINE
  5
369CC7
330
18
100
AcDbEntity
  8
姿図
100
AcDbPolyline
 90
        3
 70
   128
 43
0.0
 10
12522.84424112414
 20
-6880.268085970745
 10
12522.73741158403
 20
-6887.910545698135
 10
12522.63048865174
 20
-6895.552798189034
  0
SPLINE
  5
369CC8
330
18
100
AcDbEntity
  8
姿図
100
AcDbSpline
210
0.0
220
0.0
230
1.0
 70
     8
 71
     3
 72
     9
 73
     5
 74
     0
 42
0.000000001
 43
0.0000000001
 40
0.0
 40
0.0
 40
0.0
 40
0.0
 40
0.496870731629234
 40
1.0
 40
1.0
 40
1.0
 40
1.0
 10
12530.37347741241
 20
-6895.684184383333
 30
0.0
 10
12530.33591301895
 20
-6893.153095498046
 30
0.0
 10
12530.26031107448
 20
-6888.059036371261
 30
0.0
 10
12530.18511237188
 20
-6882.964026122156
 30
0.0
 10
12530.14727770367
 20
-6880.400577343181
 30
0.0
  0
LINE
  5
369CC9
330
18
100
AcDbEntity
  8
姿図
100
AcDbLine
 10
12526.64046989937
 20
-6882.859780626303
 30
0.0
 11
12526.61119641819
 21
-6885.15723967174
 31
0.0
  0
LINE
  5
369CCA
330
18
100
AcDbEntity
  8
姿図
100
AcDbLine
 10
12516.29945141162
 20
-6896.070611639555
 30
0.0
 11
12516.53382595464
 21
-6898.275686560804
 31
0.0
  0
LINE
  5
369CCB
330
18
100
AcDbEntity
  8
姿図
100
AcDbLine
 10
12522.40051002462
 20
-6885.234091134626
 30
0.0
 11
12522.3743237494
 21
-6883.009678409249
 31
0.0
  0
SPLINE
  5
369CCC
330
18
100
AcDbEntity
  8
姿図
100
AcDbSpline
210
0.0
220
0.0
230
1.0
 70
     8
 71
     3
 72
     9
 73
     5
 74
     0
 42
0.000000001
 43
0.0000000001
 40
0.0
 40
0.0
 40
0.0
 40
0.0
 40
0.4999970610592263
 40
1.0
 40
1.0
 40
1.0
 40
1.0
 10
12516.60392715293
 20
-6880.77594576354
 30
0.0
 10
12516.55334149851
 20
-6883.324894167142
 30
0.0
 10
12516.45216959499
 20
-6888.422820939355
 30
0.0
 10
12516.3501251425
 20
-6893.5190857906
 30
0.0
 10
12516.29910261636
 20
-6896.067233193845
 30
0.0
  0
SPLINE
  5
369CCD
330
18
100
AcDbEntity
  8
姿図
100
AcDbSpline
210
0.0
220
0.0
230
1.0
 70
     8
 71
     3
 72
     9
 73
     5
 74
     0
 42
0.000000001
 43
0.0000000001
 40
0.0
 40
0.0
 40
0.0
 40
0.0
 40
0.5000034343869464
 40
1.0
 40
1.0
 40
1.0
 40
1.0
 10
12536.31676967478
 20
-6896.443187725676
 30
0.0
 10
12536.26451666579
 20
-6893.894252496896
 30
0.0
 10
12536.16001136562
 20
-6888.796417055219
 30
0.0
 10
12536.05648260521
 20
-6883.696508314482
 30
0.0
 10
12536.00471858056
 20
-6881.146571459173
 30
0.0
  0
LINE
  5
369CCE
330
18
100
AcDbEntity
  8
姿図
100
AcDbLine
 10
12536.06302673105
 20
-6898.649056200437
 30
0.0
 11
12536.31655088976
 21
-6896.447419028425
 31
0.0
  0
SPLINE
  5
369CCF
330
18
100
AcDbEntity
  8
姿図
100
AcDbSpline
210
0.0
220
0.0
230
1.0
 70
     8
 71
     3
 72
    35
 73
    31
 74
     0
 42
0.000000001
 43
0.0000000001
 40
0.0
 40
0.0
 40
0.0
 40
0.0
 40
0.0211949296774103
 40
0.0419593156878327
 40
0.0736613417065278
 40
0.1274500694088001
 40
0.2145028816679866
 40
0.2824859147956315
 40
0.3422406453473551
 40
0.5508009440792142
 40
0.6707366237849359
 40
0.796515091415068
 40
0.8398110200465329
 40
0.8780975190885255
 40
0.9057387557688888
 40
0.9134134136940975
 40
0.9195479949882123
 40
0.9239370317863166
 40
0.9279706988589191
 40
0.9335680255071059
 40
0.9402737043035498
 40
0.9470720953609308
 40
0.9541623151315317
 40
0.9606334183343168
 40
0.966178784794596
 40
0.9727520011871958
 40
0.9777893721745957
 40
0.9841303989717276
 40
0.9916412537227078
 40
1.0
 40
1.0
 40
1.0
 40
1.0
 10
12524.82488227176
 20
-6882.811289242176
 30
0.0
 10
12524.81652662914
 20
-6882.7882692878
 30
0.0
 10
12524.79998507643
 20
-6882.742696995395
 30
0.0
 10
12524.76522516968
 20
-6882.663178897918
 30
0.0
 10
12524.7163123362
 20
-6882.549008160033
 30
0.0
 10
12524.6341027404
 20
-6882.365708859023
 30
0.0
 10
12524.53325612364
 20
-6882.149842957592
 30
0.0
 10
12524.43108580613
 20
-6881.937066447004
 30
0.0
 10
12524.28094539115
 20
-6881.625712298326
 30
0.0
 10
12524.10747553376
 20
-6881.265979910008
 30
0.0
 10
12523.9045975875
 20
-6880.844685525232
 30
0.0
 10
12523.76907550059
 20
-6880.564517813391
 30
0.0
 10
12523.67142264703
 20
-6880.363082336213
 30
0.0
 10
12523.61532311589
 20
-6880.251408065325
 30
0.0
 10
12523.57022497245
 20
-6880.164082226468
 30
0.0
 10
12523.53004981156
 20
-6880.105664220576
 30
0.0
 10
12523.51272935199
 20
-6880.078977407248
 30
0.0
 10
12523.48069901616
 20
-6880.051486416009
 30
0.0
 10
12523.44932268956
 20
-6880.032663250808
 30
0.0
 10
12523.40264916697
 20
-6880.013545399235
 30
0.0
 10
12523.3373799271
 20
-6879.997559828638
 30
0.0
 10
12523.26223250743
 20
-6879.989333856219
 30
0.0
 10
12523.18544929458
 20
-6879.989096531864
 30
0.0
 10
12523.1160888731
 20
-6879.996260374209
 30
0.0
 10
12523.05369040807
 20
-6880.009355938118
 30
0.0
 10
12522.99459144968
 20
-6880.03269319905
 30
0.0
 10
12522.9393668189
 20
-6880.069373514075
 30
0.0
 10
12522.89152011583
 20
-6880.118665598818
 30
0.0
 10
12522.85201361908
 20
-6880.18861911909
 30
0.0
 10
12522.84708276747
 20
-6880.243505800904
 30
0.0
 10
12522.84448561727
 20
-6880.272415402756
 30
0.0
  0
SPLINE
  5
369CD0
330
18
100
AcDbEntity
  8
姿図
100
AcDbSpline
210
0.0
220
0.0
230
1.0
 70
     8
 71
     3
 72
    32
 73
    28
 74
     0
 42
0.000000001
 43
0.0000000001
 40
0.0
 40
0.0
 40
0.0
 40
0.0
 40
0.0098779740805919
 40
0.0182551790656198
 40
0.024671429181103
 40
0.0291104027089026
 40
0.0418842346567046
 40
0.0491451176556198
 40
0.0550488559071207
 40
0.0641173159799489
 40
0.0683914410392911
 40
0.0725079701733869
 40
0.0858667043857607
 40
0.1001843548875485
 40
0.1251461444820677
 40
0.1772336147901147
 40
0.2319057926619998
 40
0.2907973725986515
 40
0.3909901717697911
 40
0.4845397583749596
 40
0.6198853088923798
 40
0.7664821999136667
 40
0.8343989806698165
 40
0.9005767606251115
 40
0.9569808617485529
 40
0.9786940007659382
 40
1.0
 40
1.0
 40
1.0
 40
1.0
 10
12530.14658319826
 20
-6880.405289717171
 30
0.0
 10
12530.14336883515
 20
-6880.370923703804
 30
0.0
 10
12530.13742846988
 20
-6880.307412935031
 30
0.0
 10
12530.0873381798
 20
-6880.231887714763
 30
0.0
 10
12530.03435638372
 20
-6880.18553359107
 30
0.0
 10
12529.95781603782
 20
-6880.14276732471
 30
0.0
 10
12529.87746215819
 20
-6880.124752550944
 30
0.0
 10
12529.78111796708
 20
-6880.118484512159
 30
0.0
 10
12529.69846413721
 20
-6880.121062183409
 30
0.0
 10
12529.62763763836
 20
-6880.132620021086
 30
0.0
 10
12529.57588373823
 20
-6880.147902885673
 30
0.0
 10
12529.52395440355
 20
-6880.17053502808
 30
0.0
 10
12529.49118192989
 20
-6880.204951097629
 30
0.0
 10
12529.42363932325
 20
-6880.258382234647
 30
0.0
 10
12529.31979827616
 20
-6880.350433514239
 30
0.0
 10
12529.17628373706
 20
-6880.477125443914
 30
0.0
 10
12529.00703834961
 20
-6880.629032568489
 30
0.0
 10
12528.79370304172
 20
-6880.819832865895
 30
0.0
 10
12528.54009760847
 20
-6881.046891053038
 30
0.0
 10
12528.21024495481
 20
-6881.342092918647
 30
0.0
 10
12527.834421164
 20
-6881.678540111642
 30
0.0
 10
12527.48162072215
 20
-6881.994107213952
 30
0.0
 10
12527.20440006415
 20
-6882.242631264223
 30
0.0
 10
12526.9832086248
 20
-6882.439903488107
 30
0.0
 10
12526.81112314597
 20
-6882.621125835772
 30
0.0
 10
12526.69370742021
 20
-6882.760994805483
 30
0.0
 10
12526.65821405412
 20
-6882.826038694162
 30
0.0
 10
12526.64063532842
 20
-6882.858252845787
 30
0.0
  0
LINE
  5
369CD1
330
18
100
AcDbEntity
  8
姿図
100
AcDbLine
 10
12511.24320640848
 20
-6897.154523091498
 30
0.0
 11
12511.51501894743
 21
-6899.351569129632
 31
0.0
  0
SPLINE
  5
369CD2
330
18
100
AcDbEntity
  8
姿図
100
AcDbSpline
210
0.0
220
0.0
230
1.0
 70
     8
 71
     3
 72
     9
 73
     5
 74
     0
 42
0.000000001
 43
0.0000000001
 40
0.0
 40
0.0
 40
0.0
 40
0.0
 40
0.5000020321807117
 40
1.0
 40
1.0
 40
1.0
 40
1.0
 10
12540.65549495892
 20
-6897.712096498105
 30
0.0
 10
12540.59289730111
 20
-6895.160088133426
 30
0.0
 10
12540.46770249432
 20
-6890.056092148552
 30
0.0
 10
12540.34304785695
 20
-6884.950115921822
 30
0.0
 10
12540.28072079159
 20
-6882.397138184723
 30
0.0
  0
SPLINE
  5
369CD3
330
18
100
AcDbEntity
  8
姿図
100
AcDbSpline
210
0.0
220
0.0
230
1.0
 70
     8
 71
     3
 72
     9
 73
     5
 74
     0
 42
0.000000001
 43
0.0000000001
 40
0.0
 40
0.0
 40
0.0
 40
0.0
 40
0.4999971416822437
 40
1.0
 40
1.0
 40
1.0
 40
1.0
 10
12511.62121879927
 20
-6881.842755038786
 30
0.0
 10
12511.55840870898
 20
-6884.39441420889
 30
0.0
 10
12511.43278781026
 20
-6889.497761723072
 30
0.0
 10
12511.30640964165
 20
-6894.598916041371
 30
0.0
 10
12511.24322019611
 20
-6897.149507781242
 30
0.0
  0
SPLINE
  5
369CD4
330
18
100
AcDbEntity
  8
姿図
100
AcDbSpline
210
0.0
220
0.0
230
1.0
 70
     8
 71
     3
 72
    35
 73
    31
 74
     0
 42
0.000000001
 43
0.0000000001
 40
0.0
 40
0.0
 40
0.0
 40
0.0
 40
0.00624679334953
 40
0.0120970810637862
 40
0.0220525457673488
 40
0.0269641709500837
 40
0.0427458539009359
 40
0.0601343350648264
 40
0.0906765446929121
 40
0.155040352034142
 40
0.2214627737459873
 40
0.2866654138058662
 40
0.3964025876263209
 40
0.49823019560917
 40
0.6288924933380508
 40
0.770202422932629
 40
0.8379315658216556
 40
0.899520719022076
 40
0.9280157124713813
 40
0.9339395834686175
 40
0.9377161650176079
 40
0.9450629169296821
 40
0.9523568350625776
 40
0.9598273914900088
 40
0.9646648883898631
 40
0.971431189764216
 40
0.976538619064858
 40
0.9831237292400794
 40
0.9910907675384095
 40
0.9999999999999998
 40
0.9999999999999998
 40
0.9999999999999998
 40
0.9999999999999998
 10
12522.37432277447
 20
-6883.009661589468
 30
0.0
 10
12522.37231081187
 20
-6882.987177068089
 30
0.0
 10
12522.36841459292
 20
-6882.943635195873
 30
0.0
 10
12522.33701720319
 20
-6882.871948571889
 30
0.0
 10
12522.2866867435
 20
-6882.816503004502
 30
0.0
 10
12522.20563589114
 20
-6882.76979699843
 30
0.0
 10
12522.13383087301
 20
-6882.737845281418
 30
0.0
 10
12522.00212774946
 20
-6882.675407192924
 30
0.0
 10
12521.7824653358
 20
-6882.576791889658
 30
0.0
 10
12521.47526910211
 20
-6882.439930074038
 30
0.0
 10
12521.11621278767
 20
-6882.280100853485
 30
0.0
 10
12520.6717997258
 20
-6882.082146537246
 30
0.0
 10
12520.16284949489
 20
-6881.855510323423
 30
0.0
 10
12519.53348306252
 20
-6881.575190903571
 30
0.0
 10
12518.8450931065
 20
-6881.268765293285
 30
0.0
 10
12518.22319378239
 20
-6880.991295458312
 30
0.0
 10
12517.71881586326
 20
-6880.767690504464
 30
0.0
 10
12517.42333139707
 20
-6880.63475490032
 30
0.0
 10
12517.2338007634
 20
-6880.554544620861
 30
0.0
 10
12517.16390981612
 20
-6880.521590538274
 30
0.0
 10
12517.12097758481
 20
-6880.508522562395
 30
0.0
 10
12517.05991119298
 20
-6880.4987916653
 30
0.0
 10
12516.97566420482
 20
-6880.495244202847
 30
0.0
 10
12516.9037538419
 20
-6880.499322137764
 30
0.0
 10
12516.83556451032
 20
-6880.51131673659
 30
0.0
 10
12516.77834198271
 20
-6880.529246513727
 30
0.0
 10
12516.71796925272
 20
-6880.563021560677
 30
0.0
 10
12516.66386784964
 20
-6880.611355014372
 30
0.0
 10
12516.61624862476
 20
-6880.68413443422
 30
0.0
 10
12516.60820617925
 20
-6880.743915149799
 30
0.0
 10
12516.60396045354
 20
-6880.775474272036
 30
0.0
  0
SPLINE
  5
369CD5
330
18
100
AcDbEntity
  8
姿図
100
AcDbSpline
210
0.0
220
0.0
230
1.0
 70
     8
 71
     3
 72
    27
 73
    23
 74
     0
 42
0.000000001
 43
0.0000000001
 40
0.0
 40
0.0
 40
0.0
 40
0.0
 40
0.0118753534654532
 40
0.02200055304113
 40
0.0297972062025551
 40
0.0352285865425342
 40
0.0415832852120056
 40
0.0468684910886418
 40
0.0567497850263385
 40
0.0659770489677078
 40
0.074507326084669
 40
0.0921296738377484
 40
0.1140164251334487
 40
0.1508080005833879
 40
0.2237993160481794
 40
0.2965924703764067
 40
0.3696978309940794
 40
0.4936831394353633
 40
0.6092583445904105
 40
0.7643475043863441
 40
0.9331350639791018
 40
1.0
 40
1.0
 40
1.0
 40
1.0
 10
12536.0046904055
 20
-6881.146596794095
 30
0.0
 10
12535.99980682231
 20
-6881.112001481381
 30
0.0
 10
12535.99075938374
 20
-6881.047909409126
 30
0.0
 10
12535.93733876211
 20
-6880.972687990423
 30
0.0
 10
12535.88206950392
 20
-6880.927102920106
 30
0.0
 10
12535.82801994983
 20
-6880.898795524739
 30
0.0
 10
12535.78059703633
 20
-6880.88358854725
 30
0.0
 10
12535.71982190674
 20
-6880.871239938312
 30
0.0
 10
12535.64705976558
 20
-6880.865432979096
 30
0.0
 10
12535.55949462794
 20
-6880.867455105067
 30
0.0
 10
12535.46260102001
 20
-6880.882055823646
 30
0.0
 10
12535.37850683538
 20
-6880.91475210217
 30
0.0
 10
12535.22582243136
 20
-6880.960400184623
 30
0.0
 10
12534.97355166728
 20
-6881.042122349118
 30
0.0
 10
12534.62136744108
 20
-6881.153359830278
 30
0.0
 10
12534.20418055661
 20
-6881.286458373686
 30
0.0
 10
12533.68946864749
 20
-6881.450257008108
 30
0.0
 10
12533.09324512854
 20
-6881.640124564675
 30
0.0
 10
12532.34074692205
 20
-6881.87970348914
 30
0.0
 10
12531.50233661672
 20
-6882.146649357865
 30
0.0
 10
12530.75860054539
 20
-6882.383451998258
 30
0.0
 10
12530.30733796906
 20
-6882.527126555316
 30
0.0
 10
12530.17929500811
 20
-6882.567893320974
 30
0.0
  0
LINE
  5
369CD6
330
18
100
AcDbEntity
  8
姿図
100
AcDbLine
 10
12540.36925301081
 20
-6899.909981851346
 30
0.0
 11
12540.65523197811
 21
-6897.717771818637
 31
0.0
  0
SPLINE
  5
369CD7
330
18
100
AcDbEntity
  8
姿図
100
AcDbSpline
210
0.0
220
0.0
230
1.0
 70
     8
 71
     3
 72
    16
 73
    12
 74
     0
 42
0.000000001
 43
0.0000000001
 40
0.0
 40
0.0
 40
0.0
 40
0.0
 40
0.0035982555904927
 40
0.0438405364318025
 40
0.0912773876099137
 40
0.1710581437290742
 40
0.3294442379367123
 40
0.4869662504531153
 40
0.6437949194203153
 40
0.9095309460701169
 40
1.0
 40
1.0
 40
1.0
 40
1.0
 10
12539.84164311112
 20
-6882.119646435461
 30
0.0
 10
12539.8365263299
 20
-6882.119842421911
 30
0.0
 10
12539.77418433454
 20
-6882.122230287619
 30
0.0
 10
12539.66548244772
 20
-6882.144838279476
 30
0.0
 10
12539.4492677481
 20
-6882.171464150802
 30
0.0
 10
12539.08890033371
 20
-6882.224106171648
 30
0.0
 10
12538.58596841131
 20
-6882.293533287691
 30
0.0
 10
12537.98711149928
 20
-6882.377888826496
 30
0.0
 10
12537.25173370755
 20
-6882.480912394159
 30
0.0
 10
12536.60148971539
 20
-6882.572148193637
 30
0.0
 10
12536.14999161436
 20
-6882.635468776967
 30
0.0
 10
12536.03532001567
 20
-6882.651550954285
 30
0.0
  0
SPLINE
  5
369CD8
330
18
100
AcDbEntity
  8
姿図
100
AcDbSpline
210
0.0
220
0.0
230
1.0
 70
     8
 71
     3
 72
    15
 73
    11
 74
     0
 42
0.000000001
 43
0.0000000001
 40
0.0
 40
0.0
 40
0.0
 40
0.0
 40
0.1082000597990475
 40
0.2083354848215983
 40
0.3706262153952001
 40
0.4864103492385376
 40
0.5809721487630131
 40
0.7491833107642404
 40
0.8959119200984595
 40
1.0
 40
1.0
 40
1.0
 40
1.0
 10
12540.28068220515
 20
-6882.397189714712
 30
0.0
 10
12540.27859945463
 20
-6882.375600373167
 30
0.0
 10
12540.27458919032
 20
-6882.33403084034
 30
0.0
 10
12540.24567904545
 20
-6882.265056793241
 30
0.0
 10
12540.19743887436
 20
-6882.204924559657
 30
0.0
 10
12540.13505479607
 20
-6882.163414481254
 30
0.0
 10
12540.07030333678
 20
-6882.136829634013
 30
0.0
 10
12539.99926018278
 20
-6882.122639249864
 30
0.0
 10
12539.91109216628
 20
-6882.11522789826
 30
0.0
 10
12539.86201144491
 20
-6882.118350546837
 30
0.0
 10
12539.84164311112
 20
-6882.119646435461
 30
0.0
  0
SPLINE
  5
369CD9
330
18
100
AcDbEntity
  8
姿図
100
AcDbSpline
210
0.0
220
0.0
230
1.0
 70
     8
 71
     3
 72
     9
 73
     5
 74
     0
 42
0.000000001
 43
0.0000000001
 40
0.0
 40
0.0
 40
0.0
 40
0.0
 40
0.4999995030876172
 40
1.0
 40
1.0
 40
1.0
 40
1.0
 10
12508.65396481388
 20
-6883.306964643354
 30
0.0
 10
12508.58376431382
 20
-6885.861933043433
 30
0.0
 10
12508.44336317417
 20
-6890.971874921977
 30
0.0
 10
12508.30281997475
 20
-6896.080640562487
 30
0.0
 10
12508.2325483052
 20
-6898.63502592135
 30
0.0
  0
SPLINE
  5
369CDA
330
18
100
AcDbEntity
  8
姿図
100
AcDbSpline
210
0.0
220
0.0
230
1.0
 70
     8
 71
     3
 72
    25
 73
    21
 74
     0
 42
0.000000001
 43
0.0000000001
 40
0.0
 40
0.0
 40
0.0
 40
0.0
 40
0.1029989871090114
 40
0.3332743370813979
 40
0.574043139332332
 40
0.6582669893222924
 40
0.7444742433462643
 40
0.8275919919536473
 40
0.8798792900374127
 40
0.891549557647674
 40
0.8982859956421911
 40
0.90905824343236
 40
0.9187402573448157
 40
0.9288298895205757
 40
0.9370795961651921
 40
0.9490550400875029
 40
0.9580895575639301
 40
0.9697980826364123
 40
0.9840301936433326
 40
0.9999999999999998
 40
0.9999999999999998
 40
0.9999999999999998
 40
0.9999999999999998
 10
12516.5706485102
 20
-6882.450244761503
 30
0.0
 10
12516.39984067465
 20
-6882.416568220681
 30
0.0
 10
12515.84715690796
 20
-6882.307600869324
 30
0.0
 10
12514.89534617655
 20
-6882.119950560081
 30
0.0
 10
12513.97403441715
 20
-6881.938295419468
 30
0.0
 10
12513.29149091893
 20
-6881.803689655419
 30
0.0
 10
12512.87028934965
 20
-6881.720715932624
 30
0.0
 10
12512.50286534423
 20
-6881.647995228549
 30
0.0
 10
12512.25751068403
 20
-6881.600132941311
 30
0.0
 10
12512.14132901183
 20
-6881.576723229606
 30
0.0
 10
12512.09132539591
 20
-6881.567570955787
 30
0.0
 10
12512.03531600769
 20
-6881.563020842808
 30
0.0
 10
12511.97017978154
 20
-6881.562989554019
 30
0.0
 10
12511.91271246697
 20
-6881.567590573322
 30
0.0
 10
12511.85123218953
 20
-6881.578919057864
 30
0.0
 10
12511.79568325897
 20
-6881.596319247595
 30
0.0
 10
12511.73551974131
 20
-6881.630016506344
 30
0.0
 10
12511.68152683034
 20
-6881.678213065242
 30
0.0
 10
12511.63368219831
 20
-6881.751037910827
 30
0.0
 10
12511.62553306708
 20
-6881.811032063447
 30
0.0
 10
12511.62122406755
 20
-6881.842755049387
 30
0.0
  0
SPLINE
  5
369CDB
330
18
100
AcDbEntity
  8
姿図
100
AcDbSpline
210
0.0
220
0.0
230
1.0
 70
     8
 71
     3
 72
     9
 73
     5
 74
     0
 42
0.000000001
 43
0.0000000001
 40
0.0
 40
0.0
 40
0.0
 40
0.0
 40
0.4999999116432513
 40
1.0
 40
1.0
 40
1.0
 40
1.0
 10
12542.72911932844
 20
-6899.298771564199
 30
0.0
 10
12542.66167825508
 20
-6896.742591132348
 30
0.0
 10
12542.52679608454
 20
-6891.630229365228
 30
0.0
 10
12542.39194150476
 20
-6886.517352350501
 30
0.0
 10
12542.32451420295
 20
-6883.960913391378
 30
0.0
  0
LINE
  5
369CDC
330
18
100
AcDbEntity
  8
姿図
100
AcDbLine
 10
12508.23292073887
 20
-6898.640544235011
 30
0.0
 11
12508.52655251697
 21
-6900.825496654786
 31
0.0
  0
LINE
  5
369CDD
330
18
100
AcDbEntity
  8
姿図
100
AcDbLine
 10
12542.42834145548
 20
-6901.484508204259
 30
0.0
 11
12542.72878909429
 21
-6899.304386073352
 31
0.0
  0
SPLINE
  5
369CDE
330
18
100
AcDbEntity
  8
姿図
100
AcDbSpline
210
0.0
220
0.0
230
1.0
 70
     8
 71
     3
 72
     9
 73
     5
 74
     0
 42
0.000000001
 43
0.0000000001
 40
0.0
 40
0.0
 40
0.0
 40
0.0
 40
0.5000000529100502
 40
1.0
 40
1.0
 40
1.0
 40
1.0
 10
12508.15412773133
 20
-6884.945860032664
 30
0.0
 10
12508.08269128441
 20
-6887.504370243482
 30
0.0
 10
12507.9398184057
 20
-6892.621390123635
 30
0.0
 10
12507.79687861804
 20
-6897.738972129275
 30
0.0
 10
12507.72540873178
 20
-6900.297762861325
 30
0.0
  0
SPLINE
  5
369CDF
330
18
100
AcDbEntity
  8
姿図
100
AcDbSpline
210
0.0
220
0.0
230
1.0
 70
     8
 71
     3
 72
    21
 73
    17
 74
     0
 42
0.000000001
 43
0.0000000001
 40
0.0
 40
0.0
 40
0.0
 40
0.0
 40
0.1678257269359291
 40
0.4133844901321099
 40
0.6374127822194442
 40
0.753464277451519
 40
0.7972087245183938
 40
0.8269401550475631
 40
0.851667332226515
 40
0.8770325180211411
 40
0.890136952792131
 40
0.906268105306405
 40
0.9211804586269337
 40
0.942105312551339
 40
0.9688426392675236
 40
1.0
 40
1.0
 40
1.0
 40
1.0
 10
12511.58763245639
 20
-6883.205695327834
 30
0.0
 10
12511.41533285757
 20
-6883.193514542833
 30
0.0
 10
12510.99092842862
 20
-6883.163511111963
 30
0.0
 10
12510.33657527159
 20
-6883.117166645305
 30
0.0
 10
12509.73546537532
 20
-6883.074921633827
 30
0.0
 10
12509.34159511389
 20
-6883.046708636368
 30
0.0
 10
12509.14708673719
 20
-6883.033445916969
 30
0.0
 10
12509.04637129344
 20
-6883.025509205821
 30
0.0
 10
12508.96000335755
 20
-6883.030027588286
 30
0.0
 10
12508.89523436952
 20
-6883.041140743198
 30
0.0
 10
12508.8462798542
 20
-6883.055021361696
 30
0.0
 10
12508.80612569165
 20
-6883.071472379646
 30
0.0
 10
12508.75875965451
 20
-6883.101358592249
 30
0.0
 10
12508.71104217721
 20
-6883.146735131915
 30
0.0
 10
12508.66609104847
 20
-6883.217288573215
 30
0.0
 10
12508.65821247207
 20
-6883.275597965148
 30
0.0
 10
12508.65397243455
 20
-6883.306978508658
 30
0.0
  0
SPLINE
  5
369CE0
330
18
100
AcDbEntity
  8
姿図
100
AcDbSpline
210
0.0
220
0.0
230
1.0
 70
     8
 71
     3
 72
    20
 73
    16
 74
     0
 42
0.000000001
 43
0.0000000001
 40
0.0
 40
0.0
 40
0.0
 40
0.0
 40
0.0299927222029811
 40
0.0582933340638263
 40
0.1059860213099384
 40
0.1397814712286307
 40
0.1598726417791173
 40
0.1894029671721082
 40
0.2154246428372488
 40
0.2478492430516138
 40
0.3279458819387927
 40
0.4318520295871499
 40
0.620761246884094
 40
0.9651179446505876
 40
1.0
 40
1.0
 40
1.0
 40
1.0
 10
12542.32447413189
 20
-6883.960778933065
 30
0.0
 10
12542.32233906791
 20
-6883.939273872162
 30
0.0
 10
12542.31818939463
 20
-6883.897477009215
 30
0.0
 10
12542.28839968527
 20
-6883.826850359222
 30
0.0
 10
12542.23700697542
 20
-6883.764910901625
 30
0.0
 10
12542.17571612088
 20
-6883.725737035248
 30
0.0
 10
12542.11893492227
 20
-6883.702828936455
 30
0.0
 10
12542.07828819033
 20
-6883.69319773754
 30
0.0
 10
12542.0177318595
 20
-6883.683707255707
 30
0.0
 10
12541.91578704285
 20
-6883.678550319479
 30
0.0
 10
12541.7599679235
 20
-6883.686850229826
 30
0.0
 10
12541.48920131192
 20
-6883.692623162822
 30
0.0
 10
12541.02669201673
 20
-6883.70747050919
 30
0.0
 10
12540.6139914009
 20
-6883.719157798115
 30
0.0
 10
12540.33857199949
 20
-6883.727275254525
 30
0.0
 10
12540.3132391591
 20
-6883.728021891204
 30
0.0
  0
LINE
  5
369CE1
330
18
100
AcDbEntity
  8
姿図
100
AcDbLine
 10
12507.7256610233
 20
-6900.303489342324
 30
0.0
 11
12508.0226168224
 21
-6902.476937806039
 31
0.0
  0
SPLINE
  5
369CE2
330
18
100
AcDbEntity
  8
姿図
100
AcDbSpline
210
0.0
220
0.0
230
1.0
 70
     8
 71
     3
 72
    18
 73
    14
 74
     0
 42
0.000000001
 43
0.0000000001
 40
0.0
 40
0.0
 40
0.0
 40
0.0
 40
0.049262970105397
 40
0.2150926125475897
 40
0.3320636675820353
 40
0.4405359842387269
 40
0.4917718581244555
 40
0.5268943274555943
 40
0.5805288951932078
 40
0.6552392420933604
 40
0.7516939648155987
 40
0.8682361746983674
 40
1.0
 40
1.0
 40
1.0
 40
1.0
 10
12508.61666635508
 20
-6884.66421728439
 30
0.0
 10
12508.60624131559
 20
-6884.664592256729
 30
0.0
 10
12508.56072337433
 20
-6884.666229465776
 30
0.0
 10
12508.48975092326
 20
-6884.667618280346
 30
0.0
 10
12508.40877221769
 20
-6884.677725622832
 30
0.0
 10
12508.35729480896
 20
-6884.691037595946
 30
0.0
 10
12508.32825409507
 20
-6884.700990558077
 30
0.0
 10
12508.30200834081
 20
-6884.713468128683
 30
0.0
 10
12508.27256005862
 20
-6884.731178205026
 30
0.0
 10
12508.23553462583
 20
-6884.760907690488
 30
0.0
 10
12508.19653513914
 20
-6884.80671448343
 30
0.0
 10
12508.16302942378
 20
-6884.870181604014
 30
0.0
 10
12508.15723271386
 20
-6884.91970894659
 30
0.0
 10
12508.15415668443
 20
-6884.945990676353
 30
0.0
  0
LINE
  5
369CE3
330
18
100
AcDbEntity
  8
姿図
100
AcDbLine
 10
12541.92456205637
 20
-6903.135971104467
 30
0.0
 11
12542.13887923179
 21
-6901.571204804965
 31
0.0
  0
LINE
  5
369CE4
330
18
100
AcDbEntity
  8
姿図
100
AcDbLine
 10
12541.02136320572
 20
-6939.378582493033
 30
0.0
 11
12541.0339321662
 21
-6938.71410384121
 31
0.0
  0
LINE
  5
369CE5
330
18
100
AcDbEntity
  8
姿図
100
AcDbLine
 10
12540.8124347025
 20
-6940.505123295327
 30
0.0
 11
12541.00147067721
 21
-6939.557394716769
 31
0.0
  0
SPLINE
  5
369CE6
330
18
100
AcDbEntity
  8
姿図
100
AcDbSpline
210
0.0
220
0.0
230
1.0
 70
     8
 71
     3
 72
    17
 73
    13
 74
     0
 42
0.000000001
 43
0.0000000001
 40
0.0
 40
0.0
 40
0.0
 40
0.0
 40
0.0870119584339096
 40
0.2263783053696427
 40
0.3428048746057986
 40
0.4489003130740337
 40
0.5487639746083786
 40
0.6452017266642646
 40
0.7398758165071322
 40
0.8336394463578946
 40
0.9268884969731979
 40
1.0
 40
1.0
 40
1.0
 40
1.0
 10
12538.59977740927
 20
-6943.106908698839
 30
0.0
 10
12538.66908573008
 20
-6943.073742724577
 30
0.0
 10
12538.84940462527
 20
-6942.987455078783
 30
0.0
 10
12539.13457483323
 20
-6942.821184521273
 30
0.0
 10
12539.4391057929
 20
-6942.613410781399
 30
0.0
 10
12539.71516694193
 20
-6942.388272125405
 30
0.0
 10
12539.97187657063
 20
-6942.136640271927
 30
0.0
 10
12540.20811311842
 20
-6941.853564740026
 30
0.0
 10
12540.41929155506
 20
-6941.537754136549
 30
0.0
 10
12540.59646736628
 20
-6941.190425633168
 30
0.0
 10
12540.72951238567
 20
-6940.844928968406
 30
0.0
 10
12540.77973443076
 20
-6940.609450811672
 30
0.0
 10
12540.80180582402
 20
-6940.505963767467
 30
0.0
  0
SPLINE
  5
369CE7
330
18
100
AcDbEntity
  8
姿図
100
AcDbSpline
210
0.0
220
0.0
230
1.0
 70
     8
 71
     3
 72
    11
 73
     7
 74
     0
 42
0.000000001
 43
0.0000000001
 40
0.0
 40
0.0
 40
0.0
 40
0.0
 40
0.1496072959475476
 40
0.452707636572859
 40
0.7557686825093836
 40
1.0
 40
1.0
 40
1.0
 40
1.0
 10
12518.03796992754
 20
-6939.249465612028
 30
0.0
 10
12517.92633749982
 20
-6939.166735724208
 30
0.0
 10
12517.58854078878
 20
-6938.916397318239
 30
0.0
 10
12517.05512966118
 20
-6938.474391551908
 30
0.0
 10
12516.47514839879
 20
-6937.964924868092
 30
0.0
 10
12516.12898099134
 20
-6937.62390624991
 30
0.0
 10
12515.9745024573
 20
-6937.471725382841
 30
0.0
  0
SPLINE
  5
369CE8
330
18
100
AcDbEntity
  8
姿図
100
AcDbSpline
210
0.0
220
0.0
230
1.0
 70
     8
 71
     3
 72
    25
 73
    21
 74
     0
 42
0.000000001
 43
0.0000000001
 40
0.0
 40
0.0
 40
0.0
 40
0.0
 40
0.0514095102899647
 40
0.1046363459538683
 40
0.157958668113983
 40
0.2114914743641617
 40
0.2653589964950791
 40
0.3197019205702134
 40
0.3746853703395395
 40
0.4305104885796617
 40
0.4874300444992396
 40
0.5457702896889507
 40
0.6059591376610199
 40
0.6685587951125443
 40
0.7342709427438255
 40
0.8037856938034519
 40
0.8770600287593125
 40
0.9379998316955436
 40
0.9941656740387756
 40
1.0
 40
1.0
 40
1.0
 40
1.0
 10
12520.58697519627
 20
-6946.235759373341
 30
0.0
 10
12520.93232887709
 20
-6946.236575943702
 30
0.0
 10
12521.63524448588
 20
-6946.238237950172
 30
0.0
 10
12522.69487404053
 20
-6946.219111919987
 30
0.0
 10
12523.76385501846
 20
-6946.183833053082
 30
0.0
 10
12524.82936984036
 20
-6946.130660614267
 30
0.0
 10
12525.89098704989
 20
-6946.059755650833
 30
0.0
 10
12526.94865215662
 20
-6945.970407002798
 30
0.0
 10
12528.00280798922
 20
-6945.86179478662
 30
0.0
 10
12529.05460626878
 20
-6945.732629077622
 30
0.0
 10
12530.1062056716
 20
-6945.58118745732
 30
0.0
 10
12531.16111746328
 20
-6945.404727828803
 30
0.0
 10
12532.22467736427
 20
-6945.199371707333
 30
0.0
 10
12533.30438331597
 20
-6944.959212003254
 30
0.0
 10
12534.40940695662
 20
-6944.675973786418
 30
0.0
 10
12535.54590986764
 20
-6944.338161490482
 30
0.0
 10
12536.63253104799
 20
-6943.963532413864
 30
0.0
 10
12537.62967715368
 20
-6943.559550073347
 30
0.0
 10
12538.2683284412
 20
-6943.279819850292
 30
0.0
 10
12538.58525456681
 20
-6943.115819921586
 30
0.0
 10
12538.61507787815
 20
-6943.100387237
 30
0.0
  0
SPLINE
  5
369CE9
330
18
100
AcDbEntity
  8
姿図
100
AcDbSpline
210
0.0
220
0.0
230
1.0
 70
     8
 71
     3
 72
    15
 73
    11
 74
     0
 42
0.000000001
 43
0.0000000001
 40
0.0
 40
0.0
 40
0.0
 40
0.0
 40
0.1270783617594462
 40
0.2633627723384249
 40
0.4030912023194151
 40
0.5427220064725619
 40
0.6810687149260763
 40
0.8175928641230695
 40
0.95202043820452
 40
0.9999999999999998
 40
0.9999999999999998
 40
0.9999999999999998
 40
0.9999999999999998
 10
12514.20650865682
 20
-6945.303038579506
 30
0.0
 10
12514.42549306424
 20
-6945.377977963196
 30
0.0
 10
12514.8793259579
 20
-6945.533285629837
 30
0.0
 10
12515.61064366775
 20
-6945.722252404202
 30
0.0
 10
12516.39220721073
 20
-6945.885103783597
 30
0.0
 10
12517.20840985785
 20
-6946.0145609869
 30
0.0
 10
12518.04652455837
 20
-6946.113274772255
 30
0.0
 10
12518.902427198
 20
-6946.180826875886
 30
0.0
 10
12519.58458158975
 20
-6946.217572260654
 30
0.0
 10
12519.98757512575
 20
-6946.223855778406
 30
0.0
 10
12520.09357675322
 20
-6946.225508566971
 30
0.0
  0
SPLINE
  5
369CEA
330
18
100
AcDbEntity
  8
姿図
100
AcDbSpline
210
0.0
220
0.0
230
1.0
 70
     8
 71
     3
 72
    11
 73
     7
 74
     0
 42
0.000000001
 43
0.0000000001
 40
0.0
 40
0.0
 40
0.0
 40
0.0
 40
0.1361510534892479
 40
0.5118932606413639
 40
0.8906745375562323
 40
1.0
 40
1.0
 40
1.0
 40
1.0
 10
12509.91074930215
 20
-6940.552952253042
 30
0.0
 10
12509.95277083686
 20
-6940.652328252638
 30
0.0
 10
12510.11076109746
 20
-6941.0259566834
 30
0.0
 10
12510.42241001059
 20
-6941.675040906329
 30
0.0
 10
12510.75631678846
 20
-6942.302364074753
 30
0.0
 10
12510.9598781357
 20
-6942.655246109615
 30
0.0
 10
12511.00547152056
 20
-6942.734284132528
 30
0.0
  0
SPLINE
  5
369CEB
330
18
100
AcDbEntity
  8
姿図
100
AcDbSpline
210
0.0
220
0.0
230
1.0
 70
     8
 71
     3
 72
    12
 73
     8
 74
     0
 42
0.000000001
 43
0.0000000001
 40
0.0
 40
0.0
 40
0.0
 40
0.0
 40
0.0054990639976522
 40
0.2531737591223294
 40
0.505514913656543
 40
0.7668154661922041
 40
1.0
 40
1.0
 40
1.0
 40
1.0
 10
12511.13630386883
 20
-6942.950379208355
 30
0.0
 10
12511.13810678304
 20
-6942.95349177188
 30
0.0
 10
12511.22111192149
 20
-6943.09679241512
 30
0.0
 10
12511.41820468761
 20
-6943.361691534227
 30
0.0
 10
12511.73950291702
 20
-6943.733696019475
 30
0.0
 10
12512.0862545781
 20
-6944.063848236381
 30
0.0
 10
12512.33325897546
 20
-6944.250313352262
 30
0.0
 10
12512.44973893985
 20
-6944.338244782996
 30
0.0
  0
SPLINE
  5
369CEC
330
18
100
AcDbEntity
  8
姿図
100
AcDbSpline
210
0.0
220
0.0
230
1.0
 70
     8
 71
     3
 72
     9
 73
     5
 74
     0
 42
0.000000001
 43
0.0000000001
 40
0.0
 40
0.0
 40
0.0
 40
0.0
 40
0.7011921670589788
 40
1.0
 40
1.0
 40
1.0
 40
1.0
 10
12511.0061733011
 20
-6942.733334712437
 30
0.0
 10
12511.03546839813
 20
-6942.785438024628
 30
0.0
 10
12511.07724738313
 20
-6942.859744776241
 30
0.0
 10
12511.12387110489
 20
-6942.928215140312
 30
0.0
 10
12511.13780263815
 20
-6942.948674621423
 30
0.0
  0
SPLINE
  5
369CED
330
18
100
AcDbEntity
  8
姿図
100
AcDbSpline
210
0.0
220
0.0
230
1.0
 70
     8
 71
     3
 72
    13
 73
     9
 74
     0
 42
0.000000001
 43
0.0000000001
 40
0.0
 40
0.0
 40
0.0
 40
0.0
 40
0.0373046702730615
 40
0.2786283132037068
 40
0.5080787977320389
 40
0.728165201304996
 40
0.899777731560405
 40
1.0
 40
1.0
 40
1.0
 40
1.0
 10
12512.45418364906
 20
-6944.344704002739
 30
0.0
 10
12512.47227288561
 20
-6944.358202478928
 30
0.0
 10
12512.60738126289
 20
-6944.459022500234
 30
0.0
 10
12512.87259094971
 20
-6944.636337371091
 30
0.0
 10
12513.25821555063
 20
-6944.870018304567
 30
0.0
 10
12513.63270950767
 20
-6945.062749601466
 30
0.0
 10
12513.94288934119
 20
-6945.206544823666
 30
0.0
 10
12514.12627050562
 20
-6945.272628726477
 30
0.0
 10
12514.19388096748
 20
-6945.296993078203
 30
0.0
  0
LINE
  5
369CEE
330
18
100
AcDbEntity
  8
姿図
100
AcDbLine
 10
12507.23403327383
 20
-6923.382107344491
 30
0.0
 11
12507.258395762
 21
-6924.309748897406
 31
0.0
  0
LINE
  5
369CEF
330
18
100
AcDbEntity
  8
姿図
100
AcDbLine
 10
12543.15756121598
 20
-6924.337968241331
 30
0.0
 11
12543.18338237388
 21
-6923.410366490883
 31
0.0
  0
LINE
  5
369CF0
330
18
100
AcDbEntity
  8
姿図
100
AcDbLine
 10
12542.9666676789
 20
-6922.681428445914
 30
0.0
 11
12542.34992351111
 21
-6921.696586237458
 31
0.0
  0
LINE
  5
369CF1
330
18
100
AcDbEntity
  8
姿図
100
AcDbLine
 10
12508.07018598922
 20
-6921.669639973686
 30
0.0
 11
12507.45189123404
 21
-6922.653511621799
 31
0.0
  0
LINE
  5
369CF2
330
18
100
AcDbEntity
  8
姿図
100
AcDbLine
 10
12539.92552409414
 20
-6901.404811046237
 30
0.0
 11
12539.90192603795
 21
-6900.036207498608
 31
0.0
  0
LINE
  5
369CF3
330
18
100
AcDbEntity
  8
姿図
100
AcDbLine
 10
12510.55223476028
 20
-6900.013136160831
 30
0.0
 11
12510.5264822215
 21
-6901.381701417275
 31
0.0
  0
LINE
  5
369CF4
330
18
100
AcDbEntity
  8
姿図
100
AcDbLine
 10
12507.80126168503
 20
-6903.281150866054
 30
0.0
 11
12507.43627727275
 21
-6922.678823374699
 31
0.0
  0
LINE
  5
369CF5
330
18
100
AcDbEntity
  8
姿図
100
AcDbLine
 10
12542.97727333832
 20
-6922.69857555341
 30
0.0
 11
12542.64754492497
 21
-6903.576381221052
 31
0.0
  0
LINE
  5
369CF6
330
18
100
AcDbEntity
  8
姿図
100
AcDbLine
 10
12544.09540313774
 20
-6940.33116994119
 30
0.0
 11
12544.09608807341
 21
-6939.459834195389
 31
0.0
  0
LINE
  5
369CF7
330
18
100
AcDbEntity
  8
姿図
100
AcDbLine
 10
12506.29609731933
 20
-6939.430120014792
 30
0.0
 11
12506.29541238365
 21
-6940.301455760593
 31
0.0
  0
LINE
  5
369CF8
330
18
100
AcDbEntity
  8
姿図
100
AcDbLine
 10
12543.19721913245
 20
-6938.016310566904
 30
0.0
 11
12543.19722652637
 21
-6938.006904445737
 31
0.0
  0
LINE
  5
369CF9
330
18
100
AcDbEntity
  8
姿図
100
AcDbLine
 10
12507.1972400189
 20
-6937.978606067805
 30
0.0
 11
12507.19723262498
 21
-6937.988012188973
 31
0.0
  0
SPLINE
  5
369CFA
330
18
100
AcDbEntity
  8
姿図
100
AcDbSpline
210
0.0
220
0.0
230
1.0
 70
     8
 71
     3
 72
    11
 73
     7
 74
     0
 42
0.000000001
 43
0.0000000001
 40
0.0
 40
0.0
 40
0.0
 40
0.0
 40
0.1410657124646747
 40
0.4289960748289733
 40
0.7166684173940159
 40
1.0
 40
1.0
 40
1.0
 40
1.0
 10
12508.12412768073
 20
-6929.823848081106
 30
0.0
 10
12508.06346116224
 20
-6930.201109771208
 30
0.0
 10
12507.87896772402
 20
-6931.348403336804
 30
0.0
 10
12507.6327772348
 20
-6933.275071350077
 30
0.0
 10
12507.37878783005
 20
-6935.58930679875
 30
0.0
 10
12507.25965381764
 20
-6937.132737068913
 30
0.0
 10
12507.20053963858
 20
-6937.898585641594
 30
0.0
  0
SPLINE
  5
369CFB
330
18
100
AcDbEntity
  8
姿図
100
AcDbSpline
210
0.0
220
0.0
230
1.0
 70
     8
 71
     3
 72
    10
 73
     6
 74
     0
 42
0.000000001
 43
0.0000000001
 40
0.0
 40
0.0
 40
0.0
 40
0.0
 40
0.0974256809016217
 40
0.8394749911908201
 40
1.0
 40
1.0
 40
1.0
 40
1.0
 10
12542.71458612341
 20
-6932.933779066721
 30
0.0
 10
12542.70332777954
 20
-6932.833212299015
 30
0.0
 10
12542.60631949558
 20
-6931.966671920203
 30
0.0
 10
12542.46374534817
 20
-6930.937603337397
 30
0.0
 10
12542.31224867496
 20
-6930.013009357427
 30
0.0
 10
12542.28530462804
 20
-6929.848568099084
 30
0.0
  0
SPLINE
  5
369CFC
330
18
100
AcDbEntity
  8
姿図
100
AcDbSpline
210
0.0
220
0.0
230
1.0
 70
     8
 71
     3
 72
     9
 73
     5
 74
     0
 42
0.000000001
 43
0.0000000001
 40
0.0
 40
0.0
 40
0.0
 40
0.0
 40
0.2684242452714994
 40
1.0
 40
1.0
 40
1.0
 40
1.0
 10
12543.18862091758
 20
-6937.927702992836
 30
0.0
 10
12543.17474410317
 20
-6937.699312801827
 30
0.0
 10
12543.12304678199
 20
-6936.848457504543
 30
0.0
 10
12543.04040497088
 20
-6936.00016223789
 30
0.0
 10
12542.97994622554
 20
-6935.379569987955
 30
0.0
  0
SPLINE
  5
369CFD
330
18
100
AcDbEntity
  8
姿図
100
AcDbSpline
210
0.0
220
0.0
230
1.0
 70
     8
 71
     3
 72
    13
 73
     9
 74
     0
 42
0.000000001
 43
0.0000000001
 40
0.0
 40
0.0
 40
0.0
 40
0.0
 40
0.1474032882416039
 40
0.3352480078831945
 40
0.5262681458368452
 40
0.7232431688685864
 40
0.9263078831001763
 40
1.0
 40
1.0
 40
1.0
 40
1.0
 10
12507.20950501233
 20
-6929.30638042208
 30
0.0
 10
12507.21309347161
 20
-6929.379194254806
 30
0.0
 10
12507.22125491658
 20
-6929.544799056838
 30
0.0
 10
12507.30112319175
 20
-6929.799371702024
 30
0.0
 10
12507.43416870963
 20
-6930.068513696948
 30
0.0
 10
12507.62774144675
 20
-6930.333177071595
 30
0.0
 10
12507.81290889508
 20
-6930.538824432845
 30
0.0
 10
12507.95193147165
 20
-6930.653420205834
 30
0.0
 10
12507.98894905103
 20
-6930.683933653559
 30
0.0
  0
SPLINE
  5
369CFE
330
18
100
AcDbEntity
  8
姿図
100
AcDbSpline
210
0.0
220
0.0
230
1.0
 70
     8
 71
     3
 72
    13
 73
     9
 74
     0
 42
0.000000001
 43
0.0000000001
 40
0.0
 40
0.0
 40
0.0
 40
0.0
 40
0.1643412658656329
 40
0.3624140742904199
 40
0.5576195066164678
 40
0.7474320513760605
 40
0.9307786708071955
 40
1.0
 40
1.0
 40
1.0
 40
1.0
 10
12542.41654073471
 20
-6930.713593932008
 30
0.0
 10
12542.49808267909
 20
-6930.640929378845
 30
0.0
 10
12542.67790329889
 20
-6930.480685652906
 30
0.0
 10
12542.88871214178
 20
-6930.221607277196
 30
0.0
 10
12543.05996176664
 20
-6929.939769963015
 30
0.0
 10
12543.16396302196
 20
-6929.653215404805
 30
0.0
 10
12543.2093280436
 20
-6929.423425512289
 30
0.0
 10
12543.19949226175
 20
-6929.291983542019
 30
0.0
 10
12543.19679656779
 20
-6929.255959224827
 30
0.0
  0
LINE
  5
369CFF
330
18
100
AcDbEntity
  8
姿図
100
AcDbLine
 10
12543.20407588314
 20
-6929.293546987721
 30
0.0
 11
12543.20464666099
 21
-6928.567436270647
 31
0.0
  0
LINE
  5
369D00
330
18
100
AcDbEntity
  8
姿図
100
AcDbLine
 10
12507.20466015351
 20
-6928.539137892716
 30
0.0
 11
12507.20408937567
 21
-6929.265248609791
 31
0.0
  0
LINE
  5
369D01
330
18
100
AcDbEntity
  8
姿図
100
AcDbLine
 10
12543.20434652567
 20
-6928.540334078156
 30
0.0
 11
12543.10761808991
 21
-6924.377352845986
 31
0.0
  0
LINE
  5
369D02
330
18
100
AcDbEntity
  8
姿図
100
AcDbLine
 10
12507.30827795651
 20
-6924.34921185162
 30
0.0
 11
12507.2050060854
 21
-6928.51203485671
 31
0.0
  0
LINE
  5
369D03
330
18
100
AcDbEntity
  8
姿図
100
AcDbLine
 10
12522.6344465248
 20
-6895.569602703854
 30
0.0
 11
12522.66894605587
 21
-6895.641170117085
 31
0.0
  0
ARC
  5
369D04
330
18
100
AcDbEntity
  8
姿図
100
AcDbCircle
 10
12523.19524843925
 20
-6896.44655698616
 30
0.0
 40
1.053004955511134
100
AcDbArc
 50
59.70032025142736
 51
121.9340460133147
  0
LINE
  5
369D05
330
18
100
AcDbEntity
  8
姿図
100
AcDbLine
 10
12523.72651344562
 20
-6895.537394223315
 30
0.0
 11
12523.97824107657
 21
-6896.059561656821
 31
0.0
  0
LINE
  5
369D06
330
18
100
AcDbEntity
  8
姿図
100
AcDbLine
 10
12523.69790336433
 20
-6898.025454989668
 30
0.0
 11
12523.97824107657
 21
-6896.059561656821
 31
0.0
  0
LINE
  5
369D07
330
18
100
AcDbEntity
  8
姿図
100
AcDbLine
 10
12523.56604831041
 20
-6897.751939339819
 30
0.0
 11
12523.69790336433
 21
-6898.025454989668
 31
0.0
  0
LWPOLYLINE
  5
369D08
330
18
100
AcDbEntity
  8
姿図
100
AcDbPolyline
 90
        9
 70
   128
 43
0.0
 10
12522.82145594654
 20
-6897.773899387583
 10
12522.83259300912
 20
-6897.737380463633
 10
12522.89871273865
 20
-6897.704749748185
 10
12523.00975002098
 20
-6897.680974627554
 10
12523.14879901205
 20
-6897.669674675087
 10
12523.29469273822
 20
-6897.672570864156
 10
12523.42521830739
 20
-6897.689221303436
 10
12523.52050574968
 20
-6897.717092029187
 10
12523.56604831041
 20
-6897.751939339819
  0
LINE
  5
369D09
330
18
100
AcDbEntity
  8
姿図
100
AcDbLine
 10
12522.95331100046
 20
-6898.047415037432
 30
0.0
 11
12522.8674181482
 21
-6897.869239925251
 31
0.0
  0
LINE
  5
369D0A
330
18
100
AcDbEntity
  8
姿図
100
AcDbLine
 10
12522.84012215856
 20
-6897.812618592929
 30
0.0
 11
12522.82145594654
 21
-6897.773899387583
 31
0.0
  0
LINE
  5
369D0B
330
18
100
AcDbEntity
  8
姿図
100
AcDbLine
 10
12523.69790336433
 20
-6898.025454989668
 30
0.0
 11
12522.95331100046
 21
-6898.047415037432
 31
0.0
  0
LINE
  5
369D0C
330
18
100
AcDbEntity
  8
姿図
100
AcDbLine
 10
12528.72850814958
 20
-6896.153851845189
 30
0.0
 11
12529.13086906662
 21
-6898.13329689849
 31
0.0
  0
LINE
  5
369D0D
330
18
100
AcDbEntity
  8
姿図
100
AcDbLine
 10
12529.29378553369
 20
-6895.647902246359
 30
0.0
 11
12528.72850814958
 21
-6896.153851845189
 31
0.0
  0
SPLINE
  5
369D0E
330
18
100
AcDbEntity
  8
姿図
100
AcDbSpline
210
0.0
220
0.0
230
1.0
 70
     8
 71
     3
 72
    16
 73
    12
 74
     0
 42
0.000000001
 43
0.0000000001
 40
0.0
 40
0.0
 40
0.0
 40
0.0
 40
0.1218554215034906
 40
0.235973091949853
 40
0.3506771956685863
 40
0.4639970235168163
 40
0.5779507215831449
 40
0.6917739565316741
 40
0.8062875548330888
 40
0.9199179391880431
 40
1.0
 40
1.0
 40
1.0
 40
1.0
 10
12529.29378553369
 20
-6895.647902246359
 30
0.0
 10
12529.31815454213
 20
-6895.631173567742
 30
0.0
 10
12529.36534514063
 20
-6895.598778472233
 30
0.0
 10
12529.50658555477
 20
-6895.570985431252
 30
0.0
 10
12529.67574123188
 20
-6895.550235682758
 30
0.0
 10
12529.86237305648
 20
-6895.544996106003
 30
0.0
 10
12530.04380739024
 20
-6895.557193655555
 30
0.0
 10
12530.20194002065
 20
-6895.580418689956
 30
0.0
 10
12530.31541364229
 20
-6895.622501653019
 30
0.0
 10
12530.37538768066
 20
-6895.655684386338
 30
0.0
 10
12530.36823565714
 20
-6895.683797176864
 30
0.0
 10
12530.3652789613
 20
-6895.695419198353
 30
0.0
  0
LINE
  5
369D0F
330
18
100
AcDbEntity
  8
姿図
100
AcDbLine
 10
12530.14928382676
 20
-6897.919353265878
 30
0.0
 11
12529.85318730533
 21
-6898.184374698627
 31
0.0
  0
LWPOLYLINE
  5
369D10
330
18
100
AcDbEntity
  8
姿図
100
AcDbPolyline
 90
        9
 70
   128
 43
0.0
 10
12529.42696558804
 20
-6897.868275465739
 10
12529.49308597947
 20
-6897.835644586745
 10
12529.60412259991
 20
-6897.81186962966
 10
12529.7431742117
 20
-6897.800570341991
 10
12529.88906531715
 20
-6897.803465866264
 10
12530.01959350705
 20
-6897.82011697034
 10
12530.11487832861
 20
-6897.847987031297
 10
12530.16042088934
 20
-6897.882834341928
 10
12530.14928382676
 20
-6897.919353265878
  0
LINE
  5
369D11
330
18
100
AcDbEntity
  8
姿図
100
AcDbLine
 10
12529.13086906662
 20
-6898.13329689849
 30
0.0
 11
12529.42696558804
 21
-6897.868275465739
 31
0.0
  0
LINE
  5
369D12
330
18
100
AcDbEntity
  8
姿図
100
AcDbLine
 10
12523.97824107657
 20
-6896.059561656821
 30
0.0
 11
12524.1348260399
 21
-6896.384373273628
 31
0.0
  0
LINE
  5
369D13
330
18
100
AcDbEntity
  8
姿図
100
AcDbLine
 10
12529.85318730533
 20
-6898.184374698627
 30
0.0
 11
12529.13086906662
 21
-6898.13329689849
 31
0.0
  0
LINE
  5
369D14
330
18
100
AcDbEntity
  8
姿図
100
AcDbLine
 10
12528.38463614316
 20
-6896.461636872057
 30
0.0
 11
12528.72850814958
 21
-6896.153851845189
 31
0.0
  0
ARC
  5
369D15
330
18
100
AcDbEntity
  8
姿図
100
AcDbCircle
 10
12516.88449824357
 20
-6897.000374800153
 30
0.0
 40
1.093679037118045
100
AcDbArc
 50
66.05838653840834
 51
121.7841476894031
  0
LINE
  5
369D16
330
18
100
AcDbEntity
  8
姿図
100
AcDbLine
 10
12517.32831920674
 20
-6896.000796494623
 30
0.0
 11
12518.35872470823
 21
-6896.459685949142
 31
0.0
  0
LINE
  5
369D17
330
18
100
AcDbEntity
  8
姿図
100
AcDbLine
 10
12517.77519202638
 20
-6898.468207519279
 30
0.0
 11
12518.35872470823
 21
-6896.459685949142
 31
0.0
  0
LINE
  5
369D18
330
18
100
AcDbEntity
  8
姿図
100
AcDbLine
 10
12517.23545487598
 20
-6898.227836583794
 30
0.0
 11
12517.77519202638
 21
-6898.468207519279
 31
0.0
  0
LWPOLYLINE
  5
369D19
330
18
100
AcDbEntity
  8
姿図
100
AcDbPolyline
 90
        9
 70
   128
 43
0.0
 10
12516.58194630978
 20
-6898.319491579918
 10
12516.53640441094
 20
-6898.284644105739
 10
12516.54754081163
 20
-6898.248125345336
 10
12516.61366186495
 20
-6898.215494302792
 10
12516.72469848539
 20
-6898.191719345708
 10
12516.86374943529
 20
-6898.180420221587
 10
12517.00964120263
 20
-6898.183315582311
 10
12517.1401667718
 20
-6898.199966021592
 10
12517.23545487598
 20
-6898.227836583794
  0
LINE
  5
369D1A
330
18
100
AcDbEntity
  8
姿図
100
AcDbLine
 10
12517.12168216323
 20
-6898.55986152351
 30
0.0
 11
12516.58194630978
 21
-6898.319491579918
 31
0.0
  0
LINE
  5
369D1B
330
18
100
AcDbEntity
  8
姿図
100
AcDbLine
 10
12517.77519202638
 20
-6898.468207519279
 30
0.0
 11
12517.12168216323
 21
-6898.55986152351
 31
0.0
  0
LINE
  5
369D1C
330
18
100
AcDbEntity
  8
姿図
100
AcDbLine
 10
12518.35872470823
 20
-6896.459685949142
 30
0.0
 11
12518.94971834651
 21
-6896.722883200776
 31
0.0
  0
LWPOLYLINE
  5
369D1D
330
18
100
AcDbEntity
  8
姿図
100
AcDbPolyline
 90
       12
 70
   128
 43
0.0
 10
12535.33403236737
 20
-6896.358201414703
 10
12535.4790125898
 20
-6896.325947344483
 10
12535.67562250619
 20
-6896.307643747073
 10
12535.78621472944
 20
-6896.305922571797
 10
12535.89867091942
 20
-6896.309919413805
 10
12536.00734847305
 20
-6896.319878896896
 10
12536.10627481777
 20
-6896.335415879026
 10
12536.18981063392
 20
-6896.355852895858
 10
12536.25400584379
 20
-6896.379976969708
 10
12536.2959533474
 20
-6896.406422398548
 10
12536.31528250546
 20
-6896.433758427216
 10
12536.31089135875
 20
-6896.44300895647
  0
LINE
  5
369D1E
330
18
100
AcDbEntity
  8
姿図
100
AcDbLine
 10
12535.33403236737
 20
-6896.358201414703
 30
0.0
 11
12534.03781292649
 21
-6896.770908011728
 31
0.0
  0
LINE
  5
369D1F
330
18
100
AcDbEntity
  8
姿図
100
AcDbLine
 10
12533.33629403516
 20
-6896.994266845459
 30
0.0
 11
12534.03781292649
 21
-6896.770908011728
 31
0.0
  0
LINE
  5
369D20
330
18
100
AcDbEntity
  8
姿図
100
AcDbLine
 10
12534.03781292649
 20
-6896.770908011728
 30
0.0
 11
12534.7138770265
 21
-6898.804432344085
 31
0.0
  0
LINE
  5
369D21
330
18
100
AcDbEntity
  8
姿図
100
AcDbLine
 10
12535.98292402041
 20
-6898.704591198927
 30
0.0
 11
12535.30395252351
 21
-6898.92077107387
 31
0.0
  0
LWPOLYLINE
  5
369D22
330
18
100
AcDbEntity
  8
姿図
100
AcDbPolyline
 90
        9
 70
   128
 43
0.0
 10
12535.39284852339
 20
-6898.588252469142
 10
12535.50388547477
 20
-6898.564477430284
 10
12535.64293446584
 20
-6898.553177477818
 10
12535.78882852296
 20
-6898.556073585112
 10
12535.91935376118
 20
-6898.572724106168
 10
12536.01464153442
 20
-6898.600594750144
 10
12536.06018376419
 20
-6898.63544214255
 10
12536.04904408089
 20
-6898.671960401705
 10
12535.98292402041
 20
-6898.704591198927
  0
LINE
  5
369D23
330
18
100
AcDbEntity
  8
姿図
100
AcDbLine
 10
12534.7138770265
 20
-6898.804432344085
 30
0.0
 11
12535.39284852339
 21
-6898.588252469142
 31
0.0
  0
LINE
  5
369D24
330
18
100
AcDbEntity
  8
姿図
100
AcDbLine
 10
12535.30395252351
 20
-6898.92077107387
 30
0.0
 11
12534.7138770265
 21
-6898.804432344085
 31
0.0
  0
LWPOLYLINE
  5
369D25
330
18
100
AcDbEntity
  8
姿図
100
AcDbPolyline
 90
       11
 70
   128
 43
0.0
 10
12511.24594682967
 20
-6897.154483757903
 10
12511.24355502654
 20
-6897.145285862858
 10
12511.25918497314
 20
-6897.117142515049
 10
12511.298647152
 20
-6897.089962206748
 10
12511.36041226513
 20
-6897.065239636235
 10
12511.44179630289
 20
-6897.044384738134
 10
12511.53795852337
 20
-6897.028383651323
 10
12511.64346161632
 20
-6897.017959154194
 10
12511.75259009935
 20
-6897.013199334653
 10
12511.96108818242
 20
-6897.019555868578
 10
12512.13266617337
 20
-6897.042473579523
  0
LINE
  5
369D26
330
18
100
AcDbEntity
  8
姿図
100
AcDbLine
 10
12512.13266617337
 20
-6897.042473579523
 30
0.0
 11
12513.78487939685
 21
-6897.368222620179
 31
0.0
  0
LINE
  5
369D27
330
18
100
AcDbEntity
  8
姿図
100
AcDbLine
 10
12512.98672666826
 20
-6899.445225853381
 30
0.0
 11
12513.78487939685
 21
-6897.368222620179
 31
0.0
  0
LINE
  5
369D28
330
18
100
AcDbEntity
  8
姿図
100
AcDbLine
 10
12512.1212812154
 20
-6899.274595010074
 30
0.0
 11
12512.98672666826
 21
-6899.445225853381
 31
0.0
  0
LWPOLYLINE
  5
369D29
330
18
100
AcDbEntity
  8
姿図
100
AcDbPolyline
 90
        9
 70
   128
 43
0.0
 10
12511.65834623683
 20
-6899.421990465808
 10
12511.56305813265
 20
-6899.394119903606
 10
12511.51751623382
 20
-6899.359272429426
 10
12511.52865263451
 20
-6899.322753669024
 10
12511.59477630855
 20
-6899.290123291274
 10
12511.70581292899
 20
-6899.26634833419
 10
12511.84486125817
 20
-6899.255048545275
 10
12511.99075564623
 20
-6899.257944570795
 10
12512.1212812154
 20
-6899.274595010074
  0
LINE
  5
369D2A
330
18
100
AcDbEntity
  8
姿図
100
AcDbLine
 10
12512.52379301347
 20
-6899.592620982018
 30
0.0
 11
12511.65834623683
 21
-6899.421990465808
 31
0.0
  0
LINE
  5
369D2B
330
18
100
AcDbEntity
  8
姿図
100
AcDbLine
 10
12538.1258668542
 20
-6898.148224128482
 30
0.0
 11
12537.86670540666
 21
-6898.184570472814
 31
0.0
  0
LWPOLYLINE
  5
369D2C
330
18
100
AcDbEntity
  8
姿図
100
AcDbPolyline
 90
       10
 70
   128
 43
0.0
 10
12539.83561487952
 20
-6897.592364055002
 10
12540.01902152052
 20
-6897.576492178896
 10
12540.22886451402
 20
-6897.578440203389
 10
12540.33379247084
 20
-6897.587448200599
 10
12540.43170738602
 20
-6897.601910929137
 10
12540.51701063686
 20
-6897.621513578984
 10
12540.58477033903
 20
-6897.645329078507
 10
12540.63080430609
 20
-6897.672191303732
 10
12540.65331057078
 20
-6897.700601903918
 10
12540.65265548684
 20
-6897.712084189655
  0
LINE
  5
369D2D
330
18
100
AcDbEntity
  8
姿図
100
AcDbLine
 10
12539.83561487952
 20
-6897.592364055002
 30
0.0
 11
12538.00578842727
 21
-6897.848996291455
 31
0.0
  0
LINE
  5
369D2E
330
18
100
AcDbEntity
  8
姿図
100
AcDbLine
 10
12537.246159874
 20
-6897.95553406898
 30
0.0
 11
12538.00578842727
 21
-6897.848996291455
 31
0.0
  0
LINE
  5
369D2F
330
18
100
AcDbEntity
  8
姿図
100
AcDbLine
 10
12512.98672666826
 20
-6899.445225853381
 30
0.0
 11
12512.52379301347
 21
-6899.592620982018
 31
0.0
  0
SPLINE
  5
369D30
330
18
100
AcDbEntity
  8
姿図
100
AcDbSpline
210
0.0
220
0.0
230
1.0
 70
     8
 71
     3
 72
    12
 73
     8
 74
     0
 42
0.000000001
 43
0.0000000001
 40
0.0
 40
0.0
 40
0.0
 40
0.0
 40
0.1973123081289397
 40
0.3941628293546725
 40
0.6028030465296307
 40
0.8391767792741885
 40
1.0
 40
1.0
 40
1.0
 40
1.0
 10
12526.73321496249
 20
-6885.159665893974
 30
0.0
 10
12526.83514550363
 20
-6885.155820315326
 30
0.0
 10
12527.03876802912
 20
-6885.148138158164
 30
0.0
 10
12527.32984432374
 20
-6885.042690758165
 30
0.0
 10
12527.58418383509
 20
-6884.878475263544
 30
0.0
 10
12527.76069938665
 20
-6884.683989918094
 30
0.0
 10
12527.82092375752
 20
-6884.545684064828
 30
0.0
 10
12527.84530832846
 20
-6884.489684660569
 30
0.0
  0
SPLINE
  5
369D31
330
18
100
AcDbEntity
  8
姿図
100
AcDbSpline
210
0.0
220
0.0
230
1.0
 70
     8
 71
     3
 72
    11
 73
     7
 74
     0
 42
0.000000001
 43
0.0000000001
 40
0.0
 40
0.0
 40
0.0
 40
0.0
 40
0.2737931166680017
 40
0.5483292849652917
 40
0.7992266839895869
 40
1.0
 40
1.0
 40
1.0
 40
1.0
 10
12524.3061126857
 20
-6884.41943323277
 30
0.0
 10
12524.33478862625
 20
-6884.516148120546
 30
0.0
 10
12524.39221833145
 20
-6884.70984037222
 30
0.0
 10
12524.64164294361
 20
-6884.94999828474
 30
0.0
 10
12524.9611063728
 20
-6885.104384591056
 30
0.0
 10
12525.19354560112
 20
-6885.12291712008
 30
0.0
 10
12525.29686776278
 20
-6885.131155062416
 30
0.0
  0
LINE
  5
369D32
330
18
100
AcDbEntity
  8
姿図
100
AcDbLine
 10
12522.73883055411
 20
-6885.206598772423
 30
0.0
 11
12522.77531052987
 21
-6885.199294497183
 31
0.0
  0
LINE
  5
369D33
330
18
100
AcDbEntity
  8
姿図
100
AcDbLine
 10
12513.83230601331
 20
-6897.727618258333
 30
0.0
 11
12513.65983663588
 21
-6897.693614820603
 31
0.0
  0
LINE
  5
369D34
330
18
100
AcDbEntity
  8
姿図
100
AcDbLine
 10
12513.78487939685
 20
-6897.368222620179
 30
0.0
 11
12514.54900308429
 21
-6897.518876785738
 31
0.0
  0
ARC
  5
369D35
330
18
100
AcDbEntity
  8
姿図
100
AcDbCircle
 10
12525.21036153878
 20
-6925.684375793341
 30
0.0
 40
40.5533129963247
100
AcDbArc
 50
87.84792937635962
 51
89.87777952210826
  0
ARC
  5
369D36
330
18
100
AcDbEntity
  8
姿図
100
AcDbCircle
 10
12524.92388433098
 20
-6920.573806559606
 30
0.0
 40
35.43464190124588
100
AcDbArc
 50
93.53534932217113
 51
95.75633845068356
  0
SPLINE
  5
369D37
330
18
100
AcDbEntity
  8
姿図
100
AcDbSpline
210
0.0
220
0.0
230
1.0
 70
     8
 71
     3
 72
    11
 73
     7
 74
     0
 42
0.000000001
 43
0.0000000001
 40
0.0
 40
0.0
 40
0.0
 40
0.0
 40
0.2737927425994916
 40
0.54832963846272
 40
0.799226229304299
 40
1.0
 40
1.0
 40
1.0
 40
1.0
 10
12520.12163975754
 20
-6884.717477332767
 30
0.0
 10
12520.19424951136
 20
-6884.809175304538
 30
0.0
 10
12520.33966636824
 20
-6884.99282047801
 30
0.0
 10
12520.68142479085
 20
-6885.20358980944
 30
0.0
 10
12521.04716392452
 20
-6885.32387846578
 30
0.0
 10
12521.270555361
 20
-6885.319702598671
 30
0.0
 10
12521.36985596796
 20
-6885.317846367541
 30
0.0
  0
LINE
  5
369D38
330
18
100
AcDbEntity
  8
姿図
100
AcDbLine
 10
12538.00578842727
 20
-6897.848996291455
 30
0.0
 11
12538.85237008099
 21
-6899.958646220001
 31
0.0
  0
LINE
  5
369D39
330
18
100
AcDbEntity
  8
姿図
100
AcDbLine
 10
12540.17885393308
 20
-6899.988108876597
 30
0.0
 11
12539.22037167525
 21
-6900.122535027503
 31
0.0
  0
LWPOLYLINE
  5
369D3A
330
18
100
AcDbEntity
  8
姿図
100
AcDbPolyline
 90
        9
 70
   128
 43
0.0
 10
12539.81084971809
 20
-6899.8242194043
 10
12539.94990099895
 20
-6899.812920198404
 10
12540.09579505606
 20
-6899.815816305698
 10
12540.22632029429
 20
-6899.832466826753
 10
12540.3216054468
 20
-6899.860336805935
 10
12540.36714767658
 20
-6899.895184198341
 10
12540.35601094494
 20
-6899.931703040518
 10
12540.28989088446
 20
-6899.964333837738
 10
12540.17885393308
 20
-6899.988108876597
  0
LINE
  5
369D3B
330
18
100
AcDbEntity
  8
姿図
100
AcDbLine
 10
12538.85237008099
 20
-6899.958646220001
 30
0.0
 11
12539.81084971809
 21
-6899.8242194043
 31
0.0
  0
SPLINE
  5
369D3C
330
18
100
AcDbEntity
  8
姿図
100
AcDbSpline
210
0.0
220
0.0
230
1.0
 70
     8
 71
     3
 72
    12
 73
     8
 74
     0
 42
0.000000001
 43
0.0000000001
 40
0.0
 40
0.0
 40
0.0
 40
0.0
 40
0.1973112529434128
 40
0.3941634748193658
 40
0.6028032849505484
 40
0.8391770120574534
 40
1.0
 40
1.0
 40
1.0
 40
1.0
 10
12530.49978146276
 20
-6885.499070824555
 30
0.0
 10
12530.59169065112
 20
-6885.504870676775
 30
0.0
 10
12530.77529520745
 20
-6885.516456888257
 30
0.0
 10
12531.08106101507
 20
-6885.440738748004
 30
0.0
 10
12531.38231218016
 20
-6885.304217335722
 30
0.0
 10
12531.63023034312
 20
-6885.130910475813
 30
0.0
 10
12531.75016778613
 20
-6885.001613549835
 30
0.0
 10
12531.79872986437
 20
-6884.949261863177
 30
0.0
  0
LINE
  5
369D3D
330
18
100
AcDbEntity
  8
姿図
100
AcDbLine
 10
12539.22037167525
 20
-6900.122535027503
 30
0.0
 11
12538.85237008099
 21
-6899.958646220001
 31
0.0
  0
LWPOLYLINE
  5
369D3E
330
18
100
AcDbEntity
  8
姿図
100
AcDbPolyline
 90
        3
 70
   128
 43
0.0
 10
12530.49978146276
 20
-6885.499070824555
 10
12530.3443308229
 20
-6885.476130163138
 10
12530.230037362
 20
-6885.459842969644
  0
LINE
  5
369D3F
330
18
100
AcDbEntity
  8
姿図
100
AcDbLine
 10
12510.95303441401
 20
-6898.646856544875
 30
0.0
 11
12511.43202660058
 21
-6898.680727841242
 31
0.0
  0
LINE
  5
369D40
330
18
100
AcDbEntity
  8
姿図
100
AcDbLine
 10
12508.93054490732
 20
-6898.503839630963
 30
0.0
 11
12510.95303441401
 21
-6898.646856544875
 31
0.0
  0
LWPOLYLINE
  5
369D41
330
18
100
AcDbEntity
  8
姿図
100
AcDbPolyline
 90
        9
 70
   128
 43
0.0
 10
12508.2348379525
 20
-6898.635002168827
 10
12508.23353815887
 20
-6898.627676216952
 10
12508.25274269634
 20
-6898.598889772408
 10
12508.29596603791
 20
-6898.571801120944
 10
12508.36024035735
 20
-6898.547786650006
 10
12508.44166120957
 20
-6898.528035536694
 10
12508.5350842691
 20
-6898.513177166967
 10
12508.73719158046
 20
-6898.499079605307
 10
12508.93054490732
 20
-6898.503839630963
  0
LINE
  5
369D42
330
18
100
AcDbEntity
  8
姿図
100
AcDbLine
 10
12511.22919261229
 20
-6898.952344349904
 30
0.0
 11
12510.83840128996
 21
-6898.924709882064
 31
0.0
  0
LWPOLYLINE
  5
369D43
330
18
100
AcDbEntity
  8
姿図
100
AcDbPolyline
 90
        8
 70
   128
 43
0.0
 10
12542.11320565032
 20
-6899.162499213963
 10
12542.30711916123
 20
-6899.165426564753
 10
12542.49824812987
 20
-6899.18732969692
 10
12542.5815369823
 20
-6899.205695151666
 10
12542.65000243002
 20
-6899.228421550934
 10
12542.69894726436
 20
-6899.254683944164
 10
12542.7252249332
 20
-6899.28315217395
 10
12542.7260390715
 20
-6899.298779381346
  0
LINE
  5
369D44
330
18
100
AcDbEntity
  8
姿図
100
AcDbLine
 10
12542.11320565032
 20
-6899.162499213963
 30
0.0
 11
12540.46040425471
 21
-6899.211244927771
 31
0.0
  0
LINE
  5
369D45
330
18
100
AcDbEntity
  8
姿図
100
AcDbLine
 10
12538.12949952389
 20
-6898.314600911747
 30
0.0
 11
12538.1918949427
 21
-6898.312761079177
 31
0.0
  0
LINE
  5
369D46
330
18
100
AcDbEntity
  8
姿図
100
AcDbLine
 10
12510.06151188565
 20
-6900.807767940635
 30
0.0
 11
12510.95303441401
 21
-6898.646856544875
 31
0.0
  0
LINE
  5
369D47
330
18
100
AcDbEntity
  8
姿図
100
AcDbLine
 10
12509.00211249928
 20
-6900.732854098979
 30
0.0
 11
12510.06151188565
 21
-6900.807767940635
 31
0.0
  0
LWPOLYLINE
  5
369D48
330
18
100
AcDbEntity
  8
姿図
100
AcDbPolyline
 90
        9
 70
   128
 43
0.0
 10
12508.80022733527
 20
-6900.913550760371
 10
12508.6697017661
 20
-6900.896900321092
 10
12508.57441366192
 20
-6900.869029758888
 10
12508.52887570759
 20
-6900.834182622405
 10
12508.54001343206
 20
-6900.797663534906
 10
12508.6061331616
 20
-6900.76503281946
 10
12508.71716845825
 20
-6900.741258189474
 10
12508.85621811121
 20
-6900.729958073459
 10
12509.00211249928
 20
-6900.732854098979
  0
LINE
  5
369D49
330
18
100
AcDbEntity
  8
姿図
100
AcDbLine
 10
12509.85962672164
 20
-6900.988464602028
 30
0.0
 11
12508.80022733527
 21
-6900.913550760371
 31
0.0
  0
LINE
  5
369D4A
330
18
100
AcDbEntity
  8
姿図
100
AcDbLine
 10
12510.06151188565
 20
-6900.807767940635
 30
0.0
 11
12509.85962672164
 21
-6900.988464602028
 31
0.0
  0
LINE
  5
369D4B
330
18
100
AcDbEntity
  8
姿図
100
AcDbLine
 10
12540.3213907702
 20
-6899.948790107443
 30
0.0
 11
12540.91630513105
 21
-6901.420220978874
 31
0.0
  0
LINE
  5
369D4C
330
18
100
AcDbEntity
  8
姿図
100
AcDbLine
 10
12542.09827566398
 20
-6901.574501210766
 30
0.0
 11
12541.00620612244
 21
-6901.606709026508
 31
0.0
  0
LWPOLYLINE
  5
369D4D
330
18
100
AcDbEntity
  8
姿図
100
AcDbPolyline
 90
        9
 70
   128
 43
0.0
 10
12542.00837205187
 20
-6901.388012498333
 10
12542.15426577804
 20
-6901.390908687401
 10
12542.28479134721
 20
-6901.407559126681
 10
12542.3800787895
 20
-6901.435429852433
 10
12542.42562135022
 20
-6901.470277163065
 10
12542.41448166692
 20
-6901.50679542222
 10
12542.34836193738
 20
-6901.539426137667
 10
12542.23732465506
 20
-6901.5632012583
 10
12542.09827566398
 20
-6901.574501210766
  0
LINE
  5
369D4E
330
18
100
AcDbEntity
  8
姿図
100
AcDbLine
 10
12540.91630513105
 20
-6901.420220978874
 30
0.0
 11
12542.00837205187
 21
-6901.388012498333
 31
0.0
  0
LINE
  5
369D4F
330
18
100
AcDbEntity
  8
姿図
100
AcDbLine
 10
12510.35385577699
 20
-6900.099170035653
 30
0.0
 11
12510.55072610077
 21
-6900.093364004608
 31
0.0
  0
LINE
  5
369D50
330
18
100
AcDbEntity
  8
姿図
100
AcDbLine
 10
12508.20945052985
 20
-6900.162414830318
 30
0.0
 11
12508.43654331289
 21
-6900.155717258741
 31
0.0
  0
LWPOLYLINE
  5
369D51
330
18
100
AcDbEntity
  8
姿図
100
AcDbPolyline
 90
        7
 70
   128
 43
0.0
 10
12507.72837769281
 20
-6900.297754985121
 10
12507.72776698394
 20
-6900.286080210067
 10
12507.75037445829
 20
-6900.257707537793
 10
12507.79531569859
 20
-6900.2316366883
 10
12507.85881241251
 20
-6900.208941676105
 10
12508.02375935929
 20
-6900.176537508184
 10
12508.20945052985
 20
-6900.162414830318
  0
LINE
  5
369D52
330
18
100
AcDbEntity
  8
姿図
100
AcDbLine
 10
12510.54550072882
 20
-6900.370922720971
 30
0.0
 11
12510.42616340834
 21
-6900.374442542688
 31
0.0
  0
LINE
  5
369D53
330
18
100
AcDbEntity
  8
姿図
100
AcDbLine
 10
12541.00620612244
 20
-6901.606709026508
 30
0.0
 11
12540.91630513105
 21
-6901.420220978874
 31
0.0
  0
LINE
  5
369D54
330
18
100
AcDbEntity
  8
姿図
100
AcDbLine
 10
12510.42616340834
 20
-6900.374442542688
 30
0.0
 11
12510.32600552885
 21
-6900.16667613184
 31
0.0
  0
LINE
  5
369D55
330
18
100
AcDbEntity
  8
姿図
100
AcDbLine
 10
12540.64387074244
 20
-6900.746396043898
 30
0.0
 11
12539.91328229665
 21
-6900.694734414246
 31
0.0
  0
LINE
  5
369D56
330
18
100
AcDbEntity
  8
姿図
100
AcDbLine
 10
12510.42616340834
 20
-6900.374442542688
 30
0.0
 11
12509.87586316093
 21
-6901.708211433623
 31
0.0
  0
LINE
  5
369D57
330
18
100
AcDbEntity
  8
姿図
100
AcDbLine
 10
12509.63245011259
 20
-6901.852123741672
 30
0.0
 11
12510.00960027095
 21
-6900.854234058934
 31
0.0
  0
LINE
  5
369D58
330
18
100
AcDbEntity
  8
姿図
100
AcDbLine
 10
12508.35281483622
 20
-6902.380607550068
 30
0.0
 11
12508.98011923405
 21
-6902.362107144042
 31
0.0
  0
LWPOLYLINE
  5
369D59
330
18
100
AcDbEntity
  8
姿図
100
AcDbPolyline
 90
        9
 70
   128
 43
0.0
 10
12508.44271844834
 20
-6902.567096262501
 10
12508.29682406028
 20
-6902.564200236982
 10
12508.16629849111
 20
-6902.547549797701
 10
12508.07101038693
 20
-6902.519679235499
 10
12508.02546981188
 20
-6902.484831434219
 10
12508.03660750951
 20
-6902.448313665712
 10
12508.10272723905
 20
-6902.415682950264
 10
12508.21376518326
 20
-6902.391907666083
 10
12508.35281483622
 20
-6902.380607550068
  0
LINE
  5
369D5A
330
18
100
AcDbEntity
  8
姿図
100
AcDbLine
 10
12508.78641518782
 20
-6902.556959766913
 30
0.0
 11
12508.44271844834
 21
-6902.567096262501
 31
0.0
  0
LINE
  5
369D5B
330
18
100
AcDbEntity
  8
姿図
100
AcDbLine
 10
12539.91916138129
 20
-6901.035750073671
 30
0.0
 11
12540.07115526724
 21
-6901.472281899221
 31
0.0
  0
LWPOLYLINE
  5
369D5C
330
18
100
AcDbEntity
  8
姿図
100
AcDbPolyline
 90
       23
 70
   128
 43
0.0
 10
12516.50766964064
 20
-6936.651420831799
 10
12517.06911750298
 20
-6937.222157632826
 10
12517.67415232217
 20
-6937.779318785077
 10
12518.31537319451
 20
-6938.315487276614
 10
12518.98919577058
 20
-6938.827675512415
 10
12519.69185243719
 20
-6939.313025123015
 10
12520.41941052838
 20
-6939.768818213022
 10
12521.16780405792
 20
-6940.192485256346
 10
12521.93284665892
 20
-6940.581685828952
 10
12522.71025811612
 20
-6940.934229934088
 10
12523.49569447231
 20
-6941.248142694198
 10
12524.28476128159
 20
-6941.521674187523
 10
12525.07304517683
 20
-6941.753287723115
 10
12525.8561402575
 20
-6941.941699216567
 10
12526.62966391727
 20
-6942.085848368678
 10
12527.38929110541
 20
-6942.184925609004
 10
12528.13077541543
 20
-6942.238385245829
 10
12528.84996897998
 20
-6942.245924814149
 10
12529.54285142165
 20
-6942.20750022003
 10
12530.2055431331
 20
-6942.123334258219
 10
12530.83434485213
 20
-6941.993885860028
 10
12531.42573252041
 20
-6941.81988544848
 10
12531.82967510422
 20
-6941.666216688997
  0
ELLIPSE
  5
369D5D
330
18
100
AcDbEntity
  8
姿図
100
AcDbEllipse
 10
12519.64728473385
 20
-6946.164836296758
 30
0.0
 11
-10.6392381595248
 21
437.4174727004689
 31
0.0
210
0.0
220
0.0
230
1.0
 40
0.0221395500275197
 41
1.556260385970414
 42
1.556778378371006
  0
ARC
  5
369D5E
330
18
100
AcDbEntity
  8
姿図
100
AcDbCircle
 10
12539.75591105253
 20
-6939.385786321295
 30
0.0
 40
1.255965657666301
100
AcDbArc
 50
350.8865830480606
 51
45.77503500399145
  0
ARC
  5
369D5F
330
18
100
AcDbEntity
  8
姿図
100
AcDbCircle
 10
12539.80326204715
 20
-6939.371300345735
 30
0.0
 40
1.212573723980423
100
AcDbArc
 50
351.1718953624844
 51
46.93865256900978
  0
LINE
  5
369D60
330
18
100
AcDbEntity
  8
姿図
100
AcDbLine
 10
12509.81687439129
 20
-6940.26837019101
 30
0.0
 11
12509.81487548323
 21
-6940.268864108464
 31
0.0
  0
LINE
  5
369D61
330
18
100
AcDbEntity
  8
姿図
100
AcDbLine
 10
12538.5979671919
 20
-6943.103243333614
 30
0.0
 11
12538.61277147705
 21
-6943.095959230197
 31
0.0
  0
LINE
  5
369D62
330
18
100
AcDbEntity
  8
姿図
100
AcDbLine
 10
12534.68075743908
 20
-6941.385386530605
 30
0.0
 11
12534.25416236821
 21
-6941.254944309687
 31
0.0
  0
LINE
  5
369D63
330
18
100
AcDbEntity
  8
姿図
100
AcDbLine
 10
12534.25416236821
 20
-6941.254944309687
 30
0.0
 11
12533.3111333886
 21
-6941.009907036375
 31
0.0
  0
LINE
  5
369D64
330
18
100
AcDbEntity
  8
姿図
100
AcDbLine
 10
12529.09555058834
 20
-6937.333672390749
 30
0.0
 11
12528.76319153714
 21
-6936.918812351106
 31
0.0
  0
ELLIPSE
  5
369D65
330
18
100
AcDbEntity
  8
姿図
100
AcDbEllipse
 10
12529.34393421626
 20
-6936.17621054984
 30
0.0
 11
-0.3266976615443128
 21
1.206724624741399
 31
0.0
210
0.0
220
0.0
230
1.0
 40
0.6766753335300678
 41
1.36216632791669
 42
2.039765472595368
  0
LINE
  5
369D66
330
18
100
AcDbEntity
  8
姿図
100
AcDbLine
 10
12530.03219485005
 20
-6938.474019686371
 30
0.0
 11
12529.09555058834
 21
-6937.333672390749
 31
0.0
  0
ELLIPSE
  5
369D67
330
18
100
AcDbEntity
  8
姿図
100
AcDbEllipse
 10
12533.02430997014
 20
-6933.357708765256
 30
0.0
 11
-1.960185969265794
 21
7.240347748448338
 31
0.0
210
0.0
220
0.0
230
1.0
 40
0.6766753335300715
 41
2.158128962559391
 42
2.473824844109747
  0
LINE
  5
369D68
330
18
100
AcDbEntity
  8
姿図
100
AcDbLine
 10
12533.3111333886
 20
-6941.009907036375
 30
0.0
 11
12532.96472741328
 21
-6940.840285751761
 31
0.0
  0
LINE
  5
369D69
330
18
100
AcDbEntity
  8
姿図
100
AcDbLine
 10
12531.52960142629
 20
-6939.864227041107
 30
0.0
 11
12532.96472741328
 21
-6940.840285751761
 31
0.0
  0
LINE
  5
369D6A
330
18
100
AcDbEntity
  8
姿図
100
AcDbLine
 10
12520.58697203925
 20
-6946.232081898422
 30
0.0
 11
12520.64875862794
 21
-6946.232044717042
 31
0.0
  0
SPLINE
  5
369D6B
330
18
100
AcDbEntity
  8
姿図
100
AcDbSpline
210
0.0
220
0.0
230
1.0
 70
     8
 71
     3
 72
    14
 73
    10
 74
     0
 42
0.000000001
 43
0.0000000001
 40
0.0
 40
0.0
 40
0.0
 40
0.0
 40
0.0400139149656054
 40
0.1521489026687922
 40
0.2644665097625359
 40
0.4377898816948484
 40
0.6115160430663642
 40
0.8056814097405501
 40
0.9999999999999998
 40
0.9999999999999998
 40
0.9999999999999998
 40
0.9999999999999998
 10
12516.67964718137
 20
-6945.833346256968
 30
0.0
 10
12516.74229356979
 20
-6945.841551600526
 30
0.0
 10
12516.98050018522
 20
-6945.872751597308
 30
0.0
 10
12517.42919254352
 20
-6945.913844930804
 30
0.0
 10
12518.13347653265
 20
-6945.954208885495
 30
0.0
 10
12518.96891359838
 20
-6945.972120694313
 30
0.0
 10
12519.94553246391
 20
-6945.958874461213
 30
0.0
 10
12520.94290174228
 20
-6945.914665770759
 30
0.0
 10
12521.60801310607
 20
-6945.859151923293
 30
0.0
 10
12521.94069995264
 20
-6945.831384051837
 30
0.0
  0
SPLINE
  5
369D6C
330
18
100
AcDbEntity
  8
姿図
100
AcDbSpline
210
0.0
220
0.0
230
1.0
 70
     8
 71
     3
 72
    14
 73
    10
 74
     0
 42
0.000000001
 43
0.0000000001
 40
0.0
 40
0.0
 40
0.0
 40
0.0
 40
0.1537983117927866
 40
0.3075456879079728
 40
0.4664955670148471
 40
0.6252563501982765
 40
0.737545489886624
 40
0.8517797335195677
 40
1.0
 40
1.0
 40
1.0
 40
1.0
 10
12534.52149103096
 20
-6942.722750681949
 30
0.0
 10
12534.61610870341
 20
-6942.656818853568
 30
0.0
 10
12534.80531271236
 20
-6942.524977032434
 30
0.0
 10
12535.01936331911
 20
-6942.314198076546
 30
0.0
 10
12535.16423392175
 20
-6942.094821892651
 30
0.0
 10
12535.20520534922
 20
-6941.891626874272
 30
0.0
 10
12535.14877381354
 20
-6941.71308242491
 30
0.0
 10
12535.01329185335
 20
-6941.544753839501
 30
0.0
 10
12534.80077537616
 20
-6941.442905195834
 30
0.0
 10
12534.68075743908
 20
-6941.385386530605
 30
0.0
  0
SPLINE
  5
369D6D
330
18
100
AcDbEntity
  8
姿図
100
AcDbSpline
210
0.0
220
0.0
230
1.0
 70
     8
 71
     3
 72
    18
 73
    14
 74
     0
 42
0.000000001
 43
0.0000000001
 40
0.0
 40
0.0
 40
0.0
 40
0.0
 40
0.07863485840083
 40
0.1748895251717502
 40
0.2714582643313174
 40
0.3681495968408621
 40
0.4645723028755727
 40
0.5697065752789411
 40
0.6751569737263474
 40
0.7804908474694884
 40
0.8854655489383839
 40
0.9427392228335206
 40
1.0
 40
1.0
 40
1.0
 40
1.0
 10
12534.52149103096
 20
-6942.722750681949
 30
0.0
 10
12534.33799730768
 20
-6942.832551097186
 30
0.0
 10
12533.92989419934
 20
-6943.076755040259
 30
0.0
 10
12533.11998892055
 20
-6943.434810814233
 30
0.0
 10
12532.14334710368
 20
-6943.798311293068
 30
0.0
 10
12531.05481513064
 20
-6944.141784204486
 30
0.0
 10
12529.84264484152
 20
-6944.475694365903
 30
0.0
 10
12528.50996786015
 20
-6944.798944680529
 30
0.0
 10
12527.04671558556
 20
-6945.1061595227
 30
0.0
 10
12525.4921494205
 20
-6945.383704827161
 30
0.0
 10
12524.09666413291
 20
-6945.58888091852
 30
0.0
 10
12522.90742741089
 20
-6945.736451806272
 30
0.0
 10
12522.26291824787
 20
-6945.799742345514
 30
0.0
 10
12521.94069995264
 20
-6945.831384051837
 30
0.0
  0
LINE
  5
369D6E
330
18
100
AcDbEntity
  8
姿図
100
AcDbLine
 10
12516.1316555118
 20
-6945.73290036262
 30
0.0
 11
12516.67964718137
 21
-6945.833346256968
 31
0.0
  0
LINE
  5
369D6F
330
18
100
AcDbEntity
  8
姿図
100
AcDbLine
 10
12516.2393004083
 20
-6937.792372088186
 30
0.0
 11
12516.24109929412
 21
-6937.79454168942
 31
0.0
  0
SPLINE
  5
369D70
330
18
100
AcDbEntity
  8
姿図
100
AcDbSpline
210
0.0
220
0.0
230
1.0
 70
     8
 71
     3
 72
    11
 73
     7
 74
     0
 42
0.000000001
 43
0.0000000001
 40
0.0
 40
0.0
 40
0.0
 40
0.0
 40
0.1504078997629071
 40
0.4516067830166801
 40
0.7583501393412585
 40
1.0
 40
1.0
 40
1.0
 40
1.0
 10
12517.68566750141
 20
-6939.048248786581
 30
0.0
 10
12517.60339025439
 20
-6938.991954954531
 30
0.0
 10
12517.35634895604
 20
-6938.822930079934
 30
0.0
 10
12516.97331283579
 20
-6938.503244629711
 30
0.0
 10
12516.562273452
 20
-6938.14748650916
 30
0.0
 10
12516.33933658358
 20
-6937.902496646465
 30
0.0
 10
12516.24109929412
 20
-6937.79454168942
 30
0.0
  0
SPLINE
  5
369D71
330
18
100
AcDbEntity
  8
姿図
100
AcDbSpline
210
0.0
220
0.0
230
1.0
 70
     8
 71
     3
 72
     9
 73
     5
 74
     0
 42
0.000000001
 43
0.0000000001
 40
0.0
 40
0.0
 40
0.0
 40
0.0
 40
0.584488941378365
 40
0.9999999999999998
 40
0.9999999999999998
 40
0.9999999999999998
 40
0.9999999999999998
 10
12517.68566750141
 20
-6939.048248786581
 30
0.0
 10
12517.98532397588
 20
-6939.22967278333
 30
0.0
 10
12518.49800514615
 20
-6939.540070438281
 30
0.0
 10
12519.04139978855
 20
-6939.777742757769
 30
0.0
 10
12519.26718627166
 20
-6939.876498234845
 30
0.0
  0
SPLINE
  5
369D72
330
18
100
AcDbEntity
  8
姿図
100
AcDbSpline
210
0.0
220
0.0
230
1.0
 70
     8
 71
     3
 72
    21
 73
    17
 74
     0
 42
0.000000001
 43
0.0000000001
 40
0.0
 40
0.0
 40
0.0
 40
0.0
 40
0.0240351226004523
 40
0.1012729369817249
 40
0.1787755290030131
 40
0.2560768724185655
 40
0.3357829226189483
 40
0.4157104060948833
 40
0.4954232916054654
 40
0.5591132600132888
 40
0.6228035444410215
 40
0.7088167679023907
 40
0.7950980461578777
 40
0.8811102852620106
 40
0.9454526500841296
 40
1.0
 40
1.0
 40
1.0
 40
1.0
 10
12519.26718627166
 20
-6939.876498234845
 30
0.0
 10
12519.38536799511
 20
-6939.959495347093
 30
0.0
 10
12519.88333134777
 20
-6940.309206952814
 30
0.0
 10
12520.76767836272
 20
-6940.882610104508
 30
0.0
 10
12521.92110993036
 20
-6941.533026577886
 30
0.0
 10
12523.09185129514
 20
-6942.080095669577
 30
0.0
 10
12524.27772630305
 20
-6942.50533459861
 30
0.0
 10
12525.46564907971
 20
-6942.803499384931
 30
0.0
 10
12526.55657718927
 20
-6942.954638433781
 30
0.0
 10
12527.54475399322
 20
-6942.98430280775
 30
0.0
 10
12528.53558968854
 20
-6942.916287426448
 30
0.0
 10
12529.58701863801
 20
-6942.70911520333
 30
0.0
 10
12530.66933189365
 20
-6942.324766184272
 30
0.0
 10
12531.58290846575
 20
-6941.828813466973
 30
0.0
 10
12532.31272361807
 20
-6941.303289905147
 30
0.0
 10
12532.68869624175
 20
-6940.937641416515
 30
0.0
 10
12532.86119484945
 20
-6940.769879586994
 30
0.0
  0
SPLINE
  5
369D73
330
18
100
AcDbEntity
  8
姿図
100
AcDbSpline
210
0.0
220
0.0
230
1.0
 70
     8
 71
     3
 72
    13
 73
     9
 74
     0
 42
0.000000001
 43
0.0000000001
 40
0.0
 40
0.0
 40
0.0
 40
0.0
 40
0.1899510996019842
 40
0.4071483417215643
 40
0.6257341330913401
 40
0.7688655201091102
 40
0.9119817820117697
 40
1.0
 40
1.0
 40
1.0
 40
1.0
 10
12519.26718627166
 20
-6939.876498234845
 30
0.0
 10
12519.65202227469
 20
-6940.102986966497
 30
0.0
 10
12520.4768942591
 20
-6940.588451445004
 30
0.0
 10
12521.7804670624
 20
-6941.270157664947
 30
0.0
 10
12523.00803727819
 20
-6941.843211647875
 30
0.0
 10
12524.09059587894
 20
-6942.286276700231
 30
0.0
 10
12524.89774287079
 20
-6942.586693162045
 30
0.0
 10
12525.39627729861
 20
-6942.739652619478
 30
0.0
 10
12525.58612397127
 20
-6942.797901042102
 30
0.0
  0
LINE
  5
369D74
330
18
100
AcDbEntity
  8
姿図
100
AcDbLine
 10
12515.18877611936
 20
-6945.487826127274
 30
0.0
 11
12516.1316555118
 21
-6945.73290036262
 31
0.0
  0
LINE
  5
369D75
330
18
100
AcDbEntity
  8
姿図
100
AcDbLine
 10
12515.43920828917
 20
-6936.823552408664
 30
0.0
 11
12516.2393004083
 21
-6937.792372088186
 31
0.0
  0
LINE
  5
369D76
330
18
100
AcDbEntity
  8
姿図
100
AcDbLine
 10
12514.84447760206
 20
-6945.317684103199
 30
0.0
 11
12515.18877611936
 21
-6945.487826127274
 31
0.0
  0
LINE
  5
369D77
330
18
100
AcDbEntity
  8
姿図
100
AcDbLine
 10
12514.84447760206
 20
-6945.317684103199
 30
0.0
 11
12513.42513504605
 21
-6944.337725407248
 31
0.0
  0
ELLIPSE
  5
369D78
330
18
100
AcDbEntity
  8
姿図
100
AcDbEllipse
 10
12515.0974047295
 20
-6937.787332904386
 30
0.0
 11
-1.633962449735912
 21
7.320892518944122
 31
0.0
210
0.0
220
0.0
230
1.0
 40
0.6854092918531897
 41
2.188644803816597
 42
2.504340685366944
  0
LINE
  5
369D79
330
18
100
AcDbEntity
  8
姿図
100
AcDbLine
 10
12511.95378178736
 20
-6942.941080443633
 30
0.0
 11
12511.04041818562
 21
-6941.794980645167
 31
0.0
  0
LINE
  5
369D7A
330
18
100
AcDbEntity
  8
姿図
100
AcDbLine
 10
12510.71658096928
 20
-6941.378014914393
 30
0.0
 11
12511.04041818562
 21
-6941.794980645167
 31
0.0
  0
ELLIPSE
  5
369D7B
330
18
100
AcDbEntity
  8
姿図
100
AcDbEllipse
 10
12511.32027320579
 20
-6940.629742423624
 30
0.0
 11
-0.2723270749559945
 21
1.220148753157363
 31
0.0
210
0.0
220
0.0
230
1.0
 40
0.6854092918531779
 41
1.272185429454528
 42
2.07028131385257
  0
LINE
  5
369D7C
330
18
100
AcDbEntity
  8
姿図
100
AcDbLine
 10
12510.42712706972
 20
-6939.271187811242
 30
0.0
 11
12510.44086544999
 21
-6940.449184068383
 31
0.0
  0
LINE
  5
369D7D
330
18
100
AcDbEntity
  8
姿図
100
AcDbLine
 10
12509.81687439129
 20
-6940.26837019101
 30
0.0
 11
12509.92099579635
 21
-6940.577640549635
 31
0.0
  0
SPLINE
  5
369D7E
330
18
100
AcDbEntity
  8
姿図
100
AcDbSpline
210
0.0
220
0.0
230
1.0
 70
     8
 71
     3
 72
    10
 73
     6
 74
     0
 42
0.000000001
 43
0.0000000001
 40
0.0
 40
0.0
 40
0.0
 40
0.0
 40
0.2560565914394052
 40
0.522121526436133
 40
1.0
 40
1.0
 40
1.0
 40
1.0
 10
12509.92099579635
 20
-6940.577640549635
 30
0.0
 10
12509.96516430933
 20
-6940.657056102248
 30
0.0
 10
12510.05522772574
 20
-6940.818991279623
 30
0.0
 10
12510.30846954525
 20
-6941.105502008245
 30
0.0
 10
12510.55696059645
 20
-6941.271429778277
 30
0.0
 10
12510.71658096928
 20
-6941.378014914393
 30
0.0
  0
LWPOLYLINE
  5
369D7F
330
18
100
AcDbEntity
  8
姿図
100
AcDbPolyline
 90
       42
 70
   128
 43
0.0
 10
12538.32604251065
 20
-6920.298445692918
 10
12537.57494774829
 20
-6920.108740793715
 10
12536.78041850569
 20
-6919.930476952497
 10
12535.94523932652
 20
-6919.764278486413
 10
12535.07235062953
 20
-6919.610731196859
 10
12534.16481530106
 20
-6919.470373563591
 10
12533.22581899912
 20
-6919.34369798195
 10
12532.25866521607
 20
-6919.231150670473
 10
12531.26674609284
 20
-6919.133125758915
 10
12530.25354959237
 20
-6919.049968765183
 10
12529.22263392746
 20
-6918.981971102809
 10
12528.17761732824
 20
-6918.929371296973
 10
12527.1221708151
 20
-6918.892354145559
 10
12526.06000733115
 20
-6918.871050779728
 10
12524.99485021299
 20
-6918.865534643344
 10
12523.93044626756
 20
-6918.875826135942
 10
12522.87053291908
 20
-6918.901888919255
 10
12521.81883095514
 20
-6918.94363039726
 10
12520.77903589527
 20
-6919.000905161294
 10
12519.75480290167
 20
-6919.073512156741
 10
12518.74972372033
 20
-6919.161195131261
 10
12517.76733448964
 20
-6919.263647267165
 10
12516.81108288728
 20
-6919.38050748794
 10
12515.88432799615
 20
-6919.511367053205
 10
12514.9903246068
 20
-6919.65576425094
 10
12514.13221643749
 20
-6919.813193946923
 10
12513.31301254775
 20
-6919.983101601575
 10
12512.53559244556
 20
-6920.164891194495
 10
12511.80268898561
 20
-6920.357924200776
 10
12511.11687383454
 20
-6920.561521870083
 10
12510.48055606663
 20
-6920.774969510725
 10
12509.89597292421
 20
-6920.997517460347
 10
12509.36517657982
 20
-6921.228384356905
 10
12508.89002884114
 20
-6921.466758447063
 10
12508.47220236736
 20
-6921.711802535047
 10
12508.11316348696
 20
-6921.962656915934
 10
12507.81417746592
 20
-6922.21843938625
 10
12507.57628465289
 20
-6922.478252450718
 10
12507.40033079192
 20
-6922.741182393957
 10
12507.28692474206
 20
-6923.006305790654
 10
12507.23647530163
 20
-6923.272692217725
 10
12507.23403327383
 20
-6923.382107344491
  0
LWPOLYLINE
  5
369D80
330
18
100
AcDbEntity
  8
姿図
100
AcDbPolyline
 90
       14
 70
   128
 43
0.0
 10
12543.18338237388
 20
-6923.410366490883
 10
12543.16831531285
 20
-6923.192116869691
 10
12543.09255335958
 20
-6922.926013017529
 10
12542.95397524042
 20
-6922.661454004376
 10
12542.75306848124
 20
-6922.399369253816
 10
12542.49053450572
 20
-6922.140678644526
 10
12542.16729820592
 20
-6921.886291457823
 10
12541.78449652017
 20
-6921.637101325817
 10
12541.34346797705
 20
-6921.393982253239
 10
12540.84576847338
 20
-6921.157789968237
 10
12540.29314051425
 20
-6920.929352462279
 10
12539.6875305921
 20
-6920.70947357007
 10
12539.03106333723
 20
-6920.498924920818
 10
12538.32604251065
 20
-6920.298445692918
  0
LWPOLYLINE
  5
369D81
330
18
100
AcDbEntity
  8
姿図
100
AcDbPolyline
 90
       43
 70
   128
 43
0.0
 10
12538.30700310032
 20
-6921.230391512739
 10
12537.55695894492
 20
-6921.040951959305
 10
12536.76353499572
 20
-6920.862936014109
 10
12535.9295233276
 20
-6920.696970070455
 10
12535.05785387643
 20
-6920.543637270561
 10
12534.15158329427
 20
-6920.403475009912
 10
12533.21389919795
 20
-6920.276976512197
 10
12532.24809556293
 20
-6920.164586410433
 10
12531.25756091657
 20
-6920.066698414913
 10
12530.24577993921
 20
-6919.983657542286
 10
12529.21629967202
 20
-6919.915754029448
 10
12528.17274292469
 20
-6919.863227894715
 10
12527.11877315953
 20
-6919.826263178807
 10
12526.05808952731
 20
-6919.80498917144
 10
12524.99441994419
 20
-6919.799480809622
 10
12523.9315026662
 20
-6919.809757981042
 10
12522.87306656667
 20
-6919.835783835584
 10
12521.82283502708
 20
-6919.87746776101
 10
12520.78449043649
 20
-6919.934662343677
 10
12519.76168464764
 20
-6920.007167346703
 10
12518.75801200044
 20
-6920.09472850154
 10
12517.77699285522
 20
-6920.197037639709
 10
12516.82207486286
 20
-6920.313735003687
 10
12515.89661448551
 20
-6920.444411188293
 10
12515.00385986799
 20
-6920.588607435992
 10
12514.1469468664
 20
-6920.745816618174
 10
12513.32888710729
 20
-6920.915487498034
 10
12512.55255220966
 20
-6921.097023379778
 10
12511.82067238064
 20
-6921.289786392695
 10
12511.13581396489
 20
-6921.49310041383
 10
12510.50038473977
 20
-6921.706249759598
 10
12509.91661662563
 20
-6921.928487395027
 10
12509.38656179503
 20
-6922.159031958074
 10
12508.91207938125
 20
-6922.397073668584
 10
12508.49483545142
 20
-6922.641775647287
 10
12508.13630025167
 20
-6922.892279845945
 10
12507.83772716082
 20
-6923.147705685973
 10
12507.60016838784
 20
-6923.407155366195
 10
12507.42445908658
 20
-6923.669717788015
 10
12507.31121333067
 20
-6923.934472174697
 10
12507.26083205627
 20
-6924.200486108773
 10
12507.27348963639
 20
-6924.466828035964
 10
12507.30217356661
 20
-6924.595294099501
  0
LWPOLYLINE
  5
369D82
330
18
100
AcDbEntity
  8
姿図
100
AcDbPolyline
 90
       15
 70
   128
 43
0.0
 10
12543.11333669131
 20
-6924.623444208215
 10
12543.15517518717
 20
-6924.38636446946
 10
12543.14251562139
 20
-6924.120023032916
 10
12543.06686200309
 20
-6923.854291369356
 10
12542.92847788893
 20
-6923.590101749333
 10
12542.72784950783
 20
-6923.32838260453
 10
12542.46568192387
 20
-6923.070052914112
 10
12542.14289807027
 20
-6922.816021131047
 10
12541.76062900886
 20
-6922.567178402413
 10
12541.32021721272
 20
-6922.324399070642
 10
12540.82321270216
 20
-6922.088536378844
 10
12540.27135536155
 20
-6921.860417653697
 10
12539.66659071732
 20
-6921.640845656233
 10
12539.01103848928
 20
-6921.430590604298
 10
12538.30700310032
 20
-6921.230391512739
  0
LINE
  5
369D83
330
18
100
AcDbEntity
  8
姿図
100
AcDbLine
 10
12508.07965900648
 20
-6921.654737340066
 30
0.0
 11
12508.07018598922
 21
-6921.669639973686
 31
0.0
  0
LWPOLYLINE
  5
369D84
330
18
100
AcDbEntity
  8
姿図
100
AcDbPolyline
 90
       22
 70
   128
 43
0.0
 10
12523.5749952118
 20
-6918.031351662699
 10
12522.49567781992
 20
-6918.064705170596
 10
12521.42703153772
 20
-6918.114935398328
 10
12520.3732587136
 20
-6918.181845195224
 10
12519.33849918318
 20
-6918.265170178429
 10
12518.32682094919
 20
-6918.364583660569
 10
12517.3422063891
 20
-6918.479694808315
 10
12516.3885199567
 20
-6918.610050061319
 10
12515.46951927322
 20
-6918.755138265834
 10
12514.5888117109
 20
-6918.91438827902
 10
12513.74986087775
 20
-6919.087173928422
 10
12512.95596419379
 20
-6919.272815615641
 10
12512.21024754225
 20
-6919.470584262722
 10
12511.51564022507
 20
-6919.679702251037
 10
12510.87487226171
 20
-6919.899346713468
 10
12510.29046244826
 20
-6920.128653797269
 10
12509.7647103611
 20
-6920.366723264642
 10
12509.29968187582
 20
-6920.612618133832
 10
12508.89720770928
 20
-6920.86537160118
 10
12508.55886885801
 20
-6921.123990639201
 10
12508.2859952476
 20
-6921.387457642667
 10
12508.07965900648
 20
-6921.654737340066
  0
ARC
  5
369D85
330
18
100
AcDbEntity
  8
姿図
100
AcDbCircle
 10
12525.15559073269
 20
-6986.942382542927
 30
0.0
 40
68.92915536386764
100
AcDbArc
 50
90.28062743410936
 51
91.3139489427926
  0
SPLINE
  5
369D86
330
18
100
AcDbEntity
  8
姿図
100
AcDbSpline
210
0.0
220
0.0
230
1.0
 70
     8
 71
     3
 72
    16
 73
    12
 74
     0
 42
0.000000001
 43
0.0000000001
 40
0.0
 40
0.0
 40
0.0
 40
0.0
 40
0.1140847766644652
 40
0.2278677572136127
 40
0.3395597067138172
 40
0.4523160244253448
 40
0.5352299810994195
 40
0.6180111294907586
 40
0.7354347593856075
 40
0.9211205895650969
 40
1.0
 40
1.0
 40
1.0
 40
1.0
 10
12526.72889264674
 20
-6918.031043613601
 30
0.0
 10
12526.68723813473
 20
-6918.095017432081
 30
0.0
 10
12526.60403930219
 20
-6918.222795834804
 30
0.0
 10
12526.42883622129
 20
-6918.392989043862
 30
0.0
 10
12526.20614773951
 20
-6918.533844041999
 30
0.0
 10
12525.94743482639
 20
-6918.610952007226
 30
0.0
 10
12525.69084948472
 20
-6918.613292981844
 30
0.0
 10
12525.44195596394
 20
-6918.556637699237
 30
0.0
 10
12525.1555692518
 20
-6918.40842908057
 30
0.0
 10
12524.95041826633
 20
-6918.209306738074
 30
0.0
 10
12524.84840179062
 20
-6918.05889793201
 30
0.0
 10
12524.81798585449
 20
-6918.014053953569
 30
0.0
  0
ARC
  5
369D87
330
18
100
AcDbEntity
  8
姿図
100
AcDbCircle
 10
12525.18919802778
 20
-6985.824002248683
 30
0.0
 40
67.81044093661112
100
AcDbArc
 50
87.65436752337166
 51
88.69893803715318
  0
LWPOLYLINE
  5
369D88
330
18
100
AcDbEntity
  8
姿図
100
AcDbPolyline
 90
       22
 70
   128
 43
0.0
 10
12542.34992351111
 20
-6921.696586237458
 10
12542.34595871513
 20
-6921.690286251539
 10
12542.1421869611
 20
-6921.422581222312
 10
12541.87184404825
 20
-6921.158550988834
 10
12541.53598662041
 20
-6920.899232385337
 10
12541.13593936
 20
-6920.645645885102
 10
12540.67327537286
 20
-6920.398788636013
 10
12540.1498136212
 20
-6920.159631157776
 10
12539.56760946034
 20
-6919.929113118422
 10
12538.92895565842
 20
-6919.708141769996
 10
12538.2363585057
 20
-6919.49758472818
 10
12537.49254537269
 20
-6919.298270729465
 10
12536.70044079263
 20
-6919.11098372976
 10
12535.86315567449
 20
-6918.936459008003
 10
12534.98398269657
 20
-6918.775382992006
 10
12534.06637992025
 20
-6918.628389433226
 10
12533.1139563626
 20
-6918.496056409899
 10
12532.13045525233
 20
-6918.378903902568
 10
12531.11974285819
 20
-6918.277392617452
 10
12530.0857930687
 20
-6918.191921234877
 10
12529.03266863563
 20
-6918.122825794466
 10
12527.96451493972
 20
-6918.07037861086
  0
SPLINE
  5
369D89
330
18
100
AcDbEntity
  8
姿図
100
AcDbSpline
210
0.0
220
0.0
230
1.0
 70
     8
 71
     3
 72
     9
 73
     5
 74
     0
 42
0.000000001
 43
0.0000000001
 40
0.0
 40
0.0
 40
0.0
 40
0.0
 40
0.6329768637000043
 40
1.0
 40
1.0
 40
1.0
 40
1.0
 10
12512.94353581428
 20
-6922.8273468885
 30
0.0
 10
12512.94704126722
 20
-6922.729494476247
 30
0.0
 10
12512.95257930999
 20
-6922.574903656482
 30
0.0
 10
12513.00963290947
 20
-6922.432229401763
 30
0.0
 10
12513.03057290049
 20
-6922.379864649325
 30
0.0
  0
SPLINE
  5
369D8A
330
18
100
AcDbEntity
  8
姿図
100
AcDbSpline
210
0.0
220
0.0
230
1.0
 70
     8
 71
     3
 72
    11
 73
     7
 74
     0
 42
0.000000001
 43
0.0000000001
 40
0.0
 40
0.0
 40
0.0
 40
0.0
 40
0.0153370801883472
 40
0.0766850412197325
 40
0.3220779747583146
 40
1.0
 40
1.0
 40
1.0
 40
1.0
 10
12523.5749952118
 20
-6918.031351662699
 30
0.0
 10
12523.57369646576
 20
-6917.935326486972
 30
0.0
 10
12523.56720276604
 20
-6917.455202860548
 30
0.0
 10
12523.53995108278
 20
-6915.438689422789
 30
0.0
 10
12523.45663845029
 20
-6909.273830853686
 30
0.0
 10
12523.37865700016
 20
-6903.493408387778
 30
0.0
 10
12523.32140097707
 20
-6899.249270818494
 30
0.0
  0
SPLINE
  5
369D8B
330
18
100
AcDbEntity
  8
姿図
100
AcDbSpline
210
0.0
220
0.0
230
1.0
 70
     8
 71
     3
 72
    11
 73
     7
 74
     0
 42
0.000000001
 43
0.0000000001
 40
0.0
 40
0.0
 40
0.0
 40
0.0
 40
0.0153368399567487
 40
0.0766852974209054
 40
0.3220780404534385
 40
1.0
 40
1.0
 40
1.0
 40
1.0
 10
12508.69173658323
 20
-6902.670229780397
 30
0.0
 10
12508.68859074809
 20
-6902.767282879226
 30
0.0
 10
12508.67286134724
 20
-6903.252555319331
 30
0.0
 10
12508.60686243393
 20
-6905.290696115859
 30
0.0
 10
12508.40528547735
 20
-6911.52176714884
 30
0.0
 10
12508.21752078571
 20
-6917.364701288217
 30
0.0
 10
12508.07965900648
 20
-6921.654737340066
 30
0.0
  0
LWPOLYLINE
  5
369D8C
330
18
100
AcDbEntity
  8
姿図
100
AcDbPolyline
 90
       21
 70
   128
 43
0.0
 10
12523.32140097707
 20
-6899.249270818494
 10
12522.25886668624
 20
-6899.287465683663
 10
12521.20844872386
 20
-6899.342585683598
 10
12520.17444022461
 20
-6899.414405985474
 10
12519.1610646101
 20
-6899.502632366353
 10
12518.17246364805
 20
-6899.606905476037
 10
12517.21267577087
 20
-6899.726798320255
 10
12516.28562543182
 20
-6899.861821515412
 10
12515.39509742541
 20
-6900.011423072048
 10
12514.54473153865
 20
-6900.174992341202
 10
12513.73800147789
 20
-6900.351859972015
 10
12512.97820552184
 20
-6900.541304158392
 10
12512.26844677222
 20
-6900.742550269488
 10
12511.6116251306
 20
-6900.954776769286
 10
12511.01042543799
 20
-6901.177115522476
 10
12510.46730153587
 20
-6901.408658357624
 10
12509.9844748887
 20
-6901.64846003224
 10
12509.56391875223
 20
-6901.895539519973
 10
12509.20735009668
 20
-6902.148888568146
 10
12508.91622830975
 20
-6902.407470705876
 10
12508.69173658323
 20
-6902.670229780397
  0
SPLINE
  5
369D8D
330
18
100
AcDbEntity
  8
姿図
100
AcDbSpline
210
0.0
220
0.0
230
1.0
 70
     8
 71
     3
 72
    11
 73
     7
 74
     0
 42
0.000000001
 43
0.0000000001
 40
0.0
 40
0.0
 40
0.0
 40
0.0
 40
0.0124689119381402
 40
0.0739955718782991
 40
0.320103299143423
 40
1.0
 40
1.0
 40
1.0
 40
1.0
 10
12542.48071882657
 20
-6921.905443800096
 30
0.0
 10
12542.47838583472
 20
-6921.826723605827
 30
0.0
 10
12542.46454091654
 20
-6921.35956610064
 30
0.0
 10
12542.40460144956
 20
-6919.338650491122
 30
0.0
 10
12542.21947334252
 20
-6913.104064250652
 30
0.0
 10
12542.04463843097
 20
-6907.257979429532
 30
0.0
 10
12541.91627006043
 20
-6902.96563085959
 30
0.0
  0
SPLINE
  5
369D8E
330
18
100
AcDbEntity
  8
姿図
100
AcDbSpline
210
0.0
220
0.0
230
1.0
 70
     8
 71
     3
 72
    11
 73
     7
 74
     0
 42
0.000000001
 43
0.0000000001
 40
0.0
 40
0.0
 40
0.0
 40
0.0
 40
0.015336834211129
 40
0.0766852979547983
 40
0.3220780343383062
 40
1.0
 40
1.0
 40
1.0
 40
1.0
 10
12528.20949356195
 20
-6899.292730612998
 30
0.0
 10
12528.2082442795
 20
-6899.388722809786
 30
0.0
 10
12528.20199777546
 20
-6899.868690846905
 30
0.0
 10
12528.17574480208
 20
-6901.884562104955
 30
0.0
 10
12528.09545832901
 20
-6908.047601537095
 30
0.0
 10
12528.01995296562
 20
-6913.826995435674
 30
0.0
 10
12527.96451493972
 20
-6918.07037861086
 30
0.0
  0
LWPOLYLINE
  5
369D8F
330
18
100
AcDbEntity
  8
姿図
100
AcDbPolyline
 90
       21
 70
   128
 43
0.0
 10
12541.91627006043
 20
-6902.96563085959
 10
12541.76058764196
 20
-6902.69949101622
 10
12541.53734116772
 20
-6902.436335594323
 10
12541.24743932226
 20
-6902.177239300289
 10
12540.89206903438
 20
-6901.923260582525
 10
12540.47268041461
 20
-6901.675437479148
 10
12539.99098981431
 20
-6901.434782925036
 10
12539.44896346618
 20
-6901.20227960762
 10
12538.84881555229
 20
-6900.978877819537
 10
12538.19299843674
 20
-6900.765489997929
 10
12537.48419185181
 20
-6900.562988147033
 10
12536.72529473166
 20
-6900.37220060657
 10
12535.91940361147
 20
-6900.193905577954
 10
12535.06981326251
 20
-6900.02883227972
 10
12534.17999671917
 20
-6899.877655383846
 10
12533.25358853489
 20
-6899.740992591287
 10
12532.2943716786
 20
-6899.619401308007
 10
12531.30626862599
 20
-6899.513379533884
 10
12530.29331349752
 20
-6899.423359623641
 10
12529.25964742525
 20
-6899.349709431682
 10
12528.20949356195
 20
-6899.292730612998
  0
ARC
  5
369D90
330
18
100
AcDbEntity
  8
姿図
100
AcDbCircle
 10
12525.75431093106
 20
-6901.338940732831
 30
0.0
 40
2.286759416693521
100
AcDbArc
 50
68.00358770658099
 51
110.9775959360699
  0
SPLINE
  5
369D91
330
18
100
AcDbEntity
  8
姿図
100
AcDbSpline
210
0.0
220
0.0
230
1.0
 70
     8
 71
     3
 72
    12
 73
     8
 74
     0
 42
0.000000001
 43
0.0000000001
 40
0.0
 40
0.0
 40
0.0
 40
0.0
 40
0.2175926154775932
 40
0.435197569958884
 40
0.6527653458885049
 40
0.8703695723207271
 40
1.0
 40
1.0
 40
1.0
 40
1.0
 10
12523.32140097707
 20
-6899.249270818494
 30
0.0
 10
12523.33833707834
 20
-6899.249217318258
 30
0.0
 10
12523.37221024127
 20
-6899.24911031475
 30
0.0
 10
12523.41977787026
 20
-6899.254301763441
 30
0.0
 10
12523.45778957739
 20
-6899.262832308249
 30
0.0
 10
12523.47985135527
 20
-6899.272592736679
 30
0.0
 10
12523.48504200876
 20
-6899.279192689142
 30
0.0
 10
12523.48697979529
 20
-6899.281656598349
 30
0.0
  0
SPLINE
  5
369D92
330
18
100
AcDbEntity
  8
姿図
100
AcDbSpline
210
0.0
220
0.0
230
1.0
 70
     8
 71
     3
 72
    12
 73
     8
 74
     0
 42
0.000000001
 43
0.0000000001
 40
0.0
 40
0.0
 40
0.0
 40
0.0
 40
0.2177329487932476
 40
0.4354657520683111
 40
0.6531170531532928
 40
0.8706963431209974
 40
1.0
 40
1.0
 40
1.0
 40
1.0
 10
12528.03588171803
 20
-6899.322101185751
 30
0.0
 10
12528.04085597601
 20
-6899.318048219676
 30
0.0
 10
12528.05080448866
 20
-6899.309942290233
 30
0.0
 10
12528.08508255254
 20
-6899.300223328808
 30
0.0
 10
12528.12912255956
 20
-6899.2938226904
 30
0.0
 10
12528.17293043724
 20
-6899.291609188286
 30
0.0
 10
12528.19956521517
 20
-6899.292426101459
 30
0.0
 10
12528.20949356195
 20
-6899.292730612998
 30
0.0
  0
LINE
  5
369D93
330
18
100
AcDbEntity
  8
姿図
100
AcDbLine
 10
12523.66867314226
 20
-6899.617181728143
 30
0.0
 11
12523.48697979529
 21
-6899.281656598349
 31
0.0
  0
LINE
  5
369D94
330
18
100
AcDbEntity
  8
姿図
100
AcDbLine
 10
12524.19376385695
 20
-6899.635493003528
 30
0.0
 11
12524.93564449878
 21
-6899.203746619289
 31
0.0
  0
LINE
  5
369D95
330
18
100
AcDbEntity
  8
姿図
100
AcDbLine
 10
12526.61081332034
 20
-6899.218640686377
 30
0.0
 11
12527.23877198251
 21
-6899.662565883821
 31
0.0
  0
LINE
  5
369D96
330
18
100
AcDbEntity
  8
姿図
100
AcDbLine
 10
12527.76740768644
 20
-6899.653624088252
 30
0.0
 11
12528.03588171803
 21
-6899.322101185751
 31
0.0
  0
ELLIPSE
  5
369D97
330
18
100
AcDbEntity
  8
姿図
100
AcDbEllipse
 10
12523.94117918709
 20
-6899.608049886534
 30
0.0
 11
0.27501063819273
 21
-0.0001742184775258001
 31
0.0
210
0.0
220
0.0
230
1.0
 40
0.2508827020248672
 41
3.276825953624847
 42
5.876689268661623
  0
ELLIPSE
  5
369D98
330
18
100
AcDbEntity
  8
姿図
100
AcDbEllipse
 10
12527.4979035542
 20
-6899.639672862207
 30
0.0
 11
0.2750028199316457
 21
-0.0002382594566952999
 31
0.0
210
0.0
220
0.0
230
1.0
 40
0.25089687965086
 41
3.483214088333
 42
6.083077403369444
  0
ARC
  5
369D99
330
18
100
AcDbEntity
  8
姿図
100
AcDbCircle
 10
12532.84074479002
 20
-6910.021073337244
 30
0.0
 40
12.85789070756326
100
AcDbArc
 50
65.36602133982474
 51
74.83099079745959
  0
ARC
  5
369D9A
330
18
100
AcDbEntity
  8
姿図
100
AcDbCircle
 10
12526.73752018997
 20
-6936.457516786368
 30
0.0
 40
40.01906911707318
100
AcDbArc
 50
79.3141651459058
 51
84.90309448205669
  0
ARC
  5
369D9B
330
18
100
AcDbEntity
  8
姿図
100
AcDbCircle
 10
12525.1848495126
 20
-6954.038682798034
 30
0.0
 40
57.67180523538579
100
AcDbArc
 50
86.41124366445497
 51
91.24430452324752
  0
ARC
  5
369D9C
330
18
100
AcDbEntity
  8
姿図
100
AcDbCircle
 10
12524.72072530224
 20
-6945.853294948689
 30
0.0
 40
49.47450677134288
100
AcDbArc
 50
92.31017392835379
 51
97.50455061004386
  0
ARC
  5
369D9D
330
18
100
AcDbEntity
  8
姿図
100
AcDbCircle
 10
12520.50172218034
 20
-6919.733378395415
 30
0.0
 40
23.00244879386538
100
AcDbArc
 50
100.2724610665443
 51
107.3933538552571
  0
ARC
  5
369D9E
330
18
100
AcDbEntity
  8
姿図
100
AcDbCircle
 10
12512.24854329357
 20
-6900.292319424271
 30
0.0
 40
1.719129411849319
100
AcDbArc
 50
118.7508895210902
 51
170.6538849071312
  0
ARC
  5
369D9F
330
18
100
AcDbEntity
  8
姿図
100
AcDbCircle
 10
12536.57623672087
 20
-6923.135766806168
 30
0.0
 40
1.232767556830541
100
AcDbArc
 50
2.063210937555904
 51
39.05275689281305
  0
LINE
  5
369DA0
330
18
100
AcDbEntity
  8
姿図
100
AcDbLine
 10
12508.40051591242
 20
-6903.070274654679
 30
0.0
 11
12508.6795692628
 21
-6903.04571030602
 31
0.0
  0
LWPOLYLINE
  5
369DA1
330
18
100
AcDbEntity
  8
姿図
100
AcDbPolyline
 90
        6
 70
   128
 43
0.0
 10
12507.80126168503
 20
-6903.281150866054
 10
12507.81356794899
 20
-6903.24507271213
 10
12507.88383635377
 20
-6903.187983382581
 10
12508.01165366888
 20
-6903.137574731494
 10
12508.18801758875
 20
-6903.097395342648
 10
12508.40051591242
 20
-6903.070274654679
  0
LINE
  5
369DA2
330
18
100
AcDbEntity
  8
姿図
100
AcDbLine
 10
12541.92777197885
 20
-6903.350960006775
 30
0.0
 11
12542.1028503334
 21
-6903.369923504368
 31
0.0
  0
LWPOLYLINE
  5
369DA3
330
18
100
AcDbEntity
  8
姿図
100
AcDbPolyline
 90
        6
 70
   128
 43
0.0
 10
12542.1028503334
 20
-6903.369923504368
 10
12542.30780855475
 20
-6903.400756200551
 10
12542.47332502991
 20
-6903.443975169707
 10
12542.58774189378
 20
-6903.496537002347
 10
12542.64301103283
 20
-6903.554742567182
 10
12542.64754492497
 20
-6903.576381221052
  0
LINE
  5
369DA4
330
18
100
AcDbEntity
  8
姿図
100
AcDbLine
 10
12539.92657754064
 20
-6943.291702614262
 30
0.0
 11
12539.41994865314
 21
-6943.18937400591
 31
0.0
  0
ARC
  5
369DA5
330
18
100
AcDbEntity
  8
姿図
100
AcDbCircle
 10
12531.56445832932
 20
-6917.563486480917
 30
0.0
 40
26.80288864416229
100
AcDbArc
 50
281.8168426090831
 51
287.0426643770533
  0
LINE
  5
369DA6
330
18
100
AcDbEntity
  8
姿図
100
AcDbLine
 10
12536.88543882085
 20
-6944.043148628104
 30
0.0
 11
12536.61529412835
 21
-6943.957025452196
 31
0.0
  0
LWPOLYLINE
  5
369DA7
330
18
100
AcDbEntity
  8
姿図
100
AcDbPolyline
 90
       81
 70
   128
 43
0.0
 10
12539.92657754064
 20
-6943.291702614262
 10
12540.58465922801
 20
-6943.074642372099
 10
12541.19156096269
 20
-6942.848409070491
 10
12541.74526015146
 20
-6942.613754452491
 10
12542.24391146239
 20
-6942.371457328466
 10
12542.68586652048
 20
-6942.122326583588
 10
12543.06964389012
 20
-6941.867187597217
 10
12543.39397630179
 20
-6941.606891571246
 10
12543.65777864879
 20
-6941.342302440137
 10
12543.860175572
 20
-6941.074300553797
 10
12544.00049693391
 20
-6940.803778546454
 10
12544.07827202269
 20
-6940.531634894664
 10
12544.09324533016
 20
-6940.258775268081
 10
12544.04536612258
 20
-6939.986107232313
 10
12543.9347911419
 20
-6939.714536956737
 10
12543.76189219061
 20
-6939.444968652676
 10
12543.52724013014
 20
-6939.178298028423
 10
12543.23161674122
 20
-6938.915411983346
 10
12542.87600884737
 20
-6938.657186122847
 10
12542.46159396795
 20
-6938.404477804517
 10
12541.98975311776
 20
-6938.158128224893
 10
12541.46205610228
 20
-6937.918956866375
 10
12540.88025663403
 20
-6937.687758766867
 10
12540.24629136658
 20
-6937.465303446107
 10
12539.56226681772
 20
-6937.252330262708
 10
12538.83045807256
 20
-6937.049547422252
 10
12538.05330125226
 20
-6936.85762990114
 10
12537.23337812063
 20
-6936.67721537604
 10
12536.37341903582
 20
-6936.508904806908
 10
12535.47628198447
 20
-6936.353257118624
 10
12534.54495189304
 20
-6936.210790683533
 10
12533.58252393742
 20
-6936.081978259004
 10
12532.59220315832
 20
-6935.967249707188
 10
12531.57727858494
 20
-6935.866985265284
 10
12530.54113203638
 20
-6935.781519932587
 10
12529.48720303244
 20
-6935.71113639246
 10
12528.41899891881
 20
-6935.656069072286
 10
12527.34007580643
 20
-6935.616502291416
 10
12526.25401790975
 20
-6935.592566180043
 10
12525.16444041792
 20
-6935.584341219172
 10
12524.07496618555
 20
-6935.591854813686
 10
12522.98921585802
 20
-6935.615081107586
 10
12521.910806494
 20
-6935.653943949081
 10
12520.8433193744
 20
-6935.70831303355
 10
12519.79030781082
 20
-6935.778008535918
 10
12518.7552728435
 20
-6935.862797929027
 10
12517.74165855442
 20
-6935.962399766459
 10
12516.75283300663
 20
-6936.076481830494
 10
12515.7920901226
 20
-6936.204665917433
 10
12514.86261945198
 20
-6936.346524808913
 10
12513.96751660076
 20
-6936.50158756907
 10
12513.10975561982
 20
-6936.669337180662
 10
12512.29219151825
 20
-6936.849216485817
 10
12511.51754316155
 20
-6937.040627162343
 10
12510.78838530218
 20
-6937.242933005311
 10
12510.10714593191
 20
-6937.45546058124
 10
12509.47608777578
 20
-6937.677502488483
 10
12508.89731215613
 20
-6937.908321651888
 10
12508.37274059377
 20
-6938.147149307218
 10
12507.90412388668
 20
-6938.393191944405
 10
12507.49301447159
 20
-6938.645630262643
 10
12507.14078474223
 20
-6938.903625142962
 10
12506.84860200487
 20
-6939.166318587115
 10
12506.61744025812
 20
-6939.432837368646
 10
12506.44806568507
 20
-6939.702293992997
 10
12506.34104705567
 20
-6939.973793313646
 10
12506.29673468039
 20
-6940.246431170731
 10
12506.31527605414
 20
-6940.51930233678
 10
12506.39661590986
 20
-6940.791497878745
 10
12506.54047763199
 20
-6941.062112375336
 10
12506.74638689663
 20
-6941.330247262211
 10
12507.01365324599
 20
-6941.595010135372
 10
12507.34139108101
 20
-6941.855518750543
 10
12507.7285115845
 20
-6942.110909580704
 10
12508.1737255029
 20
-6942.360330566947
 10
12508.67555606204
 20
-6942.602953675389
 10
12509.23232586353
 20
-6942.837971573188
 10
12509.84218838713
 20
-6943.064602968118
 10
12510.50311745417
 20
-6943.282092587359
 10
12511.21290968731
 20
-6943.489719756242
 10
12511.61035850073
 20
-6943.596107008028
  0
LWPOLYLINE
  5
369DA8
330
18
100
AcDbEntity
  8
姿図
100
AcDbPolyline
 90
        3
 70
   128
 43
0.0
 10
12535.82113135634
 20
-6944.237448544935
 10
12536.00987881914
 20
-6944.205041482169
 10
12536.88543882085
 20
-6944.043148628104
  0
SPLINE
  5
369DA9
330
18
100
AcDbEntity
  8
姿図
100
AcDbSpline
210
0.0
220
0.0
230
1.0
 70
     8
 71
     3
 72
    11
 73
     7
 74
     0
 42
0.000000001
 43
0.0000000001
 40
0.0
 40
0.0
 40
0.0
 40
0.0
 40
0.4640926658275989
 40
0.7419939342852129
 40
0.9549846526255418
 40
1.0
 40
1.0
 40
1.0
 40
1.0
 10
12508.72551752883
 20
-6941.444345913716
 30
0.0
 10
12508.74125752918
 20
-6941.43971722744
 30
0.0
 10
12508.76642272926
 20
-6941.432316858089
 30
0.0
 10
12508.78154506678
 20
-6941.420311627941
 30
0.0
 10
12508.78217645534
 20
-6941.4132269941
 30
0.0
 10
12508.77905951893
 20
-6941.409970420067
 30
0.0
 10
12508.7785156946
 20
-6941.409402232605
 30
0.0
  0
LINE
  5
369DAA
330
18
100
AcDbEntity
  8
姿図
100
AcDbLine
 10
12508.71565536655
 20
-6941.446782791219
 30
0.0
 11
12508.72551752883
 21
-6941.444345913716
 31
0.0
  0
ARC
  5
369DAB
330
18
100
AcDbEntity
  8
姿図
100
AcDbCircle
 10
12513.42151511125
 20
-6935.536402530264
 30
0.0
 40
7.554979203534931
100
AcDbArc
 50
231.4731076851483
 51
251.2811785011049
  0
LWPOLYLINE
  5
369DAC
330
18
100
AcDbEntity
  8
姿図
100
AcDbPolyline
 90
       33
 70
   128
 43
0.0
 10
12539.22541906421
 20
-6942.774227764892
 10
12539.24189020054
 20
-6942.768312673607
 10
12539.81209324441
 20
-6942.549052858024
 10
12540.32756200376
 20
-6942.32143261775
 10
12540.78636143368
 20
-6942.086302800345
 10
12541.18678108456
 20
-6941.844545373067
 10
12541.5273148519
 20
-6941.597065302969
 10
12541.80668866833
 20
-6941.344788963817
 10
12542.02385465394
 20
-6941.08866033207
 10
12542.1780043004
 20
-6940.829640353872
 10
12542.26855483962
 20
-6940.568697189677
 10
12542.2951755047
 20
-6940.30681022423
 10
12542.25775748548
 20
-6940.044957804939
 10
12542.15644675468
 20
-6939.784122254346
 10
12541.9916186031
 20
-6939.525279101656
 10
12541.76389341757
 20
-6939.269398433516
 10
12541.47412233409
 20
-6939.017437940177
 10
12541.12339187104
 20
-6938.770341770645
 10
12540.71301449282
 20
-6938.529034990189
 10
12540.24452504988
 20
-6938.294420522904
 10
12539.71968309542
 20
-6938.067378579273
 10
12539.1404496834
 20
-6937.848757953251
 10
12538.50899589267
 20
-6937.639377853128
 10
12537.8276838468
 20
-6937.440022092484
 10
12537.09906773373
 20
-6937.251437525898
 10
12536.32587347507
 20
-6937.074329886019
 10
12535.51100071173
 20
-6936.909363292919
 10
12534.65749690079
 20
-6936.75715484336
 10
12533.76855863927
 20
-6936.618274283684
 10
12532.84751687895
 20
-6936.493242413712
 10
12531.89782054011
 20
-6936.382527261514
 10
12530.92302434711
 20
-6936.28654315209
 10
12529.92677831858
 20
-6936.205649367178
  0
LINE
  5
369DAD
330
18
100
AcDbEntity
  8
姿図
100
AcDbLine
 10
12529.91691549441
 20
-6936.208086408228
 30
0.0
 11
12529.92677831858
 21
-6936.205649367178
 31
0.0
  0
SPLINE
  5
369DAE
330
18
100
AcDbEntity
  8
姿図
100
AcDbSpline
210
0.0
220
0.0
230
1.0
 70
     8
 71
     3
 72
    11
 73
     7
 74
     0
 42
0.000000001
 43
0.0000000001
 40
0.0
 40
0.0
 40
0.0
 40
0.0
 40
0.2255762730559548
 40
0.5221879160647163
 40
0.946405731912136
 40
0.9999999999999998
 40
0.9999999999999998
 40
0.9999999999999998
 40
0.9999999999999998
 10
12529.77665830247
 20
-6936.220894895495
 30
0.0
 10
12529.78833271416
 20
-6936.221324995479
 30
0.0
 10
12529.81535788229
 20
-6936.222320636601
 30
0.0
 10
12529.86337060132
 20
-6936.218482785642
 30
0.0
 10
12529.89714099366
 20
-6936.212860365012
 30
0.0
 10
12529.91492116392
 20
-6936.208567879177
 30
0.0
 10
12529.91691549441
 20
-6936.208086408228
 30
0.0
  0
LWPOLYLINE
  5
369DAF
330
18
100
AcDbEntity
  8
姿図
100
AcDbPolyline
 90
       35
 70
   128
 43
0.0
 10
12529.77665830247
 20
-6936.220894895495
 10
12528.75431744522
 20
-6936.156992478067
 10
12527.71832327862
 20
-6936.109047927932
 10
12526.67265042483
 20
-6936.077245829444
 10
12525.62130838944
 20
-6936.061707028351
 10
12524.56833030935
 20
-6936.062491412123
 10
12523.51776045737
 20
-6936.079597060419
 10
12522.47362795443
 20
-6936.112957554094
 10
12521.43993617939
 20
-6936.162444591985
 10
12520.42065419125
 20
-6936.227868798056
 10
12519.41968909082
 20
-6936.3089786765
 10
12518.4408853051
 20
-6936.40546341327
 10
12517.48799626026
 20
-6936.516953313732
 10
12516.56467911329
 20
-6936.64301979205
 10
12515.67447227457
 20
-6936.783179612874
 10
12514.82079935243
 20
-6936.93689522902
 10
12514.00692565621
 20
-6937.10357634277
 10
12513.23598051267
 20
-6937.282583578141
 10
12512.51091903739
 20
-6937.473230052771
 10
12511.83452470183
 20
-6937.674784680702
 10
12511.20938823335
 20
-6937.886473448966
 10
12510.63791539686
 20
-6938.107485368947
 10
12510.12229276441
 20
-6938.336971747975
 10
12509.66450208891
 20
-6938.5740518242
 10
12509.26629782672
 20
-6938.817817008255
 10
12508.92921108212
 20
-6939.067331220954
 10
12508.65452972381
 20
-6939.321637118748
 10
12508.44330884098
 20
-6939.579760071895
 10
12508.29636153048
 20
-6939.840707816166
 10
12508.21425079316
 20
-6940.103480329381
 10
12508.1972921546
 20
-6940.367070496188
 10
12508.24554836998
 20
-6940.630465416468
 10
12508.35883453135
 20
-6940.892654329875
 10
12508.53671798714
 20
-6941.152632572806
 10
12508.7785156946
 20
-6941.409402232605
  0
LINE
  5
369DB0
330
18
100
AcDbEntity
  8
姿図
100
AcDbLine
 10
12536.88558844569
 20
-6943.852804513561
 30
0.0
 11
12536.88543882085
 21
-6944.043148628104
 31
0.0
  0
LWPOLYLINE
  5
369DB1
330
18
100
AcDbEntity
  8
姿図
100
AcDbPolyline
 90
       57
 70
   128
 43
0.0
 10
12544.09608807341
 20
-6939.459834195389
 10
12544.09393026583
 20
-6939.387439522279
 10
12544.04605105826
 20
-6939.114771486512
 10
12543.93547607758
 20
-6938.843201210935
 10
12543.76257712628
 20
-6938.573632906875
 10
12543.52792506582
 20
-6938.306962282621
 10
12543.2323016769
 20
-6938.044076237544
 10
12542.87669378304
 20
-6937.785850377045
 10
12542.46227890363
 20
-6937.533142058715
 10
12541.99043805344
 20
-6937.286792479091
 10
12541.46274103795
 20
-6937.047621120574
 10
12540.88094156971
 20
-6936.816423021065
 10
12540.24697630225
 20
-6936.593967700307
 10
12539.5629517534
 20
-6936.380994516906
 10
12538.83114300824
 20
-6936.178211676452
 10
12538.05398618794
 20
-6935.98629415534
 10
12537.23406305631
 20
-6935.80587963024
 10
12536.37410397149
 20
-6935.637569061107
 10
12535.47696692015
 20
-6935.481921372822
 10
12534.54563682872
 20
-6935.339454937731
 10
12533.5832088731
 20
-6935.210642513202
 10
12532.59288809399
 20
-6935.095913961387
 10
12531.57796352062
 20
-6934.995649519482
 10
12530.54181697205
 20
-6934.910184186785
 10
12529.48788796811
 20
-6934.83980064666
 10
12528.41968385449
 20
-6934.784733326485
 10
12527.34076074211
 20
-6934.745166545616
 10
12526.25470284542
 20
-6934.721230434241
 10
12525.1651253536
 20
-6934.713005473369
 10
12524.07565112123
 20
-6934.720519067884
 10
12522.9899007937
 20
-6934.743745361785
 10
12521.91149142968
 20
-6934.782608203279
 10
12520.84400431007
 20
-6934.836977287749
 10
12519.79099274649
 20
-6934.906672790116
 10
12518.75595777918
 20
-6934.991462183226
 10
12517.7423434901
 20
-6935.091064020657
 10
12516.7535179423
 20
-6935.205146084692
 10
12515.79277505828
 20
-6935.333330171632
 10
12514.86330438766
 20
-6935.475189063111
 10
12513.96820153644
 20
-6935.630251823269
 10
12513.1104405555
 20
-6935.798001434861
 10
12512.29287645392
 20
-6935.977880740016
 10
12511.51822809723
 20
-6936.169291416543
 10
12510.78907023785
 20
-6936.371597259508
 10
12510.10783086758
 20
-6936.584124835438
 10
12509.47677271146
 20
-6936.806166742681
 10
12508.89799709181
 20
-6937.036985906087
 10
12508.37342552945
 20
-6937.275813561417
 10
12507.90480882236
 20
-6937.521856198603
 10
12507.49369940727
 20
-6937.774294516841
 10
12507.14146967791
 20
-6938.032289397161
 10
12506.84928694054
 20
-6938.294982841313
 10
12506.6181251938
 20
-6938.561501622846
 10
12506.44875062075
 20
-6938.830958247194
 10
12506.34173199134
 20
-6939.102457567845
 10
12506.29741961607
 20
-6939.375095424928
 10
12506.29609731933
 20
-6939.430120014792
  0
LWPOLYLINE
  5
369DB2
330
18
100
AcDbEntity
  8
姿図
100
AcDbPolyline
 90
       55
 70
   128
 43
0.0
 10
12543.19722652637
 20
-6938.006904445737
 10
12543.18591396072
 20
-6937.846240002359
 10
12543.11634482948
 20
-6937.579212253696
 10
12542.98362410626
 20
-6937.313642931234
 10
12542.78821681268
 20
-6937.050467019209
 10
12542.53081039224
 20
-6936.790611787801
 10
12542.21231575678
 20
-6936.534993909823
 10
12541.833850623
 20
-6936.284513079292
 10
12541.3967516769
 20
-6936.040052942748
 10
12540.90256053101
 20
-6935.802475382617
 10
12540.3530165509
 20
-6935.572617040285
 10
12539.75005688205
 20
-6935.351287997109
 10
12539.09580762163
 20
-6935.139268706364
 10
12538.39257336249
 20
-6934.937306015065
 10
12537.64283523428
 20
-6934.746112335628
 10
12536.84923255836
 20
-6934.566360992299
 10
12536.01456450258
 20
-6934.398685812282
 10
12535.14177204025
 20
-6934.243677709388
 10
12534.23393008801
 20
-6934.10188268965
 10
12533.29423798886
 20
-6933.973800265805
 10
12532.32601096136
 20
-6933.859882945448
 10
12531.33265814089
 20
-6933.760531157997
 10
12530.31768023627
 20
-6933.676095146092
 10
12529.28465639924
 20
-6933.606872960623
 10
12528.23722943931
 20
-6933.553108864606
 10
12527.17908610123
 20
-6933.514991644699
 10
12526.1139583619
 20
-6933.492655603093
 10
12525.04559907465
 20
-6933.48618001386
 10
12523.97777672777
 20
-6933.495587793371
 10
12522.91424846802
 20
-6933.520844291847
 10
12521.85876986799
 20
-6933.561862754071
 10
12520.8150555615
 20
-6933.618496985445
 10
12519.78678503968
 20
-6933.690547793986
 10
12518.77758292837
 20
-6933.777761301839
 10
12517.79100776286
 20
-6933.87983040662
 10
12516.83053552111
 20
-6933.996394913162
 10
12515.89955165428
 20
-6934.127044815089
 10
12515.00133334984
 20
-6934.27131811569
 10
12514.1390533419
 20
-6934.428707760552
 10
12513.31574441066
 20
-6934.598658598307
 10
12512.5343098385
 20
-6934.780571358775
 10
12511.79750622765
 20
-6934.973805586263
 10
12511.1079290191
 20
-6935.177679280663
 10
12510.46800579324
 20
-6935.391474489904
 10
12509.87999756677
 20
-6935.614438301858
 10
12509.3459698037
 20
-6935.845783445521
 10
12508.8678107068
 20
-6936.084695582575
 10
12508.44720225541
 20
-6936.330332589583
 10
12508.08562933775
 20
-6936.581828863265
 10
12507.78436389237
 20
-6936.838297926676
 10
12507.54446747524
 20
-6937.098835731982
 10
12507.36678593777
 20
-6937.362523287845
 10
12507.25194929262
 20
-6937.628433254378
 10
12507.2003559894
 20
-6937.895625954361
 10
12507.1972400189
 20
-6937.978606067805
  0
ARC
  5
369DB3
330
18
100
AcDbEntity
  8
姿図
100
AcDbCircle
 10
12541.57222970199
 20
-6933.068418617587
 30
0.0
 40
1.153563199261459
100
AcDbArc
 50
355.1196702199995
 51
25.07289772913694
  0
SPLINE
  5
369DB4
330
18
100
AcDbEntity
  8
姿図
100
AcDbSpline
210
0.0
220
0.0
230
1.0
 70
     8
 71
     3
 72
     9
 73
     5
 74
     0
 42
0.000000001
 43
0.0000000001
 40
0.0
 40
0.0
 40
0.0
 40
0.0
 40
0.3380937471629417
 40
1.0
 40
1.0
 40
1.0
 40
1.0
 10
12542.61709189595
 20
-6932.579571964402
 30
0.0
 10
12542.653984213
 20
-6932.860912540949
 30
0.0
 10
12542.76310281506
 20
-6933.693050310154
 30
0.0
 10
12542.85330076017
 20
-6934.524891183482
 30
0.0
 10
12542.91300334404
 20
-6935.075491858903
 30
0.0
  0
LWPOLYLINE
  5
369DB5
330
18
100
AcDbEntity
  8
姿図
100
AcDbPolyline
 90
        3
 70
   128
 43
0.0
 10
12542.91300334404
 20
-6935.075491858903
 10
12542.98060086294
 20
-6935.3463008044
 10
12542.98456063444
 20
-6935.381721991241
  0
LWPOLYLINE
  5
369DB6
330
18
100
AcDbEntity
  8
姿図
100
AcDbPolyline
 90
       40
 70
   128
 43
0.0
 10
12537.35646545224
 20
-6927.002591062501
 10
12536.6004792796
 20
-6926.822140879723
 10
12535.80209298148
 20
-6926.653532352531
 10
12534.96428134123
 20
-6926.497393973105
 10
12534.09015744145
 20
-6926.354305624785
 10
12533.18297363001
 20
-6926.224799655762
 10
12532.24610838957
 20
-6926.109358874071
 10
12531.28304305518
 20
-6926.008411801659
 10
12530.29736145647
 20
-6925.922334075146
 10
12529.29272922915
 20
-6925.851445683673
 10
12528.27288656104
 20
-6925.796011448942
 10
12527.24162457869
 20
-6925.756236361052
 10
12526.20278231523
 20
-6925.732268952446
 10
12525.16022108448
 20
-6925.724198443387
 10
12524.11782119836
 20
-6925.732054240703
 10
12523.07945888119
 20
-6925.75580770503
 10
12522.04900102829
 20
-6925.795370821218
 10
12521.0302762438
 20
-6925.850595480532
 10
12520.02707740775
 20
-6925.921276783437
 10
12519.04313469953
 20
-6926.007151831147
 10
12518.08210702022
 20
-6926.107900532771
 10
12517.14757336113
 20
-6926.223149050445
 10
12516.24300781302
 20
-6926.352468100231
 10
12515.37177620295
 20
-6926.495376407854
 10
12514.53712023579
 20
-6926.651343314877
 10
12513.74214303992
 20
-6926.819787100811
 10
12512.989803738
 20
-6927.000082886465
 10
12512.28289777807
 20
-6927.191558307469
 10
12511.62405939327
 20
-6927.393502093018
 10
12511.01573923177
 20
-6927.605163031579
 10
12510.4601937665
 20
-6927.825752587669
 10
12509.95949831832
 20
-6928.054452182806
 10
12509.51551025846
 20
-6928.290409164337
 10
12509.12988330181
 20
-6928.53274639727
 10
12508.80405037825
 20
-6928.78056255957
 10
12508.53922357901
 20
-6929.032934780143
 10
12508.33639137489
 20
-6929.288925887987
 10
12508.19630548585
 20
-6929.547582407195
 10
12508.11948598825
 20
-6929.807942481518
 10
12508.11667027614
 20
-6929.825019105464
  0
LWPOLYLINE
  5
369DB7
330
18
100
AcDbEntity
  8
姿図
100
AcDbPolyline
 90
       14
 70
   128
 43
0.0
 10
12542.29060156842
 20
-6929.851782157874
 10
12542.28357712538
 20
-6929.811459334887
 10
12542.2014956299
 20
-6929.551083744847
 10
12542.05617749834
 20
-6929.292397572488
 10
12541.84816555119
 20
-6929.03636382341
 10
12541.57823658707
 20
-6928.783936246031
 10
12541.24739131123
 20
-6928.536052633671
 10
12540.85686222458
 20
-6928.293635499947
 10
12540.40809991185
 20
-6928.057586280352
 10
12539.90277800576
 20
-6927.828784105648
 10
12539.34277257898
 20
-6927.608079082735
 10
12538.73016970222
 20
-6927.39629305182
 10
12538.06724450522
 20
-6927.194212949064
 10
12537.35646545224
 20
-6927.002591062501
  0
ARC
  5
369DB8
330
18
100
AcDbEntity
  8
姿図
100
AcDbCircle
 10
12525.16175899887
 20
-6984.102454197638
 30
0.0
 40
59.06834570080405
100
AcDbArc
 50
77.57737872150705
 51
102.3435351368571
  0
LINE
  5
369DB9
330
18
100
AcDbEntity
  8
姿図
100
AcDbLine
 10
12507.20457916332
 20
-6929.299440554903
 30
0.0
 11
12507.20408937567
 21
-6929.265248609791
 31
0.0
  0
LINE
  5
369DBA
330
18
100
AcDbEntity
  8
姿図
100
AcDbLine
 10
12543.20367246068
 20
-6929.262328508186
 30
0.0
 11
12543.20407588314
 21
-6929.293546987721
 31
0.0
  0
SPLINE
  5
369DBB
330
18
100
AcDbEntity
  8
姿図
100
AcDbSpline
210
0.0
220
0.0
230
1.0
 70
     8
 71
     3
 72
    10
 73
     6
 74
     0
 42
0.000000001
 43
0.0000000001
 40
0.0
 40
0.0
 40
0.0
 40
0.0
 40
0.4457963993671222
 40
0.8914858694441726
 40
1.0
 40
1.0
 40
1.0
 40
1.0
 10
12508.7785156946
 20
-6941.409402232605
 30
0.0
 10
12509.20699080864
 20
-6940.830718823072
 30
0.0
 10
12510.06383826212
 20
-6939.673490807741
 30
0.0
 10
12511.07667816269
 20
-6938.448350151451
 30
0.0
 10
12511.66565139804
 20
-6937.824112354632
 30
0.0
 10
12511.78097348992
 20
-6937.70188539381
 30
0.0
  0
LWPOLYLINE
  5
369DBC
330
18
100
AcDbEntity
  8
姿図
100
AcDbPolyline
 90
       41
 70
   128
 43
0.0
 10
12537.99723607513
 20
-6925.392321358552
 10
12537.2246096887
 20
-6925.207581136956
 10
12536.40976183349
 20
-6925.034592493412
 10
12535.55555706135
 20
-6924.873963912625
 10
12534.66499386745
 20
-6924.726258971531
 10
12533.74119975289
 20
-6924.591996246903
 10
12532.78742137692
 20
-6924.471647811621
 10
12531.8070088057
 20
-6924.365636564892
 10
12530.80340599545
 20
-6924.274334646729
 10
12529.7801346834
 20
-6924.198062168938
 10
12528.74079535388
 20
-6924.137088288784
 10
12527.68903146041
 20
-6924.091625613506
 10
12526.62854150972
 20
-6924.061835088608
 10
12525.56305150386
 20
-6924.047820995986
 10
12524.49630305299
 20
-6924.049632578824
 10
12523.43204350071
 20
-6924.067263856844
 10
12522.37400752535
 20
-6924.100651610716
 10
12521.3259157356
 20
-6924.149679666128
 10
12520.29144970662
 20
-6924.21417587571
 10
12519.27423813396
 20
-6924.293912915572
 10
12518.27785940064
 20
-6924.388611588084
 10
12517.30581197991
 20
-6924.497938948642
 10
12516.36150715452
 20
-6924.621510104697
 10
12515.44826761235
 20
-6924.758892499828
 10
12514.5692945935
 20
-6924.909602220271
 10
12513.72768091335
 20
-6925.073111275863
 10
12512.92637810961
 20
-6925.248843906567
 10
12512.16820419715
 20
-6925.436183852823
 10
12511.45582262166
 20
-6925.634472994156
 10
12510.79173299324
 20
-6925.84301363886
 10
12510.17826962839
 20
-6926.061075446051
 10
12509.61758585255
 20
-6926.287890117899
 10
12509.11165508232
 20
-6926.522662943452
 10
12508.66224853589
 20
-6926.764567807365
 10
12508.27094822935
 20
-6927.012755789846
 10
12507.93913117179
 20
-6927.266355134851
 10
12507.66795480377
 20
-6927.524474848162
 10
12507.45838063748
 20
-6927.786208042563
 10
12507.31114124274
 20
-6928.050636158303
 10
12507.22675078362
 20
-6928.316828984311
 10
12507.20466015351
 20
-6928.539137892716
  0
LWPOLYLINE
  5
369DBD
330
18
100
AcDbEntity
  8
姿図
100
AcDbPolyline
 90
       15
 70
   128
 43
0.0
 10
12543.20464666099
 20
-6928.567436270647
 10
12543.20379668885
 20
-6928.522721580643
 10
12543.16181774231
 20
-6928.255805734614
 10
12543.05675821421
 20
-6927.989933123439
 10
12542.88899615918
 20
-6927.726040534939
 10
12542.65911533656
 20
-6927.465053299428
 10
12542.36792752675
 20
-6927.207888961982
 10
12542.01645258513
 20
-6926.955450399768
 10
12541.60592277115
 20
-6926.708623439978
 10
12541.13778440305
 20
-6926.468276450965
 10
12540.61368251814
 20
-6926.235253633706
 10
12540.03545466534
 20
-6926.010372618553
 10
12539.40513093201
 20
-6925.794423146236
 10
12538.72492806744
 20
-6925.588164582825
 10
12537.99723607513
 20
-6925.392321358552
  0
LWPOLYLINE
  5
369DBE
330
18
100
AcDbEntity
  8
姿図
100
AcDbPolyline
 90
       41
 70
   128
 43
0.0
 10
12537.9294387627
 20
-6921.246829679508
 10
12537.16110409666
 20
-6921.063115653772
 10
12536.35078405983
 20
-6920.891088305975
 10
12535.50132353519
 20
-6920.731351794358
 10
12534.61570854934
 20
-6920.584467527316
 10
12533.69704756959
 20
-6920.450950910593
 10
12532.74856755948
 20
-6920.331271009593
 10
12531.77360084831
 20
-6920.225848544383
 10
12530.77557266261
 20
-6920.135053721168
 10
12529.75798829969
 20
-6920.059205464508
 10
12528.72442228706
 20
-6919.998570158916
 10
12527.67850260434
 20
-6919.953360298049
 10
12526.62390605005
 20
-6919.923735629573
 10
12525.56433363542
 20
-6919.909798736293
 10
12524.50351047704
 20
-6919.911600312133
 10
12523.4451622103
 20
-6919.929133178974
 10
12522.39300635805
 20
-6919.962335731769
 10
12521.35073718757
 20
-6920.01109174321
 10
12520.32201782159
 20
-6920.075229688318
 10
12519.31045913829
 20
-6920.154524021042
 10
12518.3196151381
 20
-6920.248696319098
 10
12517.35296581502
 20
-6920.35741557926
 10
12516.41390789021
 20
-6920.480300507062
 10
12515.50574295158
 20
-6920.616919822667
 10
12514.63165111241
 20
-6920.766792207894
 10
12513.79471327406
 20
-6920.929392616457
 10
12512.9978637651
 20
-6921.104149540591
 10
12512.24390212114
 20
-6921.290448662119
 10
12511.5354772263
 20
-6921.487635458643
 10
12510.87507539919
 20
-6921.695018147416
 10
12510.26502301366
 20
-6921.911868350135
 10
12509.70745221464
 20
-6922.137423002536
 10
12509.20433106995
 20
-6922.370891340037
 10
12508.75742409837
 20
-6922.611452839756
 10
12508.36829875441
 20
-6922.858262179973
 10
12508.03832405083
 20
-6923.110452205214
 10
12507.76865467326
 20
-6923.367137851418
 10
12507.56024281377
 20
-6923.627417159031
 10
12507.41382096169
 20
-6923.890375525282
 10
12507.32990049934
 20
-6924.155089988239
 10
12507.30827795651
 20
-6924.34921185162
  0
LWPOLYLINE
  5
369DBF
330
18
100
AcDbEntity
  8
姿図
100
AcDbPolyline
 90
       15
 70
   128
 43
0.0
 10
12543.10761808991
 20
-6924.377352845986
 10
12543.10707415635
 20
-6924.359838629186
 10
12543.06532846216
 20
-6924.094405858807
 10
12542.96085397197
 20
-6923.830010765636
 10
12542.79402228253
 20
-6923.567583859039
 10
12542.56542051629
 20
-6923.308047013605
 10
12542.27584709958
 20
-6923.052310575234
 10
12541.92632425807
 20
-6922.80127421069
 10
12541.51807710458
 20
-6922.555818951249
 10
12541.05254185907
 20
-6922.316807786327
 10
12540.53134984701
 20
-6922.085079118488
 10
12539.95633210573
 20
-6921.861446937613
 10
12539.32951154916
 20
-6921.646697507502
 10
12538.65308856718
 20
-6921.441585050015
 10
12537.9294387627
 20
-6921.246829679508
  0
SPLINE
  5
369DC0
330
18
100
AcDbEntity
  8
姿図
100
AcDbSpline
210
0.0
220
0.0
230
1.0
 70
    11
 71
     3
 72
    26
 73
    22
 74
     0
 42
0.000000001
 43
0.0000000001
 40
0.0
 40
0.0
 40
0.0
 40
0.0
 40
0.0537185396085349
 40
0.1074386091431088
 40
0.1611089539041531
 40
0.2147093469853881
 40
0.2683123865595372
 40
0.3219881021880564
 40
0.375726492727872
 40
0.4294546501006998
 40
0.4831359129388597
 40
0.536788688781967
 40
0.5904517716876586
 40
0.6441279918909767
 40
0.6978036492675443
 40
0.751478234714774
 40
0.805156202893718
 40
0.8588277426664244
 40
0.9124840115528149
 40
0.9661421349542314
 40
1.0
 40
1.0
 40
1.0
 40
1.0
 10
12538.32036320292
 20
-6923.068985167427
 30
0.0
 10
12538.29098427113
 20
-6923.113964949369
 30
0.0
 10
12538.23222557084
 20
-6923.203925794296
 30
0.0
 10
12538.10063189187
 20
-6923.263176352499
 30
0.0
 10
12537.95380784058
 20
-6923.256471798865
 30
0.0
 10
12537.8043500714
 20
-6923.180460742507
 30
0.0
 10
12537.67033186145
 20
-6923.044842685182
 30
0.0
 10
12537.56721438554
 20
-6922.864230926345
 30
0.0
 10
12537.50763668179
 20
-6922.658676919157
 30
0.0
 10
12537.49903015981
 20
-6922.451273973696
 30
0.0
 10
12537.54242906128
 20
-6922.265541512863
 30
0.0
 10
12537.63237148248
 20
-6922.122530827583
 30
0.0
 10
12537.75784728515
 20
-6922.038473855369
 30
0.0
 10
12537.90393045317
 20
-6922.0230795763
 30
0.0
 10
12538.05369587257
 20
-6922.078203231315
 30
0.0
 10
12538.19041564657
 20
-6922.197598762986
 30
0.0
 10
12538.29928802891
 20
-6922.367589292865
 30
0.0
 10
12538.36913410481
 20
-6922.569018373194
 30
0.0
 10
12538.39208406855
 20
-6922.777981520702
 30
0.0
 10
12538.37150740025
 20
-6922.950338017938
 30
0.0
 10
12538.33463014165
 20
-6923.035887930585
 30
0.0
 10
12538.32036320292
 20
-6923.068985167427
 30
0.0
  0
SPLINE
  5
369DC1
330
18
100
AcDbEntity
  8
姿図
100
AcDbSpline
210
0.0
220
0.0
230
1.0
 70
    11
 71
     3
 72
    26
 73
    22
 74
     0
 42
0.000000001
 43
0.0000000001
 40
0.0
 40
0.0
 40
0.0
 40
0.0
 40
0.0537185314389505
 40
0.1074385919985883
 40
0.1611089387456031
 40
0.2147088651119938
 40
0.2683123166764605
 40
0.3219880281509168
 40
0.3757265992443683
 40
0.429454762398948
 40
0.4831361619092201
 40
0.5367886537366159
 40
0.5904517376635
 40
0.6441279572349589
 40
0.697804564202201
 40
0.7514782794827694
 40
0.8051562477723933
 40
0.8588277906924506
 40
0.9124841321245541
 40
0.9661423351834209
 40
1.0
 40
1.0
 40
1.0
 40
1.0
 10
12512.96190710294
 20
-6922.832694346396
 30
0.0
 10
12512.92867310284
 20
-6922.893326659369
 30
0.0
 10
12512.86220415662
 20
-6923.014593011237
 30
0.0
 10
12512.72138866913
 20
-6923.14200291133
 30
0.0
 10
12512.5704003628
 20
-6923.209845125194
 30
0.0
 10
12512.42276936777
 20
-6923.208231753232
 30
0.0
 10
12512.29570702518
 20
-6923.138027352525
 30
0.0
 10
12512.20235646898
 20
-6923.006672396683
 30
0.0
 10
12512.15249714203
 20
-6922.828602452664
 30
0.0
 10
12512.15124699082
 20
-6922.62375402366
 30
0.0
 10
12512.19867845902
 20
-6922.415361122951
 30
0.0
 10
12512.28990432141
 20
-6922.227058119452
 30
0.0
 10
12512.41548445818
 20
-6922.08018949774
 30
0.0
 10
12512.56214872314
 20
-6921.991522553935
 30
0.0
 10
12512.7137726907
 20
-6921.971181154524
 30
0.0
 10
12512.85312971652
 20
-6922.021426858186
 30
0.0
 10
12512.96378518131
 20
-6922.136399195636
 30
0.0
 10
12513.03256709313
 20
-6922.303046390059
 30
0.0
 10
12513.05027301619
 20
-6922.501745245779
 30
0.0
 10
12513.02152911318
 20
-6922.686374134885
 30
0.0
 10
12512.97853891709
 20
-6922.791877699082
 30
0.0
 10
12512.96190710294
 20
-6922.832694346396
 30
0.0
  0
SPLINE
  5
369DC2
330
18
100
AcDbEntity
  8
姿図
100
AcDbSpline
210
0.0
220
0.0
230
1.0
 70
     8
 71
     3
 72
    13
 73
     9
 74
     0
 42
0.000000001
 43
0.0000000001
 40
0.0
 40
0.0
 40
0.0
 40
0.0
 40
0.1214282911268215
 40
0.3219453779657793
 40
0.5225075897530477
 40
0.7232676424790786
 40
0.9241534947680801
 40
1.0
 40
1.0
 40
1.0
 40
1.0
 10
12537.78200009608
 20
-6923.145275104946
 30
0.0
 10
12537.79601172314
 20
-6923.112007273298
 30
0.0
 10
12537.83316104415
 20
-6923.023803572701
 30
0.0
 10
12537.84237058277
 20
-6922.842394230251
 30
0.0
 10
12537.81184022561
 20
-6922.631777793956
 30
0.0
 10
12537.73283876885
 20
-6922.439809296257
 30
0.0
 10
12537.64441592715
 20
-6922.306863511005
 30
0.0
 10
12537.57971617907
 20
-6922.265260513658
 30
0.0
 10
12537.5619833421
 20
-6922.253858009144
 30
0.0
  0
SPLINE
  5
369DC3
330
18
100
AcDbEntity
  8
姿図
100
AcDbSpline
210
0.0
220
0.0
230
1.0
 70
     8
 71
     3
 72
    13
 73
     9
 74
     0
 42
0.000000001
 43
0.0000000001
 40
0.0
 40
0.0
 40
0.0
 40
0.0
 40
0.118076245791942
 40
0.3156645129051583
 40
0.5135802513745369
 40
0.7116123304976816
 40
0.9094920602754083
 40
1.0
 40
1.0
 40
1.0
 40
1.0
 10
12512.97975819223
 20
-6922.200774339954
 30
0.0
 10
12512.95188437663
 20
-6922.220533202491
 30
0.0
 10
12512.87736664138
 20
-6922.273356458148
 30
0.0
 10
12512.78410042062
 20
-6922.422078158979
 30
0.0
 10
12512.71195503404
 20
-6922.619638922639
 30
0.0
 10
12512.68989117403
 20
-6922.830050300932
 30
0.0
 10
12512.70449270025
 20
-6922.999818662628
 30
0.0
 10
12512.74171262688
 20
-6923.076537744517
 30
0.0
 10
12512.75339377428
 20
-6923.100615355223
 30
0.0
  0
SPLINE
  5
369DC4
330
18
100
AcDbEntity
  8
姿図
100
AcDbSpline
210
0.0
220
0.0
230
1.0
 70
     8
 71
     3
 72
    22
 73
    18
 74
     0
 42
0.000000001
 43
0.0000000001
 40
0.0
 40
0.0
 40
0.0
 40
0.0
 40
0.0041687231509045
 40
0.5155720694298875
 40
0.7719424130637269
 40
0.8980521471970097
 40
0.9128523515404536
 40
0.9197348471751677
 40
0.9263909220058135
 40
0.9391037072582943
 40
0.9514678426276493
 40
0.9638073401824332
 40
0.9764281011276981
 40
0.9830137341827198
 40
0.9898115743844144
 40
0.9968878179922548
 40
1.0
 40
1.0
 40
1.0
 40
1.0
 10
12524.82250408315
 20
-6882.81145692219
 30
0.0
 10
12524.82236347984
 20
-6882.807491319515
 30
0.0
 10
12524.80497418919
 20
-6882.317040429846
 30
0.0
 10
12524.2059739541
 20
-6881.59263710095
 30
0.0
 10
12523.81476759263
 20
-6880.745488885271
 30
0.0
 10
12523.6762260443
 20
-6880.372444583791
 30
0.0
 10
12523.57666222188
 20
-6880.231300583917
 30
0.0
 10
12523.51439106581
 20
-6880.208796494871
 30
0.0
 10
12523.4428442234
 20
-6880.191221220229
 30
0.0
 10
12523.33293778918
 20
-6880.176798725947
 30
0.0
 10
12523.18822749418
 20
-6880.173052845885
 30
0.0
 10
12523.04852224285
 20
-6880.182829529708
 30
0.0
 10
12522.95105271748
 20
-6880.201519626542
 30
0.0
 10
12522.89251745911
 20
-6880.221615613213
 30
0.0
 10
12522.8608943117
 20
-6880.239438983625
 30
0.0
 10
12522.84460534453
 20
-6880.255347347601
 30
0.0
 10
12522.84611669506
 20
-6880.265055968729
 30
0.0
 10
12522.84657835598
 20
-6880.268021588456
 30
0.0
  0
LWPOLYLINE
  5
369DC5
330
18
100
AcDbEntity
  8
姿図
100
AcDbPolyline
 90
        6
 70
   128
 43
0.0
 10
12524.40275591974
 20
-6896.379428914004
 10
12524.40069539609
 20
-6896.124549561413
 10
12524.3740141166
 20
-6892.823879207174
 10
12524.34005776616
 20
-6888.621641864022
 10
12524.31519369524
 20
-6885.543543517094
 10
12524.3061126857
 20
-6884.41943323277
  0
SPLINE
  5
369DC6
330
18
100
AcDbEntity
  8
姿図
100
AcDbSpline
210
0.0
220
0.0
230
1.0
 70
     8
 71
     3
 72
    22
 73
    18
 74
     0
 42
0.000000001
 43
0.0000000001
 40
0.0
 40
0.0
 40
0.0
 40
0.0
 40
0.0033842958077881
 40
0.0102671614503505
 40
0.0169238432078914
 40
0.0296372237708581
 40
0.0420020990005389
 40
0.0543423976891494
 40
0.0669637565804335
 40
0.0735498138093136
 40
0.0803480459643747
 40
0.0874245688137024
 40
0.0949346470002345
 40
0.6063676480595298
 40
0.8627531019758867
 40
0.9888700294875993
 40
1.0
 40
1.0
 40
1.0
 40
1.0
 10
12530.14085697785
 20
-6880.400305561675
 30
0.0
 10
12530.14309955397
 20
-6880.397112287628
 30
0.0
 10
12530.1499030051
 20
-6880.387424641495
 30
0.0
 10
12530.13138589304
 20
-6880.371455435298
 30
0.0
 10
12530.09381687996
 20
-6880.348384810146
 30
0.0
 10
12530.01338405475
 20
-6880.324545079436
 30
0.0
 10
12529.8854983856
 20
-6880.307223102568
 30
0.0
 10
12529.74128259386
 20
-6880.30286176584
 30
0.0
 10
12529.62249704472
 20
-6880.310759825291
 30
0.0
 10
12529.53779337916
 20
-6880.323715370465
 30
0.0
 10
12529.48078929356
 20
-6880.337069952178
 30
0.0
 10
12529.43325033769
 20
-6880.353831385606
 30
0.0
 10
12528.77219573964
 20
-6880.827864109503
 30
0.0
 10
12528.07913217316
 20
-6881.544031428514
 30
0.0
 10
12527.24146381269
 20
-6882.365904921964
 30
0.0
 10
12526.71331899669
 20
-6882.719827699218
 30
0.0
 10
12526.6522044078
 20
-6882.849498310756
 30
0.0
 10
12526.64724834991
 20
-6882.860013885997
 30
0.0
  0
LWPOLYLINE
  5
369DC7
330
18
100
AcDbEntity
  8
姿図
100
AcDbPolyline
 90
        6
 70
   128
 43
0.0
 10
12527.84530832846
 20
-6884.489684660569
 10
12527.83957328396
 20
-6885.384188505884
 10
12527.81661901271
 20
-6888.962223767885
 10
12527.79075467001
 20
-6892.989280515319
 10
12527.76915779203
 20
-6896.348805186924
 10
12527.76862164211
 20
-6896.432269825109
  0
SPLINE
  5
369DC8
330
18
100
AcDbEntity
  8
姿図
100
AcDbSpline
210
0.0
220
0.0
230
1.0
 70
     8
 71
     3
 72
    19
 73
    15
 74
     0
 42
0.000000001
 43
0.0000000001
 40
0.0
 40
0.0
 40
0.0
 40
0.0
 40
0.5201904992908437
 40
0.7809661493882946
 40
0.9092427222879704
 40
0.9242972272943735
 40
0.9312978054452148
 40
0.9380683520083021
 40
0.950999455709775
 40
0.9635760105340985
 40
0.9761275483827846
 40
0.988965185997911
 40
0.9956640150922638
 40
1.0
 40
1.0
 40
1.0
 40
1.0
 10
12522.32546168587
 20
-6882.963615671674
 30
0.0
 10
12521.37811261685
 20
-6882.538706532438
 30
0.0
 10
12519.95584989662
 20
-6881.900787049552
 30
0.0
 10
12518.25240957276
 20
-6881.16059129074
 30
0.0
 10
12517.55840270216
 20
-6880.828295630873
 30
0.0
 10
12517.25072378929
 20
-6880.707284349012
 30
0.0
 10
12517.15886564314
 20
-6880.692434735031
 30
0.0
 10
12517.06598542798
 20
-6880.683032619517
 30
0.0
 10
12516.94250445961
 20
-6880.680221529845
 30
0.0
 10
12516.80332844652
 20
-6880.690623462524
 30
0.0
 10
12516.6890591214
 20
-6880.713046804139
 30
0.0
 10
12516.62863959748
 20
-6880.739690700657
 30
0.0
 10
12516.60576996579
 20
-6880.761496641636
 30
0.0
 10
12516.60579494826
 20
-6880.771844790496
 30
0.0
 10
12516.60580476479
 20
-6880.775910959373
 30
0.0
  0
SPLINE
  5
369DC9
330
18
100
AcDbEntity
  8
姿図
100
AcDbSpline
210
0.0
220
0.0
230
1.0
 70
     8
 71
     3
 72
    10
 73
     6
 74
     0
 42
0.000000001
 43
0.0000000001
 40
0.0
 40
0.0
 40
0.0
 40
0.0
 40
0.1338506449908446
 40
0.5540665930276012
 40
0.9999999999999998
 40
0.9999999999999998
 40
0.9999999999999998
 40
0.9999999999999998
 10
12522.37254187906
 20
-6883.009668558533
 30
0.0
 10
12522.37300852611
 20
-6883.007525881469
 30
0.0
 10
12522.37494018316
 20
-6882.998656400255
 30
0.0
 10
12522.36145777954
 20
-6882.982640094574
 30
0.0
 10
12522.33769556406
 20
-6882.970081441948
 30
0.0
 10
12522.32546168587
 20
-6882.963615671674
 30
0.0
  0
LWPOLYLINE
  5
369DCA
330
18
100
AcDbEntity
  8
姿図
100
AcDbPolyline
 90
        6
 70
   128
 43
0.0
 10
12520.11560479227
 20
-6896.60116229308
 10
12520.11569755206
 20
-6896.417184138916
 10
12520.11732578735
 20
-6893.118041150653
 10
12520.11945340333
 20
-6888.91774615705
 10
12520.12104650354
 20
-6885.841068563556
 10
12520.12163975754
 20
-6884.717477332767
  0
SPLINE
  5
369DCB
330
18
100
AcDbEntity
  8
姿図
100
AcDbSpline
210
0.0
220
0.0
230
1.0
 70
     8
 71
     3
 72
    18
 73
    14
 74
     0
 42
0.000000001
 43
0.0000000001
 40
0.0
 40
0.0
 40
0.0
 40
0.0
 40
0.0043542950019869
 40
0.0199859641659826
 40
0.0351887165380499
 40
0.0503617531352281
 40
0.0658799595962505
 40
0.0739779361480699
 40
0.0823365160929021
 40
0.091037468588338
 40
0.1002713630199936
 40
0.7290957114521813
 40
1.0
 40
1.0
 40
1.0
 40
1.0
 10
12536.00282641613
 20
-6881.146528492859
 30
0.0
 10
12536.00298832562
 20
-6881.143154987221
 30
0.0
 10
12536.00373148088
 20
-6881.127670789947
 30
0.0
 10
12535.96634870496
 20
-6881.100974438007
 30
0.0
 10
12535.87561323852
 20
-6881.072705925906
 30
0.0
 10
12535.74859039074
 20
-6881.054871643707
 30
0.0
 10
12535.6267122365
 20
-6881.05077749626
 30
0.0
 10
12535.52854784827
 20
-6881.054615246519
 30
0.0
 10
12535.45540784684
 20
-6881.061476892252
 30
0.0
 10
12535.38581557643
 20
-6881.072389117446
 30
0.0
 10
12534.0496829499
 20
-6881.446453568315
 30
0.0
 10
12532.43085936953
 20
-6882.019344788656
 30
0.0
 10
12530.70215469144
 20
-6882.56340509073
 30
0.0
 10
12530.1816494061
 20
-6882.727219226461
 30
0.0
  0
LWPOLYLINE
  5
369DCC
330
18
100
AcDbEntity
  8
姿図
100
AcDbPolyline
 90
        5
 70
   128
 43
0.0
 10
12531.79872986437
 20
-6884.949261863177
 10
12531.8006833614
 20
-6885.77408130676
 10
12531.80847277344
 20
-6889.07337630266
 10
12531.81832287876
 20
-6893.273908586927
 10
12531.8264706925
 20
-6896.772417203823
  0
SPLINE
  5
369DCD
330
18
100
AcDbEntity
  8
姿図
100
AcDbSpline
210
0.0
220
0.0
230
1.0
 70
     8
 71
     3
 72
    16
 73
    12
 74
     0
 42
0.000000001
 43
0.0000000001
 40
0.0
 40
0.0
 40
0.0
 40
0.0
 40
0.0073660534585707
 40
0.0355348080656336
 40
0.0636471496995103
 40
0.0924007220706269
 40
0.1074049623886222
 40
0.1228921161377807
 40
0.1390133812558424
 40
0.1561223403095228
 40
1.0
 40
1.0
 40
1.0
 40
1.0
 10
12540.27542357019
 20
-6882.396979875753
 30
0.0
 10
12540.27692326731
 20
-6882.393914460543
 30
0.0
 10
12540.28415800294
 20
-6882.379126495493
 30
0.0
 10
12540.24333128983
 20
-6882.352927023191
 30
0.0
 10
12540.15682899733
 20
-6882.324383711766
 30
0.0
 10
12540.04942594696
 20
-6882.308906757393
 30
0.0
 10
12539.95288425681
 20
-6882.30304636724
 30
0.0
 10
12539.87471417101
 20
-6882.302369071043
 30
0.0
 10
12539.79367166633
 20
-6882.305772046686
 30
0.0
 10
12538.47044896527
 20
-6882.464668823138
 30
0.0
 10
12537.24250670143
 20
-6882.649597706823
 30
0.0
 10
12536.03896529756
 20
-6882.830851805525
 30
0.0
  0
LWPOLYLINE
  5
369DCE
330
18
100
AcDbEntity
  8
姿図
100
AcDbPolyline
 90
        5
 70
   128
 43
0.0
 10
12526.66956916506
 20
-6896.390274729161
 10
12526.67594005997
 20
-6895.27075755945
 10
12526.71960714286
 20
-6887.569152360445
 10
12526.7295904351
 20
-6885.801755176281
 10
12526.73321496249
 20
-6885.159665893974
  0
LWPOLYLINE
  5
369DCF
330
18
100
AcDbEntity
  8
姿図
100
AcDbPolyline
 90
        4
 70
   128
 43
0.0
 10
12525.29686776278
 20
-6885.131155062416
 10
12525.31093037959
 20
-6887.057029912466
 10
12525.36731793698
 20
-6894.760623363183
 10
12525.37913656981
 20
-6896.371719923063
  0
LWPOLYLINE
  5
369DD0
330
18
100
AcDbEntity
  8
姿図
100
AcDbPolyline
 90
        5
 70
   128
 43
0.0
 10
12522.58638325398
 20
-6896.431857158765
 10
12522.60140519003
 20
-6895.326531649901
 10
12522.70609874645
 20
-6887.618188558985
 10
12522.7301072286
 20
-6885.849248447321
 10
12522.73883055411
 20
-6885.206598772423
  0
SPLINE
  5
369DD1
330
18
100
AcDbEntity
  8
姿図
100
AcDbSpline
210
0.0
220
0.0
230
1.0
 70
     8
 71
     3
 72
    17
 73
    13
 74
     0
 42
0.000000001
 43
0.0000000001
 40
0.0
 40
0.0
 40
0.0
 40
0.0
 40
0.1763782430641248
 40
0.6367135034109181
 40
0.8631542124872561
 40
0.8897288863006394
 40
0.902086868409934
 40
0.9140385352009701
 40
0.936865199389953
 40
0.9590659857177323
 40
0.9812227566344589
 40
1.0
 40
1.0
 40
1.0
 40
1.0
 10
12516.56719481849
 20
-6882.624042868771
 30
0.0
 10
12516.27400090387
 20
-6882.566075040948
 30
0.0
 10
12515.21559074331
 20
-6882.35681511129
 30
0.0
 10
12513.75749310996
 20
-6882.07713026631
 30
0.0
 10
12512.60984957694
 20
-6881.836130598408
 30
0.0
 10
12512.14097999608
 20
-6881.753676903194
 30
0.0
 10
12512.03351150314
 20
-6881.74874098256
 30
0.0
 10
12511.93347315255
 20
-6881.748943706362
 30
0.0
 10
12511.81495683933
 20
-6881.758171762408
 30
0.0
 10
12511.70355030747
 20
-6881.78114302991
 30
0.0
 10
12511.63258886527
 20
-6881.810943570788
 30
0.0
 10
12511.62746550523
 20
-6881.83282456271
 30
0.0
 10
12511.62511531847
 20
-6881.842861807228
 30
0.0
  0
LWPOLYLINE
  5
369DD2
330
18
100
AcDbEntity
  8
姿図
100
AcDbPolyline
 90
        4
 70
   128
 43
0.0
 10
12521.36985596796
 20
-6885.317846367541
 10
12521.36746835724
 20
-6887.242976164113
 10
12521.35812781245
 20
-6894.943571410546
 10
12521.35628482297
 20
-6896.495761359175
  0
LWPOLYLINE
  5
369DD3
330
18
100
AcDbEntity
  8
姿図
100
AcDbPolyline
 90
        5
 70
   128
 43
0.0
 10
12530.53316283865
 20
-6896.622301371005
 10
12530.53015717597
 20
-6895.609683449106
 10
12530.50707602044
 20
-6887.908447657986
 10
12530.50172830459
 20
-6886.141131250879
 10
12530.49978146276
 20
-6885.499070824555
  0
SPLINE
  5
369DD4
330
18
100
AcDbEntity
  8
姿図
100
AcDbSpline
210
0.0
220
0.0
230
1.0
 70
     8
 71
     3
 72
    15
 73
    11
 74
     0
 42
0.000000001
 43
0.0000000001
 40
0.0
 40
0.0
 40
0.0
 40
0.0
 40
0.3327805602239045
 40
0.7775740456258675
 40
0.8297739240783418
 40
0.8540489377814786
 40
0.8775256081452624
 40
0.9223636131457563
 40
0.9659726816293368
 40
1.0
 40
1.0
 40
1.0
 40
1.0
 10
12511.58308845773
 20
-6883.390159224584
 30
0.0
 10
12511.23664562214
 20
-6883.366203393129
 30
0.0
 10
12510.42714834543
 20
-6883.310228270158
 30
0.0
 10
12509.58415621051
 20
-6883.242490063286
 30
0.0
 10
12509.02531650208
 20
-6883.211174808607
 30
0.0
 10
12508.91866098826
 20
-6883.216903629622
 30
0.0
 10
12508.82645204051
 20
-6883.226679549877
 30
0.0
 10
12508.7326977629
 20
-6883.246556894099
 30
0.0
 10
12508.6642571022
 20
-6883.276227647342
 30
0.0
 10
12508.66023253816
 20
-6883.297354541231
 30
0.0
 10
12508.65846860855
 20
-6883.306614265618
 30
0.0
  0
SPLINE
  5
369DD5
330
18
100
AcDbEntity
  8
姿図
100
AcDbSpline
210
0.0
220
0.0
230
1.0
 70
     8
 71
     3
 72
    15
 73
    11
 74
     0
 42
0.000000001
 43
0.0000000001
 40
0.0
 40
0.0
 40
0.0
 40
0.0
 40
0.0135510056981626
 40
0.0766563844949611
 40
0.1412004319547387
 40
0.1748809136723432
 40
0.2096450723618128
 40
0.2458321630653687
 40
0.2842371961035956
 40
1.0
 40
1.0
 40
1.0
 40
1.0
 10
12542.32005975527
 20
-6883.960780438496
 30
0.0
 10
12542.32136595605
 20
-6883.958272719405
 30
0.0
 10
12542.32875497439
 20
-6883.94408685874
 30
0.0
 10
12542.28961606712
 20
-6883.918051962986
 30
0.0
 10
12542.21801340661
 20
-6883.893620169544
 30
0.0
 10
12542.13709921888
 20
-6883.878943884508
 30
0.0
 10
12542.06594785154
 20
-6883.870831846313
 30
0.0
 10
12541.9857523874
 20
-6883.866212363888
 30
0.0
 10
12541.39685170602
 20
-6883.87399628255
 30
0.0
 10
12540.84322177149
 20
-6883.894556509989
 30
0.0
 10
12540.31778473368
 20
-6883.914069734126
 30
0.0
  0
SPLINE
  5
369DD6
330
18
100
AcDbEntity
  8
姿図
100
AcDbSpline
210
0.0
220
0.0
230
1.0
 70
     8
 71
     3
 72
    13
 73
     9
 74
     0
 42
0.000000001
 43
0.0000000001
 40
0.0
 40
0.0
 40
0.0
 40
0.0
 40
0.1422984625502716
 40
0.3945836718130718
 40
0.511897331538087
 40
0.6253624630797875
 40
0.8420652359955948
 40
1.0
 40
1.0
 40
1.0
 40
1.0
 10
12508.61158313969
 20
-6884.849172472057
 30
0.0
 10
12508.58015503747
 20
-6884.850015043745
 30
0.0
 10
12508.49300711085
 20
-6884.852351436037
 30
0.0
 10
12508.37814073461
 20
-6884.857962424131
 30
0.0
 10
12508.28832277029
 20
-6884.873393108937
 30
0.0
 10
12508.21900234114
 20
-6884.891281744315
 30
0.0
 10
12508.1629009658
 20
-6884.916023117883
 30
0.0
 10
12508.16022038466
 20
-6884.937114002307
 30
0.0
 10
12508.15909034053
 20
-6884.946005219886
 30
0.0
  0
ARC
  5
369DD7
330
18
100
AcDbEntity
  8
姿図
100
AcDbCircle
 10
12529.77233943585
 20
-6923.625411857232
 30
0.0
 40
19.44918211984286
100
AcDbArc
 50
222.7054632272156
 51
235.6078938983985
  0
ARC
  5
369DD8
330
18
100
AcDbEntity
  8
姿図
100
AcDbCircle
 10
12529.8310103531
 20
-6925.256091622009
 30
0.0
 40
18.01355565168259
100
AcDbArc
 50
253.8432387837383
 51
257.8481653039044
  0
ARC
  5
369DD9
330
18
100
AcDbEntity
  8
姿図
100
AcDbCircle
 10
12529.83316846458
 20
-6923.517267549484
 30
0.0
 40
19.70766202690705
100
AcDbArc
 50
226.2890017174833
 51
232.2567365013996
  0
SPLINE
  5
369DDA
330
18
100
AcDbEntity
  8
姿図
100
AcDbSpline
210
0.0
220
0.0
230
1.0
 70
     8
 71
     3
 72
    11
 73
     7
 74
     0
 42
0.000000001
 43
0.0000000001
 40
0.0
 40
0.0
 40
0.0
 40
0.0
 40
0.3460741482362027
 40
0.6987196899678184
 40
0.9298586158209531
 40
1.0
 40
1.0
 40
1.0
 40
1.0
 10
12516.67964718137
 20
-6945.833346256968
 30
0.0
 10
12517.07436863873
 20
-6945.916332257151
 30
0.0
 10
12517.87130668139
 20
-6946.083880028675
 30
0.0
 10
12519.11340206607
 20
-6946.192114564495
 30
0.0
 10
12520.03239213818
 20
-6946.234555095481
 30
0.0
 10
12520.48224201808
 20
-6946.232548951013
 30
0.0
 10
12520.58697203925
 20
-6946.232081898422
 30
0.0
  0
LINE
  5
369DDB
330
18
100
AcDbEntity
  8
姿図
100
AcDbLine
 10
12524.60865767824
 20
-6918.01540102254
 30
0.0
 11
12524.93564449878
 21
-6899.203746619289
 31
0.0
  0
LINE
  5
369DDC
330
18
100
AcDbEntity
  8
姿図
100
AcDbLine
 10
12526.91623158964
 20
-6918.035564622913
 30
0.0
 11
12526.61081332034
 21
-6899.218640686377
 31
0.0
  0
LINE
  5
369DDD
330
18
100
AcDbEntity
  8
姿図
100
AcDbLine
 10
12523.48697979529
 20
-6899.281656598349
 30
0.0
 11
12523.73725173193
 21
-6918.029093847758
 31
0.0
  0
LINE
  5
369DDE
330
18
100
AcDbEntity
  8
姿図
100
AcDbLine
 10
12527.79418775078
 20
-6918.064956852799
 30
0.0
 11
12528.03588171803
 21
-6899.322101185751
 31
0.0
  0
LINE
  5
369DDF
330
18
100
AcDbEntity
  8
姿図
100
AcDbLine
 10
12523.82472089818
 20
-6918.026077606248
 30
0.0
 11
12523.66867314226
 21
-6899.617181728143
 31
0.0
  0
LINE
  5
369DE0
330
18
100
AcDbEntity
  8
姿図
100
AcDbLine
 10
12524.19376385695
 20
-6899.635493003528
 30
0.0
 11
12524.34958454788
 21
-6918.017940338434
 31
0.0
  0
LINE
  5
369DE1
330
18
100
AcDbEntity
  8
姿図
100
AcDbLine
 10
12527.13530602174
 20
-6918.04149513832
 30
0.0
 11
12527.23877198251
 21
-6899.662565883821
 31
0.0
  0
LINE
  5
369DE2
330
18
100
AcDbEntity
  8
姿図
100
AcDbLine
 10
12527.76740768644
 20
-6899.653624088252
 30
0.0
 11
12527.66379426908
 21
-6918.058728511116
 31
0.0
  0
LWPOLYLINE
  5
369DE3
330
18
100
AcDbEntity
  8
姿図
100
AcDbPolyline
 90
        3
 70
   128
 43
0.0
 10
12523.77287115902
 20
-6899.662514176789
 10
12524.07731913638
 20
-6899.655990386387
 10
12524.14396671458
 20
-6899.65477444386
  0
LINE
  5
369DE4
330
18
100
AcDbEntity
  8
姿図
100
AcDbLine
 10
12527.2858684342
 20
-6899.683437500761
 30
0.0
 11
12527.64771229719
 21
-6899.69765476847
 31
0.0
  0
LINE
  5
369DE5
330
18
100
AcDbEntity
  8
姿図
100
AcDbLine
 10
12508.32568093185
 20
-6914.011449465816
 30
0.0
 11
12508.40051591242
 21
-6903.070274654679
 31
0.0
  0
LINE
  5
369DE6
330
18
100
AcDbEntity
  8
姿図
100
AcDbLine
 10
12542.15006955718
 20
-6910.7968966503
 30
0.0
 11
12542.1028503334
 21
-6903.369923504368
 31
0.0
  0
LWPOLYLINE
  5
369DE7
330
18
100
AcDbEntity
  8
姿図
100
AcDbPolyline
 90
       19
 70
   128
 43
0.0
 10
12542.42338167722
 20
-6930.612494712756
 10
12542.57476495566
 20
-6930.447821430495
 10
12542.76189770738
 20
-6930.186229067643
 10
12542.88617626467
 20
-6929.922256484672
 10
12542.94715923557
 20
-6929.656850032505
 10
12542.94462710439
 20
-6929.390958981698
 10
12542.87858358227
 20
-6929.125533876355
 10
12542.74927141207
 20
-6928.861526565942
 10
12542.55715082119
 20
-6928.599881093479
 10
12542.30291003126
 20
-6928.341535035752
 10
12541.98746045502
 20
-6928.087412815968
 10
12541.61192883412
 20
-6927.83842370938
 10
12541.17766156825
 20
-6927.595459461217
 10
12540.6862116383
 20
-6927.359389643732
 10
12540.13933799823
 20
-6927.131059181751
 10
12539.53900036037
 20
-6926.911285704107
 10
12538.88734675371
 20
-6926.700856056102
 10
12538.18670996402
 20
-6926.500523242065
 10
12537.86859563611
 20
-6926.417050788247
  0
LWPOLYLINE
  5
369DE8
330
18
100
AcDbEntity
  8
姿図
100
AcDbPolyline
 90
       20
 70
   128
 43
0.0
 10
12512.5345583861
 20
-6926.399566327837
 10
12512.52952859387
 20
-6926.400845903557
 10
12511.80904632018
 20
-6926.595657572203
 10
12511.13651428822
 20
-6926.800942975251
 10
12510.51433935405
 20
-6927.015966971353
 10
12509.94474994973
 20
-6927.239959764993
 10
12509.42978154852
 20
-6927.472119185576
 10
12508.97128314963
 20
-6927.711615646884
 10
12508.57089228741
 20
-6927.957590447995
 10
12508.23004410995
 20
-6928.209162716534
 10
12507.94995681751
 20
-6928.465433006744
 10
12507.73163428325
 20
-6928.725483964282
 10
12507.57585675992
 20
-6928.988383934892
 10
12507.4831834201
 20
-6929.253191586183
 10
12507.4539470074
 20
-6929.518959853985
 10
12507.4882511889
 20
-6929.784736596558
 10
12507.58597304169
 20
-6930.04957185433
 10
12507.74676045903
 20
-6930.312515866124
 10
12507.97003987827
 20
-6930.572627658488
 10
12507.98051171966
 20
-6930.58321097964
  0
LWPOLYLINE
  5
369DE9
330
18
100
AcDbEntity
  8
姿図
100
AcDbPolyline
 90
       55
 70
   128
 43
0.0
 10
12507.20408937567
 20
-6929.265248609791
 10
12507.22618000578
 20
-6929.042939701384
 10
12507.3105704649
 20
-6928.776746875377
 10
12507.45780985964
 20
-6928.512318759636
 10
12507.66738402593
 20
-6928.250585565236
 10
12507.93856039395
 20
-6927.992465851925
 10
12508.27037745151
 20
-6927.73886650692
 10
12508.66167775805
 20
-6927.490678524439
 10
12509.11108430448
 20
-6927.248773660526
 10
12509.61701507471
 20
-6927.014000834972
 10
12510.17769885055
 20
-6926.787186163124
 10
12510.79116221539
 20
-6926.569124355935
 10
12511.45525184382
 20
-6926.360583711229
 10
12512.1676334193
 20
-6926.162294569896
 10
12512.92580733177
 20
-6925.97495462364
 10
12513.72711013551
 20
-6925.799221992936
 10
12514.56872381566
 20
-6925.635712937346
 10
12515.44769683451
 20
-6925.485003216902
 10
12516.36093637668
 20
-6925.347620821771
 10
12517.30524120207
 20
-6925.224049665715
 10
12518.2772886228
 20
-6925.114722305157
 10
12519.27366735612
 20
-6925.020023632645
 10
12520.29087892878
 20
-6924.940286592783
 10
12521.32534495776
 20
-6924.875790383201
 10
12522.3734367475
 20
-6924.826762327789
 10
12523.43147272287
 20
-6924.793374573919
 10
12524.49573227515
 20
-6924.775743295898
 10
12525.56248072602
 20
-6924.773931713059
 10
12526.62797073188
 20
-6924.787945805682
 10
12527.68846068257
 20
-6924.81773633058
 10
12528.74022457604
 20
-6924.863199005857
 10
12529.77956390556
 20
-6924.924172886012
 10
12530.80283521761
 20
-6925.000445363803
 10
12531.80643802787
 20
-6925.091747281965
 10
12532.78685059907
 20
-6925.197758528695
 10
12533.74062897504
 20
-6925.318106963977
 10
12534.6644230896
 20
-6925.452369688605
 10
12535.55498628351
 20
-6925.6000746297
 10
12536.40919105565
 20
-6925.760703210485
 10
12537.22403891086
 20
-6925.93369185403
 10
12537.99666529729
 20
-6926.118432075625
 10
12538.7243572896
 20
-6926.314275299898
 10
12539.40456015416
 20
-6926.52053386331
 10
12540.03488388749
 20
-6926.736483335627
 10
12540.61311174029
 20
-6926.96136435078
 10
12541.1372136252
 20
-6927.194387168038
 10
12541.60535199331
 20
-6927.434734157052
 10
12542.01588180729
 20
-6927.681561116841
 10
12542.36735674891
 20
-6927.933999679055
 10
12542.65854455872
 20
-6928.191164016502
 10
12542.88842538134
 20
-6928.452151252013
 10
12543.05618743637
 20
-6928.716043840513
 10
12543.16124696447
 20
-6928.981916451687
 10
12543.20322591101
 20
-6929.248832297716
 10
12543.20367246068
 20
-6929.262328508186
  0
LWPOLYLINE
  5
369DEA
330
18
100
AcDbEntity
  8
姿図
100
AcDbPolyline
 90
       62
 70
   128
 43
0.0
 10
12507.9848360204
 20
-6930.525647992656
 10
12507.80418740158
 20
-6930.30991286205
 10
12507.64393030943
 20
-6930.047833891638
 10
12507.54653053691
 20
-6929.783870510987
 10
12507.51234027131
 20
-6929.518968524307
 10
12507.54148251601
 20
-6929.254073934197
 10
12507.6338483625
 20
-6928.990137552803
 10
12507.7891130635
 20
-6928.728101843728
 10
12508.00671747328
 20
-6928.468906820377
 10
12508.28588141958
 20
-6928.21348018003
 10
12508.62560902561
 20
-6927.96273467646
 10
12509.02468341488
 20
-6927.717569428328
 10
12509.48167478808
 20
-6927.478861361641
 10
12509.99494701515
 20
-6927.247464893246
 10
12510.56266295725
 20
-6927.024209303465
 10
12511.18279248988
 20
-6926.809892816521
 10
12511.85311250296
 20
-6926.605282600551
 10
12512.57122408309
 20
-6926.411111834315
 10
12513.3345565654
 20
-6926.228074768939
 10
12514.14038069087
 20
-6926.056827413912
 10
12514.98580871364
 20
-6925.897982261114
 10
12515.86781415038
 20
-6925.752108654323
 10
12516.78324110045
 20
-6925.619727861549
 10
12517.72881081108
 20
-6925.501314077518
 10
12518.70114018351
 20
-6925.39729116331
 10
12519.6967490269
 20
-6925.3080321663
 10
12520.71207001358
 20
-6925.233855547947
 10
12521.74347102221
 20
-6925.175027537065
 10
12522.78725982478
 20
-6925.131758347008
 10
12523.83969986456
 20
-6925.104203526463
 10
12524.89702283205
 20
-6925.092460852017
 10
12525.95544507806
 20
-6925.096572834391
 10
12527.01117555636
 20
-6925.116524755859
 10
12528.06043689687
 20
-6925.152244712643
 10
12529.09947326779
 20
-6925.203605609301
 10
12530.12456358659
 20
-6925.270423206743
 10
12531.13203958785
 20
-6925.352458219592
 10
12532.11829404315
 20
-6925.449416909803
 10
12533.07979653912
 20
-6925.560952437455
 10
12534.01310630382
 20
-6925.686665628525
 10
12534.91487943385
 20
-6925.826105813827
 10
12535.78189054884
 20
-6925.978774664841
 10
12536.61103610097
 20
-6926.144125375961
 10
12537.39934714759
 20
-6926.321566070258
 10
12538.14400281267
 20
-6926.510461722685
 10
12538.84233257655
 20
-6926.710134906648
 10
12539.49184248325
 20
-6926.919872441961
 10
12540.09020498845
 20
-6927.13892265389
 10
12540.63527956756
 20
-6927.366502092282
 10
12541.12511304662
 20
-6927.601795449792
 10
12541.55795201728
 20
-6927.843960368395
 10
12541.93224738945
 20
-6928.092130251524
 10
12542.24666026784
 20
-6928.345416749097
 10
12542.50006484998
 20
-6928.602912978523
 10
12542.69155361397
 20
-6928.863697492271
 10
12542.82043958143
 20
-6929.126836343432
 10
12542.886264457
 20
-6929.391387636321
 10
12542.88878803802
 20
-6929.656404143239
 10
12542.82800918039
 20
-6929.920938622858
 10
12542.70413686327
 20
-6930.184041783421
 10
12542.51761893648
 20
-6930.444773552467
 10
12542.41053779722
 20
-6930.564097849208
  0
TEXT
  5
36C05E
330
18
100
AcDbEntity
  8
文字
100
AcDbText
 10
12500.36333606041
 20
-6959.689272583413
 30
0.0
 40
6.5
  1
MMP-080W/FLF
 41
0.6
100
AcDbText
  0
ENDSEC
  0
SECTION
  2
OBJECTS
  0
DICTIONARY
  5
C
330
0
100
AcDbDictionary
281
     1
  3
ACAD_GROUP
350
D
  3
ACAD_IMAGE_VARS
350
2F1759
  3
ACAD_LAYOUT
350
353
  3
ACAD_MLINESTYLE
350
E
  3
ACAD_PLOTSETTINGS
350
354
  3
ACAD_PLOTSTYLENAME
350
351
  3
ACAD_SCALELIST
350
CD53
  3
AcadDim
350
5182D
  3
AcDbVariableDictionary
350
E0D
  3
APPDATA
350
2F1758
  3
DWGPROPS
350
36C0D9
  0
DICTIONARY
  5
361384
330
8
100
AcDbDictionary
280
     1
281
     1
  0
DICTIONARY
  5
559E
330
2
100
AcDbDictionary
280
     1
281
     1
  3
ACAD_LAYERFILTERS
360
29A509
  3
ACAD_LAYERSTATES
360
559F
  3
ACLYDICTIONARY
360
29A508
  0
DICTIONARY
  5
CD7F
330
F
100
AcDbDictionary
280
     1
281
     1
  3
ADSK_XREC_LAYER_RECONCILED
360
CD80
  0
DICTIONARY
  5
CD89
330
2A3
100
AcDbDictionary
280
     1
281
     1
  3
ADSK_XREC_LAYER_RECONCILED
360
CD8A
  0
DICTIONARY
  5
CD8D
330
2F4
100
AcDbDictionary
280
     1
281
     1
  3
ADSK_XREC_LAYER_RECONCILED
360
CD8E
  0
DICTIONARY
  5
D25F
330
18
100
AcDbDictionary
280
     1
281
     1
  3
ACAD_SORTENTS
360
D260
  0
DICTIONARY
  5
D
102
{ACAD_REACTORS
330
C
102
}
330
C
100
AcDbDictionary
281
     1
  3
*A1
350
2F2741
  3
*A10
350
2F274A
  3
*A11
350
2F2755
  3
*A12
350
2F274D
  3
*A13
350
2F2758
  3
*A14
350
2F274E
  3
*A15
350
2F2740
  3
*A16
350
2F275A
  3
*A17
350
2F274B
  3
*A18
350
2F2739
  3
*A19
350
2F273F
  3
*A2
350
2F2751
  3
*A20
350
2F2748
  3
*A21
350
2F273B
  3
*A22
350
2F2759
  3
*A23
350
2F2752
  3
*A24
350
2F2754
  3
*A25
350
2F2756
  3
*A26
350
2F2750
  3
*A27
350
2F2757
  3
*A28
350
2F273E
  3
*A29
350
2F273A
  3
*A3
350
2F2742
  3
*A30
350
2F2753
  3
*A31
350
2F274F
  3
*A32
350
2F274C
  3
*A33
350
2F2745
  3
*A34
350
2F273D
  3
*A4
350
2F2743
  3
*A5
350
2F2747
  3
*A6
350
2F2744
  3
*A7
350
2F273C
  3
*A8
350
2F2746
  3
*A9
350
2F2749
  0
RASTERVARIABLES
  5
2F1759
102
{ACAD_REACTORS
330
C
102
}
330
C
100
AcDbRasterVariables
 90
        0
 70
     1
 71
     1
 72
     0
  0
DICTIONARY
  5
353
102
{ACAD_REACTORS
330
C
102
}
330
C
100
AcDbDictionary
281
     1
  3
Model
350
355
  3
ﾚｲｱｳﾄ1
350
356
  0
DICTIONARY
  5
E
102
{ACAD_REACTORS
330
C
102
}
330
C
100
AcDbDictionary
281
     1
  3
STANDARD
350
1B
  0
DICTIONARY
  5
354
102
{ACAD_REACTORS
330
C
102
}
330
C
100
AcDbDictionary
281
     1
  0
ACDBDICTIONARYWDFLT
  5
351
102
{ACAD_REACTORS
330
C
102
}
330
C
100
AcDbDictionary
281
     1
  3
Normal
350
352
100
AcDbDictionaryWithDefault
340
352
  0
DICTIONARY
  5
CD53
102
{ACAD_REACTORS
330
C
102
}
330
C
100
AcDbDictionary
281
     1
  3
A0
350
CD54
  3
A1
350
35DF8
  3
A2
350
35DF9
  3
A3
350
35DFA
  3
A4
350
35DFB
  3
A5
350
35DFC
  3
A6
350
35DFD
  3
A7
350
35DFE
  3
A8
350
35DFF
  3
A9
350
35E00
  3
B0
350
35E01
  3
B1
350
35E02
  3
B2
350
35E03
  3
B3
350
35E04
  3
B4
350
35E05
  3
B5
350
35E06
  3
B6
350
35E07
  3
B7
350
35E08
  3
B8
350
35E09
  3
B9
350
35E0A
  3
C0
350
35E0B
  3
C1
350
35E0C
  3
C2
350
35E0D
  3
C3
350
35E0E
  3
C4
350
35E0F
  3
C5
350
35E10
  3
C6
350
35E11
  3
C7
350
35E12
  3
C8
350
35E13
  3
C9
350
35E14
  3
D0
350
35E15
  3
D1
350
35E16
  3
D2
350
35E17
  0
XRECORD
  5
5182D
102
{ACAD_REACTORS
330
C
102
}
330
C
100
AcDbXrecord
280
     1
 90
   990106
  3
OPEN30
 60
     0
 61
     0
 62
     4
 63
     4
 64
     1
 65
     0
 66
     0
 67
     3
 68
     1
 69
     0
 70
     0
 71
     0
 72
     0
 40
0.0
170
     0
340
0
  0
DICTIONARY
  5
E0D
102
{ACAD_REACTORS
330
C
102
}
330
C
100
AcDbDictionary
281
     1
  3
DIMASSOC
350
E0E
  3
INDEXCTL
350
D04A
  3
PROJECTNAME
350
E0F
  3
SORTENTS
350
D049
  0
DICTIONARY
  5
2F1758
102
{ACAD_REACTORS
330
C
102
}
330
C
100
AcDbDictionary
281
     1
  0
XRECORD
  5
36C0D9
102
{ACAD_REACTORS
330
C
102
}
330
C
100
AcDbXrecord
280
     1
  1
DWGPROPS COOKIE
  2

  3

  4

  6

  7

  8
SPAX
  9

300
=
301
=
302
=
303
=
304
=
305
=
306
=
307
=
308
=
309
=
 40
0.0
 41
2448636.244629618
 42
2458074.172625185
  1

 90
        0
  0
DICTIONARY
  5
29A509
102
{ACAD_REACTORS
330
559E
102
}
330
559E
100
AcDbDictionary
281
     1
  0
DICTIONARY
  5
559F
102
{ACAD_REACTORS
330
559E
102
}
330
559E
100
AcDbDictionary
281
     1
  0
DICTIONARY
  5
29A508
102
{ACAD_REACTORS
330
559E
102
}
330
559E
100
AcDbDictionary
281
     1
1001
ACAD
1000
<All
  0
XRECORD
  5
CD80
102
{ACAD_REACTORS
330
CD7F
102
}
330
CD7F
100
AcDbXrecord
280
     1
290
     1
  0
XRECORD
  5
CD8A
102
{ACAD_REACTORS
330
CD89
102
}
330
CD89
100
AcDbXrecord
280
     1
290
     1
  0
XRECORD
  5
CD8E
102
{ACAD_REACTORS
330
CD8D
102
}
330
CD8D
100
AcDbXrecord
280
     1
290
     1
  0
SORTENTSTABLE
  5
D260
102
{ACAD_REACTORS
330
D25F
102
}
330
D25F
100
AcDbSortentsTable
330
18
331
8182F
  5
2FEC53
331
3073B9
  5
307455
331
35417E
  5
35417E
  0
GROUP
  5
2F2741
102
{ACAD_REACTORS
330
D
102
}
330
D
100
AcDbGroup
300

 70
     0
 71
     1
  0
GROUP
  5
2F274A
102
{ACAD_REACTORS
330
D
102
}
330
D
100
AcDbGroup
300

 70
     0
 71
     1
  0
GROUP
  5
2F2755
102
{ACAD_REACTORS
330
D
102
}
330
D
100
AcDbGroup
300

 70
     0
 71
     1
  0
GROUP
  5
2F274D
102
{ACAD_REACTORS
330
D
102
}
330
D
100
AcDbGroup
300

 70
     0
 71
     1
  0
GROUP
  5
2F2758
102
{ACAD_REACTORS
330
D
102
}
330
D
100
AcDbGroup
300

 70
     0
 71
     1
  0
GROUP
  5
2F274E
102
{ACAD_REACTORS
330
D
102
}
330
D
100
AcDbGroup
300

 70
     0
 71
     1
  0
GROUP
  5
2F2740
102
{ACAD_REACTORS
330
D
102
}
330
D
100
AcDbGroup
300

 70
     0
 71
     1
  0
GROUP
  5
2F275A
102
{ACAD_REACTORS
330
D
102
}
330
D
100
AcDbGroup
300

 70
     0
 71
     1
  0
GROUP
  5
2F274B
102
{ACAD_REACTORS
330
D
102
}
330
D
100
AcDbGroup
300

 70
     0
 71
     1
  0
GROUP
  5
2F2739
102
{ACAD_REACTORS
330
D
102
}
330
D
100
AcDbGroup
300

 70
     0
 71
     1
  0
GROUP
  5
2F273F
102
{ACAD_REACTORS
330
D
102
}
330
D
100
AcDbGroup
300

 70
     0
 71
     1
  0
GROUP
  5
2F2751
102
{ACAD_REACTORS
330
D
102
}
330
D
100
AcDbGroup
300

 70
     0
 71
     1
  0
GROUP
  5
2F2748
102
{ACAD_REACTORS
330
D
102
}
330
D
100
AcDbGroup
300

 70
     0
 71
     1
  0
GROUP
  5
2F273B
102
{ACAD_REACTORS
330
D
102
}
330
D
100
AcDbGroup
300

 70
     0
 71
     1
  0
GROUP
  5
2F2759
102
{ACAD_REACTORS
330
D
102
}
330
D
100
AcDbGroup
300

 70
     0
 71
     1
  0
GROUP
  5
2F2752
102
{ACAD_REACTORS
330
D
102
}
330
D
100
AcDbGroup
300

 70
     0
 71
     1
  0
GROUP
  5
2F2754
102
{ACAD_REACTORS
330
D
102
}
330
D
100
AcDbGroup
300

 70
     0
 71
     1
  0
GROUP
  5
2F2756
102
{ACAD_REACTORS
330
D
102
}
330
D
100
AcDbGroup
300

 70
     0
 71
     1
  0
GROUP
  5
2F2750
102
{ACAD_REACTORS
330
D
102
}
330
D
100
AcDbGroup
300

 70
     0
 71
     1
  0
GROUP
  5
2F2757
102
{ACAD_REACTORS
330
D
102
}
330
D
100
AcDbGroup
300

 70
     0
 71
     1
  0
GROUP
  5
2F273E
102
{ACAD_REACTORS
330
D
102
}
330
D
100
AcDbGroup
300

 70
     0
 71
     1
  0
GROUP
  5
2F273A
102
{ACAD_REACTORS
330
D
102
}
330
D
100
AcDbGroup
300

 70
     0
 71
     1
  0
GROUP
  5
2F2742
102
{ACAD_REACTORS
330
D
102
}
330
D
100
AcDbGroup
300

 70
     0
 71
     1
  0
GROUP
  5
2F2753
102
{ACAD_REACTORS
330
D
102
}
330
D
100
AcDbGroup
300

 70
     0
 71
     1
  0
GROUP
  5
2F274F
102
{ACAD_REACTORS
330
D
102
}
330
D
100
AcDbGroup
300

 70
     0
 71
     1
  0
GROUP
  5
2F274C
102
{ACAD_REACTORS
330
D
102
}
330
D
100
AcDbGroup
300

 70
     0
 71
     1
  0
GROUP
  5
2F2745
102
{ACAD_REACTORS
330
D
102
}
330
D
100
AcDbGroup
300

 70
     0
 71
     1
  0
GROUP
  5
2F273D
102
{ACAD_REACTORS
330
D
102
}
330
D
100
AcDbGroup
300

 70
     0
 71
     1
  0
GROUP
  5
2F2743
102
{ACAD_REACTORS
330
D
102
}
330
D
100
AcDbGroup
300

 70
     0
 71
     1
  0
GROUP
  5
2F2747
102
{ACAD_REACTORS
330
D
102
}
330
D
100
AcDbGroup
300

 70
     0
 71
     1
  0
GROUP
  5
2F2744
102
{ACAD_REACTORS
330
D
102
}
330
D
100
AcDbGroup
300

 70
     0
 71
     1
  0
GROUP
  5
2F273C
102
{ACAD_REACTORS
330
D
102
}
330
D
100
AcDbGroup
300

 70
     0
 71
     1
  0
GROUP
  5
2F2746
102
{ACAD_REACTORS
330
D
102
}
330
D
100
AcDbGroup
300

 70
     0
 71
     1
  0
GROUP
  5
2F2749
102
{ACAD_REACTORS
330
D
102
}
330
D
100
AcDbGroup
300

 70
     0
 71
     1
  0
LAYOUT
  5
355
102
{ACAD_REACTORS
330
353
102
}
330
353
100
AcDbPlotSettings
  1

  2
JUST PDF 3
  4
A4
  6

 40
3.174999952316284
 41
3.174999952316284
 42
3.175003051757812
 43
3.17498779296875
 44
209.8886566162109
 45
297.0530090332031
 46
14.27171755861491
 47
9.855173074625782
 48
12474.9839198409
 49
-7371.130589890592
140
12824.97435683072
141
-6829.145239613258
142
1.0
143
2.0
 70
  3748
 72
     1
 73
     0
 74
     4
  7
spax form.ctb
 75
    16
147
1.0
148
-12474.9839198409
149
7371.130589890592
100
AcDbLayout
  1
Model
 70
     1
 71
     0
 10
0.0
 20
0.0
 11
12.0
 21
9.0
 12
0.0
 22
0.0
 32
0.0
 14
12500.36333606041
 24
-6959.689272583413
 34
0.0
 15
12545.86333606041
 25
-6880.004981080306
 35
0.0
146
0.0
 13
0.0
 23
0.0
 33
0.0
 16
1.0
 26
0.0
 36
0.0
 17
0.0
 27
1.0
 37
0.0
 76
     0
330
18
331
3572AF
1001
ACAD_PSEXT
1000
JUST PDF 3
1000
JUST PDF 3
1000
JUST PDF 3 Port:
1000

1070
     0
  0
LAYOUT
  5
356
102
{ACAD_REACTORS
330
353
102
}
330
353
100
AcDbPlotSettings
  1

  2
Canon LASER SHOT LBP-750
  4

  6

 40
0.0
 41
0.0
 42
0.0
 43
0.0
 44
0.0
 45
0.0
 46
0.0
 47
0.0
 48
0.0
 49
0.0
140
0.0
141
0.0
142
1.0
143
1.0
 70
   688
 72
     0
 73
     0
 74
     5
  7
spax form.ctb
 75
    16
147
1.0
148
0.0
149
0.0
100
AcDbLayout
  1
ﾚｲｱｳﾄ1
 70
     0
 71
     1
 10
0.0
 20
0.0
 11
12.0
 21
9.0
 12
0.0
 22
0.0
 32
0.0
 14
1.000000000000000E+20
 24
1.000000000000000E+20
 34
1.000000000000000E+20
 15
-1.000000000000000E+20
 25
-1.000000000000000E+20
 35
-1.000000000000000E+20
146
0.0
 13
0.0
 23
0.0
 33
0.0
 16
1.0
 26
0.0
 36
0.0
 17
0.0
 27
1.0
 37
0.0
 76
     0
330
15
  0
MLINESTYLE
  5
1B
102
{ACAD_REACTORS
330
E
102
}
330
E
100
AcDbMlineStyle
  2
STANDARD
 70
     0
  3

 62
     0
 51
90.0
 52
90.0
 71
     2
 49
0.5
 62
   256
  6
BYLAYER
 49
-0.5
 62
   256
  6
BYLAYER
  0
ACDBPLACEHOLDER
  5
352
102
{ACAD_REACTORS
330
351
102
}
330
351
  0
SCALE
  5
CD54
102
{ACAD_REACTORS
330
CD53
102
}
330
CD53
100
AcDbScale
 70
     0
300
1:1
140
1.0
141
1.0
290
     1
1001
ACAD
1000
AcRTDxfName
1000
SCALE
1000
AcRTDxfName
1000
SCALE
  0
SCALE
  5
35DF8
102
{ACAD_REACTORS
330
CD53
102
}
330
CD53
100
AcDbScale
 70
     0
300
1:2
140
1.0
141
2.0
290
     0
1001
ACAD
1000
AcRTDxfName
1000
SCALE
1000
AcRTDxfName
1000
SCALE
  0
SCALE
  5
35DF9
102
{ACAD_REACTORS
330
CD53
102
}
330
CD53
100
AcDbScale
 70
     0
300
1:4
140
1.0
141
4.0
290
     0
1001
ACAD
1000
AcRTDxfName
1000
SCALE
1000
AcRTDxfName
1000
SCALE
  0
SCALE
  5
35DFA
102
{ACAD_REACTORS
330
CD53
102
}
330
CD53
100
AcDbScale
 70
     0
300
1:5
140
1.0
141
5.0
290
     0
1001
ACAD
1000
AcRTDxfName
1000
SCALE
1000
AcRTDxfName
1000
SCALE
  0
SCALE
  5
35DFB
102
{ACAD_REACTORS
330
CD53
102
}
330
CD53
100
AcDbScale
 70
     0
300
1:8
140
1.0
141
8.0
290
     0
1001
ACAD
1000
AcRTDxfName
1000
SCALE
1000
AcRTDxfName
1000
SCALE
  0
SCALE
  5
35DFC
102
{ACAD_REACTORS
330
CD53
102
}
330
CD53
100
AcDbScale
 70
     0
300
1:10
140
1.0
141
10.0
290
     0
1001
ACAD
1000
AcRTDxfName
1000
SCALE
1000
AcRTDxfName
1000
SCALE
  0
SCALE
  5
35DFD
102
{ACAD_REACTORS
330
CD53
102
}
330
CD53
100
AcDbScale
 70
     0
300
1:16
140
1.0
141
16.0
290
     0
1001
ACAD
1000
AcRTDxfName
1000
SCALE
1000
AcRTDxfName
1000
SCALE
  0
SCALE
  5
35DFE
102
{ACAD_REACTORS
330
CD53
102
}
330
CD53
100
AcDbScale
 70
     0
300
1:20
140
1.0
141
20.0
290
     0
1001
ACAD
1000
AcRTDxfName
1000
SCALE
1000
AcRTDxfName
1000
SCALE
  0
SCALE
  5
35DFF
102
{ACAD_REACTORS
330
CD53
102
}
330
CD53
100
AcDbScale
 70
     0
300
1:30
140
1.0
141
30.0
290
     0
1001
ACAD
1000
AcRTDxfName
1000
SCALE
1000
AcRTDxfName
1000
SCALE
  0
SCALE
  5
35E00
102
{ACAD_REACTORS
330
CD53
102
}
330
CD53
100
AcDbScale
 70
     0
300
1:40
140
1.0
141
40.0
290
     0
1001
ACAD
1000
AcRTDxfName
1000
SCALE
1000
AcRTDxfName
1000
SCALE
  0
SCALE
  5
35E01
102
{ACAD_REACTORS
330
CD53
102
}
330
CD53
100
AcDbScale
 70
     0
300
1:50
140
1.0
141
50.0
290
     0
1001
ACAD
1000
AcRTDxfName
1000
SCALE
1000
AcRTDxfName
1000
SCALE
  0
SCALE
  5
35E02
102
{ACAD_REACTORS
330
CD53
102
}
330
CD53
100
AcDbScale
 70
     0
300
1:100
140
1.0
141
100.0
290
     0
1001
ACAD
1000
AcRTDxfName
1000
SCALE
1000
AcRTDxfName
1000
SCALE
  0
SCALE
  5
35E03
102
{ACAD_REACTORS
330
CD53
102
}
330
CD53
100
AcDbScale
 70
     0
300
2:1
140
2.0
141
1.0
290
     0
1001
ACAD
1000
AcRTDxfName
1000
SCALE
1000
AcRTDxfName
1000
SCALE
  0
SCALE
  5
35E04
102
{ACAD_REACTORS
330
CD53
102
}
330
CD53
100
AcDbScale
 70
     0
300
4:1
140
4.0
141
1.0
290
     0
1001
ACAD
1000
AcRTDxfName
1000
SCALE
1000
AcRTDxfName
1000
SCALE
  0
SCALE
  5
35E05
102
{ACAD_REACTORS
330
CD53
102
}
330
CD53
100
AcDbScale
 70
     0
300
8:1
140
8.0
141
1.0
290
     0
1001
ACAD
1000
AcRTDxfName
1000
SCALE
1000
AcRTDxfName
1000
SCALE
  0
SCALE
  5
35E06
102
{ACAD_REACTORS
330
CD53
102
}
330
CD53
100
AcDbScale
 70
     0
300
10:1
140
10.0
141
1.0
290
     0
1001
ACAD
1000
AcRTDxfName
1000
SCALE
1000
AcRTDxfName
1000
SCALE
  0
SCALE
  5
35E07
102
{ACAD_REACTORS
330
CD53
102
}
330
CD53
100
AcDbScale
 70
     0
300
100:1
140
100.0
141
1.0
290
     0
1001
ACAD
1000
AcRTDxfName
1000
SCALE
1000
AcRTDxfName
1000
SCALE
  0
SCALE
  5
35E08
102
{ACAD_REACTORS
330
CD53
102
}
330
CD53
100
AcDbScale
 70
     0
300
1/128" = 1'-0"
140
0.0078125
141
12.0
290
     0
1001
ACAD
1000
AcRTDxfName
1000
SCALE
1000
AcRTDxfName
1000
SCALE
  0
SCALE
  5
35E09
102
{ACAD_REACTORS
330
CD53
102
}
330
CD53
100
AcDbScale
 70
     0
300
1/64" = 1'-0"
140
0.015625
141
12.0
290
     0
1001
ACAD
1000
AcRTDxfName
1000
SCALE
1000
AcRTDxfName
1000
SCALE
  0
SCALE
  5
35E0A
102
{ACAD_REACTORS
330
CD53
102
}
330
CD53
100
AcDbScale
 70
     0
300
1/32" = 1'-0"
140
0.03125
141
12.0
290
     0
1001
ACAD
1000
AcRTDxfName
1000
SCALE
1000
AcRTDxfName
1000
SCALE
  0
SCALE
  5
35E0B
102
{ACAD_REACTORS
330
CD53
102
}
330
CD53
100
AcDbScale
 70
     0
300
1/16" = 1'-0"
140
0.0625
141
12.0
290
     0
1001
ACAD
1000
AcRTDxfName
1000
SCALE
1000
AcRTDxfName
1000
SCALE
  0
SCALE
  5
35E0C
102
{ACAD_REACTORS
330
CD53
102
}
330
CD53
100
AcDbScale
 70
     0
300
3/32" = 1'-0"
140
0.09375
141
12.0
290
     0
1001
ACAD
1000
AcRTDxfName
1000
SCALE
1000
AcRTDxfName
1000
SCALE
  0
SCALE
  5
35E0D
102
{ACAD_REACTORS
330
CD53
102
}
330
CD53
100
AcDbScale
 70
     0
300
1/8" = 1'-0"
140
0.125
141
12.0
290
     0
1001
ACAD
1000
AcRTDxfName
1000
SCALE
1000
AcRTDxfName
1000
SCALE
  0
SCALE
  5
35E0E
102
{ACAD_REACTORS
330
CD53
102
}
330
CD53
100
AcDbScale
 70
     0
300
3/16" = 1'-0"
140
0.1875
141
12.0
290
     0
1001
ACAD
1000
AcRTDxfName
1000
SCALE
1000
AcRTDxfName
1000
SCALE
  0
SCALE
  5
35E0F
102
{ACAD_REACTORS
330
CD53
102
}
330
CD53
100
AcDbScale
 70
     0
300
1/4" = 1'-0"
140
0.25
141
12.0
290
     0
1001
ACAD
1000
AcRTDxfName
1000
SCALE
1000
AcRTDxfName
1000
SCALE
  0
SCALE
  5
35E10
102
{ACAD_REACTORS
330
CD53
102
}
330
CD53
100
AcDbScale
 70
     0
300
3/8" = 1'-0"
140
0.375
141
12.0
290
     0
1001
ACAD
1000
AcRTDxfName
1000
SCALE
1000
AcRTDxfName
1000
SCALE
  0
SCALE
  5
35E11
102
{ACAD_REACTORS
330
CD53
102
}
330
CD53
100
AcDbScale
 70
     0
300
1/2" = 1'-0"
140
0.5
141
12.0
290
     0
1001
ACAD
1000
AcRTDxfName
1000
SCALE
1000
AcRTDxfName
1000
SCALE
  0
SCALE
  5
35E12
102
{ACAD_REACTORS
330
CD53
102
}
330
CD53
100
AcDbScale
 70
     0
300
3/4" = 1'-0"
140
0.75
141
12.0
290
     0
1001
ACAD
1000
AcRTDxfName
1000
SCALE
1000
AcRTDxfName
1000
SCALE
  0
SCALE
  5
35E13
102
{ACAD_REACTORS
330
CD53
102
}
330
CD53
100
AcDbScale
 70
     0
300
1" = 1'-0"
140
1.0
141
12.0
290
     0
1001
ACAD
1000
AcRTDxfName
1000
SCALE
1000
AcRTDxfName
1000
SCALE
  0
SCALE
  5
35E14
102
{ACAD_REACTORS
330
CD53
102
}
330
CD53
100
AcDbScale
 70
     0
300
1-1/2" = 1'-0"
140
1.5
141
12.0
290
     0
1001
ACAD
1000
AcRTDxfName
1000
SCALE
1000
AcRTDxfName
1000
SCALE
  0
SCALE
  5
35E15
102
{ACAD_REACTORS
330
CD53
102
}
330
CD53
100
AcDbScale
 70
     0
300
3" = 1'-0"
140
3.0
141
12.0
290
     0
1001
ACAD
1000
AcRTDxfName
1000
SCALE
1000
AcRTDxfName
1000
SCALE
  0
SCALE
  5
35E16
102
{ACAD_REACTORS
330
CD53
102
}
330
CD53
100
AcDbScale
 70
     0
300
6" = 1'-0"
140
6.0
141
12.0
290
     0
1001
ACAD
1000
AcRTDxfName
1000
SCALE
1000
AcRTDxfName
1000
SCALE
  0
SCALE
  5
35E17
102
{ACAD_REACTORS
330
CD53
102
}
330
CD53
100
AcDbScale
 70
     0
300
1'-0" = 1'-0"
140
12.0
141
12.0
290
     0
1001
ACAD
1000
AcRTDxfName
1000
SCALE
1000
AcRTDxfName
1000
SCALE
  0
DICTIONARYVAR
  5
E0E
102
{ACAD_REACTORS
330
E0D
102
}
330
E0D
100
DictionaryVariables
280
     0
  1
1
  0
DICTIONARYVAR
  5
D04A
102
{ACAD_REACTORS
330
E0D
102
}
330
E0D
100
DictionaryVariables
280
     0
  1
0
  0
DICTIONARYVAR
  5
E0F
102
{ACAD_REACTORS
330
E0D
102
}
330
E0D
100
DictionaryVariables
280
     0
  1

  0
DICTIONARYVAR
  5
D049
102
{ACAD_REACTORS
330
E0D
102
}
330
E0D
100
DictionaryVariables
280
     0
  1
127
  0
ENDSEC
  0
EOF
