  0
SECTION
  2
HEADER
  9
$ACADVER
  1
AC1015
  9
$ACADMAINTVER
 70
     6
  9
$DWGCODEPAGE
  3
ANSI_932
  9
$INSBASE
 10
0.0
 20
0.0
 30
0.0
  9
$EXTMIN
 10
11500.01562038183
 20
-6736.916358483896
 30
0.0
  9
$EXTMAX
 10
11679.93562038183
 20
-6566.777278213825
 30
0.0
  9
$LIMMIN
 10
0.0
 20
0.0
  9
$LIMMAX
 10
420.0
 20
297.0
  9
$ORTHOMODE
 70
     0
  9
$REGENMODE
 70
     1
  9
$FILLMODE
 70
     1
  9
$QTEXTMODE
 70
     0
  9
$MIRRTEXT
 70
     1
  9
$LTSCALE
 40
5.0
  9
$ATTMODE
 70
     0
  9
$TEXTSIZE
 40
4.396637488258398
  9
$TRACEWID
 40
1.0
  9
$TEXTSTYLE
  7
STANDARD
  9
$CLAYER
  8
0
  9
$CELTYPE
  6
BYLAYER
  9
$CECOLOR
 62
   256
  9
$CELTSCALE
 40
1.0
  9
$DISPSILH
 70
     0
  9
$DIMSCALE
 40
1.0
  9
$DIMASZ
 40
2.5
  9
$DIMEXO
 40
1.5
  9
$DIMDLI
 40
0.38
  9
$DIMRND
 40
0.0
  9
$DIMDLE
 40
0.0
  9
$DIMEXE
 40
1.0
  9
$DIMTP
 40
0.0
  9
$DIMTM
 40
0.0
  9
$DIMTXT
 40
2.500000000000003
  9
$DIMCEN
 40
0.0
  9
$DIMTSZ
 40
0.0
  9
$DIMTOL
 70
     0
  9
$DIMLIM
 70
     0
  9
$DIMTIH
 70
     0
  9
$DIMTOH
 70
     0
  9
$DIMSE1
 70
     0
  9
$DIMSE2
 70
     0
  9
$DIMTAD
 70
     3
  9
$DIMZIN
 70
     8
  9
$DIMBLK
  1

  9
$DIMASO
 70
     1
  9
$DIMSHO
 70
     0
  9
$DIMPOST
  1

  9
$DIMAPOST
  1

  9
$DIMALT
 70
     0
  9
$DIMALTD
 70
     0
  9
$DIMALTF
 40
25.4
  9
$DIMLFAC
 40
1.0
  9
$DIMTOFL
 70
     1
  9
$DIMTVP
 40
0.0
  9
$DIMTIX
 70
     0
  9
$DIMSOXD
 70
     0
  9
$DIMSAH
 70
     1
  9
$DIMBLK1
  1
OPEN
  9
$DIMBLK2
  1
OPEN
  9
$DIMSTYLE
  2
STANDARD
  9
$DIMCLRD
 70
     8
  9
$DIMCLRE
 70
     8
  9
$DIMCLRT
 70
   256
  9
$DIMTFAC
 40
1.0
  9
$DIMGAP
 40
1.0
  9
$DIMJUST
 70
     0
  9
$DIMSD1
 70
     0
  9
$DIMSD2
 70
     0
  9
$DIMTOLJ
 70
     1
  9
$DIMTZIN
 70
     0
  9
$DIMALTZ
 70
     0
  9
$DIMALTTZ
 70
     0
  9
$DIMUPT
 70
     0
  9
$DIMDEC
 70
     2
  9
$DIMTDEC
 70
     2
  9
$DIMALTU
 70
     2
  9
$DIMALTTD
 70
     0
  9
$DIMTXSTY
  7
STANDARD
  9
$DIMAUNIT
 70
     0
  9
$DIMADEC
 70
     2
  9
$DIMALTRND
 40
0.0
  9
$DIMAZIN
 70
     2
  9
$DIMDSEP
 70
    46
  9
$DIMATFIT
 70
     1
  9
$DIMFRAC
 70
     0
  9
$DIMLDRBLK
  1
OPEN
  9
$DIMLUNIT
 70
     2
  9
$DIMLWD
 70
    -2
  9
$DIMLWE
 70
    -2
  9
$DIMTMOVE
 70
     0
  9
$LUNITS
 70
     2
  9
$LUPREC
 70
     2
  9
$SKETCHINC
 40
0.1
  9
$FILLETRAD
 40
5.0
  9
$AUNITS
 70
     0
  9
$AUPREC
 70
     1
  9
$MENU
  1
FM
  9
$ELEVATION
 40
0.0
  9
$PELEVATION
 40
0.0
  9
$THICKNESS
 40
0.0
  9
$LIMCHECK
 70
     0
  9
$CHAMFERA
 40
0.0
  9
$CHAMFERB
 40
0.0
  9
$CHAMFERC
 40
0.0
  9
$CHAMFERD
 40
0.0
  9
$SKPOLY
 70
     0
  9
$TDCREATE
 40
2448636.619629618
  9
$TDUCREATE
 40
2448636.244629618
  9
$TDUPDATE
 40
2458075.439645741
  9
$TDUUPDATE
 40
2458075.064645741
  9
$TDINDWG
 40
50.2739940394
  9
$TDUSRTIMER
 40
2458075.063952674
  9
$USRTIMER
 70
     1
  9
$ANGBASE
 50
0.0
  9
$ANGDIR
 70
     0
  9
$PDMODE
 70
     3
  9
$PDSIZE
 40
0.0
  9
$PLINEWID
 40
0.0
  9
$SPLFRAME
 70
     0
  9
$SPLINETYPE
 70
     6
  9
$SPLINESEGS
 70
     8
  9
$HANDSEED
  5
1CAAAD
  9
$SURFTAB1
 70
     6
  9
$SURFTAB2
 70
     6
  9
$SURFTYPE
 70
     6
  9
$SURFU
 70
     6
  9
$SURFV
 70
     6
  9
$UCSBASE
  2

  9
$UCSNAME
  2

  9
$UCSORG
 10
0.0
 20
0.0
 30
0.0
  9
$UCSXDIR
 10
1.0
 20
0.0
 30
0.0
  9
$UCSYDIR
 10
0.0
 20
1.0
 30
0.0
  9
$UCSORTHOREF
  2

  9
$UCSORTHOVIEW
 70
     0
  9
$UCSORGTOP
 10
0.0
 20
0.0
 30
0.0
  9
$UCSORGBOTTOM
 10
0.0
 20
0.0
 30
0.0
  9
$UCSORGLEFT
 10
0.0
 20
0.0
 30
0.0
  9
$UCSORGRIGHT
 10
0.0
 20
0.0
 30
0.0
  9
$UCSORGFRONT
 10
0.0
 20
0.0
 30
0.0
  9
$UCSORGBACK
 10
0.0
 20
0.0
 30
0.0
  9
$PUCSBASE
  2

  9
$PUCSNAME
  2

  9
$PUCSORG
 10
0.0
 20
0.0
 30
0.0
  9
$PUCSXDIR
 10
1.0
 20
0.0
 30
0.0
  9
$PUCSYDIR
 10
0.0
 20
1.0
 30
0.0
  9
$PUCSORTHOREF
  2

  9
$PUCSORTHOVIEW
 70
     0
  9
$PUCSORGTOP
 10
0.0
 20
0.0
 30
0.0
  9
$PUCSORGBOTTOM
 10
0.0
 20
0.0
 30
0.0
  9
$PUCSORGLEFT
 10
0.0
 20
0.0
 30
0.0
  9
$PUCSORGRIGHT
 10
0.0
 20
0.0
 30
0.0
  9
$PUCSORGFRONT
 10
0.0
 20
0.0
 30
0.0
  9
$PUCSORGBACK
 10
0.0
 20
0.0
 30
0.0
  9
$USERI1
 70
     0
  9
$USERI2
 70
     0
  9
$USERI3
 70
     0
  9
$USERI4
 70
     0
  9
$USERI5
 70
     0
  9
$USERR1
 40
0.0
  9
$USERR2
 40
0.0
  9
$USERR3
 40
0.0
  9
$USERR4
 40
0.0
  9
$USERR5
 40
0.0
  9
$WORLDVIEW
 70
     0
  9
$SHADEDGE
 70
     3
  9
$SHADEDIF
 70
    70
  9
$TILEMODE
 70
     1
  9
$MAXACTVP
 70
    16
  9
$PINSBASE
 10
0.0
 20
0.0
 30
0.0
  9
$PLIMCHECK
 70
     0
  9
$PEXTMIN
 10
1.000000000000000E+20
 20
1.000000000000000E+20
 30
1.000000000000000E+20
  9
$PEXTMAX
 10
-1.000000000000000E+20
 20
-1.000000000000000E+20
 30
-1.000000000000000E+20
  9
$PLIMMIN
 10
0.0
 20
0.0
  9
$PLIMMAX
 10
0.0
 20
0.0
  9
$UNITMODE
 70
     0
  9
$VISRETAIN
 70
     0
  9
$PLINEGEN
 70
     0
  9
$PSLTSCALE
 70
     0
  9
$TREEDEPTH
 70
  3020
  9
$CMLSTYLE
  2
STANDARD
  9
$CMLJUST
 70
     0
  9
$CMLSCALE
 40
1.0
  9
$PROXYGRAPHICS
 70
     1
  9
$MEASUREMENT
 70
     0
  9
$CELWEIGHT
370
    -1
  9
$ENDCAPS
280
     0
  9
$JOINSTYLE
280
     0
  9
$LWDISPLAY
290
     0
  9
$INSUNITS
 70
     0
  9
$HYPERLINKBASE
  1

  9
$STYLESHEET
  1
spax form.ctb
  9
$XEDIT
290
     1
  9
$CEPSNTYPE
380
     0
  9
$PSTYLEMODE
290
     1
  9
$FINGERPRINTGUID
  2
{BBAEEBA6-8B94-11D3-9160-00E0294F7E09}
  9
$VERSIONGUID
  2
{D401CBA7-5C2D-4869-8813-88EA9E11B279}
  9
$EXTNAMES
290
     1
  9
$PSVPSCALE
 40
0.0
  9
$OLESTARTUP
290
     0
  0
ENDSEC
  0
SECTION
  2
CLASSES
  0
CLASS
  1
LWPOLYLINE
  2
AcDbPolyline
  3
ObjectDBX Classes
 90
        0
280
     0
281
     1
  0
CLASS
  1
ACDBDICTIONARYWDFLT
  2
AcDbDictionaryWithDefault
  3
ObjectDBX Classes
 90
        0
280
     0
281
     0
  0
CLASS
  1
ACDBPLACEHOLDER
  2
AcDbPlaceHolder
  3
ObjectDBX Classes
 90
        0
280
     0
281
     0
  0
CLASS
  1
LAYOUT
  2
AcDbLayout
  3
ObjectDBX Classes
 90
        0
280
     0
281
     0
  0
CLASS
  1
DICTIONARYVAR
  2
AcDbDictionaryVar
  3
ObjectDBX Classes
 90
        0
280
     0
281
     0
  0
CLASS
  1
MATERIAL
  2
AcDbMaterial
  3
ObjectDBX Classes
 90
     1153
280
     0
281
     0
  0
CLASS
  1
VISUALSTYLE
  2
AcDbVisualStyle
  3
ObjectDBX Classes
 90
     4095
280
     0
281
     0
  0
CLASS
  1
TABLESTYLE
  2
AcDbTableStyle
  3
ObjectDBX Classes
 90
     4095
280
     0
281
     0
  0
CLASS
  1
SCALE
  2
AcDbScale
  3
ObjectDBX Classes
 90
     1153
280
     0
281
     0
  0
CLASS
  1
MLEADERSTYLE
  2
AcDbMLeaderStyle
  3
ACDB_MLEADERSTYLE_CLASS
 90
     4095
280
     0
281
     0
  0
CLASS
  1
CELLSTYLEMAP
  2
AcDbCellStyleMap
  3
ObjectDBX Classes
 90
     1152
280
     0
281
     0
  0
CLASS
  1
SORTENTSTABLE
  2
AcDbSortentsTable
  3
ObjectDBX Classes
 90
        0
280
     0
281
     0
  0
CLASS
  1
MULTILEADER
  2
AcDbMLeader
  3
ACDB_MLEADER_CLASS
 90
     1025
280
     0
281
     1
  0
CLASS
  1
DIMASSOC
  2
AcDbDimAssoc
  3
"AcDbDimAssoc|Product Desc:     AcDim ARX App For Dimension|Company:          Autodesk, Inc.|WEB Address:      www.autodesk.com"
 90
        0
280
     0
281
     0
  0
CLASS
  1
RASTERVARIABLES
  2
AcDbRasterVariables
  3
ISM
 90
        0
280
     0
281
     0
  0
CLASS
  1
SUN
  2
AcDbSun
  3
SCENEOE
 90
     1153
280
     0
281
     0
  0
CLASS
  1
AEC_VARS_DWG_SETUP
  2
AecDbVarsDwgSetup
  3
AecBase60
 90
      129
280
     0
281
     0
  0
ENDSEC
  0
SECTION
  2
TABLES
  0
TABLE
  2
VPORT
  5
8
330
0
100
AcDbSymbolTable
 70
     1
  0
VPORT
  5
12C7D1
330
8
100
AcDbSymbolTableRecord
100
AcDbViewportTableRecord
  2
*Active
 70
     0
 10
0.0
 20
0.0
 11
1.0
 21
1.0
 12
11589.97562038183
 22
-6651.84681834886
 13
0.0
 23
0.0
 14
1.0
 24
1.0
 15
20.0
 25
20.0
 16
0.0
 26
0.0
 36
1.0
 17
0.0
 27
0.0
 37
0.0
 40
173.5418618754722
 41
2.262839879154078
 42
50.0
 43
0.0
 44
0.0
 50
0.0
 51
0.0
 71
    16
 72
   100
 73
     1
 74
     0
 75
     0
 76
     0
 77
     0
 78
     0
281
     0
 65
     1
110
0.0
120
0.0
130
0.0
111
1.0
121
0.0
131
0.0
112
0.0
122
1.0
132
0.0
 79
     0
146
0.0
  0
ENDTAB
  0
TABLE
  2
LTYPE
  5
5
330
0
100
AcDbSymbolTable
 70
     2
  0
LTYPE
  5
12
330
5
100
AcDbSymbolTableRecord
100
AcDbLinetypeTableRecord
  2
BYBLOCK
 70
     0
  3

 72
    65
 73
     0
 40
0.0
  0
LTYPE
  5
13
330
5
100
AcDbSymbolTableRecord
100
AcDbLinetypeTableRecord
  2
BYLAYER
 70
     0
  3

 72
    65
 73
     0
 40
0.0
  0
LTYPE
  5
14
330
5
100
AcDbSymbolTableRecord
100
AcDbLinetypeTableRecord
  2
CONTINUOUS
 70
     0
  3
Solid line
 72
    65
 73
     0
 40
0.0
  0
LTYPE
  5
18DC1F
330
5
100
AcDbSymbolTableRecord
100
AcDbLinetypeTableRecord
  2
SLD-実線
 70
     0
  3
SolidWorks Line Style
 72
    65
 73
     0
 40
0.0
  0
ENDTAB
  0
TABLE
  2
LAYER
  5
2
102
{ACAD_XDICTIONARY
360
8BF
102
}
330
0
100
AcDbSymbolTable
 70
     3
  0
LAYER
  5
F
102
{ACAD_XDICTIONARY
360
A60
102
}
330
2
100
AcDbSymbolTableRecord
100
AcDbLayerTableRecord
  2
0
 70
     0
 62
     7
  6
CONTINUOUS
370
    -3
390
616
  0
LAYER
  5
34
102
{ACAD_XDICTIONARY
360
A66
102
}
330
2
100
AcDbSymbolTableRecord
100
AcDbLayerTableRecord
  2
寸法線
 70
     0
 62
     7
  6
CONTINUOUS
370
    -3
390
616
  0
LAYER
  5
2F4
102
{ACAD_XDICTIONARY
360
A6E
102
}
330
2
100
AcDbSymbolTableRecord
100
AcDbLayerTableRecord
  2
文字
 70
     0
 62
     7
  6
CONTINUOUS
370
    -3
390
616
  0
ENDTAB
  0
TABLE
  2
STYLE
  5
3
330
0
100
AcDbSymbolTable
 70
     1
  0
STYLE
  5
10
330
3
100
AcDbSymbolTableRecord
100
AcDbTextStyleTableRecord
  2
STANDARD
 70
     0
 40
0.0
 41
1.0
 50
0.0
 71
     0
 42
4.396637488258398
  3
MONOTXT
  4
BIGFONT
  0
ENDTAB
  0
TABLE
  2
VIEW
  5
6
330
0
100
AcDbSymbolTable
 70
     0
  0
ENDTAB
  0
TABLE
  2
UCS
  5
7
330
0
100
AcDbSymbolTable
 70
     0
  0
ENDTAB
  0
TABLE
  2
APPID
  5
9
330
0
100
AcDbSymbolTable
 70
    17
  0
APPID
  5
11
330
9
100
AcDbSymbolTableRecord
100
AcDbRegAppTableRecord
  2
ACAD
 70
     0
  0
APPID
  5
8BB
330
9
100
AcDbSymbolTableRecord
100
AcDbRegAppTableRecord
  2
ACAD_PSEXT
 70
     0
  0
APPID
  5
A5A
330
9
100
AcDbSymbolTableRecord
100
AcDbRegAppTableRecord
  2
ACAD_MLEADERVER
 70
     0
  0
APPID
  5
A5E
330
9
100
AcDbSymbolTableRecord
100
AcDbRegAppTableRecord
  2
ACAD_DSTYLE_DIMJAG
 70
     0
  0
APPID
  5
A5F
330
9
100
AcDbSymbolTableRecord
100
AcDbRegAppTableRecord
  2
ACAD_DSTYLE_DIMTALN
 70
     0
  0
APPID
  5
12C0
330
9
100
AcDbSymbolTableRecord
100
AcDbRegAppTableRecord
  2
ACAD_EXEMPT_FROM_CAD_STANDARDS
 70
     0
  0
APPID
  5
1C50
330
9
100
AcDbSymbolTableRecord
100
AcDbRegAppTableRecord
  2
AcAecLayerStandard
 70
     0
  0
APPID
  5
5088
330
9
100
AcDbSymbolTableRecord
100
AcDbRegAppTableRecord
  2
ACAD_DSTYLE_DIMRADIAL_EXTENSION
 70
     0
  0
APPID
  5
14AF3
330
9
100
AcDbSymbolTableRecord
100
AcDbRegAppTableRecord
  2
WACOM_STRING
 70
     0
  0
APPID
  5
14AF4
330
9
100
AcDbSymbolTableRecord
100
AcDbRegAppTableRecord
  2
WACOM_DRSYM_ARROW
 70
     0
  0
APPID
  5
1E1A8
330
9
100
AcDbSymbolTableRecord
100
AcDbRegAppTableRecord
  2
GENIUS_GENODEF_13
 70
     0
  0
APPID
  5
1E1A9
330
9
100
AcDbSymbolTableRecord
100
AcDbRegAppTableRecord
  2
GENIUS_GENREC_14
 70
     0
  0
APPID
  5
1E1AA
330
9
100
AcDbSymbolTableRecord
100
AcDbRegAppTableRecord
  2
GENIUS_GENOBJ-N-REC_13
 70
     0
  0
APPID
  5
27C72
330
9
100
AcDbSymbolTableRecord
100
AcDbRegAppTableRecord
  2
ASK_MEN_XD
 70
     0
  0
APPID
  5
29316
330
9
100
AcDbSymbolTableRecord
100
AcDbRegAppTableRecord
  2
ACAD_DSTYLE_DIMBREAK
 70
     0
  0
APPID
  5
1318B0
330
9
100
AcDbSymbolTableRecord
100
AcDbRegAppTableRecord
  2
ACAD_SPLINE_DATA
 70
     0
  0
APPID
  5
1318B1
330
9
100
AcDbSymbolTableRecord
100
AcDbRegAppTableRecord
  2
ACAD_SPLINE_DATA2
 70
     0
  0
ENDTAB
  0
TABLE
  2
DIMSTYLE
  5
A
330
0
100
AcDbSymbolTable
 70
     1
100
AcDbDimStyleTable
  0
DIMSTYLE
105
1CC
330
A
100
AcDbSymbolTableRecord
100
AcDbDimStyleTableRecord
  2
STANDARD
 70
     0
 41
2.5
 42
1.5
 44
1.0
 73
     0
 74
     0
 77
     3
 78
     8
 79
     2
140
2.500000000000003
141
0.0
147
1.0
171
     0
172
     1
173
     1
176
     8
177
     8
271
     2
178
   256
179
     2
271
     2
272
     2
274
     0
289
     1
340
10
341
608
343
608
344
608
1001
ACAD_DSTYLE_DIMJAG
1070
   388
1040
1.5
1001
ACAD_DSTYLE_DIMTALN
1070
   392
1070
     0
  0
ENDTAB
  0
TABLE
  2
BLOCK_RECORD
  5
1
330
0
100
AcDbSymbolTable
 70
     1
  0
BLOCK_RECORD
  5
18
102
{ACAD_XDICTIONARY
360
143F
102
}
330
1
100
AcDbSymbolTableRecord
100
AcDbBlockTableRecord
  2
*MODEL_SPACE
340
619
  0
BLOCK_RECORD
  5
15
330
1
100
AcDbSymbolTableRecord
100
AcDbBlockTableRecord
  2
*PAPER_SPACE
340
61A
  0
BLOCK_RECORD
  5
608
330
1
100
AcDbSymbolTableRecord
100
AcDbBlockTableRecord
  2
_OPEN
340
0
  0
ENDTAB
  0
ENDSEC
  0
SECTION
  2
BLOCKS
  0
BLOCK
  5
39
330
18
100
AcDbEntity
  8
0
100
AcDbBlockBegin
  2
*MODEL_SPACE
 70
     0
 10
0.0
 20
0.0
 30
0.0
  3
*MODEL_SPACE
  1
*MODEL_SPACE
  0
ENDBLK
  5
3A
330
18
100
AcDbEntity
  8
0
100
AcDbBlockEnd
  0
BLOCK
  5
37
330
15
100
AcDbEntity
 67
     1
  8
0
100
AcDbBlockBegin
  2
*PAPER_SPACE
 70
     0
 10
0.0
 20
0.0
 30
0.0
  3
*PAPER_SPACE
  1
*PAPER_SPACE
  0
ENDBLK
  5
38
330
15
100
AcDbEntity
 67
     1
  8
0
100
AcDbBlockEnd
  0
BLOCK
  5
609
330
608
100
AcDbEntity
  8
0
100
AcDbBlockBegin
  2
_OPEN
 70
     0
 10
0.0
 20
0.0
 30
0.0
  3
_OPEN
  1
_OPEN
  0
LINE
  5
60A
330
608
100
AcDbEntity
  8
0
  6
ByBlock
 62
     0
100
AcDbLine
 10
-1.0
 20
0.1666666666666667
 30
0.0
 11
0.0
 21
0.0
 31
0.0
  0
LINE
  5
60B
330
608
100
AcDbEntity
  8
0
  6
ByBlock
 62
     0
100
AcDbLine
 10
0.0
 20
0.0
 30
0.0
 11
-1.0
 21
-0.1666666666666667
 31
0.0
  0
LINE
  5
60C
330
608
100
AcDbEntity
  8
0
  6
ByBlock
 62
     0
100
AcDbLine
 10
0.0
 20
0.0
 30
0.0
 11
-1.0
 21
0.0
 31
0.0
  0
ENDBLK
  5
60D
330
608
100
AcDbEntity
  8
0
100
AcDbBlockEnd
  0
ENDSEC
  0
SECTION
  2
ENTITIES
  0
MTEXT
  5
D0CC6
330
18
100
AcDbEntity
  8
寸法線
100
AcDbMText
 10
2610.774875364868
 20
-2740.315466585338
 30
0.0
 40
2.500000000000003
 41
0.0
 71
     9
 72
     1
  1
\A1;
 73
     1
 44
1.0
  0
MTEXT
  5
F6D77
330
18
100
AcDbEntity
  8
文字
100
AcDbMText
 10
5821.057140836062
 20
-2842.341718131323
 30
0.0
 40
2.5
 41
64.39156592258223
 71
     1
 72
     5
  1
   
 73
     1
 44
1.0
  0
MTEXT
  5
F6D78
330
18
100
AcDbEntity
  8
寸法線
100
AcDbMText
 10
6222.662262480188
 20
-2968.738290481128
 30
0.0
 40
3.000000000000001
 41
0.0
 71
     7
 72
     1
  1
\A1;
 73
     1
 44
1.0
  0
TEXT
  5
1B80D3
330
18
100
AcDbEntity
  8
文字
100
AcDbText
 10
11500.01562038183
 20
-6736.916358483896
 30
0.0
 40
13.0
  1
MMP-100D/3H/WCL・MCL・SCL
 41
0.6
100
AcDbText
  0
LINE
  5
1B9318
330
18
100
AcDbEntity
  8
0
  6
SLD-実線
 62
     8
370
    15
100
AcDbLine
 10
11600.28940322352
 20
-6587.168888495531
 30
0.0
 11
11600.28940322352
 21
-6585.965579135276
 31
0.0
  0
LINE
  5
1B9319
330
18
100
AcDbEntity
  8
0
  6
SLD-実線
 62
     8
370
    15
100
AcDbLine
 10
11582.7894033939
 20
-6585.965579199702
 30
0.0
 11
11582.7894033939
 21
-6592.292162327591
 31
0.0
  0
LINE
  5
1B931A
330
18
100
AcDbEntity
  8
0
  6
SLD-実線
 62
     8
370
    15
100
AcDbLine
 10
11598.08908310987
 20
-6648.145839508075
 30
0.0
 11
11598.03420879665
 21
-6648.201399750831
 31
0.0
  0
LINE
  5
1B931B
330
18
100
AcDbEntity
  8
0
  6
SLD-実線
 62
     8
370
    15
100
AcDbLine
 10
11597.82201346729
 20
-6649.621438297836
 30
0.0
 11
11597.85824922182
 21
-6649.690614339656
 31
0.0
  0
LINE
  5
1B931C
330
18
100
AcDbEntity
  8
0
  6
SLD-実線
 62
     8
370
    15
100
AcDbLine
 10
11598.08195886471
 20
-6649.881053472246
 30
0.0
 11
11598.3100966557
 21
-6649.915143930193
 31
0.0
  0
LINE
  5
1B931D
330
18
100
AcDbEntity
  8
0
  6
SLD-実線
 62
     8
370
    15
100
AcDbLine
 10
11598.58683133564
 20
-6648.063202862808
 30
0.0
 11
11598.35869354464
 21
-6648.029112404861
 31
0.0
  0
LINE
  5
1B931E
330
18
100
AcDbEntity
  8
0
  6
SLD-実線
 62
     8
370
    15
100
AcDbLine
 10
11563.62926597384
 20
-6646.147502646961
 30
0.0
 11
11528.4715578803
 21
-6663.533735703298
 31
0.0
  0
LINE
  5
1B931F
330
18
100
AcDbEntity
  8
0
  6
SLD-実線
 62
     8
370
    15
100
AcDbLine
 10
11550.65774328168
 20
-6708.397698564411
 30
0.0
 11
11585.8154525044
 21
-6691.011470714501
 31
0.0
  0
LINE
  5
1B9320
330
18
100
AcDbEntity
  8
0
  6
SLD-実線
 62
     8
370
    15
100
AcDbLine
 10
11585.22380945633
 20
-6635.468540396958
 30
0.0
 11
11564.10176432129
 21
-6645.91384097033
 31
0.0
  0
LINE
  5
1B9321
330
18
100
AcDbEntity
  8
0
  6
SLD-実線
 62
     8
370
    15
100
AcDbLine
 10
11586.2879525456
 20
-6690.777809290966
 30
0.0
 11
11607.40999711605
 21
-6680.332503595533
 31
0.0
  0
LINE
  5
1B9322
330
18
100
AcDbEntity
  8
0
  6
SLD-実線
 62
     8
370
    15
100
AcDbLine
 10
11585.08002453245
 20
-6656.165828794904
 30
0.0
 11
11585.04290250801
 21
-6656.173785408464
 31
0.0
  0
LINE
  5
1B9323
330
18
100
AcDbEntity
  8
0
  6
SLD-実線
 62
     8
370
    15
100
AcDbLine
 10
11612.53285707355
 20
-6672.367817803768
 30
0.0
 11
11613.48928103882
 21
-6667.129455942111
 31
0.0
  0
LINE
  5
1B9324
330
18
100
AcDbEntity
  8
0
  6
SLD-実線
 62
     8
370
    15
100
AcDbLine
 10
11597.94485409447
 20
-6637.906124717645
 30
0.0
 11
11594.66293293558
 21
-6636.232016423503
 31
0.0
  0
LINE
  5
1B9325
330
18
100
AcDbEntity
  8
0
  6
SLD-実線
 62
     8
370
    15
100
AcDbLine
 10
11597.944854231
 20
-6629.177709980668
 30
0.0
 11
11588.51426494455
 21
-6633.841338060778
 31
0.0
  0
LINE
  5
1B9326
330
18
100
AcDbEntity
  8
0
  6
SLD-実線
 62
     8
370
    15
100
AcDbLine
 10
11610.70045316886
 20
-6678.705303862567
 30
0.0
 11
11639.75920090387
 21
-6664.335135673432
 31
0.0
  0
SPLINE
  5
1B9327
330
18
100
AcDbEntity
  8
0
  6
SLD-実線
 62
     8
370
    15
100
AcDbSpline
210
0.0
220
0.0
230
1.0
 70
     8
 71
     3
 72
    11
 73
     7
 74
     0
 42
0.000000001
 43
0.00000001
 40
0.0
 40
0.0
 40
0.0
 40
0.0
 40
0.251275183449748
 40
0.4631027287439927
 40
0.733198202321244
 40
1.0
 40
1.0
 40
1.0
 40
1.0
 10
11595.43561025343
 20
-6634.283410537196
 30
0.0
 10
11595.43572484592
 20
-6634.2834620388
 30
0.0
 10
11595.43593604105
 20
-6634.283556956784
 30
0.0
 10
11595.44044444572
 20
-6634.286408714861
 30
0.0
 10
11595.44730758498
 20
-6634.291087327772
 30
0.0
 10
11595.45251500261
 20
-6634.2961463112
 30
0.0
 10
11595.45510273859
 20
-6634.298660285371
 30
0.0
  0
SPLINE
  5
1B9328
330
18
100
AcDbEntity
  8
0
  6
SLD-実線
 62
     8
370
    15
100
AcDbSpline
210
0.0
220
0.0
230
1.0
 70
     8
 71
     3
 72
    12
 73
     8
 74
     0
 42
0.000000001
 43
0.00000001
 40
0.0
 40
0.0
 40
0.0
 40
0.0
 40
0.033147370552008
 40
0.2667434707357484
 40
0.5529500693646522
 40
0.9695837459104463
 40
1.0
 40
1.0
 40
1.0
 40
1.0
 10
11614.26390991818
 20
-6666.787208491206
 30
0.0
 10
11614.26425245217
 20
-6666.787407242088
 30
0.0
 10
11614.26700889111
 20
-6666.789006629897
 30
0.0
 10
11614.25278331308
 20
-6666.777924810184
 30
0.0
 10
11614.23309727452
 20
-6666.743634830229
 30
0.0
 10
11614.22458331371
 20
-6666.693336663794
 30
0.0
 10
11614.23220774062
 20
-6666.674696835338
 30
0.0
 10
11614.23272648917
 20
-6666.673428624072
 30
0.0
  0
SPLINE
  5
1B9329
330
18
100
AcDbEntity
  8
0
  6
SLD-実線
 62
     8
370
    15
100
AcDbSpline
210
0.0
220
0.0
230
1.0
 70
     8
 71
     3
 72
    47
 73
    43
 74
     0
 42
0.000000001
 43
0.00000001
 40
0.0
 40
0.0
 40
0.0
 40
0.0
 40
0.0129141485068435
 40
0.0380440044479829
 40
0.0632926016951169
 40
0.0886595911391451
 40
0.1141278219596917
 40
0.1396720603684866
 40
0.1652664633308207
 40
0.1908892017680613
 40
0.2165237852822937
 40
0.2421571990852249
 40
0.2677831728620369
 40
0.2933988965014415
 40
0.3190033847253578
 40
0.3445967869297638
 40
0.3701801280644996
 40
0.3957546062872595
 40
0.4213218834274891
 40
0.4468835504643654
 40
0.4724412794179518
 40
0.4979968648119257
 40
0.5235520221658264
 40
0.5491081652075143
 40
0.5746668323932106
 40
0.6002297160890191
 40
0.6257986465325731
 40
0.6513754406813402
 40
0.6769618125068824
 40
0.7025595362273578
 40
0.7281700650330272
 40
0.753794550168385
 40
0.7794334751365056
 40
0.8050861144617648
 40
0.8307499183174154
 40
0.8564191760529848
 40
0.8820807229596134
 40
0.9077179892341143
 40
0.9333082218969393
 40
0.9588237989268168
 40
0.9842366128665163
 40
1.0
 40
1.0
 40
1.0
 40
1.0
 10
11641.87505395316
 20
-6662.795361335815
 30
0.0
 10
11642.00185536295
 20
-6662.673337613489
 30
0.0
 10
11642.37540174082
 20
-6662.313865904416
 30
0.0
 10
11642.9203897545
 20
-6661.60589798541
 30
0.0
 10
11643.51138623978
 20
-6660.682770518068
 30
0.0
 10
11644.02418021219
 20
-6659.65925226527
 30
0.0
 10
11644.46032906591
 20
-6658.546961041699
 30
0.0
 10
11644.81613439457
 20
-6657.34983084194
 30
0.0
 10
11645.08992486564
 20
-6656.074771744192
 30
0.0
 10
11645.28025442327
 20
-6654.728487216296
 30
0.0
 10
11645.38633284144
 20
-6653.318219211453
 30
0.0
 10
11645.40787110996
 20
-6651.851341199899
 30
0.0
 10
11645.34503580237
 20
-6650.335390496686
 30
0.0
 10
11645.19843269652
 20
-6648.77797896726
 30
0.0
 10
11644.96902108596
 20
-6647.186858491434
 30
0.0
 10
11644.65817009469
 20
-6645.569886543024
 30
0.0
 10
11644.26756871877
 20
-6643.935047039978
 30
0.0
 10
11643.7993100019
 20
-6642.290384165522
 30
0.0
 10
11643.25581712135
 20
-6640.643999218288
 30
0.0
 10
11642.63984862621
 20
-6639.004012986088
 30
0.0
 10
11641.95452613085
 20
-6637.37850721112
 30
0.0
 10
11641.20326356817
 20
-6635.7755125198
 30
0.0
 10
11640.38979503593
 20
-6634.202958734477
 30
0.0
 10
11639.51815159724
 20
-6632.668635252787
 30
0.0
 10
11638.59261554107
 20
-6631.180160024115
 30
0.0
 10
11637.61773466959
 20
-6629.744910380494
 30
0.0
 10
11636.59824310859
 20
-6628.37002404386
 30
0.0
 10
11635.53909609796
 20
-6627.062333873222
 30
0.0
 10
11634.44539132294
 20
-6625.828372283388
 30
0.0
 10
11633.32238415396
 20
-6624.674317621832
 30
0.0
 10
11632.17542638394
 20
-6623.605995054641
 30
0.0
 10
11631.00997361373
 20
-6622.628845036643
 30
0.0
 10
11629.83152995621
 20
-6621.747924265981
 30
0.0
 10
11628.64568996421
 20
-6620.967877183638
 30
0.0
 10
11627.45808230428
 20
-6620.292962097885
 30
0.0
 10
11626.27450723427
 20
-6619.727065628236
 30
0.0
 10
11625.10085085819
 20
-6619.273483909605
 30
0.0
 10
11623.94338293922
 20
-6618.935571247226
 30
0.0
 10
11622.80781074605
 20
-6618.713828499396
 30
0.0
 10
11621.70277868713
 20
-6618.61617028805
 30
0.0
 10
11620.76118710292
 20
-6618.618765082752
 30
0.0
 10
11620.20646901049
 20
-6618.703650687905
 30
0.0
 10
11619.99410760238
 20
-6618.736147242254
 30
0.0
  0
LINE
  5
1B932A
330
18
100
AcDbEntity
  8
0
  6
SLD-実線
 62
     8
370
    15
100
AcDbLine
 10
11581.739403094
 20
-6595.479086569074
 30
0.0
 11
11581.739403094
 21
-6603.088390931658
 31
0.0
  0
LINE
  5
1B932B
330
18
100
AcDbEntity
  8
0
  6
SLD-実線
 62
     8
370
    15
100
AcDbLine
 10
11597.9096813401
 20
-6651.031981084083
 30
0.0
 11
11597.94485437779
 21
-6651.037236964561
 31
0.0
  0
LINE
  5
1B932C
330
18
100
AcDbEntity
  8
0
  6
SLD-実線
 62
     8
370
    15
100
AcDbLine
 10
11581.75425708115
 20
-6593.422306643344
 30
0.0
 11
11581.7434986682
 21
-6595.407019060834
 31
0.0
  0
LINE
  5
1B932D
330
18
100
AcDbEntity
  8
0
  6
SLD-実線
 62
     8
370
    15
100
AcDbLine
 10
11559.47940352064
 20
-6592.479252631689
 30
0.0
 11
11559.47940352064
 21
-6593.358245214718
 31
0.0
  0
LINE
  5
1B932E
330
18
100
AcDbEntity
  8
0
  6
SLD-実線
 62
     8
370
    15
100
AcDbLine
 10
11623.59940309678
 20
-6593.358245061602
 30
0.0
 11
11623.59940309678
 21
-6592.479252478573
 31
0.0
  0
SPLINE
  5
1B932F
330
18
100
AcDbEntity
  8
0
  6
SLD-実線
 62
     8
370
    15
100
AcDbSpline
210
0.0
220
0.0
230
1.0
 70
     8
 71
     3
 72
    12
 73
     8
 74
     0
 42
0.000000001
 43
0.00000001
 40
0.0
 40
0.0
 40
0.0
 40
0.0
 40
0.165541387069416
 40
0.3939164649365199
 40
0.6216992640774341
 40
0.8488717202491045
 40
1.0
 40
1.0
 40
1.0
 40
1.0
 10
11563.39310796567
 20
-6576.10826742967
 30
0.0
 10
11563.19365487778
 20
-6576.860521472288
 30
0.0
 10
11562.71904332177
 20
-6578.650558746037
 30
0.0
 10
11562.11499037857
 20
-6581.513569062574
 30
0.0
 10
11561.5661186408
 20
-6584.682201644113
 30
0.0
 10
11561.17936355568
 20
-6587.510352234911
 30
0.0
 10
11561.02812609217
 20
-6589.285338407621
 30
0.0
 10
11560.96770787057
 20
-6589.994431944562
 30
0.0
  0
SPLINE
  5
1B9330
330
18
100
AcDbEntity
  8
0
  6
SLD-実線
 62
     8
370
    15
100
AcDbSpline
210
0.0
220
0.0
230
1.0
 70
     8
 71
     3
 72
    13
 73
     9
 74
     0
 42
0.000000001
 43
0.00000001
 40
0.0
 40
0.0
 40
0.0
 40
0.0
 40
0.0099118488487759
 40
0.2322768777573007
 40
0.4539273221974734
 40
0.6748416271622241
 40
0.8949939423342007
 40
1.0
 40
1.0
 40
1.0
 40
1.0
 10
11622.12741549588
 20
-6590.050613014337
 30
0.0
 10
11622.1243383396
 20
-6590.003861396204
 30
0.0
 10
11622.05222744865
 20
-6588.908271657541
 30
0.0
 10
11621.79691620751
 20
-6586.776662108326
 30
0.0
 10
11621.35557172023
 20
-6583.665837404534
 30
0.0
 10
11620.77471462321
 20
-6580.589365986467
 30
0.0
 10
11620.2207071306
 20
-6578.069988880101
 30
0.0
 10
11619.8155534972
 20
-6576.590186011919
 30
0.0
 10
11619.68471391456
 20
-6576.112301146295
 30
0.0
  0
SPLINE
  5
1B9331
330
18
100
AcDbEntity
  8
0
  6
SLD-実線
 62
     8
370
    15
100
AcDbSpline
210
0.0
220
0.0
230
1.0
 70
     8
 71
     3
 72
    13
 73
     9
 74
     0
 42
0.000000001
 43
0.00000001
 40
0.0
 40
0.0
 40
0.0
 40
0.0
 40
0.0304546595543922
 40
0.2341180975252815
 40
0.4371984208036031
 40
0.6399448802686097
 40
0.8428834151266401
 40
1.0
 40
1.0
 40
1.0
 40
1.0
 10
11618.5939518379
 20
-6590.148043538757
 30
0.0
 10
11618.63432884032
 20
-6590.169698510817
 30
0.0
 10
11618.94472426519
 20
-6590.336169616886
 30
0.0
 10
11619.41426678869
 20
-6590.65593780449
 30
0.0
 10
11619.99199637611
 20
-6591.102961060146
 30
0.0
 10
11620.43391183765
 20
-6591.54950607186
 30
0.0
 10
11620.74571179441
 20
-6591.957571558432
 30
0.0
 10
11620.85631078542
 20
-6592.208868781707
 30
0.0
 10
11620.90457266202
 20
-6592.318526884994
 30
0.0
  0
SPLINE
  5
1B9332
330
18
100
AcDbEntity
  8
0
  6
SLD-実線
 62
     8
370
    15
100
AcDbSpline
210
0.0
220
0.0
230
1.0
 70
     8
 71
     3
 72
    13
 73
     9
 74
     0
 42
0.000000001
 43
0.00000001
 40
0.0
 40
0.0
 40
0.0
 40
0.0
 40
0.0619896062378293
 40
0.2678092984800014
 40
0.467544574118586
 40
0.6650599137656995
 40
0.8622116129809139
 40
1.0
 40
1.0
 40
1.0
 40
1.0
 10
11562.21954607343
 20
-6592.224713494959
 30
0.0
 10
11562.23679800622
 20
-6592.180447769317
 30
0.0
 10
11562.31133030766
 20
-6591.989209694893
 30
0.0
 10
11562.57016808174
 20
-6591.64022584681
 30
0.0
 10
11562.99489381027
 20
-6591.185931994088
 30
0.0
 10
11563.54941830213
 20
-6590.735966828533
 30
0.0
 10
11564.13704984862
 20
-6590.335336667991
 30
0.0
 10
11564.59039345023
 20
-6590.089544557448
 30
0.0
 10
11564.776890935
 20
-6589.988430060123
 30
0.0
  0
SPLINE
  5
1B9333
330
18
100
AcDbEntity
  8
0
  6
SLD-実線
 62
     8
370
    15
100
AcDbSpline
210
0.0
220
0.0
230
1.0
 70
     8
 71
     3
 72
    14
 73
    10
 74
     0
 42
0.000000001
 43
0.00000001
 40
0.0
 40
0.0
 40
0.0
 40
0.0
 40
0.0442172130171588
 40
0.2044365962463119
 40
0.3651906168901652
 40
0.531004667998565
 40
0.704757844326485
 40
0.8860598657480707
 40
1.0
 40
1.0
 40
1.0
 40
1.0
 10
11560.75256424732
 20
-6575.065623000308
 30
0.0
 10
11560.7480063443
 20
-6575.119215076147
 30
0.0
 10
11560.7269330537
 20
-6575.366995992736
 30
0.0
 10
11560.81727385702
 20
-6575.809509199873
 30
0.0
 10
11561.02057138199
 20
-6576.375513059895
 30
0.0
 10
11561.35019969956
 20
-6576.926330182708
 30
0.0
 10
11561.80340360659
 20
-6577.465901557249
 30
0.0
 10
11562.29248518905
 20
-6577.929007516941
 30
0.0
 10
11562.6778712032
 20
-6578.202889689819
 30
0.0
 10
11562.82659974127
 20
-6578.308586559143
 30
0.0
  0
SPLINE
  5
1B9334
330
18
100
AcDbEntity
  8
0
  6
SLD-実線
 62
     8
370
    15
100
AcDbSpline
210
0.0
220
0.0
230
1.0
 70
     8
 71
     3
 72
    13
 73
     9
 74
     0
 42
0.000000001
 43
0.00000001
 40
0.0
 40
0.0
 40
0.0
 40
0.0
 40
0.1237908151227188
 40
0.3173954869356759
 40
0.5094078199127073
 40
0.6961170320262046
 40
0.8739638193649514
 40
1.0
 40
1.0
 40
1.0
 40
1.0
 10
11620.24328148319
 20
-6578.315152990564
 30
0.0
 10
11620.40005939454
 20
-6578.20346576721
 30
0.0
 10
11620.80203268688
 20
-6577.917103482532
 30
0.0
 10
11621.31426259507
 20
-6577.427246528705
 30
0.0
 10
11621.78878258759
 20
-6576.847702606248
 30
0.0
 10
11622.11693453865
 20
-6576.245304367763
 30
0.0
 10
11622.30482151606
 20
-6575.683238736794
 30
0.0
 10
11622.31971972277
 20
-6575.324028553045
 30
0.0
 10
11622.32589878929
 20
-6575.175045278638
 30
0.0
  0
SPLINE
  5
1B9335
330
18
100
AcDbEntity
  8
0
  6
SLD-実線
 62
     8
370
    15
100
AcDbSpline
210
0.0
220
0.0
230
1.0
 70
     8
 71
     3
 72
    28
 73
    24
 74
     0
 42
0.000000001
 43
0.00000001
 40
0.0
 40
0.0
 40
0.0
 40
0.0
 40
0.0319222978365386
 40
0.0809109211287413
 40
0.1299131520473495
 40
0.1789329332217261
 40
0.2279748757827976
 40
0.2770446592147132
 40
0.3261492055497009
 40
0.3752973196532773
 40
0.4245000948578774
 40
0.4737717557048619
 40
0.5231305909427908
 40
0.5725999246716712
 40
0.6222087747657814
 40
0.671990828364775
 40
0.7219778944980327
 40
0.7721779287436404
 40
0.8225070377907248
 40
0.8725068430820105
 40
0.921387285250078
 40
0.9683308464229125
 40
1.0
 40
1.0
 40
1.0
 40
1.0
 10
11583.79361392882
 20
-6566.979186659077
 30
0.0
 10
11583.38229842372
 20
-6567.007133204752
 30
0.0
 10
11582.33976957563
 20
-6567.077967101629
 30
0.0
 10
11580.70593937106
 20
-6567.227351705626
 30
0.0
 10
11578.89669496439
 20
-6567.422239988648
 30
0.0
 10
11577.13993928361
 20
-6567.648274054989
 30
0.0
 10
11575.44106099237
 20
-6567.9030117127
 30
0.0
 10
11573.8072626763
 20
-6568.185962683
 30
0.0
 10
11572.24487960233
 20
-6568.496017390336
 30
0.0
 10
11570.76005337542
 20
-6568.832157367438
 30
0.0
 10
11569.35850980276
 20
-6569.193305689438
 30
0.0
 10
11568.04557110168
 20
-6569.578403152625
 30
0.0
 10
11566.82611271055
 20
-6569.986470663535
 30
0.0
 10
11565.70454249244
 20
-6570.416671662014
 30
0.0
 10
11564.68482263368
 20
-6570.868445174445
 30
0.0
 10
11563.77049559526
 20
-6571.341652710989
 30
0.0
 10
11562.96497741021
 20
-6571.836777519507
 30
0.0
 10
11562.27184808104
 20
-6572.354987899298
 30
0.0
 10
11561.69719333963
 20
-6572.897280124659
 30
0.0
 10
11561.24683952994
 20
-6573.462957769213
 30
0.0
 10
11560.93621248197
 20
-6574.047471875137
 30
0.0
 10
11560.76443350701
 20
-6574.584105738481
 30
0.0
 10
11560.75653876365
 20
-6574.923106914518
 30
0.0
 10
11560.75335836413
 20
-6575.059673630741
 30
0.0
  0
SPLINE
  5
1B9336
330
18
100
AcDbEntity
  8
0
  6
SLD-実線
 62
     8
370
    15
100
AcDbSpline
210
0.0
220
0.0
230
1.0
 70
     8
 71
     3
 72
    10
 73
     6
 74
     0
 42
0.000000001
 43
0.00000001
 40
0.0
 40
0.0
 40
0.0
 40
0.0
 40
0.359619225078162
 40
0.8345774715767655
 40
1.0
 40
1.0
 40
1.0
 40
1.0
 10
11587.83377519251
 20
-6566.777278213825
 30
0.0
 10
11587.34418757604
 20
-6566.793728017176
 30
0.0
 10
11586.20798915678
 20
-6566.831903493712
 30
0.0
 10
11584.85887661929
 20
-6566.901608227901
 30
0.0
 10
11584.01230060703
 20
-6566.963260663014
 30
0.0
 10
11583.79361392882
 20
-6566.979186659077
 30
0.0
  0
SPLINE
  5
1B9337
330
18
100
AcDbEntity
  8
0
  6
SLD-実線
 62
     8
370
    15
100
AcDbSpline
210
0.0
220
0.0
230
1.0
 70
     8
 71
     3
 72
    35
 73
    31
 74
     0
 42
0.000000001
 43
0.00000001
 40
0.0
 40
0.0
 40
0.0
 40
0.0
 40
0.0138983983910663
 40
0.0479030486480515
 40
0.0821030457770768
 40
0.1173707469695535
 40
0.1541017000392016
 40
0.1920437147340355
 40
0.2306157862035333
 40
0.2693275257514469
 40
0.3079268452572153
 40
0.346376052770808
 40
0.3846859581771864
 40
0.4228799069552283
 40
0.46098115906408
 40
0.4990093242117443
 40
0.5369800346083529
 40
0.5749055045120001
 40
0.6127952203263356
 40
0.6506566239194846
 40
0.6884955915688573
 40
0.7263168287984592
 40
0.7641241712615899
 40
0.8019208315210634
 40
0.8397094731158288
 40
0.8774924838579728
 40
0.9152720093174619
 40
0.9530499822283015
 40
0.9908282346119772
 40
1.0
 40
1.0
 40
1.0
 40
1.0
 10
11622.32339853915
 20
-6575.148520938365
 30
0.0
 10
11622.32868299488
 20
-6575.070996322822
 30
0.0
 10
11622.34689671512
 20
-6574.803795360146
 30
0.0
 10
11622.24466266145
 20
-6574.348138037024
 30
0.0
 10
11622.02591874846
 20
-6573.795538637743
 30
0.0
 10
11621.68024888629
 20
-6573.255792719198
 30
0.0
 10
11621.21332283164
 20
-6572.724897439862
 30
0.0
 10
11620.6185282119
 20
-6572.203353924397
 30
0.0
 10
11619.89859866175
 20
-6571.695287947785
 30
0.0
 10
11619.05991821884
 20
-6571.205121838413
 30
0.0
 10
11618.10988656938
 20
-6570.735513990386
 30
0.0
 10
11617.05444450285
 20
-6570.287646308043
 30
0.0
 10
11615.89821533243
 20
-6569.862055703643
 30
0.0
 10
11614.64567759781
 20
-6569.459381490058
 30
0.0
 10
11613.30152227715
 20
-6569.080409291355
 30
0.0
 10
11611.87077750828
 20
-6568.726054344004
 30
0.0
 10
11610.35887632851
 20
-6568.397300372499
 30
0.0
 10
11608.77163394433
 20
-6568.09514709276
 30
0.0
 10
11607.11522643733
 20
-6567.820586489252
 30
0.0
 10
11605.39617661282
 20
-6567.574547245648
 30
0.0
 10
11603.62130013582
 20
-6567.357908085514
 30
0.0
 10
11601.79768195293
 20
-6567.17144616466
 30
0.0
 10
11599.93263441173
 20
-6567.015849715179
 30
0.0
 10
11598.03367114629
 20
-6566.891716802069
 30
0.0
 10
11596.1084273147
 20
-6566.799446063727
 30
0.0
 10
11594.16480979341
 20
-6566.73963200853
 30
0.0
 10
11592.21023654852
 20
-6566.711603265279
 30
0.0
 10
11590.25432953264
 20
-6566.718802475933
 30
0.0
 10
11588.79233467368
 20
-6566.741195860925
 30
0.0
 10
11587.99042885133
 20
-6566.771381414815
 30
0.0
 10
11587.83377519251
 20
-6566.777278213825
 30
0.0
  0
SPLINE
  5
1B9338
330
18
100
AcDbEntity
  8
0
  6
SLD-実線
 62
     8
370
    15
100
AcDbSpline
210
0.0
220
0.0
230
1.0
 70
     8
 71
     3
 72
     9
 73
     5
 74
     0
 42
0.000000001
 43
0.00000001
 40
0.0
 40
0.0
 40
0.0
 40
0.0
 40
0.3807450240892098
 40
1.0
 40
1.0
 40
1.0
 40
1.0
 10
11611.95475565534
 20
-6588.116800297811
 30
0.0
 10
11612.03448167188
 20
-6588.088345735168
 30
0.0
 10
11612.24387644133
 20
-6588.013611829685
 30
0.0
 10
11612.42580470076
 20
-6587.933584037606
 30
0.0
 10
11612.53846468067
 20
-6587.884026429149
 30
0.0
  0
SPLINE
  5
1B9339
330
18
100
AcDbEntity
  8
0
  6
SLD-実線
 62
     8
370
    15
100
AcDbSpline
210
0.0
220
0.0
230
1.0
 70
     8
 71
     3
 72
    10
 73
     6
 74
     0
 42
0.000000001
 43
0.00000001
 40
0.0
 40
0.0
 40
0.0
 40
0.0
 40
0.0461178765492785
 40
0.5448224967733046
 40
1.0
 40
1.0
 40
1.0
 40
1.0
 10
11570.50265260785
 20
-6587.870243132452
 30
0.0
 10
11570.53026267765
 20
-6587.882781034932
 30
0.0
 10
11570.85643960272
 20
-6588.030899982389
 30
0.0
 10
11571.54577385862
 20
-6588.286525386339
 30
0.0
 10
11572.26063457018
 20
-6588.517434631782
 30
0.0
 10
11572.60175482587
 20
-6588.627620881454
 30
0.0
  0
SPLINE
  5
1B933A
330
18
100
AcDbEntity
  8
0
  6
SLD-実線
 62
     8
370
    15
100
AcDbSpline
210
0.0
220
0.0
230
1.0
 70
     8
 71
     3
 72
     9
 73
     5
 74
     0
 42
0.000000001
 43
0.00000001
 40
0.0
 40
0.0
 40
0.0
 40
0.0
 40
0.8601954053955249
 40
1.0
 40
1.0
 40
1.0
 40
1.0
 10
11603.66747091432
 20
-6586.878437379739
 30
0.0
 10
11603.69771055397
 20
-6586.805512729231
 30
0.0
 10
11603.73286493802
 20
-6586.720735886607
 30
0.0
 10
11603.71649003326
 20
-6586.633684804965
 30
0.0
 10
11603.71420074633
 20
-6586.621514663786
 30
0.0
  0
LINE
  5
1B933B
330
18
100
AcDbEntity
  8
0
  6
SLD-実線
 62
     8
370
    15
100
AcDbLine
 10
11603.72030565285
 20
-6586.634263831857
 30
0.0
 11
11603.7521278624
 21
-6586.302111065583
 31
0.0
  0
LINE
  5
1B933C
330
18
100
AcDbEntity
  8
0
  6
SLD-実線
 62
     8
370
    15
100
AcDbLine
 10
11608.41708558912
 20
-6664.203821122436
 30
0.0
 11
11608.97708463783
 21
-6663.952780416681
 31
0.0
  0
LWPOLYLINE
  5
1B933D
330
18
100
AcDbEntity
  8
0
  6
SLD-実線
 62
     8
370
    15
100
AcDbPolyline
 90
       17
 70
   128
 43
0.0
 10
11597.75735025081
 20
-6648.805060375737
 10
11597.72452969823
 20
-6649.137878725314
 10
11597.75721986565
 20
-6649.44138483718
 10
11597.85044786308
 20
-6649.669365514576
 10
11597.99001865808
 20
-6649.787111882971
 10
11598.15468338106
 20
-6649.776699145848
 10
11598.31937548492
 20
-6649.63971714149
 10
11598.45901929561
 20
-6649.397013872851
 10
11598.55235681656
 20
-6649.085544254765
 10
11598.585178673
 20
-6648.752720282992
 10
11598.55248720172
 20
-6648.449214755627
 10
11598.45926050815
 20
-6648.221238531425
 10
11598.31968971315
 20
-6648.103487125336
 10
11598.15502499018
 20
-6648.113899862457
 10
11597.99033288631
 20
-6648.250881866816
 10
11597.85068907562
 20
-6648.493585135455
 10
11597.75735025081
 20
-6648.805060375737
  0
LWPOLYLINE
  5
1B933E
330
18
100
AcDbEntity
  8
0
  6
SLD-実線
 62
     8
370
    15
100
AcDbPolyline
 90
       13
 70
   128
 43
0.0
 10
11597.85824922182
 20
-6649.690614339656
 10
11597.88918049343
 20
-6649.742752119695
 10
11598.04101140507
 20
-6649.870840943608
 10
11598.22014105775
 20
-6649.859515447401
 10
11598.39929809131
 20
-6649.710497451733
 10
11598.55120984175
 20
-6649.446476251493
 10
11598.65274598159
 20
-6649.107644047674
 10
11598.68845065393
 20
-6648.745588684238
 10
11598.65288810142
 20
-6648.415421091338
 10
11598.55147191592
 20
-6648.167418795108
 10
11598.39964100428
 20
-6648.039329971196
 10
11598.2205113516
 20
-6648.050650429706
 10
11598.08908310987
 20
-6648.145839508075
  0
LINE
  5
1B933F
330
18
100
AcDbEntity
  8
0
  6
SLD-実線
 62
     8
370
    15
100
AcDbLine
 10
11598.27095956329
 20
-6648.352350975338
 30
0.0
 11
11597.97042828772
 21
-6648.563275646455
 31
0.0
  0
LINE
  5
1B9340
330
18
100
AcDbEntity
  8
0
  6
SLD-実線
 62
     8
370
    15
100
AcDbLine
 10
11597.97042828772
 20
-6648.563275646455
 30
0.0
 11
11597.85432291005
 21
-6649.156226694117
 31
0.0
  0
LINE
  5
1B9341
330
18
100
AcDbEntity
  8
0
  6
SLD-実線
 62
     8
370
    15
100
AcDbLine
 10
11597.85432291005
 20
-6649.156226694117
 30
0.0
 11
11598.03874880794
 21
-6649.538248032968
 31
0.0
  0
LINE
  5
1B9342
330
18
100
AcDbEntity
  8
0
  6
SLD-実線
 62
     8
370
    15
100
AcDbLine
 10
11598.03874880794
 20
-6649.538248032968
 30
0.0
 11
11598.33928008351
 21
-6649.327323361852
 31
0.0
  0
LINE
  5
1B9343
330
18
100
AcDbEntity
  8
0
  6
SLD-実線
 62
     8
370
    15
100
AcDbLine
 10
11598.33928008351
 20
-6649.327323361852
 30
0.0
 11
11598.45538546119
 21
-6648.734372314188
 31
0.0
  0
LINE
  5
1B9344
330
18
100
AcDbEntity
  8
0
  6
SLD-実線
 62
     8
370
    15
100
AcDbLine
 10
11598.45538546119
 20
-6648.734372314188
 30
0.0
 11
11598.27095956329
 21
-6648.352350975338
 31
0.0
  0
LINE
  5
1B9345
330
18
100
AcDbEntity
  8
0
  6
SLD-実線
 62
     8
370
    15
100
AcDbLine
 10
11598.4040691203
 20
-6648.628074268824
 30
0.0
 11
11597.97042828772
 21
-6648.563275646455
 31
0.0
  0
LINE
  5
1B9346
330
18
100
AcDbEntity
  8
0
  6
SLD-実線
 62
     8
370
    15
100
AcDbLine
 10
11598.35804389879
 20
-6649.231497341339
 30
0.0
 11
11597.85432291005
 21
-6649.156226694117
 31
0.0
  0
LWPOLYLINE
  5
1B9347
330
18
100
AcDbEntity
  8
0
  6
SLD-実線
 62
     8
370
    15
100
AcDbPolyline
 90
       85
 70
   128
 43
0.0
 10
11528.72850946861
 20
-6663.412663490975
 10
11529.6938675956
 20
-6663.05654780944
 10
11530.71442956687
 20
-6662.828555413195
 10
11531.78448523802
 20
-6662.729948598576
 10
11532.89805244284
 20
-6662.761289854093
 10
11534.04889778555
 20
-6662.922401951651
 10
11535.23059177372
 20
-6663.212374542414
 10
11536.43652732874
 20
-6663.629600836334
 10
11537.6599539183
 20
-6664.171732436498
 10
11538.89402980241
 20
-6664.83575505717
 10
11540.13185677104
 20
-6665.617935711172
 10
11541.36651525442
 20
-6666.513913123631
 10
11542.59109226233
 20
-6667.518670455776
 10
11543.7987474592
 20
-6668.626595471535
 10
11544.98272429372
 20
-6669.831482923993
 10
11546.13639856556
 20
-6671.126602209088
 10
11547.2533231275
 20
-6672.504703599778
 10
11548.32724609245
 20
-6673.958093386847
 10
11549.35216708301
 20
-6675.478625584485
 10
11550.32235343598
 20
-6677.057810894683
 10
11551.2323803409
 20
-6678.686814911777
 10
11552.07715342345
 20
-6680.356521949404
 10
11552.8519513981
 20
-6682.057597969737
 10
11553.5524396181
 20
-6683.780532909823
 10
11554.17470620893
 20
-6685.515676307135
 10
11554.71526458236
 20
-6687.253352401243
 10
11555.17109860319
 20
-6688.983816506074
 10
11555.53964955074
 20
-6690.6974119858
 10
11555.81886766444
 20
-6692.38454194203
 10
11556.00717847771
 20
-6694.035771561353
 10
11556.10354139433
 20
-6695.641875277555
 10
11556.10741401971
 20
-6697.193862113463
 10
11556.01876682758
 20
-6698.683058531654
 10
11555.83810364712
 20
-6700.101130923245
 10
11555.56643623791
 20
-6701.440157458007
 10
11555.20527441737
 20
-6702.692637909462
 10
11554.7566496672
 20
-6703.851583296806
 10
11554.22306232905
 20
-6704.910500507789
 10
11553.60749710863
 20
-6705.863462722302
 10
11552.91340249324
 20
-6706.705161640499
 10
11552.14465417457
 20
-6707.430868103575
 10
11551.30555411596
 20
-6708.036539388591
 10
11550.40079621005
 20
-6708.518781527049
 10
11549.43543356638
 20
-6708.874891495964
 10
11548.41487159511
 20
-6709.102883892209
 10
11547.34481592396
 20
-6709.201490706829
 10
11546.23124871915
 20
-6709.170144413616
 10
11545.08040337643
 20
-6709.00904239145
 10
11543.89870938826
 20
-6708.71906476299
 10
11542.69277383324
 20
-6708.30183846907
 10
11541.46935176036
 20
-6707.75970754383
 10
11540.23527135957
 20
-6707.09568928593
 10
11538.99744439095
 20
-6706.313508631927
 10
11537.76279042424
 20
-6705.417531894393
 10
11536.53820889966
 20
-6704.412773887325
 10
11535.33055370278
 20
-6703.304848871567
 10
11534.14658138494
 20
-6702.099962094031
 10
11532.99290259642
 20
-6700.804842134014
 10
11531.87598255116
 20
-6699.426731342854
 10
11530.80205506953
 20
-6697.973350956252
 10
11529.77713407897
 20
-6696.452808683225
 10
11528.806947726
 20
-6694.873633448417
 10
11527.89692533775
 20
-6693.244630106246
 10
11527.0521522552
 20
-6691.57492306862
 10
11526.27735428056
 20
-6689.873847048286
 10
11525.57686154388
 20
-6688.150911433278
 10
11524.95459495305
 20
-6686.415757960573
 10
11524.41403657962
 20
-6684.678091941858
 10
11523.95820707547
 20
-6682.947618436558
 10
11523.58965161124
 20
-6681.234032357299
 10
11523.31043801422
 20
-6679.546903075994
 10
11523.12212268427
 20
-6677.895672781748
 10
11523.02575976765
 20
-6676.289569065545
 10
11523.02189165894
 20
-6674.737582904561
 10
11523.1105343344
 20
-6673.248385811446
 10
11523.29119751486
 20
-6671.830313419854
 10
11523.56286944075
 20
-6670.491282522321
 10
11523.92402674461
 20
-6669.238801395943
 10
11524.37265149478
 20
-6668.079856008599
 10
11524.90623883293
 20
-6667.020943835311
 10
11525.52180405335
 20
-6666.067971545408
 10
11526.21589866874
 20
-6665.226277664906
 10
11526.98464698741
 20
-6664.50057120183
 10
11527.82374704602
 20
-6663.894899916813
 10
11528.72850946861
 20
-6663.412663490975
  0
LWPOLYLINE
  5
1B9348
330
18
100
AcDbEntity
  8
0
  6
SLD-実線
 62
     8
370
    15
100
AcDbPolyline
 90
       44
 70
   128
 43
0.0
 10
11585.8154525044
 20
-6691.011470714501
 10
11586.4632622095
 20
-6690.65030129456
 10
11587.30236226812
 20
-6690.044630009543
 10
11588.07111058678
 20
-6689.318923546466
 10
11588.76520633134
 20
-6688.477234872391
 10
11589.38076929343
 20
-6687.524262245026
 10
11589.91435663158
 20
-6686.465345034043
 10
11590.36298420467
 20
-6685.306400068526
 10
11590.7241426377
 20
-6684.053919110878
 10
11590.99581286983
 20
-6682.714892997945
 10
11591.17647492112
 20
-6681.296820437621
 10
11591.26511985492
 20
-6679.807623681969
 10
11591.26124948788
 20
-6678.255637183523
 10
11591.16488770043
 20
-6676.649533636051
 10
11590.97657349965
 20
-6674.998303510535
 10
11590.69735877345
 20
-6673.3111740605
 10
11590.3288044384
 20
-6671.597588149972
 10
11589.87297267591
 20
-6669.867114307211
 10
11589.33241317331
 20
-6668.129443082068
 10
11588.71014771164
 20
-6666.39429481579
 10
11588.00965836247
 20
-6664.671359706974
 10
11587.23485925866
 20
-6662.970283517911
 10
11586.39008617611
 20
-6661.300576480283
 10
11585.48006152953
 20
-6659.671572800651
 10
11584.5098774349
 20
-6658.09239286561
 10
11583.48495418599
 20
-6656.571855292816
 10
11582.4110289627
 20
-6655.11847020598
 10
11581.29410665911
 20
-6653.740364115055
 10
11580.14043012893
 20
-6652.445244492498
 10
11578.95645555275
 20
-6651.240357377503
 10
11577.74880035587
 20
-6650.132432361743
 10
11576.52422108963
 20
-6649.127674692138
 10
11575.28956486458
 20
-6648.231697617141
 10
11574.05173789596
 20
-6647.449516963137
 10
11572.8176597535
 20
-6646.7854990427
 10
11571.59423316395
 20
-6646.243362404841
 10
11570.38830212561
 20
-6645.826141823538
 10
11569.20660813743
 20
-6645.53616419508
 10
11568.05576053638
 20
-6645.375056797757
 10
11566.94219333157
 20
-6645.34371554224
 10
11565.87213766042
 20
-6645.442317319163
 10
11564.85157568914
 20
-6645.670314753104
 10
11563.88621530382
 20
-6646.026425059481
 10
11563.62926597384
 20
-6646.147502646961
  0
SPLINE
  5
1B9349
330
18
100
AcDbEntity
  8
0
  6
SLD-実線
 62
     8
370
    15
100
AcDbSpline
210
0.0
220
0.0
230
1.0
 70
    11
 71
     3
 72
    26
 73
    22
 74
     0
 42
0.000000001
 43
0.00000001
 40
0.0
 40
0.0
 40
0.0
 40
0.0
 40
0.0536807288682216
 40
0.1073617773325621
 40
0.1610489552426223
 40
0.2147421289605444
 40
0.2684266877810287
 40
0.3221026114743564
 40
0.3757836912402145
 40
0.4294743274039595
 40
0.4831654182261989
 40
0.5368461851714017
 40
0.5905220595107412
 40
0.644207176102919
 40
0.6978985701818902
 40
0.7515874475239298
 40
0.8052648156547253
 40
0.8589428581791991
 40
0.9126307004264963
 40
0.9663235958297707
 40
1.0
 40
1.0
 40
1.0
 40
1.0
 10
11585.79727435602
 20
-6663.095509381547
 30
0.0
 10
11585.75557837481
 20
-6663.122604330002
 30
0.0
 10
11585.67218616415
 20
-6663.176794388226
 30
0.0
 10
11585.59439507719
 20
-6663.316222066725
 30
0.0
 10
11585.56346348936
 20
-6663.480185307864
 30
0.0
 10
11585.58497000391
 20
-6663.655178967441
 30
0.0
 10
11585.65562415248
 20
-6663.82026375987
 30
0.0
 10
11585.76758292308
 20
-6663.957183766821
 30
0.0
 10
11585.90835277894
 20
-6664.05036489172
 30
0.0
 10
11586.06240547309
 20
-6664.089181333734
 30
0.0
 10
11586.21266537805
 20
-6664.069103813699
 30
0.0
 10
11586.34233897156
 20
-6663.992332735492
 30
0.0
 10
11586.43678256168
 20
-6663.867554139179
 30
0.0
 10
11586.48512737872
 20
-6663.708917825777
 30
0.0
 10
11586.48160368329
 20
-6663.534439075989
 30
0.0
 10
11586.42631870847
 20
-6663.363906066326
 30
0.0
 10
11586.32545899699
 20
-6663.216671551364
 30
0.0
 10
11586.19036394249
 20
-6663.109007024102
 30
0.0
 10
11586.03707780022
 20
-6663.053872877374
 30
0.0
 10
11585.90046551258
 20
-6663.053786504986
 30
0.0
 10
11585.82598340548
 20
-6663.083901563916
 30
0.0
 10
11585.79727435602
 20
-6663.095509381547
 30
0.0
  0
LWPOLYLINE
  5
1B934A
330
18
100
AcDbEntity
  8
0
  6
SLD-実線
 62
     8
370
    15
100
AcDbPolyline
 90
       84
 70
   128
 43
0.0
 10
11528.97099616975
 20
-6663.917348386167
 10
11529.92646334616
 20
-6663.565766559151
 10
11530.9371367146
 20
-6663.342496253221
 10
11531.99723283581
 20
-6663.248804733725
 10
11533.10067208237
 20
-6663.285233942732
 10
11534.24113442342
 20
-6663.451576576475
 10
11535.41208685242
 20
-6663.746881240938
 10
11536.60683172155
 20
-6664.16944932029
 10
11537.8185144729
 20
-6664.716863351876
 10
11539.04019711718
 20
-6665.385988820943
 10
11540.26488691845
 20
-6666.173001603183
 10
11541.48556857086
 20
-6667.073373902003
 10
11542.69524377885
 20
-6668.081963020169
 10
11543.88698634325
 20
-6669.192995487869
 10
11545.0539739652
 20
-6670.400091130652
 10
11546.1895148815
 20
-6671.69635728242
 10
11547.28711319424
 20
-6673.074348894017
 10
11548.34047357472
 20
-6674.526179230148
 10
11549.34357162126
 20
-6676.043538899616
 10
11550.29065404641
 20
-6677.61772527418
 10
11551.17630000144
 20
-6679.239730696702
 10
11551.99543471997
 20
-6680.900269290725
 10
11552.74336756033
 20
-6682.589814429965
 10
11553.41581659153
 20
-6684.29869926942
 10
11554.00892335352
 20
-6686.01713370237
 10
11554.51929481108
 20
-6687.735270302549
 10
11554.94401229361
 20
-6689.44327156768
 10
11555.28063335726
 20
-6691.131354785648
 10
11555.52723359843
 20
-6692.789856063288
 10
11555.6824046044
 20
-6694.409256795279
 10
11555.74525637381
 20
-6695.98030420714
 10
11555.71542360186
 20
-6697.493981734549
 10
11555.59308225595
 20
-6698.94163401954
 10
11555.37893001791
 20
-6700.314955527234
 10
11555.07419443139
 20
-6701.606086394442
 10
11554.68062559025
 20
-6702.807633881841
 10
11554.20047262243
 20
-6703.912715841832
 10
11553.6364860168
 20
-6704.914985948992
 10
11552.99189508496
 20
-6705.80872710651
 10
11552.27039766911
 20
-6706.588806406424
 10
11551.47612128313
 20
-6707.25075767797
 10
11550.61361737792
 20
-6707.790787481429
 10
11549.68782561375
 20
-6708.205808575472
 10
11548.70404899958
 20
-6708.493443686224
 10
11547.66792276356
 20
-6708.652039462217
 10
11546.58538045897
 20
-6708.680689044387
 10
11545.46262726992
 20
-6708.579226581704
 10
11544.30608910999
 20
-6708.34824662657
 10
11543.12239182996
 20
-6707.989048327374
 10
11541.9183147923
 20
-6707.503705894043
 10
11540.70075929966
 20
-6706.894999448376
 10
11539.47669672154
 20
-6706.166412004617
 10
11538.2531359449
 20
-6705.322111135138
 10
11537.03708896242
 20
-6704.366946222272
 10
11535.83551578656
 20
-6703.306373651742
 10
11534.65530489166
 20
-6702.146485730951
 10
11533.50321752289
 20
-6700.893903227797
 10
11532.38584881464
 20
-6699.555819603881
 10
11531.30959407765
 20
-6698.139894499524
 10
11530.28062868293
 20
-6696.65423720138
 10
11529.30484147504
 20
-6695.10735371917
 10
11528.38781856758
 20
-6693.50810834901
 10
11527.53481614952
 20
-6691.865664612886
 10
11526.75072113901
 20
-6690.189418147483
 10
11526.04002077686
 20
-6688.488986761191
 10
11525.40679107913
 20
-6686.774104057989
 10
11524.85465357932
 20
-6685.054584305964
 10
11524.38677993871
 20
-6683.340287444707
 10
11524.00583583725
 20
-6681.641028539179
 10
11523.7140172942
 20
-6679.966531994825
 10
11523.51298552571
 20
-6678.326410189337
 10
11523.40389874878
 20
-6676.730036409714
 10
11523.38737814403
 20
-6675.186570715663
 10
11523.46351642439
 20
-6673.704849945078
 10
11523.63188253894
 20
-6672.293347280091
 10
11523.8915135256
 20
-6670.960167076979
 10
11524.24091795791
 20
-6669.712936806003
 10
11524.67809005507
 20
-6668.558800364357
 10
11525.20053836669
 20
-6667.504364915596
 10
11525.80525988466
 20
-6666.555677760643
 10
11526.48879294105
 20
-6665.718170783504
 10
11527.24722037582
 20
-6664.996640495068
 10
11528.07620599789
 20
-6664.395214236979
 10
11528.97099616975
 20
-6663.917348386167
  0
ARC
  5
1B934B
330
18
100
AcDbEntity
  8
0
  6
SLD-実線
 62
     8
370
    15
100
AcDbCircle
 10
11533.56451966989
 20
-6673.283854145868
 30
0.0
 40
9.567845785598049
100
AcDbArc
 50
65.34077597509851
 51
110.7263753646668
  0
LWPOLYLINE
  5
1B934C
330
18
100
AcDbEntity
  8
0
  6
SLD-実線
 62
     8
370
    15
100
AcDbPolyline
 90
       50
 70
   128
 43
0.0
 10
11555.33404950519
 20
-6700.537701050243
 10
11554.99823823675
 20
-6701.599380381665
 10
11554.53702815238
 20
-6702.704111877
 10
11553.99066751176
 20
-6703.705761800773
 10
11553.36243918306
 20
-6704.598305295869
 10
11552.65611533305
 20
-6705.376368311101
 10
11551.87595677357
 20
-6706.035277018244
 10
11551.02664516892
 20
-6706.571066605051
 10
11550.11329133415
 20
-6706.980511927883
 10
11549.1413881516
 20
-6707.26115059495
 10
11548.1167781376
 20
-6707.411297505774
 10
11547.045633459
 20
-6707.430051833188
 10
11545.93438293138
 20
-6707.317295376561
 10
11544.78971649322
 20
-6707.073712153589
 10
11543.61852131887
 20
-6706.700767916056
 10
11542.42783278542
 20
-6706.200691105847
 10
11541.22482129368
 20
-6705.576507012776
 10
11540.01671352736
 20
-6704.831955397717
 10
11538.81078192855
 20
-6703.971530836132
 10
11537.61427014758
 20
-6703.000391086871
 10
11536.43438708203
 20
-6701.924385314554
 10
11535.27821495857
 20
-6700.749986971928
 10
11534.15271561817
 20
-6699.484244028381
 10
11533.06466066985
 20
-6698.134787960273
 10
11532.02058543788
 20
-6696.709730068018
 10
11531.02677089516
 20
-6695.217628550224
 10
11530.08920082331
 20
-6693.667476758721
 10
11529.21350309591
 20
-6692.068583595261
 10
11528.40495349643
 20
-6690.430557048578
 10
11527.66841048223
 20
-6688.763268116718
 10
11527.00830484733
 20
-6687.076739212383
 10
11526.42860559161
 20
-6685.381104939947
 10
11525.93280055029
 20
-6683.6865696787
 10
11525.52387199514
 20
-6682.003316319815
 10
11525.20427670565
 20
-6680.341478851282
 10
11524.97593707613
 20
-6678.711052242894
 10
11524.84022896307
 20
-6677.121823943282
 10
11524.79796641345
 20
-6675.583379279297
 10
11524.84940506477
 20
-6674.104950777257
 10
11524.99423460272
 20
-6672.695425496668
 10
11525.23158481581
 20
-6671.363301291106
 10
11525.56002326848
 20
-6670.116575936941
 10
11525.97758459092
 20
-6668.96275181583
 10
11526.48174915448
 20
-6667.908765400722
 10
11527.06948563235
 20
-6666.960956124696
 10
11527.73726324744
 20
-6666.125024903156
 10
11528.48106336826
 20
-6665.405997985959
 10
11529.29641292019
 20
-6664.808201904196
 10
11530.17840713346
 20
-6664.335227722356
 10
11530.17840713346
 20
-6664.335227722356
  0
LWPOLYLINE
  5
1B934D
330
18
100
AcDbEntity
  8
0
  6
SLD-実線
 62
     8
370
    15
100
AcDbPolyline
 90
       42
 70
   128
 43
0.0
 10
11551.20718915262
 20
-6706.470827845648
 10
11550.90079159102
 20
-6706.591072891649
 10
11549.92888840847
 20
-6706.871711558716
 10
11548.90427839446
 20
-6707.021868544931
 10
11547.83313371587
 20
-6707.040612796955
 10
11546.72188318825
 20
-6706.927866415717
 10
11545.57721675009
 20
-6706.684273117355
 10
11544.40602157574
 20
-6706.311328879821
 10
11543.21533304228
 20
-6705.811252069613
 10
11542.01232155055
 20
-6705.187067976543
 10
11540.80421378423
 20
-6704.442526436875
 10
11539.59828218542
 20
-6703.582091799897
 10
11538.40177040445
 20
-6702.610952050636
 10
11537.2218873389
 20
-6701.534946278321
 10
11536.06571521543
 20
-6700.360547935694
 10
11534.94021587504
 20
-6699.094815067539
 10
11533.85216092672
 20
-6697.74535899943
 10
11532.80808117807
 20
-6696.320290356861
 10
11531.81427115203
 20
-6694.828199589381
 10
11530.87670108018
 20
-6693.278037722487
 10
11530.00100335277
 20
-6691.679144559027
 10
11529.1924537533
 20
-6690.041128087736
 10
11528.45591073909
 20
-6688.373839155875
 10
11527.79580510419
 20
-6686.687300176149
 10
11527.21610584848
 20
-6684.991665903714
 10
11526.72030080716
 20
-6683.297130642466
 10
11526.311372252
 20
-6681.613887358973
 10
11525.99177696252
 20
-6679.952049890439
 10
11525.76343733299
 20
-6678.321613206659
 10
11525.62772921993
 20
-6676.732394982439
 10
11525.58546667032
 20
-6675.193940243063
 10
11525.63690532163
 20
-6673.715511741022
 10
11525.78173485959
 20
-6672.305996535825
 10
11526.01908507268
 20
-6670.973862254872
 10
11526.34752352534
 20
-6669.727141938403
 10
11526.76508484779
 20
-6668.573317817292
 10
11527.26924489467
 20
-6667.519325689565
 10
11527.85698588922
 20
-6666.571517088462
 10
11528.5247635043
 20
-6665.735585866923
 10
11529.26856362513
 20
-6665.016558949725
 10
11530.08391317706
 20
-6664.418762867961
 10
11530.33635735384
 20
-6664.266716005353
  0
LWPOLYLINE
  5
1B934E
330
18
100
AcDbEntity
  8
0
  6
SLD-実線
 62
     8
370
    15
100
AcDbPolyline
 90
       40
 70
   128
 43
0.0
 10
11551.58275317885
 20
-6706.239337519884
 10
11550.71638866534
 20
-6706.482282597874
 10
11549.69177865133
 20
-6706.632429508697
 10
11548.62062945606
 20
-6706.651183161188
 10
11547.50938344512
 20
-6706.538427379483
 10
11546.36471700695
 20
-6706.294844156513
 10
11545.19352183261
 20
-6705.921889843587
 10
11544.00283329915
 20
-6705.421823108771
 10
11542.79982180742
 20
-6704.7976390157
 10
11541.59171404109
 20
-6704.05308740064
 10
11540.38578244229
 20
-6703.192652763663
 10
11539.18927066132
 20
-6702.221523089793
 10
11538.00938307909
 20
-6701.145516642555
 10
11536.8532154723
 20
-6699.971108899459
 10
11535.72771613191
 20
-6698.705376031305
 10
11534.63966118358
 20
-6697.355919963196
 10
11533.59558143494
 20
-6695.930861396018
 10
11532.60177140889
 20
-6694.438760553146
 10
11531.66419682037
 20
-6692.888608086721
 10
11530.78850360964
 20
-6691.289705522793
 10
11529.97995401016
 20
-6689.651689051501
 10
11529.24341099596
 20
-6687.984400119642
 10
11528.58330536106
 20
-6686.297871215305
 10
11528.00360610535
 20
-6684.60223694287
 10
11527.50780106402
 20
-6682.907691606231
 10
11527.09887250887
 20
-6681.224448322739
 10
11526.77927721939
 20
-6679.562610854205
 10
11526.55093758986
 20
-6677.932174170425
 10
11526.4152294768
 20
-6676.342955946205
 10
11526.37296692719
 20
-6674.804501206829
 10
11526.4244055785
 20
-6673.326072704788
 10
11526.56923511645
 20
-6671.916557499591
 10
11526.80658081287
 20
-6670.584432619105
 10
11527.13502378221
 20
-6669.337707939863
 10
11527.55258058798
 20
-6668.183878106135
 10
11528.05674515154
 20
-6667.129891691026
 10
11528.64448614609
 20
-6666.182083089923
 10
11529.31226376117
 20
-6665.346151868383
 10
11530.056063882
 20
-6664.627124951186
 10
11530.74829065993
 20
-6664.108770617209
  0
LWPOLYLINE
  5
1B934F
330
18
100
AcDbEntity
  8
0
  6
SLD-実線
 62
     8
370
    15
100
AcDbPolyline
 90
       40
 70
   128
 43
0.0
 10
11551.94612172076
 20
-6705.983182995491
 10
11551.5038889222
 20
-6706.092843561639
 10
11550.47927890819
 20
-6706.242990472463
 10
11549.40812971293
 20
-6706.261744124954
 10
11548.29688370198
 20
-6706.14898834325
 10
11547.15221726382
 20
-6705.905405120278
 10
11545.98102208947
 20
-6705.532460882744
 10
11544.79033355601
 20
-6705.032384072536
 10
11543.58732206428
 20
-6704.408199979466
 10
11542.37921429796
 20
-6703.663648364406
 10
11541.17327818248
 20
-6702.803223127898
 10
11539.97677091818
 20
-6701.832084053559
 10
11538.79688333595
 20
-6700.75607760632
 10
11537.64071572916
 20
-6699.581679938617
 10
11536.51521638877
 20
-6698.31593699507
 10
11535.42716144045
 20
-6696.966480926962
 10
11534.38308169181
 20
-6695.541422359784
 10
11533.38927166576
 20
-6694.049331592304
 10
11532.45169707723
 20
-6692.499169050487
 10
11531.5760038665
 20
-6690.90027656195
 10
11530.76745426703
 20
-6689.262260090659
 10
11530.03091125282
 20
-6687.594961083407
 10
11529.37080561792
 20
-6685.908432179071
 10
11528.79110636221
 20
-6684.212797906636
 10
11528.29530132089
 20
-6682.518262645389
 10
11527.88637276574
 20
-6680.835009286504
 10
11527.56677747625
 20
-6679.173171817971
 10
11527.33843784672
 20
-6677.542745209583
 10
11527.20272973367
 20
-6675.953516909971
 10
11527.16046718405
 20
-6674.415072245986
 10
11527.21190583537
 20
-6672.936643743946
 10
11527.35673537332
 20
-6671.527118463357
 10
11527.59408106974
 20
-6670.194993582872
 10
11527.92252403908
 20
-6668.94826890363
 10
11528.34008084485
 20
-6667.794444107596
 10
11528.84424540841
 20
-6666.740457692487
 10
11529.43198640295
 20
-6665.792649091385
 10
11530.09976401804
 20
-6664.956717869845
 10
11530.84356413886
 20
-6664.237690952648
 10
11531.17242388554
 20
-6663.97549013915
  0
LWPOLYLINE
  5
1B9350
330
18
100
AcDbEntity
  8
0
  6
SLD-実線
 62
     8
370
    15
100
AcDbPolyline
 90
       39
 70
   128
 43
0.0
 10
11552.29719062694
 20
-6705.702158786729
 10
11552.29138692073
 20
-6705.703404187943
 10
11551.26677916506
 20
-6705.85356151162
 10
11550.19562996979
 20
-6705.872315164111
 10
11549.08438395885
 20
-6705.759559382406
 10
11547.93971752069
 20
-6705.515976159436
 10
11546.76852234634
 20
-6705.14302184651
 10
11545.57783381288
 20
-6704.642945036302
 10
11544.37482232115
 20
-6704.018760943232
 10
11543.16671455483
 20
-6703.274219403564
 10
11541.96077843935
 20
-6702.413784091663
 10
11540.76427117505
 20
-6701.442645017325
 10
11539.58438359282
 20
-6700.366638570086
 10
11538.42821598603
 20
-6699.192240902383
 10
11537.30271664564
 20
-6697.926508034227
 10
11536.21466169732
 20
-6696.577051966119
 10
11535.17058194867
 20
-6695.15198332355
 10
11534.17677192263
 20
-6693.65989255607
 10
11533.2391973341
 20
-6692.109730014253
 10
11532.36350412337
 20
-6690.510837525716
 10
11531.55495452389
 20
-6688.872821054425
 10
11530.81841150969
 20
-6687.205532122564
 10
11530.15830587479
 20
-6685.518993142838
 10
11529.57860661908
 20
-6683.823358870402
 10
11529.08280157776
 20
-6682.128823609155
 10
11528.6738730226
 20
-6680.445580325662
 10
11528.35427773312
 20
-6678.783742857127
 10
11528.12593810359
 20
-6677.153306173348
 10
11527.99022999053
 20
-6675.564087949127
 10
11527.94796744092
 20
-6674.025633209752
 10
11527.99940609223
 20
-6672.547204707711
 10
11528.14423563018
 20
-6671.137689502514
 10
11528.3815813266
 20
-6669.805559584334
 10
11528.71002429594
 20
-6668.558834905092
 10
11529.12758110171
 20
-6667.405010109058
 10
11529.63174566527
 20
-6666.351023693949
 10
11530.21948665982
 20
-6665.403215092847
 10
11530.8872642749
 20
-6664.567278833611
 10
11531.60885461078
 20
-6663.867083990895
  0
LWPOLYLINE
  5
1B9351
330
18
100
AcDbEntity
  8
0
  6
SLD-実線
 62
     8
370
    15
100
AcDbPolyline
 90
       38
 70
   128
 43
0.0
 10
11552.63580278562
 20
-6705.395941273573
 10
11552.05427942193
 20
-6705.464122475386
 10
11550.983132485
 20
-6705.482876465338
 10
11549.87188195738
 20
-6705.370120008711
 10
11548.72721777755
 20
-6705.126537123202
 10
11547.5560226032
 20
-6704.753582810276
 10
11546.36533406975
 20
-6704.25351607546
 10
11545.16232257801
 20
-6703.629331982389
 10
11543.95421481169
 20
-6702.884780367329
 10
11542.74827869621
 20
-6702.02435513082
 10
11541.55177143192
 20
-6701.053216056482
 10
11540.37188384969
 20
-6699.977209609243
 10
11539.2157162429
 20
-6698.802801866148
 10
11538.09021690251
 20
-6697.537068997994
 10
11537.00215743751
 20
-6696.187612254962
 10
11535.95808220554
 20
-6694.762554362707
 10
11534.96427217949
 20
-6693.270453519835
 10
11534.02669759097
 20
-6691.72030105341
 10
11533.15100438024
 20
-6690.121398489482
 10
11532.34245478076
 20
-6688.48338201819
 10
11531.60591176656
 20
-6686.816093086331
 10
11530.94580613166
 20
-6685.129564181994
 10
11530.36610687594
 20
-6683.433929909559
 10
11529.87030183462
 20
-6681.739394648312
 10
11529.46137327947
 20
-6680.056141289428
 10
11529.14177798998
 20
-6678.394303820894
 10
11528.91343836046
 20
-6676.763867137114
 10
11528.7777302474
 20
-6675.174648912894
 10
11528.73546769779
 20
-6673.636194173518
 10
11528.7869063491
 20
-6672.157765671477
 10
11528.93173588705
 20
-6670.74825046628
 10
11529.16908158347
 20
-6669.416125585794
 10
11529.49752455281
 20
-6668.169400906553
 10
11529.91508135858
 20
-6667.015571072823
 10
11530.41924592214
 20
-6665.961584657715
 10
11531.00698691669
 20
-6665.013776056612
 10
11531.67476453177
 20
-6664.177844835072
 10
11532.05774434184
 20
-6663.783861409106
  0
LWPOLYLINE
  5
1B9352
330
18
100
AcDbEntity
  8
0
  6
SLD-実線
 62
     8
370
    15
100
AcDbPolyline
 90
       38
 70
   128
 43
0.0
 10
11552.96175691351
 20
-6705.064130462721
 10
11552.84177967879
 20
-6705.074683439152
 10
11551.77063048353
 20
-6705.093437091642
 10
11550.65938221424
 20
-6704.980680972477
 10
11549.51471803442
 20
-6704.737098086967
 10
11548.34352060173
 20
-6704.364153511971
 10
11547.15283432661
 20
-6703.864077039225
 10
11545.94982283488
 20
-6703.239892946155
 10
11544.74171506856
 20
-6702.495341331095
 10
11543.53577895308
 20
-6701.634916094587
 10
11542.33927168878
 20
-6700.663777020248
 10
11541.15938410655
 20
-6699.587770573009
 10
11540.00321649976
 20
-6698.413372905306
 10
11538.87771715937
 20
-6697.147629961759
 10
11537.78965769437
 20
-6695.798173218727
 10
11536.7455824624
 20
-6694.373115326473
 10
11535.75177243636
 20
-6692.881024558993
 10
11534.81419784783
 20
-6691.330862017176
 10
11533.9385046371
 20
-6689.731969528639
 10
11533.12995503763
 20
-6688.093953057348
 10
11532.39341202342
 20
-6686.426664125487
 10
11531.73330638852
 20
-6684.740125145761
 10
11531.15360713281
 20
-6683.044490873325
 10
11530.65780209149
 20
-6681.349955612078
 10
11530.24887353633
 20
-6679.666702253193
 10
11529.92927824685
 20
-6678.00486478466
 10
11529.70093861732
 20
-6676.374438176272
 10
11529.56523050427
 20
-6674.78520987666
 10
11529.52296795465
 20
-6673.246765212675
 10
11529.57440660597
 20
-6671.768331672938
 10
11529.71923614392
 20
-6670.358816467741
 10
11529.95658184034
 20
-6669.026686549561
 10
11530.28502480967
 20
-6667.779961870319
 10
11530.70258161544
 20
-6666.626137074285
 10
11531.206746179
 20
-6665.572150659176
 10
11531.79448717355
 20
-6664.624342058075
 10
11532.46226027196
 20
-6663.788410161611
 10
11532.51928750553
 20
-6663.726236524315
  0
LWPOLYLINE
  5
1B9353
330
18
100
AcDbEntity
  8
0
  6
SLD-実線
 62
     8
370
    15
100
AcDbPolyline
 90
       36
 70
   128
 43
0.0
 10
11553.27480090303
 20
-6704.706208618847
 10
11552.55813074039
 20
-6704.7040081308
 10
11551.44688247111
 20
-6704.591252011634
 10
11550.30221829128
 20
-6704.347669126124
 10
11549.1310208586
 20
-6703.974714475738
 10
11547.94033458348
 20
-6703.474648078383
 10
11546.73732083341
 20
-6702.85045357246
 10
11545.52921532542
 20
-6702.105912370253
 10
11544.32327920994
 20
-6701.245477058352
 10
11543.12677194565
 20
-6700.274337984014
 10
11541.94688436342
 20
-6699.198331536775
 10
11540.79071675663
 20
-6698.023933869072
 10
11539.66521741624
 20
-6696.758201000916
 10
11538.57715795124
 20
-6695.408744257885
 10
11537.53308271927
 20
-6693.983686365631
 10
11536.53927269322
 20
-6692.491585522759
 10
11535.6016981047
 20
-6690.941422980943
 10
11534.72600489397
 20
-6689.342530492405
 10
11533.91745077782
 20
-6687.704513346191
 10
11533.18091228029
 20
-6686.037225089252
 10
11532.52080664539
 20
-6684.350686109527
 10
11531.94110738968
 20
-6682.655051837091
 10
11531.44530234835
 20
-6680.960516575844
 10
11531.0363737932
 20
-6679.277273292349
 10
11530.71677850372
 20
-6677.615435823816
 10
11530.48843887419
 20
-6675.984999140037
 10
11530.35273076113
 20
-6674.395780915816
 10
11530.31046821152
 20
-6672.857326176441
 10
11530.36190686283
 20
-6671.3788976744
 10
11530.50673640078
 20
-6669.969382469203
 10
11530.7440820972
 20
-6668.637252551023
 10
11531.07252506654
 20
-6667.390527871781
 10
11531.49008187231
 20
-6666.236703075747
 10
11531.99424643587
 20
-6665.182716660638
 10
11532.58198291374
 20
-6664.234907384613
 10
11532.99374741963
 20
-6663.694718720299
  0
LWPOLYLINE
  5
1B9354
330
18
100
AcDbEntity
  8
0
  6
SLD-実線
 62
     8
370
    15
100
AcDbPolyline
 90
       36
 70
   128
 43
0.0
 10
11553.57462287046
 20
-6704.321559029009
 10
11553.34563099726
 20
-6704.314569094566
 10
11552.23438272797
 20
-6704.2018129754
 10
11551.08971854815
 20
-6703.95823008989
 10
11549.91852111547
 20
-6703.585275439504
 10
11548.72783484035
 20
-6703.085209042149
 10
11547.52482109028
 20
-6702.461024611616
 10
11546.31671332395
 20
-6701.716472996556
 10
11545.11077946681
 20
-6700.856048097509
 10
11543.91427220251
 20
-6699.884909023171
 10
11542.73438462029
 20
-6698.808902575932
 10
11541.5782170135
 20
-6697.634494832837
 10
11540.4527176731
 20
-6696.368761964683
 10
11539.36465820811
 20
-6695.019305221651
 10
11538.32058297614
 20
-6693.594247329396
 10
11537.32677295009
 20
-6692.102146486524
 10
11536.38919836157
 20
-6690.551994020099
 10
11535.51350515084
 20
-6688.953091456171
 10
11534.70495103468
 20
-6687.315074309956
 10
11533.96841253716
 20
-6685.647786053019
 10
11533.30830690225
 20
-6683.961257148683
 10
11532.72860764654
 20
-6682.265622876248
 10
11532.23280260522
 20
-6680.571087615001
 10
11531.82387405007
 20
-6678.887834256117
 10
11531.50427876058
 20
-6677.225996787583
 10
11531.27593913106
 20
-6675.595560103803
 10
11531.140231018
 20
-6674.006341879583
 10
11531.09796846838
 20
-6672.467892177903
 10
11531.1494071197
 20
-6670.989463675862
 10
11531.29423214098
 20
-6669.579942758046
 10
11531.53158235407
 20
-6668.247818552484
 10
11531.86002532341
 20
-6667.001093873242
 10
11532.27758212918
 20
-6665.847269077209
 10
11532.78174669274
 20
-6664.793277624404
 10
11533.36948317061
 20
-6663.845468348378
 10
11533.48142500212
 20
-6663.689937989651
  0
LWPOLYLINE
  5
1B9355
330
18
100
AcDbEntity
  8
0
  6
SLD-実線
 62
     8
370
    15
100
AcDbPolyline
 90
       34
 70
   128
 43
0.0
 10
11553.86084783819
 20
-6703.909405687738
 10
11553.02188298484
 20
-6703.812373939166
 10
11551.87721880502
 20
-6703.568791053656
 10
11550.70602137233
 20
-6703.19584647866
 10
11549.51533509721
 20
-6702.695770005914
 10
11548.31232134714
 20
-6702.071585575382
 10
11547.10421358082
 20
-6701.327033960322
 10
11545.89827972368
 20
-6700.466609061275
 10
11544.70177245938
 20
-6699.495469986937
 10
11543.52188487715
 20
-6698.419463539698
 10
11542.36571727036
 20
-6697.245065871994
 10
11541.24021792997
 20
-6695.979333003839
 10
11540.15215846497
 20
-6694.629876260808
 10
11539.108083233
 20
-6693.204808293161
 10
11538.11427320696
 20
-6691.712717525682
 10
11537.17669861843
 20
-6690.162554983865
 10
11536.3010054077
 20
-6688.563662495328
 10
11535.49245129155
 20
-6686.925645349113
 10
11534.75591279402
 20
-6685.258357092176
 10
11534.09580715912
 20
-6683.57181811245
 10
11533.51610790341
 20
-6681.876183840014
 10
11533.02030286209
 20
-6680.181648578766
 10
11532.61137430693
 20
-6678.498395219882
 10
11532.29177450077
 20
-6676.836557076425
 10
11532.06343938792
 20
-6675.206131142961
 10
11531.92773127487
 20
-6673.61691291874
 10
11531.88546872525
 20
-6672.078458179365
 10
11531.93690737656
 20
-6670.600024639627
 10
11532.08173239784
 20
-6669.190508759507
 10
11532.31908261094
 20
-6667.858384553946
 10
11532.64752558027
 20
-6666.611654837008
 10
11533.06508238604
 20
-6665.457830040974
 10
11533.5692469496
 20
-6664.403843625865
 10
11533.98269942133
 20
-6663.712651008109
  0
LWPOLYLINE
  5
1B9356
330
18
100
AcDbEntity
  8
0
  6
SLD-実線
 62
     8
370
    15
100
AcDbPolyline
 90
       34
 70
   128
 43
0.0
 10
11554.13303000528
 20
-6703.468861739655
 10
11553.80938324171
 20
-6703.422944978323
 10
11552.66471906188
 20
-6703.179362092813
 10
11551.4935216292
 20
-6702.806407442426
 10
11550.30283535408
 20
-6702.306341045072
 10
11549.09982160401
 20
-6701.682146539148
 10
11547.89171383769
 20
-6700.937604999479
 10
11546.68577998054
 20
-6700.077170025041
 10
11545.48927271625
 20
-6699.106030950703
 10
11544.30938513402
 20
-6698.030024503463
 10
11543.15321752723
 20
-6696.855626835761
 10
11542.02771818684
 20
-6695.589893967605
 10
11540.93965872184
 20
-6694.240437224574
 10
11539.89558348987
 20
-6692.81537933232
 10
11538.90177346382
 20
-6691.323278489448
 10
11537.9641988753
 20
-6689.77311594763
 10
11537.08850566457
 20
-6688.174223459095
 10
11536.27995154842
 20
-6686.53620631288
 10
11535.54340853421
 20
-6684.868917381019
 10
11534.88330289931
 20
-6683.182388476684
 10
11534.30360816027
 20
-6681.48674480378
 10
11533.80780311895
 20
-6679.792209542533
 10
11533.3988745638
 20
-6678.108966259039
 10
11533.07927475764
 20
-6676.447128115582
 10
11532.85093964479
 20
-6674.816692106726
 10
11532.71523153173
 20
-6673.227473882505
 10
11532.67296898212
 20
-6671.68901914313
 10
11532.72440311676
 20
-6670.210589966166
 10
11532.86923265471
 20
-6668.801074760969
 10
11533.1065828678
 20
-6667.468945517712
 10
11533.43502583714
 20
-6666.222220838469
 10
11533.85258264291
 20
-6665.068396042436
 10
11534.35674720647
 20
-6664.014409627327
 10
11534.49801503477
 20
-6663.763764079057
  0
LWPOLYLINE
  5
1B9357
330
18
100
AcDbEntity
  8
0
  6
SLD-実線
 62
     8
370
    15
100
AcDbPolyline
 90
       32
 70
   128
 43
0.0
 10
11554.39064143233
 20
-6702.998848549365
 10
11553.45221706041
 20
-6702.789922719117
 10
11552.28102188607
 20
-6702.416968406193
 10
11551.09033335261
 20
-6701.916901671376
 10
11549.88732186088
 20
-6701.292717578305
 10
11548.67921409455
 20
-6700.548165963246
 10
11547.47328023741
 20
-6699.687741064198
 10
11546.27677071477
 20
-6698.716601652399
 10
11545.09688539088
 20
-6697.640595542621
 10
11543.94071552576
 20
-6696.466187462065
 10
11542.8152184437
 20
-6695.200454931371
 10
11541.7271589787
 20
-6693.85099818834
 10
11540.68308374674
 20
-6692.425940296085
 10
11539.68927372069
 20
-6690.933839453213
 10
11538.75169913216
 20
-6689.383686986788
 10
11537.87600140476
 20
-6687.784793823328
 10
11537.06745180528
 20
-6686.146767276645
 10
11536.33090879108
 20
-6684.479478344785
 10
11535.67080315618
 20
-6682.79294944045
 10
11535.09110841714
 20
-6681.097315842937
 10
11534.59530337582
 20
-6679.40278058169
 10
11534.18637030399
 20
-6677.719526547882
 10
11533.86677501451
 20
-6676.057689079348
 10
11533.63843990166
 20
-6674.427253070492
 10
11533.5027317886
 20
-6672.838034846272
 10
11533.46046923898
 20
-6671.299585144592
 10
11533.51190337362
 20
-6669.821155967627
 10
11533.65673291157
 20
-6668.411635724735
 10
11533.89408312467
 20
-6667.079511519173
 10
11534.22252609401
 20
-6665.832786839931
 10
11534.64008289978
 20
-6664.678962043898
 10
11535.02790751134
 20
-6663.844342659153
  0
LWPOLYLINE
  5
1B9358
330
18
100
AcDbEntity
  8
0
  6
SLD-実線
 62
     8
370
    15
100
AcDbPolyline
 90
       32
 70
   128
 43
0.0
 10
11554.6330538352
 20
-6702.49810178988
 10
11554.23971731728
 20
-6702.400483682884
 10
11553.06851988459
 20
-6702.027539107889
 10
11551.87783360947
 20
-6701.527462635142
 10
11550.67481985941
 20
-6700.90327820461
 10
11549.46671435142
 20
-6700.158737002403
 10
11548.26078049428
 20
-6699.298302027964
 10
11547.06427097164
 20
-6698.327162616164
 10
11545.88438564775
 20
-6697.251156506387
 10
11544.72821578262
 20
-6696.076758501222
 10
11543.60271644223
 20
-6694.811025633067
 10
11542.51465923557
 20
-6693.461569227497
 10
11541.4705840036
 20
-6692.03650125985
 10
11540.47676946088
 20
-6690.544409817448
 10
11539.53919938903
 20
-6688.994247950553
 10
11538.66350166163
 20
-6687.395354787093
 10
11537.85495206215
 20
-6685.757338315803
 10
11537.11840904795
 20
-6684.090049383942
 10
11536.45830341305
 20
-6682.403510404216
 10
11535.87860867401
 20
-6680.707876806704
 10
11535.38280363268
 20
-6679.013341545455
 10
11534.97387056086
 20
-6677.330087511647
 10
11534.65427527137
 20
-6675.668250043114
 10
11534.42594015852
 20
-6674.03782410965
 10
11534.29023204546
 20
-6672.448600847732
 10
11534.24796497918
 20
-6670.910150471131
 10
11534.29940363049
 20
-6669.431721969089
 10
11534.44423316844
 20
-6668.022201726196
 10
11534.68158338153
 20
-6666.690077520634
 10
11535.01002635087
 20
-6665.443352841392
 10
11535.42758315664
 20
-6664.289523007663
 10
11535.57299256303
 20
-6663.955653649933
  0
LWPOLYLINE
  5
1B9359
330
18
100
AcDbEntity
  8
0
  6
SLD-実線
 62
     8
370
    15
100
AcDbPolyline
 90
       30
 70
   128
 43
0.0
 10
11554.85953146066
 20
-6701.965131635136
 10
11553.85602014146
 20
-6701.638100071654
 10
11552.66533386634
 20
-6701.138033674299
 10
11551.46232011627
 20
-6700.513839168376
 10
11550.25421234995
 20
-6699.769297628707
 10
11549.04828075114
 20
-6698.90886299173
 10
11547.85177122851
 20
-6697.93772357993
 10
11546.67188590462
 20
-6696.861727545544
 10
11545.51571603949
 20
-6695.687319464988
 10
11544.3902166991
 20
-6694.421586596833
 10
11543.30215949244
 20
-6693.072130191263
 10
11542.25808426047
 20
-6691.647072299008
 10
11541.26426971775
 20
-6690.154970781214
 10
11540.3266996459
 20
-6688.60480891432
 10
11539.45100191849
 20
-6687.00591575086
 10
11538.64245231901
 20
-6685.367899279569
 10
11537.90590930481
 20
-6683.700610347707
 10
11537.24580366991
 20
-6682.014081443373
 10
11536.66610893087
 20
-6680.318447845861
 10
11536.17030388955
 20
-6678.623902509222
 10
11535.76137081773
 20
-6676.940658550805
 10
11535.44177552824
 20
-6675.278821082271
 10
11535.21344041539
 20
-6673.648385073415
 10
11535.07772778565
 20
-6672.059166174271
 10
11535.03546523604
 20
-6670.520716472591
 10
11535.08690388736
 20
-6669.042282932855
 10
11535.23173342531
 20
-6667.632767727658
 10
11535.4690836384
 20
-6666.300638484401
 10
11535.79752209106
 20
-6665.053913130236
 10
11536.13401432451
 20
-6664.099183481863
  0
LWPOLYLINE
  5
1B935A
330
18
100
AcDbEntity
  8
0
  6
SLD-実線
 62
     8
370
    15
100
AcDbPolyline
 90
       30
 70
   128
 43
0.0
 10
11555.06920722255
 20
-6701.398188383357
 10
11554.64352039833
 20
-6701.248661035419
 10
11553.45283412321
 20
-6700.748594638065
 10
11552.24982037314
 20
-6700.124410207532
 10
11551.04171260681
 20
-6699.379858592472
 10
11549.83578100801
 20
-6698.519434030887
 10
11548.63927148537
 20
-6697.548294619087
 10
11547.45938616148
 20
-6696.472288509311
 10
11546.30321629636
 20
-6695.297890504145
 10
11545.17771695597
 20
-6694.032147560598
 10
11544.0896597493
 20
-6692.682691155029
 10
11543.045582259
 20
-6691.257632925312
 10
11542.05176997461
 20
-6689.765531744979
 10
11541.11419990276
 20
-6688.215379953477
 10
11540.23850217536
 20
-6686.616486790017
 10
11539.42995257588
 20
-6684.978460243334
 10
11538.69340956168
 20
-6683.311171311473
 10
11538.03330392678
 20
-6681.624642407138
 10
11537.45360918774
 20
-6679.929008809627
 10
11536.95780414642
 20
-6678.234473548378
 10
11536.54887107459
 20
-6676.551219514571
 10
11536.22927578511
 20
-6674.889382046038
 10
11536.00094067225
 20
-6673.258951074877
 10
11535.86522804252
 20
-6671.669732175733
 10
11535.82296549291
 20
-6670.131277436358
 10
11535.87440414422
 20
-6668.652848934316
 10
11536.01923368217
 20
-6667.243333729119
 10
11536.25658389527
 20
-6665.911204485862
 10
11536.58502234793
 20
-6664.664479131697
 10
11536.71183794956
 20
-6664.27669648622
  0
LWPOLYLINE
  5
1B935B
330
18
100
AcDbEntity
  8
0
  6
SLD-実線
 62
     8
370
    15
100
AcDbPolyline
 90
       28
 70
   128
 43
0.0
 10
11555.27696648138
 20
-6700.801272964836
 10
11554.24033438007
 20
-6700.359155601831
 10
11553.03732063
 20
-6699.734971171299
 10
11551.82921286368
 20
-6698.99042963163
 10
11550.62328126487
 20
-6698.129994994653
 10
11549.42677174224
 20
-6697.158855582853
 10
11548.24688641835
 20
-6696.082849473076
 10
11547.09071655322
 20
-6694.908451467911
 10
11545.96521721283
 20
-6693.642718599756
 10
11544.87716000617
 20
-6692.293262194185
 10
11543.83308251586
 20
-6690.868193889079
 10
11542.83927248982
 20
-6689.376103121598
 10
11541.90170015963
 20
-6687.825940917242
 10
11541.02600243223
 20
-6686.227047753783
 10
11540.21745283275
 20
-6684.589031282492
 10
11539.48090981855
 20
-6682.921742350631
 10
11538.82080418364
 20
-6681.235203370904
 10
11538.24110944461
 20
-6679.539569773393
 10
11537.74530440328
 20
-6677.845034512145
 10
11537.33637133146
 20
-6676.161780478336
 10
11537.01677604197
 20
-6674.499948047498
 10
11536.78843641244
 20
-6672.869516401415
 10
11536.65272829939
 20
-6671.280293139498
 10
11536.61046574977
 20
-6669.74184343782
 10
11536.66190440109
 20
-6668.263414935778
 10
11536.80673393904
 20
-6666.853894692885
 10
11537.04408415213
 20
-6665.521770487323
 10
11537.3123184419
 20
-6664.47391804075
  0
LWPOLYLINE
  5
1B935C
330
18
100
AcDbEntity
  8
0
  6
SLD-実線
 62
     8
370
    15
100
AcDbPolyline
 90
       28
 70
   128
 43
0.0
 10
11555.41139303565
 20
-6700.143786911185
 10
11555.02783463694
 20
-6699.969726640988
 10
11553.82482088687
 20
-6699.345532135065
 10
11552.61671312055
 20
-6698.600990595396
 10
11551.4107792634
 20
-6697.740555620958
 10
11550.21427199911
 20
-6696.76942662201
 10
11549.03438441688
 20
-6695.693420174772
 10
11547.87821681009
 20
-6694.519012431677
 10
11546.7527174697
 20
-6693.253279563522
 10
11545.66466026304
 20
-6691.903823157951
 10
11544.62058277273
 20
-6690.478764928235
 10
11543.62677048834
 20
-6688.986663747903
 10
11542.68919815816
 20
-6687.436511618938
 10
11541.81350268909
 20
-6685.837608717549
 10
11541.00495308961
 20
-6684.199592246257
 10
11540.26841007541
 20
-6682.532303314396
 10
11539.60830444051
 20
-6680.845774410061
 10
11539.0286051848
 20
-6679.150140137626
 10
11538.53280014348
 20
-6677.455594800987
 10
11538.12387158832
 20
-6675.772351517494
 10
11537.80427629884
 20
-6674.110514048961
 10
11537.57593666931
 20
-6672.48007736518
 10
11537.44022855625
 20
-6670.89085914096
 10
11537.39796600664
 20
-6669.352409439281
 10
11537.44940465795
 20
-6667.873975899543
 10
11537.59423419591
 20
-6666.464460694346
 10
11537.831584409
 20
-6665.132331451089
 10
11537.91641816509
 20
-6664.766189010371
  0
LWPOLYLINE
  5
1B935D
330
18
100
AcDbEntity
  8
0
  6
SLD-実線
 62
     8
370
    15
100
AcDbPolyline
 90
       26
 70
   128
 43
0.0
 10
11555.52702729451
 20
-6699.441456163191
 10
11554.61232114374
 20
-6698.956103174221
 10
11553.40421337741
 20
-6698.211551559161
 10
11552.19827952027
 20
-6697.351126660114
 10
11551.00177225597
 20
-6696.379987585777
 10
11549.82188467374
 20
-6695.303981138537
 10
11548.66571706696
 20
-6694.129583470834
 10
11547.54021772656
 20
-6692.863840527287
 10
11546.4521605199
 20
-6691.514384121718
 10
11545.4080830296
 20
-6690.089325892001
 10
11544.41427074521
 20
-6688.597224711668
 10
11543.47669841502
 20
-6687.047072582704
 10
11542.60100294596
 20
-6685.448179756706
 10
11541.79245334648
 20
-6683.810153210023
 10
11541.05591033228
 20
-6682.142864278162
 10
11540.39580469738
 20
-6680.456335373827
 10
11539.81610544167
 20
-6678.760701101392
 10
11539.32030040034
 20
-6677.066165840144
 10
11538.91137184519
 20
-6675.38291248126
 10
11538.5917765557
 20
-6673.721075012727
 10
11538.36343692618
 20
-6672.090643366642
 10
11538.22772881312
 20
-6670.501425142422
 10
11538.18546626351
 20
-6668.962970403047
 10
11538.23690491482
 20
-6667.484541901005
 10
11538.38173445277
 20
-6666.075026695808
 10
11538.54474722651
 20
-6665.10061046318
  0
LWPOLYLINE
  5
1B935E
330
18
100
AcDbEntity
  8
0
  6
SLD-実線
 62
     8
370
    15
100
AcDbPolyline
 90
       26
 70
   128
 43
0.0
 10
11555.62145951672
 20
-6698.690500465302
 10
11555.3998214006
 20
-6698.566664137988
 10
11554.19171363428
 20
-6697.822122598319
 10
11552.98577977713
 20
-6696.961687623881
 10
11551.78927251284
 20
-6695.990548549542
 10
11550.60938493061
 20
-6694.914542102304
 10
11549.45321732382
 20
-6693.7401444346
 10
11548.32771798343
 20
-6692.474411566445
 10
11547.23966077677
 20
-6691.124955160874
 10
11546.19558328646
 20
-6689.699886855768
 10
11545.20177100208
 20
-6688.207795750826
 10
11544.26419867189
 20
-6686.657633546471
 10
11543.38850320282
 20
-6685.058740720472
 10
11542.57995360335
 20
-6683.420724249181
 10
11541.84341058914
 20
-6681.75343531732
 10
11541.18330495424
 20
-6680.066896337593
 10
11540.60360569853
 20
-6678.371262065159
 10
11540.10780065721
 20
-6676.67672680391
 10
11539.69887210206
 20
-6674.993478482722
 10
11539.37927681257
 20
-6673.331641014188
 10
11539.15093718304
 20
-6671.701209368104
 10
11539.01522906999
 20
-6670.111986106187
 10
11538.97296652037
 20
-6668.573536404509
 10
11539.02440517169
 20
-6667.095107902467
 10
11539.16923470964
 20
-6665.685587659574
 10
11539.19885021507
 20
-6665.481398530866
  0
LWPOLYLINE
  5
1B935F
330
18
100
AcDbEntity
  8
0
  6
SLD-実線
 62
     8
370
    15
100
AcDbPolyline
 90
       24
 70
   128
 43
0.0
 10
11555.6918764676
 20
-6697.886088538723
 10
11554.97921389115
 20
-6697.432683562085
 10
11553.773280034
 20
-6696.572248587647
 10
11552.5767727697
 20
-6695.601119588699
 10
11551.39688518748
 20
-6694.525113141461
 10
11550.24071532235
 20
-6693.350705060904
 10
11549.1152182403
 20
-6692.084972530211
 10
11548.0271587753
 20
-6690.735515787179
 10
11546.98308354333
 20
-6689.310457894924
 10
11545.98927125894
 20
-6687.818356714592
 10
11545.05169892876
 20
-6686.268204585627
 10
11544.17600345969
 20
-6684.669301684238
 10
11543.36745386021
 20
-6683.031285212946
 10
11542.63091084601
 20
-6681.363996281085
 10
11541.97080521111
 20
-6679.67746737675
 10
11541.3911059554
 20
-6677.981833104315
 10
11540.89530091407
 20
-6676.287287767676
 10
11540.48637235892
 20
-6674.604044484183
 10
11540.16677706944
 20
-6672.94220701565
 10
11539.93843743991
 20
-6671.311775369566
 10
11539.80272932685
 20
-6669.722552107649
 10
11539.76046677724
 20
-6668.184102405969
 10
11539.81190542855
 20
-6666.705668866232
 10
11539.88086117408
 20
-6665.91372126478
  0
LWPOLYLINE
  5
1B9360
330
18
100
AcDbEntity
  8
0
  6
SLD-実線
 62
     8
370
    15
100
AcDbPolyline
 90
       22
 70
   128
 43
0.0
 10
11555.73487765452
 20
-6697.022039811014
 10
11554.56078029087
 20
-6696.182819626803
 10
11553.36427076824
 20
-6695.211680215003
 10
11552.18438544434
 20
-6694.135674105226
 10
11551.02821557921
 20
-6692.961276100062
 10
11549.90271849716
 20
-6691.695533493976
 10
11548.81465903216
 20
-6690.346076750944
 10
11547.77058380019
 20
-6688.92101885869
 10
11546.77677151581
 20
-6687.428927753749
 10
11545.83919918562
 20
-6685.878765549393
 10
11544.96350371656
 20
-6684.279872723395
 10
11544.15495411708
 20
-6682.641856252104
 10
11543.41841110288
 20
-6680.974557244851
 10
11542.75830546798
 20
-6679.288028340516
 10
11542.17860621226
 20
-6677.592394068081
 10
11541.68280117094
 20
-6675.897858806833
 10
11541.27387261579
 20
-6674.214605447949
 10
11540.9542773263
 20
-6672.552767979416
 10
11540.72593769678
 20
-6670.922336333331
 10
11540.59022958372
 20
-6669.333118109111
 10
11540.54796703411
 20
-6667.794663369736
 10
11540.59361828679
 20
-6666.404027776709
  0
LWPOLYLINE
  5
1B9361
330
18
100
AcDbEntity
  8
0
  6
SLD-実線
 62
     8
370
    15
100
AcDbPolyline
 90
       22
 70
   128
 43
0.0
 10
11555.74619792252
 20
-6696.090305245931
 10
11555.34828054773
 20
-6695.793380590569
 10
11554.1517710251
 20
-6694.82224117877
 10
11552.97188570121
 20
-6693.746235068991
 10
11551.81571583608
 20
-6692.571837063828
 10
11550.69021649569
 20
-6691.306104195672
 10
11549.60215928903
 20
-6689.956647790103
 10
11548.55808405706
 20
-6688.531579822456
 10
11547.56427177268
 20
-6687.039488717515
 10
11546.62669944249
 20
-6685.48932651316
 10
11545.75100397342
 20
-6683.890433687161
 10
11544.94245211561
 20
-6682.252416878408
 10
11544.20591135974
 20
-6680.585128284009
 10
11543.54580572484
 20
-6678.898589304282
 10
11542.96610646913
 20
-6677.202955031848
 10
11542.47030142781
 20
-6675.508419770599
 10
11542.06137287265
 20
-6673.825171449411
 10
11541.74177758317
 20
-6672.163333980877
 10
11541.51343795364
 20
-6670.532902334793
 10
11541.37772984058
 20
-6668.943684110573
 10
11541.33546729097
 20
-6667.405229371197
 10
11541.34094321136
 20
-6666.960601904309
  0
ARC
  5
1B9362
330
18
100
AcDbEntity
  8
0
  6
SLD-実線
 62
     8
370
    15
100
AcDbCircle
 10
11578.65936296579
 20
-6666.632549331936
 30
0.0
 40
33.55147194601602
100
AcDbArc
 50
187.0269257462614
 51
225.5998359263289
  0
ARC
  5
1B9363
330
18
100
AcDbEntity
  8
0
  6
SLD-実線
 62
     8
370
    15
100
AcDbCircle
 10
11579.0382597538
 20
-6666.445840235878
 30
0.0
 40
33.72681949997926
100
AcDbArc
 50
187.8233218013625
 51
224.7587999276759
  0
ARC
  5
1B9364
330
18
100
AcDbEntity
  8
0
  6
SLD-実線
 62
     8
370
    15
100
AcDbCircle
 10
11585.92230467466
 20
-6663.615590147801
 30
0.0
 40
0.5316177368261994
100
AcDbArc
 50
304.014182664308
 51
105.7950722027059
  0
LWPOLYLINE
  5
1B9365
330
18
100
AcDbEntity
  8
0
  6
SLD-実線
 62
     8
370
    15
100
AcDbPolyline
 90
       22
 70
   128
 43
0.0
 10
11587.70735986445
 20
-6662.73662217874
 10
11588.48215783909
 20
-6664.437698199074
 10
11589.18264831743
 20
-6666.16063347662
 10
11589.8049137791
 20
-6667.895781742898
 10
11590.3454732817
 20
-6669.633452968041
 10
11590.80130391502
 20
-6671.363926642071
 10
11591.16985825007
 20
-6673.077512552599
 10
11591.44907297626
 20
-6674.764642002634
 10
11591.63738830621
 20
-6676.41587229688
 10
11591.73375009366
 20
-6678.021975844353
 10
11591.73761989612
 20
-6679.573962258433
 10
11591.64897496233
 20
-6681.063159014087
 10
11591.46831291104
 20
-6682.481231574409
 10
11591.1966426789
 20
-6683.820257687343
 10
11590.83548424587
 20
-6685.072738644991
 10
11590.3868561082
 20
-6686.231683526143
 10
11589.85326933463
 20
-6687.29060082149
 10
11589.23770637255
 20
-6688.243573448856
 10
11588.5436100634
 20
-6689.085262038565
 10
11587.77486230932
 20
-6689.810968586007
 10
11586.93576168612
 20
-6690.416639786658
 10
11586.2879525456
 20
-6690.777809290966
  0
LWPOLYLINE
  5
1B9366
330
18
100
AcDbEntity
  8
0
  6
SLD-実線
 62
     8
370
    15
100
AcDbPolyline
 90
       23
 70
   128
 43
0.0
 10
11564.10176432129
 20
-6645.91384097033
 10
11564.3587159096
 20
-6645.79276372031
 10
11565.32407629493
 20
-6645.436653413934
 10
11566.34463826621
 20
-6645.208655979993
 10
11567.41469393736
 20
-6645.110054203069
 10
11568.52825888383
 20
-6645.141395121124
 10
11569.67910648488
 20
-6645.302502518449
 10
11570.86080273139
 20
-6645.592480484369
 10
11572.06673376973
 20
-6646.009701065671
 10
11573.29016035929
 20
-6646.55183770353
 10
11574.52423850174
 20
-6647.215855623968
 10
11575.76206547037
 20
-6647.998036277971
 10
11576.99672169541
 20
-6648.894013352967
 10
11578.22130096166
 20
-6649.898771022574
 10
11579.4289539002
 20
-6651.00669570087
 10
11580.61293073471
 20
-6652.211583153328
 10
11581.7666072649
 20
-6653.506702775885
 10
11582.88352956849
 20
-6654.88480886681
 10
11583.95745479178
 20
-6656.338193953646
 10
11584.98237578235
 20
-6657.858731188978
 10
11585.95256100614
 20
-6659.43791129275
 10
11586.86258565273
 20
-6661.066914972382
 10
11587.70735986445
 20
-6662.73662217874
  0
LWPOLYLINE
  5
1B9367
330
18
100
AcDbEntity
  8
0
  6
SLD-実線
 62
     8
370
    15
100
AcDbPolyline
 90
       20
 70
   128
 43
0.0
 10
11587.53235841942
 20
-6662.819928694238
 10
11586.69231244294
 20
-6661.159560822556
 10
11585.78737747932
 20
-6659.539672907595
 10
11584.82262080284
 20
-6657.969321171522
 10
11583.80343342997
 20
-6656.457294306941
 10
11582.73551666295
 20
-6655.012040520714
 10
11581.62484012334
 20
-6653.641641947459
 10
11580.47761881926
 20
-6652.353772479826
 10
11579.30026683698
 20
-6651.155620376876
 10
11578.09936949529
 20
-6650.053894985836
 10
11576.88164155372
 20
-6649.054760100789
 10
11575.6538915439
 20
-6648.163793814481
 10
11574.42298835914
 20
-6647.385989009152
 10
11573.1958165056
 20
-6646.725684352992
 10
11571.97923361181
 20
-6646.186586312595
 10
11570.78004763461
 20
-6645.771697418236
 10
11569.60496493916
 20
-6645.483341153622
 10
11568.46055556135
 20
-6645.323134165377
 10
11567.35321902841
 20
-6645.291968659343
 10
11566.33156902953
 20
-6645.383507720662
  0
LWPOLYLINE
  5
1B9368
330
18
100
AcDbEntity
  8
0
  6
SLD-実線
 62
     8
370
    15
100
AcDbPolyline
 90
       20
 70
   128
 43
0.0
 10
11588.06290834108
 20
-6689.327696301125
 10
11588.36393209038
 20
-6689.021164827054
 10
11589.05414526919
 20
-6688.184175130011
 10
11589.6662645632
 20
-6687.236542917801
 10
11590.19686636903
 20
-6686.183543497018
 10
11590.64298382786
 20
-6685.03109096277
 10
11591.00212180886
 20
-6683.785611878475
 10
11591.27227245094
 20
-6682.454075235642
 10
11591.4519241744
 20
-6681.043935963888
 10
11591.54007261859
 20
-6679.563073913868
 10
11591.53622530538
 20
-6678.019771230062
 10
11591.44040235032
 20
-6676.422648831413
 10
11591.2531405147
 20
-6674.780656495793
 10
11590.97548765955
 20
-6673.102970831748
 10
11590.60899598316
 20
-6671.398963985852
 10
11590.15571373331
 20
-6669.678176408478
 10
11589.61817957394
 20
-6667.950225277542
 10
11588.99939357614
 20
-6666.224783491951
 10
11588.30282305119
 20
-6664.51148902942
 10
11587.53235841942
 20
-6662.819928694238
  0
SPLINE
  5
1B9369
330
18
100
AcDbEntity
  8
0
  6
SLD-実線
 62
     8
370
    15
100
AcDbSpline
210
0.0
220
0.0
230
1.0
 70
     8
 71
     3
 72
    12
 73
     8
 74
     0
 42
0.000000001
 43
0.00000001
 40
0.0
 40
0.0
 40
0.0
 40
0.0
 40
0.2215399167614562
 40
0.4436938635532535
 40
0.6526425623634458
 40
0.8553551746093816
 40
1.0
 40
1.0
 40
1.0
 40
1.0
 10
11588.18778707496
 20
-6660.970243223643
 30
0.0
 10
11588.1756188347
 20
-6660.974713600053
 30
0.0
 10
11588.15124862813
 20
-6660.98366674317
 30
0.0
 10
11588.11034433235
 20
-6660.978276981921
 30
0.0
 10
11588.07313641918
 20
-6660.959098045588
 30
0.0
 10
11588.04532986807
 20
-6660.932096449924
 30
0.0
 10
11588.03315094155
 20
-6660.911340618222
 30
0.0
 10
11588.02807945463
 20
-6660.902697579879
 30
0.0
  0
LINE
  5
1B936A
330
18
100
AcDbEntity
  8
0
  6
SLD-実線
 62
     8
370
    15
100
AcDbLine
 10
11588.18778707496
 20
-6660.970243223643
 30
0.0
 11
11588.41803697585
 21
-6660.856379831158
 31
0.0
  0
SPLINE
  5
1B936B
330
18
100
AcDbEntity
  8
0
  6
SLD-実線
 62
     8
370
    15
100
AcDbSpline
210
0.0
220
0.0
230
1.0
 70
     8
 71
     3
 72
    12
 73
     8
 74
     0
 42
0.000000001
 43
0.00000001
 40
0.0
 40
0.0
 40
0.0
 40
0.0
 40
0.2178696088426356
 40
0.4362916784887673
 40
0.6430943990459711
 40
0.846247072316495
 40
1.0
 40
1.0
 40
1.0
 40
1.0
 10
11588.45656845542
 20
-6660.690801696097
 30
0.0
 10
11588.46253853195
 20
-6660.704705542787
 30
0.0
 10
11588.47449382358
 20
-6660.732548492712
 30
0.0
 10
11588.47592243656
 20
-6660.776294722526
 30
0.0
 10
11588.46421627522
 20
-6660.814179907026
 30
0.0
 10
11588.44349993839
 20
-6660.84129250685
 30
0.0
 10
11588.42570355698
 20
-6660.851837225575
 30
0.0
 10
11588.41803697585
 20
-6660.856379831158
 30
0.0
  0
SPLINE
  5
1B936C
330
18
100
AcDbEntity
  8
0
  6
SLD-実線
 62
     8
370
    15
100
AcDbSpline
210
0.0
220
0.0
230
1.0
 70
     8
 71
     3
 72
    10
 73
     6
 74
     0
 42
0.000000001
 43
0.00000001
 40
0.0
 40
0.0
 40
0.0
 40
0.0
 40
0.2479461792072698
 40
0.5258019939915527
 40
1.0
 40
1.0
 40
1.0
 40
1.0
 10
11588.45656845542
 20
-6660.690801696097
 30
0.0
 10
11588.21944830661
 20
-6660.248165776318
 30
0.0
 10
11587.71660431257
 20
-6659.309498965738
 30
0.0
 10
11586.69103901553
 20
-6657.570864735917
 30
0.0
 10
11585.84810814556
 20
-6656.33782816392
 30
0.0
 10
11585.31660876786
 20
-6655.560352579578
 30
0.0
  0
SPLINE
  5
1B936D
330
18
100
AcDbEntity
  8
0
  6
SLD-実線
 62
     8
370
    15
100
AcDbSpline
210
0.0
220
0.0
230
1.0
 70
     8
 71
     3
 72
    12
 73
     8
 74
     0
 42
0.000000001
 43
0.00000001
 40
0.0
 40
0.0
 40
0.0
 40
0.0
 40
0.2290179964860993
 40
0.4588337205854691
 40
0.6711777756082213
 40
0.8725517535674243
 40
0.9999999999999999
 40
0.9999999999999999
 40
0.9999999999999999
 40
0.9999999999999999
 10
11585.14401930772
 20
-6655.507593317318
 30
0.0
 10
11585.15666966638
 20
-6655.502845503666
 30
0.0
 10
11585.18201444812
 20
-6655.493333338526
 30
0.0
 10
11585.2263335881
 20
-6655.496550338445
 30
0.0
 10
11585.26738996813
 20
-6655.512982957567
 30
0.0
 10
11585.29760658073
 20
-6655.536150462012
 30
0.0
 10
11585.31130096123
 20
-6655.553592296717
 30
0.0
 10
11585.31660876786
 20
-6655.560352579578
 30
0.0
  0
LINE
  5
1B936E
330
18
100
AcDbEntity
  8
0
  6
SLD-実線
 62
     8
370
    15
100
AcDbLine
 10
11584.39698845391
 20
-6655.877014628083
 30
0.0
 11
11585.14401930772
 21
-6655.507593317318
 31
0.0
  0
SPLINE
  5
1B936F
330
18
100
AcDbEntity
  8
0
  6
SLD-実線
 62
     8
370
    15
100
AcDbSpline
210
0.0
220
0.0
230
1.0
 70
     8
 71
     3
 72
    12
 73
     8
 74
     0
 42
0.000000001
 43
0.00000001
 40
0.0
 40
0.0
 40
0.0
 40
0.0
 40
0.2165482184873973
 40
0.4336276273595916
 40
0.6400505856155806
 40
0.8437741979417198
 40
1.0
 40
1.0
 40
1.0
 40
1.0
 10
11584.37147998039
 20
-6656.030467138623
 30
0.0
 10
11584.36401703908
 20
-6656.018011939907
 30
0.0
 10
11584.34907284993
 20
-6655.993070990005
 30
0.0
 10
11584.34358453874
 20
-6655.953200867911
 30
0.0
 10
11584.35224851562
 20
-6655.918028587948
 30
0.0
 10
11584.37143271837
 20
-6655.892116199906
 30
0.0
 10
11584.38925374454
 20
-6655.881585275985
 30
0.0
 10
11584.39698845391
 20
-6655.877014628083
 30
0.0
  0
SPLINE
  5
1B9370
330
18
100
AcDbEntity
  8
0
  6
SLD-実線
 62
     8
370
    15
100
AcDbSpline
210
0.0
220
0.0
230
1.0
 70
     8
 71
     3
 72
     9
 73
     5
 74
     0
 42
0.000000001
 43
0.00000001
 40
0.0
 40
0.0
 40
0.0
 40
0.0
 40
0.7020211112281154
 40
1.0
 40
1.0
 40
1.0
 40
1.0
 10
11584.54945771768
 20
-6656.282975725268
 30
0.0
 10
11584.50791586924
 20
-6656.223740999381
 30
0.0
 10
11584.44874122653
 20
-6656.139363585457
 30
0.0
 10
11584.3892169563
 20
-6656.055466653253
 30
0.0
 10
11584.37147998039
 20
-6656.030467138623
 30
0.0
  0
SPLINE
  5
1B9371
330
18
100
AcDbEntity
  8
0
  6
SLD-実線
 62
     8
370
    15
100
AcDbSpline
210
0.0
220
0.0
230
1.0
 70
     8
 71
     3
 72
    12
 73
     8
 74
     0
 42
0.000000001
 43
0.00000001
 40
0.0
 40
0.0
 40
0.0
 40
0.0
 40
0.2229388056907965
 40
0.4465027522700884
 40
0.6567166332424828
 40
0.8599883938007706
 40
1.0
 40
1.0
 40
1.0
 40
1.0
 10
11584.7221890383
 20
-6656.338755465093
 30
0.0
 10
11584.70979220929
 20
-6656.343376647242
 30
0.0
 10
11584.68496378942
 20
-6656.352631969759
 30
0.0
 10
11584.64151854109
 20
-6656.349188606426
 30
0.0
 10
11584.60081267086
 20
-6656.332776497451
 30
0.0
 10
11584.56964742602
 20
-6656.308970429183
 30
0.0
 10
11584.55530672016
 20
-6656.290506447604
 30
0.0
 10
11584.54945771768
 20
-6656.282975725268
 30
0.0
  0
LINE
  5
1B9372
330
18
100
AcDbEntity
  8
0
  6
SLD-実線
 62
     8
370
    15
100
AcDbLine
 10
11584.7221890383
 20
-6656.338755465093
 30
0.0
 11
11585.05372084703
 21
-6656.174808542439
 31
0.0
  0
SPLINE
  5
1B9373
330
18
100
AcDbEntity
  8
0
  6
SLD-実線
 62
     8
370
    15
100
AcDbSpline
210
0.0
220
0.0
230
1.0
 70
     8
 71
     3
 72
    12
 73
     8
 74
     0
 42
0.000000001
 43
0.00000001
 40
0.0
 40
0.0
 40
0.0
 40
0.0
 40
0.2124159964639593
 40
0.4253345930459659
 40
0.628686085627141
 40
0.8315942950744843
 40
1.0
 40
1.0
 40
1.0
 40
1.0
 10
11585.22608144917
 20
-6656.229844288467
 30
0.0
 10
11585.21691834804
 20
-6656.218469226821
 30
0.0
 10
11585.19857046486
 20
-6656.195692188856
 30
0.0
 10
11585.1603631522
 20
-6656.172553737822
 30
0.0
 10
11585.1200262339
 20
-6656.16176009702
 30
0.0
 10
11585.08313527374
 20
-6656.16294403983
 30
0.0
 10
11585.06289886666
 20
-6656.17110652781
 30
0.0
 10
11585.05372084703
 20
-6656.174808542439
 30
0.0
  0
SPLINE
  5
1B9374
330
18
100
AcDbEntity
  8
0
  6
SLD-実線
 62
     8
370
    15
100
AcDbSpline
210
0.0
220
0.0
230
1.0
 70
     8
 71
     3
 72
    10
 73
     6
 74
     0
 42
0.000000001
 43
0.00000001
 40
0.0
 40
0.0
 40
0.0
 40
0.0
 40
0.2748677443874825
 40
0.5820368345445853
 40
1.0
 40
1.0
 40
1.0
 40
1.0
 10
11588.02807945463
 20
-6660.902697579879
 30
0.0
 10
11587.79109997514
 20
-6660.458415603307
 30
0.0
 10
11587.28929214608
 20
-6659.517641428931
 30
0.0
 10
11586.36489327371
 20
-6657.943680588529
 30
0.0
 10
11585.64247835381
 20
-6656.856494025526
 30
0.0
 10
11585.22608144917
 20
-6656.229844288467
 30
0.0
  0
LWPOLYLINE
  5
1B9375
330
18
100
AcDbEntity
  8
0
  6
SLD-実線
 62
     8
370
    15
100
AcDbPolyline
 90
       16
 70
   128
 43
0.0
 10
11612.49264716918
 20
-6663.78965955453
 10
11612.6852763796
 20
-6665.225898903605
 10
11612.82336371271
 20
-6666.851484345304
 10
11612.86938483352
 20
-6668.427146847425
 10
11612.82308496788
 20
-6669.944090959348
 10
11612.68472028843
 20
-6671.393867106532
 10
11612.45506454918
 20
-6672.768380764933
 10
11612.13539833963
 20
-6674.059971542307
 10
11611.72750403147
 20
-6675.261429930157
 10
11611.23365616184
 20
-6676.366061440671
 10
11610.65661038485
 20
-6677.367693946093
 10
11609.99958366896
 20
-6678.260756770511
 10
11609.26624241012
 20
-6679.040249453306
 10
11608.46067601715
 20
-6679.701839906282
 10
11607.58737734178
 20
-6680.24183828443
 10
11607.40999711605
 20
-6680.332503595533
  0
LWPOLYLINE
  5
1B9376
330
18
100
AcDbEntity
  8
0
  6
SLD-実線
 62
     8
370
    15
100
AcDbPolyline
 90
       13
 70
   128
 43
0.0
 10
11585.22380945633
 20
-6635.468540396958
 10
11585.92855988813
 20
-6635.163757690129
 10
11586.91927403248
 20
-6634.8681369436
 10
11587.96240338685
 20
-6634.700979427826
 10
11589.05213058474
 20
-6634.663217917126
 10
11590.18237662225
 20
-6634.755063584926
 10
11591.3468379301
 20
-6634.976004522145
 10
11592.53902069255
 20
-6635.324809515094
 10
11593.75227390606
 20
-6635.799527181864
 10
11594.97983204762
 20
-6636.397516088939
 10
11596.21484757743
 20
-6637.115435580024
 10
11597.45043245469
 20
-6637.949287159667
 10
11597.94485400076
 20
-6638.315459862903
  0
SPLINE
  5
1B9377
330
18
100
AcDbEntity
  8
0
  6
SLD-実線
 62
     8
370
    15
100
AcDbSpline
210
0.0
220
0.0
230
1.0
 70
    11
 71
     3
 72
    26
 73
    22
 74
     0
 42
0.000000001
 43
0.00000001
 40
0.0
 40
0.0
 40
0.0
 40
0.0
 40
0.0536955378148261
 40
0.1073905819235815
 40
0.1610835584955302
 40
0.2147740298775047
 40
0.2684685996992712
 40
0.3221636417340296
 40
0.3758434893276786
 40
0.4295070775998007
 40
0.483171146513396
 40
0.536851195352926
 40
0.5905458308131841
 40
0.6442402357388872
 40
0.6979308188885808
 40
0.7516241027590598
 40
0.8053201077397433
 40
0.8590058874588038
 40
0.9126740616871052
 40
0.9663351836918637
 40
1.0
 40
1.0
 40
1.0
 40
1.0
 10
11588.47152194753
 20
-6661.940838551242
 30
0.0
 10
11588.48953887372
 20
-6661.889762022587
 30
0.0
 10
11588.52557256044
 20
-6661.787609434901
 30
0.0
 10
11588.63701919268
 20
-6661.680017553548
 30
0.0
 10
11588.77653133288
 20
-6661.622476427664
 30
0.0
 10
11588.93287706888
 20
-6661.623525467641
 30
0.0
 10
11589.08699281487
 20
-6661.682610329959
 30
0.0
 10
11589.22149649272
 20
-6661.793371590822
 30
0.0
 10
11589.32085056633
 20
-6661.943374964954
 30
0.0
 10
11589.37379139434
 20
-6662.115740302353
 30
0.0
 10
11589.37447942941
 20
-6662.291006718931
 30
0.0
 10
11589.32312592219
 20
-6662.449335553545
 30
0.0
 10
11589.22580154246
 20
-6662.572736877595
 30
0.0
 10
11589.0937002705
 20
-6662.647168406717
 30
0.0
 10
11588.94175935408
 20
-6662.664220078238
 30
0.0
 10
11588.78690841273
 20
-6662.622043111404
 30
0.0
 10
11588.64635881256
 20
-6662.525554712295
 30
0.0
 10
11588.53542546417
 20
-6662.385650510208
 30
0.0
 10
11588.46736692936
 20
-6662.218711840558
 30
0.0
 10
11588.44905046338
 20
-6662.063653962445
 30
0.0
 10
11588.46526941701
 20
-6661.975011065257
 30
0.0
 10
11588.47152194753
 20
-6661.940838551242
 30
0.0
  0
LWPOLYLINE
  5
1B9378
330
18
100
AcDbEntity
  8
0
  6
SLD-実線
 62
     8
370
    15
100
AcDbPolyline
 90
       17
 70
   128
 43
0.0
 10
11587.49735913081
 20
-6662.835618446097
 10
11588.27447080104
 20
-6664.542893872842
 10
11588.97606257438
 20
-6666.272248947694
 10
11589.59811584188
 20
-6668.013778093229
 10
11590.13706717583
 20
-6669.757512205774
 10
11590.58982821189
 20
-6671.493453828849
 10
11590.95380918687
 20
-6673.211662052885
 10
11591.2269216618
 20
-6674.902293669309
 10
11591.40760166364
 20
-6676.555677184306
 10
11591.49481631983
 20
-6678.162321993232
 10
11591.48806406099
 20
-6679.713051005609
 10
11591.38738494557
 20
-6681.198951087597
 10
11591.19335478001
 20
-6682.611536952588
 10
11590.90708532134
 20
-6683.942702429154
 10
11590.53021570236
 20
-6685.184835520314
 10
11590.06490607443
 20
-6686.330800476084
 10
11589.61453063799
 20
-6687.202293640743
  0
LWPOLYLINE
  5
1B9379
330
18
100
AcDbEntity
  8
0
  6
SLD-実線
 62
     8
370
    15
100
AcDbPolyline
 90
       17
 70
   128
 43
0.0
 10
11569.52237017657
 20
-6645.529279060272
 10
11570.57843118665
 20
-6645.773978801903
 10
11571.78488079573
 20
-6646.170520306655
 10
11573.01025852253
 20
-6646.694379849905
 10
11574.24754935523
 20
-6647.342557307829
 10
11575.48966479332
 20
-6648.111331673774
 10
11576.72948985482
 20
-6648.996305210778
 10
11577.95992270332
 20
-6649.992413937111
 10
11579.17391678912
 20
-6651.093942384164
 10
11580.36451721667
 20
-6652.294585920197
 10
11581.52490574916
 20
-6653.587468274115
 10
11582.64843391634
 20
-6654.965180131989
 10
11583.72866832164
 20
-6656.419833138914
 10
11584.75942057145
 20
-6657.943094569513
 10
11585.73478520215
 20
-6659.526242926678
 10
11586.64917711732
 20
-6661.160202982634
 10
11587.49735913081
 20
-6662.835618446097
  0
LWPOLYLINE
  5
1B937A
330
18
100
AcDbEntity
  8
0
  6
SLD-実線
 62
     8
370
    15
100
AcDbPolyline
 90
       13
 70
   128
 43
0.0
 10
11587.32235898964
 20
-6662.918924377094
 10
11586.47896219386
 20
-6661.252960216764
 10
11585.56972963328
 20
-6659.628218517696
 10
11584.59986783183
 20
-6658.054001391716
 10
11583.57493130473
 20
-6656.539334575262
 10
11582.50078998736
 20
-6655.092886217521
 10
11581.38360003894
 20
-6653.722946681195
 10
11580.22975893157
 20
-6652.437360238102
 10
11579.04587660336
 20
-6651.243488250394
 10
11577.83873045384
 20
-6650.148176533688
 10
11576.61523810344
 20
-6649.157688941819
 10
11575.38240782546
 20
-6648.277707001896
 10
11574.56461695004
 20
-6647.758459610361
  0
LWPOLYLINE
  5
1B937B
330
18
100
AcDbEntity
  8
0
  6
SLD-実線
 62
     8
370
    15
100
AcDbPolyline
 90
       13
 70
   128
 43
0.0
 10
11591.17304024006
 20
-6681.343300225949
 10
11591.19043811484
 20
-6681.17865258175
 10
11591.29054967448
 20
-6679.701134200809
 10
11591.29726404295
 20
-6678.159165399178
 10
11591.21054217563
 20
-6676.561576854775
 10
11591.03088000861
 20
-6674.917524609557
 10
11590.75930834332
 20
-6673.236427595658
 10
11590.39738225989
 20
-6671.527907493451
 10
11589.94717417997
 20
-6669.801768267542
 10
11589.41126432188
 20
-6668.067871080135
 10
11588.79272011984
 20
-6666.336167620561
 10
11588.09508702845
 20
-6664.616568474496
 10
11587.32235898964
 20
-6662.918924377094
  0
SPLINE
  5
1B937C
330
18
100
AcDbEntity
  8
0
  6
SLD-実線
 62
     8
370
    15
100
AcDbSpline
210
0.0
220
0.0
230
1.0
 70
     8
 71
     3
 72
    10
 73
     6
 74
     0
 42
0.000000001
 43
0.00000001
 40
0.0
 40
0.0
 40
0.0
 40
0.0
 40
0.3808591662231917
 40
0.6904297147972206
 40
1.0
 40
1.0
 40
1.0
 40
1.0
 10
11585.25586224002
 20
-6656.230435097954
 30
0.0
 10
11585.63149139526
 20
-6656.794667719264
 30
0.0
 10
11586.31244003328
 20
-6657.817520790319
 30
0.0
 10
11587.23360985923
 20
-6659.369256038997
 30
0.0
 10
11587.76332503052
 20
-6660.358781322537
 30
0.0
 10
11588.0281825035
 20
-6660.853543753845
 30
0.0
  0
ARC
  5
1B937D
330
18
100
AcDbEntity
  8
0
  6
SLD-実線
 62
     8
370
    15
100
AcDbCircle
 10
11588.80983053204
 20
-6662.188594099354
 30
0.0
 40
0.5329762446007857
100
AcDbArc
 50
303.8887676020481
 51
107.1977601179894
  0
ARC
  5
1B937E
330
18
100
AcDbEntity
  8
0
  6
SLD-実線
 62
     8
370
    15
100
AcDbCircle
 10
11596.25568092674
 20
-6664.092541208716
 30
0.0
 40
17.49913780507048
100
AcDbArc
 50
350.0059134758213
 51
0.3743433194774374
  0
ARC
  5
1B937F
330
18
100
AcDbEntity
  8
0
  6
SLD-実線
 62
     8
370
    15
100
AcDbCircle
 10
11607.21780670506
 20
-6671.647626698846
 30
0.0
 40
7.863575527620464
100
AcDbArc
 50
282.7651241750507
 51
324.8448720406357
  0
ARC
  5
1B9380
330
18
100
AcDbEntity
  8
0
  6
SLD-実線
 62
     8
370
    15
100
AcDbCircle
 10
11592.02557428233
 20
-6640.94213162857
 30
0.0
 40
7.911900414711753
100
AcDbArc
 50
87.97108441817444
 51
129.7258572992243
  0
ARC
  5
1B9381
330
18
100
AcDbEntity
  8
0
  6
SLD-実線
 62
     8
370
    15
100
AcDbCircle
 10
11636.30085210025
 20
-6657.384567974615
 30
0.0
 40
7.763412122467606
100
AcDbArc
 50
296.4532615170409
 51
314.9795089926363
  0
ARC
  5
1B9382
330
18
100
AcDbEntity
  8
0
  6
SLD-実線
 62
     8
370
    15
100
AcDbCircle
 10
11621.03944895565
 20
-6626.633504954381
 30
0.0
 40
7.962152464201742
100
AcDbArc
 50
98.35906827751387
 51
107.8869669300392
  0
ARC
  5
1B9383
330
18
100
AcDbEntity
  8
0
  6
SLD-実線
 62
     8
370
    15
100
AcDbCircle
 10
11592.13084417313
 20
-6645.294353062884
 30
0.0
 40
11.56615313932827
100
AcDbArc
 50
59.98735452870631
 51
96.78355609510142
  0
LWPOLYLINE
  5
1B9384
330
18
100
AcDbEntity
  8
0
  6
SLD-実線
 62
     8
370
    15
100
AcDbPolyline
 90
       13
 70
   128
 43
0.0
 10
11612.08172823956
 20
-6676.946165219518
 10
11612.2956769532
 20
-6676.736903216784
 10
11612.99630937647
 20
-6675.930274823704
 10
11613.61929045361
 20
-6675.011534601988
 10
11614.16104991756
 20
-6673.985933481001
 10
11614.61848513594
 20
-6672.859357670806
 10
11614.98897703722
 20
-6671.638249283359
 10
11615.27040168326
 20
-6670.329611846542
 10
11615.46114844215
 20
-6668.940931942994
 10
11615.56012441298
 20
-6667.480171465471
 10
11615.56676195888
 20
-6665.95569735151
 10
11615.48102341097
 20
-6664.376236111775
 10
11615.4398665901
 20
-6663.918699886053
  0
ARC
  5
1B9385
330
18
100
AcDbEntity
  8
0
  6
SLD-実線
 62
     8
370
    15
100
AcDbCircle
 10
11607.38423117533
 20
-6669.514068527756
 30
0.0
 40
7.677094282531926
100
AcDbArc
 50
301.3556241010539
 51
326.652245170834
  0
ARC
  5
1B9386
330
18
100
AcDbEntity
  8
0
  6
SLD-実線
 62
     8
370
    15
100
AcDbCircle
 10
11604.64239613891
 20
-6667.668010409232
 30
0.0
 40
10.98235376599208
100
AcDbArc
 50
326.4703558711923
 51
342.9288409905821
  0
LINE
  5
1B9387
330
18
100
AcDbEntity
  8
0
  6
SLD-実線
 62
     8
370
    15
100
AcDbLine
 10
11615.50374462261
 20
-6668.848497821118
 30
0.0
 11
11615.18342063292
 21
-6670.830739173729
 31
0.0
  0
LINE
  5
1B9388
330
18
100
AcDbEntity
  8
0
  6
SLD-実線
 62
     8
370
    15
100
AcDbLine
 10
11597.09577879221
 20
-6634.884801759734
 30
0.0
 11
11597.16712961752
 21
-6634.911014704537
 31
0.0
  0
ARC
  5
1B9389
330
18
100
AcDbEntity
  8
0
  6
SLD-実線
 62
     8
370
    15
100
AcDbCircle
 10
11593.81435909303
 20
-6643.82987544798
 30
0.0
 40
9.446034107425701
100
AcDbArc
 50
78.27569743418448
 51
92.46102194331264
  0
ARC
  5
1B938A
330
18
100
AcDbEntity
  8
0
  6
SLD-実線
 62
     8
370
    15
100
AcDbCircle
 10
11593.73321282623
 20
-6641.769689960655
 30
0.0
 40
7.384268103895391
100
AcDbArc
 50
92.51838070969795
 51
111.5535336826151
  0
ARC
  5
1B938B
330
18
100
AcDbEntity
  8
0
  6
SLD-実線
 62
     8
370
    15
100
AcDbCircle
 10
11596.37985819329
 20
-6664.114138826011
 30
0.0
 40
17.38724032372449
100
AcDbArc
 50
350.3544209366182
 51
0.4419444883274763
  0
SPLINE
  5
1B938C
330
18
100
AcDbEntity
  8
0
  6
SLD-実線
 62
     8
370
    15
100
AcDbSpline
210
0.0
220
0.0
230
1.0
 70
     8
 71
     3
 72
    13
 73
     9
 74
     0
 42
0.000000001
 43
0.00000001
 40
0.0
 40
0.0
 40
0.0
 40
0.0
 40
0.175317597304079
 40
0.3506353795374645
 40
0.5258761832636913
 40
0.7010873560324947
 40
0.8763311738825167
 40
1.0
 40
1.0
 40
1.0
 40
1.0
 10
11613.67951690326
 20
-6667.333241023628
 30
0.0
 10
11613.66385180431
 20
-6667.324477719359
 30
0.0
 10
11613.63252158989
 20
-6667.306951101576
 30
0.0
 10
11613.58770230585
 20
-6667.257108342199
 30
0.0
 10
11613.55088215929
 20
-6667.196368051395
 30
0.0
 10
11613.52628585032
 20
-6667.1299749266
 30
0.0
 10
11613.51664035615
 20
-6667.071213390917
 30
0.0
 10
11613.51993362082
 20
-6667.040239086555
 30
0.0
 10
11613.52129613988
 20
-6667.027424118913
 30
0.0
  0
ARC
  5
1B938D
330
18
100
AcDbEntity
  8
0
  6
SLD-実線
 62
     8
370
    15
100
AcDbCircle
 10
11619.52431429151
 20
-6653.902180870397
 30
0.0
 40
14.64769720295183
100
AcDbArc
 50
246.4827592898929
 51
246.6808069697794
  0
ARC
  5
1B938E
330
18
100
AcDbEntity
  8
0
  6
SLD-実線
 62
     8
370
    15
100
AcDbCircle
 10
11601.00501514448
 20
-6665.065864896349
 30
0.0
 40
12.92499631418976
100
AcDbArc
 50
340.829709208594
 51
349.8059486917486
  0
ARC
  5
1B938F
330
18
100
AcDbEntity
  8
0
  6
SLD-実線
 62
     8
370
    15
100
AcDbCircle
 10
11621.28067206696
 20
-6652.916928256042
 30
0.0
 40
18.27074374126659
100
AcDbArc
 50
243.4052621901257
 51
243.7973677838101
  0
ARC
  5
1B9390
330
18
100
AcDbEntity
  8
0
  6
SLD-実線
 62
     8
370
    15
100
AcDbCircle
 10
11628.66402951579
 20
-6653.977301013143
 30
0.0
 40
24.77908916953917
100
AcDbArc
 50
229.1715717032726
 51
232.8758577733971
  0
SPLINE
  5
1B9391
330
18
100
AcDbEntity
  8
0
  6
SLD-実線
 62
     8
370
    15
100
AcDbSpline
210
0.0
220
0.0
230
1.0
 70
     8
 71
     3
 72
    11
 73
     7
 74
     0
 42
0.000000001
 43
0.00000001
 40
0.0
 40
0.0
 40
0.0
 40
0.0
 40
0.2977479727198313
 40
0.5955002657919349
 40
0.893215081471886
 40
0.9999999999999999
 40
0.9999999999999999
 40
0.9999999999999999
 40
0.9999999999999999
 10
11613.79728783164
 20
-6673.73431507811
 30
0.0
 10
11613.79110808947
 20
-6673.740958526114
 30
0.0
 10
11613.77874851546
 20
-6673.754245518521
 30
0.0
 10
11613.75093429607
 20
-6673.756148300179
 30
0.0
 10
11613.72653989311
 20
-6673.747025534927
 30
0.0
 10
11613.71247248394
 20
-6673.737040469701
 30
0.0
 10
11613.70875879265
 20
-6673.734404486816
 30
0.0
  0
SPLINE
  5
1B9392
330
18
100
AcDbEntity
  8
0
  6
SLD-実線
 62
     8
370
    15
100
AcDbSpline
210
0.0
220
0.0
230
1.0
 70
     8
 71
     3
 72
    14
 73
    10
 74
     0
 42
0.000000001
 43
0.00000001
 40
0.0
 40
0.0
 40
0.0
 40
0.0
 40
0.1615612446256516
 40
0.3231433036738812
 40
0.4845600963239208
 40
0.6458274894264961
 40
0.8070837611140053
 40
0.9684576617467251
 40
1.0
 40
1.0
 40
1.0
 40
1.0
 10
11593.40473194385
 20
-6634.590365588369
 30
0.0
 10
11593.39639043069
 20
-6634.577141388303
 30
0.0
 10
11593.3797063297
 20
-6634.55069128446
 30
0.0
 10
11593.36444493247
 20
-6634.505779400781
 30
0.0
 10
11593.35881450352
 20
-6634.463329204767
 30
0.0
 10
11593.36393220468
 20
-6634.427404019156
 30
0.0
 10
11593.37908081837
 20
-6634.40232322689
 30
0.0
 10
11593.39625637016
 20
-6634.393598391272
 30
0.0
 10
11593.40699340911
 20
-6634.392700552555
 30
0.0
 10
11593.40874894465
 20
-6634.392553753443
 30
0.0
  0
ARC
  5
1B9393
330
18
100
AcDbEntity
  8
0
  6
SLD-実線
 62
     8
370
    15
100
AcDbCircle
 10
11558.08645664117
 20
-6659.716277409203
 30
0.0
 40
43.34388094280617
100
AcDbArc
 50
32.97783098315086
 51
35.42857552449188
  0
LINE
  5
1B9394
330
18
100
AcDbEntity
  8
0
  6
SLD-実線
 62
     8
370
    15
100
AcDbLine
 10
11615.18330211749
 20
-6670.797507725056
 30
0.0
 11
11615.50314757077
 21
-6668.81823156467
 31
0.0
  0
SPLINE
  5
1B9395
330
18
100
AcDbEntity
  8
0
  6
SLD-実線
 62
     8
370
    15
100
AcDbSpline
210
0.0
220
0.0
230
1.0
 70
     8
 71
     3
 72
    12
 73
     8
 74
     0
 42
0.000000001
 43
0.00000001
 40
0.0
 40
0.0
 40
0.0
 40
0.0
 40
0.2116230752076569
 40
0.4067450247152689
 40
0.6026165494818232
 40
0.7927805633489202
 40
1.0
 40
1.0
 40
1.0
 40
1.0
 10
11613.21327864413
 20
-6669.310135392543
 30
0.0
 10
11613.40312511669
 20
-6669.416776602604
 30
0.0
 10
11613.7680149478
 20
-6669.621743766884
 30
0.0
 10
11614.22699148162
 20
-6669.912319010815
 30
0.0
 10
11614.6105757015
 20
-6670.192328860382
 30
0.0
 10
11614.94032124971
 20
-6670.492586699906
 30
0.0
 10
11615.10002317839
 20
-6670.692997556753
 30
0.0
 10
11615.18330129088
 20
-6670.797503732842
 30
0.0
  0
ARC
  5
1B9396
330
18
100
AcDbEntity
  8
0
  6
SLD-実線
 62
     8
370
    15
100
AcDbCircle
 10
11618.98534441931
 20
-6655.254360370418
 30
0.0
 40
13.19268076747924
100
AcDbArc
 50
246.5056926183157
 51
254.8460197077441
  0
SPLINE
  5
1B9397
330
18
100
AcDbEntity
  8
0
  6
SLD-実線
 62
     8
370
    15
100
AcDbSpline
210
0.0
220
0.0
230
1.0
 70
     8
 71
     3
 72
     9
 73
     5
 74
     0
 42
0.000000001
 43
0.00000001
 40
0.0
 40
0.0
 40
0.0
 40
0.0
 40
0.5538060913569849
 40
1.0
 40
1.0
 40
1.0
 40
1.0
 10
11595.46069967837
 20
-6634.294820688507
 30
0.0
 10
11596.02252689933
 20
-6634.801196246548
 30
0.0
 10
11597.0370105421
 20
-6635.715551588506
 30
0.0
 10
11597.68818378959
 20
-6636.90512152629
 30
0.0
 10
11597.97873332608
 20
-6637.435900386432
 30
0.0
  0
SPLINE
  5
1B9398
330
18
100
AcDbEntity
  8
0
  6
SLD-実線
 62
     8
370
    15
100
AcDbSpline
210
0.0
220
0.0
230
1.0
 70
     8
 71
     3
 72
    10
 73
     6
 74
     0
 42
0.000000001
 43
0.00000001
 40
0.0
 40
0.0
 40
0.0
 40
0.0
 40
0.3309784452323459
 40
0.7138303103381876
 40
1.0
 40
1.0
 40
1.0
 40
1.0
 10
11614.22619758137
 20
-6666.683057608767
 30
0.0
 10
11614.22885970942
 20
-6666.679646759822
 30
0.0
 10
11614.23460119418
 20
-6666.672290488148
 30
0.0
 10
11614.22146346104
 20
-6666.668321867968
 30
0.0
 10
11614.20253588522
 20
-6666.669325946856
 30
0.0
 10
11614.19443973577
 20
-6666.669755435176
 30
0.0
  0
ARC
  5
1B9399
330
18
100
AcDbEntity
  8
0
  6
SLD-実線
 62
     8
370
    15
100
AcDbCircle
 10
11597.68788202493
 20
-6663.714173855593
 30
0.0
 40
16.76073478332916
100
AcDbArc
 50
349.8425497132764
 51
358.7447597334314
  0
SPLINE
  5
1B939A
330
18
100
AcDbEntity
  8
0
  6
SLD-実線
 62
     8
370
    15
100
AcDbSpline
210
0.0
220
0.0
230
1.0
 70
     8
 71
     3
 72
    15
 73
    11
 74
     0
 42
0.000000001
 43
0.00000001
 40
0.0
 40
0.0
 40
0.0
 40
0.0
 40
0.2710658759587187
 40
0.5056856045160868
 40
0.5993533760497955
 40
0.6810935719076895
 40
0.7557874455448209
 40
0.8297350220126117
 40
0.9093751713710034
 40
1.0
 40
1.0
 40
1.0
 40
1.0
 10
11595.47842747826
 20
-6634.312884487135
 30
0.0
 10
11595.47196077983
 20
-6634.308841991332
 30
0.0
 10
11595.45989686256
 20
-6634.301300533276
 30
0.0
 10
11595.45120568993
 20
-6634.294753547309
 30
0.0
 10
11595.4471942144
 20
-6634.291205875408
 30
0.0
 10
11595.44626042229
 20
-6634.289796899202
 30
0.0
 10
11595.44717555027
 20
-6634.289440160828
 30
0.0
 10
11595.4500099762
 20
-6634.290212450433
 30
0.0
 10
11595.45461232236
 20
-6634.292021420796
 30
0.0
 10
11595.45858180609
 20
-6634.293849469022
 30
0.0
 10
11595.46069459398
 20
-6634.294822461586
 30
0.0
  0
ARC
  5
1B939B
330
18
100
AcDbEntity
  8
0
  6
SLD-実線
 62
     8
370
    15
100
AcDbCircle
 10
11595.27335623868
 20
-6646.469526576637
 30
0.0
 40
9.41042343690568
100
AcDbArc
 50
73.50766075514052
 51
82.98648609039391
  0
ARC
  5
1B939C
330
18
100
AcDbEntity
  8
0
  6
SLD-実線
 62
     8
370
    15
100
AcDbCircle
 10
11604.99326542815
 20
-6665.786867301962
 30
0.0
 40
9.155930234219788
100
AcDbArc
 50
329.5658533262833
 51
336.8034372570543
  0
LINE
  5
1B939D
330
18
100
AcDbEntity
  8
0
  6
SLD-実線
 62
     8
370
    15
100
AcDbLine
 10
11584.25097221738
 20
-6602.024067845529
 30
0.0
 11
11597.94485402231
 21
-6596.096104679622
 31
0.0
  0
LINE
  5
1B939E
330
18
100
AcDbEntity
  8
0
  6
SLD-実線
 62
     8
370
    15
100
AcDbLine
 10
11584.25097221738
 20
-6601.953465798966
 30
0.0
 11
11584.25097221738
 21
-6602.024067845529
 31
0.0
  0
ELLIPSE
  5
1B939F
330
18
100
AcDbEntity
  8
0
  6
SLD-実線
 62
     8
370
    15
100
AcDbEllipse
 10
11591.53940330871
 20
-6603.113173150691
 30
0.0
 11
9.799997680874309
 21
-0.02649777542146115
 31
0.0
210
0.0
220
0.0
230
1.0
 40
0.2544372762266046
 41
2.618681839454343
 42
5.425431346349341
  0
LINE
  5
1B93A0
330
18
100
AcDbEntity
  8
0
  6
SLD-実線
 62
     8
370
    15
100
AcDbLine
 10
11583.05235408965
 20
-6601.844959243227
 30
0.0
 11
11584.25097221738
 21
-6602.024067845529
 31
0.0
  0
ELLIPSE
  5
1B93A1
330
18
100
AcDbEntity
  8
0
  6
SLD-実線
 62
     8
370
    15
100
AcDbEllipse
 10
11591.53940330871
 20
-6595.503868812762
 30
0.0
 11
9.799997680874309
 21
-0.02649777542144125
 31
0.0
210
0.0
220
0.0
230
1.0
 40
0.2544372762266046
 41
2.618681839454338
 42
3.142280615052711
  0
LINE
  5
1B93A2
330
18
100
AcDbEntity
  8
0
  6
SLD-実線
 62
     8
370
    15
100
AcDbLine
 10
11583.05235408965
 20
-6594.235655510356
 30
0.0
 11
11583.05235408965
 21
-6601.844959243227
 31
0.0
  0
LINE
  5
1B93A3
330
18
100
AcDbEntity
  8
0
  6
SLD-実線
 62
     8
370
    15
100
AcDbLine
 10
11583.05235408965
 20
-6594.235655510356
 30
0.0
 11
11583.05545478666
 21
-6594.23611884517
 31
0.0
  0
LINE
  5
1B93A4
330
18
100
AcDbEntity
  8
0
  6
SLD-実線
 62
     8
370
    15
100
AcDbLine
 10
11601.61985416684
 20
-6659.968335552245
 30
0.0
 11
11618.59395260495
 21
-6662.504762272541
 31
0.0
  0
LINE
  5
1B93A5
330
18
100
AcDbEntity
  8
0
  6
SLD-実線
 62
     8
370
    15
100
AcDbLine
 10
11618.59395260495
 20
-6662.504762272541
 30
0.0
 11
11614.91895298046
 21
-6664.152219534313
 31
0.0
  0
LINE
  5
1B93A6
330
18
100
AcDbEntity
  8
0
  6
SLD-実線
 62
     8
370
    15
100
AcDbLine
 10
11614.91895298046
 20
-6664.152219534313
 30
0.0
 11
11597.94485454235
 21
-6661.615792814018
 31
0.0
  0
LINE
  5
1B93A7
330
18
100
AcDbEntity
  8
0
  6
SLD-実線
 62
     8
370
    15
100
AcDbLine
 10
11597.94485454235
 20
-6661.615792814018
 30
0.0
 11
11601.61985416684
 21
-6659.968335552245
 31
0.0
  0
LWPOLYLINE
  5
1B93A8
330
18
100
AcDbEntity
  8
0
  6
SLD-実線
 62
     8
370
    15
100
AcDbPolyline
 90
       12
 70
   128
 43
0.0
 10
11597.94485454235
 20
-6650.042331645197
 10
11598.1386681718
 20
-6650.033939709567
 10
11598.33450668279
 20
-6649.889418214955
 10
11598.50787983063
 20
-6649.626838913331
 10
11598.63710847471
 20
-6649.279033245685
 10
11598.70603137437
 20
-6648.889492318942
 10
11598.70603137437
 20
-6648.50693474111
 10
11598.63710847471
 20
-6648.179188395674
 10
11598.50787983063
 20
-6647.947245960606
 10
11598.33450668279
 20
-6647.840108770873
 10
11598.1386681718
 20
-6647.871171281721
 10
11597.94485454235
 20
-6648.036552930122
  0
LINE
  5
1B93A9
330
18
100
AcDbEntity
  8
0
  6
SLD-実線
 62
     8
370
    15
100
AcDbLine
 10
11597.94485454235
 20
-6647.051980634344
 30
0.0
 11
11597.94485454235
 21
-6648.036552930122
 31
0.0
  0
LINE
  5
1B93AA
330
18
100
AcDbEntity
  8
0
  6
SLD-実線
 62
     8
370
    15
100
AcDbLine
 10
11597.94485454235
 20
-6647.051980634344
 30
0.0
 11
11597.94485454235
 21
-6595.319476146777
 31
0.0
  0
LINE
  5
1B93AB
330
18
100
AcDbEntity
  8
0
  6
SLD-実線
 62
     8
370
    15
100
AcDbLine
 10
11597.94485454235
 20
-6595.319476146777
 30
0.0
 11
11583.05235408965
 21
-6601.844959243227
 31
0.0
  0
LINE
  5
1B93AC
330
18
100
AcDbEntity
  8
0
  6
SLD-実線
 62
     8
370
    15
100
AcDbLine
 10
11583.05235408965
 20
-6601.844959243227
 30
0.0
 11
11583.05235408965
 21
-6594.896046102127
 31
0.0
  0
LINE
  5
1B93AD
330
18
100
AcDbEntity
  8
0
  6
SLD-実線
 62
     8
370
    15
100
AcDbLine
 10
11601.61985416684
 20
-6586.572463527784
 30
0.0
 11
11583.05235408965
 21
-6594.896046102127
 31
0.0
  0
LINE
  5
1B93AE
330
18
100
AcDbEntity
  8
0
  6
SLD-実線
 62
     8
370
    15
100
AcDbLine
 10
11601.61985416684
 20
-6586.572463527784
 30
0.0
 11
11601.61985416684
 21
-6659.968335552245
 31
0.0
  0
LINE
  5
1B93AF
330
18
100
AcDbEntity
  8
0
  6
SLD-実線
 62
     8
370
    15
100
AcDbLine
 10
11597.94485454235
 20
-6661.615792814018
 30
0.0
 11
11597.94485454235
 21
-6651.026903940974
 31
0.0
  0
LINE
  5
1B93B0
330
18
100
AcDbEntity
  8
0
  6
SLD-実線
 62
     8
370
    15
100
AcDbLine
 10
11597.94485454235
 20
-6650.042331645197
 30
0.0
 11
11597.94485454235
 21
-6651.026903940974
 31
0.0
  0
LINE
  5
1B93B1
330
18
100
AcDbEntity
  8
0
  6
SLD-実線
 62
     8
370
    15
100
AcDbLine
 10
11618.59395260495
 20
-6589.10889024808
 30
0.0
 11
11601.61985416684
 21
-6586.572463527784
 31
0.0
  0
LINE
  5
1B93B2
330
18
100
AcDbEntity
  8
0
  6
SLD-実線
 62
     8
370
    15
100
AcDbLine
 10
11618.59395260495
 20
-6589.10889024808
 30
0.0
 11
11618.59395260495
 21
-6662.504762272541
 31
0.0
  0
ELLIPSE
  5
1B93B3
330
18
100
AcDbEntity
  8
0
  6
SLD-実線
 62
     8
370
    15
100
AcDbEllipse
 10
11598.01845535052
 20
-6648.924918396577
 30
0.0
 11
0.05486503488119484
 21
1.124078066133205
 31
0.0
210
0.0
220
0.0
230
1.0
 40
0.1676439559660038
 41
0.667711253048527
 42
1.14327417273644
  0
ELLIPSE
  5
1B93B4
330
18
100
AcDbEntity
  8
0
  6
SLD-実線
 62
     8
370
    15
100
AcDbEllipse
 10
11598.01845535052
 20
-6648.924918396577
 30
0.0
 11
0.05486503488119484
 21
1.124078066133205
 31
0.0
210
0.0
220
0.0
230
1.0
 40
0.1676439559660038
 41
2.287518721319869
 42
3.040510357646928
  0
ELLIPSE
  5
1B93B5
330
18
100
AcDbEntity
  8
0
  6
SLD-実線
 62
     8
370
    15
100
AcDbEllipse
 10
11598.01845535052
 20
-6648.924918396577
 30
0.0
 11
0.1028719404022329
 21
2.107646373999745
 31
0.0
210
0.0
220
0.0
230
1.0
 40
0.1676439559660207
 41
0.484672399343152
 42
3.223549211352333
  0
LINE
  5
1B93B6
330
18
100
AcDbEntity
  8
0
  6
SLD-実線
 62
     8
370
    15
100
AcDbLine
 10
11584.12972886681
 20
-6602.005950543149
 30
0.0
 11
11583.05235408965
 21
-6601.844959243227
 31
0.0
  0
LINE
  5
1B93B7
330
18
100
AcDbEntity
  8
0
  6
SLD-実線
 62
     8
370
    15
100
AcDbLine
 10
11597.94485359178
 20
-6596.025501970684
 30
0.0
 11
11584.12972886681
 21
-6602.005950543149
 31
0.0
  0
LINE
  5
1B93B8
330
18
100
AcDbEntity
  8
0
  6
SLD-実線
 62
     8
370
    15
100
AcDbLine
 10
11583.05235408965
 20
-6594.896046102127
 30
0.0
 11
11583.05545478666
 21
-6594.23611884517
 31
0.0
  0
ELLIPSE
  5
1B93B9
330
18
100
AcDbEntity
  8
0
  6
SLD-実線
 62
     8
370
    15
100
AcDbEllipse
 10
11591.53953759837
 20
-6595.503809970725
 30
0.0
 11
9.796417877628393
 21
-0.02648809528483298
 31
0.0
210
0.0
220
0.0
230
1.0
 40
0.2544372762745319
 41
2.618709255338098
 42
3.140901384953711
  0
LWPOLYLINE
  5
1B93BA
330
18
100
AcDbEntity
  8
0
  6
SLD-実線
 62
     8
370
    15
100
AcDbPolyline
 90
       16
 70
   128
 43
0.0
 10
11581.75425708115
 20
-6593.422306643344
 10
11581.76218305048
 20
-6593.323882941237
 10
11581.88096247957
 20
-6593.01960462462
 10
11582.14058369162
 20
-6592.721250523443
 10
11582.53726099116
 20
-6592.43317117934
 10
11583.0652096743
 20
-6592.159567471306
 10
11583.71673118287
 20
-6591.904429157321
 10
11584.48232480555
 20
-6591.671476700987
 10
11585.3508264792
 20
-6591.464107147704
 10
11586.30957185556
 20
-6591.285344308715
 10
11587.34457972174
 20
-6591.137795006554
 10
11588.44075739869
 20
-6591.023610991318
 10
11589.582120993
 20
-6590.944457021872
 10
11590.75202528683
 20
-6590.901487449967
 10
11591.93341175528
 20
-6590.89532902015
 10
11591.97575627694
 20
-6590.895794572707
  0
LWPOLYLINE
  5
1B93BB
330
18
100
AcDbEntity
  8
0
  6
SLD-実線
 62
     8
370
    15
100
AcDbPolyline
 90
       50
 70
   128
 43
0.0
 10
11563.77462860322
 20
-6589.209375806291
 10
11564.89476477945
 20
-6588.743516369904
 10
11566.13141235465
 20
-6588.297836118515
 10
11567.47916159777
 20
-6587.874283672403
 10
11568.93211958885
 20
-6587.474711095103
 10
11570.4839344565
 20
-6587.100865727753
 10
11572.12781863743
 20
-6586.754382461826
 10
11573.85658491792
 20
-6586.436775681261
 10
11575.66267334829
 20
-6586.149435296099
 10
11577.53818763377
 20
-6585.893617178154
 10
11579.47492463328
 20
-6585.670439385989
 10
11581.46441775764
 20
-6585.480878908194
 10
11583.49796621259
 20
-6585.325763953472
 10
11585.56667543992
 20
-6585.205773369388
 10
11587.66150395002
 20
-6585.121431171163
 10
11589.77329081802
 20
-6585.073106364076
 10
11591.89279825544
 20
-6585.061010732226
 10
11594.01076000225
 20
-6585.085196717724
 10
11596.11791737926
 20
-6585.145558131947
 10
11598.20505216807
 20
-6585.241831951449
 10
11600.2630400845
 20
-6585.373596956433
 10
11602.28288291936
 20
-6585.540276195521
 10
11604.25574625794
 20
-6585.74114184282
 10
11606.17300350365
 20
-6585.975315541653
 10
11608.02627292533
 20
-6586.241772381861
 10
11609.80744903221
 20
-6586.539347926129
 10
11611.50874409742
 20
-6586.866740518146
 10
11613.12271822909
 20
-6587.222518893444
 10
11614.64231380999
 20
-6587.605127325687
 10
11616.06088630791
 20
-6588.012892568643
 10
11617.37223191374
 20
-6588.4440318828
 10
11618.57061806961
 20
-6588.896659935156
 10
11619.65080443951
 20
-6589.368796608855
 10
11620.60806470036
 20
-6589.858378832085
 10
11621.43821646498
 20
-6590.363265049446
 10
11622.13762786986
 20
-6590.881247117028
 10
11622.70324197388
 20
-6591.410060962315
 10
11623.13258165864
 20
-6591.947393161434
 10
11623.4237749349
 20
-6592.490895241688
 10
11623.57554594339
 20
-6593.038189740501
 10
11623.58723105333
 20
-6593.586883911338
 10
11623.45877806994
 20
-6594.134578177978
 10
11623.19075056402
 20
-6594.678877692145
 10
11622.78431993175
 20
-6595.217402642194
 10
11622.2412623206
 20
-6595.74779773027
 10
11621.56395357612
 20
-6596.267743886552
 10
11620.75535452676
 20
-6596.774967565554
 10
11619.81900328821
 20
-6597.26725094523
 10
11618.75899165454
 20
-6597.742441160712
 10
11618.59395268464
 20
-6597.810346398219
  0
LWPOLYLINE
  5
1B93BC
330
18
100
AcDbEntity
  8
0
  6
SLD-実線
 62
     8
370
    15
100
AcDbPolyline
 90
       28
 70
   128
 43
0.0
 10
11581.73940288229
 20
-6601.258815196998
 10
11579.80307590134
 20
-6601.0800027348
 10
11577.85695140495
 20
-6600.862364174211
 10
11575.97065617401
 20
-6600.611912244084
 10
11574.15243949887
 20
-6600.329741687489
 10
11572.41025040809
 20
-6600.017087081821
 10
11570.7517091835
 20
-6599.675314685641
 10
11569.18406816211
 20
-6599.305918919345
 10
11567.71417990416
 20
-6598.910516049864
 10
11566.34847403121
 20
-6598.490834494925
 10
11565.09292211425
 20
-6598.048708796981
 10
11563.95301335608
 20
-6597.586073651433
 10
11562.93373241035
 20
-6597.104951240142
 10
11562.03953693237
 20
-6596.607444759526
 10
11561.27433717295
 20
-6596.095730695275
 10
11560.64147887881
 20
-6595.572046915164
 10
11560.14372940565
 20
-6595.038682021261
 10
11559.78326456436
 20
-6594.497969098026
 10
11559.56166351171
 20
-6593.952272479492
 10
11559.47989047478
 20
-6593.403978394004
 10
11559.53830592723
 20
-6592.855484554615
 10
11559.73665578747
 20
-6592.309188803284
 10
11560.07406930068
 20
-6591.767480611394
 10
11560.54907284632
 20
-6591.232728140798
 10
11561.15958975253
 20
-6590.707270227924
 10
11561.90294923762
 20
-6590.193404276364
 10
11562.77590063618
 20
-6589.693377179758
 10
11563.77462860322
 20
-6589.209375806291
  0
LWPOLYLINE
  5
1B93BD
330
18
100
AcDbEntity
  8
0
  6
SLD-実線
 62
     8
370
    15
100
AcDbPolyline
 90
       41
 70
   128
 43
0.0
 10
11563.77462860322
 20
-6588.330383223261
 10
11564.89476477945
 20
-6587.864523786873
 10
11566.13141235465
 20
-6587.418843535484
 10
11567.47916159777
 20
-6586.995291089373
 10
11568.93211958885
 20
-6586.595718512071
 10
11570.4839344565
 20
-6586.221873144722
 10
11572.12781863743
 20
-6585.875389878795
 10
11573.85658491792
 20
-6585.557783098231
 10
11575.66267334829
 20
-6585.270442713068
 10
11577.53818763377
 20
-6585.014624595125
 10
11579.47492463328
 20
-6584.791446802959
 10
11581.46441775764
 20
-6584.601886325165
 10
11583.49796621259
 20
-6584.446771370442
 10
11585.56667543992
 20
-6584.326780786358
 10
11587.66150395002
 20
-6584.242438588133
 10
11589.77329081802
 20
-6584.194113781046
 10
11591.89279825544
 20
-6584.182018149197
 10
11594.01076000225
 20
-6584.206204134694
 10
11596.11791737926
 20
-6584.266565548917
 10
11598.20505216807
 20
-6584.362839368418
 10
11600.2630400845
 20
-6584.494604373403
 10
11602.28288291936
 20
-6584.661283612491
 10
11604.25574625794
 20
-6584.862149259789
 10
11606.17300350365
 20
-6585.096322958623
 10
11608.02627292533
 20
-6585.36277979883
 10
11609.80744903221
 20
-6585.6603553431
 10
11611.50874409742
 20
-6585.987747935116
 10
11613.12271822909
 20
-6586.343526310415
 10
11614.64231380999
 20
-6586.726134742657
 10
11616.06088630791
 20
-6587.133899985613
 10
11617.37223191374
 20
-6587.56503929977
 10
11618.57061806961
 20
-6588.017667352125
 10
11619.65080443951
 20
-6588.489804025825
 10
11620.60806470036
 20
-6588.979386249055
 10
11621.43821646498
 20
-6589.484272466415
 10
11622.13762786986
 20
-6590.002254533997
 10
11622.70324197388
 20
-6590.531068379284
 10
11623.13258165864
 20
-6591.068400578404
 10
11623.4237749349
 20
-6591.611902658658
 10
11623.57554594339
 20
-6592.159197157471
 10
11623.59940309678
 20
-6592.479252478573
  0
LWPOLYLINE
  5
1B93BE
330
18
100
AcDbEntity
  8
0
  6
SLD-実線
 62
     8
370
    15
100
AcDbPolyline
 90
        9
 70
   128
 43
0.0
 10
11559.47940352064
 20
-6592.479252631689
 10
11559.53830592723
 20
-6591.976491971585
 10
11559.73665578747
 20
-6591.430196220253
 10
11560.07406930068
 20
-6590.888488028362
 10
11560.54907284632
 20
-6590.353735557766
 10
11561.15958975253
 20
-6589.828277644894
 10
11561.90294923762
 20
-6589.314411693334
 10
11562.77590063618
 20
-6588.814384596728
 10
11563.77462860322
 20
-6588.330383223261
  0
ARC
  5
1B93BF
330
18
100
AcDbEntity
  8
0
  6
SLD-実線
 62
     8
370
    15
100
AcDbCircle
 10
11586.47149030976
 20
-6536.25948362329
 30
0.0
 40
64.57626322232731
100
AcDbArc
 50
254.0397137737413
 51
265.7976534988385
  0
LWPOLYLINE
  5
1B93C0
330
18
100
AcDbEntity
  8
0
  6
SLD-実線
 62
     8
370
    15
100
AcDbPolyline
 90
       32
 70
   128
 43
0.0
 10
11564.59898159501
 20
-6590.01732252696
 10
11564.7094043634
 20
-6589.958318434685
 10
11565.66840470787
 20
-6589.492361340494
 10
11566.74802736017
 20
-6589.044428746734
 10
11567.94323991037
 20
-6588.616609240097
 10
11569.24846695928
 20
-6588.210897361071
 10
11570.65762512391
 20
-6587.829184660648
 10
11572.16414493513
 20
-6587.473251233743
 10
11573.76100100046
 20
-6587.144756247095
 10
11575.44074737023
 20
-6586.845231533996
 10
11577.19555132072
 20
-6586.57607319895
 10
11579.01723742766
 20
-6586.338536708377
 10
11580.89730419034
 20
-6586.133729438227
 10
11582.82698880295
 20
-6585.96260593502
 10
11584.79729778253
 20
-6585.825964309559
 10
11586.79903890081
 20
-6585.724442046128
 10
11588.82288174141
 20
-6585.658511802835
 10
11590.85939344959
 20
-6585.628480908659
 10
11592.89907222374
 20
-6585.634490523043
 10
11594.93241256387
 20
-6585.676511357931
 10
11596.94993406545
 20
-6585.754347980386
 10
11598.94222907225
 20
-6585.867637360658
 10
11600.90000815189
 20
-6586.015851770888
 10
11602.81414309792
 20
-6586.198299755521
 10
11604.67571135022
 20
-6586.414130431034
 10
11606.47603131511
 20
-6586.662337984442
 10
11608.2067099581
 20
-6586.941764888383
 10
11609.8596775999
 20
-6587.25110865932
 10
11611.42722792784
 20
-6587.58892627776
 10
11612.90205255008
 20
-6587.953643248329
 10
11614.27727370803
 20
-6588.343559267296
 10
11615.00050039244
 20
-6588.571923843068
  0
ARC
  5
1B93C1
330
18
100
AcDbEntity
  8
0
  6
SLD-実線
 62
     8
370
    15
100
AcDbCircle
 10
11618.9822295112
 20
-6593.035305035608
 30
0.0
 40
2.078600052120091
100
AcDbArc
 50
339.0733115436995
 51
23.39851825945319
  0
ARC
  5
1B93C2
330
18
100
AcDbEntity
  8
0
  6
SLD-実線
 62
     8
370
    15
100
AcDbCircle
 10
11564.09853965791
 20
-6593.032797722511
 30
0.0
 40
2.081032957773359
100
AcDbArc
 50
153.4763423634166
 51
198.5076881119264
  0
LINE
  5
1B93C3
330
18
100
AcDbEntity
  8
0
  6
SLD-実線
 62
     8
370
    15
100
AcDbLine
 10
11622.33906822951
 20
-6575.13941961138
 30
0.0
 11
11622.33865171573
 21
-6575.157970991153
 31
0.0
  0
ARC
  5
1B93C4
330
18
100
AcDbEntity
  8
0
  6
SLD-実線
 62
     8
370
    15
100
AcDbCircle
 10
11591.50262161843
 20
-6679.737688421848
 30
0.0
 40
111.7536272622541
100
AcDbArc
 50
83.77259709581271
 51
94.24095874783828
  0
ARC
  5
1B93C5
330
18
100
AcDbEntity
  8
0
  6
SLD-実線
 62
     8
370
    15
100
AcDbCircle
 10
11587.27313034333
 20
-6538.014542922961
 30
0.0
 40
52.67437120145748
100
AcDbArc
 50
253.9956556135154
 51
265.1169824940183
  0
ARC
  5
1B93C6
330
18
100
AcDbEntity
  8
0
  6
SLD-実線
 62
     8
370
    15
100
AcDbCircle
 10
11602.23214037454
 20
-6588.418307052129
 30
0.0
 40
2.332943484059955
100
AcDbArc
 50
50.34684326689371
 51
102.1334005049978
  0
ARC
  5
1B93C7
330
18
100
AcDbEntity
  8
0
  6
SLD-実線
 62
     8
370
    15
100
AcDbCircle
 10
11601.64252060484
 20
-6590.508954271236
 30
0.0
 40
4.372601593692279
100
AcDbArc
 50
88.69922474444489
 51
108.0263038973895
  0
ARC
  5
1B93C8
330
18
100
AcDbEntity
  8
0
  6
SLD-実線
 62
     8
370
    15
100
AcDbCircle
 10
11603.77560430849
 20
-6651.946583259331
 30
0.0
 40
7.942885089716913
100
AcDbArc
 50
137.2299319151832
 51
139.0679704244911
  0
LINE
  5
1B93C9
330
18
100
AcDbEntity
  8
0
  6
SLD-実線
 62
     8
370
    15
100
AcDbLine
 10
11597.77835604665
 20
-6646.741127467076
 30
0.0
 11
11597.77485520509
 21
-6646.742696851412
 31
0.0
  0
ARC
  5
1B93CA
330
18
100
AcDbEntity
  8
0
  6
SLD-実線
 62
     8
370
    15
100
AcDbCircle
 10
11603.85279762761
 20
-6652.008359977128
 30
0.0
 40
8.040060872620028
100
AcDbArc
 50
139.0709878730703
 51
140.3594272124336
  0
LINE
  5
1B93CB
330
18
100
AcDbEntity
  8
0
  6
SLD-実線
 62
     8
370
    15
100
AcDbLine
 10
11597.66145491398
 20
-6646.879046744558
 30
0.0
 11
11597.65795407242
 21
-6646.880616128895
 31
0.0
  0
ARC
  5
1B93CC
330
18
100
AcDbEntity
  8
0
  6
SLD-実線
 62
     8
370
    15
100
AcDbCircle
 10
11603.95244827389
 20
-6652.092757538134
 30
0.0
 40
8.172335977078598
100
AcDbArc
 50
140.3736222266382
 51
144.8778463160254
  0
LINE
  5
1B93CD
330
18
100
AcDbEntity
  8
0
  6
SLD-実線
 62
     8
370
    15
100
AcDbLine
 10
11597.27157218804
 20
-6647.389467148187
 30
0.0
 11
11597.26807134649
 21
-6647.391036532523
 31
0.0
  0
ARC
  5
1B93CE
330
18
100
AcDbEntity
  8
0
  6
SLD-実線
 62
     8
370
    15
100
AcDbCircle
 10
11604.06908979272
 20
-6652.172882225381
 30
0.0
 40
8.311877368357282
100
AcDbArc
 50
144.8659379390631
 51
145.7077315288671
  0
LINE
  5
1B93CF
330
18
100
AcDbEntity
  8
0
  6
SLD-実線
 62
     8
370
    15
100
AcDbLine
 10
11597.20203008072
 20
-6647.489849415495
 30
0.0
 11
11597.19852923916
 21
-6647.491418799831
 31
0.0
  0
ARC
  5
1B93D0
330
18
100
AcDbEntity
  8
0
  6
SLD-実線
 62
     8
370
    15
100
AcDbCircle
 10
11604.22282076129
 20
-6652.279743848652
 30
0.0
 40
8.501101585149597
100
AcDbArc
 50
145.7184946475251
 51
150.1064945911981
  0
LINE
  5
1B93D1
330
18
100
AcDbEntity
  8
0
  6
SLD-実線
 62
     8
370
    15
100
AcDbLine
 10
11596.85626397247
 20
-6648.041314933269
 30
0.0
 11
11596.85276313091
 21
-6648.042884317605
 31
0.0
  0
ARC
  5
1B93D2
330
18
100
AcDbEntity
  8
0
  6
SLD-実線
 62
     8
370
    15
100
AcDbCircle
 10
11604.39493862232
 20
-6652.377441111734
 30
0.0
 40
8.696758345031371
100
AcDbArc
 50
150.0931693775773
 51
151.317558463825
  0
LINE
  5
1B93D3
330
18
100
AcDbEntity
  8
0
  6
SLD-実線
 62
     8
370
    15
100
AcDbLine
 10
11596.76533089495
 20
-6648.203391323046
 30
0.0
 11
11596.7618300534
 21
-6648.204960707382
 31
0.0
  0
ARC
  5
1B93D4
330
18
100
AcDbEntity
  8
0
  6
SLD-実線
 62
     8
370
    15
100
AcDbCircle
 10
11604.58003479982
 20
-6652.479846950471
 30
0.0
 40
8.910610408293076
100
AcDbArc
 50
151.3307714414598
 51
155.5825748163981
  0
LINE
  5
1B93D5
330
18
100
AcDbEntity
  8
0
  6
SLD-実線
 62
     8
370
    15
100
AcDbLine
 10
11596.46990820469
 20
-6648.794797191955
 30
0.0
 11
11596.46640736313
 21
-6648.796366576291
 31
0.0
  0
ARC
  5
1B93D6
330
18
100
AcDbEntity
  8
0
  6
SLD-実線
 62
     8
370
    15
100
AcDbCircle
 10
11604.79175576968
 20
-6652.574653195126
 30
0.0
 40
9.140046952810977
100
AcDbArc
 50
155.5720354838416
 51
156.3607163060542
  0
LINE
  5
1B93D7
330
18
100
AcDbEntity
  8
0
  6
SLD-実線
 62
     8
370
    15
100
AcDbLine
 10
11596.41866822682
 20
-6648.909702540717
 30
0.0
 11
11596.41516738526
 21
-6648.911271925054
 31
0.0
  0
ARC
  5
1B93D8
330
18
100
AcDbEntity
  8
0
  6
SLD-実線
 62
     8
370
    15
100
AcDbCircle
 10
11604.9507263617
 20
-6652.644935626515
 30
0.0
 40
9.316437713839528
100
AcDbArc
 50
156.3742471240977
 51
160.5020332865561
  0
LINE
  5
1B93D9
330
18
100
AcDbEntity
  8
0
  6
SLD-実線
 62
     8
370
    15
100
AcDbLine
 10
11596.17205610816
 20
-6649.533787085409
 30
0.0
 11
11596.1685552666
 21
-6649.535356469745
 31
0.0
  0
ARC
  5
1B93DA
330
18
100
AcDbEntity
  8
0
  6
SLD-実線
 62
     8
370
    15
100
AcDbCircle
 10
11605.16472175862
 20
-6652.720084576851
 30
0.0
 40
9.540467871388763
100
AcDbArc
 50
160.4896539857777
 51
161.6408723780835
  0
LINE
  5
1B93DB
330
18
100
AcDbEntity
  8
0
  6
SLD-実線
 62
     8
370
    15
100
AcDbLine
 10
11596.10985472598
 20
-6649.71510367404
 30
0.0
 11
11596.10635388443
 21
-6649.716673058376
 31
0.0
  0
ARC
  5
1B93DC
330
18
100
AcDbEntity
  8
0
  6
SLD-実線
 62
     8
370
    15
100
AcDbCircle
 10
11605.38892804715
 20
-6652.795257671041
 30
0.0
 40
9.779768213195638
100
AcDbArc
 50
161.6517930225887
 51
165.6481898681625
  0
LINE
  5
1B93DD
330
18
100
AcDbEntity
  8
0
  6
SLD-実線
 62
     8
370
    15
100
AcDbLine
 10
11595.91786783269
 20
-6650.369526761642
 30
0.0
 11
11595.91436699113
 21
-6650.371096145978
 31
0.0
  0
ARC
  5
1B93DE
330
18
100
AcDbEntity
  8
0
  6
SLD-実線
 62
     8
370
    15
100
AcDbCircle
 10
11605.61308435897
 20
-6652.852264888112
 30
0.0
 40
10.00805735875078
100
AcDbArc
 50
165.6364334583087
 51
166.3794480640525
  0
LINE
  5
1B93DF
330
18
100
AcDbEntity
  8
0
  6
SLD-実線
 62
     8
370
    15
100
AcDbLine
 10
11595.88648767237
 20
-6650.495460061161
 30
0.0
 11
11595.88298683081
 21
-6650.497029445498
 31
0.0
  0
ARC
  5
1B93E0
330
18
100
AcDbEntity
  8
0
  6
SLD-実線
 62
     8
370
    15
100
AcDbCircle
 10
11605.81519747372
 20
-6652.901525275785
 30
0.0
 40
10.21911974942295
100
AcDbArc
 50
166.3910562961649
 51
170.2719012866935
  0
LINE
  5
1B93E1
330
18
100
AcDbEntity
  8
0
  6
SLD-実線
 62
     8
370
    15
100
AcDbLine
 10
11595.74652214163
 20
-6651.173202990808
 30
0.0
 11
11595.74302130007
 21
-6651.174772375144
 31
0.0
  0
ARC
  5
1B93E2
330
18
100
AcDbEntity
  8
0
  6
SLD-実線
 62
     8
370
    15
100
AcDbCircle
 10
11606.06165331081
 20
-6652.943444254681
 30
0.0
 40
10.46592973269485
100
AcDbArc
 50
170.2619910374279
 51
171.3436917265737
  0
LINE
  5
1B93E3
330
18
100
AcDbEntity
  8
0
  6
SLD-実線
 62
     8
370
    15
100
AcDbLine
 10
11595.71494155388
 20
-6651.368248714825
 30
0.0
 11
11595.71144071232
 21
-6651.369818099161
 31
0.0
  0
ARC
  5
1B93E4
330
18
100
AcDbEntity
  8
0
  6
SLD-実線
 62
     8
370
    15
100
AcDbCircle
 10
11606.27678877114
 20
-6652.97635446363
 30
0.0
 40
10.68679272253238
100
AcDbArc
 50
171.3539987936957
 51
175.1207345914919
  0
LINE
  5
1B93E5
330
18
100
AcDbEntity
  8
0
  6
SLD-実線
 62
     8
370
    15
100
AcDbLine
 10
11595.63222430719
 20
-6652.065805462367
 30
0.0
 11
11595.62872346563
 21
-6652.067374846703
 31
0.0
  0
ARC
  5
1B93E6
330
18
100
AcDbEntity
  8
0
  6
SLD-実線
 62
     8
370
    15
100
AcDbCircle
 10
11606.48170686549
 20
-6652.993877933156
 30
0.0
 40
10.88910420070463
100
AcDbArc
 50
175.1107801589494
 51
175.8135324434739
  0
LINE
  5
1B93E7
330
18
100
AcDbEntity
  8
0
  6
SLD-実線
 62
     8
370
    15
100
AcDbLine
 10
11595.62165754732
 20
-6652.198944539256
 30
0.0
 11
11595.61815670576
 21
-6652.200513923592
 31
0.0
  0
ARC
  5
1B93E8
330
18
100
AcDbEntity
  8
0
  6
SLD-実線
 62
     8
370
    15
100
AcDbCircle
 10
11606.68841552028
 20
-6653.009190501589
 30
0.0
 40
11.09975621481753
100
AcDbArc
 50
175.8219945199319
 51
179.4948060453425
  0
LINE
  5
1B93E9
330
18
100
AcDbEntity
  8
0
  6
SLD-実線
 62
     8
370
    15
100
AcDbLine
 10
11595.59259161807
 20
-6652.909752528562
 30
0.0
 11
11595.58909077651
 21
-6652.911321912899
 31
0.0
  0
ARC
  5
1B93EA
330
18
100
AcDbEntity
  8
0
  6
SLD-実線
 62
     8
370
    15
100
AcDbCircle
 10
11606.90545469435
 20
-6653.011173938321
 30
0.0
 40
11.31331769575627
100
AcDbArc
 50
179.4863490333652
 51
180.5136509666348
  0
LINE
  5
1B93EB
330
18
100
AcDbEntity
  8
0
  6
SLD-実線
 62
     8
370
    15
100
AcDbLine
 10
11595.59259161807
 20
-6653.112595348081
 30
0.0
 11
11595.58909077651
 21
-6653.114164732417
 31
0.0
  0
ARC
  5
1B93EC
330
18
100
AcDbEntity
  8
0
  6
SLD-実線
 62
     8
370
    15
100
AcDbCircle
 10
11607.09966025335
 20
-6653.009504320313
 30
0.0
 40
11.51104528194772
100
AcDbArc
 50
180.52095030231
 51
184.1057373882742
  0
LINE
  5
1B93ED
330
18
100
AcDbEntity
  8
0
  6
SLD-実線
 62
     8
370
    15
100
AcDbLine
 10
11595.62165754732
 20
-6653.832094974829
 30
0.0
 11
11595.61815670576
 21
-6653.833664359166
 31
0.0
  0
ARC
  5
1B93EE
330
18
100
AcDbEntity
  8
0
  6
SLD-実線
 62
     8
370
    15
100
AcDbCircle
 10
11607.27152502391
 20
-6652.9974328935
 30
0.0
 40
11.67972914978153
100
AcDbArc
 50
184.097989933527
 51
184.7685907436627
  0
LINE
  5
1B93EF
330
18
100
AcDbEntity
  8
0
  6
SLD-実線
 62
     8
370
    15
100
AcDbLine
 10
11595.63222430719
 20
-6653.96838697993
 30
0.0
 11
11595.62872346563
 21
-6653.969956364266
 31
0.0
  0
ARC
  5
1B93F0
330
18
100
AcDbEntity
  8
0
  6
SLD-実線
 62
     8
370
    15
100
AcDbCircle
 10
11607.43368758206
 20
-6652.983893991213
 30
0.0
 40
11.84607516410348
100
AcDbArc
 50
184.7748016998808
 51
188.2916196366886
  0
LINE
  5
1B93F1
330
18
100
AcDbEntity
  8
0
  6
SLD-実線
 62
     8
370
    15
100
AcDbLine
 10
11595.71494155388
 20
-6654.690664478972
 30
0.0
 11
11595.71144071232
 21
-6654.692233863309
 31
0.0
  0
ARC
  5
1B93F2
330
18
100
AcDbEntity
  8
0
  6
SLD-実線
 62
     8
370
    15
100
AcDbCircle
 10
11607.58271418856
 20
-6652.962480349662
 30
0.0
 40
11.99294157799485
100
AcDbArc
 50
188.2851716877881
 51
189.2736789837544
  0
LINE
  5
1B93F3
330
18
100
AcDbEntity
  8
0
  6
SLD-実線
 62
     8
370
    15
100
AcDbLine
 10
11595.74652214163
 20
-6654.895148329781
 30
0.0
 11
11595.74302130007
 21
-6654.896717714118
 31
0.0
  0
ARC
  5
1B93F4
330
18
100
AcDbEntity
  8
0
  6
SLD-実線
 62
     8
370
    15
100
AcDbCircle
 10
11607.72853070396
 20
-6652.9387914869
 30
0.0
 40
12.14437774371348
100
AcDbArc
 50
189.2777625878747
 51
192.7367756811076
  0
LINE
  5
1B93F5
330
18
100
AcDbEntity
  8
0
  6
SLD-実線
 62
     8
370
    15
100
AcDbLine
 10
11595.88648767237
 20
-6655.6147211467
 30
0.0
 11
11595.88298683081
 21
-6655.616290531036
 31
0.0
  0
ARC
  5
1B93F6
330
18
100
AcDbEntity
  8
0
  6
SLD-実線
 62
     8
370
    15
100
AcDbCircle
 10
11607.82300484778
 20
-6652.917812249418
 30
0.0
 40
12.23739187405147
100
AcDbArc
 50
192.7315090818852
 51
193.381857930055
  0
LINE
  5
1B93F7
330
18
100
AcDbEntity
  8
0
  6
SLD-実線
 62
     8
370
    15
100
AcDbLine
 10
11595.91786783269
 20
-6655.75003267357
 30
0.0
 11
11595.91436699113
 21
-6655.751602057906
 31
0.0
  0
ARC
  5
1B93F8
330
18
100
AcDbEntity
  8
0
  6
SLD-実線
 62
     8
370
    15
100
AcDbCircle
 10
11607.93127708836
 20
-6652.892189118584
 30
0.0
 40
12.35242367482489
100
AcDbArc
 50
193.3845735832699
 51
196.8046986077725
  0
LINE
  5
1B93F9
330
18
100
AcDbEntity
  8
0
  6
SLD-実線
 62
     8
370
    15
100
AcDbLine
 10
11596.10985472598
 20
-6656.461832674341
 30
0.0
 11
11596.10635388443
 21
-6656.463402058677
 31
0.0
  0
ARC
  5
1B93FA
330
18
100
AcDbEntity
  8
0
  6
SLD-実線
 62
     8
370
    15
100
AcDbCircle
 10
11608.00874296315
 20
-6652.869086158772
 30
0.0
 40
12.42945569225291
100
AcDbArc
 50
196.8011489169589
 51
197.7662402819134
  0
LINE
  5
1B93FB
330
18
100
AcDbEntity
  8
0
  6
SLD-実線
 62
     8
370
    15
100
AcDbLine
 10
11596.17205610816
 20
-6656.661738674168
 30
0.0
 11
11596.1685552666
 21
-6656.663308058505
 31
0.0
  0
ARC
  5
1B93FC
330
18
100
AcDbEntity
  8
0
  6
SLD-実線
 62
     8
370
    15
100
AcDbCircle
 10
11608.0690701068
 20
-6652.849894297292
 30
0.0
 40
12.49657464972221
100
AcDbArc
 50
197.7675929463272
 51
201.1613123281967
  0
LINE
  5
1B93FD
330
18
100
AcDbEntity
  8
0
  6
SLD-実線
 62
     8
370
    15
100
AcDbLine
 10
11596.41866822682
 20
-6657.359525344436
 30
0.0
 11
11596.41516738526
 21
-6657.361094728773
 31
0.0
  0
ARC
  5
1B93FE
330
18
100
AcDbEntity
  8
0
  6
SLD-実線
 62
     8
370
    15
100
AcDbCircle
 10
11608.06245274317
 20
-6652.852988747041
 30
0.0
 40
12.48545513655553
100
AcDbArc
 50
201.1581150773215
 51
201.8002915988311
  0
LINE
  5
1B93FF
330
18
100
AcDbEntity
  8
0
  6
SLD-実線
 62
     8
370
    15
100
AcDbLine
 10
11596.46990820469
 20
-6657.489744195652
 30
0.0
 11
11596.46640736313
 21
-6657.491313579988
 31
0.0
  0
ARC
  5
1B9400
330
18
100
AcDbEntity
  8
0
  6
SLD-実線
 62
     8
370
    15
100
AcDbCircle
 10
11608.11783953326
 20
-6652.831158589186
 30
0.0
 40
12.5488213053405
100
AcDbArc
 50
201.7996379933921
 51
204.384814888
  0
LINE
  5
1B9401
330
18
100
AcDbEntity
  8
0
  6
SLD-実線
 62
     8
370
    15
100
AcDbLine
 10
11596.69196034145
 20
-6658.010533926261
 30
0.0
 11
11596.68845949989
 21
-6658.012103310597
 31
0.0
  0
ARC
  5
1B9402
330
18
100
AcDbEntity
  8
0
  6
SLD-実線
 62
     8
370
    15
100
AcDbCircle
 10
11608.11773108287
 20
-6652.831361748712
 30
0.0
 40
12.54480216982426
100
AcDbArc
 50
204.3842472766095
 51
206.941764069172
  0
LINE
  5
1B9403
330
18
100
AcDbEntity
  8
0
  6
SLD-実線
 62
     8
370
    15
100
AcDbLine
 10
11596.93444760718
 20
-6658.515218905819
 30
0.0
 11
11596.93094676562
 21
-6658.516788290155
 31
0.0
  0
ARC
  5
1B9404
330
18
100
AcDbEntity
  8
0
  6
SLD-実線
 62
     8
370
    15
100
AcDbCircle
 10
11608.07835236575
 20
-6652.851406855711
 30
0.0
 40
12.50444714537661
100
AcDbArc
 50
206.9407798849411
 51
209.5324925455074
  0
LINE
  5
1B9405
330
18
100
AcDbEntity
  8
0
  6
SLD-実線
 62
     8
370
    15
100
AcDbLine
 10
11597.20203008072
 20
-6659.013492811007
 30
0.0
 11
11597.19852923916
 21
-6659.015062195344
 31
0.0
  0
ARC
  5
1B9406
330
18
100
AcDbEntity
  8
0
  6
SLD-実線
 62
     8
370
    15
100
AcDbCircle
 10
11607.98415472016
 20
-6652.905706566261
 30
0.0
 40
12.39190318521719
100
AcDbArc
 50
209.5303974590185
 51
210.1763424476767
  0
LINE
  5
1B9407
330
18
100
AcDbEntity
  8
0
  6
SLD-実線
 62
     8
370
    15
100
AcDbLine
 10
11597.27157218804
 20
-6659.134658327552
 30
0.0
 11
11597.26807134649
 21
-6659.136227711888
 31
0.0
  0
ARC
  5
1B9408
330
18
100
AcDbEntity
  8
0
  6
SLD-実線
 62
     8
370
    15
100
AcDbCircle
 10
11607.99595921817
 20
-6652.899449278148
 30
0.0
 40
12.40906859594954
100
AcDbArc
 50
210.1720603735818
 51
213.581403232558
  0
LINE
  5
1B9409
330
18
100
AcDbEntity
  8
0
  6
SLD-実線
 62
     8
370
    15
100
AcDbLine
 10
11597.66145491398
 20
-6659.761598494211
 30
0.0
 11
11597.65795407242
 21
-6659.763167878548
 31
0.0
  0
ARC
  5
1B940A
330
18
100
AcDbEntity
  8
0
  6
SLD-実線
 62
     8
370
    15
100
AcDbCircle
 10
11607.93072191246
 20
-6652.942539887309
 30
0.0
 40
12.32710042834204
100
AcDbArc
 50
213.5851878180149
 51
214.5551095436348
  0
LINE
  5
1B940B
330
18
100
AcDbEntity
  8
0
  6
SLD-実線
 62
     8
370
    15
100
AcDbLine
 10
11597.77835604665
 20
-6659.934454667768
 30
0.0
 11
11597.77485520509
 21
-6659.936024052105
 31
0.0
  0
ARC
  5
1B940C
330
18
100
AcDbEntity
  8
0
  6
SLD-実線
 62
     8
370
    15
100
AcDbCircle
 10
11607.88757481063
 20
-6652.971067714688
 30
0.0
 40
12.2791577318006
100
AcDbArc
 50
214.5564386526015
 51
215.9310870170502
  0
LINE
  5
1B940D
330
18
100
AcDbEntity
  8
0
  6
SLD-実線
 62
     8
370
    15
100
AcDbLine
 10
11599.42017737135
 20
-6661.852179837135
 30
0.0
 11
11599.41667652979
 21
-6661.853749221471
 31
0.0
  0
ARC
  5
1B940E
330
18
100
AcDbEntity
  8
0
  6
SLD-実線
 62
     8
370
    15
100
AcDbCircle
 10
11607.1454907544
 20
-6653.648682636652
 30
0.0
 40
11.26844413327248
100
AcDbArc
 50
226.7195062057532
 51
227.4092749026249
  0
LINE
  5
1B940F
330
18
100
AcDbEntity
  8
0
  6
SLD-実線
 62
     8
370
    15
100
AcDbLine
 10
11599.51949452581
 20
-6661.944586126094
 30
0.0
 11
11599.51599368425
 21
-6661.946155510432
 31
0.0
  0
ARC
  5
1B9410
330
18
100
AcDbEntity
  8
0
  6
SLD-実線
 62
     8
370
    15
100
AcDbCircle
 10
11607.11632136598
 20
-6653.681993202607
 30
0.0
 40
11.22770499789367
100
AcDbArc
 50
227.3960900678033
 51
231.0410231552634
  0
LINE
  5
1B9411
330
18
100
AcDbEntity
  8
0
  6
SLD-実線
 62
     8
370
    15
100
AcDbLine
 10
11600.06024772836
 20
-6662.411046229799
 30
0.0
 11
11600.0567468868
 21
-6662.412615614136
 31
0.0
  0
ARC
  5
1B9412
330
18
100
AcDbEntity
  8
0
  6
SLD-実線
 62
     8
370
    15
100
AcDbCircle
 10
11606.98188621411
 20
-6653.848317085987
 30
0.0
 40
11.01042277652188
100
AcDbArc
 50
231.0498347910355
 51
232.096050313743
  0
LINE
  5
1B9413
330
18
100
AcDbEntity
  8
0
  6
SLD-実線
 62
     8
370
    15
100
AcDbLine
 10
11600.2177475539
 20
-6662.536000200786
 30
0.0
 11
11600.21424671234
 21
-6662.537569585122
 31
0.0
  0
ARC
  5
1B9414
330
18
100
AcDbEntity
  8
0
  6
SLD-実線
 62
     8
370
    15
100
AcDbCircle
 10
11606.84289532665
 20
-6654.027184401402
 30
0.0
 40
10.78729059714359
100
AcDbArc
 50
232.085353984755
 51
235.829066677615
  0
LINE
  5
1B9415
330
18
100
AcDbEntity
  8
0
  6
SLD-実線
 62
     8
370
    15
100
AcDbLine
 10
11600.78756640341
 20
-6662.950648367616
 30
0.0
 11
11600.78406556185
 21
-6662.952217751952
 31
0.0
  0
ARC
  5
1B9416
330
18
100
AcDbEntity
  8
0
  6
SLD-実線
 62
     8
370
    15
100
AcDbCircle
 10
11606.72013460634
 20
-6654.208915503497
 30
0.0
 40
10.56471764649056
100
AcDbArc
 50
235.8372626177197
 51
236.5544471895299
  0
LINE
  5
1B9417
330
18
100
AcDbEntity
  8
0
  6
SLD-実線
 62
     8
370
    15
100
AcDbLine
 10
11600.89745060003
 20
-6663.024220938518
 30
0.0
 11
11600.89394975847
 21
-6663.025790322855
 31
0.0
  0
ARC
  5
1B9418
330
18
100
AcDbEntity
  8
0
  6
SLD-実線
 62
     8
370
    15
100
AcDbCircle
 10
11606.60552711394
 20
-6654.382160412184
 30
0.0
 40
10.36023425990732
100
AcDbArc
 50
236.5438870076514
 51
240.3895403419337
  0
LINE
  5
1B9419
330
18
100
AcDbEntity
  8
0
  6
SLD-実線
 62
     8
370
    15
100
AcDbLine
 10
11601.49003010125
 20
-6663.387827834349
 30
0.0
 11
11601.4865292597
 21
-6663.389397218686
 31
0.0
  0
ARC
  5
1B941A
330
18
100
AcDbEntity
  8
0
  6
SLD-実線
 62
     8
370
    15
100
AcDbCircle
 10
11606.483173978
 20
-6654.598941375114
 30
0.0
 40
10.10821502378962
100
AcDbArc
 50
240.3982184710628
 51
241.5063005650196
  0
LINE
  5
1B941B
330
18
100
AcDbEntity
  8
0
  6
SLD-実線
 62
     8
370
    15
100
AcDbLine
 10
11601.66092751238
 20
-6663.482744051445
 30
0.0
 11
11601.65742667082
 21
-6663.484313435782
 31
0.0
  0
ARC
  5
1B941C
330
18
100
AcDbEntity
  8
0
  6
SLD-実線
 62
     8
370
    15
100
AcDbCircle
 10
11606.37635372039
 20
-6654.795033621334
 30
0.0
 40
9.887965220047866
100
AcDbArc
 50
241.4947394040794
 51
245.4618312394885
  0
LINE
  5
1B941D
330
18
100
AcDbEntity
  8
0
  6
SLD-実線
 62
     8
370
    15
100
AcDbLine
 10
11602.27338913224
 20
-6663.788396024816
 30
0.0
 11
11602.26988829068
 21
-6663.789965409153
 31
0.0
  0
ARC
  5
1B941E
330
18
100
AcDbEntity
  8
0
  6
SLD-実線
 62
     8
370
    15
100
AcDbCircle
 10
11606.32546388302
 20
-6654.906581388783
 30
0.0
 40
9.762476172305227
100
AcDbArc
 50
245.4765089492768
 51
246.2297534278392
  0
LINE
  5
1B941F
330
18
100
AcDbEntity
  8
0
  6
SLD-実線
 62
     8
370
    15
100
AcDbLine
 10
11602.39050156058
 20
-6663.840897956703
 30
0.0
 11
11602.38700071903
 21
-6663.842467341039
 31
0.0
  0
ARC
  5
1B9420
330
18
100
AcDbEntity
  8
0
  6
SLD-実線
 62
     8
370
    15
100
AcDbCircle
 10
11606.1990927554
 20
-6655.190333581677
 30
0.0
 40
9.454705933222035
100
AcDbArc
 50
246.2219216572325
 51
250.309301794919
  0
LINE
  5
1B9421
330
18
100
AcDbEntity
  8
0
  6
SLD-実線
 62
     8
370
    15
100
AcDbLine
 10
11603.01690220237
 20
-6664.090608647912
 30
0.0
 11
11603.01340136082
 21
-6664.092178032248
 31
0.0
  0
ARC
  5
1B9422
330
18
100
AcDbEntity
  8
0
  6
SLD-実線
 62
     8
370
    15
100
AcDbCircle
 10
11606.09882072316
 20
-6655.475552416146
 30
0.0
 40
9.149722162187503
100
AcDbArc
 50
250.3160251329029
 51
251.5028611655845
  0
LINE
  5
1B9423
330
18
100
AcDbEntity
  8
0
  6
SLD-実線
 62
     8
370
    15
100
AcDbLine
 10
11603.19600457607
 20
-6664.152595349165
 30
0.0
 11
11603.19250373452
 21
-6664.154164733502
 31
0.0
  0
ARC
  5
1B9424
330
18
100
AcDbEntity
  8
0
  6
SLD-実線
 62
     8
370
    15
100
AcDbCircle
 10
11606.05184851082
 20
-6655.615815211175
 30
0.0
 40
9.004402540711178
100
AcDbArc
 50
251.485198011178
 51
255.7080698685317
  0
LINE
  5
1B9425
330
18
100
AcDbEntity
  8
0
  6
SLD-実線
 62
     8
370
    15
100
AcDbLine
 10
11603.83249977354
 20
-6664.339966706229
 30
0.0
 11
11603.82899893198
 21
-6664.341536090566
 31
0.0
  0
ARC
  5
1B9426
330
18
100
AcDbEntity
  8
0
  6
SLD-実線
 62
     8
370
    15
100
AcDbCircle
 10
11606.03254736778
 20
-6655.693295724112
 30
0.0
 40
8.92217061537818
100
AcDbArc
 50
255.7246496048985
 51
256.5236017841688
  0
LINE
  5
1B9427
330
18
100
AcDbEntity
  8
0
  6
SLD-実線
 62
     8
370
    15
100
AcDbLine
 10
11603.9532819293
 20
-6664.369803300682
 30
0.0
 11
11603.94978108775
 21
-6664.371372685018
 31
0.0
  0
ARC
  5
1B9428
330
18
100
AcDbEntity
  8
0
  6
SLD-実線
 62
     8
370
    15
100
AcDbCircle
 10
11605.96009112975
 20
-6655.986393398223
 30
0.0
 40
8.622599614094636
100
AcDbArc
 50
256.5177385621164
 51
260.8637441958705
  0
LINE
  5
1B9429
330
18
100
AcDbEntity
  8
0
  6
SLD-実線
 62
     8
370
    15
100
AcDbLine
 10
11604.59447099247
 20
-6664.4980332707
 30
0.0
 11
11604.59097015092
 21
-6664.499602655036
 31
0.0
  0
ARC
  5
1B942A
330
18
100
AcDbEntity
  8
0
  6
SLD-実線
 62
     8
370
    15
100
AcDbCircle
 10
11605.93495833573
 20
-6656.149438429949
 30
0.0
 40
8.455527312501372
100
AcDbArc
 50
260.8781938186231
 51
262.1242447744098
  0
LINE
  5
1B942B
330
18
100
AcDbEntity
  8
0
  6
SLD-実線
 62
     8
370
    15
100
AcDbLine
 10
11604.77633633591
 20
-6664.525209271727
 30
0.0
 11
11604.77283549435
 21
-6664.526778656063
 31
0.0
  0
ARC
  5
1B942C
330
18
100
AcDbEntity
  8
0
  6
SLD-実線
 62
     8
370
    15
100
AcDbCircle
 10
11605.90451058349
 20
-6656.355030797638
 30
0.0
 40
8.24973645452076
100
AcDbArc
 50
262.1154688937539
 51
266.5914835770647
  0
LINE
  5
1B942D
330
18
100
AcDbEntity
  8
0
  6
SLD-実線
 62
     8
370
    15
100
AcDbLine
 10
11605.41752539908
 20
-6664.588604097396
 30
0.0
 11
11605.41402455752
 21
-6664.590173481733
 31
0.0
  0
ARC
  5
1B942E
330
18
100
AcDbEntity
  8
0
  6
SLD-実線
 62
     8
370
    15
100
AcDbCircle
 10
11605.90216601083
 20
-6656.406380572256
 30
0.0
 40
8.196563812836944
100
AcDbArc
 50
266.6102787274999
 51
267.4557134550797
  0
LINE
  5
1B942F
330
18
100
AcDbEntity
  8
0
  6
SLD-実線
 62
     8
370
    15
100
AcDbLine
 10
11605.53830755484
 20
-6664.594864275721
 30
0.0
 11
11605.53480671328
 21
-6664.596433660057
 31
0.0
  0
ARC
  5
1B9430
330
18
100
AcDbEntity
  8
0
  6
SLD-実線
 62
     8
370
    15
100
AcDbCircle
 10
11605.88863009676
 20
-6656.654435763861
 30
0.0
 40
7.949875569459918
100
AcDbArc
 50
267.4491065677275
 51
272.0376817763969
  0
LINE
  5
1B9431
330
18
100
AcDbEntity
  8
0
  6
SLD-実線
 62
     8
370
    15
100
AcDbLine
 10
11606.1748027523
 20
-6664.597714912723
 30
0.0
 11
11606.17130191075
 21
-6664.599284297059
 31
0.0
  0
ARC
  5
1B9432
330
18
100
AcDbEntity
  8
0
  6
SLD-実線
 62
     8
370
    15
100
AcDbCircle
 10
11605.89880870711
 20
-6656.855110753015
 30
0.0
 40
7.747521660951889
100
AcDbArc
 50
272.0415096813839
 51
273.3675443422841
  0
LINE
  5
1B9433
330
18
100
AcDbEntity
  8
0
  6
SLD-実線
 62
     8
370
    15
100
AcDbLine
 10
11606.353905126
 20
-6664.589254476557
 30
0.0
 11
11606.35040428445
 21
-6664.590823860894
 31
0.0
  0
ARC
  5
1B9434
330
18
100
AcDbEntity
  8
0
  6
SLD-実線
 62
     8
370
    15
100
AcDbCircle
 10
11605.90042215145
 20
-6656.911321468412
 30
0.0
 40
7.692674496958479
100
AcDbArc
 50
273.3534244370112
 51
278.0433957389301
  0
LINE
  5
1B9435
330
18
100
AcDbEntity
  8
0
  6
SLD-実線
 62
     8
370
    15
100
AcDbLine
 10
11606.98030576779
 20
-6664.526748935743
 30
0.0
 11
11606.97680492624
 21
-6664.528318320079
 31
0.0
  0
ARC
  5
1B9436
330
18
100
AcDbEntity
  8
0
  6
SLD-実線
 62
     8
370
    15
100
AcDbCircle
 10
11605.90562098156
 20
-6656.935010193728
 30
0.0
 40
7.667427503195285
100
AcDbArc
 50
278.0572418207065
 51
278.9421060302878
  0
LINE
  5
1B9437
330
18
100
AcDbEntity
  8
0
  6
SLD-実線
 62
     8
370
    15
100
AcDbLine
 10
11607.09741819614
 20
-6664.509247047437
 30
0.0
 11
11607.09391735458
 21
-6664.510816431773
 31
0.0
  0
ARC
  5
1B9438
330
18
100
AcDbEntity
  8
0
  6
SLD-実線
 62
     8
370
    15
100
AcDbCircle
 10
11605.92630541141
 20
-6657.087526222156
 30
0.0
 40
7.514556220166476
100
AcDbArc
 50
278.9388371904985
 51
283.7026683025192
  0
LINE
  5
1B9439
330
18
100
AcDbEntity
  8
0
  6
SLD-実線
 62
     8
370
    15
100
AcDbLine
 10
11607.709879816
 20
-6664.386634429404
 30
0.0
 11
11607.70637897444
 21
-6664.38820381374
 31
0.0
  0
ARC
  5
1B943A
330
18
100
AcDbEntity
  8
0
  6
SLD-実線
 62
     8
370
    15
100
AcDbCircle
 10
11605.94885901107
 20
-6657.167132964279
 30
0.0
 40
7.431177274181976
100
AcDbArc
 50
283.7082103549328
 51
285.0685620045405
  0
LINE
  5
1B943B
330
18
100
AcDbEntity
  8
0
  6
SLD-実線
 62
     8
370
    15
100
AcDbLine
 10
11607.88077722712
 20
-6664.342792354663
 30
0.0
 11
11607.87727638556
 21
-6664.344361738999
 31
0.0
  0
ARC
  5
1B943C
330
18
100
AcDbEntity
  8
0
  6
SLD-実線
 62
     8
370
    15
100
AcDbCircle
 10
11605.95598362566
 20
-6657.205385061427
 30
0.0
 40
7.392993566355787
100
AcDbArc
 50
285.0629546670447
 51
289.8789709850784
  0
LINE
  5
1B943D
330
18
100
AcDbEntity
  8
0
  6
SLD-実線
 62
     8
370
    15
100
AcDbLine
 10
11608.47335672835
 20
-6664.156282874201
 30
0.0
 11
11608.46985588679
 21
-6664.157852258539
 31
0.0
  0
ARC
  5
1B943E
330
18
100
AcDbEntity
  8
0
  6
SLD-実線
 62
     8
370
    15
100
AcDbCircle
 10
11605.9727262235
 20
-6657.241781640892
 30
0.0
 40
7.352787242074632
100
AcDbArc
 50
289.8825322218526
 51
290.795738526532
  0
LINE
  5
1B943F
330
18
100
AcDbEntity
  8
0
  6
SLD-実線
 62
     8
370
    15
100
AcDbLine
 10
11608.58324092497
 20
-6664.115550128456
 30
0.0
 11
11608.57974008341
 21
-6664.117119512792
 31
0.0
  0
ARC
  5
1B9440
330
18
100
AcDbEntity
  8
0
  6
SLD-実線
 62
     8
370
    15
100
AcDbCircle
 10
11605.97118151459
 20
-6657.247410213427
 30
0.0
 40
7.348298011427966
100
AcDbArc
 50
290.7927168898241
 51
294.4867055955527
  0
LINE
  5
1B9441
330
18
100
AcDbEntity
  8
0
  6
SLD-実線
 62
     8
370
    15
100
AcDbLine
 10
11609.02042028969
 20
-6663.933214312376
 30
0.0
 11
11609.01691944813
 21
-6663.934783696712
 31
0.0
  0
ARC
  5
1B9442
330
18
100
AcDbEntity
  8
0
  6
SLD-実線
 62
     8
370
    15
100
AcDbCircle
 10
11605.97243775668
 20
-6657.241355632152
 30
0.0
 40
7.353310146975915
100
AcDbArc
 50
294.4881368052394
 51
298.1396321909333
  0
ARC
  5
1B9443
330
18
100
AcDbEntity
  8
0
  6
SLD-実線
 62
     8
370
    15
100
AcDbCircle
 10
11605.9574883961
 20
-6657.221311581756
 30
0.0
 40
7.37776826558038
100
AcDbArc
 50
298.138870684957
 51
301.8234484830007
  0
LINE
  5
1B9444
330
18
100
AcDbEntity
  8
0
  6
SLD-実線
 62
     8
370
    15
100
AcDbLine
 10
11609.85131280257
 20
-6663.488461934403
 30
0.0
 11
11609.84781196101
 21
-6663.490031318739
 31
0.0
  0
ARC
  5
1B9445
330
18
100
AcDbEntity
  8
0
  6
SLD-実線
 62
     8
370
    15
100
AcDbCircle
 10
11605.99446318468
 20
-6657.271586987175
 30
0.0
 40
7.316066093503805
100
AcDbArc
 50
301.8148017320518
 51
302.7347467421922
  0
ARC
  5
1B9446
330
18
100
AcDbEntity
  8
0
  6
SLD-実線
 62
     8
370
    15
100
AcDbCircle
 10
11605.21569235525
 20
-6655.848632552452
 30
0.0
 40
8.947518911849372
100
AcDbArc
 50
220.7516993523907
 51
290.9649487249721
  0
LWPOLYLINE
  5
1B9447
330
18
100
AcDbEntity
  8
0
  6
SLD-実線
 62
     8
370
    15
100
AcDbPolyline
 90
       16
 70
   128
 43
0.0
 10
11597.94485463084
 20
-6661.142470690225
 10
11597.51003155872
 20
-6660.597277058981
 10
11596.8289972228
 20
-6659.590775718623
 10
11596.24690402818
 20
-6658.516874109824
 10
11595.7716476864
 20
-6657.390132202716
 10
11595.4096763148
 20
-6656.225850816727
 10
11595.16590123228
 20
-6655.039811443746
 10
11595.0436292091
 20
-6653.848114993406
 10
11595.04451899397
 20
-6652.666923412156
 10
11595.1685587306
 20
-6651.512259838519
 10
11595.4140653932
 20
-6650.399796935489
 10
11595.77770793434
 20
-6649.344618540134
 10
11596.25455414553
 20
-6648.361045308869
 10
11596.83813389062
 20
-6647.462417470069
 10
11597.52052943931
 20
-6646.660926965498
 10
11597.94485463084
 20
-6646.256497867109
  0
LINE
  5
1B9448
330
18
100
AcDbEntity
  8
0
  6
SLD-実線
 62
     8
370
    15
100
AcDbLine
 10
11609.84781196101
 20
-6663.490031318739
 30
0.0
 11
11609.78780342429
 21
-6663.385479049151
 31
0.0
  0
LINE
  5
1B9449
330
18
100
AcDbEntity
  8
0
  6
SLD-実線
 62
     8
370
    15
100
AcDbLine
 10
11609.01691944813
 20
-6663.934783696712
 30
0.0
 11
11608.67295097631
 21
-6663.218887489161
 31
0.0
  0
LINE
  5
1B944A
330
18
100
AcDbEntity
  8
0
  6
SLD-実線
 62
     8
370
    15
100
AcDbLine
 10
11608.46985588679
 20
-6664.157852258539
 30
0.0
 11
11608.16250296555
 21
-6663.376768764439
 31
0.0
  0
LINE
  5
1B944B
330
18
100
AcDbEntity
  8
0
  6
SLD-実線
 62
     8
370
    15
100
AcDbLine
 10
11607.27766696285
 20
-6663.010391251965
 30
0.0
 11
11607.70637897444
 21
-6664.38820381374
 31
0.0
  0
LINE
  5
1B944C
330
18
100
AcDbEntity
  8
0
  6
SLD-実線
 62
     8
370
    15
100
AcDbLine
 10
11606.97680492624
 20
-6664.528318320079
 30
0.0
 11
11606.78857647067
 21
-6663.716678663452
 31
0.0
  0
LINE
  5
1B944D
330
18
100
AcDbEntity
  8
0
  6
SLD-実線
 62
     8
370
    15
100
AcDbLine
 10
11605.91873610943
 20
-6662.963944163324
 30
0.0
 11
11606.17130191075
 21
-6664.599284297059
 31
0.0
  0
LINE
  5
1B944E
330
18
100
AcDbEntity
  8
0
  6
SLD-実線
 62
     8
370
    15
100
AcDbLine
 10
11605.41402455752
 20
-6664.590173481733
 30
0.0
 11
11605.35063973607
 21
-6663.772635386036
 31
0.0
  0
LINE
  5
1B944F
330
18
100
AcDbEntity
  8
0
  6
SLD-実線
 62
     8
370
    15
100
AcDbLine
 10
11604.59097015092
 20
-6662.877353793074
 30
0.0
 11
11604.59097015092
 21
-6664.499602655036
 31
0.0
  0
LINE
  5
1B9450
330
18
100
AcDbEntity
  8
0
  6
SLD-実線
 62
     8
370
    15
100
AcDbLine
 10
11603.82899893198
 20
-6664.341536090566
 30
0.0
 11
11603.89238375343
 21
-6663.542941086944
 31
0.0
  0
LINE
  5
1B9451
330
18
100
AcDbEntity
  8
0
  6
SLD-実線
 62
     8
370
    15
100
AcDbLine
 10
11603.26596716213
 20
-6662.532319332702
 30
0.0
 11
11603.01340136082
 21
-6664.092178032248
 31
0.0
  0
LINE
  5
1B9452
330
18
100
AcDbEntity
  8
0
  6
SLD-実線
 62
     8
370
    15
100
AcDbLine
 10
11602.26988829068
 20
-6663.789965409153
 30
0.0
 11
11602.45811688739
 21
-6663.034579445759
 31
0.0
  0
LINE
  5
1B9453
330
18
100
AcDbEntity
  8
0
  6
SLD-実線
 62
     8
370
    15
100
AcDbLine
 10
11601.8926017229
 20
-6662.205705016939
 30
0.0
 11
11601.4865292597
 21
-6663.389397218686
 31
0.0
  0
LINE
  5
1B9454
330
18
100
AcDbEntity
  8
0
  6
SLD-実線
 62
     8
370
    15
100
AcDbLine
 10
11600.78406556185
 20
-6662.952217751952
 30
0.0
 11
11601.09141876538
 21
-6662.262994367893
 31
0.0
  0
LINE
  5
1B9455
330
18
100
AcDbEntity
  8
0
  6
SLD-実線
 62
     8
370
    15
100
AcDbLine
 10
11600.30585475039
 20
-6661.968598614257
 30
0.0
 11
11600.0567468868
 21
-6662.412615614136
 31
0.0
  0
LINE
  5
1B9456
330
18
100
AcDbEntity
  8
0
  6
SLD-実線
 62
     8
370
    15
100
AcDbLine
 10
11599.41667652979
 20
-6661.853749221471
 30
0.0
 11
11599.42799136387
 21
-6661.837420150878
 31
0.0
  0
LINE
  5
1B9457
330
18
100
AcDbEntity
  8
0
  6
SLD-実線
 62
     8
370
    15
100
AcDbLine
 10
11597.944853798
 20
-6659.53752990437
 30
0.0
 11
11597.65795407242
 21
-6659.763167878548
 31
0.0
  0
LINE
  5
1B9458
330
18
100
AcDbEntity
  8
0
  6
SLD-実線
 62
     8
370
    15
100
AcDbLine
 10
11597.19852923916
 20
-6659.015062195344
 30
0.0
 11
11597.79426504895
 21
-6658.638826156513
 31
0.0
  0
LINE
  5
1B9459
330
18
100
AcDbEntity
  8
0
  6
SLD-実線
 62
     8
370
    15
100
AcDbLine
 10
11596.68845949989
 20
-6658.012103310597
 30
0.0
 11
11597.944853798
 21
-6657.390791424412
 31
0.0
  0
LINE
  5
1B945A
330
18
100
AcDbEntity
  8
0
  6
SLD-実線
 62
     8
370
    15
100
AcDbLine
 10
11597.1255279238
 20
-6657.246995309634
 30
0.0
 11
11596.46640736313
 21
-6657.491313579988
 31
0.0
  0
LINE
  5
1B945B
330
18
100
AcDbEntity
  8
0
  6
SLD-実線
 62
     8
370
    15
100
AcDbLine
 10
11597.53530829444
 20
-6656.31269919714
 30
0.0
 11
11596.1685552666
 21
-6656.663308058505
 31
0.0
  0
LINE
  5
1B945C
330
18
100
AcDbEntity
  8
0
  6
SLD-実線
 62
     8
370
    15
100
AcDbLine
 10
11596.61684536817
 20
-6655.646631938835
 30
0.0
 11
11595.91436699113
 21
-6655.751602057906
 31
0.0
  0
LINE
  5
1B945D
330
18
100
AcDbEntity
  8
0
  6
SLD-実線
 62
     8
370
    15
100
AcDbLine
 10
11597.1753925743
 20
-6654.829052963858
 30
0.0
 11
11595.74302130007
 21
-6654.896717714118
 31
0.0
  0
LINE
  5
1B945E
330
18
100
AcDbEntity
  8
0
  6
SLD-実線
 62
     8
370
    15
100
AcDbLine
 10
11596.35321554935
 20
-6654.007522685097
 30
0.0
 11
11595.62872346563
 21
-6653.969956364266
 31
0.0
  0
LINE
  5
1B945F
330
18
100
AcDbEntity
  8
0
  6
SLD-実線
 62
     8
370
    15
100
AcDbLine
 10
11597.04355875132
 20
-6653.331504784294
 30
0.0
 11
11595.58909077651
 21
-6653.114164732417
 31
0.0
  0
LINE
  5
1B9460
330
18
100
AcDbEntity
  8
0
  6
SLD-実線
 62
     8
370
    15
100
AcDbLine
 10
11596.34264822489
 20
-6652.379468129077
 30
0.0
 11
11595.61815670576
 21
-6652.200513923592
 31
0.0
  0
LINE
  5
1B9461
330
18
100
AcDbEntity
  8
0
  6
SLD-実線
 62
     8
370
    15
100
AcDbLine
 10
11597.14381198655
 20
-6651.865554128897
 30
0.0
 11
11595.71144071232
 21
-6651.369818099161
 31
0.0
  0
LINE
  5
1B9462
330
18
100
AcDbEntity
  8
0
  6
SLD-実線
 62
     8
370
    15
100
AcDbLine
 10
11596.58546520785
 20
-6650.811941192096
 30
0.0
 11
11595.88298683081
 21
-6650.497029445498
 31
0.0
  0
LINE
  5
1B9463
330
18
100
AcDbEntity
  8
0
  6
SLD-実線
 62
     8
370
    15
100
AcDbLine
 10
11597.47310634768
 20
-6650.475747582464
 30
0.0
 11
11596.10635388443
 21
-6649.716673058376
 31
0.0
  0
LINE
  5
1B9464
330
18
100
AcDbEntity
  8
0
  6
SLD-実線
 62
     8
370
    15
100
AcDbLine
 10
11597.07428851051
 20
-6649.352569018043
 30
0.0
 11
11596.41516738526
 21
-6648.911271925054
 31
0.0
  0
LINE
  5
1B9465
330
18
100
AcDbEntity
  8
0
  6
SLD-実線
 62
     8
370
    15
100
AcDbLine
 10
11597.66447219824
 20
-6648.921101253358
 30
0.0
 11
11596.7618300534
 21
-6648.204960707382
 31
0.0
  0
LINE
  5
1B9466
330
18
100
AcDbEntity
  8
0
  6
SLD-実線
 62
     8
370
    15
100
AcDbLine
 10
11597.74419997102
 20
-6647.999116800088
 30
0.0
 11
11597.19852923916
 21
-6647.491418799831
 31
0.0
  0
LINE
  5
1B9467
330
18
100
AcDbEntity
  8
0
  6
SLD-実線
 62
     8
370
    15
100
AcDbLine
 10
11597.91026510507
 20
-6647.154455726853
 30
0.0
 11
11597.65795407242
 21
-6646.880616128895
 31
0.0
  0
LINE
  5
1B9468
330
18
100
AcDbEntity
  8
0
  6
SLD-実線
 62
     8
370
    15
100
AcDbLine
 10
11596.69196034145
 20
-6658.010533926261
 30
0.0
 11
11597.94485478144
 21
-6657.390950908921
 31
0.0
  0
LINE
  5
1B9469
330
18
100
AcDbEntity
  8
0
  6
SLD-実線
 62
     8
370
    15
100
AcDbLine
 10
11597.94485478144
 20
-6658.01554961693
 30
0.0
 11
11596.93444760718
 21
-6658.515218905819
 31
0.0
  0
LINE
  5
1B946A
330
18
100
AcDbEntity
  8
0
  6
SLD-実線
 62
     8
370
    15
100
AcDbLine
 10
11596.41866822682
 20
-6657.359525344436
 30
0.0
 11
11597.07778935207
 21
-6657.115212196144
 31
0.0
  0
LINE
  5
1B946B
330
18
100
AcDbEntity
  8
0
  6
SLD-実線
 62
     8
370
    15
100
AcDbLine
 10
11597.07778935207
 20
-6657.115212196144
 30
0.0
 11
11597.12902876536
 21
-6657.245425925298
 31
0.0
  0
LINE
  5
1B946C
330
18
100
AcDbEntity
  8
0
  6
SLD-実線
 62
     8
370
    15
100
AcDbLine
 10
11597.12902876536
 20
-6657.245425925298
 30
0.0
 11
11596.46990820469
 21
-6657.489744195652
 31
0.0
  0
LINE
  5
1B946D
330
18
100
AcDbEntity
  8
0
  6
SLD-実線
 62
     8
370
    15
100
AcDbLine
 10
11597.12902876536
 20
-6657.245425925298
 30
0.0
 11
11597.1255279238
 21
-6657.246995309634
 31
0.0
  0
LINE
  5
1B946E
330
18
100
AcDbEntity
  8
0
  6
SLD-実線
 62
     8
370
    15
100
AcDbLine
 10
11597.79776589051
 20
-6658.637256772176
 30
0.0
 11
11597.79426504895
 21
-6658.638826156513
 31
0.0
  0
LINE
  5
1B946F
330
18
100
AcDbEntity
  8
0
  6
SLD-実線
 62
     8
370
    15
100
AcDbLine
 10
11597.20203008072
 20
-6659.013492811007
 30
0.0
 11
11597.79776589051
 21
-6658.637256772176
 31
0.0
  0
LINE
  5
1B9470
330
18
100
AcDbEntity
  8
0
  6
SLD-実線
 62
     8
370
    15
100
AcDbLine
 10
11597.79776589051
 20
-6658.637256772176
 30
0.0
 11
11597.86730856242
 21
-6658.758422373086
 31
0.0
  0
LINE
  5
1B9471
330
18
100
AcDbEntity
  8
0
  6
SLD-実線
 62
     8
370
    15
100
AcDbLine
 10
11597.86730856242
 20
-6658.758422373086
 30
0.0
 11
11597.27157218804
 21
-6659.134658327552
 31
0.0
  0
LINE
  5
1B9472
330
18
100
AcDbEntity
  8
0
  6
SLD-実線
 62
     8
370
    15
100
AcDbLine
 10
11597.47660718924
 20
-6656.111223728612
 30
0.0
 11
11596.10985472598
 21
-6656.461832674341
 31
0.0
  0
LINE
  5
1B9473
330
18
100
AcDbEntity
  8
0
  6
SLD-実線
 62
     8
370
    15
100
AcDbLine
 10
11597.53880913599
 20
-6656.311129812804
 30
0.0
 11
11597.47660718924
 21
-6656.111223728612
 31
0.0
  0
LINE
  5
1B9474
330
18
100
AcDbEntity
  8
0
  6
SLD-実線
 62
     8
370
    15
100
AcDbLine
 10
11597.53880913599
 20
-6656.311129812804
 30
0.0
 11
11596.17205610816
 21
-6656.661738674168
 31
0.0
  0
LINE
  5
1B9475
330
18
100
AcDbEntity
  8
0
  6
SLD-実線
 62
     8
370
    15
100
AcDbLine
 10
11597.53880913599
 20
-6656.311129812804
 30
0.0
 11
11597.53530829444
 21
-6656.31269919714
 31
0.0
  0
LINE
  5
1B9476
330
18
100
AcDbEntity
  8
0
  6
SLD-実線
 62
     8
370
    15
100
AcDbLine
 10
11597.94485478144
 20
-6659.538712041116
 30
0.0
 11
11597.66145491398
 21
-6659.761598494211
 31
0.0
  0
LINE
  5
1B9477
330
18
100
AcDbEntity
  8
0
  6
SLD-実線
 62
     8
370
    15
100
AcDbLine
 10
11597.94485478144
 20
-6659.803508443012
 30
0.0
 11
11597.77835604665
 21
-6659.934454667768
 31
0.0
  0
LINE
  5
1B9478
330
18
100
AcDbEntity
  8
0
  6
SLD-実線
 62
     8
370
    15
100
AcDbLine
 10
11595.88648767237
 20
-6655.6147211467
 30
0.0
 11
11596.58896604941
 21
-6655.509751027627
 31
0.0
  0
LINE
  5
1B9479
330
18
100
AcDbEntity
  8
0
  6
SLD-実線
 62
     8
370
    15
100
AcDbLine
 10
11596.58896604941
 20
-6655.509751027627
 30
0.0
 11
11596.62034620973
 21
-6655.645062554499
 31
0.0
  0
LINE
  5
1B947A
330
18
100
AcDbEntity
  8
0
  6
SLD-実線
 62
     8
370
    15
100
AcDbLine
 10
11596.62034620973
 20
-6655.645062554499
 30
0.0
 11
11595.91786783269
 21
-6655.75003267357
 31
0.0
  0
LINE
  5
1B947B
330
18
100
AcDbEntity
  8
0
  6
SLD-実線
 62
     8
370
    15
100
AcDbLine
 10
11596.62034620973
 20
-6655.645062554499
 30
0.0
 11
11596.61684536817
 21
-6655.646631938835
 31
0.0
  0
LINE
  5
1B947C
330
18
100
AcDbEntity
  8
0
  6
SLD-実線
 62
     8
370
    15
100
AcDbLine
 10
11597.14731282811
 20
-6654.623004766408
 30
0.0
 11
11595.71494155388
 21
-6654.690664478972
 31
0.0
  0
LINE
  5
1B947D
330
18
100
AcDbEntity
  8
0
  6
SLD-実線
 62
     8
370
    15
100
AcDbLine
 10
11597.17889341586
 20
-6654.827483579522
 30
0.0
 11
11597.14731282811
 21
-6654.623004766408
 31
0.0
  0
LINE
  5
1B947E
330
18
100
AcDbEntity
  8
0
  6
SLD-実線
 62
     8
370
    15
100
AcDbLine
 10
11597.17889341586
 20
-6654.827483579522
 30
0.0
 11
11595.74652214163
 21
-6654.895148329781
 31
0.0
  0
LINE
  5
1B947F
330
18
100
AcDbEntity
  8
0
  6
SLD-実線
 62
     8
370
    15
100
AcDbLine
 10
11597.17889341586
 20
-6654.827483579522
 30
0.0
 11
11597.1753925743
 21
-6654.829052963858
 31
0.0
  0
LINE
  5
1B9480
330
18
100
AcDbEntity
  8
0
  6
SLD-実線
 62
     8
370
    15
100
AcDbLine
 10
11595.62165754732
 20
-6653.832094974829
 30
0.0
 11
11596.34614906645
 21
-6653.869656173598
 31
0.0
  0
LINE
  5
1B9481
330
18
100
AcDbEntity
  8
0
  6
SLD-実線
 62
     8
370
    15
100
AcDbLine
 10
11596.34614906645
 20
-6653.869656173598
 30
0.0
 11
11596.35671639091
 21
-6654.005953300761
 31
0.0
  0
LINE
  5
1B9482
330
18
100
AcDbEntity
  8
0
  6
SLD-実線
 62
     8
370
    15
100
AcDbLine
 10
11596.35671639091
 20
-6654.005953300761
 30
0.0
 11
11595.63222430719
 21
-6653.96838697993
 31
0.0
  0
LINE
  5
1B9483
330
18
100
AcDbEntity
  8
0
  6
SLD-実線
 62
     8
370
    15
100
AcDbLine
 10
11596.35671639091
 20
-6654.005953300761
 30
0.0
 11
11596.35321554935
 21
-6654.007522685097
 31
0.0
  0
LINE
  5
1B9484
330
18
100
AcDbEntity
  8
0
  6
SLD-実線
 62
     8
370
    15
100
AcDbLine
 10
11599.42017737135
 20
-6661.852179837135
 30
0.0
 11
11599.43017898233
 21
-6661.837745176343
 31
0.0
  0
LINE
  5
1B9485
330
18
100
AcDbEntity
  8
0
  6
SLD-実線
 62
     8
370
    15
100
AcDbLine
 10
11599.57818983944
 20
-6661.859862327026
 30
0.0
 11
11599.51949452581
 21
-6661.944586126094
 31
0.0
  0
LINE
  5
1B9486
330
18
100
AcDbEntity
  8
0
  6
SLD-実線
 62
     8
370
    15
100
AcDbLine
 10
11597.04705959287
 20
-6653.12709258044
 30
0.0
 11
11595.59259161807
 21
-6652.909752528562
 31
0.0
  0
LINE
  5
1B9487
330
18
100
AcDbEntity
  8
0
  6
SLD-実線
 62
     8
370
    15
100
AcDbLine
 10
11597.04705959287
 20
-6653.329935399957
 30
0.0
 11
11597.04705959287
 21
-6653.12709258044
 31
0.0
  0
LINE
  5
1B9488
330
18
100
AcDbEntity
  8
0
  6
SLD-実線
 62
     8
370
    15
100
AcDbLine
 10
11597.04705959287
 20
-6653.329935399957
 30
0.0
 11
11595.59259161807
 21
-6653.112595348081
 31
0.0
  0
LINE
  5
1B9489
330
18
100
AcDbEntity
  8
0
  6
SLD-実線
 62
     8
370
    15
100
AcDbLine
 10
11597.04705959287
 20
-6653.329935399957
 30
0.0
 11
11597.04355875132
 21
-6653.331504784294
 31
0.0
  0
LINE
  5
1B948A
330
18
100
AcDbEntity
  8
0
  6
SLD-実線
 62
     8
370
    15
100
AcDbLine
 10
11600.30827271925
 20
-6661.968958060807
 30
0.0
 11
11600.06024772836
 21
-6662.411046229799
 31
0.0
  0
LINE
  5
1B948B
330
18
100
AcDbEntity
  8
0
  6
SLD-実線
 62
     8
370
    15
100
AcDbLine
 10
11600.51827267483
 20
-6662.000338195696
 30
0.0
 11
11600.2177475539
 21
-6662.536000200786
 31
0.0
  0
LINE
  5
1B948C
330
18
100
AcDbEntity
  8
0
  6
SLD-実線
 62
     8
370
    15
100
AcDbLine
 10
11595.63222430719
 20
-6652.065805462367
 30
0.0
 11
11596.35671639091
 21
-6652.244764789913
 31
0.0
  0
LINE
  5
1B948D
330
18
100
AcDbEntity
  8
0
  6
SLD-実線
 62
     8
370
    15
100
AcDbLine
 10
11596.35671639091
 20
-6652.244764789913
 30
0.0
 11
11596.34614906645
 21
-6652.37789874474
 31
0.0
  0
LINE
  5
1B948E
330
18
100
AcDbEntity
  8
0
  6
SLD-実線
 62
     8
370
    15
100
AcDbLine
 10
11596.34614906645
 20
-6652.37789874474
 30
0.0
 11
11595.62165754732
 21
-6652.198944539256
 31
0.0
  0
LINE
  5
1B948F
330
18
100
AcDbEntity
  8
0
  6
SLD-実線
 62
     8
370
    15
100
AcDbLine
 10
11596.34614906645
 20
-6652.37789874474
 30
0.0
 11
11596.34264822489
 21
-6652.379468129077
 31
0.0
  0
LINE
  5
1B9490
330
18
100
AcDbEntity
  8
0
  6
SLD-実線
 62
     8
370
    15
100
AcDbLine
 10
11600.78756640341
 20
-6662.950648367616
 30
0.0
 11
11601.09491960694
 21
-6662.261424983557
 31
0.0
  0
LINE
  5
1B9491
330
18
100
AcDbEntity
  8
0
  6
SLD-実線
 62
     8
370
    15
100
AcDbLine
 10
11601.09491960694
 20
-6662.261424983557
 30
0.0
 11
11601.20480352127
 21
-6662.334992474582
 31
0.0
  0
LINE
  5
1B9492
330
18
100
AcDbEntity
  8
0
  6
SLD-実線
 62
     8
370
    15
100
AcDbLine
 10
11601.20480352127
 20
-6662.334992474582
 30
0.0
 11
11600.89745060003
 21
-6663.024220938518
 31
0.0
  0
LINE
  5
1B9493
330
18
100
AcDbEntity
  8
0
  6
SLD-実線
 62
     8
370
    15
100
AcDbLine
 10
11601.09491960694
 20
-6662.261424983557
 30
0.0
 11
11601.09141876538
 21
-6662.262994367893
 31
0.0
  0
LINE
  5
1B9494
330
18
100
AcDbEntity
  8
0
  6
SLD-実線
 62
     8
370
    15
100
AcDbLine
 10
11597.17889341586
 20
-6651.668944058239
 30
0.0
 11
11595.74652214163
 21
-6651.173202990808
 31
0.0
  0
LINE
  5
1B9495
330
18
100
AcDbEntity
  8
0
  6
SLD-実線
 62
     8
370
    15
100
AcDbLine
 10
11597.14731282811
 20
-6651.863984744561
 30
0.0
 11
11597.17889341586
 21
-6651.668944058239
 31
0.0
  0
LINE
  5
1B9496
330
18
100
AcDbEntity
  8
0
  6
SLD-実線
 62
     8
370
    15
100
AcDbLine
 10
11597.14731282811
 20
-6651.863984744561
 30
0.0
 11
11595.71494155388
 21
-6651.368248714825
 31
0.0
  0
LINE
  5
1B9497
330
18
100
AcDbEntity
  8
0
  6
SLD-実線
 62
     8
370
    15
100
AcDbLine
 10
11597.14731282811
 20
-6651.863984744561
 30
0.0
 11
11597.14381198655
 21
-6651.865554128897
 31
0.0
  0
LINE
  5
1B9498
330
18
100
AcDbEntity
  8
0
  6
SLD-実線
 62
     8
370
    15
100
AcDbLine
 10
11601.89541998203
 20
-6662.206124278562
 30
0.0
 11
11601.49003010125
 21
-6663.387827834349
 31
0.0
  0
LINE
  5
1B9499
330
18
100
AcDbEntity
  8
0
  6
SLD-実線
 62
     8
370
    15
100
AcDbLine
 10
11602.08895694154
 20
-6662.235044360372
 30
0.0
 11
11601.66092751238
 21
-6663.482744051445
 31
0.0
  0
LINE
  5
1B949A
330
18
100
AcDbEntity
  8
0
  6
SLD-実線
 62
     8
370
    15
100
AcDbLine
 10
11595.91786783269
 20
-6650.369526761642
 30
0.0
 11
11596.62034620973
 21
-6650.68443850824
 31
0.0
  0
LINE
  5
1B949B
330
18
100
AcDbEntity
  8
0
  6
SLD-実線
 62
     8
370
    15
100
AcDbLine
 10
11596.62034620973
 20
-6650.68443850824
 30
0.0
 11
11596.58896604941
 21
-6650.81037180776
 31
0.0
  0
LINE
  5
1B949C
330
18
100
AcDbEntity
  8
0
  6
SLD-実線
 62
     8
370
    15
100
AcDbLine
 10
11596.58896604941
 20
-6650.81037180776
 30
0.0
 11
11595.88648767237
 21
-6650.495460061161
 31
0.0
  0
LINE
  5
1B949D
330
18
100
AcDbEntity
  8
0
  6
SLD-実線
 62
     8
370
    15
100
AcDbLine
 10
11596.58896604941
 20
-6650.81037180776
 30
0.0
 11
11596.58546520785
 21
-6650.811941192096
 31
0.0
  0
LINE
  5
1B949E
330
18
100
AcDbEntity
  8
0
  6
SLD-実線
 62
     8
370
    15
100
AcDbLine
 10
11602.27338913224
 20
-6663.788396024816
 30
0.0
 11
11602.46161772895
 21
-6663.033010061423
 31
0.0
  0
LINE
  5
1B949F
330
18
100
AcDbEntity
  8
0
  6
SLD-実線
 62
     8
370
    15
100
AcDbLine
 10
11602.46161772895
 20
-6663.033010061423
 30
0.0
 11
11602.57873001615
 21
-6663.085511972218
 31
0.0
  0
LINE
  5
1B94A0
330
18
100
AcDbEntity
  8
0
  6
SLD-実線
 62
     8
370
    15
100
AcDbLine
 10
11602.57873001615
 20
-6663.085511972218
 30
0.0
 11
11602.39050156058
 21
-6663.840897956703
 31
0.0
  0
LINE
  5
1B94A1
330
18
100
AcDbEntity
  8
0
  6
SLD-実線
 62
     8
370
    15
100
AcDbLine
 10
11602.46161772895
 20
-6663.033010061423
 30
0.0
 11
11602.45811688739
 21
-6663.034579445759
 31
0.0
  0
LINE
  5
1B94A2
330
18
100
AcDbEntity
  8
0
  6
SLD-実線
 62
     8
370
    15
100
AcDbLine
 10
11597.53880913599
 20
-6650.292861693863
 30
0.0
 11
11596.17205610816
 21
-6649.533787085409
 31
0.0
  0
LINE
  5
1B94A3
330
18
100
AcDbEntity
  8
0
  6
SLD-実線
 62
     8
370
    15
100
AcDbLine
 10
11597.47660718924
 20
-6650.474178198128
 30
0.0
 11
11597.53880913599
 21
-6650.292861693863
 31
0.0
  0
LINE
  5
1B94A4
330
18
100
AcDbEntity
  8
0
  6
SLD-実線
 62
     8
370
    15
100
AcDbLine
 10
11597.47660718924
 20
-6650.474178198128
 30
0.0
 11
11596.10985472598
 21
-6649.71510367404
 31
0.0
  0
LINE
  5
1B94A5
330
18
100
AcDbEntity
  8
0
  6
SLD-実線
 62
     8
370
    15
100
AcDbLine
 10
11597.47660718924
 20
-6650.474178198128
 30
0.0
 11
11597.47310634768
 21
-6650.475747582464
 31
0.0
  0
LINE
  5
1B94A6
330
18
100
AcDbEntity
  8
0
  6
SLD-実線
 62
     8
370
    15
100
AcDbLine
 10
11603.26946800369
 20
-6662.530749948366
 30
0.0
 11
11603.01690220237
 21
-6664.090608647912
 31
0.0
  0
LINE
  5
1B94A7
330
18
100
AcDbEntity
  8
0
  6
SLD-実線
 62
     8
370
    15
100
AcDbLine
 10
11603.44857037739
 20
-6662.592736649619
 30
0.0
 11
11603.26946800369
 21
-6662.530749948366
 31
0.0
  0
LINE
  5
1B94A8
330
18
100
AcDbEntity
  8
0
  6
SLD-実線
 62
     8
370
    15
100
AcDbLine
 10
11603.44857037739
 20
-6662.592736649619
 30
0.0
 11
11603.19600457607
 21
-6664.152595349165
 31
0.0
  0
LINE
  5
1B94A9
330
18
100
AcDbEntity
  8
0
  6
SLD-実線
 62
     8
370
    15
100
AcDbLine
 10
11603.26946800369
 20
-6662.530749948366
 30
0.0
 11
11603.26596716213
 21
-6662.532319332702
 31
0.0
  0
LINE
  5
1B94AA
330
18
100
AcDbEntity
  8
0
  6
SLD-実線
 62
     8
370
    15
100
AcDbLine
 10
11596.46990820469
 20
-6648.794797191955
 30
0.0
 11
11597.12902876536
 21
-6649.236099238273
 31
0.0
  0
LINE
  5
1B94AB
330
18
100
AcDbEntity
  8
0
  6
SLD-実線
 62
     8
370
    15
100
AcDbLine
 10
11597.12902876536
 20
-6649.236099238273
 30
0.0
 11
11597.07778935207
 21
-6649.350999633706
 31
0.0
  0
LINE
  5
1B94AC
330
18
100
AcDbEntity
  8
0
  6
SLD-実線
 62
     8
370
    15
100
AcDbLine
 10
11597.07778935207
 20
-6649.350999633706
 30
0.0
 11
11596.41866822682
 21
-6648.909702540717
 31
0.0
  0
LINE
  5
1B94AD
330
18
100
AcDbEntity
  8
0
  6
SLD-実線
 62
     8
370
    15
100
AcDbLine
 10
11597.07778935207
 20
-6649.350999633706
 30
0.0
 11
11597.07428851051
 21
-6649.352569018043
 31
0.0
  0
LINE
  5
1B94AE
330
18
100
AcDbEntity
  8
0
  6
SLD-実線
 62
     8
370
    15
100
AcDbLine
 10
11603.83249977354
 20
-6664.339966706229
 30
0.0
 11
11603.89588459499
 21
-6663.541371702608
 31
0.0
  0
LINE
  5
1B94AF
330
18
100
AcDbEntity
  8
0
  6
SLD-実線
 62
     8
370
    15
100
AcDbLine
 10
11603.89588459499
 20
-6663.541371702608
 30
0.0
 11
11604.01666675076
 21
-6663.57120829706
 31
0.0
  0
LINE
  5
1B94B0
330
18
100
AcDbEntity
  8
0
  6
SLD-実線
 62
     8
370
    15
100
AcDbLine
 10
11604.01666675076
 20
-6663.57120829706
 30
0.0
 11
11603.9532819293
 21
-6664.369803300682
 31
0.0
  0
LINE
  5
1B94B1
330
18
100
AcDbEntity
  8
0
  6
SLD-実線
 62
     8
370
    15
100
AcDbLine
 10
11603.89588459499
 20
-6663.541371702608
 30
0.0
 11
11603.89238375343
 21
-6663.542941086944
 31
0.0
  0
LINE
  5
1B94B2
330
18
100
AcDbEntity
  8
0
  6
SLD-実線
 62
     8
370
    15
100
AcDbLine
 10
11597.67745410405
 20
-6648.692826640488
 30
0.0
 11
11596.85626397247
 21
-6648.041314933269
 31
0.0
  0
LINE
  5
1B94B3
330
18
100
AcDbEntity
  8
0
  6
SLD-実線
 62
     8
370
    15
100
AcDbLine
 10
11597.66467360911
 20
-6648.916912929976
 30
0.0
 11
11596.76533089495
 21
-6648.203391323046
 31
0.0
  0
LINE
  5
1B94B4
330
18
100
AcDbEntity
  8
0
  6
SLD-実線
 62
     8
370
    15
100
AcDbLine
 10
11604.59447099247
 20
-6662.875784408737
 30
0.0
 11
11604.59447099247
 21
-6664.4980332707
 31
0.0
  0
LINE
  5
1B94B5
330
18
100
AcDbEntity
  8
0
  6
SLD-実線
 62
     8
370
    15
100
AcDbLine
 10
11604.77633633591
 20
-6662.902960409763
 30
0.0
 11
11604.59447099247
 21
-6662.875784408737
 31
0.0
  0
LINE
  5
1B94B6
330
18
100
AcDbEntity
  8
0
  6
SLD-実線
 62
     8
370
    15
100
AcDbLine
 10
11604.77633633591
 20
-6662.902960409763
 30
0.0
 11
11604.77633633591
 21
-6664.525209271727
 31
0.0
  0
LINE
  5
1B94B7
330
18
100
AcDbEntity
  8
0
  6
SLD-実線
 62
     8
370
    15
100
AcDbLine
 10
11604.59447099247
 20
-6662.875784408737
 30
0.0
 11
11604.59097015092
 21
-6662.877353793074
 31
0.0
  0
LINE
  5
1B94B8
330
18
100
AcDbEntity
  8
0
  6
SLD-実線
 62
     8
370
    15
100
AcDbLine
 10
11597.27157218804
 20
-6647.389467148187
 30
0.0
 11
11597.76500983824
 21
-6647.848564738255
 31
0.0
  0
LINE
  5
1B94B9
330
18
100
AcDbEntity
  8
0
  6
SLD-実線
 62
     8
370
    15
100
AcDbLine
 10
11597.74475989293
 20
-6647.994810767083
 30
0.0
 11
11597.20203008072
 21
-6647.489849415495
 31
0.0
  0
LINE
  5
1B94BA
330
18
100
AcDbEntity
  8
0
  6
SLD-実線
 62
     8
370
    15
100
AcDbLine
 10
11605.41752539908
 20
-6664.588604097396
 30
0.0
 11
11605.35414057763
 21
-6663.771066001699
 31
0.0
  0
LINE
  5
1B94BB
330
18
100
AcDbEntity
  8
0
  6
SLD-実線
 62
     8
370
    15
100
AcDbLine
 10
11605.35414057763
 20
-6663.771066001699
 30
0.0
 11
11605.47492273339
 21
-6663.777326180025
 31
0.0
  0
LINE
  5
1B94BC
330
18
100
AcDbEntity
  8
0
  6
SLD-実線
 62
     8
370
    15
100
AcDbLine
 10
11605.47492273339
 20
-6663.777326180025
 30
0.0
 11
11605.53830755484
 21
-6664.594864275721
 31
0.0
  0
LINE
  5
1B94BD
330
18
100
AcDbEntity
  8
0
  6
SLD-実線
 62
     8
370
    15
100
AcDbLine
 10
11605.35414057763
 20
-6663.771066001699
 30
0.0
 11
11605.35063973607
 21
-6663.772635386036
 31
0.0
  0
LINE
  5
1B94BE
330
18
100
AcDbEntity
  8
0
  6
SLD-実線
 62
     8
370
    15
100
AcDbLine
 10
11597.94485478144
 20
-6646.92183325242
 30
0.0
 11
11597.77835604665
 21
-6646.741127467076
 31
0.0
  0
LINE
  5
1B94BF
330
18
100
AcDbEntity
  8
0
  6
SLD-実線
 62
     8
370
    15
100
AcDbLine
 10
11597.91150648024
 20
-6647.150437917639
 30
0.0
 11
11597.66145491398
 21
-6646.879046744558
 31
0.0
  0
LINE
  5
1B94C0
330
18
100
AcDbEntity
  8
0
  6
SLD-実線
 62
     8
370
    15
100
AcDbLine
 10
11605.92223695099
 20
-6662.962374778987
 30
0.0
 11
11606.1748027523
 21
-6664.597714912723
 31
0.0
  0
LINE
  5
1B94C1
330
18
100
AcDbEntity
  8
0
  6
SLD-実線
 62
     8
370
    15
100
AcDbLine
 10
11606.10133932468
 20
-6662.953914342823
 30
0.0
 11
11605.92223695099
 21
-6662.962374778987
 31
0.0
  0
LINE
  5
1B94C2
330
18
100
AcDbEntity
  8
0
  6
SLD-実線
 62
     8
370
    15
100
AcDbLine
 10
11606.10133932468
 20
-6662.953914342823
 30
0.0
 11
11606.353905126
 21
-6664.589254476557
 31
0.0
  0
LINE
  5
1B94C3
330
18
100
AcDbEntity
  8
0
  6
SLD-実線
 62
     8
370
    15
100
AcDbLine
 10
11605.92223695099
 20
-6662.962374778987
 30
0.0
 11
11605.91873610943
 21
-6662.963944163324
 31
0.0
  0
LINE
  5
1B94C4
330
18
100
AcDbEntity
  8
0
  6
SLD-実線
 62
     8
370
    15
100
AcDbLine
 10
11606.98030576779
 20
-6664.526748935743
 30
0.0
 11
11606.79207731223
 21
-6663.715109279115
 31
0.0
  0
LINE
  5
1B94C5
330
18
100
AcDbEntity
  8
0
  6
SLD-実線
 62
     8
370
    15
100
AcDbLine
 10
11606.79207731223
 20
-6663.715109279115
 30
0.0
 11
11606.90918959943
 21
-6663.697607369719
 31
0.0
  0
LINE
  5
1B94C6
330
18
100
AcDbEntity
  8
0
  6
SLD-実線
 62
     8
370
    15
100
AcDbLine
 10
11606.90918959943
 20
-6663.697607369719
 30
0.0
 11
11607.09741819614
 21
-6664.509247047437
 31
0.0
  0
LINE
  5
1B94C7
330
18
100
AcDbEntity
  8
0
  6
SLD-実線
 62
     8
370
    15
100
AcDbLine
 10
11606.79207731223
 20
-6663.715109279115
 30
0.0
 11
11606.78857647067
 21
-6663.716678663452
 31
0.0
  0
LINE
  5
1B94C8
330
18
100
AcDbEntity
  8
0
  6
SLD-実線
 62
     8
370
    15
100
AcDbLine
 10
11607.28185038683
 20
-6663.011014509144
 30
0.0
 11
11607.709879816
 21
-6664.386634429404
 31
0.0
  0
LINE
  5
1B94C9
330
18
100
AcDbEntity
  8
0
  6
SLD-実線
 62
     8
370
    15
100
AcDbLine
 10
11607.47538734634
 20
-6663.039934590952
 30
0.0
 11
11607.88077722712
 21
-6664.342792354663
 31
0.0
  0
LINE
  5
1B94CA
330
18
100
AcDbEntity
  8
0
  6
SLD-実線
 62
     8
370
    15
100
AcDbLine
 10
11608.16600380711
 20
-6663.375199380103
 30
0.0
 11
11608.16250296555
 21
-6663.376768764439
 31
0.0
  0
LINE
  5
1B94CB
330
18
100
AcDbEntity
  8
0
  6
SLD-実線
 62
     8
370
    15
100
AcDbLine
 10
11608.47335672835
 20
-6664.156282874201
 30
0.0
 11
11608.16600380711
 21
-6663.375199380103
 31
0.0
  0
LINE
  5
1B94CC
330
18
100
AcDbEntity
  8
0
  6
SLD-実線
 62
     8
370
    15
100
AcDbLine
 10
11608.16600380711
 20
-6663.375199380103
 30
0.0
 11
11608.27588772144
 21
-6663.334471629871
 31
0.0
  0
LINE
  5
1B94CD
330
18
100
AcDbEntity
  8
0
  6
SLD-実線
 62
     8
370
    15
100
AcDbLine
 10
11608.27588772144
 20
-6663.334471629871
 30
0.0
 11
11608.58324092497
 21
-6664.115550128456
 31
0.0
  0
LINE
  5
1B94CE
330
18
100
AcDbEntity
  8
0
  6
SLD-実線
 62
     8
370
    15
100
AcDbLine
 10
11609.02042028969
 20
-6663.933214312376
 30
0.0
 11
11608.67753469057
 21
-6663.219570561412
 31
0.0
  0
LINE
  5
1B94CF
330
18
100
AcDbEntity
  8
0
  6
SLD-実線
 62
     8
370
    15
100
AcDbLine
 10
11609.23753457211
 20
-6663.303250921115
 30
0.0
 11
11609.44042020085
 21
-6663.725510772532
 31
0.0
  0
LINE
  5
1B94D0
330
18
100
AcDbEntity
  8
0
  6
SLD-実線
 62
     8
370
    15
100
AcDbLine
 10
11609.85131280257
 20
-6663.488461934403
 30
0.0
 11
11609.79261748894
 21
-6663.386196542489
 31
0.0
  0
LINE
  5
1B94D1
330
18
100
AcDbEntity
  8
0
  6
SLD-実線
 62
     8
370
    15
100
AcDbLine
 10
11609.94062834605
 20
-6663.408313693171
 30
0.0
 11
11609.95062995703
 21
-6663.425737420326
 31
0.0
  0
LWPOLYLINE
  5
1B94D2
330
18
100
AcDbEntity
  8
0
  6
SLD-実線
 62
     8
370
     0
100
AcDbPolyline
 90
       22
 70
   128
 43
0.0
 10
11555.74041051362
 20
-6695.684489656214
 10
11555.6726161649
 20
-6695.632993026533
 10
11554.47610664227
 20
-6694.661853614734
 10
11553.29622131837
 20
-6693.585847504956
 10
11552.14005145325
 20
-6692.411449499792
 10
11551.01455211286
 20
-6691.145706556244
 10
11549.9264949062
 20
-6689.796250150674
 10
11548.88241967423
 20
-6688.371192258421
 10
11547.88860738984
 20
-6686.879101153479
 10
11546.95103505966
 20
-6685.328938949124
 10
11546.07533959059
 20
-6683.730046123125
 10
11545.26678773277
 20
-6682.092029314372
 10
11544.53024697691
 20
-6680.424730644581
 10
11543.87014134201
 20
-6678.738201740246
 10
11543.2904420863
 20
-6677.042567467812
 10
11542.79463704497
 20
-6675.348032206563
 10
11542.38570623148
 20
-6673.664783547913
 10
11542.066110942
 20
-6672.002941041684
 10
11541.83777582914
 20
-6670.372510070523
 10
11541.70206771609
 20
-6668.783291846303
 10
11541.65980516647
 20
-6667.244837106928
 10
11541.65992577301
 20
-6667.211534247524
  0
ARC
  5
1B94D3
330
18
100
AcDbEntity
  8
0
  6
SLD-実線
 62
     8
370
     0
100
AcDbCircle
 10
11580.12521367363
 20
-6665.907663745713
 30
0.0
 40
38.00835612722581
100
AcDbArc
 50
182.5780244870402
 51
230.0487210622811
  0
ARC
  5
1B94D4
330
18
100
AcDbEntity
  8
0
  6
SLD-実線
 62
     8
370
     0
100
AcDbCircle
 10
11578.10135392275
 20
-6666.908496748431
 30
0.0
 40
34.54169211805773
100
AcDbArc
 50
183.3596228535186
 51
229.2671388813159
  0
ARC
  5
1B94D5
330
18
100
AcDbEntity
  8
0
  6
SLD-実線
 62
     8
370
     0
100
AcDbCircle
 10
11578.00390215336
 20
-6666.956691728421
 30
0.0
 40
34.21007096796557
100
AcDbArc
 50
183.7128996016142
 51
228.9138490008563
  0
ARC
  5
1B94D6
330
18
100
AcDbEntity
  8
0
  6
SLD-実線
 62
     8
370
     0
100
AcDbCircle
 10
11578.58020102552
 20
-6666.671696635438
 30
0.0
 40
33.5687012680633
100
AcDbArc
 50
186.7328243164436
 51
225.8939367064035
  0
LWPOLYLINE
  5
1B94D7
330
18
100
AcDbEntity
  8
0
  6
SLD-実線
 62
     8
370
     0
100
AcDbPolyline
 90
       14
 70
   128
 43
0.0
 10
11586.08906907098
 20
-6663.961457750023
 10
11586.18687878534
 20
-6663.880402501773
 10
11586.24441783032
 20
-6663.75886172344
 10
11586.25292611581
 20
-6663.615344696465
 10
11586.21110848542
 20
-6663.471697805531
 10
11586.12533232097
 20
-6663.349783998766
 10
11586.00865419909
 20
-6663.268173668859
 10
11585.87883932959
 20
-6663.239284512074
 10
11585.75564929233
 20
-6663.267520342753
 10
11585.65783957797
 20
-6663.348575591003
 10
11585.600300533
 20
-6663.470111331641
 10
11585.59179111834
 20
-6663.613633227578
 10
11585.63360874872
 20
-6663.757280118513
 10
11585.64449393415
 20
-6663.778508357735
  0
ARC
  5
1B94D8
330
18
100
AcDbEntity
  8
0
  6
SLD-実線
 62
     8
370
     0
100
AcDbCircle
 10
11585.96353219096
 20
-6663.637074480044
 30
0.0
 40
0.347827563728127
100
AcDbArc
 50
206.3552934950078
 51
291.1565226712588
  0
LINE
  5
1B94D9
330
18
100
AcDbEntity
  8
0
  6
SLD-実線
 62
     8
370
     0
100
AcDbLine
 10
11555.10276314525
 20
-6690.187379456362
 30
0.0
 11
11555.0896122492
 21
-6690.193698969415
 31
0.0
  0
LINE
  5
1B94DA
330
18
100
AcDbEntity
  8
0
  6
SLD-実線
 62
     8
370
     0
100
AcDbLine
 10
11545.63498958701
 20
-6671.114680818617
 30
0.0
 11
11545.67551284236
 21
-6671.094075725018
 31
0.0
  0
LINE
  5
1B94DB
330
18
100
AcDbEntity
  8
0
  6
SLD-実線
 62
     8
370
     0
100
AcDbLine
 10
11545.73140273003
 20
-6671.158292865022
 30
0.0
 11
11545.64603001583
 21
-6671.20170196978
 31
0.0
  0
LINE
  5
1B94DC
330
18
100
AcDbEntity
  8
0
  6
SLD-実線
 62
     8
370
     0
100
AcDbLine
 10
11545.65337601329
 20
-6671.258357051873
 30
0.0
 11
11545.76774315295
 21
-6671.200217036286
 31
0.0
  0
LINE
  5
1B94DD
330
18
100
AcDbEntity
  8
0
  6
SLD-実線
 62
     8
370
     0
100
AcDbLine
 10
11554.79439626141
 20
-6689.900065189326
 30
0.0
 11
11555.02029321501
 21
-6689.791390038778
 31
0.0
  0
LINE
  5
1B94DE
330
18
100
AcDbEntity
  8
0
  6
SLD-実線
 62
     8
370
     0
100
AcDbLine
 10
11555.0381548577
 20
-6689.87531761832
 30
0.0
 11
11554.85655907678
 21
-6689.962673884816
 31
0.0
  0
LINE
  5
1B94DF
330
18
100
AcDbEntity
  8
0
  6
SLD-実線
 62
     8
370
     0
100
AcDbLine
 10
11555.02605981065
 20
-6690.131273853391
 30
0.0
 11
11555.085513836
 21
-6690.102698117618
 31
0.0
  0
LINE
  5
1B94E0
330
18
100
AcDbEntity
  8
0
  6
SLD-実線
 62
     8
370
     0
100
AcDbLine
 10
11555.00790550212
 20
-6689.733744705211
 30
0.0
 11
11554.75184367753
 21
-6689.856966070167
 31
0.0
  0
LINE
  5
1B94E1
330
18
100
AcDbEntity
  8
0
  6
SLD-実線
 62
     8
370
     0
100
AcDbLine
 10
11545.82453375616
 20
-6671.265985972646
 30
0.0
 11
11545.66512855224
 21
-6671.347020354943
 31
0.0
  0
LINE
  5
1B94E2
330
18
100
AcDbEntity
  8
0
  6
SLD-実線
 62
     8
370
     0
100
AcDbLine
 10
11545.69784218515
 20
-6671.582575078587
 30
0.0
 11
11545.97501183518
 21
-6671.441809233134
 31
0.0
  0
LINE
  5
1B94E3
330
18
100
AcDbEntity
  8
0
  6
SLD-実線
 62
     8
370
     0
100
AcDbLine
 10
11546.03082511521
 20
-6671.507593458908
 30
0.0
 11
11545.71056771831
 21
-6671.670244294954
 31
0.0
  0
LINE
  5
1B94E4
330
18
100
AcDbEntity
  8
0
  6
SLD-実線
 62
     8
370
     0
100
AcDbLine
 10
11545.71979625822
 20
-6671.732577600706
 30
0.0
 11
11546.07047399568
 21
-6671.554518258246
 31
0.0
  0
LINE
  5
1B94E5
330
18
100
AcDbEntity
  8
0
  6
SLD-実線
 62
     8
370
     0
100
AcDbLine
 10
11554.46287240479
 20
-6689.559009275586
 30
0.0
 11
11554.92039631194
 21
-6689.338643584011
 31
0.0
  0
LINE
  5
1B94E6
330
18
100
AcDbEntity
  8
0
  6
SLD-実線
 62
     8
370
     0
100
AcDbLine
 10
11554.93955455415
 20
-6689.423423450879
 30
0.0
 11
11554.52450140311
 21
-6689.623327856198
 31
0.0
  0
LINE
  5
1B94E7
330
18
100
AcDbEntity
  8
0
  6
SLD-実線
 62
     8
370
     0
100
AcDbLine
 10
11554.68883769839
 20
-6689.792779074194
 30
0.0
 11
11554.98933931511
 21
-6689.648185170528
 31
0.0
  0
LINE
  5
1B94E8
330
18
100
AcDbEntity
  8
0
  6
SLD-実線
 62
     8
370
     0
100
AcDbLine
 10
11554.90596756386
 20
-6689.275391366016
 30
0.0
 11
11554.41707062548
 21
-6689.510938620422
 31
0.0
  0
LINE
  5
1B94E9
330
18
100
AcDbEntity
  8
0
  6
SLD-実線
 62
     8
370
     0
100
AcDbLine
 10
11546.12714727265
 20
-6671.62186361465
 30
0.0
 11
11545.73327187534
 21
-6671.821851168525
 31
0.0
  0
LINE
  5
1B94EA
330
18
100
AcDbEntity
  8
0
  6
SLD-実線
 62
     8
370
     0
100
AcDbLine
 10
11545.76970935836
 20
-6672.053794311224
 30
0.0
 11
11546.2740507022
 21
-6671.797952380466
 31
0.0
  0
LINE
  5
1B94EB
330
18
100
AcDbEntity
  8
0
  6
SLD-実線
 62
     8
370
     0
100
AcDbLine
 10
11546.32972593479
 20
-6671.865268877005
 30
0.0
 11
11545.78410984589
 21
-6672.142044530093
 31
0.0
  0
LINE
  5
1B94EC
330
18
100
AcDbEntity
  8
0
  6
SLD-実線
 62
     8
370
     0
100
AcDbLine
 10
11545.7953862332
 20
-6672.209925119871
 30
0.0
 11
11546.37252763813
 21
-6671.917233168962
 31
0.0
  0
LINE
  5
1B94ED
330
18
100
AcDbEntity
  8
0
  6
SLD-実線
 62
     8
370
     0
100
AcDbLine
 10
11554.13435198451
 20
-6689.208972275521
 30
0.0
 11
11554.81350742292
 21
-6688.881450134396
 31
0.0
  0
LINE
  5
1B94EE
330
18
100
AcDbEntity
  8
0
  6
SLD-実線
 62
     8
370
     0
100
AcDbLine
 10
11554.8339649877
 20
-6688.96700253798
 30
0.0
 11
11554.19540407014
 21
-6689.27494475984
 31
0.0
  0
LINE
  5
1B94EF
330
18
100
AcDbEntity
  8
0
  6
SLD-実線
 62
     8
370
     0
100
AcDbLine
 10
11554.35464677444
 20
-6689.445045005785
 30
0.0
 11
11554.88607469848
 21
-6689.189011008623
 31
0.0
  0
LINE
  5
1B94F0
330
18
100
AcDbEntity
  8
0
  6
SLD-実線
 62
     8
370
     0
100
AcDbLine
 10
11554.79691397106
 20
-6688.812693566866
 30
0.0
 11
11554.08550018979
 21
-6689.155874734389
 31
0.0
  0
LINE
  5
1B94F1
330
18
100
AcDbEntity
  8
0
  6
SLD-実線
 62
     8
370
     0
100
AcDbLine
 10
11546.42902214906
 20
-6671.986115092711
 30
0.0
 11
11545.81057543045
 21
-6672.299751672879
 31
0.0
  0
LINE
  5
1B94F2
330
18
100
AcDbEntity
  8
0
  6
SLD-実線
 62
     8
370
     0
100
AcDbLine
 10
11545.85053102086
 20
-6672.528005676656
 30
0.0
 11
11546.57230652966
 21
-6672.162308175327
 31
0.0
  0
LINE
  5
1B94F3
330
18
100
AcDbEntity
  8
0
  6
SLD-実線
 62
     8
370
     0
100
AcDbLine
 10
11546.62778679167
 20
-6672.231112727161
 30
0.0
 11
11545.86659370507
 21
-6672.616786117414
 31
0.0
  0
LINE
  5
1B94F4
330
18
100
AcDbEntity
  8
0
  6
SLD-実線
 62
     8
370
     0
100
AcDbLine
 10
11545.88007777358
 20
-6672.690076417006
 30
0.0
 11
11546.67358407679
 21
-6672.288154746569
 31
0.0
  0
LINE
  5
1B94F5
330
18
100
AcDbEntity
  8
0
  6
SLD-実線
 62
     8
370
     0
100
AcDbLine
 10
11553.80904947744
 20
-6688.850175442585
 30
0.0
 11
11554.69959565842
 21
-6688.42018721362
 31
0.0
  0
LINE
  5
1B94F6
330
18
100
AcDbEntity
  8
0
  6
SLD-実線
 62
     8
370
     0
100
AcDbLine
 10
11554.72135913355
 20
-6688.506443445876
 30
0.0
 11
11553.86948416244
 21
-6688.917764830972
 31
0.0
  0
LINE
  5
1B94F7
330
18
100
AcDbEntity
  8
0
  6
SLD-実線
 62
     8
370
     0
100
AcDbLine
 10
11554.02370316888
 20
-6689.088310961433
 30
0.0
 11
11554.77568944595
 21
-6688.725561724519
 31
0.0
  0
LINE
  5
1B94F8
330
18
100
AcDbEntity
  8
0
  6
SLD-実線
 62
     8
370
     0
100
AcDbLine
 10
11554.68071509123
 20
-6688.346030967621
 30
0.0
 11
11553.75734815116
 21
-6688.792015231799
 31
0.0
  0
LINE
  5
1B94F9
330
18
100
AcDbEntity
  8
0
  6
SLD-実線
 62
     8
370
     0
100
AcDbLine
 10
11546.72984094276
 20
-6672.358534936635
 30
0.0
 11
11545.89696618687
 21
-6672.780399507183
 31
0.0
  0
LINE
  5
1B94FA
330
18
100
AcDbEntity
  8
0
  6
SLD-実線
 62
     8
370
     0
100
AcDbLine
 10
11545.94024347786
 20
-6673.004904491203
 30
0.0
 11
11546.86946508776
 21
-6672.534672406949
 31
0.0
  0
LINE
  5
1B94FB
330
18
100
AcDbEntity
  8
0
  6
SLD-実線
 62
     8
370
     0
100
AcDbLine
 10
11546.9246937586
 20
-6672.604927050512
 30
0.0
 11
11545.9579598152
 21
-6673.094143683164
 31
0.0
  0
LINE
  5
1B94FC
330
18
100
AcDbEntity
  8
0
  6
SLD-実線
 62
     8
370
     0
100
AcDbLine
 10
11545.97379975765
 20
-6673.172721050601
 30
0.0
 11
11546.97332968697
 21
-6672.667076171023
 31
0.0
  0
LINE
  5
1B94FD
330
18
100
AcDbEntity
  8
0
  6
SLD-実線
 62
     8
370
     0
100
AcDbLine
 10
11553.48717901107
 20
-6688.482881838258
 30
0.0
 11
11554.57864167632
 21
-6687.95520774139
 31
0.0
  0
LINE
  5
1B94FE
330
18
100
AcDbEntity
  8
0
  6
SLD-実線
 62
     8
370
     0
100
AcDbLine
 10
11554.60171283036
 20
-6688.042117355922
 30
0.0
 11
11553.54695806586
 21
-6688.552041393147
 31
0.0
  0
LINE
  5
1B94FF
330
18
100
AcDbEntity
  8
0
  6
SLD-実線
 62
     8
370
     0
100
AcDbLine
 10
11553.69621458357
 20
-6688.722827408379
 30
0.0
 11
11554.65815683526
 21
-6688.258206947897
 31
0.0
  0
LINE
  5
1B9500
330
18
100
AcDbEntity
  8
0
  6
SLD-実線
 62
     8
370
     0
100
AcDbLine
 10
11554.55736191945
 20
-6687.875767328727
 30
0.0
 11
11553.4328218621
 21
-6688.419622161749
 31
0.0
  0
LINE
  5
1B9501
330
18
100
AcDbEntity
  8
0
  6
SLD-実線
 62
     8
370
     0
100
AcDbLine
 10
11546.03877882047
 20
-6673.484151346607
 30
0.0
 11
11547.16521852552
 21
-6672.914825953302
 31
0.0
  0
LINE
  5
1B9502
330
18
100
AcDbEntity
  8
0
  6
SLD-実線
 62
     8
370
     0
100
AcDbLine
 10
11547.22013898465
 20
-6672.986492725033
 30
0.0
 11
11546.05813249106
 21
-6673.573798756199
 31
0.0
  0
LINE
  5
1B9503
330
18
100
AcDbEntity
  8
0
  6
SLD-実線
 62
     8
370
     0
100
AcDbLine
 10
11547.02929359126
 20
-6672.738911041649
 30
0.0
 11
11545.99237011263
 21
-6673.263474109322
 31
0.0
  0
LINE
  5
1B9504
330
18
100
AcDbEntity
  8
0
  6
SLD-実線
 62
     8
370
     0
100
AcDbLine
 10
11546.07647037711
 20
-6673.657529169482
 30
0.0
 11
11547.27145726965
 21
-6673.053762914959
 31
0.0
  0
LINE
  5
1B9505
330
18
100
AcDbEntity
  8
0
  6
SLD-実線
 62
     8
370
     0
100
AcDbLine
 10
11553.16895757636
 20
-6688.107347214513
 30
0.0
 11
11554.45064545827
 21
-6687.486919850244
 31
0.0
  0
LINE
  5
1B9506
330
18
100
AcDbEntity
  8
0
  6
SLD-実線
 62
     8
370
     0
100
AcDbLine
 10
11554.47502154309
 20
-6687.574391424161
 30
0.0
 11
11553.22803890661
 21
-6688.178029231167
 31
0.0
  0
LINE
  5
1B9507
330
18
100
AcDbEntity
  8
0
  6
SLD-実線
 62
     8
370
     0
100
AcDbLine
 10
11553.37239093191
 20
-6688.348868022782
 30
0.0
 11
11554.533468816
 21
-6687.787341587338
 31
0.0
  0
LINE
  5
1B9508
330
18
100
AcDbEntity
  8
0
  6
SLD-実線
 62
     8
370
     0
100
AcDbLine
 10
11554.42685604378
 20
-6687.402291261647
 30
0.0
 11
11553.11212893084
 21
-6688.038961508222
 31
0.0
  0
LINE
  5
1B9509
330
18
100
AcDbEntity
  8
0
  6
SLD-実線
 62
     8
370
     0
100
AcDbLine
 10
11546.14606036219
 20
-6673.965434608128
 30
0.0
 11
11547.45927058626
 21
-6673.302542518487
 31
0.0
  0
LINE
  5
1B950A
330
18
100
AcDbEntity
  8
0
  6
SLD-実線
 62
     8
370
     0
100
AcDbLine
 10
11547.51383168426
 20
-6673.375574976315
 30
0.0
 11
11546.16703795644
 21
-6674.055419596203
 31
0.0
  0
LINE
  5
1B950B
330
18
100
AcDbEntity
  8
0
  6
SLD-実線
 62
     8
370
     0
100
AcDbLine
 10
11547.32707545645
 20
-6673.127010432059
 30
0.0
 11
11546.09671217443
 21
-6673.748651678205
 31
0.0
  0
LINE
  5
1B950C
330
18
100
AcDbEntity
  8
0
  6
SLD-実線
 62
     8
370
     0
100
AcDbLine
 10
11546.1880093833
 20
-6674.144174272862
 30
0.0
 11
11547.56767473542
 21
-6673.447990863866
 31
0.0
  0
LINE
  5
1B950D
330
18
100
AcDbEntity
  8
0
  6
SLD-実線
 62
     8
370
     0
100
AcDbLine
 10
11552.85459308413
 20
-6687.723828694156
 30
0.0
 11
11554.31561145577
 21
-6687.015674615961
 31
0.0
  0
LINE
  5
1B950E
330
18
100
AcDbEntity
  8
0
  6
SLD-実線
 62
     8
370
     0
100
AcDbLine
 10
11554.34129328544
 20
-6687.103646705516
 30
0.0
 11
11552.91294041601
 21
-6687.795975482865
 31
0.0
  0
LINE
  5
1B950F
330
18
100
AcDbEntity
  8
0
  6
SLD-実線
 62
     8
370
     0
100
AcDbLine
 10
11553.05244112597
 20
-6687.966678053345
 30
0.0
 11
11554.40162953712
 21
-6687.313325579808
 31
0.0
  0
LINE
  5
1B9510
330
18
100
AcDbEntity
  8
0
  6
SLD-実線
 62
     8
370
     0
100
AcDbLine
 10
11554.28920738689
 20
-6686.925985665228
 30
0.0
 11
11552.79548017845
 21
-6687.650280363841
 31
0.0
  0
LINE
  5
1B9511
330
18
100
AcDbEntity
  8
0
  6
SLD-実線
 62
     8
370
     0
100
AcDbLine
 10
11546.26201332551
 20
-6674.448419296475
 30
0.0
 11
11547.75133043761
 21
-6673.697585011078
 31
0.0
  0
LINE
  5
1B9512
330
18
100
AcDbEntity
  8
0
  6
SLD-実線
 62
     8
370
     0
100
AcDbLine
 10
11547.80547520453
 20
-6673.771941660209
 30
0.0
 11
11546.28459787161
 21
-6674.53869162171
 31
0.0
  0
LINE
  5
1B9513
330
18
100
AcDbEntity
  8
0
  6
SLD-実線
 62
     8
370
     0
100
AcDbLine
 10
11547.6228892803
 20
-6673.522608610681
 30
0.0
 11
11546.20990404475
 21
-6674.235605285159
 31
0.0
  0
LINE
  5
1B9514
330
18
100
AcDbEntity
  8
0
  6
SLD-実線
 62
     8
370
     0
100
AcDbLine
 10
11546.30832779673
 20
-6674.63232972432
 30
0.0
 11
11547.86168929616
 21
-6673.849513727677
 31
0.0
  0
LINE
  5
1B9515
330
18
100
AcDbEntity
  8
0
  6
SLD-実線
 62
     8
370
     0
100
AcDbLine
 10
11552.54429791504
 20
-6687.332596870981
 30
0.0
 11
11554.1735614883
 21
-6686.541848977729
 31
0.0
  0
LINE
  5
1B9516
330
18
100
AcDbEntity
  8
0
  6
SLD-実線
 62
     8
370
     0
100
AcDbLine
 10
11554.20054310187
 20
-6686.630259126785
 30
0.0
 11
11552.60186819973
 21
-6687.406159805047
 31
0.0
  0
LINE
  5
1B9517
330
18
100
AcDbEntity
  8
0
  6
SLD-実線
 62
     8
370
     0
100
AcDbLine
 10
11552.73657337913
 20
-6687.576535987868
 30
0.0
 11
11554.26265117962
 21
-6686.836552237002
 31
0.0
  0
LINE
  5
1B9518
330
18
100
AcDbEntity
  8
0
  6
SLD-実線
 62
     8
370
     0
100
AcDbLine
 10
11554.14443937465
 20
-6686.447218032972
 30
0.0
 11
11552.48308216508
 21
-6687.253879458156
 31
0.0
  0
LINE
  5
1B9519
330
18
100
AcDbEntity
  8
0
  6
SLD-実線
 62
     8
370
     0
100
AcDbLine
 10
11546.38654868415
 20
-6674.932781495901
 30
0.0
 11
11548.04111041323
 21
-6674.099705206663
 31
0.0
  0
LINE
  5
1B951A
330
18
100
AcDbEntity
  8
0
  6
SLD-実線
 62
     8
370
     0
100
AcDbLine
 10
11548.09479091249
 20
-6674.17534086445
 30
0.0
 11
11546.41072416479
 21
-6675.023271688153
 31
0.0
  0
LINE
  5
1B951B
330
18
100
AcDbEntity
  8
0
  6
SLD-実線
 62
     8
370
     0
100
AcDbLine
 10
11547.91645000418
 20
-6673.925451146405
 30
0.0
 11
11546.33185995694
 21
-6674.724004515492
 31
0.0
  0
LINE
  5
1B951C
330
18
100
AcDbEntity
  8
0
  6
SLD-実線
 62
     8
370
     0
100
AcDbLine
 10
11546.43733558983
 20
-6675.121668369128
 30
0.0
 11
11548.1532194086
 21
-6674.258079548917
 31
0.0
  0
LINE
  5
1B951D
330
18
100
AcDbEntity
  8
0
  6
SLD-実線
 62
     8
370
     0
100
AcDbLine
 10
11552.23827762794
 20
-6686.933903896293
 30
0.0
 11
11554.02452570994
 21
-6686.065824237508
 31
0.0
  0
LINE
  5
1B951E
330
18
100
AcDbEntity
  8
0
  6
SLD-実線
 62
     8
370
     0
100
AcDbLine
 10
11554.05280149584
 20
-6686.154598408073
 30
0.0
 11
11552.29503589548
 21
-6687.008834776896
 31
0.0
  0
LINE
  5
1B951F
330
18
100
AcDbEntity
  8
0
  6
SLD-実線
 62
     8
370
     0
100
AcDbLine
 10
11552.42499425154
 20
-6687.178702254329
 30
0.0
 11
11554.1165587758
 21
-6686.357379606748
 31
0.0
  0
LINE
  5
1B9520
330
18
100
AcDbEntity
  8
0
  6
SLD-実線
 62
     8
370
     0
100
AcDbLine
 10
11553.99258893616
 20
-6685.966370679223
 30
0.0
 11
11552.17513753931
 21
-6686.850010897257
 31
0.0
  0
LINE
  5
1B9521
330
18
100
AcDbEntity
  8
0
  6
SLD-実線
 62
     8
370
     0
100
AcDbLine
 10
11546.51957671309
 20
-6675.418195265891
 30
0.0
 11
11548.32833539551
 21
-6674.508658704312
 31
0.0
  0
LINE
  5
1B9522
330
18
100
AcDbEntity
  8
0
  6
SLD-実線
 62
     8
370
     0
100
AcDbLine
 10
11548.38150012833
 20
-6674.585523397453
 30
0.0
 11
11546.54532550456
 21
-6675.508843300695
 31
0.0
  0
LINE
  5
1B9523
330
18
100
AcDbEntity
  8
0
  6
SLD-実線
 62
     8
370
     0
100
AcDbLine
 10
11548.20747317459
 20
-6674.33529107424
 30
0.0
 11
11546.46248762508
 21
-6675.213526914711
 31
0.0
  0
LINE
  5
1B9524
330
18
100
AcDbEntity
  8
0
  6
SLD-実線
 62
     8
370
     0
100
AcDbLine
 10
11546.57493465618
 20
-6675.611857586979
 30
0.0
 11
11548.44198799936
 21
-6674.673424652625
 31
0.0
  0
LINE
  5
1B9525
330
18
100
AcDbEntity
  8
0
  6
SLD-実線
 62
     8
370
     0
100
AcDbLine
 10
11551.93673903874
 20
-6686.528044359136
 30
0.0
 11
11553.86854842992
 21
-6685.587976075059
 31
0.0
  0
LINE
  5
1B9526
330
18
100
AcDbEntity
  8
0
  6
SLD-実線
 62
     8
370
     0
100
AcDbLine
 10
11553.89810695604
 20
-6685.677050214111
 30
0.0
 11
11551.992644848
 21
-6686.604293390572
 31
0.0
  0
LINE
  5
1B9527
330
18
100
AcDbEntity
  8
0
  6
SLD-実線
 62
     8
370
     0
100
AcDbLine
 10
11552.11790639178
 20
-6686.773469260388
 30
0.0
 11
11553.96339472591
 21
-6685.876201675665
 31
0.0
  0
LINE
  5
1B9528
330
18
100
AcDbEntity
  8
0
  6
SLD-実線
 62
     8
370
     0
100
AcDbLine
 10
11553.8337051999
 20
-6685.483831248273
 30
0.0
 11
11551.87184955487
 21
-6686.438959441835
 31
0.0
  0
LINE
  5
1B9529
330
18
100
AcDbEntity
  8
0
  6
SLD-実線
 62
     8
370
     0
100
AcDbLine
 10
11546.66100121487
 20
-6675.904319754673
 30
0.0
 11
11548.61273503927
 21
-6674.924175486732
 31
0.0
  0
LINE
  5
1B952A
330
18
100
AcDbEntity
  8
0
  6
SLD-実線
 62
     8
370
     0
100
AcDbLine
 10
11548.66533637162
 20
-6675.002220209099
 30
0.0
 11
11546.68830760243
 21
-6675.995062413791
 31
0.0
  0
LINE
  5
1B952B
330
18
100
AcDbEntity
  8
0
  6
SLD-実線
 62
     8
370
     0
100
AcDbLine
 10
11548.49568718928
 20
-6674.751861278413
 30
0.0
 11
11546.60168472863
 21
-6675.703840401797
 31
0.0
  0
LINE
  5
1B952C
330
18
100
AcDbEntity
  8
0
  6
SLD-実線
 62
     8
370
     0
100
AcDbLine
 10
11546.72102197649
 20
-6676.102558234389
 30
0.0
 11
11548.72772954249
 21
-6675.095275872947
 31
0.0
  0
LINE
  5
1B952D
330
18
100
AcDbEntity
  8
0
  6
SLD-実線
 62
     8
370
     0
100
AcDbLine
 10
11551.63988374792
 20
-6686.115295035772
 30
0.0
 11
11553.70568164017
 21
-6685.108674749774
 31
0.0
  0
LINE
  5
1B952E
330
18
100
AcDbEntity
  8
0
  6
SLD-実線
 62
     8
370
     0
100
AcDbLine
 10
11553.73651182377
 20
-6685.197973222437
 30
0.0
 11
11551.69490052253
 21
-6686.192803314123
 31
0.0
  0
LINE
  5
1B952F
330
18
100
AcDbEntity
  8
0
  6
SLD-実線
 62
     8
370
     0
100
AcDbLine
 10
11551.81551335612
 20
-6686.361112905559
 30
0.0
 11
11553.80320524816
 21
-6685.39339596744
 31
0.0
  0
LINE
  5
1B9530
330
18
100
AcDbEntity
  8
0
  6
SLD-実線
 62
     8
370
     0
100
AcDbLine
 10
11553.66784241612
 20
-6684.999950186193
 30
0.0
 11
11551.5734175539
 21
-6686.021021681476
 31
0.0
  0
LINE
  5
1B9531
330
18
100
AcDbEntity
  8
0
  6
SLD-実線
 62
     8
370
     0
100
AcDbLine
 10
11546.81072398946
 20
-6676.390832820984
 30
0.0
 11
11548.89404928972
 21
-6675.345983984954
 31
0.0
  0
LINE
  5
1B9532
330
18
100
AcDbEntity
  8
0
  6
SLD-実線
 62
     8
370
     0
100
AcDbLine
 10
11548.94604054206
 20
-6675.425155614685
 30
0.0
 11
11546.83956708975
 21
-6676.481611541204
 31
0.0
  0
LINE
  5
1B9533
330
18
100
AcDbEntity
  8
0
  6
SLD-実線
 62
     8
370
     0
100
AcDbLine
 10
11548.78082361205
 20
-6675.174893585559
 30
0.0
 11
11546.74935050665
 21
-6676.194606170729
 31
0.0
  0
LINE
  5
1B9534
330
18
100
AcDbEntity
  8
0
  6
SLD-実線
 62
     8
370
     0
100
AcDbLine
 10
11546.87549192379
 20
-6676.593457525354
 30
0.0
 11
11549.01018298192
 21
-6675.523368477328
 31
0.0
  0
LINE
  5
1B9535
330
18
100
AcDbEntity
  8
0
  6
SLD-実線
 62
     8
370
     0
100
AcDbLine
 10
11551.34791105084
 20
-6685.69593508568
 30
0.0
 11
11553.53598922941
 21
-6684.62828456139
 31
0.0
  0
LINE
  5
1B9536
330
18
100
AcDbEntity
  8
0
  6
SLD-実線
 62
     8
370
     0
100
AcDbLine
 10
11553.56807998776
 20
-6684.717741808179
 30
0.0
 11
11551.4020025638
 21
-6685.774652275951
 31
0.0
  0
LINE
  5
1B9537
330
18
100
AcDbEntity
  8
0
  6
SLD-実線
 62
     8
370
     0
100
AcDbLine
 10
11551.51801544122
 20
-6685.941910550603
 30
0.0
 11
11553.63605071589
 21
-6684.909324308173
 31
0.0
  0
LINE
  5
1B9538
330
18
100
AcDbEntity
  8
0
  6
SLD-実線
 62
     8
370
     0
100
AcDbLine
 10
11553.49507155112
 20
-6684.515124245489
 30
0.0
 11
11551.28004113432
 21
-6685.59647798987
 31
0.0
  0
LINE
  5
1B9539
330
18
100
AcDbEntity
  8
0
  6
SLD-実線
 62
     8
370
     0
100
AcDbLine
 10
11546.96863775666
 20
-6676.877403619002
 30
0.0
 11
11549.17202060618
 21
-6675.773811864667
 31
0.0
  0
LINE
  5
1B953A
330
18
100
AcDbEntity
  8
0
  6
SLD-実線
 62
     8
370
     0
100
AcDbLine
 10
11549.22335605345
 20
-6675.854058201861
 30
0.0
 11
11546.99899573184
 21
-6676.968158915149
 31
0.0
  0
LINE
  5
1B953B
330
18
100
AcDbEntity
  8
0
  6
SLD-実線
 62
     8
370
     0
100
AcDbLine
 10
11549.06262590351
 20
-6675.604103787258
 30
0.0
 11
11546.90537868023
 21
-6676.685491576969
 31
0.0
  0
LINE
  5
1B953C
330
18
100
AcDbEntity
  8
0
  6
SLD-実線
 62
     8
370
     0
100
AcDbLine
 10
11547.03822913901
 20
-6677.084198997691
 30
0.0
 11
11549.28909690004
 21
-6675.957406247609
 31
0.0
  0
LINE
  5
1B953D
330
18
100
AcDbEntity
  8
0
  6
SLD-実線
 62
     8
370
     0
100
AcDbLine
 10
11551.06101858963
 20
-6685.27025583469
 30
0.0
 11
11553.35954437548
 21
-6684.147185169767
 31
0.0
  0
LINE
  5
1B953E
330
18
100
AcDbEntity
  8
0
  6
SLD-実線
 62
     8
370
     0
100
AcDbLine
 10
11553.39288206494
 20
-6684.236744154916
 30
0.0
 11
11551.11414861393
 21
-6685.350131601891
 31
0.0
  0
LINE
  5
1B953F
330
18
100
AcDbEntity
  8
0
  6
SLD-実線
 62
     8
370
     0
100
AcDbLine
 10
11551.22560612188
 20
-6685.516151339969
 30
0.0
 11
11553.46200079155
 21
-6684.424373959479
 31
0.0
  0
LINE
  5
1B9540
330
18
100
AcDbEntity
  8
0
  6
SLD-実線
 62
     8
370
     0
100
AcDbLine
 10
11553.31547255775
 20
-6684.029713947626
 30
0.0
 11
11550.99191342158
 21
-6685.165619017926
 31
0.0
  0
LINE
  5
1B9541
330
18
100
AcDbEntity
  8
0
  6
SLD-実線
 62
     8
370
     0
100
AcDbLine
 10
11547.13463197662
 20
-6677.363687651068
 30
0.0
 11
11549.44640429923
 21
-6676.207371678469
 31
0.0
  0
LINE
  5
1B9542
330
18
100
AcDbEntity
  8
0
  6
SLD-実線
 62
     8
370
     0
100
AcDbLine
 10
11549.49703886829
 20
-6676.28864023098
 30
0.0
 11
11547.16648359399
 21
-6677.454352391
 31
0.0
  0
LINE
  5
1B9543
330
18
100
AcDbEntity
  8
0
  6
SLD-実線
 62
     8
370
     0
100
AcDbLine
 10
11549.34084294859
 20
-6676.039211992653
 30
0.0
 11
11547.0696548448
 21
-6677.176181381861
 31
0.0
  0
LINE
  5
1B9544
330
18
100
AcDbEntity
  8
0
  6
SLD-実線
 62
     8
370
     0
100
AcDbLine
 10
11547.20912047462
 20
-6677.574469548914
 30
0.0
 11
11549.56422239332
 21
-6676.39710227568
 31
0.0
  0
LINE
  5
1B9545
330
18
100
AcDbEntity
  8
0
  6
SLD-実線
 62
     8
370
     0
100
AcDbLine
 10
11550.77939879102
 20
-6684.838540871249
 30
0.0
 11
11553.17643666968
 21
-6683.665750950033
 31
0.0
  0
LINE
  5
1B9546
330
18
100
AcDbEntity
  8
0
  6
SLD-実線
 62
     8
370
     0
100
AcDbLine
 10
11553.21100473635
 20
-6683.755324366388
 30
0.0
 11
11550.83152949323
 21
-6684.919524250675
 31
0.0
  0
LINE
  5
1B9547
330
18
100
AcDbEntity
  8
0
  6
SLD-実線
 62
     8
370
     0
100
AcDbLine
 10
11550.93848494921
 20
-6685.084148594196
 30
0.0
 11
11553.2811370344
 21
-6683.938916147926
 31
0.0
  0
LINE
  5
1B9548
330
18
100
AcDbEntity
  8
0
  6
SLD-実線
 62
     8
370
     0
100
AcDbLine
 10
11553.12913307154
 20
-6683.544104619871
 30
0.0
 11
11550.70922714497
 21
-6684.728739643692
 31
0.0
  0
LINE
  5
1B9549
330
18
100
AcDbEntity
  8
0
  6
SLD-実線
 62
     8
370
     0
100
AcDbLine
 10
11547.30858798387
 20
-6677.84937293849
 30
0.0
 11
11549.716957891
 21
-6676.646353848619
 31
0.0
  0
LINE
  5
1B954A
330
18
100
AcDbEntity
  8
0
  6
SLD-実線
 62
     8
370
     0
100
AcDbLine
 10
11549.7668484177
 20
-6676.728599005915
 30
0.0
 11
11547.34191396647
 21
-6677.939889188706
 31
0.0
  0
LINE
  5
1B954B
330
18
100
AcDbEntity
  8
0
  6
SLD-実線
 62
     8
370
     0
100
AcDbLine
 10
11549.61522745019
 20
-6676.479921847955
 30
0.0
 11
11547.24206294255
 21
-6677.666322136145
 31
0.0
  0
LINE
  5
1B954C
330
18
100
AcDbEntity
  8
0
  6
SLD-実線
 62
     8
370
     0
100
AcDbLine
 10
11547.38804305101
 20
-6678.063917438054
 30
0.0
 11
11549.83532566788
 21
-6676.842144802411
 31
0.0
  0
LINE
  5
1B954D
330
18
100
AcDbEntity
  8
0
  6
SLD-実線
 62
     8
370
     0
100
AcDbLine
 10
11550.50324468685
 20
-6684.4011064384
 30
0.0
 11
11552.98675886936
 21
-6683.184330031239
 31
0.0
  0
LINE
  5
1B954E
330
18
100
AcDbEntity
  8
0
  6
SLD-実線
 62
     8
370
     0
100
AcDbLine
 10
11553.0225359401
 20
-6683.273868984077
 30
0.0
 11
11550.55434179574
 21
-6684.483136142915
 31
0.0
  0
LINE
  5
1B954F
330
18
100
AcDbEntity
  8
0
  6
SLD-実線
 62
     8
370
     0
100
AcDbLine
 10
11550.65684078776
 20
-6684.646176073376
 30
0.0
 11
11553.09355255114
 21
-6683.453307571493
 31
0.0
  0
LINE
  5
1B9550
330
18
100
AcDbEntity
  8
0
  6
SLD-実線
 62
     8
370
     0
100
AcDbLine
 10
11552.93615423124
 20
-6683.058656108768
 30
0.0
 11
11550.43217242607
 21
-6684.286166140393
 31
0.0
  0
LINE
  5
1B9551
330
18
100
AcDbEntity
  8
0
  6
SLD-実線
 62
     8
370
     0
100
AcDbLine
 10
11547.49038545967
 20
-6678.334109291973
 30
0.0
 11
11549.98345175491
 21
-6677.090479023549
 31
0.0
  0
LINE
  5
1B9552
330
18
100
AcDbEntity
  8
0
  6
SLD-実線
 62
     8
370
     0
100
AcDbLine
 10
11550.03255442316
 20
-6677.173640354265
 30
0.0
 11
11547.52515940621
 21
-6678.424409537658
 31
0.0
  0
LINE
  5
1B9553
330
18
100
AcDbEntity
  8
0
  6
SLD-実線
 62
     8
370
     0
100
AcDbLine
 10
11549.88554591698
 20
-6676.925932883639
 30
0.0
 11
11547.4224765317
 21
-6678.155582496674
 31
0.0
  0
LINE
  5
1B9554
330
18
100
AcDbEntity
  8
0
  6
SLD-実線
 62
     8
370
     0
100
AcDbLine
 10
11547.57486781867
 20
-6678.552222566359
 30
0.0
 11
11550.10217157917
 21
-6677.292245524633
 31
0.0
  0
LINE
  5
1B9555
330
18
100
AcDbEntity
  8
0
  6
SLD-実線
 62
     8
370
     0
100
AcDbLine
 10
11550.23274248715
 20
-6683.958240261303
 30
0.0
 11
11552.79061658311
 21
-6682.703305806308
 31
0.0
  0
LINE
  5
1B9556
330
18
100
AcDbEntity
  8
0
  6
SLD-実線
 62
     8
370
     0
100
AcDbLine
 10
11552.82758354315
 20
-6682.792731512192
 30
0.0
 11
11550.28277173149
 21
-6684.041265079164
 31
0.0
  0
LINE
  5
1B9557
330
18
100
AcDbEntity
  8
0
  6
SLD-実線
 62
     8
370
     0
100
AcDbLine
 10
11550.38086245524
 20
-6684.202560635234
 30
0.0
 11
11552.89934717665
 21
-6682.967938887396
 31
0.0
  0
LINE
  5
1B9558
330
18
100
AcDbEntity
  8
0
  6
SLD-実線
 62
     8
370
     0
100
AcDbLine
 10
11552.73664194803
 20
-6682.573732870665
 30
0.0
 11
11550.16093351913
 21
-6683.838166959156
 31
0.0
  0
LINE
  5
1B9559
330
18
100
AcDbEntity
  8
0
  6
SLD-実線
 62
     8
370
     0
100
AcDbLine
 10
11547.6798972635
 20
-6678.817578456687
 30
0.0
 11
11550.24565652013
 21
-6677.539441560408
 31
0.0
  0
LINE
  5
1B955A
330
18
100
AcDbEntity
  8
0
  6
SLD-実線
 62
     8
370
     0
100
AcDbLine
 10
11550.2939365472
 20
-6677.62344990763
 30
0.0
 11
11547.71609728934
 21
-6678.907605933342
 31
0.0
  0
LINE
  5
1B955B
330
18
100
AcDbEntity
  8
0
  6
SLD-実線
 62
     8
370
     0
100
AcDbLine
 10
11550.1515667666
 20
-6677.376931361018
 30
0.0
 11
11547.61076882106
 21
-6678.643632626763
 31
0.0
  0
LINE
  5
1B955C
330
18
100
AcDbEntity
  8
0
  6
SLD-実線
 62
     8
370
     0
100
AcDbLine
 10
11547.76946568129
 20
-6679.039057480357
 30
0.0
 11
11550.36453848586
 21
-6677.747080583062
 31
0.0
  0
LINE
  5
1B955D
330
18
100
AcDbEntity
  8
0
  6
SLD-実線
 62
     8
370
     0
100
AcDbLine
 10
11549.96807479295
 20
-6683.510253183616
 30
0.0
 11
11552.58812149586
 21
-6682.223035467298
 31
0.0
  0
LINE
  5
1B955E
330
18
100
AcDbEntity
  8
0
  6
SLD-実線
 62
     8
370
     0
100
AcDbLine
 10
11552.62625957974
 20
-6682.312287787113
 30
0.0
 11
11550.01700159895
 21
-6683.594200538086
 31
0.0
  0
LINE
  5
1B955F
330
18
100
AcDbEntity
  8
0
  6
SLD-実線
 62
     8
370
     0
100
AcDbLine
 10
11550.11073581233
 20
-6683.753591511394
 30
0.0
 11
11552.6986313388
 21
-6682.48316515152
 31
0.0
  0
LINE
  5
1B9560
330
18
100
AcDbEntity
  8
0
  6
SLD-実線
 62
     8
370
     0
100
AcDbLine
 10
11552.5307208049
 20
-6682.089704490033
 30
0.0
 11
11549.89569593544
 21
-6683.385083215027
 31
0.0
  0
LINE
  5
1B9561
330
18
100
AcDbEntity
  8
0
  6
SLD-実線
 62
     8
370
     0
100
AcDbLine
 10
11547.87699620803
 20
-6679.299444747698
 30
0.0
 11
11550.50335857739
 21
-6677.992910673071
 31
0.0
  0
LINE
  5
1B9562
330
18
100
AcDbEntity
  8
0
  6
SLD-実線
 62
     8
370
     0
100
AcDbLine
 10
11550.55077310167
 20
-6678.077716602789
 30
0.0
 11
11547.91459395606
 21
-6679.389132817258
 31
0.0
  0
LINE
  5
1B9563
330
18
100
AcDbEntity
  8
0
  6
SLD-実線
 62
     8
370
     0
100
AcDbLine
 10
11550.4130702667
 20
-6677.83260534012
 30
0.0
 11
11547.80680875857
 21
-6679.130145949694
 31
0.0
  0
LINE
  5
1B9564
330
18
100
AcDbEntity
  8
0
  6
SLD-実線
 62
     8
370
     0
100
AcDbLine
 10
11547.97170006883
 20
-6679.524066500946
 30
0.0
 11
11550.62221599149
 21
-6678.206340601777
 31
0.0
  0
LINE
  5
1B9565
330
18
100
AcDbEntity
  8
0
  6
SLD-実線
 62
     8
370
     0
100
AcDbLine
 10
11549.70942159757
 20
-6683.057447142606
 30
0.0
 11
11552.37940266045
 21
-6681.743871843495
 31
0.0
  0
LINE
  5
1B9566
330
18
100
AcDbEntity
  8
0
  6
SLD-実線
 62
     8
370
     0
100
AcDbLine
 10
11552.41868567582
 20
-6681.83288991799
 30
0.0
 11
11549.75721204338
 21
-6683.142274390868
 31
0.0
  0
LINE
  5
1B9567
330
18
100
AcDbEntity
  8
0
  6
SLD-実線
 62
     8
370
     0
100
AcDbLine
 10
11549.8466421562
 20
-6683.299580130013
 30
0.0
 11
11552.49152831673
 21
-6681.999356532833
 31
0.0
  0
LINE
  5
1B9568
330
18
100
AcDbEntity
  8
0
  6
SLD-実線
 62
     8
370
     0
100
AcDbLine
 10
11548.0815385988
 20
-6679.779373130759
 30
0.0
 11
11550.75634652895
 21
-6678.450578784341
 31
0.0
  0
LINE
  5
1B9569
330
18
100
AcDbEntity
  8
0
  6
SLD-実線
 62
     8
370
     0
100
AcDbLine
 10
11550.80286041834
 20
-6678.536124721497
 30
0.0
 11
11548.12051183503
 21
-6679.86867661058
 31
0.0
  0
LINE
  5
1B956A
330
18
100
AcDbEntity
  8
0
  6
SLD-実線
 62
     8
370
     0
100
AcDbLine
 10
11552.31851564061
 20
-6681.606944486232
 30
0.0
 11
11549.63663640871
 21
-6682.927208231131
 31
0.0
  0
LINE
  5
1B956B
330
18
100
AcDbEntity
  8
0
  6
SLD-実線
 62
     8
370
     0
100
AcDbLine
 10
11550.66984245863
 20
-6678.292645692069
 30
0.0
 11
11548.01045977415
 21
-6679.614786937145
 31
0.0
  0
LINE
  5
1B956C
330
18
100
AcDbEntity
  8
0
  6
SLD-実線
 62
     8
370
     0
100
AcDbLine
 10
11549.45695863344
 20
-6682.600137410898
 30
0.0
 11
11552.16458938551
 21
-6681.266181774465
 31
0.0
  0
LINE
  5
1B956D
330
18
100
AcDbEntity
  8
0
  6
SLD-実線
 62
     8
370
     0
100
AcDbLine
 10
11552.2049937477
 20
-6681.354893499995
 30
0.0
 11
11549.50358170745
 21
-6682.685781804566
 31
0.0
  0
LINE
  5
1B956E
330
18
100
AcDbEntity
  8
0
  6
SLD-実線
 62
     8
370
     0
100
AcDbLine
 10
11548.18142919581
 20
-6680.006946663983
 30
0.0
 11
11550.87498974127
 21
-6678.669680377481
 31
0.0
  0
LINE
  5
1B956F
330
18
100
AcDbEntity
  8
0
  6
SLD-実線
 62
     8
370
     0
100
AcDbLine
 10
11548.29338972795
 20
-6680.257052792937
 30
0.0
 11
11551.00442278285
 21
-6678.912114050499
 31
0.0
  0
LINE
  5
1B9570
330
18
100
AcDbEntity
  8
0
  6
SLD-実線
 62
     8
370
     0
100
AcDbLine
 10
11551.04999734305
 20
-6678.998342667075
 30
0.0
 11
11548.33371009528
 21
-6680.345884894172
 31
0.0
  0
LINE
  5
1B9571
330
18
100
AcDbEntity
  8
0
  6
SLD-実線
 62
     8
370
     0
100
AcDbLine
 10
11549.58876113082
 20
-6682.840840010213
 30
0.0
 11
11552.27816616201
 21
-6681.516877734728
 31
0.0
  0
LINE
  5
1B9572
330
18
100
AcDbEntity
  8
0
  6
SLD-実線
 62
     8
370
     0
100
AcDbLine
 10
11552.10016640354
 20
-6681.12579145221
 30
0.0
 11
11549.38393067135
 21
-6682.464857280094
 31
0.0
  0
LINE
  5
1B9573
330
18
100
AcDbEntity
  8
0
  6
SLD-実線
 62
     8
370
     0
100
AcDbLine
 10
11550.92167867285
 20
-6678.756718346551
 30
0.0
 11
11548.22157877849
 21
-6680.097222983302
 31
0.0
  0
LINE
  5
1B9574
330
18
100
AcDbEntity
  8
0
  6
SLD-実線
 62
     8
370
     0
100
AcDbLine
 10
11549.21086063166
 20
-6682.138630984438
 30
0.0
 11
11551.94382578672
 21
-6680.790326185326
 31
0.0
  0
LINE
  5
1B9575
330
18
100
AcDbEntity
  8
0
  6
SLD-実線
 62
     8
370
     0
100
AcDbLine
 10
11551.98532500081
 20
-6680.878669488431
 30
0.0
 11
11549.25628080559
 21
-6682.225029100203
 31
0.0
  0
LINE
  5
1B9576
330
18
100
AcDbEntity
  8
0
  6
SLD-実線
 62
     8
370
     0
100
AcDbLine
 10
11548.39851092741
 20
-6680.487346134829
 30
0.0
 11
11551.12266600796
 21
-6679.136789184409
 31
0.0
  0
LINE
  5
1B9577
330
18
100
AcDbEntity
  8
0
  6
SLD-実線
 62
     8
370
     0
100
AcDbLine
 10
11548.51239903241
 20
-6680.73213297817
 30
0.0
 11
11551.24738904837
 21
-6679.377197716145
 31
0.0
  0
LINE
  5
1B9578
330
18
100
AcDbEntity
  8
0
  6
SLD-実線
 62
     8
370
     0
100
AcDbLine
 10
11551.2919923601
 20
-6679.464042621116
 30
0.0
 11
11548.55403782438
 21
-6680.820458795393
 31
0.0
  0
LINE
  5
1B9579
330
18
100
AcDbEntity
  8
0
  6
SLD-実線
 62
     8
370
     0
100
AcDbLine
 10
11548.97129193935
 20
-6681.673246889893
 30
0.0
 11
11551.71726301055
 21
-6680.316640722297
 31
0.0
  0
LINE
  5
1B957A
330
18
100
AcDbEntity
  8
0
  6
SLD-実線
 62
     8
370
     0
100
AcDbLine
 10
11551.75982671685
 20
-6680.404552562337
 30
0.0
 11
11549.01548306764
 21
-6681.76034522322
 31
0.0
  0
LINE
  5
1B957B
330
18
100
AcDbEntity
  8
0
  6
SLD-実線
 62
     8
370
     0
100
AcDbLine
 10
11549.33726651282
 20
-6682.37768730137
 30
0.0
 11
11552.05868417109
 21
-6681.036077717796
 31
0.0
  0
LINE
  5
1B957C
330
18
100
AcDbEntity
  8
0
  6
SLD-実線
 62
     8
370
     0
100
AcDbLine
 10
11548.73841816066
 20
-6681.204306290105
 30
0.0
 11
11551.48506149253
 21
-6679.845486467113
 31
0.0
  0
LINE
  5
1B957D
330
18
100
AcDbEntity
  8
0
  6
SLD-実線
 62
     8
370
     0
100
AcDbLine
 10
11551.52866033267
 20
-6679.932891929348
 30
0.0
 11
11548.78134732274
 21
-6681.292050324075
 31
0.0
  0
LINE
  5
1B957E
330
18
100
AcDbEntity
  8
0
  6
SLD-実線
 62
     8
370
     0
100
AcDbLine
 10
11551.87581686001
 20
-6680.646627970335
 30
0.0
 11
11549.13775215062
 21
-6681.998358093146
 31
0.0
  0
LINE
  5
1B957F
330
18
100
AcDbEntity
  8
0
  6
SLD-実線
 62
     8
370
     0
100
AcDbLine
 10
11551.16837805778
 20
-6679.224492921099
 30
0.0
 11
11548.44002233293
 21
-6680.577122988809
 31
0.0
  0
LINE
  5
1B9580
330
18
100
AcDbEntity
  8
0
  6
SLD-実線
 62
     8
370
     0
100
AcDbLine
 10
11548.62279144095
 20
-6680.964945844852
 30
0.0
 11
11551.36505227459
 21
-6679.607330927481
 31
0.0
  0
LINE
  5
1B9581
330
18
100
AcDbEntity
  8
0
  6
SLD-実線
 62
     8
370
     0
100
AcDbLine
 10
11551.64562588596
 20
-6680.169781545776
 30
0.0
 11
11548.89826549619
 21
-6681.528020835774
 31
0.0
  0
LINE
  5
1B9582
330
18
100
AcDbEntity
  8
0
  6
SLD-実線
 62
     8
370
     0
100
AcDbLine
 10
11549.09233042561
 20
-6681.910440243824
 30
0.0
 11
11551.83323223339
 21
-6680.557310142863
 31
0.0
  0
LINE
  5
1B9583
330
18
100
AcDbEntity
  8
0
  6
SLD-実線
 62
     8
370
     0
100
AcDbLine
 10
11551.40975421951
 20
-6679.695624549875
 30
0.0
 11
11548.66563435643
 21
-6681.054167547572
 31
0.0
  0
LINE
  5
1B9584
330
18
100
AcDbEntity
  8
0
  6
SLD-実線
 62
     8
370
     0
100
AcDbLine
 10
11548.85411526052
 20
-6681.439418740993
 30
0.0
 11
11551.60196726907
 21
-6680.080953768809
 31
0.0
  0
LWPOLYLINE
  5
1B9585
330
18
100
AcDbEntity
  8
0
  6
SLD-実線
 62
     8
370
     0
100
AcDbPolyline
 90
        3
 70
   128
 43
0.0
 10
11589.61453063799
 20
-6687.202293640743
 10
11589.51381988853
 20
-6687.37405323986
 10
11588.93977904752
 20
-6688.229981426874
  0
ARC
  5
1B9586
330
18
100
AcDbEntity
  8
0
  6
SLD-実線
 62
     8
370
     0
100
AcDbCircle
 10
11567.60980601648
 20
-6655.77005824805
 30
0.0
 40
10.41784334876104
100
AcDbArc
 50
79.42132945579064
 51
89.30491181663261
  0
LINE
  5
1B9587
330
18
100
AcDbEntity
  8
0
  6
SLD-実線
 62
     8
370
     0
100
AcDbLine
 10
11584.45564099175
 20
-6656.119890237977
 30
0.0
 11
11584.57435962672
 21
-6656.288055398903
 31
0.0
  0
LINE
  5
1B9588
330
18
100
AcDbEntity
  8
0
  6
SLD-実線
 62
     8
370
     0
100
AcDbLine
 10
11585.11469831897
 20
-6655.793971998273
 30
0.0
 11
11584.45564099175
 21
-6656.119890237977
 31
0.0
  0
SPLINE
  5
1B9589
330
18
100
AcDbEntity
  8
0
  6
SLD-実線
 62
     8
370
     0
100
AcDbSpline
210
0.0
220
0.0
230
1.0
 70
     8
 71
     3
 72
    10
 73
     6
 74
     0
 42
0.000000001
 43
0.00000001
 40
0.0
 40
0.0
 40
0.0
 40
0.0
 40
0.4301021527223751
 40
0.7150509530141952
 40
1.0
 40
1.0
 40
1.0
 40
1.0
 10
11588.17495296888
 20
-6660.780963343695
 30
0.0
 10
11587.76872198316
 20
-6660.037452969
 30
0.0
 10
11587.09335718516
 20
-6658.801356384416
 30
0.0
 10
11586.05459653876
 20
-6657.146894266991
 30
0.0
 10
11585.42799781598
 20
-6656.244946217989
 30
0.0
 10
11585.11469831897
 20
-6655.793971998273
 30
0.0
  0
LINE
  5
1B958A
330
18
100
AcDbEntity
  8
0
  6
SLD-実線
 62
     8
370
     0
100
AcDbLine
 10
11588.0281825035
 20
-6660.853543753845
 30
0.0
 11
11588.17495296888
 21
-6660.780963343695
 31
0.0
  0
SPLINE
  5
1B958B
330
18
100
AcDbEntity
  8
0
  6
SLD-実線
 62
     8
370
     0
100
AcDbSpline
210
0.0
220
0.0
230
1.0
 70
     8
 71
     3
 72
    12
 73
     8
 74
     0
 42
0.000000001
 43
0.00000001
 40
0.0
 40
0.0
 40
0.0
 40
0.0
 40
0.1678955075947583
 40
0.3707367745514821
 40
0.5743755870397104
 40
0.7875667866968488
 40
1.0
 40
1.0
 40
1.0
 40
1.0
 10
11584.91150114511
 20
-6656.12132966538
 30
0.0
 10
11584.92976069809
 20
-6656.113950459008
 30
0.0
 10
11584.97008034615
 20
-6656.097656138761
 30
0.0
 10
11585.04370057519
 20
-6656.0950185805
 30
0.0
 10
11585.1244196316
 20
-6656.116270588625
 30
0.0
 10
11585.20092707727
 20
-6656.162285267948
 30
0.0
 10
11585.23757227268
 20
-6656.207745474356
 30
0.0
 10
11585.25586224002
 20
-6656.230435097954
 30
0.0
  0
LINE
  5
1B958C
330
18
100
AcDbEntity
  8
0
  6
SLD-実線
 62
     8
370
     0
100
AcDbLine
 10
11584.57435962672
 20
-6656.288055398903
 30
0.0
 11
11584.91150114511
 21
-6656.12132966538
 31
0.0
  0
LWPOLYLINE
  5
1B958D
330
18
100
AcDbEntity
  8
0
  6
SLD-実線
 62
     8
370
     0
100
AcDbPolyline
 90
       17
 70
   128
 43
0.0
 10
11588.9776178813
 20
-6662.535713145371
 10
11589.07604299255
 20
-6662.454145331923
 10
11589.13394450065
 20
-6662.331842609469
 10
11589.14250585707
 20
-6662.187421689912
 10
11589.10042625957
 20
-6662.04286916976
 10
11589.01410922334
 20
-6661.920189414313
 10
11588.89669714187
 20
-6661.838066393717
 10
11588.76606475429
 20
-6661.808994623473
 10
11588.64210010737
 20
-6661.837406891167
 10
11588.54367499611
 20
-6661.91896966692
 10
11588.48577348802
 20
-6662.041272389373
 10
11588.4772121316
 20
-6662.185698346626
 10
11588.5192917291
 20
-6662.330250866779
 10
11588.60560876533
 20
-6662.45292558453
 10
11588.72302084679
 20
-6662.535053642821
 10
11588.85365323438
 20
-6662.56412037537
 10
11588.9776178813
 20
-6662.535713145371
  0
ARC
  5
1B958E
330
18
100
AcDbEntity
  8
0
  6
SLD-実線
 62
     8
370
     0
100
AcDbCircle
 10
11588.08750461863
 20
-6660.824020452026
 30
0.0
 40
0.1287034715408485
100
AcDbArc
 50
259.5843717537934
 51
290.8239881152165
  0
LWPOLYLINE
  5
1B958F
330
18
100
AcDbEntity
  8
0
  6
SLD-実線
 62
     8
370
     0
100
AcDbPolyline
 90
        3
 70
   128
 43
0.0
 10
11588.13325848606
 20
-6660.944316616563
 10
11588.15761190849
 20
-6660.955897307728
 10
11588.18778707496
 20
-6660.970243223643
  0
LWPOLYLINE
  5
1B9590
330
18
100
AcDbEntity
  8
0
  6
SLD-実線
 62
     8
370
     0
100
AcDbPolyline
 90
        3
 70
   128
 43
0.0
 10
11585.23148387806
 20
-6656.241097580963
 10
11585.24094940648
 20
-6656.237284182544
 10
11585.25586224002
 20
-6656.230435097954
  0
LWPOLYLINE
  5
1B9591
330
18
100
AcDbEntity
  8
0
  6
SLD-実線
 62
     8
370
     0
100
AcDbPolyline
 90
        3
 70
   128
 43
0.0
 10
11588.00520356171
 20
-6660.864655464007
 10
11588.01299491425
 20
-6660.860932757498
 10
11588.0281825035
 20
-6660.853543753845
  0
LINE
  5
1B9592
330
18
100
AcDbEntity
  8
0
  6
SLD-実線
 62
     8
370
     0
100
AcDbLine
 10
11588.31669470985
 20
-6660.70634927657
 30
0.0
 11
11588.45656845542
 21
-6660.690801696097
 31
0.0
  0
SPLINE
  5
1B9593
330
18
100
AcDbEntity
  8
0
  6
SLD-実線
 62
     8
370
     0
100
AcDbSpline
210
0.0
220
0.0
230
1.0
 70
     8
 71
     3
 72
    10
 73
     6
 74
     0
 42
0.000000001
 43
0.00000001
 40
0.0
 40
0.0
 40
0.0
 40
0.0
 40
0.2849268816533809
 40
0.5698745142357556
 40
1.0
 40
1.0
 40
1.0
 40
1.0
 10
11585.24119921602
 20
-6655.704327088384
 30
0.0
 10
11585.5561021796
 20
-6656.156459532254
 30
0.0
 10
11586.18593104084
 20
-6657.060757348333
 30
0.0
 10
11587.22987469498
 20
-6658.720180526407
 30
0.0
 10
11587.90849565586
 20
-6659.96036356247
 30
0.0
 10
11588.31669470985
 20
-6660.70634927657
 30
0.0
  0
SPLINE
  5
1B9594
330
18
100
AcDbEntity
  8
0
  6
SLD-実線
 62
     8
370
     0
100
AcDbSpline
210
0.0
220
0.0
230
1.0
 70
     8
 71
     3
 72
     9
 73
     5
 74
     0
 42
0.000000001
 43
0.00000001
 40
0.0
 40
0.0
 40
0.0
 40
0.0
 40
0.558735862235518
 40
1.0
 40
1.0
 40
1.0
 40
1.0
 10
11585.31660876786
 20
-6655.560352579578
 30
0.0
 10
11585.30254328856
 20
-6655.587169256031
 30
0.0
 10
11585.27736953428
 20
-6655.635164522248
 30
0.0
 10
11585.25227328904
 20
-6655.683151955172
 30
0.0
 10
11585.24119921602
 20
-6655.704327088384
 30
0.0
  0
LINE
  5
1B9595
330
18
100
AcDbEntity
  8
0
  6
SLD-実線
 62
     8
370
     0
100
AcDbLine
 10
11588.28002895144
 20
-6660.871736206413
 30
0.0
 11
11588.13325848606
 21
-6660.944316616563
 31
0.0
  0
LWPOLYLINE
  5
1B9596
330
18
100
AcDbEntity
  8
0
  6
SLD-実線
 62
     8
370
     0
100
AcDbPolyline
 90
        3
 70
   128
 43
0.0
 10
11588.41803697585
 20
-6660.856379831158
 10
11588.34166639228
 20
-6660.864878562352
 10
11588.28002895144
 20
-6660.871736206413
  0
ARC
  5
1B9597
330
18
100
AcDbEntity
  8
0
  6
SLD-実線
 62
     8
370
     0
100
AcDbCircle
 10
11588.16948331198
 20
-6660.796180971916
 30
0.0
 40
0.1525005154992827
100
AcDbArc
 50
202.0952913367246
 51
256.2586621512557
  0
ARC
  5
1B9598
330
18
100
AcDbEntity
  8
0
  6
SLD-実線
 62
     8
370
     0
100
AcDbCircle
 10
11586.51353049941
 20
-6657.452879070186
 30
0.0
 40
3.719740522354402
100
AcDbArc
 50
296.5289599918015
 51
298.996446465322
  0
ARC
  5
1B9599
330
18
100
AcDbEntity
  8
0
  6
SLD-実線
 62
     8
370
     0
100
AcDbCircle
 10
11584.86039509946
 20
-6655.301039060365
 30
0.0
 40
0.5546647714873554
100
AcDbArc
 50
297.2891279664724
 51
313.3574885567182
  0
ARC
  5
1B959A
330
18
100
AcDbEntity
  8
0
  6
SLD-実線
 62
     8
370
     0
100
AcDbCircle
 10
11588.15808039827
 20
-6660.757942792337
 30
0.0
 40
0.1667944564672342
100
AcDbArc
 50
316.9812713082147
 51
18.01849174179055
  0
ARC
  5
1B959B
330
18
100
AcDbEntity
  8
0
  6
SLD-実線
 62
     8
370
     0
100
AcDbCircle
 10
11588.3162543878
 20
-6660.723599855139
 30
0.0
 40
0.1525013469068665
100
AcDbArc
 50
202.0954510561363
 51
256.2585024322128
  0
SPLINE
  5
1B959C
330
18
100
AcDbEntity
  8
0
  6
SLD-実線
 62
     8
370
     0
100
AcDbSpline
210
0.0
220
0.0
230
1.0
 70
     8
 71
     3
 72
     9
 73
     5
 74
     0
 42
0.000000001
 43
0.00000001
 40
0.0
 40
0.0
 40
0.0
 40
0.0
 40
0.2286429667231985
 40
1.0
 40
1.0
 40
1.0
 40
1.0
 10
11584.6820528822
 20
-6656.348822526797
 30
0.0
 10
11584.68511666617
 20
-6656.348053763613
 30
0.0
 10
11584.69851652713
 20
-6656.344691477007
 30
0.0
 10
11584.7118805812
 20
-6656.341340367206
 30
0.0
 10
11584.7221890383
 20
-6656.338755465093
 30
0.0
  0
LINE
  5
1B959D
330
18
100
AcDbEntity
  8
0
  6
SLD-実線
 62
     8
370
     0
100
AcDbLine
 10
11585.0191944006
 20
-6656.18210183097
 30
0.0
 11
11584.6820528822
 21
-6656.348822526797
 31
0.0
  0
LINE
  5
1B959E
330
18
100
AcDbEntity
  8
0
  6
SLD-実線
 62
     8
370
     0
100
AcDbLine
 10
11585.05372084703
 20
-6656.174808542439
 30
0.0
 11
11585.0191944006
 21
-6656.18210183097
 31
0.0
  0
SPLINE
  5
1B959F
330
18
100
AcDbEntity
  8
0
  6
SLD-実線
 62
     8
370
     0
100
AcDbSpline
210
0.0
220
0.0
230
1.0
 70
     8
 71
     3
 72
    10
 73
     6
 74
     0
 42
0.000000001
 43
0.00000001
 40
0.0
 40
0.0
 40
0.0
 40
0.0
 40
0.0729466017024034
 40
0.799431754472139
 40
0.9999999999999999
 40
0.9999999999999999
 40
0.9999999999999999
 40
0.9999999999999999
 10
11584.39698845391
 20
-6655.877014628083
 30
0.0
 10
11584.39741035457
 20
-6655.879249179608
 30
0.0
 10
11584.40203402142
 20
-6655.903737934452
 30
0.0
 10
11584.40781072889
 20
-6655.934347777684
 30
0.0
 10
11584.41317479304
 20
-6655.962743815126
 30
0.0
 10
11584.41433530972
 20
-6655.968887305263
 30
0.0
  0
ARC
  5
1B95A0
330
18
100
AcDbEntity
  8
0
  6
SLD-実線
 62
     8
370
     0
100
AcDbCircle
 10
11584.48832208543
 20
-6656.069074610217
 30
0.0
 40
0.1245453293143461
100
AcDbArc
 50
126.4452945330608
 51
161.8682074516675
  0
ARC
  5
1B95A1
330
18
100
AcDbEntity
  8
0
  6
SLD-実線
 62
     8
370
     0
100
AcDbCircle
 10
11584.70302524328
 20
-6656.20803888307
 30
0.0
 40
0.1515172719212301
100
AcDbArc
 50
211.8772780375785
 51
246.9314832656578
  0
LWPOLYLINE
  5
1B95A2
330
18
100
AcDbEntity
  8
0
  6
SLD-実線
 62
     8
370
     0
100
AcDbPolyline
 90
        3
 70
   128
 43
0.0
 10
11584.57435962672
 20
-6656.288055398903
 10
11584.55901532624
 20
-6656.295198241632
 10
11584.55762804026
 20
-6656.295794909604
  0
LWPOLYLINE
  5
1B95A3
330
18
100
AcDbEntity
  8
0
  6
SLD-実線
 62
     8
370
     0
100
AcDbPolyline
 90
        3
 70
   128
 43
0.0
 10
11584.45564099175
 20
-6656.119890237977
 10
11584.44027393322
 20
-6656.127025421627
 10
11584.43805886721
 20
-6656.127967344371
  0
SPLINE
  5
1B95A4
330
18
100
AcDbEntity
  8
0
  6
SLD-実線
 62
     8
370
     0
100
AcDbSpline
210
0.0
220
0.0
230
1.0
 70
     8
 71
     3
 72
     9
 73
     5
 74
     0
 42
0.000000001
 43
0.00000001
 40
0.0
 40
0.0
 40
0.0
 40
0.0
 40
0.4707777266441072
 40
0.9999999999999999
 40
0.9999999999999999
 40
0.9999999999999999
 40
0.9999999999999999
 10
11585.07339263694
 20
-6655.642969065559
 30
0.0
 10
11585.08445974197
 20
-6655.621727065782
 30
0.0
 10
11585.10796787416
 20
-6655.576605985119
 30
0.0
 10
11585.13154288623
 20
-6655.531476726277
 30
0.0
 10
11585.14401930772
 20
-6655.507593317318
 30
0.0
  0
LINE
  5
1B95A5
330
18
100
AcDbEntity
  8
0
  6
SLD-実線
 62
     8
370
     0
100
AcDbLine
 10
11584.41433530972
 20
-6655.968887305263
 30
0.0
 11
11585.07339263694
 21
-6655.642969065559
 31
0.0
  0
ARC
  5
1B95A6
330
18
100
AcDbEntity
  8
0
  6
SLD-実線
 62
     8
370
     0
100
AcDbCircle
 10
11585.0087586945
 20
-6656.074788039088
 30
0.0
 40
0.1078200069095678
100
AcDbArc
 50
205.5729789292579
 51
275.5542514041986
  0
ARC
  5
1B95A7
330
18
100
AcDbEntity
  8
0
  6
SLD-実線
 62
     8
370
     0
100
AcDbCircle
 10
11584.62225939229
 20
-6655.993162174773
 30
0.0
 40
0.209336316490977
100
AcDbArc
 50
173.34093708725
 51
217.2562064526114
  0
LINE
  5
1B95A8
330
18
100
AcDbEntity
  8
0
  6
SLD-実線
 62
     8
370
     0
100
AcDbLine
 10
11585.04290042435
 20
-6656.173774242379
 30
0.0
 11
11585.0191944006
 21
-6656.18210183097
 31
0.0
  0
ARC
  5
1B95A9
330
18
100
AcDbEntity
  8
0
  6
SLD-実線
 62
     8
370
     0
100
AcDbCircle
 10
11585.28132770898
 20
-6655.667240928984
 30
0.0
 40
0.2093468832775137
100
AcDbArc
 50
173.3421030418012
 51
217.255040498199
  0
ARC
  5
1B95AA
330
18
100
AcDbEntity
  8
0
  6
SLD-実線
 62
     8
370
     0
100
AcDbCircle
 10
11585.07534965811
 20
-6655.897760952989
 30
0.0
 40
0.2547994031238811
100
AcDbArc
 50
49.39032202359696
 51
90.44007228732077
  0
LWPOLYLINE
  5
1B95AB
330
18
100
AcDbEntity
  8
0
  6
SLD-実線
 62
     8
370
     0
100
AcDbPolyline
 90
       12
 70
   128
 43
0.0
 10
11615.98412526722
 20
-6663.674718977275
 10
11616.04988836489
 20
-6664.343371821813
 10
11616.14625015234
 20
-6665.949475369283
 10
11616.15011939021
 20
-6667.501461698999
 10
11616.06147445642
 20
-6668.990658454652
 10
11615.88081240513
 20
-6670.408731014975
 10
11615.60914273757
 20
-6671.747757212273
 10
11615.24798430454
 20
-6673.000243207618
 10
11614.79935616687
 20
-6674.159183051073
 10
11614.26576882872
 20
-6675.218100262056
 10
11613.6502069958
 20
-6676.171068020457
 10
11613.64703530374
 20
-6676.175411996817
  0
ARC
  5
1B95AC
330
18
100
AcDbEntity
  8
0
  6
SLD-実線
 62
     8
370
     0
100
AcDbCircle
 10
11591.65171937338
 20
-6646.331902080379
 30
0.0
 40
13.31278296800578
100
AcDbArc
 50
61.78940728633422
 51
87.18431391536974
  0
LWPOLYLINE
  5
1B95AD
330
18
100
AcDbEntity
  8
0
  6
SLD-実線
 62
     8
370
     0
100
AcDbPolyline
 90
       11
 70
   128
 43
0.0
 10
11597.94485425551
 20
-6635.157502671317
 10
11597.2769916
 20
-6634.822214226004
 10
11596.05852581849
 20
-6634.301310572064
 10
11594.85888444896
 20
-6633.907002759741
 10
11593.68493808492
 20
-6633.641552835708
 10
11592.54341138255
 20
-6633.506478725459
 10
11591.4408423886
 20
-6633.50255077249
 10
11590.38354705888
 20
-6633.629798641392
 10
11589.37758159395
 20
-6633.887492998541
 10
11588.42870730082
 20
-6634.274148573451
 10
11587.61038611771
 20
-6634.742192614447
  0
LWPOLYLINE
  5
1B95AE
330
18
100
AcDbEntity
  8
0
  6
SLD-実線
 62
     8
370
     0
100
AcDbPolyline
 90
       16
 70
   128
 43
0.0
 10
11609.43588691097
 20
-6678.876795560658
 10
11609.79405750195
 20
-6678.741444372952
 10
11610.71232624443
 20
-6678.291087998645
 10
11611.56548216795
 20
-6677.715355493572
 10
11612.34864020032
 20
-6677.017550691411
 10
11613.05731396767
 20
-6676.201670196642
 10
11613.68744316964
 20
-6675.272384050088
 10
11614.23542065773
 20
-6674.235017202504
 10
11614.69810547467
 20
-6673.095509031777
 10
11615.07284800036
 20
-6671.860389295231
 10
11615.35750230417
 20
-6670.536729904199
 10
11615.55043804348
 20
-6669.132120065766
 10
11615.65054960311
 20
-6667.654596647129
 10
11615.65726340699
 20
-6666.112622723437
 10
11615.57054153968
 20
-6664.51503921673
 10
11615.51224585625
 20
-6663.886253705542
  0
LWPOLYLINE
  5
1B95AF
330
18
100
AcDbEntity
  8
0
  6
SLD-実線
 62
     8
370
     0
100
AcDbPolyline
 90
       39
 70
   128
 43
0.0
 10
11641.7884498439
 20
-6662.876092242722
 10
11642.01486011542
 20
-6662.642588674127
 10
11642.70895473081
 20
-6661.800899831322
 10
11643.32451995124
 20
-6660.847927541417
 10
11643.85810728939
 20
-6659.789010330435
 10
11644.30673203955
 20
-6658.630069980787
 10
11644.66789386009
 20
-6657.377584491635
 10
11644.93956126931
 20
-6656.03856299457
 10
11645.12022444976
 20
-6654.620485565283
 10
11645.2088716419
 20
-6653.131289147092
 10
11645.20499901652
 20
-6651.579302311184
 10
11645.1086360999
 20
-6649.973198594982
 10
11644.92032528662
 20
-6648.321968975659
 10
11644.64110717292
 20
-6646.63483901943
 10
11644.27255622537
 20
-6644.921248577399
 10
11643.81672220455
 20
-6643.190779434872
 10
11643.27616383112
 20
-6641.453113416156
 10
11642.65389724028
 20
-6639.717959943451
 10
11641.95340902028
 20
-6637.995025003367
 10
11641.1786087873
 20
-6636.293948645571
 10
11640.33383570475
 20
-6634.624241607944
 10
11639.42381105817
 20
-6632.995240447161
 10
11638.45362696353
 20
-6631.41605799327
 10
11637.42870371463
 20
-6629.895520420478
 10
11636.35477849134
 20
-6628.442135333642
 10
11635.23785618775
 20
-6627.064031761563
 10
11634.08417965756
 20
-6625.768912139008
 10
11632.90020508139
 20
-6624.564022505163
 10
11631.69254988451
 20
-6623.456100008252
 10
11630.46797061826
 20
-6622.451339819799
 10
11629.23331439322
 20
-6621.55536526365
 10
11627.99548742459
 20
-6620.773182090799
 10
11626.76140928214
 20
-6620.109164170361
 10
11625.53798495092
 20
-6619.567030388811
 10
11624.33205165425
 20
-6619.1498069512
 10
11623.15035766607
 20
-6618.85983184159
 10
11621.99951006502
 20
-6618.698721925417
 10
11620.88594511855
 20
-6618.667381007363
 10
11619.88194099458
 20
-6618.755938884633
  0
LWPOLYLINE
  5
1B95B0
330
18
100
AcDbEntity
  8
0
  6
SLD-実線
 62
     8
370
     0
100
AcDbPolyline
 90
       16
 70
   128
 43
0.0
 10
11615.50572007897
 20
-6663.889179131465
 10
11615.563346797
 20
-6664.511438799802
 10
11615.65003089114
 20
-6666.108318700415
 10
11615.6433192437
 20
-6667.64960575546
 10
11615.54325233102
 20
-6669.126475707658
 10
11615.35040242534
 20
-6670.530466066364
 10
11615.06587383795
 20
-6671.853535511182
 10
11614.69129786598
 20
-6673.088105832381
 10
11614.22881733171
 20
-6674.227107186991
 10
11613.6810837876
 20
-6675.264015338966
 10
11613.0512333249
 20
-6676.192891741959
 10
11612.34287419787
 20
-6677.008412974286
 10
11611.56006329594
 20
-6677.70590481157
 10
11610.70728575894
 20
-6678.281381952863
 10
11609.78942417359
 20
-6678.731541678693
 10
11609.45381148471
 20
-6678.858971966507
  0
LWPOLYLINE
  5
1B95B1
330
18
100
AcDbEntity
  8
0
  6
SLD-実線
 62
     8
370
     0
100
AcDbPolyline
 90
       11
 70
   128
 43
0.0
 10
11587.63542878132
 20
-6634.738763729796
 10
11588.43354797941
 20
-6634.283963521575
 10
11589.38200128309
 20
-6633.89747733971
 10
11590.38752089368
 20
-6633.639897284584
 10
11591.44434714274
 20
-6633.512707385931
 10
11592.54642703983
 20
-6633.516631006816
 10
11593.68744775775
 20
-6633.65164262402
 10
11594.86087367264
 20
-6633.916975929955
 10
11596.0599835829
 20
-6634.311106918976
 10
11597.27790827958
 20
-6634.831783631867
 10
11597.94485424491
 20
-6635.166598276692
  0
ARC
  5
1B95B2
330
18
100
AcDbEntity
  8
0
  6
SLD-実線
 62
     8
370
     0
100
AcDbCircle
 10
11591.94501075827
 20
-6641.219914915298
 30
0.0
 40
7.504157043170498
100
AcDbArc
 50
99.04978728700537
 51
119.3173649033844
  0
ARC
  5
1B95B3
330
18
100
AcDbEntity
  8
0
  6
SLD-実線
 62
     8
370
     0
100
AcDbCircle
 10
11606.92804359527
 20
-6671.513692365114
 30
0.0
 40
7.488139069661377
100
AcDbArc
 50
293.288443878464
 51
313.4914548434863
  0
LINE
  5
1B95B4
330
18
100
AcDbEntity
  8
0
  6
SLD-実線
 62
     8
370
     0
100
AcDbLine
 10
11595.43127311949
 20
-6634.273380981593
 30
0.0
 11
11597.09577879221
 21
-6634.884801759734
 31
0.0
  0
SPLINE
  5
1B95B5
330
18
100
AcDbEntity
  8
0
  6
SLD-実線
 62
     8
370
     0
100
AcDbSpline
210
0.0
220
0.0
230
1.0
 70
     8
 71
     3
 72
    12
 73
     8
 74
     0
 42
0.000000001
 43
0.00000001
 40
0.0
 40
0.0
 40
0.0
 40
0.0
 40
0.2656451154723151
 40
0.5169565405026996
 40
0.7098613158416277
 40
0.9035668812559549
 40
1.0
 40
1.0
 40
1.0
 40
1.0
 10
11595.43575503689
 20
-6634.284510383597
 30
0.0
 10
11595.42873467428
 20
-6634.281156837094
 30
0.0
 10
11595.41507275411
 20
-6634.274630694894
 30
0.0
 10
11595.40639844214
 20
-6634.269003384903
 30
0.0
 10
11595.40871110682
 20
-6634.267627480671
 30
0.0
 10
11595.41891942585
 20
-6634.269834791197
 30
0.0
 10
11595.42818998413
 20
-6634.272495854588
 30
0.0
 10
11595.43127123078
 20
-6634.273380309698
 30
0.0
  0
SPLINE
  5
1B95B6
330
18
100
AcDbEntity
  8
0
  6
SLD-実線
 62
     8
370
     0
100
AcDbSpline
210
0.0
220
0.0
230
1.0
 70
     8
 71
     3
 72
     9
 73
     5
 74
     0
 42
0.000000001
 43
0.00000001
 40
0.0
 40
0.0
 40
0.0
 40
0.0
 40
0.5011977612045331
 40
0.9999999999999999
 40
0.9999999999999999
 40
0.9999999999999999
 40
0.9999999999999999
 10
11615.50314722141
 20
-6668.818238108829
 30
0.0
 10
11615.31210069921
 20
-6668.607590081257
 30
0.0
 10
11614.93092077986
 20
-6668.187300838412
 30
0.0
 10
11614.12698318735
 20
-6667.630898508161
 30
0.0
 10
11613.72597731636
 20
-6667.353363780162
 30
0.0
  0
SPLINE
  5
1B95B7
330
18
100
AcDbEntity
  8
0
  6
SLD-実線
 62
     8
370
     0
100
AcDbSpline
210
0.0
220
0.0
230
1.0
 70
     8
 71
     3
 72
     9
 73
     5
 74
     0
 42
0.000000001
 43
0.00000001
 40
0.0
 40
0.0
 40
0.0
 40
0.0
 40
0.5039272610348667
 40
1.0
 40
1.0
 40
1.0
 40
1.0
 10
11613.72597731636
 20
-6667.353363780162
 30
0.0
 10
11614.11780095448
 20
-6667.562764847884
 30
0.0
 10
11614.89534102508
 20
-6667.978303128732
 30
0.0
 10
11615.29686461007
 20
-6668.356382133796
 30
0.0
 10
11615.49604951463
 20
-6668.543936821383
 30
0.0
  0
LWPOLYLINE
  5
1B95B8
330
18
100
AcDbEntity
  8
0
  6
SLD-実線
 62
     8
370
     0
100
AcDbPolyline
 90
        3
 70
   128
 43
0.0
 10
11614.21472381751
 20
-6666.711764474966
 10
11614.23609476729
 20
-6666.72180027051
 10
11614.35883020823
 20
-6666.778654191567
  0
LINE
  5
1B95B9
330
18
100
AcDbEntity
  8
0
  6
SLD-実線
 62
     8
370
     0
100
AcDbLine
 10
11615.49957038276
 20
-6665.246940414298
 30
0.0
 11
11614.31539754016
 21
-6665.825794088824
 31
0.0
  0
LINE
  5
1B95BA
330
18
100
AcDbEntity
  8
0
  6
SLD-実線
 62
     8
370
     0
100
AcDbLine
 10
11614.3479969205
 20
-6667.009185192675
 30
0.0
 11
11613.67951690326
 21
-6667.333241023628
 31
0.0
  0
SPLINE
  5
1B95BB
330
18
100
AcDbEntity
  8
0
  6
SLD-実線
 62
     8
370
     0
100
AcDbSpline
210
0.0
220
0.0
230
1.0
 70
     8
 71
     3
 72
    12
 73
     8
 74
     0
 42
0.000000001
 43
0.00000001
 40
0.0
 40
0.0
 40
0.0
 40
0.0
 40
0.236216489823853
 40
0.472140226857048
 40
0.7015973661229192
 40
0.9170182544803894
 40
1.0
 40
1.0
 40
1.0
 40
1.0
 10
11614.35883020823
 20
-6666.778654191567
 30
0.0
 10
11614.3847654993
 20
-6666.793438023565
 30
0.0
 10
11614.43660393878
 20
-6666.822987365353
 30
0.0
 10
11614.46339772325
 20
-6666.880694854388
 30
0.0
 10
11614.4461351116
 20
-6666.939283639528
 30
0.0
 10
11614.39841036398
 20
-6666.98285121104
 30
0.0
 10
11614.35896589502
 20
-6667.003455435819
 30
0.0
 10
11614.3479969205
 20
-6667.009185192675
 30
0.0
  0
LINE
  5
1B95BC
330
18
100
AcDbEntity
  8
0
  6
SLD-実線
 62
     8
370
     0
100
AcDbLine
 10
11597.19395608388
 20
-6634.931503415316
 30
0.0
 11
11595.46069620039
 21
-6634.294823091297
 31
0.0
  0
SPLINE
  5
1B95BD
330
18
100
AcDbEntity
  8
0
  6
SLD-実線
 62
     8
370
     0
100
AcDbSpline
210
0.0
220
0.0
230
1.0
 70
     8
 71
     3
 72
     9
 73
     5
 74
     0
 42
0.000000001
 43
0.00000001
 40
0.0
 40
0.0
 40
0.0
 40
0.0
 40
0.0638926548061619
 40
1.0
 40
1.0
 40
1.0
 40
1.0
 10
11597.94485456591
 20
-6635.664004379635
 30
0.0
 10
11597.9299855626
 20
-6635.647168862606
 30
0.0
 10
11597.69726705448
 20
-6635.383671953923
 30
0.0
 10
11597.43730878105
 20
-6635.150127473347
 30
0.0
 10
11597.19395993186
 20
-6634.931504769651
 30
0.0
  0
LINE
  5
1B95BE
330
18
100
AcDbEntity
  8
0
  6
SLD-実線
 62
     8
370
     0
100
AcDbLine
 10
11613.52129613988
 20
-6667.027424118913
 30
0.0
 11
11614.1913207888
 21
-6666.702544020555
 31
0.0
  0
ARC
  5
1B95BF
330
18
100
AcDbEntity
  8
0
  6
SLD-実線
 62
     8
370
     0
100
AcDbCircle
 10
11597.34957704522
 20
-6663.804849847225
 30
0.0
 40
17.0892060624952
100
AcDbArc
 50
350.2375978448165
 51
359.0769796940367
  0
SPLINE
  5
1B95C0
330
18
100
AcDbEntity
  8
0
  6
SLD-実線
 62
     8
370
     0
100
AcDbSpline
210
0.0
220
0.0
230
1.0
 70
     8
 71
     3
 72
    12
 73
     8
 74
     0
 42
0.000000001
 43
0.00000001
 40
0.0
 40
0.0
 40
0.0
 40
0.0
 40
0.0538407146760891
 40
0.140761678156817
 40
0.3086048763642457
 40
0.6166491349873071
 40
1.0
 40
1.0
 40
1.0
 40
1.0
 10
11597.19395211152
 20
-6634.931501652728
 30
0.0
 10
11597.20762742093
 20
-6634.939814572259
 30
0.0
 10
11597.24338028031
 20
-6634.961547948395
 30
0.0
 10
11597.3246709646
 20
-6635.012512458215
 30
0.0
 10
11597.46911598296
 20
-6635.105087665806
 30
0.0
 10
11597.68722561023
 20
-6635.248044823082
 30
0.0
 10
11597.8529607634
 20
-6635.363508959861
 30
0.0
 10
11597.94485425839
 20
-6635.427529192575
 30
0.0
  0
LINE
  5
1B95C1
330
18
100
AcDbEntity
  8
0
  6
SLD-実線
 62
     8
370
     0
100
AcDbLine
 10
11597.16712961752
 20
-6634.911014704537
 30
0.0
 11
11597.19395608388
 21
-6634.931503415316
 31
0.0
  0
SPLINE
  5
1B95C2
330
18
100
AcDbEntity
  8
0
  6
SLD-実線
 62
     8
370
     0
100
AcDbSpline
210
0.0
220
0.0
230
1.0
 70
     8
 71
     3
 72
    11
 73
     7
 74
     0
 42
0.000000001
 43
0.00000001
 40
0.0
 40
0.0
 40
0.0
 40
0.0
 40
0.2588221125898205
 40
0.8333473277972535
 40
0.9597676972633782
 40
1.0
 40
1.0
 40
1.0
 40
1.0
 10
11614.1913207888
 20
-6666.702544020555
 30
0.0
 10
11614.19569942326
 20
-6666.700567770072
 30
0.0
 10
11614.20979761327
 20
-6666.694204700692
 30
0.0
 10
11614.21940042307
 20
-6666.688221366059
 30
0.0
 10
11614.22589224204
 20
-6666.683857403733
 30
0.0
 10
11614.22613820294
 20
-6666.683213142504
 30
0.0
 10
11614.22619758137
 20
-6666.683057608767
 30
0.0
  0
LINE
  5
1B95C3
330
18
100
AcDbEntity
  8
0
  6
SLD-実線
 62
     8
370
     0
100
AcDbLine
 10
11595.43127311949
 20
-6634.273380981593
 30
0.0
 11
11595.46069620039
 21
-6634.294823091297
 31
0.0
  0
LINE
  5
1B95C4
330
18
100
AcDbEntity
  8
0
  6
SLD-実線
 62
     8
370
     0
100
AcDbLine
 10
11614.33579441237
 20
-6665.439213392006
 30
0.0
 11
11615.47439909858
 21
-6664.882528554046
 31
0.0
  0
ARC
  5
1B95C5
330
18
100
AcDbEntity
  8
0
  6
SLD-実線
 62
     8
370
     0
100
AcDbCircle
 10
11614.49186689703
 20
-6666.742328983617
 30
0.0
 40
0.3031679509083446
100
AcDbArc
 50
172.4592805227942
 51
241.6695963929709
  0
ARC
  5
1B95C6
330
18
100
AcDbEntity
  8
0
  6
SLD-実線
 62
     8
370
     0
100
AcDbCircle
 10
11614.30281114176
 20
-6666.67187574259
 30
0.0
 40
0.1205809809764619
100
AcDbArc
 50
246.5543218512493
 51
297.6828046148689
  0
LINE
  5
1B95C7
330
18
100
AcDbEntity
  8
0
  6
SLD-実線
 62
     8
370
     0
100
AcDbLine
 10
11613.70875879265
 20
-6673.734404486816
 30
0.0
 11
11613.82844569905
 21
-6673.680454935733
 31
0.0
  0
LINE
  5
1B95C8
330
18
100
AcDbEntity
  8
0
  6
SLD-実線
 62
     8
370
     0
100
AcDbLine
 10
11593.72423399831
 20
-6634.415272118203
 30
0.0
 11
11593.40473194385
 21
-6634.590365588369
 31
0.0
  0
LWPOLYLINE
  5
1B95C9
330
18
100
AcDbEntity
  8
0
  6
SLD-実線
 62
     8
370
     0
100
AcDbPolyline
 90
       18
 70
   128
 43
0.0
 10
11568.71489034697
 20
-6598.346494579855
 10
11567.53232574375
 20
-6597.95963424703
 10
11566.37505111977
 20
-6597.524883895592
 10
11565.33510317104
 20
-6597.070707212783
 10
11564.41733264732
 20
-6596.599220154108
 10
11563.62601812072
 20
-6596.112623069861
 10
11562.96484767579
 20
-6595.613183941077
 10
11562.43690497588
 20
-6595.103230452425
 10
11562.04465307111
 20
-6594.58514172765
 10
11561.78991817219
 20
-6594.06133265621
 10
11561.6738877071
 20
-6593.534244640556
 10
11561.69710707407
 20
-6593.006336927915
 10
11561.8594631127
 20
-6592.480069722715
 10
11562.16020072815
 20
-6591.957896734202
 10
11562.59791728114
 20
-6591.44225284298
 10
11563.17057378782
 20
-6590.935542331064
 10
11563.87549866907
 20
-6590.440127752137
 10
11564.59898159501
 20
-6590.01732252696
  0
LWPOLYLINE
  5
1B95CA
330
18
100
AcDbEntity
  8
0
  6
SLD-実線
 62
     8
370
     0
100
AcDbPolyline
 90
       15
 70
   128
 43
0.0
 10
11618.59395228314
 20
-6590.079683157311
 10
11618.66147397009
 20
-6590.117270122213
 10
11619.45278849669
 20
-6590.603867206459
 10
11620.11395894162
 20
-6591.103306335243
 10
11620.64190164154
 20
-6591.613259823896
 10
11621.0341535463
 20
-6592.131348548671
 10
11621.28888844523
 20
-6592.655157620111
 10
11621.40491891031
 20
-6593.182245635765
 10
11621.38169954335
 20
-6593.710153348406
 10
11621.21934350471
 20
-6594.236420553607
 10
11620.91860588927
 20
-6594.758593542118
 10
11620.48088933627
 20
-6595.274237433339
 10
11619.9082328296
 20
-6595.780947945255
 10
11619.20330794835
 20
-6596.276362524183
 10
11618.59395323168
 20
-6596.636807146162
  0
LWPOLYLINE
  5
1B95CB
330
18
100
AcDbEntity
  8
0
  6
SLD-実線
 62
     8
370
     0
100
AcDbPolyline
 90
       44
 70
   128
 43
0.0
 10
11619.70218804842
 20
-6576.119511855097
 10
11619.59310494942
 20
-6575.807938660084
 10
11619.30109887289
 20
-6575.297797271211
 10
11618.8707866107
 20
-6574.794257798627
 10
11618.3043108742
 20
-6574.299828796635
 10
11617.60449262236
 20
-6573.816973265059
 10
11616.77482091177
 20
-6573.348097001197
 10
11615.81942658897
 20
-6572.89553609601
 10
11614.74306988209
 20
-6572.461544948599
 10
11613.5511160895
 20
-6572.048285229708
 10
11612.24949919064
 20
-6571.657816547449
 10
11610.8447060502
 20
-6571.29208395559
 10
11609.34373488066
 20
-6570.95290940865
 10
11607.75406280521
 20
-6570.641983018174
 10
11606.08361080773
 20
-6570.360853139235
 10
11604.34070033216
 20
-6570.110920664436
 10
11602.53401449734
 20
-6569.893430890278
 10
11600.67255296728
 20
-6569.709467552792
 10
11598.76559119528
 20
-6569.559946737414
 10
11596.82262912603
 20
-6569.445613110258
 10
11594.8533466005
 20
-6569.367036371623
 10
11592.86755460043
 20
-6569.324608646519
 10
11590.87514469149
 20
-6569.318540826656
 10
11588.88604380349
 20
-6569.348863606635
 10
11586.91016228234
 20
-6569.415424787052
 10
11584.95734319279
 20
-6569.517893778537
 10
11583.03731658083
 20
-6569.655759832887
 10
11581.15964651812
 20
-6569.828336209639
 10
11579.33368787846
 20
-6570.034762679546
 10
11577.56853707226
 20
-6570.274011411562
 10
11575.87298817114
 20
-6570.544889768572
 10
11574.25548989335
 20
-6570.846049466444
 10
11572.7240983408
 20
-6571.175988863577
 10
11571.28644412367
 20
-6571.533064998867
 10
11569.94968844982
 20
-6571.915498427951
 10
11568.72049236814
 20
-6572.321384311359
 10
11567.60497818349
 20
-6572.74870026278
 10
11566.60870443911
 20
-6573.19531756417
 10
11565.73663449059
 20
-6573.659011204083
 10
11564.99311189572
 20
-6574.137470910118
 10
11564.38184253855
 20
-6574.628313212022
 10
11563.90586961173
 20
-6575.129092656804
 10
11563.56756664822
 20
-6575.637314381444
 10
11563.37664614561
 20
-6576.119401565313
  0
ARC
  5
1B95CC
330
18
100
AcDbEntity
  8
0
  6
SLD-実線
 62
     8
370
     0
100
AcDbCircle
 10
11616.31476433475
 20
-6591.474322338656
 30
0.0
 40
5.152489611005231
100
AcDbArc
 50
296.2537220494651
 51
333.4456484495066
  0
LWPOLYLINE
  5
1B95CD
330
18
100
AcDbEntity
  8
0
  6
SLD-実線
 62
     8
370
     0
100
AcDbPolyline
 90
       18
 70
   128
 43
0.0
 10
11562.12513549839
 20
-6593.693383973117
 10
11562.27390586151
 20
-6594.044510033735
 10
11562.61240681157
 20
-6594.564678655745
 10
11563.08875813205
 20
-6595.077563523618
 10
11563.7006893684
 20
-6595.580720772916
 10
11564.44528561245
 20
-6596.07175246748
 10
11565.31899830429
 20
-6596.548317955232
 10
11566.31766085348
 20
-6597.008147113109
 10
11567.43651842776
 20
-6597.449047915718
 10
11568.67023775377
 20
-6597.868919589848
 10
11570.0129376856
 20
-6598.265761858329
 10
11571.45822068738
 20
-6598.637682761775
 10
11572.99920090183
 20
-6598.982909866857
 10
11574.6285331998
 20
-6599.299798503829
 10
11576.33845302049
 20
-6599.586838499155
 10
11578.12081233366
 20
-6599.842661887316
 10
11579.96711743328
 20
-6600.066049337622
 10
11581.73940335724
 20
-6600.244259243111
  0
LWPOLYLINE
  5
1B95CE
330
18
100
AcDbEntity
  8
0
  6
SLD-実線
 62
     8
370
     0
100
AcDbPolyline
 90
       40
 70
   128
 43
0.0
 10
11564.86582101668
 20
-6571.1164334322
 10
11565.96632428811
 20
-6570.659464276126
 10
11567.18351009733
 20
-6570.222766316437
 10
11568.51182765449
 20
-6569.808332510474
 10
11569.94521397187
 20
-6569.418053365373
 10
11571.47713012638
 20
-6569.053710130933
 10
11573.10058592787
 20
-6568.716965090982
 10
11574.80817416775
 20
-6568.409354309191
 10
11576.59210370348
 20
-6568.132282246681
 10
11578.44423359093
 20
-6567.887011860218
 10
11580.35611257116
 20
-6567.674663099007
 10
11582.31901834798
 20
-6567.496204745908
 10
11584.32399694681
 20
-6567.35245094677
 10
11586.36189560093
 20
-6567.244057941605
 10
11588.42341926926
 20
-6567.171519650978
 10
11590.49915973904
 20
-6567.135168128119
 10
11592.57964714963
 20
-6567.135168009418
 10
11594.65538777916
 20
-6567.171519822838
 10
11596.71691130745
 20
-6567.244057698379
 10
11598.75481008119
 20
-6567.352451338763
 10
11600.75978789591
 20
-6567.496204736215
 10
11602.72269465086
 20
-6567.674662909589
 10
11604.63457379364
 20
-6567.887011979961
 10
11606.48670328083
 20
-6568.132282174028
 10
11608.27063291291
 20
-6568.409354182349
 10
11609.97821965777
 20
-6568.71696521706
 10
11611.60167626157
 20
-6569.053710041083
 10
11613.13359233579
 20
-6569.41805347115
 10
11614.56697898413
 20
-6569.808332370372
 10
11615.8952953185
 20
-6570.222766624507
 10
11617.11248318092
 20
-6570.659464330423
 10
11618.21298611163
 20
-6571.116433203171
 10
11619.19178365457
 20
-6571.591588819565
 10
11620.04440876592
 20
-6572.082762674858
 10
11620.76697316726
 20
-6572.5877137646
 10
11621.35617736774
 20
-6573.104138265244
 10
11621.80933749577
 20
-6573.629679778262
 10
11622.12437994321
 20
-6574.161939830177
 10
11622.29987058338
 20
-6574.698490421597
 10
11622.33906822951
 20
-6575.13941961138
  0
LWPOLYLINE
  5
1B95CF
330
18
100
AcDbEntity
  8
0
  6
SLD-実線
 62
     8
370
     0
100
AcDbPolyline
 90
        9
 70
   128
 43
0.0
 10
11560.73959383342
 20
-6575.074190671677
 10
11560.7789343046
 20
-6574.698490486427
 10
11560.95442592134
 20
-6574.16193966242
 10
11561.26946888509
 20
-6573.629679479504
 10
11561.7226270309
 20
-6573.104138249896
 10
11562.31183334375
 20
-6572.587713923769
 10
11563.0343971072
 20
-6572.082762785538
 10
11563.88702405495
 20
-6571.591589070289
 10
11564.86582101668
 20
-6571.1164334322
  0
LWPOLYLINE
  5
1B95D0
330
18
100
AcDbEntity
  8
0
  6
SLD-実線
 62
     8
370
     0
100
AcDbPolyline
 90
       14
 70
   128
 43
0.0
 10
11565.47203776953
 20
-6571.883168133336
 10
11564.50575905657
 20
-6572.352662049703
 10
11563.66552354386
 20
-6572.838128303934
 10
11562.95524832615
 20
-6573.337303368207
 10
11562.3782460996
 20
-6573.847859897242
 10
11561.93720669806
 20
-6574.367417705041
 10
11561.63418656869
 20
-6574.893553882254
 10
11561.47059577933
 20
-6575.42381536981
 10
11561.44720234805
 20
-6575.955730516538
 10
11561.56411363977
 20
-6576.486818768645
 10
11561.82078002045
 20
-6577.014603879928
 10
11562.21601147947
 20
-6577.536625357995
 10
11562.74796063278
 20
-6578.050448783449
 10
11562.84635354238
 20
-6578.13235199498
  0
LWPOLYLINE
  5
1B95D1
330
18
100
AcDbEntity
  8
0
  6
SLD-実線
 62
     8
370
     0
100
AcDbPolyline
 90
       23
 70
   128
 43
0.0
 10
11620.24937536787
 20
-6578.118490638917
 10
11620.70056051781
 20
-6577.708929891585
 10
11621.14159991935
 20
-6577.189372083786
 10
11621.44462004873
 20
-6576.663235906572
 10
11621.60821083809
 20
-6576.132974419017
 10
11621.63160426937
 20
-6575.601059272289
 10
11621.51469297764
 20
-6575.069971020181
 10
11621.25802659696
 20
-6574.542185908898
 10
11620.86279513794
 20
-6574.020164430831
 10
11620.33084598463
 20
-6573.506341005378
 10
11619.66465841344
 20
-6573.003110429643
 10
11618.86733547996
 20
-6572.512820041753
 10
11617.94259991109
 20
-6572.037754689334
 10
11616.89475945008
 20
-6571.580129992382
 10
11615.72869913964
 20
-6571.142080279456
 10
11614.44985896631
 20
-6570.725646674404
 10
11613.0641990309
 20
-6570.332771112495
 10
11611.57818097032
 20
-6569.965285770932
 10
11609.99873241526
 20
-6569.62490386114
 10
11608.33321833059
 20
-6569.313212228824
 10
11606.58940381982
 20
-6569.031664237224
 10
11604.7754186234
 20
-6568.781572903434
 10
11603.62507586409
 20
-6568.643497262576
  0
LWPOLYLINE
  5
1B95D2
330
18
100
AcDbEntity
  8
0
  6
SLD-実線
 62
     8
370
     0
100
AcDbPolyline
 90
       13
 70
   128
 43
0.0
 10
11583.23831531887
 20
-6568.290057457085
 10
11582.76086118815
 20
-6568.326621193906
 10
11580.81652754942
 20
-6568.499043224942
 10
11578.92219095725
 20
-6568.705405585222
 10
11577.08667938494
 20
-6568.944744762131
 10
11575.31855333081
 20
-6569.21594582967
 10
11573.62605920715
 20
-6569.517744445749
 10
11572.01708331094
 20
-6569.84873263825
 10
11570.49912870387
 20
-6570.207367819568
 10
11569.07927437508
 20
-6570.591977595014
 10
11567.7641396652
 20
-6571.000768961822
 10
11566.55985567523
 20
-6571.431835726822
 10
11565.47203776953
 20
-6571.883168133336
  0
LWPOLYLINE
  5
1B95D3
330
18
100
AcDbEntity
  8
0
  6
SLD-実線
 62
     8
370
     0
100
AcDbPolyline
 90
       42
 70
   128
 43
0.0
 10
11566.50449760679
 20
-6572.037447827684
 10
11567.5737355226
 20
-6571.594572838198
 10
11568.75973151678
 20
-6571.172080964602
 10
11570.05670750181
 20
-6570.772030613145
 10
11571.45834420667
 20
-6570.396370486062
 10
11572.957814634
 20
-6570.046931332376
 10
11574.54781351294
 20
-6569.72541544424
 10
11576.22059285163
 20
-6569.433388818268
 10
11577.96800410177
 20
-6569.172274402292
 10
11579.78153322221
 20
-6568.943344475882
 10
11581.65234575374
 20
-6568.747713942309
 10
11583.57132861089
 20
-6568.586336442135
 10
11585.52912948746
 20
-6568.459998161856
 10
11587.5162120705
 20
-6568.369314004813
 10
11589.52289552692
 20
-6568.314726087965
 10
11591.53940307027
 20
-6568.296500867844
 10
11593.55591117946
 20
-6568.314725974262
 10
11595.56259368318
 20
-6568.369314070138
 10
11597.54967723579
 20
-6568.459997892538
 10
11599.50747840527
 20
-6568.586336574031
 10
11601.42646014412
 20
-6568.747713949756
 10
11603.2972724395
 20
-6568.94334463173
 10
11605.11080229842
 20
-6569.1722744641
 10
11606.8582135915
 20
-6569.433388814962
 10
11608.53099266972
 20
-6569.725415496165
 10
11610.12099183734
 20
-6570.046931259443
 10
11611.62046193016
 20
-6570.39637056123
 10
11613.02209998235
 20
-6570.772030347465
 10
11614.31907574234
 20
-6571.172081029872
 10
11615.50507232296
 20
-6571.594572560249
 10
11616.57430877218
 20
-6572.037447934573
 10
11617.52157976878
 20
-6572.498548345335
 10
11618.34226676726
 20
-6572.975628095617
 10
11619.03237295535
 20
-6573.466362550421
 10
11619.58853726869
 20
-6573.968360751891
 10
11620.00804905745
 20
-6574.479177742285
 10
11620.28886279984
 20
-6574.996324166269
 10
11620.42961289664
 20
-6575.517280561337
 10
11620.42961265729
 20
-6576.039509285992
 10
11620.28886219163
 20
-6576.560465830332
 10
11620.00804850176
 20
-6577.077612273308
 10
11619.98864776435
 20
-6577.105772822768
  0
LWPOLYLINE
  5
1B95D4
330
18
100
AcDbEntity
  8
0
  6
SLD-実線
 62
     8
370
     0
100
AcDbPolyline
 90
       12
 70
   128
 43
0.0
 10
11563.08531818636
 20
-6577.098805144208
 10
11563.07075755997
 20
-6577.077612046542
 10
11562.78994381757
 20
-6576.560465622557
 10
11562.64919372078
 20
-6576.039509227489
 10
11562.64919396012
 20
-6575.517280502835
 10
11562.78994442578
 20
-6574.996323958494
 10
11563.07075811566
 20
-6574.479177515519
 10
11563.49026909889
 20
-6573.968360837078
 10
11564.04643403033
 20
-6573.466362500918
 10
11564.73654060306
 20
-6572.975628111149
 10
11565.5572279678
 20
-6572.498548444734
 10
11566.50449760679
 20
-6572.037447827684
  0
ARC
  5
1B95D5
330
18
100
AcDbEntity
  8
0
  6
SLD-実線
 62
     8
370
     0
100
AcDbCircle
 10
11579.1816366861
 20
-6567.441002188731
 30
0.0
 40
22.16008734353873
100
AcDbArc
 50
247.0991670045076
 51
253.1286849261851
  0
LINE
  5
1B95D6
330
18
100
AcDbEntity
  8
0
  6
SLD-実線
 62
     8
370
     0
100
AcDbLine
 10
11611.89554572264
 20
-6588.107952604377
 30
0.0
 11
11612.52048755786
 21
-6587.854425916114
 31
0.0
  0
ENDSEC
  0
SECTION
  2
OBJECTS
  0
DICTIONARY
  5
C
330
0
100
AcDbDictionary
281
     1
  3
ACAD_DETAILVIEWSTYLE
350
19A93F
  3
ACAD_GROUP
350
D
  3
ACAD_IMAGE_VARS
350
12DBDF
  3
ACAD_LAYOUT
350
617
  3
ACAD_MLINESTYLE
350
E
  3
ACAD_PLOTSETTINGS
350
618
  3
ACAD_PLOTSTYLENAME
350
615
  3
ACAD_SCALELIST
350
A36
  3
ACAD_SECTIONVIEWSTYLE
350
19A940
  3
AcadDim
350
AB4
  3
AcDbVariableDictionary
350
6DE
  3
AEC_VARS
350
14A3BB
  3
APPDATA
350
12DBDE
  3
DWGPROPS
350
1CAAAC
  0
DICTIONARY
  5
8BF
330
2
100
AcDbDictionary
280
     1
281
     1
  3
ACAD_LAYERSTATES
360
8C0
  0
DICTIONARY
  5
A60
330
F
100
AcDbDictionary
280
     1
281
     1
  3
ADSK_XREC_LAYER_RECONCILED
360
A61
  0
DICTIONARY
  5
A66
330
34
100
AcDbDictionary
280
     1
281
     1
  3
ADSK_XREC_LAYER_RECONCILED
360
A67
  0
DICTIONARY
  5
A6E
330
2F4
100
AcDbDictionary
280
     1
281
     1
  3
ADSK_XREC_LAYER_RECONCILED
360
A6F
  0
DICTIONARY
  5
143F
330
18
100
AcDbDictionary
280
     1
281
     1
  3
ACAD_SORTENTS
360
1440
  0
DICTIONARY
  5
19A93F
102
{ACAD_REACTORS
330
C
102
}
330
C
100
AcDbDictionary
281
     1
  0
DICTIONARY
  5
D
102
{ACAD_REACTORS
330
C
102
}
330
C
100
AcDbDictionary
281
     1
  0
RASTERVARIABLES
  5
12DBDF
102
{ACAD_REACTORS
330
C
102
}
330
C
100
AcDbRasterVariables
 90
        0
 70
     1
 71
     1
 72
     0
  0
DICTIONARY
  5
617
102
{ACAD_REACTORS
330
C
102
}
330
C
100
AcDbDictionary
281
     1
  3
Model
350
619
  3
ﾚｲｱｳﾄ1
350
61A
  0
DICTIONARY
  5
E
102
{ACAD_REACTORS
330
C
102
}
330
C
100
AcDbDictionary
281
     1
  3
STANDARD
350
1B
  0
DICTIONARY
  5
618
102
{ACAD_REACTORS
330
C
102
}
330
C
100
AcDbDictionary
281
     1
  0
ACDBDICTIONARYWDFLT
  5
615
102
{ACAD_REACTORS
330
C
102
}
330
C
100
AcDbDictionary
281
     1
  3
Normal
350
616
100
AcDbDictionaryWithDefault
340
616
  0
DICTIONARY
  5
A36
102
{ACAD_REACTORS
330
C
102
}
330
C
100
AcDbDictionary
281
     1
  3
A0
350
A37
  3
A1
350
A38
  3
A2
350
A39
  3
A3
350
A3A
  3
A4
350
A3B
  3
A5
350
A3C
  3
A6
350
A3D
  3
A7
350
A3E
  3
A8
350
A3F
  3
A9
350
A40
  3
B0
350
A41
  3
B1
350
A42
  3
B2
350
A43
  3
B3
350
A44
  3
B4
350
A45
  3
B5
350
A46
  3
B6
350
A47
  3
B7
350
A48
  3
B8
350
A49
  3
B9
350
A4A
  3
C0
350
A4B
  3
C1
350
A4C
  3
C2
350
A4D
  3
C3
350
A4E
  3
C4
350
A4F
  3
C5
350
A50
  3
C6
350
A51
  3
C7
350
A52
  3
C8
350
A53
  3
C9
350
A54
  3
D0
350
A55
  3
D1
350
A56
  3
D2
350
A57
  0
DICTIONARY
  5
19A940
102
{ACAD_REACTORS
330
C
102
}
330
C
100
AcDbDictionary
281
     1
  0
XRECORD
  5
AB4
102
{ACAD_REACTORS
330
C
102
}
330
C
100
AcDbXrecord
280
     1
 90
   990106
  3
OPEN
 60
     0
 61
     0
 62
     1
 63
     3
 64
     1
 65
     0
 66
     0
 67
     3
 68
     1
 69
     0
 70
     0
 71
     0
 72
     0
 40
0.0
170
     2
  0
DICTIONARY
  5
6DE
102
{ACAD_REACTORS
330
C
102
}
330
C
100
AcDbDictionary
281
     1
  3
DIMASSOC
350
6DF
  3
INDEXCTL
350
A93
  3
PROJECTNAME
350
6E0
  3
SORTENTS
350
A92
  0
DICTIONARY
  5
14A3BB
102
{ACAD_REACTORS
330
C
102
}
330
C
100
AcDbDictionary
281
     1
  0
DICTIONARY
  5
12DBDE
102
{ACAD_REACTORS
330
C
102
}
330
C
100
AcDbDictionary
281
     1
  0
XRECORD
  5
1CAAAC
102
{ACAD_REACTORS
330
C
102
}
330
C
100
AcDbXrecord
280
     1
  1
DWGPROPS COOKIE
  2

  3

  4

  6

  7

  8
SPAX
  9

300
=
301
=
302
=
303
=
304
=
305
=
306
=
307
=
308
=
309
=
 40
0.0
 41
2448636.244629618
 42
2458075.064645741
  1

 90
        0
  0
DICTIONARY
  5
8C0
102
{ACAD_REACTORS
330
8BF
102
}
330
8BF
100
AcDbDictionary
281
     1
  0
XRECORD
  5
A61
102
{ACAD_REACTORS
330
A60
102
}
330
A60
100
AcDbXrecord
280
     1
290
     1
  0
XRECORD
  5
A67
102
{ACAD_REACTORS
330
A66
102
}
330
A66
100
AcDbXrecord
280
     1
290
     1
  0
XRECORD
  5
A6F
102
{ACAD_REACTORS
330
A6E
102
}
330
A6E
100
AcDbXrecord
280
     1
290
     1
  0
SORTENTSTABLE
  5
1440
102
{ACAD_REACTORS
330
143F
102
}
330
143F
100
AcDbSortentsTable
330
18
331
0
  5
FB0C5
331
D0CC6
  5
D0CC6
331
F6D77
  5
F6D77
331
F6D78
  5
F6D78
  0
LAYOUT
  5
619
102
{ACAD_REACTORS
330
617
102
}
330
617
100
AcDbPlotSettings
  1

  2
JUST PDF 3
  4
A4
  6

 40
3.174999952316284
 41
3.174999952316284
 42
3.175003051757812
 43
3.17498779296875
 44
209.8886566162109
 45
297.0530090332031
 46
14.27171755861491
 47
9.855173074625782
 48
9481.001208193247
 49
-5530.181659437563
140
9830.991645183061
141
-4988.19630916023
142
1.0
143
2.0
 70
  3748
 72
     1
 73
     0
 74
     4
  7
spax form.ctb
 75
    16
147
1.0
148
-9481.001208193247
149
5530.181659437563
100
AcDbLayout
  1
Model
 70
     1
 71
     0
 10
0.0
 20
0.0
 11
12.0
 21
9.0
 12
0.0
 22
0.0
 32
0.0
 14
11500.01562038183
 24
-6736.916358483896
 34
0.0
 15
11679.93562038183
 25
-6566.777278213825
 35
0.0
146
0.0
 13
0.0
 23
0.0
 33
0.0
 16
1.0
 26
0.0
 36
0.0
 17
0.0
 27
1.0
 37
0.0
 76
     0
330
18
331
12C7D1
1001
ACAD_PSEXT
1000
JUST PDF 3
1000
JUST PDF 3
1000
JUST PDF 3 Port:
1000

1070
     0
  0
LAYOUT
  5
61A
102
{ACAD_REACTORS
330
617
102
}
330
617
100
AcDbPlotSettings
  1

  2
Canon LASER SHOT LBP-750
  4

  6

 40
0.0
 41
0.0
 42
0.0
 43
0.0
 44
0.0
 45
0.0
 46
0.0
 47
0.0
 48
0.0
 49
0.0
140
0.0
141
0.0
142
1.0
143
1.0
 70
   688
 72
     0
 73
     0
 74
     5
  7
spax form.ctb
 75
    16
147
1.0
148
0.0
149
0.0
100
AcDbLayout
  1
ﾚｲｱｳﾄ1
 70
     0
 71
     1
 10
0.0
 20
0.0
 11
12.0
 21
9.0
 12
0.0
 22
0.0
 32
0.0
 14
1.000000000000000E+20
 24
1.000000000000000E+20
 34
1.000000000000000E+20
 15
-1.000000000000000E+20
 25
-1.000000000000000E+20
 35
-1.000000000000000E+20
146
0.0
 13
0.0
 23
0.0
 33
0.0
 16
1.0
 26
0.0
 36
0.0
 17
0.0
 27
1.0
 37
0.0
 76
     0
330
15
  0
MLINESTYLE
  5
1B
102
{ACAD_REACTORS
330
E
102
}
330
E
100
AcDbMlineStyle
  2
STANDARD
 70
     0
  3

 62
     0
 51
90.0
 52
90.0
 71
     2
 49
0.5
 62
   256
  6
BYLAYER
 49
-0.5
 62
   256
  6
BYLAYER
  0
ACDBPLACEHOLDER
  5
616
102
{ACAD_REACTORS
330
615
102
}
330
615
  0
SCALE
  5
A37
102
{ACAD_REACTORS
330
A36
102
}
330
A36
100
AcDbScale
 70
     0
300
1:1
140
1.0
141
1.0
290
     1
  0
SCALE
  5
A38
102
{ACAD_REACTORS
330
A36
102
}
330
A36
100
AcDbScale
 70
     0
300
1:2
140
1.0
141
2.0
290
     0
  0
SCALE
  5
A39
102
{ACAD_REACTORS
330
A36
102
}
330
A36
100
AcDbScale
 70
     0
300
1:4
140
1.0
141
4.0
290
     0
  0
SCALE
  5
A3A
102
{ACAD_REACTORS
330
A36
102
}
330
A36
100
AcDbScale
 70
     0
300
1:5
140
1.0
141
5.0
290
     0
  0
SCALE
  5
A3B
102
{ACAD_REACTORS
330
A36
102
}
330
A36
100
AcDbScale
 70
     0
300
1:8
140
1.0
141
8.0
290
     0
  0
SCALE
  5
A3C
102
{ACAD_REACTORS
330
A36
102
}
330
A36
100
AcDbScale
 70
     0
300
1:10
140
1.0
141
10.0
290
     0
  0
SCALE
  5
A3D
102
{ACAD_REACTORS
330
A36
102
}
330
A36
100
AcDbScale
 70
     0
300
1:16
140
1.0
141
16.0
290
     0
  0
SCALE
  5
A3E
102
{ACAD_REACTORS
330
A36
102
}
330
A36
100
AcDbScale
 70
     0
300
1:20
140
1.0
141
20.0
290
     0
  0
SCALE
  5
A3F
102
{ACAD_REACTORS
330
A36
102
}
330
A36
100
AcDbScale
 70
     0
300
1:30
140
1.0
141
30.0
290
     0
  0
SCALE
  5
A40
102
{ACAD_REACTORS
330
A36
102
}
330
A36
100
AcDbScale
 70
     0
300
1:40
140
1.0
141
40.0
290
     0
  0
SCALE
  5
A41
102
{ACAD_REACTORS
330
A36
102
}
330
A36
100
AcDbScale
 70
     0
300
1:50
140
1.0
141
50.0
290
     0
  0
SCALE
  5
A42
102
{ACAD_REACTORS
330
A36
102
}
330
A36
100
AcDbScale
 70
     0
300
1:100
140
1.0
141
100.0
290
     0
  0
SCALE
  5
A43
102
{ACAD_REACTORS
330
A36
102
}
330
A36
100
AcDbScale
 70
     0
300
2:1
140
2.0
141
1.0
290
     0
  0
SCALE
  5
A44
102
{ACAD_REACTORS
330
A36
102
}
330
A36
100
AcDbScale
 70
     0
300
4:1
140
4.0
141
1.0
290
     0
  0
SCALE
  5
A45
102
{ACAD_REACTORS
330
A36
102
}
330
A36
100
AcDbScale
 70
     0
300
8:1
140
8.0
141
1.0
290
     0
  0
SCALE
  5
A46
102
{ACAD_REACTORS
330
A36
102
}
330
A36
100
AcDbScale
 70
     0
300
10:1
140
10.0
141
1.0
290
     0
  0
SCALE
  5
A47
102
{ACAD_REACTORS
330
A36
102
}
330
A36
100
AcDbScale
 70
     0
300
100:1
140
100.0
141
1.0
290
     0
  0
SCALE
  5
A48
102
{ACAD_REACTORS
330
A36
102
}
330
A36
100
AcDbScale
 70
     0
300
1/128" = 1'-0"
140
0.0078125
141
12.0
290
     0
  0
SCALE
  5
A49
102
{ACAD_REACTORS
330
A36
102
}
330
A36
100
AcDbScale
 70
     0
300
1/64" = 1'-0"
140
0.015625
141
12.0
290
     0
  0
SCALE
  5
A4A
102
{ACAD_REACTORS
330
A36
102
}
330
A36
100
AcDbScale
 70
     0
300
1/32" = 1'-0"
140
0.03125
141
12.0
290
     0
  0
SCALE
  5
A4B
102
{ACAD_REACTORS
330
A36
102
}
330
A36
100
AcDbScale
 70
     0
300
1/16" = 1'-0"
140
0.0625
141
12.0
290
     0
  0
SCALE
  5
A4C
102
{ACAD_REACTORS
330
A36
102
}
330
A36
100
AcDbScale
 70
     0
300
3/32" = 1'-0"
140
0.09375
141
12.0
290
     0
  0
SCALE
  5
A4D
102
{ACAD_REACTORS
330
A36
102
}
330
A36
100
AcDbScale
 70
     0
300
1/8" = 1'-0"
140
0.125
141
12.0
290
     0
  0
SCALE
  5
A4E
102
{ACAD_REACTORS
330
A36
102
}
330
A36
100
AcDbScale
 70
     0
300
3/16" = 1'-0"
140
0.1875
141
12.0
290
     0
  0
SCALE
  5
A4F
102
{ACAD_REACTORS
330
A36
102
}
330
A36
100
AcDbScale
 70
     0
300
1/4" = 1'-0"
140
0.25
141
12.0
290
     0
  0
SCALE
  5
A50
102
{ACAD_REACTORS
330
A36
102
}
330
A36
100
AcDbScale
 70
     0
300
3/8" = 1'-0"
140
0.375
141
12.0
290
     0
  0
SCALE
  5
A51
102
{ACAD_REACTORS
330
A36
102
}
330
A36
100
AcDbScale
 70
     0
300
1/2" = 1'-0"
140
0.5
141
12.0
290
     0
  0
SCALE
  5
A52
102
{ACAD_REACTORS
330
A36
102
}
330
A36
100
AcDbScale
 70
     0
300
3/4" = 1'-0"
140
0.75
141
12.0
290
     0
  0
SCALE
  5
A53
102
{ACAD_REACTORS
330
A36
102
}
330
A36
100
AcDbScale
 70
     0
300
1" = 1'-0"
140
1.0
141
12.0
290
     0
  0
SCALE
  5
A54
102
{ACAD_REACTORS
330
A36
102
}
330
A36
100
AcDbScale
 70
     0
300
1-1/2" = 1'-0"
140
1.5
141
12.0
290
     0
  0
SCALE
  5
A55
102
{ACAD_REACTORS
330
A36
102
}
330
A36
100
AcDbScale
 70
     0
300
3" = 1'-0"
140
3.0
141
12.0
290
     0
  0
SCALE
  5
A56
102
{ACAD_REACTORS
330
A36
102
}
330
A36
100
AcDbScale
 70
     0
300
6" = 1'-0"
140
6.0
141
12.0
290
     0
  0
SCALE
  5
A57
102
{ACAD_REACTORS
330
A36
102
}
330
A36
100
AcDbScale
 70
     0
300
1'-0" = 1'-0"
140
12.0
141
12.0
290
     0
  0
DICTIONARYVAR
  5
6DF
102
{ACAD_REACTORS
330
6DE
102
}
330
6DE
100
DictionaryVariables
280
     0
  1
1
  0
DICTIONARYVAR
  5
A93
102
{ACAD_REACTORS
330
6DE
102
}
330
6DE
100
DictionaryVariables
280
     0
  1
0
  0
DICTIONARYVAR
  5
6E0
102
{ACAD_REACTORS
330
6DE
102
}
330
6DE
100
DictionaryVariables
280
     0
  1

  0
DICTIONARYVAR
  5
A92
102
{ACAD_REACTORS
330
6DE
102
}
330
6DE
100
DictionaryVariables
280
     0
  1
127
  0
ENDSEC
  0
EOF
