  0
SECTION
  2
HEADER
  9
$ACADVER
  1
AC1015
  9
$ACADMAINTVER
 70
     6
  9
$DWGCODEPAGE
  3
ANSI_932
  9
$INSBASE
 10
0.0
 20
0.0
 30
0.0
  9
$EXTMIN
 10
10838.91170884494
 20
-3413.626124561721
 30
0.0
  9
$EXTMAX
 10
13830.18181512672
 20
-1268.132123344721
 30
0.0
  9
$LIMMIN
 10
0.0
 20
0.0
  9
$LIMMAX
 10
420.0
 20
297.0
  9
$ORTHOMODE
 70
     1
  9
$REGENMODE
 70
     1
  9
$FILLMODE
 70
     1
  9
$QTEXTMODE
 70
     0
  9
$MIRRTEXT
 70
     1
  9
$LTSCALE
 40
5.0
  9
$ATTMODE
 70
     0
  9
$TEXTSIZE
 40
4.396637488258398
  9
$TRACEWID
 40
1.0
  9
$TEXTSTYLE
  7
STANDARD
  9
$CLAYER
  8
0
  9
$CELTYPE
  6
BYLAYER
  9
$CECOLOR
 62
   256
  9
$CELTSCALE
 40
1.0
  9
$DISPSILH
 70
     0
  9
$DIMSCALE
 40
1.0
  9
$DIMASZ
 40
2.5
  9
$DIMEXO
 40
1.5
  9
$DIMDLI
 40
0.38
  9
$DIMRND
 40
0.0
  9
$DIMDLE
 40
0.0
  9
$DIMEXE
 40
1.0
  9
$DIMTP
 40
0.0
  9
$DIMTM
 40
0.0
  9
$DIMTXT
 40
2.500000000000003
  9
$DIMCEN
 40
0.0
  9
$DIMTSZ
 40
0.0
  9
$DIMTOL
 70
     0
  9
$DIMLIM
 70
     0
  9
$DIMTIH
 70
     0
  9
$DIMTOH
 70
     0
  9
$DIMSE1
 70
     0
  9
$DIMSE2
 70
     0
  9
$DIMTAD
 70
     3
  9
$DIMZIN
 70
     8
  9
$DIMBLK
  1

  9
$DIMASO
 70
     1
  9
$DIMSHO
 70
     0
  9
$DIMPOST
  1

  9
$DIMAPOST
  1

  9
$DIMALT
 70
     0
  9
$DIMALTD
 70
     0
  9
$DIMALTF
 40
25.4
  9
$DIMLFAC
 40
1.0
  9
$DIMTOFL
 70
     1
  9
$DIMTVP
 40
0.0
  9
$DIMTIX
 70
     0
  9
$DIMSOXD
 70
     0
  9
$DIMSAH
 70
     1
  9
$DIMBLK1
  1
OPEN
  9
$DIMBLK2
  1
OPEN
  9
$DIMSTYLE
  2
STANDARD
  9
$DIMCLRD
 70
     8
  9
$DIMCLRE
 70
     8
  9
$DIMCLRT
 70
   256
  9
$DIMTFAC
 40
1.0
  9
$DIMGAP
 40
1.0
  9
$DIMJUST
 70
     0
  9
$DIMSD1
 70
     0
  9
$DIMSD2
 70
     0
  9
$DIMTOLJ
 70
     1
  9
$DIMTZIN
 70
     0
  9
$DIMALTZ
 70
     0
  9
$DIMALTTZ
 70
     0
  9
$DIMUPT
 70
     0
  9
$DIMDEC
 70
     2
  9
$DIMTDEC
 70
     2
  9
$DIMALTU
 70
     2
  9
$DIMALTTD
 70
     0
  9
$DIMTXSTY
  7
STANDARD
  9
$DIMAUNIT
 70
     0
  9
$DIMADEC
 70
     2
  9
$DIMALTRND
 40
0.0
  9
$DIMAZIN
 70
     2
  9
$DIMDSEP
 70
    46
  9
$DIMATFIT
 70
     1
  9
$DIMFRAC
 70
     0
  9
$DIMLDRBLK
  1
OPEN
  9
$DIMLUNIT
 70
     2
  9
$DIMLWD
 70
    -2
  9
$DIMLWE
 70
    -2
  9
$DIMTMOVE
 70
     0
  9
$LUNITS
 70
     2
  9
$LUPREC
 70
     2
  9
$SKETCHINC
 40
0.1
  9
$FILLETRAD
 40
15.5
  9
$AUNITS
 70
     0
  9
$AUPREC
 70
     1
  9
$MENU
  1
FM
  9
$ELEVATION
 40
0.0
  9
$PELEVATION
 40
0.0
  9
$THICKNESS
 40
0.0
  9
$LIMCHECK
 70
     0
  9
$CHAMFERA
 40
0.0
  9
$CHAMFERB
 40
0.0
  9
$CHAMFERC
 40
0.0
  9
$CHAMFERD
 40
0.0
  9
$SKPOLY
 70
     0
  9
$TDCREATE
 40
2448636.619629618
  9
$TDUCREATE
 40
2448636.244629618
  9
$TDUPDATE
 40
2458075.696033577
  9
$TDUUPDATE
 40
2458075.321033577
  9
$TDINDWG
 40
49.7359675
  9
$TDUSRTIMER
 40
2458075.320091713
  9
$USRTIMER
 70
     1
  9
$ANGBASE
 50
0.0
  9
$ANGDIR
 70
     0
  9
$PDMODE
 70
     3
  9
$PDSIZE
 40
0.0
  9
$PLINEWID
 40
0.0
  9
$SPLFRAME
 70
     0
  9
$SPLINETYPE
 70
     6
  9
$SPLINESEGS
 70
     8
  9
$HANDSEED
  5
1E0167
  9
$SURFTAB1
 70
     6
  9
$SURFTAB2
 70
     6
  9
$SURFTYPE
 70
     6
  9
$SURFU
 70
     6
  9
$SURFV
 70
     6
  9
$UCSBASE
  2

  9
$UCSNAME
  2

  9
$UCSORG
 10
0.0
 20
0.0
 30
0.0
  9
$UCSXDIR
 10
1.0
 20
0.0
 30
0.0
  9
$UCSYDIR
 10
0.0
 20
1.0
 30
0.0
  9
$UCSORTHOREF
  2

  9
$UCSORTHOVIEW
 70
     0
  9
$UCSORGTOP
 10
0.0
 20
0.0
 30
0.0
  9
$UCSORGBOTTOM
 10
0.0
 20
0.0
 30
0.0
  9
$UCSORGLEFT
 10
0.0
 20
0.0
 30
0.0
  9
$UCSORGRIGHT
 10
0.0
 20
0.0
 30
0.0
  9
$UCSORGFRONT
 10
0.0
 20
0.0
 30
0.0
  9
$UCSORGBACK
 10
0.0
 20
0.0
 30
0.0
  9
$PUCSBASE
  2

  9
$PUCSNAME
  2

  9
$PUCSORG
 10
0.0
 20
0.0
 30
0.0
  9
$PUCSXDIR
 10
1.0
 20
0.0
 30
0.0
  9
$PUCSYDIR
 10
0.0
 20
1.0
 30
0.0
  9
$PUCSORTHOREF
  2

  9
$PUCSORTHOVIEW
 70
     0
  9
$PUCSORGTOP
 10
0.0
 20
0.0
 30
0.0
  9
$PUCSORGBOTTOM
 10
0.0
 20
0.0
 30
0.0
  9
$PUCSORGLEFT
 10
0.0
 20
0.0
 30
0.0
  9
$PUCSORGRIGHT
 10
0.0
 20
0.0
 30
0.0
  9
$PUCSORGFRONT
 10
0.0
 20
0.0
 30
0.0
  9
$PUCSORGBACK
 10
0.0
 20
0.0
 30
0.0
  9
$USERI1
 70
     0
  9
$USERI2
 70
     0
  9
$USERI3
 70
     0
  9
$USERI4
 70
     0
  9
$USERI5
 70
     0
  9
$USERR1
 40
0.0
  9
$USERR2
 40
0.0
  9
$USERR3
 40
0.0
  9
$USERR4
 40
0.0
  9
$USERR5
 40
0.0
  9
$WORLDVIEW
 70
     0
  9
$SHADEDGE
 70
     3
  9
$SHADEDIF
 70
    70
  9
$TILEMODE
 70
     1
  9
$MAXACTVP
 70
    16
  9
$PINSBASE
 10
0.0
 20
0.0
 30
0.0
  9
$PLIMCHECK
 70
     0
  9
$PEXTMIN
 10
1.000000000000000E+20
 20
1.000000000000000E+20
 30
1.000000000000000E+20
  9
$PEXTMAX
 10
-1.000000000000000E+20
 20
-1.000000000000000E+20
 30
-1.000000000000000E+20
  9
$PLIMMIN
 10
0.0
 20
0.0
  9
$PLIMMAX
 10
0.0
 20
0.0
  9
$UNITMODE
 70
     0
  9
$VISRETAIN
 70
     0
  9
$PLINEGEN
 70
     0
  9
$PSLTSCALE
 70
     0
  9
$TREEDEPTH
 70
  3020
  9
$CMLSTYLE
  2
STANDARD
  9
$CMLJUST
 70
     0
  9
$CMLSCALE
 40
1.0
  9
$PROXYGRAPHICS
 70
     1
  9
$MEASUREMENT
 70
     0
  9
$CELWEIGHT
370
    -1
  9
$ENDCAPS
280
     0
  9
$JOINSTYLE
280
     0
  9
$LWDISPLAY
290
     0
  9
$INSUNITS
 70
     0
  9
$HYPERLINKBASE
  1

  9
$STYLESHEET
  1
spax form.ctb
  9
$XEDIT
290
     1
  9
$CEPSNTYPE
380
     0
  9
$PSTYLEMODE
290
     1
  9
$FINGERPRINTGUID
  2
{BBAEEBA6-8B94-11D3-9160-00E0294F7E09}
  9
$VERSIONGUID
  2
{D401CBA7-5C2D-4869-8813-88EA9E11B279}
  9
$EXTNAMES
290
     1
  9
$PSVPSCALE
 40
0.0
  9
$OLESTARTUP
290
     0
  0
ENDSEC
  0
SECTION
  2
CLASSES
  0
CLASS
  1
LWPOLYLINE
  2
AcDbPolyline
  3
ObjectDBX Classes
 90
        0
280
     0
281
     1
  0
CLASS
  1
ACDBDICTIONARYWDFLT
  2
AcDbDictionaryWithDefault
  3
ObjectDBX Classes
 90
        0
280
     0
281
     0
  0
CLASS
  1
ACDBPLACEHOLDER
  2
AcDbPlaceHolder
  3
ObjectDBX Classes
 90
        0
280
     0
281
     0
  0
CLASS
  1
LAYOUT
  2
AcDbLayout
  3
ObjectDBX Classes
 90
        0
280
     0
281
     0
  0
CLASS
  1
DICTIONARYVAR
  2
AcDbDictionaryVar
  3
ObjectDBX Classes
 90
        0
280
     0
281
     0
  0
CLASS
  1
MATERIAL
  2
AcDbMaterial
  3
ObjectDBX Classes
 90
     1153
280
     0
281
     0
  0
CLASS
  1
VISUALSTYLE
  2
AcDbVisualStyle
  3
ObjectDBX Classes
 90
     4095
280
     0
281
     0
  0
CLASS
  1
TABLESTYLE
  2
AcDbTableStyle
  3
ObjectDBX Classes
 90
     4095
280
     0
281
     0
  0
CLASS
  1
SCALE
  2
AcDbScale
  3
ObjectDBX Classes
 90
     1153
280
     0
281
     0
  0
CLASS
  1
MLEADERSTYLE
  2
AcDbMLeaderStyle
  3
ACDB_MLEADERSTYLE_CLASS
 90
     4095
280
     0
281
     0
  0
CLASS
  1
CELLSTYLEMAP
  2
AcDbCellStyleMap
  3
ObjectDBX Classes
 90
     1152
280
     0
281
     0
  0
CLASS
  1
SORTENTSTABLE
  2
AcDbSortentsTable
  3
ObjectDBX Classes
 90
        0
280
     0
281
     0
  0
CLASS
  1
MULTILEADER
  2
AcDbMLeader
  3
ACDB_MLEADER_CLASS
 90
     1025
280
     0
281
     1
  0
CLASS
  1
DIMASSOC
  2
AcDbDimAssoc
  3
"AcDbDimAssoc|Product Desc:     AcDim ARX App For Dimension|Company:          Autodesk, Inc.|WEB Address:      www.autodesk.com"
 90
        0
280
     0
281
     0
  0
CLASS
  1
RASTERVARIABLES
  2
AcDbRasterVariables
  3
ISM
 90
        0
280
     0
281
     0
  0
CLASS
  1
SUN
  2
AcDbSun
  3
SCENEOE
 90
     1153
280
     0
281
     0
  0
CLASS
  1
AEC_VARS_DWG_SETUP
  2
AecDbVarsDwgSetup
  3
AecBase60
 90
      129
280
     0
281
     0
  0
ENDSEC
  0
SECTION
  2
TABLES
  0
TABLE
  2
VPORT
  5
8
330
0
100
AcDbSymbolTable
 70
     1
  0
VPORT
  5
12C7D1
330
8
100
AcDbSymbolTableRecord
100
AcDbViewportTableRecord
  2
*Active
 70
     0
 10
0.0
 20
0.0
 11
1.0
 21
1.0
 12
11643.88509097408
 22
-3315.730520451044
 13
0.0
 23
0.0
 14
1.0
 24
1.0
 15
20.0
 25
20.0
 16
0.0
 26
0.0
 36
1.0
 17
0.0
 27
0.0
 37
0.0
 40
244.431162465023
 41
2.023929471032746
 42
50.0
 43
0.0
 44
0.0
 50
0.0
 51
0.0
 71
    16
 72
   100
 73
     1
 74
     0
 75
     0
 76
     0
 77
     0
 78
     0
281
     0
 65
     1
110
0.0
120
0.0
130
0.0
111
1.0
121
0.0
131
0.0
112
0.0
122
1.0
132
0.0
 79
     0
146
0.0
  0
ENDTAB
  0
TABLE
  2
LTYPE
  5
5
330
0
100
AcDbSymbolTable
 70
     2
  0
LTYPE
  5
12
330
5
100
AcDbSymbolTableRecord
100
AcDbLinetypeTableRecord
  2
BYBLOCK
 70
     0
  3

 72
    65
 73
     0
 40
0.0
  0
LTYPE
  5
13
330
5
100
AcDbSymbolTableRecord
100
AcDbLinetypeTableRecord
  2
BYLAYER
 70
     0
  3

 72
    65
 73
     0
 40
0.0
  0
LTYPE
  5
14
330
5
100
AcDbSymbolTableRecord
100
AcDbLinetypeTableRecord
  2
CONTINUOUS
 70
     0
  3
Solid line
 72
    65
 73
     0
 40
0.0
  0
LTYPE
  5
188075
330
5
100
AcDbSymbolTableRecord
100
AcDbLinetypeTableRecord
  2
SLD-実線
 70
     0
  3
SolidWorks Line Style
 72
    65
 73
     0
 40
0.0
  0
ENDTAB
  0
TABLE
  2
LAYER
  5
2
102
{ACAD_XDICTIONARY
360
8BF
102
}
330
0
100
AcDbSymbolTable
 70
     5
  0
LAYER
  5
F
102
{ACAD_XDICTIONARY
360
A60
102
}
330
2
100
AcDbSymbolTableRecord
100
AcDbLayerTableRecord
  2
0
 70
     0
 62
     7
  6
CONTINUOUS
370
    -3
390
616
  0
LAYER
  5
34
102
{ACAD_XDICTIONARY
360
A66
102
}
330
2
100
AcDbSymbolTableRecord
100
AcDbLayerTableRecord
  2
寸法線
 70
     0
 62
     7
  6
CONTINUOUS
370
    -3
390
616
  0
LAYER
  5
2F4
102
{ACAD_XDICTIONARY
360
A6E
102
}
330
2
100
AcDbSymbolTableRecord
100
AcDbLayerTableRecord
  2
文字
 70
     0
 62
     7
  6
CONTINUOUS
370
    -3
390
616
  0
LAYER
  5
140A37
330
2
100
AcDbSymbolTableRecord
100
AcDbLayerTableRecord
  2
ロゴ：MODULEX
 70
     0
 62
     7
  6
CONTINUOUS
370
    -3
390
616
  0
LAYER
  5
1CACB4
330
2
100
AcDbSymbolTableRecord
100
AcDbLayerTableRecord
  2
ハッチング
 70
     0
 62
     8
  6
SLD-実線
370
    -3
390
616
  0
ENDTAB
  0
TABLE
  2
STYLE
  5
3
330
0
100
AcDbSymbolTable
 70
     1
  0
STYLE
  5
10
330
3
100
AcDbSymbolTableRecord
100
AcDbTextStyleTableRecord
  2
STANDARD
 70
     0
 40
0.0
 41
1.0
 50
0.0
 71
     0
 42
4.396637488258398
  3
MONOTXT
  4
BIGFONT
  0
ENDTAB
  0
TABLE
  2
VIEW
  5
6
330
0
100
AcDbSymbolTable
 70
     0
  0
ENDTAB
  0
TABLE
  2
UCS
  5
7
330
0
100
AcDbSymbolTable
 70
     0
  0
ENDTAB
  0
TABLE
  2
APPID
  5
9
330
0
100
AcDbSymbolTable
 70
    17
  0
APPID
  5
11
330
9
100
AcDbSymbolTableRecord
100
AcDbRegAppTableRecord
  2
ACAD
 70
     0
  0
APPID
  5
8BB
330
9
100
AcDbSymbolTableRecord
100
AcDbRegAppTableRecord
  2
ACAD_PSEXT
 70
     0
  0
APPID
  5
A5A
330
9
100
AcDbSymbolTableRecord
100
AcDbRegAppTableRecord
  2
ACAD_MLEADERVER
 70
     0
  0
APPID
  5
A5E
330
9
100
AcDbSymbolTableRecord
100
AcDbRegAppTableRecord
  2
ACAD_DSTYLE_DIMJAG
 70
     0
  0
APPID
  5
A5F
330
9
100
AcDbSymbolTableRecord
100
AcDbRegAppTableRecord
  2
ACAD_DSTYLE_DIMTALN
 70
     0
  0
APPID
  5
12C0
330
9
100
AcDbSymbolTableRecord
100
AcDbRegAppTableRecord
  2
ACAD_EXEMPT_FROM_CAD_STANDARDS
 70
     0
  0
APPID
  5
1C50
330
9
100
AcDbSymbolTableRecord
100
AcDbRegAppTableRecord
  2
AcAecLayerStandard
 70
     0
  0
APPID
  5
5088
330
9
100
AcDbSymbolTableRecord
100
AcDbRegAppTableRecord
  2
ACAD_DSTYLE_DIMRADIAL_EXTENSION
 70
     0
  0
APPID
  5
14AF3
330
9
100
AcDbSymbolTableRecord
100
AcDbRegAppTableRecord
  2
WACOM_STRING
 70
     0
  0
APPID
  5
14AF4
330
9
100
AcDbSymbolTableRecord
100
AcDbRegAppTableRecord
  2
WACOM_DRSYM_ARROW
 70
     0
  0
APPID
  5
1E1A8
330
9
100
AcDbSymbolTableRecord
100
AcDbRegAppTableRecord
  2
GENIUS_GENODEF_13
 70
     0
  0
APPID
  5
1E1A9
330
9
100
AcDbSymbolTableRecord
100
AcDbRegAppTableRecord
  2
GENIUS_GENREC_14
 70
     0
  0
APPID
  5
1E1AA
330
9
100
AcDbSymbolTableRecord
100
AcDbRegAppTableRecord
  2
GENIUS_GENOBJ-N-REC_13
 70
     0
  0
APPID
  5
27C72
330
9
100
AcDbSymbolTableRecord
100
AcDbRegAppTableRecord
  2
ASK_MEN_XD
 70
     0
  0
APPID
  5
29316
330
9
100
AcDbSymbolTableRecord
100
AcDbRegAppTableRecord
  2
ACAD_DSTYLE_DIMBREAK
 70
     0
  0
APPID
  5
1318B0
330
9
100
AcDbSymbolTableRecord
100
AcDbRegAppTableRecord
  2
ACAD_SPLINE_DATA
 70
     0
  0
APPID
  5
1318B1
330
9
100
AcDbSymbolTableRecord
100
AcDbRegAppTableRecord
  2
ACAD_SPLINE_DATA2
 70
     0
  0
ENDTAB
  0
TABLE
  2
DIMSTYLE
  5
A
330
0
100
AcDbSymbolTable
 70
     1
100
AcDbDimStyleTable
  0
DIMSTYLE
105
1CC
330
A
100
AcDbSymbolTableRecord
100
AcDbDimStyleTableRecord
  2
STANDARD
 70
     0
 41
2.5
 42
1.5
 44
1.0
 73
     0
 74
     0
 77
     3
 78
     8
 79
     2
140
2.500000000000003
141
0.0
147
1.0
171
     0
172
     1
173
     1
176
     8
177
     8
271
     2
178
   256
179
     2
271
     2
272
     2
274
     0
289
     1
340
10
341
608
343
608
344
608
1001
ACAD_DSTYLE_DIMJAG
1070
   388
1040
1.5
1001
ACAD_DSTYLE_DIMTALN
1070
   392
1070
     0
  0
ENDTAB
  0
TABLE
  2
BLOCK_RECORD
  5
1
330
0
100
AcDbSymbolTable
 70
     1
  0
BLOCK_RECORD
  5
18
102
{ACAD_XDICTIONARY
360
143F
102
}
330
1
100
AcDbSymbolTableRecord
100
AcDbBlockTableRecord
  2
*MODEL_SPACE
340
619
  0
BLOCK_RECORD
  5
15
330
1
100
AcDbSymbolTableRecord
100
AcDbBlockTableRecord
  2
*PAPER_SPACE
340
61A
  0
BLOCK_RECORD
  5
608
330
1
100
AcDbSymbolTableRecord
100
AcDbBlockTableRecord
  2
_OPEN
340
0
  0
ENDTAB
  0
ENDSEC
  0
SECTION
  2
BLOCKS
  0
BLOCK
  5
39
330
18
100
AcDbEntity
  8
0
100
AcDbBlockBegin
  2
*MODEL_SPACE
 70
     0
 10
0.0
 20
0.0
 30
0.0
  3
*MODEL_SPACE
  1
*MODEL_SPACE
  0
ENDBLK
  5
3A
330
18
100
AcDbEntity
  8
0
100
AcDbBlockEnd
  0
BLOCK
  5
37
330
15
100
AcDbEntity
 67
     1
  8
0
100
AcDbBlockBegin
  2
*PAPER_SPACE
 70
     0
 10
0.0
 20
0.0
 30
0.0
  3
*PAPER_SPACE
  1
*PAPER_SPACE
  0
ENDBLK
  5
38
330
15
100
AcDbEntity
 67
     1
  8
0
100
AcDbBlockEnd
  0
BLOCK
  5
609
330
608
100
AcDbEntity
  8
0
100
AcDbBlockBegin
  2
_OPEN
 70
     0
 10
0.0
 20
0.0
 30
0.0
  3
_OPEN
  1
_OPEN
  0
LINE
  5
60A
330
608
100
AcDbEntity
  8
0
  6
ByBlock
 62
     0
100
AcDbLine
 10
-1.0
 20
0.1666666666666667
 30
0.0
 11
0.0
 21
0.0
 31
0.0
  0
LINE
  5
60B
330
608
100
AcDbEntity
  8
0
  6
ByBlock
 62
     0
100
AcDbLine
 10
0.0
 20
0.0
 30
0.0
 11
-1.0
 21
-0.1666666666666667
 31
0.0
  0
LINE
  5
60C
330
608
100
AcDbEntity
  8
0
  6
ByBlock
 62
     0
100
AcDbLine
 10
0.0
 20
0.0
 30
0.0
 11
-1.0
 21
0.0
 31
0.0
  0
ENDBLK
  5
60D
330
608
100
AcDbEntity
  8
0
100
AcDbBlockEnd
  0
ENDSEC
  0
SECTION
  2
ENTITIES
  0
MTEXT
  5
D0CC6
330
18
100
AcDbEntity
  8
寸法線
100
AcDbMText
 10
2610.774875364868
 20
-2740.315466585338
 30
0.0
 40
2.500000000000003
 41
0.0
 71
     9
 72
     1
  1
\A1;
 73
     1
 44
1.0
  0
MTEXT
  5
F6D77
330
18
100
AcDbEntity
  8
文字
100
AcDbMText
 10
5821.057140836062
 20
-2842.341718131323
 30
0.0
 40
2.5
 41
64.39156592258223
 71
     1
 72
     5
  1
   
 73
     1
 44
1.0
  0
MTEXT
  5
F6D78
330
18
100
AcDbEntity
  8
寸法線
100
AcDbMText
 10
6222.662262480188
 20
-2968.738290481128
 30
0.0
 40
3.000000000000001
 41
0.0
 71
     7
 72
     1
  1
\A1;
 73
     1
 44
1.0
  0
HATCH
  5
1CBAD9
330
18
100
AcDbEntity
  8
ハッチング
  6
SLD-実線
 62
     8
370
     0
100
AcDbHatch
 10
0.0
 20
0.0
 30
0.0000000000000014
210
0.0
220
0.0
230
1.0
  2
SOLID
 70
     1
 71
     0
 91
        2
 92
        0
 93
        2
 72
     4
 94
        3
 73
     1
 74
     0
 95
       11
 96
        7
 40
0.0
 40
0.0
 40
0.0
 40
0.0
 40
1.0
 40
1.0
 40
1.0
 40
2.0
 40
2.0
 40
2.0
 40
2.0
 10
10840.20100137934
 20
-1428.676328341588
 42
1.0
 10
10840.20100137934
 20
-1428.320794487511
 42
1.0
 10
10839.91051092802
 20
-1428.032233289666
 42
1.0
 10
10839.5560795045
 20
-1428.032233289666
 42
1.0
 10
10839.20054565042
 20
-1428.032233289666
 42
1.0
 10
10838.91170884494
 20
-1428.320794487511
 42
1.0
 10
10838.91170884494
 20
-1428.676328341588
 42
1.0
 72
     4
 94
        3
 73
     1
 74
     0
 95
       11
 96
        7
 40
2.0
 40
2.0
 40
2.0
 40
2.0
 40
3.0
 40
3.0
 40
3.0
 40
4.0
 40
4.0
 40
4.0
 40
4.0
 10
10838.91170884494
 20
-1428.676328341588
 42
1.0
 10
10838.91170884494
 20
-1429.032413410943
 42
1.0
 10
10839.20054565042
 20
-1429.320974608788
 42
1.0
 10
10839.5560795045
 20
-1429.320974608788
 42
1.0
 10
10839.91051092802
 20
-1429.320974608788
 42
1.0
 10
10840.20100137934
 20
-1429.032413410943
 42
1.0
 10
10840.20100137934
 20
-1428.676328341588
 42
1.0
 97
        0
 92
        0
 93
        2
 72
     4
 94
        3
 73
     1
 74
     0
 95
       11
 96
        7
 40
0.0
 40
0.0
 40
0.0
 40
0.0
 40
1.0
 40
1.0
 40
1.0
 40
2.0
 40
2.0
 40
2.0
 40
2.0
 10
10839.5560795045
 20
-1428.07329882785
 42
1.0
 10
10839.8890135322
 20
-1428.07329882785
 42
1.0
 10
10840.15855780296
 20
-1428.343945529171
 42
1.0
 10
10840.15855780296
 20
-1428.676328341588
 42
1.0
 10
10840.15855780296
 20
-1429.008159938727
 42
1.0
 10
10839.8890135322
 20
-1429.279357855326
 42
1.0
 10
10839.5560795045
 20
-1429.279357855326
 42
1.0
 72
     4
 94
        3
 73
     1
 74
     0
 95
       11
 96
        7
 40
2.0
 40
2.0
 40
2.0
 40
2.0
 40
3.0
 40
3.0
 40
3.0
 40
4.0
 40
4.0
 40
4.0
 40
4.0
 10
10839.5560795045
 20
-1429.279357855326
 42
1.0
 10
10839.22314547681
 20
-1429.279357855326
 42
1.0
 10
10838.95304999076
 20
-1429.008159938727
 42
1.0
 10
10838.95304999076
 20
-1428.676328341588
 42
1.0
 10
10838.95304999076
 20
-1428.343945529171
 42
1.0
 10
10839.22314547681
 20
-1428.07329882785
 42
1.0
 10
10839.5560795045
 20
-1428.07329882785
 42
1.0
 97
        0
 75
     0
 76
     1
 98
        1
 10
10792.47204797941
 20
-1707.155620464524
  0
HATCH
  5
1CE51C
330
18
100
AcDbEntity
  8
ロゴ：MODULEX
 62
     7
100
AcDbHatch
 10
0.0
 20
0.0
 30
0.0
210
0.0
220
0.0
230
1.0
  2
SOLID
 70
     1
 71
     0
 91
        2
 92
        0
 93
        2
 72
     4
 94
        3
 73
     1
 74
     0
 95
       11
 96
        7
 40
0.0
 40
0.0
 40
0.0
 40
0.0
 40
1.0
 40
1.0
 40
1.0
 40
2.0
 40
2.0
 40
2.0
 40
2.0
 10
11871.60602680313
 20
-1268.770163903155
 42
1.0
 10
11871.60602680313
 20
-1268.417972067306
 42
1.0
 10
11871.31826696206
 20
-1268.132123344721
 42
1.0
 10
11870.96716719392
 20
-1268.132123344721
 42
1.0
 10
11870.61497535807
 20
-1268.132123344721
 42
1.0
 10
11870.32885361855
 20
-1268.417972067306
 42
1.0
 10
11870.32885361855
 20
-1268.770163903155
 42
1.0
 72
     4
 94
        3
 73
     1
 74
     0
 95
       11
 96
        7
 40
2.0
 40
2.0
 40
2.0
 40
2.0
 40
3.0
 40
3.0
 40
3.0
 40
4.0
 40
4.0
 40
4.0
 40
4.0
 10
11870.32885361855
 20
-1268.770163903155
 42
1.0
 10
11870.32885361855
 20
-1269.122901772859
 42
1.0
 10
11870.61497535807
 20
-1269.408750495444
 42
1.0
 10
11870.96716719392
 20
-1269.408750495444
 42
1.0
 10
11871.31826696206
 20
-1269.408750495444
 42
1.0
 10
11871.60602680313
 20
-1269.122901772859
 42
1.0
 10
11871.60602680313
 20
-1268.770163903155
 42
1.0
 97
        0
 92
        0
 93
        2
 72
     4
 94
        3
 73
     1
 74
     0
 95
       11
 96
        7
 40
0.0
 40
0.0
 40
0.0
 40
0.0
 40
1.0
 40
1.0
 40
1.0
 40
2.0
 40
2.0
 40
2.0
 40
2.0
 10
11870.96716719392
 20
-1268.172802866846
 42
1.0
 10
11871.29697164175
 20
-1268.172802866846
 42
1.0
 10
11871.56398219637
 20
-1268.440905489175
 42
1.0
 10
11871.56398219637
 20
-1268.770163903155
 42
1.0
 10
11871.56398219637
 20
-1269.098876283281
 42
1.0
 10
11871.29697164175
 20
-1269.367524939464
 42
1.0
 10
11870.96716719392
 20
-1269.367524939464
 42
1.0
 72
     4
 94
        3
 73
     1
 74
     0
 95
       11
 96
        7
 40
2.0
 40
2.0
 40
2.0
 40
2.0
 40
3.0
 40
3.0
 40
3.0
 40
4.0
 40
4.0
 40
4.0
 40
4.0
 10
11870.96716719392
 20
-1269.367524939464
 42
1.0
 10
11870.63736274608
 20
-1269.367524939464
 42
1.0
 10
11870.36980615761
 20
-1269.098876283281
 42
1.0
 10
11870.36980615761
 20
-1268.770163903155
 42
1.0
 10
11870.36980615761
 20
-1268.440905489175
 42
1.0
 10
11870.63736274608
 20
-1268.172802866846
 42
1.0
 10
11870.96716719392
 20
-1268.172802866846
 42
1.0
 97
        0
 75
     0
 76
     1
 98
        1
 10
11826.66559097216
 20
-1547.584096026767
  0
HATCH
  5
1D838D
330
18
100
AcDbEntity
  8
ロゴ：MODULEX
100
AcDbHatch
 10
0.0
 20
0.0
 30
0.0
210
0.0
220
0.0
230
1.0
  2
SOLID
 70
     1
 71
     0
 91
        2
 92
        0
 93
        2
 72
     4
 94
        3
 73
     1
 74
     0
 95
       11
 96
        7
 40
0.0
 40
0.0
 40
0.0
 40
0.0
 40
1.0
 40
1.0
 40
1.0
 40
2.0
 40
2.0
 40
2.0
 40
2.0
 10
13830.18181512672
 20
-2024.334247634853
 42
1.0
 10
13830.18181512672
 20
-2023.982055799004
 42
1.0
 10
13829.89405528564
 20
-2023.696207076419
 42
1.0
 10
13829.5429555175
 20
-2023.696207076419
 42
1.0
 10
13829.19076368165
 20
-2023.696207076419
 42
1.0
 10
13828.90464194214
 20
-2023.982055799004
 42
1.0
 10
13828.90464194214
 20
-2024.334247634853
 42
1.0
 72
     4
 94
        3
 73
     1
 74
     0
 95
       11
 96
        7
 40
2.0
 40
2.0
 40
2.0
 40
2.0
 40
3.0
 40
3.0
 40
3.0
 40
4.0
 40
4.0
 40
4.0
 40
4.0
 10
13828.90464194214
 20
-2024.334247634853
 42
1.0
 10
13828.90464194214
 20
-2024.686985504557
 42
1.0
 10
13829.19076368165
 20
-2024.972834227141
 42
1.0
 10
13829.5429555175
 20
-2024.972834227141
 42
1.0
 10
13829.89405528564
 20
-2024.972834227141
 42
1.0
 10
13830.18181512672
 20
-2024.686985504557
 42
1.0
 10
13830.18181512672
 20
-2024.334247634853
 42
1.0
 97
        0
 92
        0
 93
        2
 72
     4
 94
        3
 73
     1
 74
     0
 95
       11
 96
        7
 40
0.0
 40
0.0
 40
0.0
 40
0.0
 40
1.0
 40
1.0
 40
1.0
 40
2.0
 40
2.0
 40
2.0
 40
2.0
 10
13829.5429555175
 20
-2023.736886598544
 42
1.0
 10
13829.87275996534
 20
-2023.736886598544
 42
1.0
 10
13830.13977051996
 20
-2024.004989220873
 42
1.0
 10
13830.13977051996
 20
-2024.334247634853
 42
1.0
 10
13830.13977051996
 20
-2024.662960014979
 42
1.0
 10
13829.87275996534
 20
-2024.931608671162
 42
1.0
 10
13829.5429555175
 20
-2024.931608671162
 42
1.0
 72
     4
 94
        3
 73
     1
 74
     0
 95
       11
 96
        7
 40
2.0
 40
2.0
 40
2.0
 40
2.0
 40
3.0
 40
3.0
 40
3.0
 40
4.0
 40
4.0
 40
4.0
 40
4.0
 10
13829.5429555175
 20
-2024.931608671162
 42
1.0
 10
13829.21315106967
 20
-2024.931608671162
 42
1.0
 10
13828.94559448119
 20
-2024.662960014979
 42
1.0
 10
13828.94559448119
 20
-2024.334247634853
 42
1.0
 10
13828.94559448119
 20
-2024.004989220873
 42
1.0
 10
13829.21315106967
 20
-2023.736886598544
 42
1.0
 10
13829.5429555175
 20
-2023.736886598544
 42
1.0
 97
        0
 75
     0
 76
     1
 98
        1
 10
13785.24137929575
 20
-2303.148179758464
  0
LINE
  5
1DFED4
330
18
100
AcDbEntity
  8
0
  6
Continuous
 62
     8
370
    -2
100
AcDbLine
 10
11683.2298900732
 20
-3196.213294725656
 30
0.0
 11
11683.07745536218
 21
-3195.911323164268
 31
0.0
  0
LINE
  5
1DFED5
330
18
100
AcDbEntity
  8
0
  6
Continuous
 62
     8
370
    -2
100
AcDbLine
 10
11599.9457636831
 20
-3389.554038637079
 30
0.0
 11
11600.95827344998
 21
-3389.053332714886
 31
0.0
  0
SPLINE
  5
1DFED6
330
18
100
AcDbEntity
  8
0
  6
Continuous
 62
     8
370
    -2
100
AcDbSpline
210
0.0
220
0.0
230
1.0
 70
     8
 71
     3
 72
    13
 73
     9
 74
     0
 42
0.000000001
 43
0.00000001
 40
0.0
 40
0.0
 40
0.0
 40
0.0
 40
0.1602563206092671
 40
0.3506677580276186
 40
0.5299721055193256
 40
0.6985872797410437
 40
0.8569023287974374
 40
1.0
 40
1.0
 40
1.0
 40
1.0
 10
11609.51355915998
 20
-3375.000191920908
 30
0.0
 10
11610.06314709116
 20
-3373.916136776965
 30
0.0
 10
11611.26573783412
 20
-3371.544041963731
 30
0.0
 10
11612.91477055964
 20
-3367.877761254342
 30
0.0
 10
11614.45663605983
 20
-3364.100304810502
 30
0.0
 10
11615.74608614853
 20
-3360.493794403449
 30
0.0
 10
11616.80526165408
 20
-3357.1075454417
 30
0.0
 10
11617.34554014767
 20
-3354.912217619718
 30
0.0
 10
11617.60204091567
 20
-3353.869971298521
 30
0.0
  0
SPLINE
  5
1DFED7
330
18
100
AcDbEntity
  8
0
  6
Continuous
 62
     8
370
    -2
100
AcDbSpline
210
0.0
220
0.0
230
1.0
 70
     8
 71
     3
 72
    14
 73
    10
 74
     0
 42
0.000000001
 43
0.00000001
 40
0.0
 40
0.0
 40
0.0
 40
0.0
 40
0.0622730162558585
 40
0.2051424437167061
 40
0.3570939900205305
 40
0.5189822848462625
 40
0.6910841749796252
 40
0.8740555179330696
 40
0.9999999999999999
 40
0.9999999999999999
 40
0.9999999999999999
 40
0.9999999999999999
 10
11602.42818091029
 20
-3323.275976069926
 30
0.0
 10
11602.00470264989
 20
-3323.08205366731
 30
0.0
 10
11600.60966238328
 20
-3322.443226162947
 30
0.0
 10
11598.09974439352
 20
-3321.464497725275
 30
0.0
 10
11594.84506037498
 20
-3320.324105057676
 30
0.0
 10
11591.32106871949
 20
-3319.257535400784
 30
0.0
 10
11587.52751184711
 20
-3318.271199935958
 30
0.0
 10
11583.96665540065
 20
-3317.466008463965
 30
0.0
 10
11581.66040188937
 20
-3317.049999540262
 30
0.0
 10
11580.7201460641
 20
-3316.880393375127
 30
0.0
  0
LINE
  5
1DFED8
330
18
100
AcDbEntity
  8
0
  6
Continuous
 62
     8
370
    -2
100
AcDbLine
 10
11565.88420940134
 20
-3314.666323733847
 30
0.0
 11
11565.54670638768
 21
-3314.833227903081
 31
0.0
  0
LINE
  5
1DFED9
330
18
100
AcDbEntity
  8
0
  6
Continuous
 62
     8
370
    -2
100
AcDbLine
 10
11564.81318418858
 20
-3315.962265963201
 30
0.0
 11
11563.80067514759
 21
-3316.462971993864
 31
0.0
  0
LINE
  5
1DFEDA
330
18
100
AcDbEntity
  8
0
  6
Continuous
 62
     8
370
    -2
100
AcDbLine
 10
11566.31943328418
 20
-3314.402614015461
 30
0.0
 11
11565.64442435327
 21
-3314.736415443012
 31
0.0
  0
ARC
  5
1DFEDB
330
18
100
AcDbEntity
  8
0
  6
Continuous
 62
     8
370
    -2
100
AcDbCircle
 10
11567.73024716541
 20
-3313.75336212337
 30
0.0
 40
0.1800000000000173
100
AcDbArc
 50
26.49997606353759
 51
114.1461084514461
  0
LINE
  5
1DFEDC
330
18
100
AcDbEntity
  8
0
  6
Continuous
 62
     8
370
    -2
100
AcDbLine
 10
11568.05553004333
 20
-3314.002373131721
 30
0.0
 11
11567.89133569971
 21
-3313.673047746048
 31
0.0
  0
LINE
  5
1DFEDD
330
18
100
AcDbEntity
  8
0
  6
Continuous
 62
     8
370
    -2
100
AcDbLine
 10
11567.65661690523
 20
-3313.589111447944
 30
0.0
 11
11566.48661692824
 21
-3314.113608088849
 31
0.0
  0
LINE
  5
1DFEDE
330
18
100
AcDbEntity
  8
0
  6
Continuous
 62
     8
370
    -2
100
AcDbLine
 10
11563.43943325216
 20
-3315.693682709737
 30
0.0
 11
11562.76442432125
 21
-3316.027484137287
 31
0.0
  0
LINE
  5
1DFEDF
330
18
100
AcDbEntity
  8
0
  6
Continuous
 62
     8
370
    -2
100
AcDbLine
 10
11562.55420940034
 20
-3316.159121895458
 30
0.0
 11
11562.21670638668
 21
-3316.326026064691
 31
0.0
  0
LINE
  5
1DFEE0
330
18
100
AcDbEntity
  8
0
  6
Continuous
 62
     8
370
    -2
100
AcDbLine
 10
11565.6497105086
 20
-3314.722926460054
 30
0.0
 11
11565.65380455137
 21
-3314.731777021345
 31
0.0
  0
ARC
  5
1DFEE1
330
18
100
AcDbEntity
  8
0
  6
Continuous
 62
     8
370
    -2
100
AcDbCircle
 10
11565.81307542646
 20
-3314.647351118369
 30
0.0
 40
0.1799999999999915
100
AcDbArc
 50
116.313376395299
 51
204.8263894107046
  0
LINE
  5
1DFEE2
330
18
100
AcDbEntity
  8
0
  6
Continuous
 62
     8
370
    -2
100
AcDbLine
 10
11566.48045756525
 20
-3314.11650982782
 30
0.0
 11
11565.73328604929
 21
-3314.48600079807
 31
0.0
  0
LWPOLYLINE
  5
1DFEE3
330
18
100
AcDbEntity
  8
0
  6
Continuous
 62
     8
370
    -2
100
AcDbPolyline
 90
        3
 70
   128
 43
0.0
 10
11590.32648954183
 20
-3314.26166997906
 10
11590.03257608445
 20
-3315.112415890253
 10
11589.73866262707
 20
-3315.963168278484
  0
SPLINE
  5
1DFEE4
330
18
100
AcDbEntity
  8
0
  6
Continuous
 62
     8
370
    -2
100
AcDbSpline
210
0.0
220
0.0
230
1.0
 70
     8
 71
     3
 72
    12
 73
     8
 74
     0
 42
0.000000001
 43
0.00000001
 40
0.0
 40
0.0
 40
0.0
 40
0.0
 40
0.1051344606252986
 40
0.3364924045331325
 40
0.5886020777355513
 40
0.8462585659809584
 40
0.9999999999999999
 40
0.9999999999999999
 40
0.9999999999999999
 40
0.9999999999999999
 10
11589.7592533165
 20
-3315.949053555023
 30
0.0
 10
11589.73098137213
 20
-3316.023004566396
 30
0.0
 10
11589.64049444246
 20
-3316.25969150507
 30
0.0
 10
11589.61009113979
 20
-3316.722141837943
 30
0.0
 10
11589.66549143003
 20
-3317.324119439211
 30
0.0
 10
11589.81239072984
 20
-3317.879577237051
 30
0.0
 10
11589.9637086323
 20
-3318.207414455175
 30
0.0
 10
11590.02025687928
 20
-3318.32992884164
 30
0.0
  0
LWPOLYLINE
  5
1DFEE5
330
18
100
AcDbEntity
  8
0
  6
Continuous
 62
     8
370
    -2
100
AcDbPolyline
 90
        3
 70
   128
 43
0.0
 10
11615.14478229142
 20
-3368.71057248037
 10
11616.00023280585
 20
-3368.993730446979
 10
11616.85568295732
 20
-3369.276888359353
  0
LINE
  5
1DFEE6
330
18
100
AcDbEntity
  8
0
  6
Continuous
 62
     8
370
    -2
100
AcDbLine
 10
11592.48711358691
 20
-3312.624942075644
 30
0.0
 11
11591.01987108563
 21
-3313.350524489235
 31
0.0
  0
SPLINE
  5
1DFEE7
330
18
100
AcDbEntity
  8
0
  6
Continuous
 62
     8
370
    -2
100
AcDbSpline
210
0.0
220
0.0
230
1.0
 70
     8
 71
     3
 72
    12
 73
     8
 74
     0
 42
0.000000001
 43
0.00000001
 40
0.0
 40
0.0
 40
0.0
 40
0.0
 40
0.2234499032772467
 40
0.477384522949226
 40
0.735643436883197
 40
0.9704507845104173
 40
1.0
 40
1.0
 40
1.0
 40
1.0
 10
11613.38183139482
 20
-3366.961768430111
 30
0.0
 10
11613.47760412792
 20
-3367.140770880753
 30
0.0
 10
11613.68221563069
 20
-3367.523196642651
 30
0.0
 10
11614.0947262361
 20
-3368.032326037523
 30
0.0
 10
11614.57116104631
 20
-3368.429951831898
 30
0.0
 10
11614.93154525427
 20
-3368.6560289379
 30
0.0
 10
11615.13161581971
 20
-3368.700355499501
 30
0.0
 10
11615.15397928283
 20
-3368.705310228467
 30
0.0
  0
LINE
  5
1DFEE8
330
18
100
AcDbEntity
  8
0
  6
Continuous
 62
     8
370
    -2
100
AcDbLine
 10
11617.99312922376
 20
-3369.277172058944
 30
0.0
 11
11619.46037172504
 21
-3368.551589645353
 31
0.0
  0
LINE
  5
1DFEE9
330
18
100
AcDbEntity
  8
0
  6
Continuous
 62
     8
370
    -2
100
AcDbLine
 10
11590.01430824831
 20
-3318.332466786766
 30
0.0
 11
11590.34306366765
 21
-3319.02888542923
 31
0.0
  0
LINE
  5
1DFEEA
330
18
100
AcDbEntity
  8
0
  6
Continuous
 62
     8
370
    -2
100
AcDbLine
 10
11613.31514323281
 20
-3366.830379859118
 30
0.0
 11
11613.37938792584
 21
-3366.961770959589
 31
0.0
  0
SPLINE
  5
1DFEEB
330
18
100
AcDbEntity
  8
0
  6
Continuous
 62
     8
370
    -2
100
AcDbSpline
210
0.0
220
0.0
230
1.0
 70
     8
 71
     3
 72
    12
 73
     8
 74
     0
 42
0.000000001
 43
0.00000001
 40
0.0
 40
0.0
 40
0.0
 40
0.0
 40
0.114965516551461
 40
0.3491563205755282
 40
0.5842852130844991
 40
0.820502068314335
 40
1.0
 40
1.0
 40
1.0
 40
1.0
 10
11579.96705236389
 20
-3309.695035415677
 30
0.0
 10
11579.78379799019
 20
-3309.843250163604
 30
0.0
 10
11579.22724481869
 20
-3310.29338614867
 30
0.0
 10
11578.38803990725
 20
-3311.189583731149
 30
0.0
 10
11577.45286892366
 20
-3312.375478713776
 30
0.0
 10
11576.67097551762
 20
-3313.575307054563
 30
0.0
 10
11576.24524760191
 20
-3314.426855356525
 30
0.0
 10
11576.06142618699
 20
-3314.794538113414
 30
0.0
  0
SPLINE
  5
1DFEEC
330
18
100
AcDbEntity
  8
0
  6
Continuous
 62
     8
370
    -2
100
AcDbSpline
210
0.0
220
0.0
230
1.0
 70
     8
 71
     3
 72
    12
 73
     8
 74
     0
 42
0.000000001
 43
0.00000001
 40
0.0
 40
0.0
 40
0.0
 40
0.0
 40
0.1683181422593319
 40
0.4001404719965243
 40
0.6310408676680671
 40
0.8608586902730045
 40
1.0
 40
1.0
 40
1.0
 40
1.0
 10
11608.25306652038
 20
-3380.002729645603
 30
0.0
 10
11608.6433456775
 20
-3380.07956916199
 30
0.0
 10
11609.57115110621
 20
-3380.262238718237
 30
0.0
 10
11610.99843239735
 20
-3380.3759396687
 30
0.0
 10
11612.52706562447
 20
-3380.361206376042
 30
0.0
 10
11613.8186356033
 20
-3380.232662157013
 30
0.0
 10
11614.57566676865
 20
-3380.049449554782
 30
0.0
 10
11614.8611572163
 20
-3379.98035669544
 30
0.0
  0
LINE
  5
1DFEED
330
18
100
AcDbEntity
  8
0
  6
Continuous
 62
     8
370
    -2
100
AcDbLine
 10
11601.37983609545
 20
-3298.68250042856
 30
0.0
 11
11582.47983573782
 21
-3308.028958282478
 31
0.0
  0
LINE
  5
1DFEEE
330
18
100
AcDbEntity
  8
0
  6
Continuous
 62
     8
370
    -2
100
AcDbLine
 10
11617.58764953327
 20
-3379.022480031067
 30
0.0
 11
11636.48764952796
 21
-3369.676028599952
 31
0.0
  0
LINE
  5
1DFEEF
330
18
100
AcDbEntity
  8
0
  6
Continuous
 62
     8
370
    -2
100
AcDbLine
 10
11623.13445089932
 20
-3350.99750403768
 30
0.0
 11
11623.73386429348
 21
-3351.105786975258
 31
0.0
  0
SPLINE
  5
1DFEF0
330
18
100
AcDbEntity
  8
0
  6
Continuous
 62
     8
370
    -2
100
AcDbSpline
210
0.0
220
0.0
230
1.0
 70
     8
 71
     3
 72
    11
 73
     7
 74
     0
 42
0.000000001
 43
0.00000001
 40
0.0
 40
0.0
 40
0.0
 40
0.0
 40
0.2305172718132716
 40
0.5143138062750782
 40
0.8009846853341037
 40
1.0
 40
1.0
 40
1.0
 40
1.0
 10
11621.81627586719
 20
-3358.304085518043
 30
0.0
 10
11622.08298940726
 20
-3358.489919670117
 30
0.0
 10
11622.67806176303
 20
-3358.90453966513
 30
0.0
 10
11623.46441458187
 20
-3359.542857785782
 30
0.0
 10
11624.13612227031
 20
-3360.146982519867
 30
0.0
 10
11624.46136916567
 20
-3360.509825637798
 30
0.0
 10
11624.59464269508
 20
-3360.658504637166
 30
0.0
  0
SPLINE
  5
1DFEF1
330
18
100
AcDbEntity
  8
0
  6
Continuous
 62
     8
370
    -2
100
AcDbSpline
210
0.0
220
0.0
230
1.0
 70
     8
 71
     3
 72
    23
 73
    19
 74
     0
 42
0.000000001
 43
0.00000001
 40
0.0
 40
0.0
 40
0.0
 40
0.0
 40
0.0435705273242481
 40
0.1069420409846561
 40
0.1705792463780298
 40
0.2345133584264434
 40
0.2987323195264664
 40
0.3631942439569977
 40
0.4278428924706876
 40
0.4926208964417547
 40
0.5574779674387266
 40
0.6223747454285397
 40
0.68728025125832
 40
0.7521733482964476
 40
0.817044621950285
 40
0.8818890177254817
 40
0.9467055245743636
 40
0.9999999999999999
 40
0.9999999999999999
 40
0.9999999999999999
 40
0.9999999999999999
 10
11639.00952870028
 20
-3368.006011444927
 30
0.0
 10
11639.26308576488
 20
-3367.7929544859
 30
0.0
 10
11639.88543099823
 20
-3367.270015071494
 30
0.0
 10
11640.77786508313
 20
-3366.283745218472
 30
0.0
 10
11641.69617327971
 20
-3365.072787760495
 30
0.0
 10
11642.51894619189
 20
-3363.730637847693
 30
0.0
 10
11643.24657072769
 20
-3362.268620291652
 30
0.0
 10
11643.87451085307
 20
-3360.690793192206
 30
0.0
 10
11644.40010096091
 20
-3359.004314414603
 30
0.0
 10
11644.82089064569
 20
-3357.216401636718
 30
0.0
 10
11645.13518217546
 20
-3355.334939855251
 30
0.0
 10
11645.3418292482
 20
-3353.368092128496
 30
0.0
 10
11645.44035947883
 20
-3351.324320053629
 30
0.0
 10
11645.4304491827
 20
-3349.212113297428
 30
0.0
 10
11645.3135247357
 20
-3347.040414345017
 30
0.0
 10
11645.08662485776
 20
-3344.817000724379
 30
0.0
 10
11644.7840279089
 20
-3342.688211008626
 30
0.0
 10
11644.50801847803
 20
-3341.289089725812
 30
0.0
 10
11644.38347647907
 20
-3340.657773032068
 30
0.0
  0
SPLINE
  5
1DFEF2
330
18
100
AcDbEntity
  8
0
  6
Continuous
 62
     8
370
    -2
100
AcDbSpline
210
0.0
220
0.0
230
1.0
 70
     8
 71
     3
 72
    20
 73
    16
 74
     0
 42
0.000000001
 43
0.00000001
 40
0.0
 40
0.0
 40
0.0
 40
0.0
 40
0.0645977469082481
 40
0.1499288481906964
 40
0.2353004881355014
 40
0.3207014898611302
 40
0.4061076251991387
 40
0.4914788191657379
 40
0.5767641136505333
 40
0.6618964496481349
 40
0.7467961984629959
 40
0.8313812539519599
 40
0.9155841971210413
 40
0.9993745397240775
 40
1.0
 40
1.0
 40
1.0
 40
1.0
 10
11622.9699002547
 20
-3303.950815124051
 30
0.0
 10
11622.54916004356
 20
-3303.613721045367
 30
0.0
 10
11621.57263844239
 20
-3302.831338851437
 30
0.0
 10
11620.02399021502
 20
-3301.751419084928
 30
0.0
 10
11618.33447239688
 20
-3300.692751788893
 30
0.0
 10
11616.64418542591
 20
-3299.774231012686
 30
0.0
 10
11614.96053597379
 20
-3298.995066757206
 30
0.0
 10
11613.29020057413
 20
-3298.36050486329
 30
0.0
 10
11611.64037498257
 20
-3297.873597847217
 30
0.0
 10
11610.01815816434
 20
-3297.53663113161
 30
0.0
 10
11608.43174571478
 20
-3297.353109747309
 30
0.0
 10
11606.88620034721
 20
-3297.317454192201
 30
0.0
 10
11605.39842081558
 20
-3297.453051580189
 30
0.0
 10
11604.4205576568
 20
-3297.599054010699
 30
0.0
 10
11603.95815587693
 20
-3297.741292060636
 30
0.0
 10
11603.95472981291
 20
-3297.742345942101
 30
0.0
  0
SPLINE
  5
1DFEF3
330
18
100
AcDbEntity
  8
0
  6
Continuous
 62
     8
370
    -2
100
AcDbSpline
210
0.0
220
0.0
230
1.0
 70
     8
 71
     3
 72
    10
 73
     6
 74
     0
 42
0.000000001
 43
0.00000001
 40
0.0
 40
0.0
 40
0.0
 40
0.0
 40
0.2911283836844976
 40
0.6732093263383796
 40
1.0
 40
1.0
 40
1.0
 40
1.0
 10
11603.4681928095
 20
-3315.227167925329
 30
0.0
 10
11603.66039085362
 20
-3315.547381396274
 30
0.0
 10
11604.10483228585
 20
-3316.2878474832
 30
0.0
 10
11604.62733400195
 20
-3317.477475298325
 30
0.0
 10
11604.88994439601
 20
-3318.365698630613
 30
0.0
 10
11605.01100810572
 20
-3318.775170662557
 30
0.0
  0
SPLINE
  5
1DFEF4
330
18
100
AcDbEntity
  8
0
  6
Continuous
 62
     8
370
    -2
100
AcDbSpline
210
0.0
220
0.0
230
1.0
 70
     8
 71
     3
 72
    14
 73
    10
 74
     0
 42
0.000000001
 43
0.00000001
 40
0.0
 40
0.0
 40
0.0
 40
0.0
 40
0.0806823099052741
 40
0.2498797749299625
 40
0.420684337013892
 40
0.5927527230165306
 40
0.7657877662995558
 40
0.9397574231967019
 40
1.0
 40
1.0
 40
1.0
 40
1.0
 10
11620.67837826323
 20
-3365.094748647001
 30
0.0
 10
11620.78986173128
 20
-3365.268575817551
 30
0.0
 10
11621.13513523595
 20
-3365.806932915964
 30
0.0
 10
11621.59607622356
 20
-3366.698637019649
 30
0.0
 10
11622.05664703492
 20
-3367.761201355102
 30
0.0
 10
11622.38788192642
 20
-3368.798188339859
 30
0.0
 10
11622.57818683793
 20
-3369.794043559752
 30
0.0
 10
11622.64781000209
 20
-3370.547835783359
 30
0.0
 10
11622.60434812006
 20
-3370.94523661296
 30
0.0
 10
11622.59316913199
 20
-3371.047453519483
 30
0.0
  0
SPLINE
  5
1DFEF5
330
18
100
AcDbEntity
  8
0
  6
Continuous
 62
     8
370
    -2
100
AcDbSpline
210
0.0
220
0.0
230
1.0
 70
     8
 71
     3
 72
    17
 73
    13
 74
     0
 42
0.000000001
 43
0.00000001
 40
0.0
 40
0.0
 40
0.0
 40
0.0
 40
0.0467070912164415
 40
0.1511703527198156
 40
0.2570948911507417
 40
0.3633916709478665
 40
0.4688866179537988
 40
0.5751916532903287
 40
0.6825976711379829
 40
0.7903090020938016
 40
0.8974585311286924
 40
1.0
 40
1.0
 40
1.0
 40
1.0
 10
11587.16297308334
 20
-3308.614861407275
 30
0.0
 10
11587.38072991366
 20
-3308.648095988471
 30
0.0
 10
11588.08551319154
 20
-3308.75566173986
 30
0.0
 10
11589.27786640937
 20
-3309.085868050483
 30
0.0
 10
11590.71881399645
 20
-3309.601954952406
 30
0.0
 10
11592.11837622866
 20
-3310.266713490114
 30
0.0
 10
11593.45324111793
 20
-3311.06880530232
 30
0.0
 10
11594.71091248893
 20
-3312.003580937065
 30
0.0
 10
11595.88361175401
 20
-3313.064781281192
 30
0.0
 10
11596.94829782748
 20
-3314.24188206063
 30
0.0
 10
11597.88916556716
 20
-3315.494684214054
 30
0.0
 10
11598.39835057972
 20
-3316.39404247295
 30
0.0
 10
11598.64734829368
 20
-3316.833839688041
 30
0.0
  0
LINE
  5
1DFEF6
330
18
100
AcDbEntity
  8
0
  6
Continuous
 62
     8
370
    -2
100
AcDbLine
 10
11587.07085285864
 20
-3308.599626868673
 30
0.0
 11
11587.16297308334
 21
-3308.614861407275
 31
0.0
  0
LINE
  5
1DFEF7
330
18
100
AcDbEntity
  8
0
  6
Continuous
 62
     8
370
    -2
100
AcDbLine
 10
11594.26121770792
 20
-3311.700770662147
 30
0.0
 11
11592.4757560885
 21
-3312.63056246926
 31
0.0
  0
LINE
  5
1DFEF8
330
18
100
AcDbEntity
  8
0
  6
Continuous
 62
     8
370
    -2
100
AcDbLine
 10
11619.44901277484
 20
-3368.557203344992
 30
0.0
 11
11621.88793555629
 21
-3367.413781800102
 31
0.0
  0
SPLINE
  5
1DFEF9
330
18
100
AcDbEntity
  8
0
  6
Continuous
 62
     8
370
    -2
100
AcDbSpline
210
0.0
220
0.0
230
1.0
 70
     8
 71
     3
 72
    16
 73
    12
 74
     0
 42
0.000000001
 43
0.00000001
 40
0.0
 40
0.0
 40
0.0
 40
0.0
 40
0.0819024919404922
 40
0.2040557236558947
 40
0.3287957123894771
 40
0.455150408251917
 40
0.5818771258205993
 40
0.7073788679637647
 40
0.83175075819813
 40
0.9595509959699757
 40
1.0
 40
1.0
 40
1.0
 40
1.0
 10
11578.6919876881
 20
-3313.097884099553
 30
0.0
 10
11578.99969473279
 20
-3313.050800227898
 30
0.0
 10
11579.76633054802
 20
-3312.93349325377
 30
0.0
 10
11581.0492053156
 20
-3312.858083157966
 30
0.0
 10
11582.51956052445
 20
-3312.8655472518
 30
0.0
 10
11584.0141878769
 20
-3312.990208166926
 30
0.0
 10
11585.49791881795
 20
-3313.233640376011
 30
0.0
 10
11586.94429934236
 20
-3313.595806871586
 30
0.0
 10
11588.34042131245
 20
-3314.095516344327
 30
0.0
 10
11589.39151261766
 20
-3314.553935788143
 30
0.0
 10
11589.94926525145
 20
-3314.885679766519
 30
0.0
 10
11590.08335523777
 20
-3314.965434738218
 30
0.0
  0
SPLINE
  5
1DFEFA
330
18
100
AcDbEntity
  8
0
  6
Continuous
 62
     8
370
    -2
100
AcDbSpline
210
0.0
220
0.0
230
1.0
 70
     8
 71
     3
 72
    15
 73
    11
 74
     0
 42
0.000000001
 43
0.00000001
 40
0.0
 40
0.0
 40
0.0
 40
0.0
 40
0.1166360469085842
 40
0.2443373330940374
 40
0.371571654380927
 40
0.4974603616594306
 40
0.6225568599881764
 40
0.7497591371201314
 40
0.8771110122223845
 40
1.0
 40
1.0
 40
1.0
 40
1.0
 10
11614.45873145297
 20
-3368.314095537398
 30
0.0
 10
11614.59003075606
 20
-3368.760526224183
 30
0.0
 10
11614.86508570182
 20
-3369.695740390913
 30
0.0
 10
11615.15846926728
 20
-3371.100107751782
 30
0.0
 10
11615.36197082766
 20
-3372.508228862897
 30
0.0
 10
11615.44933070715
 20
-3373.859192625489
 30
0.0
 10
11615.41702103591
 20
-3375.158766389348
 30
0.0
 10
11615.257512222
 20
-3376.400085157531
 30
0.0
 10
11614.98057371906
 20
-3377.570835816797
 30
0.0
 10
11614.68409935088
 20
-3378.27947072625
 30
0.0
 10
11614.53850588309
 20
-3378.627469153543
 30
0.0
  0
LINE
  5
1DFEFB
330
18
100
AcDbEntity
  8
0
  6
Continuous
 62
     8
370
    -2
100
AcDbLine
 10
11641.41514939306
 20
-3367.239279427513
 30
0.0
 11
11691.53390122288
 21
-3342.454491005522
 31
0.0
  0
LINE
  5
1DFEFC
330
18
100
AcDbEntity
  8
0
  6
Continuous
 62
     8
370
    -2
100
AcDbLine
 10
11656.4260848868
 20
-3271.460959161732
 30
0.0
 11
11651.97758512201
 21
-3273.660838721265
 31
0.0
  0
LINE
  5
1DFEFD
330
18
100
AcDbEntity
  8
0
  6
Continuous
 62
     8
370
    -2
100
AcDbLine
 10
11622.96989984344
 20
-3288.005758973231
 30
0.0
 11
11606.30733596056
 21
-3296.245751256122
 31
0.0
  0
SPLINE
  5
1DFEFE
330
18
100
AcDbEntity
  8
0
  6
Continuous
 62
     8
370
    -2
100
AcDbSpline
210
0.0
220
0.0
230
1.0
 70
     8
 71
     3
 72
    11
 73
     7
 74
     0
 42
0.000000001
 43
0.00000001
 40
0.0
 40
0.0
 40
0.0
 40
0.0
 40
0.1054244192734362
 40
0.3643064558619804
 40
0.7195380793010777
 40
1.0
 40
1.0
 40
1.0
 40
1.0
 10
11647.12717245413
 20
-3348.0216744181
 30
0.0
 10
11647.127586397
 20
-3348.021968972384
 30
0.0
 10
11647.12901682517
 20
-3348.022986839286
 30
0.0
 10
11647.10639134119
 20
-3348.000973250035
 30
0.0
 10
11647.0809503329
 20
-3347.943336366964
 30
0.0
 10
11647.08917791116
 20
-3347.901301698848
 30
0.0
 10
11647.09280784011
 20
-3347.882756404714
 30
0.0
  0
SPLINE
  5
1DFEFF
330
18
100
AcDbEntity
  8
0
  6
Continuous
 62
     8
370
    -2
100
AcDbSpline
210
0.0
220
0.0
230
1.0
 70
     8
 71
     3
 72
    29
 73
    25
 74
     0
 42
0.000000001
 43
0.00000001
 40
0.0
 40
0.0
 40
0.0
 40
0.0
 40
0.0225711117986959
 40
0.0684218217814293
 40
0.1144323838487125
 40
0.1606057598595466
 40
0.2069245238107554
 40
0.2533594101714741
 40
0.2998782687472472
 40
0.3464514098057553
 40
0.3930547231492246
 40
0.439670059620614
 40
0.4862824986645173
 40
0.532884932126851
 40
0.5794737975318434
 40
0.6260476399214419
 40
0.672606494623458
 40
0.7191508903511614
 40
0.7656823486910725
 40
0.8122025513283846
 40
0.8587135770850048
 40
0.9052170806376506
 40
0.9517153595508938
 40
1.0
 40
1.0
 40
1.0
 40
1.0
 10
11694.76704661795
 20
-3340.129825890216
 30
0.0
 10
11694.94027738331
 20
-3339.966331149914
 30
0.0
 10
11695.46540723336
 20
-3339.470714979881
 30
0.0
 10
11696.24814507635
 20
-3338.500799627434
 30
0.0
 10
11697.11627885117
 20
-3337.232690502753
 30
0.0
 10
11697.88586758031
 20
-3335.833905739276
 30
0.0
 10
11698.55932071565
 20
-3334.318815962704
 30
0.0
 10
11699.13197954069
 20
-3332.691268976908
 30
0.0
 10
11699.60170412959
 20
-3330.958833712188
 30
0.0
 10
11699.96638082919
 20
-3329.128799191462
 30
0.0
 10
11700.22462916139
 20
-3327.209058555281
 30
0.0
 10
11700.37558394918
 20
-3325.207768207477
 30
0.0
 10
11700.41887484396
 20
-3323.13330494485
 30
0.0
 10
11700.3546092225
 20
-3320.994226857537
 30
0.0
 10
11700.18331872201
 20
-3318.799203144882
 30
0.0
 10
11699.90593326504
 20
-3316.557065730999
 30
0.0
 10
11699.52377629601
 20
-3314.276797724798
 30
0.0
 10
11699.03855846982
 20
-3311.967513039856
 30
0.0
 10
11698.45241375957
 20
-3309.638418558811
 30
0.0
 10
11697.76766111633
 20
-3307.298862005889
 30
0.0
 10
11696.98768223495
 20
-3304.957946435234
 30
0.0
 10
11696.11366930109
 20
-3302.625911890025
 30
0.0
 10
11695.1443801668
 20
-3300.279012317053
 30
0.0
 10
11694.41995112402
 20
-3298.72980132473
 30
0.0
 10
11694.05090999196
 20
-3297.940596938038
 30
0.0
  0
SPLINE
  5
1DFF00
330
18
100
AcDbEntity
  8
0
  6
Continuous
 62
     8
370
    -2
100
AcDbSpline
210
0.0
220
0.0
230
1.0
 70
     8
 71
     3
 72
    30
 73
    26
 74
     0
 42
0.000000001
 43
0.00000001
 40
0.0
 40
0.0
 40
0.0
 40
0.0
 40
0.023742074282855
 40
0.0688102892683834
 40
0.1138853944212734
 40
0.1589639084765132
 40
0.2040478004094348
 40
0.2491390213065535
 40
0.2942398830403085
 40
0.3393521892945254
 40
0.3844780611057886
 40
0.4296193224507759
 40
0.4747775899876705
 40
0.519953873585991
 40
0.5651485225814898
 40
0.6103604210212724
 40
0.6555866508216028
 40
0.700821303841815
 40
0.7460504674018984
 40
0.7912569611066365
 40
0.836417234662685
 40
0.8815018449059685
 40
0.9264772782599517
 40
0.9713116320242826
 40
1.0
 40
1.0
 40
1.0
 40
1.0
 10
11694.05090999196
 20
-3297.940596938038
 30
0.0
 10
11693.8572766171
 20
-3297.543283300229
 30
0.0
 10
11693.29608013624
 20
-3296.391772020205
 30
0.0
 10
11692.30694942491
 20
-3294.516340466299
 30
0.0
 10
11691.06311264926
 20
-3292.337926063465
 30
0.0
 10
11689.74949028217
 20
-3290.218588703394
 30
0.0
 10
11688.37274709637
 20
-3288.166365438748
 30
0.0
 10
11686.9379665541
 20
-3286.189646263455
 30
0.0
 10
11685.45089419322
 20
-3284.296352860797
 30
0.0
 10
11683.91736853186
 20
-3282.494115533461
 30
0.0
 10
11682.34338342047
 20
-3280.790224518439
 30
0.0
 10
11680.73508264737
 20
-3279.19159106371
 30
0.0
 10
11679.09871071889
 20
-3277.704739302047
 30
0.0
 10
11677.44062710866
 20
-3276.335776358323
 30
0.0
 10
11675.7672158464
 20
-3275.090415367648
 30
0.0
 10
11674.08497665008
 20
-3273.973906671348
 30
0.0
 10
11672.40041419646
 20
-3272.991102349152
 30
0.0
 10
11670.72018964353
 20
-3272.146385308424
 30
0.0
 10
11669.05106869804
 20
-3271.44374182647
 30
0.0
 10
11667.39989921088
 20
-3270.88641819
 30
0.0
 10
11665.77388954451
 20
-3270.477798106025
 30
0.0
 10
11664.17947238163
 20
-3270.217834513399
 30
0.0
 10
11662.6266498069
 20
-3270.115722513297
 30
0.0
 10
11661.29242249925
 20
-3270.139200484014
 30
0.0
 10
11660.49981926174
 20
-3270.260716030616
 30
0.0
 10
11660.1905476135
 20
-3270.308131069576
 30
0.0
  0
LINE
  5
1DFF01
330
18
100
AcDbEntity
  8
0
  6
Continuous
 62
     8
370
    -2
100
AcDbLine
 10
11622.92467803469
 20
-3328.283797916338
 30
0.0
 11
11622.96990051171
 21
-3328.290555476953
 31
0.0
  0
LINE
  5
1DFF02
330
18
100
AcDbEntity
  8
0
  6
Continuous
 62
     8
370
    -2
100
AcDbLine
 10
11599.22717365495
 20
-3232.088288906255
 30
0.0
 11
11599.21958888146
 21
-3233.487520136512
 31
0.0
  0
LINE
  5
1DFF03
330
18
100
AcDbEntity
  8
0
  6
Continuous
 62
     8
370
    -2
100
AcDbLine
 10
11598.30124314118
 20
-3234.730441821462
 30
0.0
 11
11598.30124314118
 21
-3245.345613477737
 31
0.0
  0
LINE
  5
1DFF04
330
18
100
AcDbEntity
  8
0
  6
Continuous
 62
     8
370
    -2
100
AcDbLine
 10
11623.05124262931
 20
-3222.733229015533
 30
0.0
 11
11623.05124262931
 21
-3222.501065277428
 31
0.0
  0
LINE
  5
1DFF05
330
18
100
AcDbEntity
  8
0
  6
Continuous
 62
     8
370
    -2
100
AcDbLine
 10
11600.55124284837
 20
-3222.501065360262
 30
0.0
 11
11600.55124284837
 21
-3230.639198683207
 31
0.0
  0
LINE
  5
1DFF06
330
18
100
AcDbEntity
  8
0
  6
Continuous
 62
     8
370
    -2
100
AcDbLine
 10
11570.58124301132
 20
-3230.875788344244
 30
0.0
 11
11570.58124301132
 21
-3232.005921665283
 31
0.0
  0
LINE
  5
1DFF07
330
18
100
AcDbEntity
  8
0
  6
Continuous
 62
     8
370
    -2
100
AcDbLine
 10
11653.02124246636
 20
-3232.005921468419
 30
0.0
 11
11653.02124246636
 21
-3230.875788147381
 31
0.0
  0
SPLINE
  5
1DFF08
330
18
100
AcDbEntity
  8
0
  6
Continuous
 62
     8
370
    -2
100
AcDbSpline
210
0.0
220
0.0
230
1.0
 70
     8
 71
     3
 72
    12
 73
     8
 74
     0
 42
0.000000001
 43
0.00000001
 40
0.0
 40
0.0
 40
0.0
 40
0.0
 40
0.1527876313764613
 40
0.3802417792653016
 40
0.6071110238099531
 40
0.8333773465507839
 40
1.0
 40
1.0
 40
1.0
 40
1.0
 10
11575.61095326119
 20
-3209.841957626697
 30
0.0
 10
11575.37246478985
 20
-3210.735287578028
 30
0.0
 10
11574.77893977831
 20
-3212.9585131566
 30
0.0
 10
11574.0136218027
 20
-3216.556247654211
 30
0.0
 10
11573.29973683836
 20
-3220.616973807206
 30
0.0
 10
11572.78420613287
 20
-3224.33875824462
 30
0.0
 10
11572.57705283145
 20
-3226.71135588966
 30
0.0
 10
11572.48919993955
 20
-3227.717565122145
 30
0.0
  0
SPLINE
  5
1DFF09
330
18
100
AcDbEntity
  8
0
  6
Continuous
 62
     8
370
    -2
100
AcDbSpline
210
0.0
220
0.0
230
1.0
 70
     8
 71
     3
 72
    11
 73
     7
 74
     0
 42
0.000000001
 43
0.00000001
 40
0.0
 40
0.0
 40
0.0
 40
0.0
 40
0.2657006710473535
 40
0.5524559616256876
 40
0.8382305368740636
 40
1.0
 40
1.0
 40
1.0
 40
1.0
 10
11650.68399664784
 20
-3223.548832765939
 30
0.0
 10
11650.51870717747
 20
-3222.319326482756
 30
0.0
 10
11650.17503038909
 20
-3219.762885532407
 30
0.0
 10
11649.45584214751
 20
-3215.916983650435
 30
0.0
 10
11648.729446986
 20
-3212.568034428837
 30
0.0
 10
11648.18398250616
 20
-3210.554178915021
 30
0.0
 10
11647.9868186776
 20
-3209.826249823469
 30
0.0
  0
SPLINE
  5
1DFF0A
330
18
100
AcDbEntity
  8
0
  6
Continuous
 62
     8
370
    -2
100
AcDbSpline
210
0.0
220
0.0
230
1.0
 70
     8
 71
     3
 72
    13
 73
     9
 74
     0
 42
0.000000001
 43
0.00000001
 40
0.0
 40
0.0
 40
0.0
 40
0.0
 40
0.1352242908222551
 40
0.3132131022943699
 40
0.4868363153869748
 40
0.6590278266209558
 40
0.8310572037744385
 40
1.0
 40
1.0
 40
1.0
 40
1.0
 10
11574.04835572954
 20
-3230.671781492796
 30
0.0
 10
11574.10973940573
 20
-3230.529140042579
 30
0.0
 10
11574.25191927246
 20
-3230.198746953685
 30
0.0
 10
11574.66430528112
 20
-3229.664003414457
 30
0.0
 10
11575.248044984
 20
-3229.082629983816
 30
0.0
 10
11575.9889024402
 20
-3228.507297055031
 30
0.0
 10
11576.8612582505
 20
-3227.942299596165
 30
0.0
 10
11577.56305112863
 20
-3227.576888885958
 30
0.0
 10
11577.91077114938
 20
-3227.39583743375
 30
0.0
  0
SPLINE
  5
1DFF0B
330
18
100
AcDbEntity
  8
0
  6
Continuous
 62
     8
370
    -2
100
AcDbSpline
210
0.0
220
0.0
230
1.0
 70
     8
 71
     3
 72
    14
 73
    10
 74
     0
 42
0.000000001
 43
0.00000001
 40
0.0
 40
0.0
 40
0.0
 40
0.0
 40
0.1115149985445599
 40
0.2762450710930421
 40
0.4443008186501041
 40
0.6197064376839987
 40
0.8034264191573766
 40
0.9932631196489391
 40
1.0
 40
1.0
 40
1.0
 40
1.0
 10
11572.2207350477
 20
-3208.643085272387
 30
0.0
 10
11572.22612508606
 20
-3208.812049484517
 30
0.0
 10
11572.23947729473
 20
-3209.230607807623
 30
0.0
 10
11572.44335756395
 20
-3209.885941304044
 30
0.0
 10
11572.80013651609
 20
-3210.598918625215
 30
0.0
 10
11573.31221601591
 20
-3211.297022093318
 30
0.0
 10
11573.99917263794
 20
-3211.980478111621
 30
0.0
 10
11574.52954088479
 20
-3212.43881464229
 30
0.0
 10
11574.87131110852
 20
-3212.661449047029
 30
0.0
 10
11574.88302410217
 20
-3212.669079072082
 30
0.0
  0
SPLINE
  5
1DFF0C
330
18
100
AcDbEntity
  8
0
  6
Continuous
 62
     8
370
    -2
100
AcDbSpline
210
0.0
220
0.0
230
1.0
 70
     8
 71
     3
 72
    14
 73
    10
 74
     0
 42
0.000000001
 43
0.00000001
 40
0.0
 40
0.0
 40
0.0
 40
0.0
 40
0.024559251084338
 40
0.2154979234186109
 40
0.4062337548958296
 40
0.593830474216014
 40
0.7557097340904951
 40
0.9275259599947658
 40
1.0
 40
1.0
 40
1.0
 40
1.0
 10
11648.71132157499
 20
-3212.669553477817
 30
0.0
 10
11648.75422737773
 20
-3212.641303132866
 30
0.0
 10
11649.13070919153
 20
-3212.393417289288
 30
0.0
 10
11649.69962858017
 20
-3211.896073470364
 30
0.0
 10
11650.39857754571
 20
-3211.172171078895
 30
0.0
 10
11650.90089753687
 20
-3210.438146762177
 30
0.0
 10
11651.23115389811
 20
-3209.686602522189
 30
0.0
 10
11651.39343085223
 20
-3209.072454094521
 30
0.0
 10
11651.38351256109
 20
-3208.697629078558
 30
0.0
 10
11651.38057008351
 20
-3208.586429055501
 30
0.0
  0
SPLINE
  5
1DFF0D
330
18
100
AcDbEntity
  8
0
  6
Continuous
 62
     8
370
    -2
100
AcDbSpline
210
0.0
220
0.0
230
1.0
 70
     8
 71
     3
 72
    30
 73
    26
 74
     0
 42
0.000000001
 43
0.00000001
 40
0.0
 40
0.0
 40
0.0
 40
0.0
 40
0.0112639583292474
 40
0.0571080763595983
 40
0.1029603053746183
 40
0.1488234877678499
 40
0.1947010230464462
 40
0.2405967836425416
 40
0.2865154739168065
 40
0.3324628765128843
 40
0.3784461731418842
 40
0.4244743943700949
 40
0.4705590960207687
 40
0.5167150278576131
 40
0.5629611728526529
 40
0.6093214894128497
 40
0.6558251607814635
 40
0.7025040603126868
 40
0.7493822693302385
 40
0.7964441896974053
 40
0.8434948587038114
 40
0.889973273497518
 40
0.9350530089840088
 40
0.9781963673232819
 40
1.0
 40
1.0
 40
1.0
 40
1.0
 10
11604.61167069223
 20
-3197.927662183749
 30
0.0
 10
11604.40896907068
 20
-3197.936302114165
 30
0.0
 10
11603.38127531124
 20
-3197.980106413816
 30
0.0
 10
11601.55792461347
 20
-3198.099735540448
 30
0.0
 10
11599.15524061717
 20
-3198.287434953467
 30
0.0
 10
11596.8058133965
 20
-3198.518046622537
 30
0.0
 10
11594.51619378941
 20
-3198.786489344662
 30
0.0
 10
11592.29628103796
 20
-3199.092896159535
 30
0.0
 10
11590.15468300088
 20
-3199.435850637575
 30
0.0
 10
11588.09990354856
 20
-3199.814213839663
 30
0.0
 10
11586.13996314691
 20
-3200.226658424634
 30
0.0
 10
11584.28244933375
 20
-3200.671844388189
 30
0.0
 10
11582.53443773986
 20
-3201.148394781347
 30
0.0
 10
11580.902474404
 20
-3201.655007090766
 30
0.0
 10
11579.39250937512
 20
-3202.190480329974
 30
0.0
 10
11578.00992068022
 20
-3202.753893486783
 30
0.0
 10
11576.75950660578
 20
-3203.344724335399
 30
0.0
 10
11575.6456519003
 20
-3203.963110476157
 30
0.0
 10
11574.67277158753
 20
-3204.610046883004
 30
0.0
 10
11573.84616764377
 20
-3205.287114584155
 30
0.0
 10
11573.17493886004
 20
-3205.995000632988
 30
0.0
 10
11572.66652801283
 20
-3206.73117735661
 30
0.0
 10
11572.34275174992
 20
-3207.486713627045
 30
0.0
 10
11572.19265829629
 20
-3208.130774209498
 30
0.0
 10
11572.21564059397
 20
-3208.513816288342
 30
0.0
 10
11572.22335607961
 20
-3208.642408986113
 30
0.0
  0
SPLINE
  5
1DFF0E
330
18
100
AcDbEntity
  8
0
  6
Continuous
 62
     8
370
    -2
100
AcDbSpline
210
0.0
220
0.0
230
1.0
 70
     8
 71
     3
 72
    10
 73
     6
 74
     0
 42
0.000000001
 43
0.00000001
 40
0.0
 40
0.0
 40
0.0
 40
0.0
 40
0.1396965152945132
 40
0.6300879416276678
 40
1.0
 40
1.0
 40
1.0
 40
1.0
 10
11609.68360919915
 20
-3197.770154157372
 30
0.0
 10
11609.44566087928
 20
-3197.772293324362
 30
0.0
 10
11608.37241745041
 20
-3197.781941835082
 30
0.0
 10
11606.67524424062
 20
-3197.831398300524
 30
0.0
 10
11605.23216418476
 20
-3197.898716710421
 30
0.0
 10
11604.61167069223
 20
-3197.927662183749
 30
0.0
  0
SPLINE
  5
1DFF0F
330
18
100
AcDbEntity
  8
0
  6
Continuous
 62
     8
370
    -2
100
AcDbSpline
210
0.0
220
0.0
230
1.0
 70
     8
 71
     3
 72
    29
 73
    25
 74
     0
 42
0.000000001
 43
0.00000001
 40
0.0
 40
0.0
 40
0.0
 40
0.0
 40
0.0399152713734646
 40
0.082519168562025
 40
0.1259787574728987
 40
0.1711439720681772
 40
0.2180550200370388
 40
0.2661033141753735
 40
0.3145853573154845
 40
0.3630247642076048
 40
0.4112868752751061
 40
0.459364752954202
 40
0.507283126223619
 40
0.5550720592058134
 40
0.6027583965346862
 40
0.650363954579333
 40
0.6979059331655274
 40
0.7453977339120983
 40
0.7928498024949665
 40
0.8402703645519422
 40
0.8876659569626135
 40
0.9350418916049431
 40
0.982402490159763
 40
1.0
 40
1.0
 40
1.0
 40
1.0
 10
11651.39586643123
 20
-3208.581810504583
 30
0.0
 10
11651.38754631537
 20
-3208.353513489887
 30
0.0
 10
11651.37034565457
 20
-3207.881541756019
 30
0.0
 10
11651.14635408493
 20
-3207.179267272579
 30
0.0
 10
11650.77934086501
 20
-3206.480457682001
 30
0.0
 10
11650.25381358546
 20
-3205.794812793789
 30
0.0
 10
11649.56820051228
 20
-3205.120019454922
 30
0.0
 10
11648.71992651031
 20
-3204.459684078329
 30
0.0
 10
11647.71564116356
 20
-3203.819809467331
 30
0.0
 10
11646.56466732809
 20
-3203.204919573081
 30
0.0
 10
11645.27566072376
 20
-3202.617297904677
 30
0.0
 10
11643.85503734911
 20
-3202.05782149064
 30
0.0
 10
11642.30852052427
 20
-3201.527219612883
 30
0.0
 10
11640.64192121648
 20
-3201.02640302745
 30
0.0
 10
11638.86142518853
 20
-3200.556465055166
 30
0.0
 10
11636.97370499075
 20
-3200.118624080582
 30
0.0
 10
11634.98592615838
 20
-3199.714152457589
 30
0.0
 10
11632.90573430385
 20
-3199.344335535935
 30
0.0
 10
11630.74127826859
 20
-3199.010342108138
 30
0.0
 10
11628.50085192387
 20
-3198.713568082173
 30
0.0
 10
11626.19410308336
 20
-3198.454160484715
 30
0.0
 10
11623.82730679847
 20
-3198.23645094639
 30
0.0
 10
11621.92462962352
 20
-3198.087955710736
 30
0.0
 10
11620.80212800383
 20
-3198.026415161882
 30
0.0
 10
11620.4980361239
 20
-3198.009743487771
 30
0.0
  0
SPLINE
  5
1DFF10
330
18
100
AcDbEntity
  8
0
  6
Continuous
 62
     8
370
    -2
100
AcDbSpline
210
0.0
220
0.0
230
1.0
 70
     8
 71
     3
 72
    11
 73
     7
 74
     0
 42
0.000000001
 43
0.00000001
 40
0.0
 40
0.0
 40
0.0
 40
0.0
 40
0.2125372395554558
 40
0.4728211232465857
 40
0.7328336529003925
 40
1.0
 40
1.0
 40
1.0
 40
1.0
 10
11589.11229901981
 20
-3226.397870403754
 30
0.0
 10
11589.54843975476
 20
-3226.511710257589
 30
0.0
 10
11590.51870055529
 20
-3226.764964170517
 30
0.0
 10
11592.15504580107
 20
-3227.119507066589
 30
0.0
 10
11593.99503487143
 20
-3227.472894811514
 30
0.0
 10
11595.3054537091
 20
-3227.678249205186
 30
0.0
 10
11595.96955431986
 20
-3227.782319731601
 30
0.0
  0
SPLINE
  5
1DFF11
330
18
100
AcDbEntity
  8
0
  6
Continuous
 62
     8
370
    -2
100
AcDbSpline
210
0.0
220
0.0
230
1.0
 70
     8
 71
     3
 72
    11
 73
     7
 74
     0
 42
0.000000001
 43
0.00000001
 40
0.0
 40
0.0
 40
0.0
 40
0.0
 40
0.286795943000612
 40
0.613725690717866
 40
0.939909663239495
 40
0.9999999999999999
 40
0.9999999999999999
 40
0.9999999999999999
 40
0.9999999999999999
 10
11584.80026337276
 20
-3224.968382046851
 30
0.0
 10
11585.16119961162
 20
-3225.11587155823
 30
0.0
 10
11585.93358097858
 20
-3225.43149004745
 30
0.0
 10
11587.28656166008
 20
-3225.880588647855
 30
0.0
 10
11588.36572508818
 20
-3226.210236050396
 30
0.0
 10
11589.01179401932
 20
-3226.372610761036
 30
0.0
 10
11589.11229901981
 20
-3226.397870403754
 30
0.0
  0
LINE
  5
1DFF12
330
18
100
AcDbEntity
  8
0
  6
Continuous
 62
     8
370
    -2
100
AcDbLine
 10
11617.00206405842
 20
-3366.431862057283
 30
0.0
 11
11617.98520197201
 21
-3365.945680070418
 31
0.0
  0
LINE
  5
1DFF13
330
18
100
AcDbEntity
  8
0
  6
Continuous
 62
     8
370
    -2
100
AcDbLine
 10
11617.04526953197
 20
-3364.044996853963
 30
0.0
 11
11616.06213234427
 21
-3364.531178949298
 31
0.0
  0
LINE
  5
1DFF14
330
18
100
AcDbEntity
  8
0
  6
Continuous
 62
     8
370
    -2
100
AcDbLine
 10
11623.54504894855
 20
-3324.631272279127
 30
0.0
 11
11623.47449698602
 21
-3324.702713462463
 31
0.0
  0
LINE
  5
1DFF15
330
18
100
AcDbEntity
  8
0
  6
Continuous
 62
     8
370
    -2
100
AcDbLine
 10
11623.20167441969
 20
-3326.528470831575
 30
0.0
 11
11623.24826252105
 21
-3326.617411348303
 31
0.0
  0
LINE
  5
1DFF16
330
18
100
AcDbEntity
  8
0
  6
Continuous
 62
     8
370
    -2
100
AcDbLine
 10
11637.21361909821
 20
-3341.119217330533
 30
0.0
 11
11637.9336195515
 21
-3340.796449957346
 31
0.0
  0
LINE
  5
1DFF17
330
18
100
AcDbEntity
  8
0
  6
Continuous
 62
     8
370
    -2
100
AcDbLine
 10
11599.89016121105
 20
-3342.497665465839
 30
0.0
 11
11599.25358196946
 21
-3341.006580276856
 31
0.0
  0
ARC
  5
1DFF18
330
18
100
AcDbEntity
  8
0
  6
Continuous
 62
     8
370
    -2
100
AcDbCircle
 10
11629.01689224018
 20
-3329.198354220614
 30
0.0
 40
32.01934009377286
100
AcDbArc
 50
204.5415136806764
 51
210.9693381776526
  0
ARC
  5
1DFF19
330
18
100
AcDbEntity
  8
0
  6
Continuous
 62
     8
370
    -2
100
AcDbCircle
 10
11616.8774959909
 20
-3334.108623189477
 30
0.0
 40
24.18446527819163
100
AcDbArc
 50
173.3442919475533
 51
207.757968225273
  0
ARC
  5
1DFF1A
330
18
100
AcDbEntity
  8
0
  6
Continuous
 62
     8
370
    -2
100
AcDbCircle
 10
11617.90394035993
 20
-3335.650508431869
 30
0.0
 40
24.44421448899692
100
AcDbArc
 50
203.4351506274494
 51
239.2019238586506
  0
ARC
  5
1DFF1B
330
18
100
AcDbEntity
  8
0
  6
Continuous
 62
     8
370
    -2
100
AcDbCircle
 10
11617.23956095498
 20
-3333.785590107353
 30
0.0
 40
25.18527522084078
100
AcDbArc
 50
172.667594485743
 51
207.9485847812641
  0
ARC
  5
1DFF1C
330
18
100
AcDbEntity
  8
0
  6
Continuous
 62
     8
370
    -2
100
AcDbCircle
 10
11618.64871844373
 20
-3335.311936331897
 30
0.0
 40
25.79305474774228
100
AcDbArc
 50
203.4818536647505
 51
239.6347102027651
  0
ARC
  5
1DFF1D
330
18
100
AcDbEntity
  8
0
  6
Continuous
 62
     8
370
    -2
100
AcDbCircle
 10
11620.5974678628
 20
-3333.029159376015
 30
0.0
 40
24.63894331879382
100
AcDbArc
 50
186.4070056933932
 51
206.2560310930063
  0
ARC
  5
1DFF1E
330
18
100
AcDbEntity
  8
0
  6
Continuous
 62
     8
370
    -2
100
AcDbCircle
 10
11621.16480708745
 20
-3333.3101126626
 30
0.0
 40
25.02851287556972
100
AcDbArc
 50
205.1045958663789
 51
226.1002657813742
  0
LINE
  5
1DFF1F
330
18
100
AcDbEntity
  8
0
  6
Continuous
 62
     8
370
    -2
100
AcDbLine
 10
11565.89361789523
 20
-3314.66271641602
 30
0.0
 11
11565.55611488157
 21
-3314.829614108216
 31
0.0
  0
ARC
  5
1DFF20
330
18
100
AcDbEntity
  8
0
  6
Continuous
 62
     8
370
    -2
100
AcDbCircle
 10
11569.33897301407
 20
-3326.896264345611
 30
0.0
 40
12.70945187018396
100
AcDbArc
 50
105.7289034333619
 51
106.8600883428698
  0
LINE
  5
1DFF21
330
18
100
AcDbEntity
  8
0
  6
Continuous
 62
     8
370
    -2
100
AcDbLine
 10
11566.32778823626
 20
-3314.399309529869
 30
0.0
 11
11565.65277930536
 21
-3314.733117434457
 31
0.0
  0
LWPOLYLINE
  5
1DFF22
330
18
100
AcDbEntity
  8
0
  6
Continuous
 62
     8
370
    -2
100
AcDbPolyline
 90
       48
 70
   128
 43
0.0
 10
11566.32778823626
 20
-3314.399309529869
 10
11567.80309133341
 20
-3314.045283360937
 10
11569.34330472943
 20
-3313.8572341037
 10
11570.94170615434
 20
-3313.835983538623
 10
11572.59132776565
 20
-3313.981627928698
 10
11574.28497402015
 20
-3314.293533013782
 10
11576.01525822434
 20
-3314.770331044568
 10
11577.77463722903
 20
-3315.409949298188
 10
11579.55543486863
 20
-3316.209594829168
 10
11581.34988785098
 20
-3317.165784908418
 10
11583.15016793927
 20
-3318.27434529189
 10
11584.94842490825
 20
-3319.530441974693
 10
11586.73681704788
 20
-3320.928598631371
 10
11588.50754322307
 20
-3322.462713823661
 10
11590.25288253722
 20
-3324.12610371368
 10
11591.96522265019
 20
-3325.911512736513
 10
11593.63709608911
 20
-3327.811138385289
 10
11595.26121096054
 20
-3329.816725476996
 10
11596.83048480689
 20
-3331.919510842342
 10
11598.3380765458
 20
-3334.110318776953
 10
11599.77740691548
 20
-3336.379595944724
 10
11601.14220214875
 20
-3338.717462706287
 10
11602.42650849092
 20
-3341.113702334335
 10
11603.62472503748
 20
-3343.557878499198
 10
11604.73162360997
 20
-3346.039327288809
 10
11605.74238371927
 20
-3348.547220189604
 10
11606.652591996
 20
-3351.0706377898
 10
11607.45828106004
 20
-3353.59855762355
 10
11608.15593520729
 20
-3356.119952713244
 10
11608.74251441631
 20
-3358.623849979106
 10
11609.21545825445
 20
-3361.099306918743
 10
11609.57270518424
 20
-3363.535542100758
 10
11609.81269814588
 20
-3365.921924046879
 10
11609.93438912111
 20
-3368.248035754233
 10
11609.93724794816
 20
-3370.50375974902
 10
11609.8212621412
 20
-3372.679223810177
 10
11609.58693693442
 20
-3374.76497889794
 10
11609.23529593967
 20
-3376.751892685454
 10
11608.76786990503
 20
-3378.631317856893
 10
11608.18669988702
 20
-3380.39506223627
 10
11607.4943193639
 20
-3382.035427052792
 10
11606.69374757409
 20
-3383.545258334687
 10
11605.78847654634
 20
-3384.917970450207
 10
11604.78245405112
 20
-3386.147583997235
 10
11603.68006797373
 20
-3387.228726796621
 10
11602.48612463368
 20
-3388.15669499377
 10
11601.20583262636
 20
-3388.927428815919
 10
11600.95827344998
 20
-3389.053332714886
  0
ARC
  5
1DFF23
330
18
100
AcDbEntity
  8
0
  6
Continuous
 62
     8
370
    -2
100
AcDbCircle
 10
11569.25561466547
 20
-3326.637335649914
 30
0.0
 40
12.4382422456601
100
AcDbArc
 50
121.4811103087567
 51
122.6286589031587
  0
LWPOLYLINE
  5
1DFF24
330
18
100
AcDbEntity
  8
0
  6
Continuous
 62
     8
370
    -2
100
AcDbPolyline
 90
       94
 70
   128
 43
0.0
 10
11565.55611488157
 20
-3314.829614108216
 10
11567.03723990561
 20
-3314.504003602733
 10
11568.58174095679
 20
-3314.343374446329
 10
11570.18292929489
 20
-3314.348411935681
 10
11571.83387165495
 20
-3314.519094811425
 10
11573.5274197634
 20
-3314.854696716027
 10
11575.25624126082
 20
-3315.353751629892
 10
11577.01285149296
 20
-3316.014101384185
 10
11578.7896435954
 20
-3316.832893857882
 10
11580.57892312792
 20
-3317.806576129146
 10
11582.37293986559
 20
-3318.930935511127
 10
11584.16393237118
 20
-3320.201101667399
 10
11585.94414269348
 20
-3321.61157067251
 10
11587.70586177797
 20
-3323.156245613897
 10
11589.44146035946
 20
-3324.828436162181
 10
11591.14342766712
 20
-3326.620895702046
 10
11592.80439231907
 20
-3328.52586725279
 10
11594.41715896203
 20
-3330.535100358464
 10
11595.97475071818
 20
-3332.639888276881
 10
11597.47041711778
 20
-3334.831124452329
 10
11598.8976840296
 20
-3337.099326866766
 10
11600.25037230953
 20
-3339.434680690696
 10
11601.52262785512
 20
-3341.827044706255
 10
11602.70893555382
 20
-3344.266078996181
 10
11603.80416262829
 20
-3346.741226442763
 10
11604.80356432308
 20
-3349.241759453851
 10
11605.70281796961
 20
-3351.756859771589
 10
11606.49802499134
 20
-3354.275635734136
 10
11607.18574529751
 20
-3356.787168281316
 10
11607.76299761198
 20
-3359.28060669229
 10
11608.22728683259
 20
-3361.745134813622
 10
11608.57659988428
 20
-3364.170086096223
 10
11608.80942459235
 20
-3366.544959369643
 10
11608.92475256985
 20
-3368.859471161777
 10
11608.92208580284
 20
-3371.103611505187
 10
11608.8014353468
 20
-3373.267646319264
 10
11608.5633218801
 20
-3375.342225133525
 10
11608.20877814225
 20
-3377.318344665684
 10
11607.73933926463
 20
-3379.187458524382
 10
11607.15703833879
 20
-3380.941467171839
 10
11606.46439507085
 20
-3382.572789515864
 10
11605.664409509
 20
-3384.074338140357
 10
11604.76054541398
 20
-3385.43964768557
 10
11603.75671740155
 20
-3386.662768364141
 10
11602.65726908926
 20
-3387.738434677516
 10
11601.46696478877
 20
-3388.661960363366
 10
11600.19095686902
 20
-3389.429366575771
 10
11598.83476986024
 20
-3390.037328579647
 10
11597.40427580945
 20
-3390.483214008319
 10
11595.90566955391
 20
-3390.765093948162
 10
11594.34544108341
 20
-3390.881728118458
 10
11592.7303434499
 20
-3390.832639688681
 10
11591.06737123623
 20
-3390.618011381188
 10
11589.36372590664
 20
-3390.23880978101
 10
11587.62678233938
 20
-3389.696641418959
 10
11585.8640614511
 20
-3388.993877291616
 10
11584.0831990496
 20
-3388.133545898844
 10
11582.29190265298
 20
-3387.119380182567
 10
11580.49793014591
 20
-3385.955760589014
 10
11578.70904811083
 20
-3384.647745772359
 10
11576.93300294048
 20
-3383.200980176498
 10
11575.17748571017
 20
-3381.621745111248
 10
11573.45009725864
 20
-3379.916866434823
 10
11571.75831512566
 20
-3378.093727577433
 10
11570.10946685038
 20
-3376.160222752978
 10
11568.51069355621
 20
-3374.124719669357
 10
11566.9689143138
 20
-3371.996051269186
 10
11565.49080514222
 20
-3369.783411965365
 10
11564.08276829679
 20
-3367.496392916016
 10
11562.75090008908
 20
-3365.144900565328
 10
11561.5009665514
 20
-3362.739106128899
 10
11560.33837963867
 20
-3360.28943810153
 10
11559.2681732218
 20
-3357.806497939484
 10
11558.29498231347
 20
-3355.301020097983
 10
11557.42302319229
 20
-3352.783880011252
 10
11556.65606604338
 20
-3350.265972415548
 10
11555.997431726
 20
-3347.758192902071
 10
11555.44997815405
 20
-3345.271393011572
 10
11555.01607048223
 20
-3342.816346865158
 10
11554.69758993722
 20
-3340.403687176566
 10
11554.4959165165
 20
-3338.04385679064
 10
11554.41192084719
 20
-3335.747079017679
 10
11554.44596508447
 20
-3333.523301943376
 10
11554.59790695414
 20
-3331.382142134661
 10
11554.86708730024
 20
-3329.332876802901
 10
11555.25233748037
 20
-3327.384379529706
 10
11555.75199065124
 20
-3325.545084558118
 10
11556.36388329675
 20
-3323.822964010893
 10
11557.0853670228
 20
-3322.225467315687
 10
11557.91331834697
 20
-3320.759508138896
 10
11558.84415094252
 20
-3319.431447213221
 10
11559.87383371968
 20
-3318.247022467683
 10
11560.99790872743
 20
-3317.211361704061
 10
11562.21150962384
 20
-3316.3289596273
  0
LWPOLYLINE
  5
1DFF25
330
18
100
AcDbEntity
  8
0
  6
Continuous
 62
     8
370
    -2
100
AcDbPolyline
 90
        9
 70
   128
 43
0.0
 10
11562.78328080929
 20
-3317.028488078914
 10
11562.76435368868
 20
-3317.035778458949
 10
11562.74267660836
 20
-3317.036083319495
 10
11562.71915628768
 20
-3317.029384380003
 10
11562.69478632594
 20
-3317.015960321955
 10
11562.67059068588
 20
-3316.996383550834
 10
11562.64758693363
 20
-3316.971464962743
 10
11562.62674919446
 20
-3316.942261873302
 10
11562.60894909266
 20
-3316.910007213432
  0
ARC
  5
1DFF26
330
18
100
AcDbEntity
  8
0
  6
Continuous
 62
     8
370
    -2
100
AcDbCircle
 10
11569.18976958759
 20
-3327.358877036994
 30
0.0
 40
12.15565853796526
100
AcDbArc
 50
106.4867036589469
 51
121.8055132436595
  0
LWPOLYLINE
  5
1DFF27
330
18
100
AcDbEntity
  8
0
  6
Continuous
 62
     8
370
    -2
100
AcDbPolyline
 90
        9
 70
   128
 43
0.0
 10
11565.75894918989
 20
-3315.497900801181
 10
11565.77296088101
 20
-3315.531853759099
 10
11565.78259617649
 20
-3315.566080502173
 10
11565.78744632817
 20
-3315.599128914212
 10
11565.78730972242
 20
-3315.629620009759
 10
11565.78219036765
 20
-3315.656263766745
 10
11565.77230244308
 20
-3315.677943954388
 10
11565.75806712439
 20
-3315.693739917404
 10
11565.74008086731
 20
-3315.702990874852
  0
LINE
  5
1DFF28
330
18
100
AcDbEntity
  8
0
  6
Continuous
 62
     8
370
    -2
100
AcDbLine
 10
11565.53650039232
 20
-3315.034921967981
 30
0.0
 11
11565.75894918989
 21
-3315.497900801181
 31
0.0
  0
LWPOLYLINE
  5
1DFF29
330
18
100
AcDbEntity
  8
0
  6
Continuous
 62
     8
370
    -2
100
AcDbPolyline
 90
        9
 70
   128
 43
0.0
 10
11565.55611488157
 20
-3314.829614108216
 10
11565.53792132824
 20
-3314.838668354083
 10
11565.5234895931
 20
-3314.854346589294
 10
11565.51343647252
 20
-3314.87597764397
 10
11565.50818938399
 20
-3314.902654024768
 10
11565.50796759607
 20
-3314.93323431728
 10
11565.512781748
 20
-3314.966417314361
 10
11565.52242832572
 20
-3315.000800244828
 10
11565.53650039232
 20
-3315.034921967981
  0
LWPOLYLINE
  5
1DFF2A
330
18
100
AcDbEntity
  8
0
  6
Continuous
 62
     8
370
    -2
100
AcDbPolyline
 90
        9
 70
   128
 43
0.0
 10
11562.38650029509
 20
-3316.447028380233
 10
11562.36860688875
 20
-3316.41462145234
 10
11562.34764707686
 20
-3316.385308370489
 10
11562.32451699966
 20
-3316.360336178079
 10
11562.30019563214
 20
-3316.34075828116
 10
11562.27571805213
 20
-3316.327408840241
 10
11562.25212275584
 20
-3316.320855481147
 10
11562.23041175459
 20
-3316.321384332927
 10
11562.21150962384
 20
-3316.3289596273
  0
LINE
  5
1DFF2B
330
18
100
AcDbEntity
  8
0
  6
Continuous
 62
     8
370
    -2
100
AcDbLine
 10
11562.38650029509
 20
-3316.447028380233
 30
0.0
 11
11562.60894909266
 21
-3316.910007213432
 31
0.0
  0
LWPOLYLINE
  5
1DFF2C
330
18
100
AcDbEntity
  8
0
  6
Continuous
 62
     8
370
    -2
100
AcDbPolyline
 90
       93
 70
   128
 43
0.0
 10
11600.79873480142
 20
-3344.031633947933
 10
11601.8844307867
 20
-3346.404056750324
 10
11602.87589338605
 20
-3348.805376668327
 10
11603.76850480843
 20
-3351.224428750135
 10
11604.55809784812
 20
-3353.6499057405
 10
11605.24099518719
 20
-3356.070525414582
 10
11605.81400994901
 20
-3358.474982852349
 10
11606.27447115658
 20
-3360.852073835484
 10
11606.6202352265
 20
-3363.190703578931
 10
11606.84968495027
 20
-3365.479988279198
 10
11606.96175227367
 20
-3367.709234614124
 10
11606.95591599071
 20
-3369.868069511969
 10
11606.83220346401
 20
-3371.946410063282
 10
11606.59118915692
 20
-3373.934579960168
 10
11606.23399987113
 20
-3375.823293388796
 10
11605.76229786249
 20
-3377.603760218961
 10
11605.17828485144
 20
-3379.26766871121
 10
11604.48468178605
 20
-3380.807266301255
 10
11603.68472447058
 20
-3382.215371972758
 10
11602.7821411288
 20
-3383.485413091307
 10
11601.78114090792
 20
-3384.611479833305
 10
11600.68639121733
 20
-3385.588324126168
 10
11599.5029946182
 20
-3386.41138643354
 10
11598.23647073831
 20
-3387.076822023286
 10
11596.89272339205
 20
-3387.581539012075
 10
11595.47801907889
 20
-3387.923173480792
 10
11593.99895201183
 20
-3388.100139675311
 10
11592.46241905751
 20
-3388.111617935662
 10
11590.87558470105
 20
-3387.957552241222
 10
11589.24584621658
 20
-3387.63864939925
 10
11587.58080519882
 20
-3387.156403025465
 10
11585.88822122412
 20
-3386.513065041936
 10
11584.17598734838
 20
-3385.711629885137
 10
11582.45208670169
 20
-3384.755843550923
 10
11580.72455740476
 20
-3383.650147609664
 10
11579.00145335445
 20
-3382.399712280624
 10
11577.29080914014
 20
-3381.010354538933
 10
11575.60060044036
 20
-3379.488569628844
 10
11573.9387069339
 20
-3377.841431908986
 10
11572.31287705181
 20
-3376.076639970514
 10
11570.73069256489
 20
-3374.202403776795
 10
11569.19953071687
 20
-3372.227471927138
 10
11567.72652836275
 20
-3370.161046641517
 10
11566.31855538744
 20
-3368.012781792531
 10
11564.98217248355
 20
-3365.792667023509
 10
11563.72361718687
 20
-3363.511081486115
 10
11562.5487511629
 20
-3361.178632518498
 10
11561.46305517763
 20
-3358.806209716107
 10
11560.47159135108
 20
-3356.404888612724
 10
11559.57898283228
 20
-3353.985836964795
 10
11558.78938688902
 20
-3351.560346586475
 10
11558.10648954994
 20
-3349.139739866468
 10
11557.53347456353
 20
-3346.735283397143
 10
11557.07301190417
 20
-3344.358192197068
 10
11556.72725241421
 20
-3342.019562135999
 10
11556.49780269044
 20
-3339.730277435732
 10
11556.38573391525
 20
-3337.501024406829
 10
11556.39156790823
 20
-3335.342189667795
 10
11556.51528188672
 20
-3333.263849333421
 10
11556.75629619381
 20
-3331.275685913573
 10
11557.11348776957
 20
-3329.386965849096
 10
11557.58518748823
 20
-3327.60650565478
 10
11558.16920195108
 20
-3325.94259737947
 10
11558.86280211289
 20
-3324.402999355546
 10
11559.66276088015
 20
-3322.994893900982
 10
11560.56534422193
 20
-3321.724846305397
 10
11561.56634299102
 20
-3320.598779346458
 10
11562.66109558519
 20
-3319.621935487476
 10
11563.84449083731
 20
-3318.798879393233
 10
11565.1110146648
 20
-3318.13344382697
 10
11566.45476206345
 20
-3317.628726814697
 10
11567.86946772363
 20
-3317.287086132851
 10
11569.34853188711
 20
-3317.110119504452
 10
11570.88506629322
 20
-3317.098641461042
 10
11572.47190064968
 20
-3317.252713632518
 10
11574.10163768236
 20
-3317.571616257551
 10
11575.76668160369
 20
-3318.053863065216
 10
11577.4592641266
 20
-3318.697200831804
 10
11579.17150029233
 20
-3319.498629352756
 10
11580.89539864904
 20
-3320.454422322818
 10
11582.62292794597
 20
-3321.560111787039
 10
11584.3460305445
 20
-3322.810546899139
 10
11586.05667704878
 20
-3324.19990448202
 10
11587.74688720035
 20
-3325.721696086086
 10
11589.4087807068
 20
-3327.368833805945
 10
11591.03460600894
 20
-3329.133626062037
 10
11592.61679194765
 20
-3331.007862472696
 10
11594.14795402026
 20
-3332.982793353913
 10
11595.62095637438
 20
-3335.049205685459
 10
11597.02893225326
 20
-3337.197483922399
 10
11598.36531225359
 20
-3339.417598257541
 10
11599.62386877745
 20
-3341.699184980317
 10
11600.79873480142
 20
-3344.031633947933
  0
LWPOLYLINE
  5
1DFF2D
330
18
100
AcDbEntity
  8
0
  6
Continuous
 62
     8
370
    -2
100
AcDbPolyline
 90
       23
 70
   128
 43
0.0
 10
11602.43102729621
 20
-3323.260795908816
 10
11602.56899991346
 20
-3323.323859829256
 10
11603.84971250719
 20
-3323.994435236631
 10
11605.13554408835
 20
-3324.820421394865
 10
11606.41498346936
 20
-3325.794425746618
 10
11607.67657591813
 20
-3326.907732253026
 10
11608.90903230707
 20
-3328.150368338213
 10
11610.10131686625
 20
-3329.511215514845
 10
11611.2427584198
 20
-3330.978088378108
 10
11612.32313874461
 20
-3332.537858812797
 10
11613.33278768665
 20
-3334.176560777094
 10
11614.2626670439
 20
-3335.879527331899
 10
11615.10445232377
 20
-3337.631530358559
 10
11615.85060910835
 20
-3339.416857706475
 10
11616.49445802199
 20
-3341.219549597459
 10
11617.0302359229
 20
-3343.02345214279
 10
11617.45314553259
 20
-3344.812440541506
 10
11617.75940293978
 20
-3346.570476564114
 10
11617.94626497869
 20
-3348.281839447929
 10
11618.01206064291
 20
-3349.931200944543
 10
11617.95619953074
 20
-3351.503810337239
 10
11617.77918239399
 20
-3352.985573384621
 10
11617.59650914811
 20
-3353.908154018117
  0
LINE
  5
1DFF2E
330
18
100
AcDbEntity
  8
0
  6
Continuous
 62
     8
370
    -2
100
AcDbLine
 10
11612.51928836001
 20
-3325.290104609983
 30
0.0
 11
11612.49265384989
 21
-3326.16333573378
 31
0.0
  0
LINE
  5
1DFF2F
330
18
100
AcDbEntity
  8
0
  6
Continuous
 62
     8
370
    -2
100
AcDbLine
 10
11622.192945548
 20
-3349.067406783079
 30
0.0
 11
11623.35207235011
 21
-3349.160138546156
 31
0.0
  0
ARC
  5
1DFF30
330
18
100
AcDbEntity
  8
0
  6
Continuous
 62
     8
370
    -2
100
AcDbCircle
 10
11578.77524047224
 20
-3353.949435791222
 30
0.0
 40
43.69131860314548
100
AcDbArc
 50
6.415577300495028
 51
39.49150960549444
  0
LINE
  5
1DFF31
330
18
100
AcDbEntity
  8
0
  6
Continuous
 62
     8
370
    -2
100
AcDbLine
 10
11623.37375444687
 20
-3349.243280724869
 30
0.0
 11
11622.34356924133
 21
-3349.160915969896
 31
0.0
  0
SPLINE
  5
1DFF32
330
18
100
AcDbEntity
  8
0
  6
Continuous
 62
     8
370
    -2
100
AcDbSpline
210
0.0
220
0.0
230
1.0
 70
     8
 71
     3
 72
    12
 73
     8
 74
     0
 42
0.000000001
 43
0.00000001
 40
0.0
 40
0.0
 40
0.0
 40
0.0
 40
0.2038791312177193
 40
0.4076880269422688
 40
0.6138413446166405
 40
0.8261355834319889
 40
0.9999999999999999
 40
0.9999999999999999
 40
0.9999999999999999
 40
0.9999999999999999
 10
11622.34356924133
 20
-3349.160915969896
 30
0.0
 10
11622.32867428534
 20
-3349.166838047572
 30
0.0
 10
11622.29888950461
 20
-3349.178680162796
 30
0.0
 10
11622.25692178534
 20
-3349.172832503232
 30
0.0
 10
11622.22273501697
 20
-3349.149705881015
 30
0.0
 10
11622.20019145441
 20
-3349.112843675736
 30
0.0
 10
11622.19519510762
 20
-3349.081513092673
 30
0.0
 10
11622.192945548
 20
-3349.067406783079
 30
0.0
  0
LWPOLYLINE
  5
1DFF33
330
18
100
AcDbEntity
  8
0
  6
Continuous
 62
     8
370
    -2
100
AcDbPolyline
 90
        3
 70
   128
 43
0.0
 10
11595.5920190658
 20
-3317.688610995205
 10
11596.33633139715
 20
-3319.296662912674
 10
11597.2053886159
 20
-3321.173985203374
  0
LWPOLYLINE
  5
1DFF34
330
18
100
AcDbEntity
  8
0
  6
Continuous
 62
     8
370
    -2
100
AcDbPolyline
 90
       34
 70
   128
 43
0.0
 10
11595.5920190658
 20
-3317.688610995205
 10
11596.85177314915
 20
-3317.60393269192
 10
11598.16737120353
 20
-3317.692750477103
 10
11599.52919101309
 20
-3317.954409986496
 10
11600.92727188264
 20
-3318.386991971976
 10
11602.351386751
 20
-3318.987335726373
 10
11603.79112193728
 20
-3319.751046597512
 10
11605.23594488384
 20
-3320.672545544869
 10
11606.67528878127
 20
-3321.74508962117
 10
11608.09862611852
 20
-3322.960835350887
 10
11609.49554573405
 20
-3324.310890250741
 10
11610.85583085566
 20
-3325.785374660558
 10
11612.16953299337
 20
-3327.373507932529
 10
11613.42704153718
 20
-3329.063677517578
 10
11614.61916044124
 20
-3330.843519595685
 10
11615.7371692672
 20
-3332.700008856066
 10
11616.7728915988
 20
-3334.619574785967
 10
11617.71875122049
 20
-3336.588176803804
 10
11618.56783072436
 20
-3338.591412641347
 10
11619.31391978212
 20
-3340.614629189558
 10
11619.95156034101
 20
-3342.64303689279
 10
11620.47609007413
 20
-3344.661785520912
 10
11620.88367123568
 20
-3346.656121496967
 10
11621.17132382392
 20
-3348.611454187992
 10
11621.33694252027
 20
-3350.513492557913
 10
11621.3793173396
 20
-3352.348300642539
 10
11621.29813726609
 20
-3354.102476587792
 10
11621.09399694353
 20
-3355.763186142532
 10
11620.76838883972
 20
-3357.318291172319
 10
11620.3236947627
 20
-3358.756399600363
 10
11619.76316739184
 20
-3360.066994837368
 10
11619.09090633468
 20
-3361.240501376479
 10
11618.31182880222
 20
-3362.268336755251
 10
11617.43163256107
 20
-3363.142978198373
  0
LWPOLYLINE
  5
1DFF35
330
18
100
AcDbEntity
  8
0
  6
Continuous
 62
     8
370
    -2
100
AcDbPolyline
 90
        3
 70
   128
 43
0.0
 10
11617.43163256107
 20
-3363.142978198373
 10
11616.64156311864
 20
-3361.557558598985
 10
11615.87085043768
 20
-3360.010785213289
  0
LWPOLYLINE
  5
1DFF36
330
18
100
AcDbEntity
  8
0
  6
Continuous
 62
     8
370
    -2
100
AcDbPolyline
 90
       10
 70
   128
 43
0.0
 10
11622.78632095547
 20
-3349.203897448545
 10
11622.8642977824
 20
-3350.899311960986
 10
11622.82696203089
 20
-3352.772617927869
 10
11622.65393272134
 20
-3354.547832562984
 10
11622.3466034555
 20
-3356.210647559073
 10
11621.90744817062
 20
-3357.747673345935
 10
11621.34000291315
 20
-3359.146536708298
 10
11620.6488361711
 20
-3360.395990900594
 10
11619.83951266931
 20
-3361.485963271041
 10
11618.91854927715
 20
-3362.407666853204
  0
LINE
  5
1DFF37
330
18
100
AcDbEntity
  8
0
  6
Continuous
 62
     8
370
    -2
100
AcDbLine
 10
11617.43163256107
 20
-3363.142978198373
 30
0.0
 11
11618.91854927715
 21
-3362.407666853204
 31
0.0
  0
LINE
  5
1DFF38
330
18
100
AcDbEntity
  8
0
  6
Continuous
 62
     8
370
    -2
100
AcDbLine
 10
11595.5920190658
 20
-3317.688610995205
 30
0.0
 11
11597.07893620098
 21
-3316.95329946216
 31
0.0
  0
LWPOLYLINE
  5
1DFF39
330
18
100
AcDbEntity
  8
0
  6
Continuous
 62
     8
370
    -2
100
AcDbPolyline
 90
       12
 70
   128
 43
0.0
 10
11597.07893620098
 20
-3316.95329946216
 10
11598.39159660847
 20
-3316.868853709196
 10
11599.76435106038
 20
-3316.972409868887
 10
11601.18632096888
 20
-3317.263133262144
 10
11602.64623577738
 20
-3317.738735583702
 10
11604.13252138851
 20
-3318.395434455474
 10
11605.63340161309
 20
-3319.228034142551
 10
11607.13698007204
 20
-3320.229928629851
 10
11608.63133745441
 20
-3321.39317773983
 10
11610.10463231457
 20
-3322.708563131409
 10
11611.54518598196
 20
-3324.165662608462
 10
11612.54266991471
 20
-3325.280914203649
  0
LINE
  5
1DFF3A
330
18
100
AcDbEntity
  8
0
  6
Continuous
 62
     8
370
    -2
100
AcDbLine
 10
11565.88420940134
 20
-3314.666323733847
 30
0.0
 11
11565.89361789523
 21
-3314.66271641602
 31
0.0
  0
ARC
  5
1DFF3B
330
18
100
AcDbEntity
  8
0
  6
Continuous
 62
     8
370
    -2
100
AcDbCircle
 10
11565.6823733179
 20
-3314.80340844638
 30
0.0
 40
0.0762668468979998
100
AcDbArc
 50
112.83212885998
 51
180.3314489690057
  0
ARC
  5
1DFF3C
330
18
100
AcDbEntity
  8
0
  6
Continuous
 62
     8
370
    -2
100
AcDbCircle
 10
11570.18204838992
 20
-3326.819182555543
 30
0.0
 40
12.11186776288015
100
AcDbArc
 50
111.3381388772166
 51
116.3128999215776
  0
LINE
  5
1DFF3D
330
18
100
AcDbEntity
  8
0
  6
Continuous
 62
     8
370
    -2
100
AcDbLine
 10
11566.31943328418
 20
-3314.402614015461
 30
0.0
 11
11566.32778823626
 21
-3314.399309529869
 31
0.0
  0
ARC
  5
1DFF3E
330
18
100
AcDbEntity
  8
0
  6
Continuous
 62
     8
370
    -2
100
AcDbCircle
 10
11559.57477090956
 20
-3298.103100963253
 30
0.0
 40
17.65123009805995
100
AcDbArc
 50
294.329319467011
 51
295.1382229269225
  0
LWPOLYLINE
  5
1DFF3F
330
18
100
AcDbEntity
  8
0
  6
Continuous
 62
     8
370
    -2
100
AcDbPolyline
 90
        9
 70
   128
 43
0.0
 10
11566.90513357828
 20
-3313.960633123975
 10
11566.92418997255
 20
-3313.955881138589
 10
11566.94550711319
 20
-3313.957544180715
 10
11566.96827068466
 20
-3313.965558044656
 10
11566.99160112221
 20
-3313.979617566285
 10
11567.01460551457
 20
-3313.999183664979
 10
11567.03639793001
 20
-3314.023500139814
 10
11567.05613893734
 20
-3314.051635176213
 10
11567.0730743109
 20
-3314.082505522753
  0
ARC
  5
1DFF40
330
18
100
AcDbEntity
  8
0
  6
Continuous
 62
     8
370
    -2
100
AcDbCircle
 10
11566.99408965017
 20
-3314.104213606821
 30
0.0
 40
0.1689039306251405
100
AcDbArc
 50
121.7805110483967
 51
209.2605534892719
  0
LINE
  5
1DFF41
330
18
100
AcDbEntity
  8
0
  6
Continuous
 62
     8
370
    -2
100
AcDbLine
 10
11567.82024582685
 20
-3313.713014552503
 30
0.0
 11
11567.0730743109
 21
-3314.082505522753
 31
0.0
  0
LINE
  5
1DFF42
330
18
100
AcDbEntity
  8
0
  6
Continuous
 62
     8
370
    -2
100
AcDbLine
 10
11566.90513357828
 20
-3313.960633123975
 30
0.0
 11
11567.65230509423
 21
-3313.591142153725
 31
0.0
  0
LWPOLYLINE
  5
1DFF43
330
18
100
AcDbEntity
  8
0
  6
Continuous
 62
     8
370
    -2
100
AcDbPolyline
 90
        9
 70
   128
 43
0.0
 10
11567.65230509423
 20
-3313.591142153725
 10
11567.6713614885
 20
-3313.586390168339
 10
11567.69267862914
 20
-3313.588053210465
 10
11567.71544220061
 20
-3313.596067074405
 10
11567.73877263816
 20
-3313.610126596035
 10
11567.76177703052
 20
-3313.629692694729
 10
11567.78356944596
 20
-3313.654009169564
 10
11567.80331335687
 20
-3313.682144639842
 10
11567.82024582685
 20
-3313.713014552503
  0
LINE
  5
1DFF44
330
18
100
AcDbEntity
  8
0
  6
Continuous
 62
     8
370
    -2
100
AcDbLine
 10
11565.73513360129
 20
-3314.48512976488
 30
0.0
 11
11566.90513357828
 21
-3313.960633123975
 31
0.0
  0
ARC
  5
1DFF45
330
18
100
AcDbEntity
  8
0
  6
Continuous
 62
     8
370
    -2
100
AcDbCircle
 10
11565.82408967318
 20
-3314.628710247725
 30
0.0
 40
0.1689039306251057
100
AcDbArc
 50
121.7805110483967
 51
209.2605534891373
  0
LINE
  5
1DFF46
330
18
100
AcDbEntity
  8
0
  6
Continuous
 62
     8
370
    -2
100
AcDbLine
 10
11567.65230509423
 20
-3313.591142153725
 30
0.0
 11
11566.48230511724
 21
-3314.115638794629
 31
0.0
  0
LINE
  5
1DFF47
330
18
100
AcDbEntity
  8
0
  6
Continuous
 62
     8
370
    -2
100
AcDbLine
 10
11566.48230511724
 20
-3314.115638794629
 30
0.0
 11
11565.73513360129
 21
-3314.48512976488
 31
0.0
  0
LINE
  5
1DFF48
330
18
100
AcDbEntity
  8
0
  6
Continuous
 62
     8
370
    -2
100
AcDbLine
 10
11567.65661690523
 20
-3313.589111447944
 30
0.0
 11
11567.65230509423
 21
-3313.591142153725
 31
0.0
  0
LINE
  5
1DFF49
330
18
100
AcDbEntity
  8
0
  6
Continuous
 62
     8
370
    -2
100
AcDbLine
 10
11566.48661692824
 20
-3314.113608088849
 30
0.0
 11
11566.48230511724
 21
-3314.115638794629
 31
0.0
  0
LWPOLYLINE
  5
1DFF4A
330
18
100
AcDbEntity
  8
0
  6
Continuous
 62
     8
370
    -2
100
AcDbPolyline
 90
        9
 70
   128
 43
0.0
 10
11562.55420940034
 20
-3316.159121895458
 10
11562.56791186468
 20
-3316.154479729814
 10
11562.58962286593
 20
-3316.153957355072
 10
11562.61321816221
 20
-3316.160504237128
 10
11562.63769574222
 20
-3316.173853678047
 10
11562.66201710975
 20
-3316.193431574966
 10
11562.68514718694
 20
-3316.218410244414
 10
11562.70610699883
 20
-3316.247723326265
 10
11562.72400040517
 20
-3316.28012377712
  0
LWPOLYLINE
  5
1DFF4B
330
18
100
AcDbEntity
  8
0
  6
Continuous
 62
     8
370
    -2
100
AcDbPolyline
 90
        9
 70
   128
 43
0.0
 10
11562.93421543087
 20
-3316.148492449018
 10
11562.91645180376
 20
-3316.116290609455
 10
11562.89565856229
 20
-3316.087139749717
 10
11562.87270834836
 20
-3316.062248171893
 10
11562.84856686076
 20
-3316.042660543992
 10
11562.82423907827
 20
-3316.029207629436
 10
11562.80075057981
 20
-3316.022445149105
 10
11562.7790841284
 20
-3316.022666125303
 10
11562.76014774526
 20
-3316.029848687858
  0
LINE
  5
1DFF4C
330
18
100
AcDbEntity
  8
0
  6
Continuous
 62
     8
370
    -2
100
AcDbLine
 10
11563.15821183467
 20
-3316.61468845409
 30
0.0
 11
11562.93421543087
 21
-3316.148492449018
 31
0.0
  0
ARC
  5
1DFF4D
330
18
100
AcDbEntity
  8
0
  6
Continuous
 62
     8
370
    -2
100
AcDbCircle
 10
11563.36609673643
 20
-3316.531897581843
 30
0.0
 40
0.2237642976646263
100
AcDbArc
 50
201.715088687447
 51
246.793091834625
  0
ARC
  5
1DFF4E
330
18
100
AcDbEntity
  8
0
  6
Continuous
 62
     8
370
    -2
100
AcDbCircle
 10
11563.16012892293
 20
-3316.656212223942
 30
0.0
 40
0.2306706788169
100
AcDbArc
 50
202.128548563181
 51
243.7192209246089
  0
LINE
  5
1DFF4F
330
18
100
AcDbEntity
  8
0
  6
Continuous
 62
     8
370
    -2
100
AcDbLine
 10
11562.72400040517
 20
-3316.28012377712
 30
0.0
 11
11562.94644920274
 21
-3316.74310261032
 31
0.0
  0
LINE
  5
1DFF50
330
18
100
AcDbEntity
  8
0
  6
Continuous
 62
     8
370
    -2
100
AcDbLine
 10
11563.15821183467
 20
-3316.61468845409
 30
0.0
 11
11563.83321786199
 21
-3316.28088659266
 31
0.0
  0
ARC
  5
1DFF51
330
18
100
AcDbEntity
  8
0
  6
Continuous
 62
     8
370
    -2
100
AcDbCircle
 10
11564.0593177407
 20
-3316.184117451148
 30
0.0
 40
0.2459378415341758
100
AcDbArc
 50
203.1705806710287
 51
239.6926562764356
  0
LINE
  5
1DFF52
330
18
100
AcDbEntity
  8
0
  6
Continuous
 62
     8
370
    -2
100
AcDbLine
 10
11562.60894909266
 20
-3316.910007213432
 30
0.0
 11
11562.94644920274
 21
-3316.74310261032
 31
0.0
  0
LINE
  5
1DFF53
330
18
100
AcDbEntity
  8
0
  6
Continuous
 62
     8
370
    -2
100
AcDbLine
 10
11563.60922145819
 20
-3315.814684110551
 30
0.0
 11
11562.93421543087
 21
-3316.148492449018
 31
0.0
  0
LWPOLYLINE
  5
1DFF54
330
18
100
AcDbEntity
  8
0
  6
Continuous
 62
     8
370
    -2
100
AcDbPolyline
 90
        9
 70
   128
 43
0.0
 10
11563.43943325216
 20
-3315.693682709737
 10
11563.4540930593
 20
-3315.688858220715
 10
11563.47575951071
 20
-3315.688643721555
 10
11563.49924800917
 20
-3315.695399724848
 10
11563.52357288809
 20
-3315.708858682562
 10
11563.54771727926
 20
-3315.728440267305
 10
11563.57066749319
 20
-3315.753331845129
 10
11563.59145783108
 20
-3315.782488748026
 10
11563.60922145819
 20
-3315.814684110551
  0
LINE
  5
1DFF55
330
18
100
AcDbEntity
  8
0
  6
Continuous
 62
     8
370
    -2
100
AcDbLine
 10
11563.60922145819
 20
-3315.814684110551
 30
0.0
 11
11563.83321786199
 21
-3316.28088659266
 31
0.0
  0
LINE
  5
1DFF56
330
18
100
AcDbEntity
  8
0
  6
Continuous
 62
     8
370
    -2
100
AcDbLine
 10
11562.72400040517
 20
-3316.28012377712
 30
0.0
 11
11562.38650029509
 21
-3316.447028380233
 31
0.0
  0
LINE
  5
1DFF57
330
18
100
AcDbEntity
  8
0
  6
Continuous
 62
     8
370
    -2
100
AcDbLine
 10
11565.73328604929
 20
-3314.48600079807
 30
0.0
 11
11565.73513360129
 21
-3314.48512976488
 31
0.0
  0
LINE
  5
1DFF58
330
18
100
AcDbEntity
  8
0
  6
Continuous
 62
     8
370
    -2
100
AcDbLine
 10
11566.48045756525
 20
-3314.11650982782
 30
0.0
 11
11566.48230511724
 21
-3314.115638794629
 31
0.0
  0
SPLINE
  5
1DFF59
330
18
100
AcDbEntity
  8
0
  6
Continuous
 62
     8
370
    -2
100
AcDbSpline
210
0.0
220
0.0
230
1.0
 70
     8
 71
     3
 72
    14
 73
    10
 74
     0
 42
0.000000001
 43
0.00000001
 40
0.0
 40
0.0
 40
0.0
 40
0.0
 40
0.0675410020350455
 40
0.2509054318578102
 40
0.4344242574837744
 40
0.624698772727044
 40
0.7930064185348966
 40
0.8917543602149286
 40
1.0
 40
1.0
 40
1.0
 40
1.0
 10
11590.3723548913
 20
-3314.309628491172
 30
0.0
 10
11590.40198213876
 20
-3314.17236738755
 30
0.0
 10
11590.51204324377
 20
-3313.662461471975
 30
0.0
 10
11591.08600880098
 20
-3313.230225771666
 30
0.0
 10
11591.98456690814
 20
-3313.13330334267
 30
0.0
 10
11593.01073471688
 20
-3313.630911292577
 30
0.0
 10
11593.83811445259
 20
-3314.442508768917
 30
0.0
 10
11594.44016621545
 20
-3315.276481908555
 30
0.0
 10
11594.70502594834
 20
-3315.798459792239
 30
0.0
 10
11594.84353222972
 20
-3316.071423956505
 30
0.0
  0
LINE
  5
1DFF5A
330
18
100
AcDbEntity
  8
0
  6
Continuous
 62
     8
370
    -2
100
AcDbLine
 10
11594.84353222972
 20
-3316.071423956505
 30
0.0
 11
11592.72789875408
 21
-3317.105007684693
 31
0.0
  0
SPLINE
  5
1DFF5B
330
18
100
AcDbEntity
  8
0
  6
Continuous
 62
     8
370
    -2
100
AcDbSpline
210
0.0
220
0.0
230
1.0
 70
     8
 71
     3
 72
     9
 73
     5
 74
     0
 42
0.000000001
 43
0.00000001
 40
0.0
 40
0.0
 40
0.0
 40
0.0
 40
0.9971821821142925
 40
1.0
 40
1.0
 40
1.0
 40
1.0
 10
11594.84353222972
 20
-3316.071423956505
 30
0.0
 10
11595.09239044755
 20
-3316.608936548694
 30
0.0
 10
11595.34195188406
 20
-3317.147968033442
 30
0.0
 10
11595.59131681992
 20
-3317.687091655146
 30
0.0
 10
11595.59201948489
 20
-3317.688610807329
 30
0.0
  0
ARC
  5
1DFF5C
330
18
100
AcDbEntity
  8
0
  6
Continuous
 62
     8
370
    -2
100
AcDbCircle
 10
11557.97656259988
 20
-3246.134000734819
 30
0.0
 40
79.02239677446616
100
AcDbArc
 50
295.5747294668611
 51
296.0889300251426
  0
SPLINE
  5
1DFF5D
330
18
100
AcDbEntity
  8
0
  6
Continuous
 62
     8
370
    -2
100
AcDbSpline
210
0.0
220
0.0
230
1.0
 70
     8
 71
     3
 72
    17
 73
    13
 74
     0
 42
0.000000001
 43
0.00000001
 40
0.0
 40
0.0
 40
0.0
 40
0.0
 40
0.0259361766997602
 40
0.1342615637529235
 40
0.2424035133377668
 40
0.3505262015084136
 40
0.4584718821344113
 40
0.5666063164613161
 40
0.6747579463197467
 40
0.7831473267200504
 40
0.8915747305986531
 40
1.0
 40
1.0
 40
1.0
 40
1.0
 10
11592.08957906271
 20
-3317.414021075639
 30
0.0
 10
11592.06609931138
 20
-3317.367649572053
 30
0.0
 10
11591.94455371247
 20
-3317.127602218228
 30
0.0
 10
11591.67123380133
 20
-3316.724946277627
 30
0.0
 10
11591.24822748541
 20
-3316.314953029522
 30
0.0
 10
11590.81136790607
 20
-3316.08003964576
 30
0.0
 10
11590.41065618689
 20
-3316.046426301644
 30
0.0
 10
11590.09106231811
 20
-3316.21794654802
 30
0.0
 10
11589.88794927533
 20
-3316.576226160395
 30
0.0
 10
11589.82730582678
 20
-3317.079896791926
 30
0.0
 10
11589.90623904949
 20
-3317.67637944366
 30
0.0
 10
11590.07086574077
 20
-3318.080185006353
 30
0.0
 10
11590.15317827621
 20
-3318.282085800374
 30
0.0
  0
LWPOLYLINE
  5
1DFF5E
330
18
100
AcDbEntity
  8
0
  6
Continuous
 62
     8
370
    -2
100
AcDbPolyline
 90
        3
 70
   128
 43
0.0
 10
11618.22621833515
 20
-3364.737363277662
 10
11617.4338704926
 20
-3363.147470868802
 10
11617.43163256107
 20
-3363.142978198373
  0
LINE
  5
1DFF5F
330
18
100
AcDbEntity
  8
0
  6
Continuous
 62
     8
370
    -2
100
AcDbLine
 10
11618.22621833515
 20
-3364.737363277662
 30
0.0
 11
11616.09553489697
 21
-3365.739622680428
 31
0.0
  0
SPLINE
  5
1DFF60
330
18
100
AcDbEntity
  8
0
  6
Continuous
 62
     8
370
    -2
100
AcDbSpline
210
0.0
220
0.0
230
1.0
 70
     8
 71
     3
 72
    14
 73
    10
 74
     0
 42
0.000000001
 43
0.00000001
 40
0.0
 40
0.0
 40
0.0
 40
0.0
 40
0.1104559379865059
 40
0.2112212850560783
 40
0.382972028005502
 40
0.577162129196877
 40
0.7644438283701586
 40
0.9518833145402998
 40
1.0
 40
1.0
 40
1.0
 40
1.0
 10
11618.22621833515
 20
-3364.737363277662
 30
0.0
 10
11618.35237333848
 20
-3365.015190144763
 30
0.0
 10
11618.59361543378
 20
-3365.546469394767
 30
0.0
 10
11618.86384765462
 20
-3366.527215221585
 30
0.0
 10
11618.97125494434
 20
-3367.659382561403
 30
0.0
 10
11618.70330522732
 20
-3368.738391582822
 30
0.0
 10
11618.0465431434
 20
-3369.333829496265
 30
0.0
 10
11617.37153797285
 20
-3369.489748727179
 30
0.0
 10
11616.93705637691
 20
-3369.269001115965
 30
0.0
 10
11616.84830551063
 20
-3369.223909351647
 30
0.0
  0
LINE
  5
1DFF61
330
18
100
AcDbEntity
  8
0
  6
Continuous
 62
     8
370
    -2
100
AcDbLine
 10
11594.84353222972
 20
-3316.071423956505
 30
0.0
 11
11596.3073993234
 21
-3315.347513442869
 31
0.0
  0
LWPOLYLINE
  5
1DFF62
330
18
100
AcDbEntity
  8
0
  6
Continuous
 62
     8
370
    -2
100
AcDbPolyline
 90
        9
 70
   128
 43
0.0
 10
11592.48711358691
 20
-3312.624942075644
 10
11592.52869858594
 20
-3312.605349852943
 10
11593.0232723505
 20
-3312.494859301156
 10
11593.58098333721
 20
-3312.572933171206
 10
11594.17386828725
 20
-3312.835662251144
 10
11594.77219366707
 20
-3313.269857675076
 10
11595.34595871339
 20
-3313.853760431283
 10
11595.86639338473
 20
-3314.558085654246
 10
11596.3073993234
 20
-3315.347513442869
  0
LINE
  5
1DFF63
330
18
100
AcDbEntity
  8
0
  6
Continuous
 62
     8
370
    -2
100
AcDbLine
 10
11596.3073993234
 20
-3315.347513442869
 30
0.0
 11
11597.07893620098
 21
-3316.95329946216
 31
0.0
  0
ARC
  5
1DFF64
330
18
100
AcDbEntity
  8
0
  6
Continuous
 62
     8
370
    -2
100
AcDbCircle
 10
11607.72741967814
 20
-3348.115442268309
 30
0.0
 40
19.50992279622143
100
AcDbArc
 50
293.3154291103663
 51
295.3987772419177
  0
SPLINE
  5
1DFF65
330
18
100
AcDbEntity
  8
0
  6
Continuous
 62
     8
370
    -2
100
AcDbSpline
210
0.0
220
0.0
230
1.0
 70
     8
 71
     3
 72
    17
 73
    13
 74
     0
 42
0.000000001
 43
0.00000001
 40
0.0
 40
0.0
 40
0.0
 40
0.0
 40
0.0259361873834825
 40
0.1342616565826131
 40
0.2424036257548267
 40
0.3505258165718633
 40
0.4584718171939353
 40
0.5666063380943854
 40
0.6747576681226674
 40
0.7831465194482362
 40
0.8915755979163704
 40
1.0
 40
1.0
 40
1.0
 40
1.0
 10
11613.51290616574
 20
-3366.900246217594
 30
0.0
 10
11613.53638589212
 20
-3366.946617737434
 30
0.0
 10
11613.65793139584
 20
-3367.186665242488
 30
0.0
 10
11613.93125218993
 20
-3367.589320124335
 30
0.0
 10
11614.35425580941
 20
-3367.999316525699
 30
0.0
 10
11614.79112020166
 20
-3368.234216555865
 30
0.0
 10
11615.19182787917
 20
-3368.267846602966
 30
0.0
 10
11615.51142329548
 20
-3368.096310106795
 30
0.0
 10
11615.71453724253
 20
-3367.738042507466
 30
0.0
 10
11615.77517772698
 20
-3367.234375474015
 30
0.0
 10
11615.6962492368
 20
-3366.637884182355
 30
0.0
 10
11615.5316198637
 20
-3366.234079486713
 30
0.0
 10
11615.44930695225
 20
-3366.032181492859
 30
0.0
  0
LINE
  5
1DFF66
330
18
100
AcDbEntity
  8
0
  6
Continuous
 62
     8
370
    -2
100
AcDbLine
 10
11618.22621833515
 20
-3364.737363277662
 30
0.0
 11
11619.69008579178
 21
-3364.013452818261
 31
0.0
  0
LINE
  5
1DFF67
330
18
100
AcDbEntity
  8
0
  6
Continuous
 62
     8
370
    -2
100
AcDbLine
 10
11618.91854927715
 20
-3362.407666853204
 30
0.0
 11
11619.69008579178
 21
-3364.013452818261
 31
0.0
  0
LWPOLYLINE
  5
1DFF68
330
18
100
AcDbEntity
  8
0
  6
Continuous
 62
     8
370
    -2
100
AcDbPolyline
 90
        8
 70
   128
 43
0.0
 10
11619.69008579178
 20
-3364.013452818261
 10
11620.02954994652
 20
-3364.848400760258
 10
11620.25044987661
 20
-3365.687003300377
 10
11620.34170908773
 20
-3366.487207938972
 10
11620.29875149786
 20
-3367.208883087455
 10
11620.12373039458
 20
-3367.815847688762
 10
11619.82542274857
 20
-3368.277671124638
 10
11619.46037172504
 20
-3368.551589645353
  0
ARC
  5
1DFF69
330
18
100
AcDbEntity
  8
0
  6
Continuous
 62
     8
370
    -2
100
AcDbCircle
 10
11612.2639981593
 20
-3368.257119648207
 30
0.0
 40
12.0092018665244
100
AcDbArc
 50
283.1767151536376
 51
309.5344574849096
  0
ARC
  5
1DFF6A
330
18
100
AcDbEntity
  8
0
  6
Continuous
 62
     8
370
    -2
100
AcDbCircle
 10
11587.81982012101
 20
-3318.827432076745
 30
0.0
 40
12.04525951663878
100
AcDbArc
 50
102.7963121791331
 51
129.9753372126826
  0
ARC
  5
1DFF6B
330
18
100
AcDbEntity
  8
0
  6
Continuous
 62
     8
370
    -2
100
AcDbCircle
 10
11606.72485458335
 20
-3309.516667646529
 30
0.0
 40
12.0809106421174
100
AcDbArc
 50
103.8752071442024
 51
116.2593513907862
  0
LWPOLYLINE
  5
1DFF6C
330
18
100
AcDbEntity
  8
0
  6
Continuous
 62
     8
370
    -2
100
AcDbPolyline
 90
        3
 70
   128
 43
0.0
 10
11636.48764952796
 20
-3369.676028599952
 10
11637.7048237083
 20
-3368.982152479712
 10
11638.89396415705
 20
-3368.101624635348
  0
LWPOLYLINE
  5
1DFF6D
330
18
100
AcDbEntity
  8
0
  6
Continuous
 62
     8
370
    -2
100
AcDbPolyline
 90
       29
 70
   128
 43
0.0
 10
11618.48374198323
 20
-3335.286022257128
 10
11619.56943869439
 20
-3337.658445167989
 10
11620.56090419732
 20
-3340.059765519871
 10
11621.45351416792
 20
-3342.478817384739
 10
11622.24310865939
 20
-3344.90430754612
 10
11622.92600432209
 20
-3347.324915017628
 10
11623.49902148618
 20
-3349.729371812362
 10
11623.95948341964
 20
-3352.106462903967
 10
11624.30524581318
 20
-3354.44510635299
 10
11624.53469589989
 20
-3356.734378153418
 10
11624.64676431214
 20
-3358.963637605123
 10
11624.64092811991
 20
-3361.122472516527
 10
11624.51721461892
 20
-3363.200813423252
 10
11624.27620099236
 20
-3365.188983421828
 10
11623.91901012092
 20
-3367.077697615516
 10
11623.44730895048
 20
-3368.85816406993
 10
11622.86329510123
 20
-3370.52207293793
 10
11622.16969228649
 20
-3372.061671066431
 10
11621.36973418897
 20
-3373.469776871574
 10
11620.46715037195
 20
-3374.739818420108
 10
11619.46615009493
 20
-3375.865885404216
 10
11618.37139941274
 20
-3376.842729924656
 10
11617.18800301564
 20
-3377.665792575342
 10
11615.92147861189
 20
-3378.331228399933
 10
11614.57773074175
 20
-3378.835945623566
 10
11613.16302517883
 20
-3379.177580218657
 10
11611.68395784608
 20
-3379.354546749224
 10
11610.14742410971
 20
-3379.366025143215
 10
11608.59170232325
 20
-3379.21650160451
  0
LWPOLYLINE
  5
1DFF6E
330
18
100
AcDbEntity
  8
0
  6
Continuous
 62
     8
370
    -2
100
AcDbPolyline
 90
       30
 70
   128
 43
0.0
 10
11576.86506969614
 20
-3315.06025093147
 10
11577.34775135833
 20
-3314.2492732731
 10
11578.2503351192
 20
-3312.979225489639
 10
11579.25133430739
 20
-3311.853151865788
 10
11580.34608462662
 20
-3310.876313768151
 10
11581.52948330618
 20
-3310.053257872942
 10
11582.79600765755
 20
-3309.387815594799
 10
11584.13975558007
 20
-3308.883104824719
 10
11585.55445886054
 20
-3308.54146347415
 10
11587.03352655624
 20
-3308.36449052078
 10
11588.57006138144
 20
-3308.353018766531
 10
11590.15689657609
 20
-3308.507090562258
 10
11591.78663402787
 20
-3308.825992999415
 10
11593.45167878739
 20
-3309.308232954292
 10
11595.14426214849
 20
-3309.951576822168
 10
11596.85649747603
 20
-3310.75300571887
 10
11598.58039750911
 20
-3311.708797937431
 10
11600.30792825783
 20
-3312.814487618592
 10
11602.03103314634
 20
-3314.064929048919
 10
11603.74167819884
 20
-3315.454279937821
 10
11605.43188835041
 20
-3316.976071541888
 10
11607.09378185686
 20
-3318.623209261747
 10
11608.71961173895
 20
-3320.388007677255
 10
11610.30179767766
 20
-3322.262244087914
 10
11611.83295952569
 20
-3324.237175937571
 10
11613.30596355618
 20
-3326.303593994654
 10
11614.71393798328
 20
-3328.451872014654
 10
11616.05031943539
 20
-3330.671973612661
 10
11617.30887595926
 20
-3332.953573289511
 10
11618.48374198323
 20
-3335.286022257128
  0
LINE
  5
1DFF6F
330
18
100
AcDbEntity
  8
0
  6
Continuous
 62
     8
370
    -2
100
AcDbLine
 10
11580.99623047321
 20
-3311.56035838141
 30
0.0
 11
11587.14110851845
 21
-3308.611242414165
 31
0.0
  0
SPLINE
  5
1DFF70
330
18
100
AcDbEntity
  8
0
  6
Continuous
 62
     8
370
    -2
100
AcDbSpline
210
0.0
220
0.0
230
1.0
 70
     8
 71
     3
 72
    13
 73
     9
 74
     0
 42
0.000000001
 43
0.00000001
 40
0.0
 40
0.0
 40
0.0
 40
0.0
 40
0.0091104426136686
 40
0.0512077759752931
 40
0.132441353038247
 40
0.402320593390364
 40
0.8521405582595722
 40
1.0
 40
1.0
 40
1.0
 40
1.0
 10
11578.65430191806
 20
-3313.023189215834
 30
0.0
 10
11578.65832721007
 20
-3313.018611612665
 30
0.0
 10
11578.68095248315
 20
-3312.992881921197
 30
0.0
 10
11578.76312973375
 20
-3312.917669367795
 30
0.0
 10
11579.0579324404
 20
-3312.692331823756
 30
0.0
 10
11579.71215099669
 20
-3312.268625820939
 30
0.0
 10
11580.42794704991
 20
-3311.84512820246
 30
0.0
 10
11580.88352532055
 20
-3311.616835527917
 30
0.0
 10
11580.99623047321
 20
-3311.56035838141
 30
0.0
  0
SPLINE
  5
1DFF71
330
18
100
AcDbEntity
  8
0
  6
Continuous
 62
     8
370
    -2
100
AcDbSpline
210
0.0
220
0.0
230
1.0
 70
     8
 71
     3
 72
    10
 73
     6
 74
     0
 42
0.000000001
 43
0.00000001
 40
0.0
 40
0.0
 40
0.0
 40
0.0
 40
0.2726968431001368
 40
0.6489864538984982
 40
1.0
 40
1.0
 40
1.0
 40
1.0
 10
11578.68731297341
 20
-3313.068283206881
 30
0.0
 10
11578.67738724899
 20
-3313.069143430958
 30
0.0
 10
11578.65376519081
 20
-3313.071190663214
 30
0.0
 10
11578.63983331289
 20
-3313.056481070019
 30
0.0
 10
11578.64959209914
 20
-3313.034026376902
 30
0.0
 10
11578.65430191806
 20
-3313.023189215834
 30
0.0
  0
LINE
  5
1DFF72
330
18
100
AcDbEntity
  8
0
  6
Continuous
 62
     8
370
    -2
100
AcDbLine
 10
11583.38966928562
 20
-3317.378402946355
 30
0.0
 11
11589.16474271304
 21
-3314.493847876691
 31
0.0
  0
LINE
  5
1DFF73
330
18
100
AcDbEntity
  8
0
  6
Continuous
 62
     8
370
    -2
100
AcDbLine
 10
11609.25774642719
 20
-3376.31033311483
 30
0.0
 11
11615.38682537428
 21
-3373.185785060766
 31
0.0
  0
SPLINE
  5
1DFF74
330
18
100
AcDbEntity
  8
0
  6
Continuous
 62
     8
370
    -2
100
AcDbSpline
210
0.0
220
0.0
230
1.0
 70
     8
 71
     3
 72
    10
 73
     6
 74
     0
 42
0.000000001
 43
0.00000001
 40
0.0
 40
0.0
 40
0.0
 40
0.0
 40
0.1101801684427004
 40
0.5129820822953237
 40
1.0
 40
1.0
 40
1.0
 40
1.0
 10
11614.60929021721
 20
-3378.663799732801
 30
0.0
 10
11614.60250457823
 20
-3378.665090705312
 30
0.0
 10
11614.57091167669
 20
-3378.671101276687
 30
0.0
 10
11614.53941011445
 20
-3378.66759763177
 30
0.0
 10
11614.55151691099
 20
-3378.646798539532
 30
0.0
 10
11614.55814322638
 20
-3378.63541473999
 30
0.0
  0
SPLINE
  5
1DFF75
330
18
100
AcDbEntity
  8
0
  6
Continuous
 62
     8
370
    -2
100
AcDbSpline
210
0.0
220
0.0
230
1.0
 70
     8
 71
     3
 72
    12
 73
     8
 74
     0
 42
0.000000001
 43
0.00000001
 40
0.0
 40
0.0
 40
0.0
 40
0.0
 40
0.4577116219618385
 40
0.6230321124918615
 40
0.7894441581913023
 40
0.8937937535147743
 40
1.0
 40
1.0
 40
1.0
 40
1.0
 10
11615.51175081801
 20
-3378.256168617223
 30
0.0
 10
11615.38320709692
 20
-3378.321705867393
 30
0.0
 10
11615.20823477318
 20
-3378.410914463943
 30
0.0
 10
11614.95487569536
 20
-3378.528629320687
 30
0.0
 10
11614.80964827671
 20
-3378.591783220148
 30
0.0
 10
11614.68697492763
 20
-3378.639954876605
 30
0.0
 10
11614.63533689959
 20
-3378.655804859778
 30
0.0
 10
11614.60929021721
 20
-3378.663799732801
 30
0.0
  0
LINE
  5
1DFF76
330
18
100
AcDbEntity
  8
0
  6
Continuous
 62
     8
370
    -2
100
AcDbLine
 10
11615.51175081801
 20
-3378.256168617223
 30
0.0
 11
11618.2235181456
 21
-3376.849492747901
 31
0.0
  0
ARC
  5
1DFF77
330
18
100
AcDbEntity
  8
0
  6
Continuous
 62
     8
370
    -2
100
AcDbCircle
 10
11584.44711077184
 20
-3349.402663833631
 30
0.0
 40
37.02993194138767
100
AcDbArc
 50
41.08420262775703
 51
42.52518169382896
  0
SPLINE
  5
1DFF78
330
18
100
AcDbEntity
  8
0
  6
Continuous
 62
     8
370
    -2
100
AcDbSpline
210
0.0
220
0.0
230
1.0
 70
     8
 71
     3
 72
    11
 73
     7
 74
     0
 42
0.000000001
 43
0.00000001
 40
0.0
 40
0.0
 40
0.0
 40
0.0
 40
0.1039363547357422
 40
0.412820215559375
 40
0.7389872401727287
 40
1.0
 40
1.0
 40
1.0
 40
1.0
 10
11623.13352680658
 20
-3351.003245613651
 30
0.0
 10
11623.1155177499
 20
-3351.001551742767
 30
0.0
 10
11623.04398837327
 20
-3350.994823931837
 30
0.0
 10
11622.95144949547
 20
-3350.909927090491
 30
0.0
 10
11622.87409389765
 20
-3350.769924689999
 30
0.0
 10
11622.86273130306
 20
-3350.647345914104
 30
0.0
 10
11622.85768041021
 20
-3350.592857279719
 30
0.0
  0
LINE
  5
1DFF79
330
18
100
AcDbEntity
  8
0
  6
Continuous
 62
     8
370
    -2
100
AcDbLine
 10
11623.39131878605
 20
-3349.31062626795
 30
0.0
 11
11622.77579089302
 21
-3349.426706608938
 31
0.0
  0
ARC
  5
1DFF7A
330
18
100
AcDbEntity
  8
0
  6
Continuous
 62
     8
370
    -2
100
AcDbCircle
 10
11594.20416028838
 20
-3351.374209617735
 30
0.0
 40
28.66417148372456
100
AcDbArc
 50
1.562010515120357
 51
3.249464789726517
  0
SPLINE
  5
1DFF7B
330
18
100
AcDbEntity
  8
0
  6
Continuous
 62
     8
370
    -2
100
AcDbSpline
210
0.0
220
0.0
230
1.0
 70
     8
 71
     3
 72
    10
 73
     6
 74
     0
 42
0.000000001
 43
0.00000001
 40
0.0
 40
0.0
 40
0.0
 40
0.0
 40
0.4906206997120528
 40
0.9817331070052627
 40
1.0
 40
1.0
 40
1.0
 40
1.0
 10
11611.73744265501
 20
-3324.373607812873
 30
0.0
 10
11611.69086747874
 20
-3324.311195730877
 30
0.0
 10
11611.59767044786
 20
-3324.186309016539
 30
0.0
 10
11611.54699118044
 20
-3324.039580824496
 30
0.0
 10
11611.56223845446
 20
-3323.973770193705
 30
0.0
 10
11611.56278523821
 20
-3323.97141015326
 30
0.0
  0
LINE
  5
1DFF7C
330
18
100
AcDbEntity
  8
0
  6
Continuous
 62
     8
370
    -2
100
AcDbLine
 10
11624.44048344045
 20
-3356.237110341257
 30
0.0
 11
11622.55257909155
 21
-3357.161336048508
 31
0.0
  0
SPLINE
  5
1DFF7D
330
18
100
AcDbEntity
  8
0
  6
Continuous
 62
     8
370
    -2
100
AcDbSpline
210
0.0
220
0.0
230
1.0
 70
     8
 71
     3
 72
    12
 73
     8
 74
     0
 42
0.000000001
 43
0.00000001
 40
0.0
 40
0.0
 40
0.0
 40
0.0
 40
0.231818468355968
 40
0.4638772203082036
 40
0.6890863475104858
 40
0.9036224392244248
 40
1.0
 40
1.0
 40
1.0
 40
1.0
 10
11621.85415826841
 20
-3357.900306076627
 30
0.0
 10
11621.88037032746
 20
-3357.841052434268
 30
0.0
 10
11621.93282161477
 20
-3357.722483732189
 30
0.0
 10
11622.08500849121
 20
-3357.523631113943
 30
0.0
 10
11622.26915622691
 20
-3357.343327086691
 30
0.0
 10
11622.43299585868
 20
-3357.223958927047
 30
0.0
 10
11622.5242820404
 20
-3357.176154537308
 30
0.0
 10
11622.55257909155
 20
-3357.161336048508
 30
0.0
  0
SPLINE
  5
1DFF7E
330
18
100
AcDbEntity
  8
0
  6
Continuous
 62
     8
370
    -2
100
AcDbSpline
210
0.0
220
0.0
230
1.0
 70
     8
 71
     3
 72
    10
 73
     6
 74
     0
 42
0.000000001
 43
0.00000001
 40
0.0
 40
0.0
 40
0.0
 40
0.0
 40
0.1652428988243906
 40
0.6289413210482816
 40
1.0
 40
1.0
 40
1.0
 40
1.0
 10
11621.81765350609
 20
-3358.302136625714
 30
0.0
 10
11621.80728777757
 20
-3358.296337133196
 30
0.0
 10
11621.76783413061
 20
-3358.27426332239
 30
0.0
 10
11621.75894162309
 20
-3358.189913571427
 30
0.0
 10
11621.78443270602
 20
-3358.101006014736
 30
0.0
 10
11621.79576377172
 20
-3358.061485631516
 30
0.0
  0
ARC
  5
1DFF7F
330
18
100
AcDbEntity
  8
0
  6
Continuous
 62
     8
370
    -2
100
AcDbCircle
 10
11608.67011334391
 20
-3353.21496440792
 30
0.0
 40
13.99183573101432
100
AcDbArc
 50
339.7338138214818
 51
340.4358206358222
  0
SPLINE
  5
1DFF80
330
18
100
AcDbEntity
  8
0
  6
Continuous
 62
     8
370
    -2
100
AcDbSpline
210
0.0
220
0.0
230
1.0
 70
     8
 71
     3
 72
    12
 73
     8
 74
     0
 42
0.000000001
 43
0.00000001
 40
0.0
 40
0.0
 40
0.0
 40
0.0
 40
0.2013583083695135
 40
0.4025545332102425
 40
0.6084999253792321
 40
0.8259747495016537
 40
1.0
 40
1.0
 40
1.0
 40
1.0
 10
11606.42358087967
 20
-3319.11568305631
 30
0.0
 10
11606.3599414329
 20
-3319.141804421282
 30
0.0
 10
11606.23271376598
 20
-3319.194026124816
 30
0.0
 10
11605.99754754993
 20
-3319.222426154044
 30
0.0
 10
11605.75826776268
 20
-3319.210228698066
 30
0.0
 10
11605.5452867365
 20
-3319.160895458379
 30
0.0
 10
11605.43795282341
 20
-3319.106106950244
 30
0.0
 10
11605.39024194843
 20
-3319.081752973143
 30
0.0
  0
LINE
  5
1DFF81
330
18
100
AcDbEntity
  8
0
  6
Continuous
 62
     8
370
    -2
100
AcDbLine
 10
11607.17300961639
 20
-3318.739797883115
 30
0.0
 11
11606.42358087967
 21
-3319.11568305631
 31
0.0
  0
SPLINE
  5
1DFF82
330
18
100
AcDbEntity
  8
0
  6
Continuous
 62
     8
370
    -2
100
AcDbSpline
210
0.0
220
0.0
230
1.0
 70
     8
 71
     3
 72
     9
 73
     5
 74
     0
 42
0.000000001
 43
0.00000001
 40
0.0
 40
0.0
 40
0.0
 40
0.0
 40
0.5690319858577207
 40
1.0
 40
1.0
 40
1.0
 40
1.0
 10
11605.22153588073
 20
-3318.982842447854
 30
0.0
 10
11605.1673851591
 20
-3318.946232497926
 30
0.0
 10
11605.07222228079
 20
-3318.881895253556
 30
0.0
 10
11605.04986799993
 20
-3318.800466101495
 30
0.0
 10
11605.0402340199
 20
-3318.765372741538
 30
0.0
  0
ARC
  5
1DFF83
330
18
100
AcDbEntity
  8
0
  6
Continuous
 62
     8
370
    -2
100
AcDbCircle
 10
11602.54452673487
 20
-3351.525909704817
 30
0.0
 40
20.33457152403744
100
AcDbArc
 50
341.7311753922543
 51
2.629941977279664
  0
ARC
  5
1DFF84
330
18
100
AcDbEntity
  8
0
  6
Continuous
 62
     8
370
    -2
100
AcDbCircle
 10
11612.00577304358
 20
-3354.705878662769
 30
0.0
 40
10.34910704291285
100
AcDbArc
 50
311.9097122137595
 51
341.0803898525946
  0
LWPOLYLINE
  5
1DFF85
330
18
100
AcDbEntity
  8
0
  6
Continuous
 62
     8
370
    -2
100
AcDbPolyline
 90
        8
 70
   128
 43
0.0
 10
11619.69008579178
 20
-3364.013452818261
 10
11620.02954994652
 20
-3364.848400760258
 10
11620.25044987661
 20
-3365.687003300377
 10
11620.34170908773
 20
-3366.487207938972
 10
11620.29875149786
 20
-3367.208883087455
 10
11620.12373039458
 20
-3367.815847688762
 10
11619.82542274857
 20
-3368.277671124638
 10
11619.43753806148
 20
-3368.562575301991
  0
LWPOLYLINE
  5
1DFF86
330
18
100
AcDbEntity
  8
0
  6
Continuous
 62
     8
370
    -2
100
AcDbPolyline
 90
        9
 70
   128
 43
0.0
 10
11592.46451478032
 20
-3312.636412947239
 10
11592.52869858594
 20
-3312.605349852943
 10
11593.0232723505
 20
-3312.494859301156
 10
11593.58098333721
 20
-3312.572933171206
 10
11594.17386828725
 20
-3312.835662251144
 10
11594.77219366707
 20
-3313.269857675076
 10
11595.34595871339
 20
-3313.853760431283
 10
11595.86639338473
 20
-3314.558085654246
 10
11596.3073993234
 20
-3315.347513442869
  0
ARC
  5
1DFF87
330
18
100
AcDbEntity
  8
0
  6
Continuous
 62
     8
370
    -2
100
AcDbCircle
 10
11598.32873077144
 20
-3326.088028871995
 30
0.0
 40
9.219830142646614
100
AcDbArc
 50
86.94470009158859
 51
97.79071717209298
  0
ARC
  5
1DFF88
330
18
100
AcDbEntity
  8
0
  6
Continuous
 62
     8
370
    -2
100
AcDbCircle
 10
11598.3010627131
 20
-3327.100085715469
 30
0.0
 40
10.23195694172193
100
AcDbArc
 50
86.23209938401988
 51
87.09204863936483
  0
ARC
  5
1DFF89
330
18
100
AcDbEntity
  8
0
  6
Continuous
 62
     8
370
    -2
100
AcDbCircle
 10
11597.59007999885
 20
-3331.394797628447
 30
0.0
 40
14.57037234534766
100
AcDbArc
 50
58.41483698185366
 51
84.55188308215936
  0
ARC
  5
1DFF8A
330
18
100
AcDbEntity
  8
0
  6
Continuous
 62
     8
370
    -2
100
AcDbCircle
 10
11594.65217274921
 20
-3337.203736548502
 30
0.0
 40
21.0644824012546
100
AcDbArc
 50
59.35140068237989
 51
59.88333853901768
  0
ARC
  5
1DFF8B
330
18
100
AcDbEntity
  8
0
  6
Continuous
 62
     8
370
    -2
100
AcDbCircle
 10
11590.4914010683
 20
-3343.40427872016
 30
0.0
 40
28.52298578841032
100
AcDbArc
 50
41.85168904457785
 51
58.5103142827491
  0
LWPOLYLINE
  5
1DFF8C
330
18
100
AcDbEntity
  8
0
  6
Continuous
 62
     8
370
    -2
100
AcDbPolyline
 90
        8
 70
   128
 43
0.0
 10
11618.34008572766
 20
-3364.618641290719
 10
11618.08333461181
 20
-3364.199570135483
 10
11617.77009630116
 20
-3363.87796164135
 10
11617.44267618582
 20
-3363.697253813854
 10
11617.14529341669
 20
-3363.681858392268
 10
11616.91811138512
 20
-3363.833841279303
 10
11616.79181259125
 20
-3364.132679280914
 10
11616.78483404614
 20
-3364.17378490703
  0
LWPOLYLINE
  5
1DFF8D
330
18
100
AcDbEntity
  8
0
  6
Continuous
 62
     8
370
    -2
100
AcDbPolyline
 90
        6
 70
   128
 43
0.0
 10
11618.26351437208
 20
-3366.131349248391
 10
11618.30944064797
 20
-3366.104772959678
 10
11618.48924200066
 20
-3365.87544857741
 10
11618.55773713952
 20
-3365.517269751006
 10
11618.50567468459
 20
-3365.07857954073
 10
11618.34008572766
 20
-3364.618641290719
  0
ARC
  5
1DFF8E
330
18
100
AcDbEntity
  8
0
  6
Continuous
 62
     8
370
    -2
100
AcDbCircle
 10
11608.77113823345
 20
-3344.308479001549
 30
0.0
 40
36.98182469896812
100
AcDbArc
 50
2.977766737018307
 51
5.384684049691465
  0
LINE
  5
1DFF8F
330
18
100
AcDbEntity
  8
0
  6
Continuous
 62
     8
370
    -2
100
AcDbLine
 10
11645.70302889681
 20
-3342.387330882696
 30
0.0
 11
11644.79181149174
 21
-3342.89724793523
 31
0.0
  0
LINE
  5
1DFF90
330
18
100
AcDbEntity
  8
0
  6
Continuous
 62
     8
370
    -2
100
AcDbLine
 10
11620.41883998501
 20
-3364.14946017786
 30
0.0
 11
11620.3182444978
 21
-3363.703145797419
 31
0.0
  0
SPLINE
  5
1DFF91
330
18
100
AcDbEntity
  8
0
  6
Continuous
 62
     8
370
    -2
100
AcDbSpline
210
0.0
220
0.0
230
1.0
 70
     8
 71
     3
 72
    12
 73
     8
 74
     0
 42
0.000000001
 43
0.00000001
 40
0.0
 40
0.0
 40
0.0
 40
0.0
 40
0.5602672545395142
 40
0.7203168723163331
 40
0.8817535221791781
 40
0.974548802623677
 40
1.0
 40
1.0
 40
1.0
 40
1.0
 10
11620.3182444978
 20
-3363.703145797419
 30
0.0
 10
11620.27938440533
 20
-3363.464530797424
 30
0.0
 10
11620.22942328403
 20
-3363.157751471858
 30
0.0
 10
11620.27839953944
 20
-3362.797576846339
 30
0.0
 10
11620.33821160666
 20
-3362.642067655179
 30
0.0
 10
11620.41180884005
 20
-3362.564682700574
 30
0.0
 10
11620.44974635776
 20
-3362.543863358736
 30
0.0
 10
11620.45791197309
 20
-3362.539382234324
 30
0.0
  0
LINE
  5
1DFF92
330
18
100
AcDbEntity
  8
0
  6
Continuous
 62
     8
370
    -2
100
AcDbLine
 10
11624.47599065625
 20
-3360.530518864864
 30
0.0
 11
11620.45791197309
 21
-3362.539382234324
 31
0.0
  0
SPLINE
  5
1DFF93
330
18
100
AcDbEntity
  8
0
  6
Continuous
 62
     8
370
    -2
100
AcDbSpline
210
0.0
220
0.0
230
1.0
 70
     8
 71
     3
 72
    12
 73
     8
 74
     0
 42
0.000000001
 43
0.00000001
 40
0.0
 40
0.0
 40
0.0
 40
0.0
 40
0.201361962139268
 40
0.402556899207092
 40
0.6085019418497117
 40
0.8259758872930631
 40
0.9999999999999999
 40
0.9999999999999999
 40
0.9999999999999999
 40
0.9999999999999999
 10
11599.96166245803
 20
-3316.656664853004
 30
0.0
 10
11599.89881058598
 20
-3316.685955573232
 30
0.0
 10
11599.77315897604
 20
-3316.744512717717
 30
0.0
 10
11599.54528918936
 20
-3316.816083924914
 30
0.0
 10
11599.31642144357
 20
-3316.867343495012
 30
0.0
 10
11599.11576754284
 20
-3316.893161683546
 30
0.0
 10
11599.01724751722
 20
-3316.891143051207
 30
0.0
 10
11598.97345455405
 20
-3316.890245752499
 30
0.0
  0
LINE
  5
1DFF94
330
18
100
AcDbEntity
  8
0
  6
Continuous
 62
     8
370
    -2
100
AcDbLine
 10
11603.18478220328
 20
-3315.00381625473
 30
0.0
 11
11599.96166245803
 21
-3316.656664853004
 31
0.0
  0
SPLINE
  5
1DFF95
330
18
100
AcDbEntity
  8
0
  6
Continuous
 62
     8
370
    -2
100
AcDbSpline
210
0.0
220
0.0
230
1.0
 70
     8
 71
     3
 72
    10
 73
     6
 74
     0
 42
0.000000001
 43
0.00000001
 40
0.0
 40
0.0
 40
0.0
 40
0.0
 40
0.0399153096746914
 40
0.6160366947658508
 40
1.0
 40
1.0
 40
1.0
 40
1.0
 10
11620.68369509582
 20
-3365.091156469121
 30
0.0
 10
11620.67976729612
 20
-3365.085813818175
 30
0.0
 10
11620.61914722906
 20
-3365.003357511133
 30
0.0
 10
11620.56305502684
 20
-3364.816391366173
 30
0.0
 10
11620.52538773487
 20
-3364.637667684842
 30
0.0
 10
11620.51032358681
 20
-3364.56619134937
 30
0.0
  0
LINE
  5
1DFF96
330
18
100
AcDbEntity
  8
0
  6
Continuous
 62
     8
370
    -2
100
AcDbLine
 10
11620.41883998501
 20
-3364.14946017786
 30
0.0
 11
11620.51032358681
 21
-3364.56619134937
 31
0.0
  0
SPLINE
  5
1DFF97
330
18
100
AcDbEntity
  8
0
  6
Continuous
 62
     8
370
    -2
100
AcDbSpline
210
0.0
220
0.0
230
1.0
 70
     8
 71
     3
 72
    14
 73
    10
 74
     0
 42
0.000000001
 43
0.00000001
 40
0.0
 40
0.0
 40
0.0
 40
0.0
 40
0.0853056707380055
 40
0.2431109011982994
 40
0.4009569242531671
 40
0.576819076281836
 40
0.7526843795186088
 40
0.8763532789934467
 40
1.0
 40
1.0
 40
1.0
 40
1.0
 10
11598.97345455405
 20
-3316.890245752499
 30
0.0
 10
11598.76162365645
 20
-3316.510712233882
 30
0.0
 10
11598.1579310769
 20
-3315.429087355399
 30
0.0
 10
11596.90319335665
 20
-3313.803524255819
 30
0.0
 10
11595.10090153772
 20
-3312.057162304335
 30
0.0
 10
11592.96454187303
 20
-3310.569739058899
 30
0.0
 10
11590.78712443129
 20
-3309.523326495555
 30
0.0
 10
11588.75817476053
 20
-3308.854873777649
 30
0.0
 10
11587.54734536785
 20
-3308.639502207213
 30
0.0
 10
11586.94198496315
 20
-3308.53182607891
 30
0.0
  0
SPLINE
  5
1DFF98
330
18
100
AcDbEntity
  8
0
  6
Continuous
 62
     8
370
    -2
100
AcDbSpline
210
0.0
220
0.0
230
1.0
 70
     8
 71
     3
 72
    20
 73
    16
 74
     0
 42
0.000000001
 43
0.00000001
 40
0.0
 40
0.0
 40
0.0
 40
0.0
 40
0.5227067599333638
 40
0.9530521132171794
 40
0.9763829447353755
 40
0.9880496061779299
 40
0.9919726008474237
 40
0.9958955955169174
 40
0.997856796387694
 40
0.9988373968230823
 40
0.999330361756364
 40
0.9997164892912764
 40
0.99985837255845
 40
0.9999831587911345
 40
1.0
 40
1.0
 40
1.0
 40
1.0
 10
11586.35882624243
 20
-3308.466517109503
 30
0.0
 10
11586.4602945445
 20
-3308.474137046975
 30
0.0
 10
11586.64530187007
 20
-3308.488030491762
 30
0.0
 10
11586.83555527711
 20
-3308.516367144597
 30
0.0
 10
11586.92608368283
 20
-3308.52949716078
 30
0.0
 10
11586.93367264495
 20
-3308.530609905641
 30
0.0
 10
11586.93745433927
 20
-3308.53116294171
 30
0.0
 10
11586.93939813457
 20
-3308.531451930415
 30
0.0
 10
11586.94067131746
 20
-3308.531631698502
 30
0.0
 10
11586.94142899026
 20
-3308.531743981981
 30
0.0
 10
11586.94165476745
 20
-3308.531771482726
 30
0.0
 10
11586.9421181809
 20
-3308.531847797976
 30
0.0
 10
11586.94185020825
 20
-3308.531804175102
 30
0.0
 10
11586.94195509275
 20
-3308.531824007176
 30
0.0
 10
11586.94198141413
 20
-3308.531826026646
 30
0.0
 10
11586.94198454405
 20
-3308.531826266786
 30
0.0
  0
SPLINE
  5
1DFF99
330
18
100
AcDbEntity
  8
0
  6
Continuous
 62
     8
370
    -2
100
AcDbSpline
210
0.0
220
0.0
230
1.0
 70
     8
 71
     3
 72
    13
 73
     9
 74
     0
 42
0.000000001
 43
0.00000001
 40
0.0
 40
0.0
 40
0.0
 40
0.0
 40
0.2103593211420103
 40
0.3824418309436948
 40
0.5593895507790118
 40
0.716661004317299
 40
0.8777539489704245
 40
1.0
 40
1.0
 40
1.0
 40
1.0
 10
11586.94198496315
 20
-3308.53182607891
 30
0.0
 10
11587.95652566946
 20
-3308.743110419171
 30
0.0
 10
11589.8010020786
 20
-3309.127233972626
 30
0.0
 10
11592.36573322107
 20
-3310.302206937355
 30
0.0
 10
11594.51094915782
 20
-3311.694713391806
 30
0.0
 10
11596.36990732513
 20
-3313.378274889208
 30
0.0
 10
11597.80087176479
 20
-3315.100637612376
 30
0.0
 10
11598.51292966262
 20
-3316.34459935384
 30
0.0
 10
11598.82014563868
 20
-3316.881304194484
 30
0.0
  0
SPLINE
  5
1DFF9A
330
18
100
AcDbEntity
  8
0
  6
Continuous
 62
     8
370
    -2
100
AcDbSpline
210
0.0
220
0.0
230
1.0
 70
     8
 71
     3
 72
     9
 73
     5
 74
     0
 42
0.000000001
 43
0.00000001
 40
0.0
 40
0.0
 40
0.0
 40
0.0
 40
0.5931531276787985
 40
1.0
 40
1.0
 40
1.0
 40
1.0
 10
11598.82014563868
 20
-3316.881304194484
 30
0.0
 10
11598.77120718899
 20
-3316.876385473353
 30
0.0
 10
11598.68870159742
 20
-3316.868092975345
 30
0.0
 10
11598.67463216983
 20
-3316.83463607303
 30
0.0
 10
11598.66890806722
 20
-3316.821024236966
 30
0.0
  0
LINE
  5
1DFF9B
330
18
100
AcDbEntity
  8
0
  6
Continuous
 62
     8
370
    -2
100
AcDbLine
 10
11646.71552922707
 20
-3341.886623550395
 30
0.0
 11
11645.70302889681
 21
-3342.387330882696
 31
0.0
  0
LINE
  5
1DFF9C
330
18
100
AcDbEntity
  8
0
  6
Continuous
 62
     8
370
    -2
100
AcDbLine
 10
11646.64464197887
 20
-3340.821090196933
 30
0.0
 11
11646.71552922707
 21
-3341.886623550395
 31
0.0
  0
LINE
  5
1DFF9D
330
18
100
AcDbEntity
  8
0
  6
Continuous
 62
     8
370
    -2
100
AcDbLine
 10
11618.91854927715
 20
-3362.407666853204
 30
0.0
 11
11623.97175140412
 21
-3360.020226356254
 31
0.0
  0
ARC
  5
1DFF9E
330
18
100
AcDbEntity
  8
0
  6
Continuous
 62
     8
370
    -2
100
AcDbCircle
 10
11615.24042079765
 20
-3344.019297487436
 30
0.0
 40
30.25742803061718
100
AcDbArc
 50
354.1265818592744
 51
3.015835294990795
  0
ARC
  5
1DFF9F
330
18
100
AcDbEntity
  8
0
  6
Continuous
 62
     8
370
    -2
100
AcDbCircle
 10
11616.79220897564
 20
-3344.116995254983
 30
0.0
 40
28.96251452058229
100
AcDbArc
 50
351.3509756013063
 51
3.423786721046985
  0
LINE
  5
1DFFA0
330
18
100
AcDbEntity
  8
0
  6
Continuous
 62
     8
370
    -2
100
AcDbLine
 10
11645.41481795099
 20
-3349.684802550067
 30
0.0
 11
11646.20382172172
 21
-3349.311294523265
 31
0.0
  0
LINE
  5
1DFFA1
330
18
100
AcDbEntity
  8
0
  6
Continuous
 62
     8
370
    -2
100
AcDbLine
 10
11645.70302889681
 20
-3342.387330882696
 30
0.0
 11
11646.73108014454
 21
-3341.89520697627
 31
0.0
  0
ARC
  5
1DFFA2
330
18
100
AcDbEntity
  8
0
  6
Continuous
 62
     8
370
    -2
100
AcDbCircle
 10
11618.75589280711
 20
-3343.633053885327
 30
0.0
 40
28.02911376486463
100
AcDbArc
 50
348.3119143644189
 51
3.554703864610658
  0
LINE
  5
1DFFA3
330
18
100
AcDbEntity
  8
0
  6
Continuous
 62
     8
370
    -2
100
AcDbLine
 10
11646.71552922707
 20
-3341.886623550395
 30
0.0
 11
11646.73108014454
 21
-3341.89520697627
 31
0.0
  0
LINE
  5
1DFFA4
330
18
100
AcDbEntity
  8
0
  6
Continuous
 62
     8
370
    -2
100
AcDbLine
 10
11597.07893620098
 20
-3316.95329946216
 30
0.0
 11
11598.33364993887
 21
-3316.305963574542
 31
0.0
  0
LINE
  5
1DFFA5
330
18
100
AcDbEntity
  8
0
  6
Continuous
 62
     8
370
    -2
100
AcDbLine
 10
11620.3182444978
 20
-3363.703145797419
 30
0.0
 11
11619.69008579178
 21
-3364.013452818261
 31
0.0
  0
SPLINE
  5
1DFFA6
330
18
100
AcDbEntity
  8
0
  6
Continuous
 62
     8
370
    -2
100
AcDbSpline
210
0.0
220
0.0
230
1.0
 70
     8
 71
     3
 72
    18
 73
    14
 74
     0
 42
0.000000001
 43
0.00000001
 40
0.0
 40
0.0
 40
0.0
 40
0.0
 40
0.0995641334152304
 40
0.8380047156009844
 40
0.9821434956186912
 40
0.991074037323535
 40
0.995539415153662
 40
0.9970753293625072
 40
0.99860979913835
 40
0.9993777562427726
 40
0.9997614506727254
 40
0.9999525733184588
 40
1.0
 40
1.0
 40
1.0
 40
1.0
 10
11578.65430191806
 20
-3313.023189215834
 30
0.0
 10
11578.70239718286
 20
-3313.015043860018
 30
0.0
 10
11579.10720217965
 20
-3312.946486575886
 30
0.0
 10
11579.59003251287
 20
-3312.882280794623
 30
0.0
 10
11580.03259327364
 20
-3312.838632470712
 30
0.0
 10
11580.1109388279
 20
-3312.831366070666
 30
0.0
 10
11580.11836563611
 20
-3312.830678120615
 30
0.0
 10
11580.12211502811
 20
-3312.830341411896
 30
0.0
 10
11580.12402403192
 20
-3312.830162534362
 30
0.0
 10
11580.12535941665
 20
-3312.830032740646
 30
0.0
 10
11580.12602898563
 20
-3312.829986033046
 30
0.0
 10
11580.12633755685
 20
-3312.829947461463
 30
0.0
 10
11580.12645676347
 20
-3312.829942004411
 30
0.0
 10
11580.12648046328
 20
-3312.829940919479
 30
0.0
  0
LWPOLYLINE
  5
1DFFA7
330
18
100
AcDbEntity
  8
0
  6
Continuous
 62
     8
370
    -2
100
AcDbPolyline
 90
        3
 70
   128
 43
0.0
 10
11621.00715692421
 20
-3302.391370228055
 10
11622.08877180167
 20
-3302.762384016191
 10
11622.96989948806
 20
-3303.12085895396
  0
SPLINE
  5
1DFFA8
330
18
100
AcDbEntity
  8
0
  6
Continuous
 62
     8
370
    -2
100
AcDbSpline
210
0.0
220
0.0
230
1.0
 70
     8
 71
     3
 72
    14
 73
    10
 74
     0
 42
0.000000001
 43
0.00000001
 40
0.0
 40
0.0
 40
0.0
 40
0.0
 40
0.0000104861640417
 40
0.0000313117573929
 40
0.0061229100273156
 40
0.0091691618277903
 40
0.0183495247467934
 40
0.1876256848517152
 40
1.0
 40
1.0
 40
1.0
 40
1.0
 10
11615.06889869369
 20
-3377.558571102602
 30
0.0
 10
11615.06889717705
 20
-3377.558574723238
 30
0.0
 10
11615.06889264834
 20
-3377.558585534481
 30
0.0
 10
11615.06793551161
 20
-3377.560749137561
 30
0.0
 10
11615.06695268098
 20
-3377.564442064875
 30
0.0
 10
11615.06452567311
 20
-3377.571361670641
 30
0.0
 10
11615.04118521774
 20
-3377.640680813728
 30
0.0
 10
11614.90879660358
 20
-3378.01568479622
 30
0.0
 10
11614.74491336847
 20
-3378.370318878713
 30
0.0
 10
11614.60929021721
 20
-3378.663799732801
 30
0.0
  0
LWPOLYLINE
  5
1DFFA9
330
18
100
AcDbEntity
  8
0
  6
Continuous
 62
     8
370
    -2
100
AcDbPolyline
 90
        3
 70
   128
 43
0.0
 10
11646.18866780185
 20
-3349.297074162575
 10
11645.83590568723
 20
-3350.674446065098
 10
11645.41540643352
 20
-3351.93047708451
  0
ARC
  5
1DFFAA
330
18
100
AcDbEntity
  8
0
  6
Continuous
 62
     8
370
    -2
100
AcDbCircle
 10
11611.90198651117
 20
-3307.606119751525
 30
0.0
 40
12.64383359937077
100
AcDbArc
 50
87.67682402702398
 51
127.9512055832499
  0
ARC
  5
1DFFAB
330
18
100
AcDbEntity
  8
0
  6
Continuous
 62
     8
370
    -2
100
AcDbCircle
 10
11635.92606364724
 20
-3356.098357232703
 30
0.0
 40
12.4127215450447
100
AcDbArc
 50
283.4340377590338
 51
325.5778778135391
  0
ARC
  5
1DFFAC
330
18
100
AcDbEntity
  8
0
  6
Continuous
 62
     8
370
    -2
100
AcDbCircle
 10
11661.85176585496
 20
-3282.513805830723
 30
0.0
 40
12.31273460513725
100
AcDbArc
 50
98.42628071779302
 51
116.1457470552171
  0
ARC
  5
1DFFAD
330
18
100
AcDbEntity
  8
0
  6
Continuous
 62
     8
370
    -2
100
AcDbCircle
 10
11686.06223401255
 20
-3331.459129487756
 30
0.0
 40
12.28157632256464
100
AcDbArc
 50
296.4565052897437
 51
314.4256312787214
  0
LWPOLYLINE
  5
1DFFAE
330
18
100
AcDbEntity
  8
0
  6
Continuous
 62
     8
370
    -2
100
AcDbPolyline
 90
       12
 70
   128
 43
0.0
 10
11622.9699001406
 20
-3299.447899063982
 10
11622.90424070808
 20
-3299.408577215262
 10
11621.16595102038
 20
-3298.444808187931
 10
11619.43942474816
 20
-3297.636685164745
 10
11617.73271256192
 20
-3296.987983521303
 10
11616.05377281113
 20
-3296.501713282999
 10
11614.41043102236
 20
-3296.180148034992
 10
11612.81035126655
 20
-3296.02478807989
 10
11611.26099311256
 20
-3296.036359838795
 10
11609.76958035446
 20
-3296.214805775156
 10
11608.34306673198
 20
-3296.559297809419
 10
11608.17137548085
 20
-3296.613407479429
  0
LWPOLYLINE
  5
1DFFAF
330
18
100
AcDbEntity
  8
0
  6
Continuous
 62
     8
370
    -2
100
AcDbPolyline
 90
       17
 70
   128
 43
0.0
 10
11642.20470527702
 20
-3365.569023942281
 10
11642.86042761165
 20
-3365.086162899186
 10
11643.96431635606
 20
-3364.10116765135
 10
11644.97367280953
 20
-3362.965692771494
 10
11645.88378840108
 20
-3361.685048853215
 10
11646.69042362812
 20
-3360.265182695236
 10
11647.38981410432
 20
-3358.71274190156
 10
11647.97870489534
 20
-3357.034944638036
 10
11648.45434285692
 20
-3355.239617528233
 10
11648.81451423307
 20
-3353.33513392439
 10
11649.05754015241
 20
-3351.330371795275
 10
11649.18228535505
 20
-3349.234689050135
 10
11649.18817188839
 20
-3347.0578353358
 10
11649.07516622159
 20
-3344.809978452402
 10
11648.84380109863
 20
-3342.501587453265
 10
11648.49515404636
 20
-3340.143424924354
 10
11648.47085422379
 20
-3340.002421403413
  0
ARC
  5
1DFFB0
330
18
100
AcDbEntity
  8
0
  6
Continuous
 62
     8
370
    -2
100
AcDbCircle
 10
11636.91508396853
 20
-3352.565872660381
 30
0.0
 40
12.11918261083285
100
AcDbArc
 50
299.261930570479
 51
327.2236771191865
  0
LINE
  5
1DFFB1
330
18
100
AcDbEntity
  8
0
  6
Continuous
 62
     8
370
    -2
100
AcDbLine
 10
11647.10477623287
 20
-3359.126723116902
 30
0.0
 11
11647.42628134251
 21
-3358.620657731898
 31
0.0
  0
ARC
  5
1DFFB2
330
18
100
AcDbEntity
  8
0
  6
Continuous
 62
     8
370
    -2
100
AcDbCircle
 10
11615.28113897956
 20
-3310.746113685464
 30
0.0
 40
14.1283104144363
100
AcDbArc
 50
83.80677384941328
 51
93.26577503602391
  0
ARC
  5
1DFFB3
330
18
100
AcDbEntity
  8
0
  6
Continuous
 62
     8
370
    -2
100
AcDbCircle
 10
11615.08573157124
 20
-3308.187317387778
 30
0.0
 40
11.56264282951563
100
AcDbArc
 50
93.02137440007589
 51
113.507788409818
  0
ARC
  5
1DFFB4
330
18
100
AcDbEntity
  8
0
  6
Continuous
 62
     8
370
    -2
100
AcDbCircle
 10
11646.18113217695
 20
-3327.576393972092
 30
0.0
 40
15.14427920205495
100
AcDbArc
 50
272.2044997358295
 51
272.5889552934988
  0
LINE
  5
1DFFB5
330
18
100
AcDbEntity
  8
0
  6
Continuous
 62
     8
370
    -2
100
AcDbLine
 10
11646.37718972403
 20
-3348.727275206219
 30
0.0
 11
11646.32936665871
 21
-3348.695845333354
 31
0.0
  0
ARC
  5
1DFFB6
330
18
100
AcDbEntity
  8
0
  6
Continuous
 62
     8
370
    -2
100
AcDbCircle
 10
11658.83873611041
 20
-3320.669037146884
 30
0.0
 40
30.70105635534384
100
AcDbArc
 50
246.0524872240094
 51
246.1750956625184
  0
ARC
  5
1DFFB7
330
18
100
AcDbEntity
  8
0
  6
Continuous
 62
     8
370
    -2
100
AcDbCircle
 10
11626.93268334346
 20
-3345.154283751507
 30
0.0
 40
19.8339509720586
100
AcDbArc
 50
340.2298702879231
 51
349.5436450499394
  0
ARC
  5
1DFFB8
330
18
100
AcDbEntity
  8
0
  6
Continuous
 62
     8
370
    -2
100
AcDbCircle
 10
11658.68119776029
 20
-3325.845923425532
 30
0.0
 40
29.121694324984
100
AcDbArc
 50
243.0115076466658
 51
243.3028612094074
  0
ARC
  5
1DFFB9
330
18
100
AcDbEntity
  8
0
  6
Continuous
 62
     8
370
    -2
100
AcDbCircle
 10
11669.72367690752
 20
-3328.222859357954
 30
0.0
 40
38.36503326318812
100
AcDbArc
 50
229.4270773641627
 51
233.6659842989916
  0
SPLINE
  5
1DFFBA
330
18
100
AcDbEntity
  8
0
  6
Continuous
 62
     8
370
    -2
100
AcDbSpline
210
0.0
220
0.0
230
1.0
 70
     8
 71
     3
 72
    11
 73
     7
 74
     0
 42
0.000000001
 43
0.00000001
 40
0.0
 40
0.0
 40
0.0
 40
0.0
 40
0.3010620896932459
 40
0.6021270567775237
 40
0.9031697222320028
 40
0.9999999999999999
 40
0.9999999999999999
 40
0.9999999999999999
 40
0.9999999999999999
 10
11647.10477623287
 20
-3359.126723116902
 30
0.0
 10
11647.09688558476
 20
-3359.135348731008
 30
0.0
 10
11647.08110421315
 20
-3359.152600041661
 30
0.0
 10
11647.04544016707
 20
-3359.155353209092
 30
0.0
 10
11647.01461101102
 20
-3359.143982308854
 30
0.0
 10
11646.99700414228
 20
-3359.131799933482
 30
0.0
 10
11646.99271916131
 20
-3359.128835110637
 30
0.0
  0
SPLINE
  5
1DFFBB
330
18
100
AcDbEntity
  8
0
  6
Continuous
 62
     8
370
    -2
100
AcDbSpline
210
0.0
220
0.0
230
1.0
 70
     8
 71
     3
 72
    14
 73
    10
 74
     0
 42
0.000000001
 43
0.00000001
 40
0.0
 40
0.0
 40
0.0
 40
0.0
 40
0.1608370846185274
 40
0.3216731068123868
 40
0.4823619761785589
 40
0.6428927293811028
 40
0.80340870244744
 40
0.9640403071753662
 40
1.0
 40
1.0
 40
1.0
 40
1.0
 10
11614.47338063294
 20
-3296.897284105896
 30
0.0
 10
11614.46252853987
 20
-3296.880412027822
 30
0.0
 10
11614.44082442542
 20
-3296.846667983126
 30
0.0
 10
11614.4206296484
 20
-3296.788956547176
 30
0.0
 10
11614.41276269993
 20
-3296.734124520653
 30
0.0
 10
11614.41870522238
 20
-3296.687402985189
 30
0.0
 10
11614.43762056858
 20
-3296.654428520414
 30
0.0
 10
11614.45965248418
 20
-3296.64238770106
 30
0.0
 10
11614.47371061295
 20
-3296.641000967966
 30
0.0
 10
11614.47628206956
 20
-3296.640747312303
 30
0.0
  0
ARC
  5
1DFFBC
330
18
100
AcDbEntity
  8
0
  6
Continuous
 62
     8
370
    -2
100
AcDbCircle
 10
11559.63876985068
 20
-3336.667242183521
 30
0.0
 40
67.73835032784592
100
AcDbArc
 50
33.17556294269878
 51
35.95229161040914
  0
SPLINE
  5
1DFFBD
330
18
100
AcDbEntity
  8
0
  6
Continuous
 62
     8
370
    -2
100
AcDbSpline
210
0.0
220
0.0
230
1.0
 70
     8
 71
     3
 72
     9
 73
     5
 74
     0
 42
0.000000001
 43
0.00000001
 40
0.0
 40
0.0
 40
0.0
 40
0.0
 40
0.9474997677610945
 40
1.0
 40
1.0
 40
1.0
 40
1.0
 10
11622.4518915793
 20
-3302.824849692086
 30
0.0
 10
11622.46233598008
 20
-3302.853950623111
 30
0.0
 10
11622.47335909705
 20
-3302.884664014307
 30
0.0
 10
11622.47398878581
 20
-3302.91148696536
 30
0.0
 10
11622.47402184462
 20
-3302.912895176521
 30
0.0
  0
ARC
  5
1DFFBE
330
18
100
AcDbEntity
  8
0
  6
Continuous
 62
     8
370
    -2
100
AcDbCircle
 10
11566.78166947826
 20
-3323.413332966309
 30
0.0
 40
59.35536430949245
100
AcDbArc
 50
20.29587417460943
 51
20.38347892251813
  0
SPLINE
  5
1DFFBF
330
18
100
AcDbEntity
  8
0
  6
Continuous
 62
     8
370
    -2
100
AcDbSpline
210
0.0
220
0.0
230
1.0
 70
     8
 71
     3
 72
    13
 73
     9
 74
     0
 42
0.000000001
 43
0.00000001
 40
0.0
 40
0.0
 40
0.0
 40
0.0
 40
0.148262425084086
 40
0.3366420944851451
 40
0.5661944277207636
 40
0.7602603735995407
 40
0.8918735315522092
 40
1.0
 40
1.0
 40
1.0
 40
1.0
 10
11646.8652056175
 20
-3342.705215343161
 30
0.0
 10
11647.00087138612
 20
-3342.690933745874
 30
0.0
 10
11647.30891173063
 20
-3342.658506198433
 30
0.0
 10
11647.75885086265
 20
-3342.597331044448
 30
0.0
 10
11648.17815511694
 20
-3342.525432919339
 30
0.0
 10
11648.47872913354
 20
-3342.458654607837
 30
0.0
 10
11648.69523369918
 20
-3342.402535448922
 30
0.0
 10
11648.75409715515
 20
-3342.376938592412
 30
0.0
 10
11648.78064553061
 20
-3342.365393994051
 30
0.0
  0
SPLINE
  5
1DFFC0
330
18
100
AcDbEntity
  8
0
  6
Continuous
 62
     8
370
    -2
100
AcDbSpline
210
0.0
220
0.0
230
1.0
 70
     8
 71
     3
 72
    10
 73
     6
 74
     0
 42
0.000000001
 43
0.00000001
 40
0.0
 40
0.0
 40
0.0
 40
0.0
 40
0.1549879684272585
 40
0.5782257989063834
 40
1.0
 40
1.0
 40
1.0
 40
1.0
 10
11648.80190297202
 20
-3342.511633680722
 30
0.0
 10
11648.74437136203
 20
-3342.523386214332
 30
0.0
 10
11648.52973366153
 20
-3342.567232315452
 30
0.0
 10
11647.90290558145
 20
-3342.637099911731
 30
0.0
 10
11647.21070595685
 20
-3342.682536432598
 30
0.0
 10
11646.8652056175
 20
-3342.705215343161
 30
0.0
  0
SPLINE
  5
1DFFC1
330
18
100
AcDbEntity
  8
0
  6
Continuous
 62
     8
370
    -2
100
AcDbSpline
210
0.0
220
0.0
230
1.0
 70
     8
 71
     3
 72
    14
 73
    10
 74
     0
 42
0.000000001
 43
0.00000001
 40
0.0
 40
0.0
 40
0.0
 40
0.0
 40
0.0966752104489792
 40
0.2195116690102408
 40
0.3691942571535084
 40
0.4957365242565064
 40
0.5815603444878595
 40
0.8804601452109276
 40
1.0
 40
1.0
 40
1.0
 40
1.0
 10
11645.59756644354
 20
-3351.863065311704
 30
0.0
 10
11645.7544147789
 20
-3351.936588195779
 30
0.0
 10
11646.11055612802
 20
-3352.103529968328
 30
0.0
 10
11646.65055021918
 20
-3352.37796988628
 30
0.0
 10
11647.17107813406
 20
-3352.666728389703
 30
0.0
 10
11647.58060365988
 20
-3352.921816557337
 30
0.0
 10
11648.08315441612
 20
-3353.271295113212
 30
0.0
 10
11648.49908690315
 20
-3353.61634469653
 30
0.0
 10
11648.61311205204
 20
-3353.886844921237
 30
0.0
 10
11648.6456867604
 20
-3353.964121434483
 30
0.0
  0
ARC
  5
1DFFC2
330
18
100
AcDbEntity
  8
0
  6
Continuous
 62
     8
370
    -2
100
AcDbCircle
 10
11655.03127104743
 20
-3329.407717290216
 30
0.0
 40
21.16910334708435
100
AcDbArc
 50
246.0481043555471
 51
253.9065476422257
  0
LINE
  5
1DFFC3
330
18
100
AcDbEntity
  8
0
  6
Continuous
 62
     8
370
    -2
100
AcDbLine
 10
11647.2365619135
 20
-3348.310389001236
 30
0.0
 11
11646.37718972403
 21
-3348.727275206219
 31
0.0
  0
SPLINE
  5
1DFFC4
330
18
100
AcDbEntity
  8
0
  6
Continuous
 62
     8
370
    -2
100
AcDbSpline
210
0.0
220
0.0
230
1.0
 70
     8
 71
     3
 72
    12
 73
     8
 74
     0
 42
0.000000001
 43
0.00000001
 40
0.0
 40
0.0
 40
0.0
 40
0.0
 40
0.1670914584404895
 40
0.3887845539592436
 40
0.5973244438155836
 40
0.7987066773323765
 40
1.0
 40
1.0
 40
1.0
 40
1.0
 10
11647.25074393179
 20
-3348.011836652194
 30
0.0
 10
11647.27510056082
 20
-3348.025033562456
 30
0.0
 10
11647.33177300381
 20
-3348.05573982906
 30
0.0
 10
11647.37697106365
 20
-3348.116477786353
 30
0.0
 10
11647.37814124265
 20
-3348.185807066547
 30
0.0
 10
11647.33384335714
 20
-3348.254075782196
 30
0.0
 10
11647.26898428775
 20
-3348.29162069153
 30
0.0
 10
11647.2365619135
 20
-3348.310389001236
 30
0.0
  0
SPLINE
  5
1DFFC5
330
18
100
AcDbEntity
  8
0
  6
Continuous
 62
     8
370
    -2
100
AcDbSpline
210
0.0
220
0.0
230
1.0
 70
     8
 71
     3
 72
    15
 73
    11
 74
     0
 42
0.000000001
 43
0.00000001
 40
0.0
 40
0.0
 40
0.0
 40
0.0
 40
0.0449785236236994
 40
0.1421958764884191
 40
0.2466374447068998
 40
0.3582506814968066
 40
0.4769653120159514
 40
0.6214790745229027
 40
0.7959706628036937
 40
1.0
 40
1.0
 40
1.0
 40
1.0
 10
11617.9776023377
 20
-3297.084295670631
 30
0.0
 10
11618.06734753734
 20
-3297.139417253111
 30
0.0
 10
11618.35106955163
 20
-3297.313679569943
 30
0.0
 10
11618.82281305265
 20
-3297.662028159525
 30
0.0
 10
11619.3989963839
 20
-3298.141266853643
 30
0.0
 10
11619.97884421714
 20
-3298.705245765792
 30
0.0
 10
11620.58283513841
 20
-3299.390254110456
 30
0.0
 10
11621.21934275656
 20
-3300.258305719286
 30
0.0
 10
11621.88296993077
 20
-3301.377055844672
 30
0.0
 10
11622.2321388236
 20
-3302.262490101024
 30
0.0
 10
11622.42034690663
 20
-3302.73975450649
 30
0.0
  0
SPLINE
  5
1DFFC6
330
18
100
AcDbEntity
  8
0
  6
Continuous
 62
     8
370
    -2
100
AcDbSpline
210
0.0
220
0.0
230
1.0
 70
     8
 71
     3
 72
     9
 73
     5
 74
     0
 42
0.000000001
 43
0.00000001
 40
0.0
 40
0.0
 40
0.0
 40
0.0
 40
0.6081523884875338
 40
1.0
 40
1.0
 40
1.0
 40
1.0
 10
11622.96989964115
 20
-3300.212665668692
 30
0.0
 10
11622.56649880168
 20
-3299.766598702078
 30
0.0
 10
11621.9031768332
 20
-3299.033119766439
 30
0.0
 10
11621.08781421311
 20
-3298.496121164478
 30
0.0
 10
11620.7683163179
 20
-3298.285699544914
 30
0.0
  0
ARC
  5
1DFFC7
330
18
100
AcDbEntity
  8
0
  6
Continuous
 62
     8
370
    -2
100
AcDbCircle
 10
11620.33518234029
 20
-3343.049784859777
 30
0.0
 40
27.12788051331026
100
AcDbArc
 50
350.3570153830236
 51
0.2946040188445821
  0
SPLINE
  5
1DFFC8
330
18
100
AcDbEntity
  8
0
  6
Continuous
 62
     8
370
    -2
100
AcDbSpline
210
0.0
220
0.0
230
1.0
 70
     8
 71
     3
 72
    10
 73
     6
 74
     0
 42
0.000000001
 43
0.00000001
 40
0.0
 40
0.0
 40
0.0
 40
0.0
 40
0.3312081462250578
 40
0.7894368255820445
 40
0.9999999999999999
 40
0.9999999999999999
 40
0.9999999999999999
 40
0.9999999999999999
 10
11647.08631051684
 20
-3347.882484343643
 30
0.0
 10
11647.08625539824
 20
-3347.87972143849
 30
0.0
 10
11647.08612402271
 20
-3347.873136035631
 30
0.0
 10
11647.06760984758
 20
-3347.870463566147
 30
0.0
 10
11647.04758280381
 20
-3347.871589120803
 30
0.0
 10
11647.04127746697
 20
-3347.871943491689
 30
0.0
  0
SPLINE
  5
1DFFC9
330
18
100
AcDbEntity
  8
0
  6
Continuous
 62
     8
370
    -2
100
AcDbSpline
210
0.0
220
0.0
230
1.0
 70
     8
 71
     3
 72
     9
 73
     5
 74
     0
 42
0.000000001
 43
0.00000001
 40
0.0
 40
0.0
 40
0.0
 40
0.0
 40
0.6187471999485776
 40
1.0
 40
1.0
 40
1.0
 40
1.0
 10
11622.42034690663
 20
-3302.73975450649
 30
0.0
 10
11622.20001675488
 20
-3302.156590759064
 30
0.0
 10
11621.84392600932
 20
-3301.214099629449
 30
0.0
 10
11621.28826188627
 20
-3300.400631189369
 30
0.0
 10
11621.07641338347
 20
-3300.090494068835
 30
0.0
  0
ARC
  5
1DFFCA
330
18
100
AcDbEntity
  8
0
  6
Continuous
 62
     8
370
    -2
100
AcDbCircle
 10
11647.42309412176
 20
-3347.967840181837
 30
0.0
 40
0.3900435339695024
100
AcDbArc
 50
172.2884757305193
 51
241.42985328923
  0
ARC
  5
1DFFCB
330
18
100
AcDbEntity
  8
0
  6
Continuous
 62
     8
370
    -2
100
AcDbCircle
 10
11617.34963073473
 20
-3317.122205499754
 30
0.0
 40
15.59257277085988
100
AcDbArc
 50
71.65715661870551
 51
80.13330909798559
  0
ARC
  5
1DFFCC
330
18
100
AcDbEntity
  8
0
  6
Continuous
 62
     8
370
    -2
100
AcDbCircle
 10
11632.36059450635
 20
-3346.187307789937
 30
0.0
 40
14.67097731502895
100
AcDbArc
 50
332.3878618197114
 51
336.6911430617874
  0
LINE
  5
1DFFCD
330
18
100
AcDbEntity
  8
0
  6
Continuous
 62
     8
370
    -2
100
AcDbLine
 10
11628.59489943753
 20
-3220.248076247693
 30
0.0
 11
11628.59489943753
 21
-3334.936335003641
 31
0.0
  0
LINE
  5
1DFFCE
330
18
100
AcDbEntity
  8
0
  6
Continuous
 62
     8
370
    -2
100
AcDbLine
 10
11628.59489943753
 20
-3220.248076247693
 30
0.0
 11
11651.97758481707
 21
-3223.742133278479
 31
0.0
  0
LINE
  5
1DFFCF
330
18
100
AcDbEntity
  8
0
  6
Continuous
 62
     8
370
    -2
100
AcDbLine
 10
11651.97758481707
 20
-3223.742133278479
 30
0.0
 11
11651.97758481707
 21
-3338.430392034427
 31
0.0
  0
LINE
  5
1DFFD0
330
18
100
AcDbEntity
  8
0
  6
Continuous
 62
     8
370
    -2
100
AcDbLine
 10
11628.59489943753
 20
-3334.936335003641
 30
0.0
 11
11651.97758481707
 21
-3338.430392034427
 31
0.0
  0
LINE
  5
1DFFD1
330
18
100
AcDbEntity
  8
0
  6
Continuous
 62
     8
370
    -2
100
AcDbLine
 10
11651.97758481707
 20
-3338.430392034427
 30
0.0
 11
11646.35258515234
 21
-3340.952010399599
 31
0.0
  0
LINE
  5
1DFFD2
330
18
100
AcDbEntity
  8
0
  6
Continuous
 62
     8
370
    -2
100
AcDbLine
 10
11646.35258515234
 20
-3340.952010399599
 30
0.0
 11
11622.9698997728
 21
-3337.457953368813
 31
0.0
  0
LINE
  5
1DFFD3
330
18
100
AcDbEntity
  8
0
  6
Continuous
 62
     8
370
    -2
100
AcDbLine
 10
11622.9698997728
 20
-3337.457953368813
 30
0.0
 11
11628.59489943753
 21
-3334.936335003641
 31
0.0
  0
LWPOLYLINE
  5
1DFFD4
330
18
100
AcDbEntity
  8
0
  6
Continuous
 62
     8
370
    -2
100
AcDbPolyline
 90
       12
 70
   128
 43
0.0
 10
11622.9698997728
 20
-3327.011385877847
 10
11623.21909040133
 20
-3327.000601971858
 10
11623.47088109623
 20
-3326.814782896107
 10
11623.69378942917
 20
-3326.477180936877
 10
11623.85994054298
 20
-3326.030002221332
 10
11623.94855569969
 20
-3325.529170363984
 10
11623.94855569969
 20
-3325.03730414402
 10
11623.85994054298
 20
-3324.61592246264
 10
11623.69378942917
 20
-3324.317710760409
 10
11623.47088109623
 20
-3324.179962945039
 10
11623.21909040133
 20
-3324.219899707486
 10
11622.9698997728
 20
-3324.432527529892
  0
LINE
  5
1DFFD5
330
18
100
AcDbEntity
  8
0
  6
Continuous
 62
     8
370
    -2
100
AcDbLine
 10
11622.9698997728
 20
-3323.166648863893
 30
0.0
 11
11622.9698997728
 21
-3324.432527529892
 31
0.0
  0
LINE
  5
1DFFD6
330
18
100
AcDbEntity
  8
0
  6
Continuous
 62
     8
370
    -2
100
AcDbLine
 10
11622.9698997728
 20
-3323.166648863893
 30
0.0
 11
11622.9698997728
 21
-3233.616101362009
 31
0.0
  0
LINE
  5
1DFFD7
330
18
100
AcDbEntity
  8
0
  6
Continuous
 62
     8
370
    -2
100
AcDbLine
 10
11622.9698997728
 20
-3233.616101362009
 30
0.0
 11
11600.10990004907
 21
-3243.632723792175
 31
0.0
  0
LINE
  5
1DFFD8
330
18
100
AcDbEntity
  8
0
  6
Continuous
 62
     8
370
    -2
100
AcDbLine
 10
11600.10990004907
 20
-3233.0175521359
 30
0.0
 11
11600.10990004907
 21
-3243.632723792175
 31
0.0
  0
LINE
  5
1DFFD9
330
18
100
AcDbEntity
  8
0
  6
Continuous
 62
     8
370
    -2
100
AcDbLine
 10
11600.10990004907
 20
-3233.0175521359
 30
0.0
 11
11628.59489943753
 21
-3220.248076247693
 31
0.0
  0
LINE
  5
1DFFDA
330
18
100
AcDbEntity
  8
0
  6
Continuous
 62
     8
370
    -2
100
AcDbLine
 10
11622.9698997728
 20
-3337.457953368813
 30
0.0
 11
11622.9698997728
 21
-3328.277271020884
 31
0.0
  0
LINE
  5
1DFFDB
330
18
100
AcDbEntity
  8
0
  6
Continuous
 62
     8
370
    -2
100
AcDbLine
 10
11622.9698997728
 20
-3327.011385877847
 30
0.0
 11
11622.9698997728
 21
-3328.277271020884
 31
0.0
  0
ELLIPSE
  5
1DFFDC
330
18
100
AcDbEntity
  8
0
  6
Continuous
 62
     8
370
    -2
100
AcDbEllipse
 10
11623.06452964349
 20
-3325.574714594962
 30
0.0
 11
0.07054075913299016
 21
1.445243227885498
 31
0.0
210
0.0
220
0.0
230
1.0
 40
0.1676439559660083
 41
0.6677112530485169
 42
3.040510357647166
  0
ELLIPSE
  5
1DFFDD
330
18
100
AcDbEntity
  8
0
  6
Continuous
 62
     8
370
    -2
100
AcDbEllipse
 10
11623.06452964349
 20
-3325.574714594962
 30
0.0
 11
0.1322639233743246
 21
2.709831052285335
 31
0.0
210
0.0
220
0.0
230
1.0
 40
0.1676439559660045
 41
0.4846723993431926
 42
3.223549211352462
  0
LINE
  5
1DFFDE
330
18
100
AcDbEntity
  8
0
  6
Continuous
 62
     8
370
    -2
100
AcDbLine
 10
11622.96989948824
 20
-3246.11570067205
 30
0.0
 11
11621.39652989745
 21
-3246.813568826705
 31
0.0
  0
LINE
  5
1DFFDF
330
18
100
AcDbEntity
  8
0
  6
Continuous
 62
     8
370
    -2
100
AcDbLine
 10
11621.39652989745
 20
-3246.813568826705
 30
0.0
 11
11621.39652989745
 21
-3246.70044089152
 31
0.0
  0
LINE
  5
1DFFE0
330
18
100
AcDbEntity
  8
0
  6
Continuous
 62
     8
370
    -2
100
AcDbLine
 10
11602.20595558023
 20
-3243.945935788431
 30
0.0
 11
11600.10990004907
 21
-3243.632723792175
 31
0.0
  0
LINE
  5
1DFFE1
330
18
100
AcDbEntity
  8
0
  6
Continuous
 62
     8
370
    -2
100
AcDbLine
 10
11622.96989937691
 20
-3234.957403597074
 30
0.0
 11
11602.20595558023
 21
-3243.945935788431
 31
0.0
  0
LINE
  5
1DFFE2
330
18
100
AcDbEntity
  8
0
  6
Continuous
 62
     8
370
    -2
100
AcDbLine
 10
11621.39652989745
 20
-3246.813568826705
 30
0.0
 11
11622.96989956909
 21
-3247.048676269412
 31
0.0
  0
LWPOLYLINE
  5
1DFFE3
330
18
100
AcDbEntity
  8
0
  6
Continuous
 62
     8
370
    -2
100
AcDbPolyline
 90
       13
 70
   128
 43
0.0
 10
11599.22717365495
 20
-3232.088288906255
 10
11599.24046039192
 20
-3231.943215756504
 10
11599.4022754103
 20
-3231.551611258057
 10
11599.74567318544
 20
-3231.167933361325
 10
11600.26562527912
 20
-3230.797800986968
 10
11600.9545156727
 20
-3230.446634560323
 10
11601.80225681212
 20
-3230.119577089345
 10
11602.7964329058
 20
-3229.821418211178
 10
11603.922484389
 20
-3229.556524515439
 10
11605.16392063608
 20
-3229.328775427183
 10
11606.50255939977
 20
-3229.141506199253
 10
11607.91879816124
 20
-3228.997459594938
 10
11609.28549626729
 20
-3228.904244472013
  0
LINE
  5
1DFFE4
330
18
100
AcDbEntity
  8
0
  6
Continuous
 62
     8
370
    -2
100
AcDbLine
 10
11602.39673361787
 20
-3243.974443606627
 30
0.0
 11
11622.96989991884
 21
-3235.068497024996
 31
0.0
  0
LINE
  5
1DFFE5
330
18
100
AcDbEntity
  8
0
  6
Continuous
 62
     8
370
    -2
100
AcDbLine
 10
11602.39725408394
 20
-3243.86312443254
 30
0.0
 11
11602.39673361787
 21
-3243.974443606627
 31
0.0
  0
LINE
  5
1DFFE6
330
18
100
AcDbEntity
  8
0
  6
Continuous
 62
     8
370
    -2
100
AcDbLine
 10
11622.96989960922
 20
-3246.002572215211
 30
0.0
 11
11621.20575185982
 21
-3246.785061008508
 31
0.0
  0
LINE
  5
1DFFE7
330
18
100
AcDbEntity
  8
0
  6
Continuous
 62
     8
370
    -2
100
AcDbLine
 10
11621.20575185982
 20
-3246.785061008508
 30
0.0
 11
11622.96989956909
 21
-3247.048676269412
 31
0.0
  0
ELLIPSE
  5
1DFFE8
330
18
100
AcDbEntity
  8
0
  6
Continuous
 62
     8
370
    -2
100
AcDbEllipse
 10
11611.80124273884
 20
-3245.379752268846
 30
0.0
 11
13.499996805286
 21
-0.03650203757042055
 31
0.0
210
0.0
220
0.0
230
1.0
 40
0.2544372762266093
 41
2.618681839454382
 42
5.687375271657396
  0
LINE
  5
1DFFE9
330
18
100
AcDbEntity
  8
0
  6
Continuous
 62
     8
370
    -2
100
AcDbLine
 10
11600.10990004907
 20
-3243.632723792175
 30
0.0
 11
11602.39673361787
 21
-3243.974443606627
 31
0.0
  0
ELLIPSE
  5
1DFFEA
330
18
100
AcDbEntity
  8
0
  6
Continuous
 62
     8
370
    -2
100
AcDbEllipse
 10
11611.80124273884
 20
-3234.764580577053
 30
0.0
 11
13.499996805286
 21
-0.03650203757036936
 31
0.0
210
0.0
220
0.0
230
1.0
 40
0.2544372762266056
 41
2.618681839454352
 42
3.142280615052716
  0
ARC
  5
1DFFEB
330
18
100
AcDbEntity
  8
0
  6
Continuous
 62
     8
370
    -2
100
AcDbCircle
 10
11649.66000152631
 20
-3232.005921546148
 30
0.0
 40
3.325922415136042
100
AcDbArc
 50
314.1727875085717
 51
45.8272012689474
  0
LWPOLYLINE
  5
1DFFEC
330
18
100
AcDbEntity
  8
0
  6
Continuous
 62
     8
370
    -2
100
AcDbPolyline
 90
       49
 70
   128
 43
0.0
 10
11598.3012433984
 20
-3242.086045524828
 10
11597.34796282819
 20
-3241.997111405223
 10
11594.82826907889
 20
-3241.728036047445
 10
11592.38279303743
 20
-3241.41644893302
 10
11590.02222931526
 20
-3241.063711677389
 10
11587.75690048953
 20
-3240.671366775466
 10
11585.59670992002
 20
-3240.241130551105
 10
11583.55110580834
 20
-3239.774883778494
 10
11581.62903197556
 20
-3239.274665328885
 10
11579.83889396067
 20
-3238.742662094718
 10
11578.1885195457
 20
-3238.181201086907
 10
11576.68512403309
 20
-3237.592737232263
 10
11575.3352832834
 20
-3236.979843332527
 10
11574.14489926947
 20
-3236.34519990715
 10
11573.11917619012
 20
-3235.691581603974
 10
11572.26259858913
 20
-3235.021847917553
 10
11571.57891523728
 20
-3234.338925249643
 10
11571.07111406292
 20
-3233.645801660097
 10
11570.74141480493
 20
-3232.945506730979
 10
11570.59125813239
 20
-3232.241103427713
 10
11570.62130633445
 20
-3231.535672170157
 10
11570.83142111048
 20
-3230.832296491784
 10
11571.22068578209
 20
-3230.134053082293
 10
11571.78740017588
 20
-3229.443994990928
 10
11572.52908457584
 20
-3228.765139441561
 10
11573.44249657745
 20
-3228.10045507067
 10
11574.523641925
 20
-3227.452848391491
 10
11575.76779157528
 20
-3226.825150938052
 10
11577.16950726231
 20
-3226.220107804788
 10
11578.72265607654
 20
-3225.64036416882
 10
11580.42045096662
 20
-3225.088455811091
 10
11582.2554682221
 20
-3224.56679607252
 10
11584.21967884541
 20
-3224.077665261384
 10
11586.3044967166
 20
-3223.623202945762
 10
11588.5008085286
 20
-3223.205396269475
 10
11590.79900345266
 20
-3222.826071859954
 10
11593.18903606069
 20
-3222.486888447157
 10
11595.66045847518
 20
-3222.189329393196
 10
11598.20245874547
 20
-3221.934695901854
 10
11600.80391999814
 20
-3221.724101328371
 10
11603.45347333112
 20
-3221.558466558358
 10
11606.1395288708
 20
-3221.438515630622
 10
11608.85034150762
 20
-3221.364774036971
 10
11611.57405736943
 20
-3221.337562640685
 10
11614.29876553243
 20
-3221.357001395629
 10
11617.01255443244
 20
-3221.423005751744
 10
11619.70355408715
 20
-3221.535285950266
 10
11622.36000037183
 20
-3221.693351618397
 10
11624.92626835775
 20
-3221.892678329446
  0
ARC
  5
1DFFED
330
18
100
AcDbEntity
  8
0
  6
Continuous
 62
     8
370
    -2
100
AcDbCircle
 10
11649.34662501323
 20
-3231.062394660872
 30
0.0
 40
3.679352581329452
100
AcDbArc
 50
2.907129543517917
 51
44.35180666746168
  0
LWPOLYLINE
  5
1DFFEE
330
18
100
AcDbEntity
  8
0
  6
Continuous
 62
     8
370
    -2
100
AcDbPolyline
 90
       31
 70
   128
 43
0.0
 10
11570.58124301132
 20
-3230.875788344244
 10
11570.62130633445
 20
-3230.405538849118
 10
11570.83142111048
 20
-3229.702163170745
 10
11571.22068578209
 20
-3229.003919761255
 10
11571.78740017588
 20
-3228.313861669889
 10
11572.52908457584
 20
-3227.635006120523
 10
11573.44249657745
 20
-3226.970321749632
 10
11574.523641925
 20
-3226.322715070452
 10
11575.76779157528
 20
-3225.695017617013
 10
11577.16950726231
 20
-3225.08997448375
 10
11578.72265607654
 20
-3224.510230847782
 10
11580.42045096662
 20
-3223.958322490052
 10
11582.2554682221
 20
-3223.436662751482
 10
11584.21967884541
 20
-3222.947531940345
 10
11586.3044967166
 20
-3222.493069624724
 10
11588.5008085286
 20
-3222.075262948436
 10
11590.79900345266
 20
-3221.695938538915
 10
11593.18903606069
 20
-3221.356755126118
 10
11595.66045847518
 20
-3221.059196072157
 10
11598.20245874547
 20
-3220.804562580815
 10
11600.80391999814
 20
-3220.593968007333
 10
11603.45347333112
 20
-3220.42833323732
 10
11606.1395288708
 20
-3220.308382309583
 10
11608.85034150762
 20
-3220.234640715933
 10
11611.57405736943
 20
-3220.207429319646
 10
11614.29876553243
 20
-3220.226868074591
 10
11617.01255443244
 20
-3220.292872430706
 10
11619.70355408715
 20
-3220.405152629227
 10
11622.36000037183
 20
-3220.563218297358
 10
11624.97027483929
 20
-3220.766378386526
 10
11627.00738963075
 20
-3220.959737134589
  0
ARC
  5
1DFFEF
330
18
100
AcDbEntity
  8
0
  6
Continuous
 62
     8
370
    -2
100
AcDbCircle
 10
11601.48635608434
 20
-3175.503001280876
 30
0.0
 40
65.71594748120542
100
AcDbArc
 50
251.8118372069268
 51
262.2258082718472
  0
LWPOLYLINE
  5
1DFFF0
330
18
100
AcDbEntity
  8
0
  6
Continuous
 62
     8
370
    -2
100
AcDbPolyline
 90
       22
 70
   128
 43
0.0
 10
11577.71218848253
 20
-3227.425869098905
 10
11578.53853025205
 20
-3227.035499541278
 10
11579.92661651929
 20
-3226.459586206445
 10
11581.46331836955
 20
-3225.909532555055
 10
11583.14146743243
 20
-3225.387902996308
 10
11584.95324221553
 20
-3224.897129524335
 10
11586.89019625853
 20
-3224.4395008326
 10
11588.94329691395
 20
-3224.017150135482
 10
11591.10297081794
 20
-3223.632046932924
 10
11593.35914732571
 20
-3223.285986216437
 10
11595.7013151775
 20
-3222.980582157131
 10
11598.11854387237
 20
-3222.717258524081
 10
11600.59956694573
 20
-3222.497242591386
 10
11603.13282134805
 20
-3222.321560501507
 10
11605.70648850012
 20
-3222.191031877096
 10
11608.30857215231
 20
-3222.106264421433
 10
11610.92694434856
 20
-3222.067653271777
 10
11613.54938848675
 20
-3222.075379918845
 10
11616.16368320977
 20
-3222.129406706556
 10
11618.75763942609
 20
-3222.229482363998
 10
11621.31916157768
 20
-3222.375140138634
 10
11623.4898917861
 20
-3222.536588330918
  0
ARC
  5
1DFFF1
330
18
100
AcDbEntity
  8
0
  6
Continuous
 62
     8
370
    -2
100
AcDbCircle
 10
11609.14925253867
 20
-3128.927358914127
 30
0.0
 40
112.9074565216738
100
AcDbArc
 50
261.5700508536613
 51
264.4865869688125
  0
ARC
  5
1DFFF2
330
18
100
AcDbEntity
  8
0
  6
Continuous
 62
     8
370
    -2
100
AcDbCircle
 10
11576.50951256051
 20
-3231.590854407602
 30
0.0
 40
2.665064496376038
100
AcDbArc
 50
156.6153870418675
 51
201.5983443945505
  0
ARC
  5
1DFFF3
330
18
100
AcDbEntity
  8
0
  6
Continuous
 62
     8
370
    -2
100
AcDbCircle
 10
11611.81226833209
 20
-3343.877505306783
 30
0.0
 40
144.4945654854425
100
AcDbArc
 50
85.08293957366618
 51
95.34081332263364
  0
ARC
  5
1DFFF4
330
18
100
AcDbEntity
  8
0
  6
Continuous
 62
     8
370
    -2
100
AcDbCircle
 10
11611.8160131264
 20
-3345.51185913081
 30
0.0
 40
147.736713448593
100
AcDbArc
 50
86.68638051332736
 51
90.7941951948652
  0
ARC
  5
1DFFF5
330
18
100
AcDbEntity
  8
0
  6
Continuous
 62
     8
370
    -2
100
AcDbCircle
 10
11609.64831716581
 20
-3135.873132402792
 30
0.0
 40
92.90146550669417
100
AcDbArc
 50
261.5744813088202
 51
264.3804917969139
  0
LWPOLYLINE
  5
1DFFF6
330
18
100
AcDbEntity
  8
0
  6
Continuous
 62
     8
370
    -2
100
AcDbPolyline
 90
        4
 70
   128
 43
0.0
 10
11623.11853599851
 20
-3326.297682096454
 10
11623.2385413826
 20
-3326.590555627129
 10
11623.41808510129
 20
-3326.741622466906
 10
11623.52063601022
 20
-3326.755912508058
  0
LWPOLYLINE
  5
1DFFF7
330
18
100
AcDbEntity
  8
0
  6
Continuous
 62
     8
370
    -2
100
AcDbPolyline
 90
        8
 70
   128
 43
0.0
 10
11623.84601310943
 20
-3324.57844944071
 10
11623.84113819455
 20
-3324.576683812455
 10
11623.62939288025
 20
-3324.590404022176
 10
11623.41767941718
 20
-3324.766839040956
 10
11623.23823292856
 20
-3325.079115300655
 10
11623.11836836045
 20
-3325.479700946204
 10
11623.0763364688
 20
-3325.90760062459
 10
11623.11853599851
 20
-3326.297682096454
  0
LWPOLYLINE
  5
1DFFF8
330
18
100
AcDbEntity
  8
0
  6
Continuous
 62
     8
370
    -2
100
AcDbPolyline
 90
        3
 70
   128
 43
0.0
 10
11623.24826252105
 20
-3326.617411348303
 10
11623.28836825134
 20
-3326.684948766023
 10
11623.44788257422
 20
-3326.834041868069
  0
LWPOLYLINE
  5
1DFFF9
330
18
100
AcDbEntity
  8
0
  6
Continuous
 62
     8
370
    -2
100
AcDbPolyline
 90
        3
 70
   128
 43
0.0
 10
11623.80307242664
 20
-3324.481838722324
 10
11623.713550348
 20
-3324.509106976012
 10
11623.54504894855
 20
-3324.631272279127
  0
LINE
  5
1DFFFA
330
18
100
AcDbEntity
  8
0
  6
Continuous
 62
     8
370
    -2
100
AcDbLine
 10
11623.48033246701
 20
-3325.03063366037
 30
0.0
 11
11623.24321345543
 21
-3325.734399042947
 31
0.0
  0
LINE
  5
1DFFFB
330
18
100
AcDbEntity
  8
0
  6
Continuous
 62
     8
370
    -2
100
AcDbLine
 10
11623.24321345543
 20
-3325.734399042947
 30
0.0
 11
11623.39249179815
 21
-3326.362918898008
 31
0.0
  0
LINE
  5
1DFFFC
330
18
100
AcDbEntity
  8
0
  6
Continuous
 62
     8
370
    -2
100
AcDbLine
 10
11623.39249179815
 20
-3326.362918898008
 30
0.0
 11
11623.77634943579
 21
-3326.288170667622
 31
0.0
  0
LINE
  5
1DFFFD
330
18
100
AcDbEntity
  8
0
  6
Continuous
 62
     8
370
    -2
100
AcDbLine
 10
11623.9590950415
 20
-3325.344277439866
 30
0.0
 11
11623.86672982131
 21
-3324.955388132854
 31
0.0
  0
LINE
  5
1DFFFE
330
18
100
AcDbEntity
  8
0
  6
Continuous
 62
     8
370
    -2
100
AcDbLine
 10
11623.86672982131
 20
-3324.955388132854
 30
0.0
 11
11623.48033246701
 21
-3325.03063366037
 31
0.0
  0
LINE
  5
1DFFFF
330
18
100
AcDbEntity
  8
0
  6
Continuous
 62
     8
370
    -2
100
AcDbLine
 10
11623.89947606509
 20
-3325.093265971929
 30
0.0
 11
11623.48033246701
 21
-3325.03063366037
 31
0.0
  0
LINE
  5
1E0000
330
18
100
AcDbEntity
  8
0
  6
Continuous
 62
     8
370
    -2
100
AcDbLine
 10
11623.90541616248
 20
-3325.833351493738
 30
0.0
 11
11623.24321345543
 21
-3325.734399042947
 31
0.0
  0
ARC
  5
1E0001
330
18
100
AcDbEntity
  8
0
  6
Continuous
 62
     8
370
    -2
100
AcDbCircle
 10
11634.00802472756
 20
-3332.072930066387
 30
0.0
 40
9.566968489470527
100
AcDbArc
 50
302.7308408746934
 51
304.8482267008778
  0
LINE
  5
1E0002
330
18
100
AcDbEntity
  8
0
  6
Continuous
 62
     8
370
    -2
100
AcDbLine
 10
11639.05312610988
 20
-3340.201493308457
 30
0.0
 11
11638.83953249454
 21
-3339.829337401213
 31
0.0
  0
ARC
  5
1E0003
330
18
100
AcDbEntity
  8
0
  6
Continuous
 62
     8
370
    -2
100
AcDbCircle
 10
11634.05105337568
 20
-3332.141295035787
 30
0.0
 40
9.486175616811249
100
AcDbArc
 50
297.0012541309986
 51
301.8232952260527
  0
LINE
  5
1E0004
330
18
100
AcDbEntity
  8
0
  6
Continuous
 62
     8
370
    -2
100
AcDbLine
 10
11637.65509035285
 20
-3339.652347105806
 30
0.0
 11
11638.15537221662
 21
-3340.693581459479
 31
0.0
  0
ARC
  5
1E0005
330
18
100
AcDbEntity
  8
0
  6
Continuous
 62
     8
370
    -2
100
AcDbCircle
 10
11634.06772962787
 20
-3332.172527501601
 30
0.0
 40
9.450776819204036
100
AcDbArc
 50
290.7933962807904
 51
295.6275425337039
  0
LINE
  5
1E0006
330
18
100
AcDbEntity
  8
0
  6
Continuous
 62
     8
370
    -2
100
AcDbLine
 10
11637.28146830017
 20
-3341.060120231056
 30
0.0
 11
11636.88630025857
 21
-3340.055863547322
 31
0.0
  0
ARC
  5
1E0007
330
18
100
AcDbEntity
  8
0
  6
Continuous
 62
     8
370
    -2
100
AcDbCircle
 10
11634.04840637026
 20
-3332.118245824914
 30
0.0
 40
9.508407192470425
100
AcDbArc
 50
285.0637477443436
 51
289.8781779077902
  0
LINE
  5
1E0008
330
18
100
AcDbEntity
  8
0
  6
Continuous
 62
     8
370
    -2
100
AcDbLine
 10
11635.67773230032
 20
-3339.356871984207
 30
0.0
 11
11636.29985512714
 21
-3341.356286516315
 31
0.0
  0
ARC
  5
1E0009
330
18
100
AcDbEntity
  8
0
  6
Continuous
 62
     8
370
    -2
100
AcDbCircle
 10
11634.01054409223
 20
-3331.966479078989
 30
0.0
 40
9.664855339045465
100
AcDbArc
 50
278.9396467699155
 51
283.7018587231194
  0
LINE
  5
1E000A
330
18
100
AcDbEntity
  8
0
  6
Continuous
 62
     8
370
    -2
100
AcDbLine
 10
11635.36183135088
 20
-3341.536433738752
 30
0.0
 11
11635.11982333658
 21
-3340.492897037374
 31
0.0
  0
ARC
  5
1E000B
330
18
100
AcDbEntity
  8
0
  6
Continuous
 62
     8
370
    -2
100
AcDbCircle
 10
11633.97791064044
 20
-3331.74315207233
 30
0.0
 40
9.890581496082948
100
AcDbArc
 50
273.3534244369985
 51
278.0433957389194
  0
LINE
  5
1E000C
330
18
100
AcDbEntity
  8
0
  6
Continuous
 62
     8
370
    -2
100
AcDbLine
 10
11634.00145715784
 20
-3339.525089060172
 30
0.0
 11
11634.32618461668
 21
-3341.627675709155
 31
0.0
  0
ARC
  5
1E000D
330
18
100
AcDbEntity
  8
0
  6
Continuous
 62
     8
370
    -2
100
AcDbCircle
 10
11633.96279369313
 20
-3331.402986695556
 30
0.0
 40
10.23114452972586
100
AcDbArc
 50
267.4513223851425
 51
272.0354659589859
  0
LINE
  5
1E000E
330
18
100
AcDbEntity
  8
0
  6
Continuous
 62
     8
370
    -2
100
AcDbLine
 10
11633.35254230539
 20
-3341.615961803734
 30
0.0
 11
11633.27104753495
 21
-3340.564841394982
 31
0.0
  0
ARC
  5
1E000F
330
18
100
AcDbEntity
  8
0
  6
Continuous
 62
     8
370
    -2
100
AcDbCircle
 10
11633.98115695618
 20
-3331.05299902606
 30
0.0
 40
10.58165105367397
100
AcDbArc
 50
263.171450486419
 51
266.5942758411798
  0
LINE
  5
1E0010
330
18
100
AcDbEntity
  8
0
  6
Continuous
 62
     8
370
    -2
100
AcDbLine
 10
11632.09947379447
 20
-3341.466413079416
 30
0.0
 11
11632.09947379447
 21
-3338.822175515972
 31
0.0
  0
ARC
  5
1E0011
330
18
100
AcDbEntity
  8
0
  6
Continuous
 62
     8
370
    -2
100
AcDbCircle
 10
11634.06805592516
 20
-3330.491571919256
 30
0.0
 40
11.14999794152358
100
AcDbArc
 50
256.5253806187414
 51
259.8308678383723
  0
LINE
  5
1E0012
330
18
100
AcDbEntity
  8
0
  6
Continuous
 62
     8
370
    -2
100
AcDbLine
 10
11631.31465221541
 20
-3341.29628515795
 30
0.0
 11
11631.39614698585
 21
-3340.269520153293
 31
0.0
  0
ARC
  5
1E0013
330
18
100
AcDbEntity
  8
0
  6
Continuous
 62
     8
370
    -2
100
AcDbCircle
 10
11634.17576324925
 20
-3330.066761388209
 30
0.0
 40
11.58827685392139
100
AcDbArc
 50
251.4872374136681
 51
255.7060304660362
  0
LINE
  5
1E0014
330
18
100
AcDbEntity
  8
0
  6
Continuous
 62
     8
370
    -2
100
AcDbLine
 10
11630.59075422561
 20
-3338.970142849373
 30
0.0
 11
11630.26602676677
 21
-3340.975681940112
 31
0.0
  0
ARC
  5
1E0015
330
18
100
AcDbEntity
  8
0
  6
Continuous
 62
     8
370
    -2
100
AcDbCircle
 10
11634.36191570268
 20
-3329.53045336078
 30
0.0
 40
12.15605048560008
100
AcDbArc
 50
246.2219216572369
 51
250.309301794913
  0
LINE
  5
1E0016
330
18
100
AcDbEntity
  8
0
  6
Continuous
 62
     8
370
    -2
100
AcDbLine
 10
11629.31008139088
 20
-3340.587122853276
 30
0.0
 11
11629.55208958665
 21
-3339.615912328912
 31
0.0
  0
ARC
  5
1E0017
330
18
100
AcDbEntity
  8
0
  6
Continuous
 62
     8
370
    -2
100
AcDbCircle
 10
11634.59175355917
 20
-3329.018341438199
 30
0.0
 40
12.71741971954858
100
AcDbArc
 50
241.4954137135061
 51
245.4611569300889
  0
LINE
  5
1E0018
330
18
100
AcDbEntity
  8
0
  6
Continuous
 62
     8
370
    -2
100
AcDbLine
 10
11628.89592032995
 20
-3338.343470939294
 30
0.0
 11
11628.3029054939
 21
-3340.072106608389
 31
0.0
  0
ARC
  5
1E0019
330
18
100
AcDbEntity
  8
0
  6
Continuous
 62
     8
370
    -2
100
AcDbCircle
 10
11634.88677026692
 20
-3328.487631552954
 30
0.0
 40
13.32468902674156
100
AcDbArc
 50
236.5445204343803
 51
240.3889069152085
  0
LINE
  5
1E001A
330
18
100
AcDbEntity
  8
0
  6
Continuous
 62
     8
370
    -2
100
AcDbLine
 10
11627.39973788238
 20
-3339.510012245551
 30
0.0
 11
11627.79490628692
 21
-3338.623867894618
 31
0.0
  0
ARC
  5
1E001B
330
18
100
AcDbEntity
  8
0
  6
Continuous
 62
     8
370
    -2
100
AcDbCircle
 10
11635.19303868147
 20
-3328.030195874947
 30
0.0
 40
13.87521968286925
100
AcDbArc
 50
232.0864819881108
 51
235.828601032879
  0
LINE
  5
1E001C
330
18
100
AcDbEntity
  8
0
  6
Continuous
 62
     8
370
    -2
100
AcDbLine
 10
11626.89739520524
 20
-3338.044832838072
 30
0.0
 11
11626.46461387161
 21
-3338.816244545396
 31
0.0
  0
ARC
  5
1E001D
330
18
100
AcDbEntity
  8
0
  6
Continuous
 62
     8
370
    -2
100
AcDbCircle
 10
11635.54405885805
 20
-3327.587855563767
 30
0.0
 40
14.43998062272021
100
AcDbArc
 50
227.3966405167326
 51
231.0404727063521
  0
LINE
  5
1E001E
330
18
100
AcDbEntity
  8
0
  6
Continuous
 62
     8
370
    -2
100
AcDbLine
 10
11625.64166626974
 20
-3338.097708517579
 30
0.0
 11
11625.79265369596
 21
-3337.879752148021
 31
0.0
  0
ARC
  5
1E001F
330
18
100
AcDbEntity
  8
0
  6
Continuous
 62
     8
370
    -2
100
AcDbCircle
 10
11635.83555075779
 20
-3327.272907953311
 30
0.0
 40
14.8691488731537
100
AcDbArc
 50
225.4070618557543
 51
226.7193262703499
  0
LINE
  5
1E0020
330
18
100
AcDbEntity
  8
0
  6
Continuous
 62
     8
370
    -2
100
AcDbLine
 10
11625.39643746328
 20
-3337.820545855371
 30
0.0
 11
11625.39643746328
 21
-3337.861415961349
 31
0.0
  0
LWPOLYLINE
  5
1E0021
330
18
100
AcDbEntity
  8
0
  6
Continuous
 62
     8
370
    -2
100
AcDbPolyline
 90
        3
 70
   128
 43
0.0
 10
11622.69035068639
 20
-3327.753130596388
 10
11622.74795256153
 20
-3328.418982416955
 10
11622.96989976627
 20
-3329.748993202067
  0
ARC
  5
1E0022
330
18
100
AcDbEntity
  8
0
  6
Continuous
 62
     8
370
    -2
100
AcDbCircle
 10
11633.90920508353
 20
-3327.497176146144
 30
0.0
 40
11.96372075140656
100
AcDbArc
 50
156.1168643009406
 51
203.8831356990593
  0
LINE
  5
1E0023
330
18
100
AcDbEntity
  8
0
  6
Continuous
 62
     8
370
    -2
100
AcDbLine
 10
11625.64616567536
 20
-3338.095691489219
 30
0.0
 11
11625.64166626974
 21
-3338.097708517579
 31
0.0
  0
ARC
  5
1E0024
330
18
100
AcDbEntity
  8
0
  6
Continuous
 62
     8
370
    -2
100
AcDbCircle
 10
11635.83170843146
 20
-3327.275823532278
 30
0.0
 40
14.85983929395015
100
AcDbArc
 50
226.7297026754979
 51
227.402193988115
  0
LINE
  5
1E0025
330
18
100
AcDbEntity
  8
0
  6
Continuous
 62
     8
370
    -2
100
AcDbLine
 10
11625.77385915966
 20
-3338.214493097987
 30
0.0
 11
11625.76935975404
 21
-3338.216510126348
 31
0.0
  0
LINE
  5
1E0026
330
18
100
AcDbEntity
  8
0
  6
Continuous
 62
     8
370
    -2
100
AcDbLine
 10
11626.46911327723
 20
-3338.814227517036
 30
0.0
 11
11626.46461387161
 21
-3338.816244545396
 31
0.0
  0
ARC
  5
1E0027
330
18
100
AcDbEntity
  8
0
  6
Continuous
 62
     8
370
    -2
100
AcDbCircle
 10
11635.42762191894
 20
-3327.730310368491
 30
0.0
 40
14.25159978526816
100
AcDbArc
 50
231.0533344315042
 51
232.0925506732738
  0
LINE
  5
1E0028
330
18
100
AcDbEntity
  8
0
  6
Continuous
 62
     8
370
    -2
100
AcDbLine
 10
11626.67161305292
 20
-3338.97488262259
 30
0.0
 11
11626.6671136473
 21
-3338.97689965095
 31
0.0
  0
LINE
  5
1E0029
330
18
100
AcDbEntity
  8
0
  6
Continuous
 62
     8
370
    -2
100
AcDbLine
 10
11627.40423728801
 20
-3339.507995217191
 30
0.0
 11
11627.39973788238
 21
-3339.510012245551
 31
0.0
  0
ARC
  5
1E002A
330
18
100
AcDbEntity
  8
0
  6
Continuous
 62
     8
370
    -2
100
AcDbCircle
 10
11634.94102041034
 20
-3328.405012135157
 30
0.0
 40
13.41936411134971
100
AcDbArc
 50
235.8310629670165
 51
236.557019536957
  0
LINE
  5
1E002B
330
18
100
AcDbEntity
  8
0
  6
Continuous
 62
     8
370
    -2
100
AcDbLine
 10
11627.54551696938
 20
-3339.602594999675
 30
0.0
 11
11627.54101756376
 21
-3339.604612028035
 31
0.0
  0
LINE
  5
1E002C
330
18
100
AcDbEntity
  8
0
  6
Continuous
 62
     8
370
    -2
100
AcDbLine
 10
11628.30740489953
 20
-3340.070089580029
 30
0.0
 11
11628.3029054939
 21
-3340.072106608389
 31
0.0
  0
ARC
  5
1E002D
330
18
100
AcDbEntity
  8
0
  6
Continuous
 62
     8
370
    -2
100
AcDbCircle
 10
11634.74686342446
 20
-3328.734618893021
 30
0.0
 40
13.03685244951483
100
AcDbArc
 50
240.3999429257769
 51
241.5045761103099
  0
LINE
  5
1E002E
330
18
100
AcDbEntity
  8
0
  6
Continuous
 62
     8
370
    -2
100
AcDbLine
 10
11628.5271301424
 20
-3340.192124716296
 30
0.0
 11
11628.52263073678
 21
-3340.194141744656
 31
0.0
  0
LINE
  5
1E002F
330
18
100
AcDbEntity
  8
0
  6
Continuous
 62
     8
370
    -2
100
AcDbLine
 10
11629.3145807965
 20
-3340.585105824915
 30
0.0
 11
11629.31008139088
 21
-3340.587122853276
 31
0.0
  0
ARC
  5
1E0030
330
18
100
AcDbEntity
  8
0
  6
Continuous
 62
     8
370
    -2
100
AcDbCircle
 10
11634.56522127885
 20
-3329.074553009802
 30
0.0
 40
12.65156320714541
100
AcDbArc
 50
245.4794801628068
 51
246.2267822142998
  0
LINE
  5
1E0031
330
18
100
AcDbEntity
  8
0
  6
Continuous
 62
     8
370
    -2
100
AcDbLine
 10
11629.46515391866
 20
-3340.652608308769
 30
0.0
 11
11629.46065451304
 21
-3340.654625337129
 31
0.0
  0
LINE
  5
1E0032
330
18
100
AcDbEntity
  8
0
  6
Continuous
 62
     8
370
    -2
100
AcDbLine
 10
11630.27052617239
 20
-3340.973664911752
 30
0.0
 11
11630.26602676677
 21
-3340.975681940112
 31
0.0
  0
ARC
  5
1E0033
330
18
100
AcDbEntity
  8
0
  6
Continuous
 62
     8
370
    -2
100
AcDbCircle
 10
11634.26660509087
 20
-3329.800045895354
 30
0.0
 40
11.86669324817669
100
AcDbArc
 50
250.3211642738227
 51
251.497722024671
  0
LINE
  5
1E0034
330
18
100
AcDbEntity
  8
0
  6
Continuous
 62
     8
370
    -2
100
AcDbLine
 10
11630.50080065286
 20
-3341.053362099078
 30
0.0
 11
11630.49630124724
 21
-3341.055379127438
 31
0.0
  0
LINE
  5
1E0035
330
18
100
AcDbEntity
  8
0
  6
Continuous
 62
     8
370
    -2
100
AcDbLine
 10
11631.31915162103
 20
-3341.294268129589
 30
0.0
 11
11631.31465221541
 21
-3341.29628515795
 31
0.0
  0
ARC
  5
1E0036
330
18
100
AcDbEntity
  8
0
  6
Continuous
 62
     8
370
    -2
100
AcDbCircle
 10
11634.14778424195
 20
-3330.177119724999
 30
0.0
 40
11.47136221875302
100
AcDbArc
 50
255.7246496048635
 51
256.5236017841992
  0
LINE
  5
1E0037
330
18
100
AcDbEntity
  8
0
  6
Continuous
 62
     8
370
    -2
100
AcDbLine
 10
11631.47444296416
 20
-3341.332629465314
 30
0.0
 11
11631.46994355854
 21
-3341.334646493674
 31
0.0
  0
LINE
  5
1E0038
330
18
100
AcDbEntity
  8
0
  6
Continuous
 62
     8
370
    -2
100
AcDbLine
 10
11632.1039732001
 20
-3341.464396051056
 30
0.0
 11
11632.09947379447
 21
-3341.466413079416
 31
0.0
  0
ARC
  5
1E0039
330
18
100
AcDbEntity
  8
0
  6
Continuous
 62
     8
370
    -2
100
AcDbCircle
 10
11634.01831470268
 20
-3330.786360187406
 30
0.0
 40
10.84827881711698
100
AcDbArc
 50
259.8360767667908
 51
263.1663618262575
  0
LINE
  5
1E003A
330
18
100
AcDbEntity
  8
0
  6
Continuous
 62
     8
370
    -2
100
AcDbLine
 10
11632.72751147507
 20
-3341.557570904939
 30
0.0
 11
11632.72301206945
 21
-3341.559587933299
 31
0.0
  0
LINE
  5
1E003B
330
18
100
AcDbEntity
  8
0
  6
Continuous
 62
     8
370
    -2
100
AcDbLine
 10
11633.35704171101
 20
-3341.613944775374
 30
0.0
 11
11633.35254230539
 21
-3341.615961803734
 31
0.0
  0
ARC
  5
1E003C
330
18
100
AcDbEntity
  8
0
  6
Continuous
 62
     8
370
    -2
100
AcDbCircle
 10
11633.98015106898
 20
-3331.093943100299
 30
0.0
 40
10.53843918782903
100
AcDbArc
 50
266.610278727489
 51
267.4557134550842
  0
LINE
  5
1E003D
330
18
100
AcDbEntity
  8
0
  6
Continuous
 62
     8
370
    -2
100
AcDbLine
 10
11633.51233305413
 20
-3341.621993576079
 30
0.0
 11
11633.50783364851
 21
-3341.624010604439
 31
0.0
  0
LINE
  5
1E003E
330
18
100
AcDbEntity
  8
0
  6
Continuous
 62
     8
370
    -2
100
AcDbLine
 10
11634.3306840223
 20
-3341.625658680795
 30
0.0
 11
11634.32618461668
 21
-3341.627675709155
 31
0.0
  0
ARC
  5
1E003F
330
18
100
AcDbEntity
  8
0
  6
Continuous
 62
     8
370
    -2
100
AcDbCircle
 10
11633.97172845793
 20
-3331.583958694937
 30
0.0
 40
10.04811363904559
100
AcDbArc
 50
272.04725151246
 51
273.3618025112272
  0
LINE
  5
1E0040
330
18
100
AcDbEntity
  8
0
  6
Continuous
 62
     8
370
    -2
100
AcDbLine
 10
11634.56095850277
 20
-3341.614780977155
 30
0.0
 11
11634.55645909715
 21
-3341.616798005515
 31
0.0
  0
LINE
  5
1E0041
330
18
100
AcDbEntity
  8
0
  6
Continuous
 62
     8
370
    -2
100
AcDbLine
 10
11635.3663307565
 20
-3341.534416710392
 30
0.0
 11
11635.36183135088
 21
-3341.536433738752
 31
0.0
  0
ARC
  5
1E0042
330
18
100
AcDbEntity
  8
0
  6
Continuous
 62
     8
370
    -2
100
AcDbCircle
 10
11633.97300675609
 20
-3331.696080204215
 30
0.0
 40
9.936509295466664
100
AcDbArc
 50
278.0607321959685
 51
278.9386156550208
  0
LINE
  5
1E0043
330
18
100
AcDbEntity
  8
0
  6
Continuous
 62
     8
370
    -2
100
AcDbLine
 10
11635.51690387866
 20
-3341.51191428257
 30
0.0
 11
11635.51240447304
 21
-3341.51393131093
 31
0.0
  0
LINE
  5
1E0044
330
18
100
AcDbEntity
  8
0
  6
Continuous
 62
     8
370
    -2
100
AcDbLine
 10
11636.30435453277
 20
-3341.354269487955
 30
0.0
 11
11636.29985512714
 21
-3341.356286516315
 31
0.0
  0
ARC
  5
1E0045
330
18
100
AcDbEntity
  8
0
  6
Continuous
 62
     8
370
    -2
100
AcDbCircle
 10
11634.03277209029
 20
-3332.043157913523
 30
0.0
 40
9.584199786339456
100
AcDbArc
 50
283.7103273722931
 51
285.0664449872477
  0
LINE
  5
1E0046
330
18
100
AcDbEntity
  8
0
  6
Continuous
 62
     8
370
    -2
100
AcDbLine
 10
11636.52407977564
 20
-3341.297901106146
 30
0.0
 11
11636.51958037002
 21
-3341.299918134507
 31
0.0
  0
LINE
  5
1E0047
330
18
100
AcDbEntity
  8
0
  6
Continuous
 62
     8
370
    -2
100
AcDbLine
 10
11637.28596770579
 20
-3341.058103202696
 30
0.0
 11
11637.28146830017
 21
-3341.060120231056
 31
0.0
  0
ARC
  5
1E0048
330
18
100
AcDbEntity
  8
0
  6
Continuous
 62
     8
370
    -2
100
AcDbCircle
 10
11634.11021459462
 20
-3332.275245724784
 30
0.0
 40
9.339378635669792
100
AcDbArc
 50
289.8792510863723
 51
290.803638428069
  0
LINE
  5
1E0049
330
18
100
AcDbEntity
  8
0
  6
Continuous
 62
     8
370
    -2
100
AcDbLine
 10
11637.42724738716
 20
-3341.005726052556
 30
0.0
 11
11637.42274798154
 21
-3341.007743080917
 31
0.0
  0
LINE
  5
1E004A
330
18
100
AcDbEntity
  8
0
  6
Continuous
 62
     8
370
    -2
100
AcDbLine
 10
11638.15987162224
 20
-3340.691564431119
 30
0.0
 11
11638.15537221662
 21
-3340.693581459479
 31
0.0
  0
ARC
  5
1E004B
330
18
100
AcDbEntity
  8
0
  6
Continuous
 62
     8
370
    -2
100
AcDbCircle
 10
11634.04450321809
 20
-3332.114478415355
 30
0.0
 40
9.513288686028053
100
AcDbArc
 50
295.6321399009065
 51
296.9927371772453
  0
LINE
  5
1E004C
330
18
100
AcDbEntity
  8
0
  6
Continuous
 62
     8
370
    -2
100
AcDbLine
 10
11639.0576255155
 20
-3340.199476280097
 30
0.0
 11
11639.05312610988
 21
-3340.201493308457
 31
0.0
  0
ARC
  5
1E004D
330
18
100
AcDbEntity
  8
0
  6
Continuous
 62
     8
370
    -2
100
AcDbCircle
 10
11633.97016347579
 20
-3332.001988230255
 30
0.0
 40
9.647853664560998
100
AcDbArc
 50
301.8242476063613
 51
302.7211456443316
  0
LINE
  5
1E004E
330
18
100
AcDbEntity
  8
0
  6
Continuous
 62
     8
370
    -2
100
AcDbLine
 10
11625.39643746328
 20
-3337.861415961349
 30
0.0
 11
11624.67643700998
 21
-3338.184183334536
 31
0.0
  0
ARC
  5
1E004F
330
18
100
AcDbEntity
  8
0
  6
Continuous
 62
     8
370
    -2
100
AcDbCircle
 10
11633.07823449773
 20
-3330.539575003831
 30
0.0
 40
11.35914774773413
100
AcDbArc
 50
222.29836162681
 51
291.3496001939106
  0
LINE
  5
1E0050
330
18
100
AcDbEntity
  8
0
  6
Continuous
 62
     8
370
    -2
100
AcDbLine
 10
11624.67643700998
 20
-3337.712965909795
 30
0.0
 11
11624.67643700998
 21
-3338.184183334536
 31
0.0
  0
LINE
  5
1E0051
330
18
100
AcDbEntity
  8
0
  6
Continuous
 62
     8
370
    -2
100
AcDbLine
 10
11625.64616567536
 20
-3338.095691489219
 30
0.0
 11
11625.79546394599
 21
-3337.880177157973
 31
0.0
  0
LINE
  5
1E0052
330
18
100
AcDbEntity
  8
0
  6
Continuous
 62
     8
370
    -2
100
AcDbLine
 10
11625.98576434531
 20
-3337.908613603035
 30
0.0
 11
11625.77385915966
 21
-3338.214493097987
 31
0.0
  0
LINE
  5
1E0053
330
18
100
AcDbEntity
  8
0
  6
Continuous
 62
     8
370
    -2
100
AcDbLine
 10
11626.90050234596
 20
-3338.045302212176
 30
0.0
 11
11626.46911327723
 21
-3338.814227517036
 31
0.0
  0
LINE
  5
1E0054
330
18
100
AcDbEntity
  8
0
  6
Continuous
 62
     8
370
    -2
100
AcDbLine
 10
11627.17050228885
 20
-3338.085648099889
 30
0.0
 11
11626.67161305292
 21
-3338.97488262259
 31
0.0
  0
LINE
  5
1E0055
330
18
100
AcDbEntity
  8
0
  6
Continuous
 62
     8
370
    -2
100
AcDbLine
 10
11627.40423728801
 20
-3339.507995217191
 30
0.0
 11
11627.79940569254
 21
-3338.621850866258
 31
0.0
  0
LINE
  5
1E0056
330
18
100
AcDbEntity
  8
0
  6
Continuous
 62
     8
370
    -2
100
AcDbLine
 10
11627.79940569254
 20
-3338.621850866258
 30
0.0
 11
11627.94068501097
 21
-3338.716437640433
 31
0.0
  0
LINE
  5
1E0057
330
18
100
AcDbEntity
  8
0
  6
Continuous
 62
     8
370
    -2
100
AcDbLine
 10
11627.94068501097
 20
-3338.716437640433
 30
0.0
 11
11627.54551696938
 21
-3339.602594999675
 31
0.0
  0
LINE
  5
1E0058
330
18
100
AcDbEntity
  8
0
  6
Continuous
 62
     8
370
    -2
100
AcDbLine
 10
11627.79940569254
 20
-3338.621850866258
 30
0.0
 11
11627.79490628692
 21
-3338.623867894618
 31
0.0
  0
LINE
  5
1E0059
330
18
100
AcDbEntity
  8
0
  6
Continuous
 62
     8
370
    -2
100
AcDbLine
 10
11628.8995421296
 20
-3338.344017218492
 30
0.0
 11
11628.30740489953
 21
-3340.070089580029
 31
0.0
  0
LINE
  5
1E005A
330
18
100
AcDbEntity
  8
0
  6
Continuous
 62
     8
370
    -2
100
AcDbLine
 10
11629.14837536325
 20
-3338.381200180817
 30
0.0
 11
11628.5271301424
 21
-3340.192124716296
 31
0.0
  0
LINE
  5
1E005B
330
18
100
AcDbEntity
  8
0
  6
Continuous
 62
     8
370
    -2
100
AcDbLine
 10
11629.3145807965
 20
-3340.585105824915
 30
0.0
 11
11629.55658899228
 21
-3339.613895300552
 31
0.0
  0
LINE
  5
1E005C
330
18
100
AcDbEntity
  8
0
  6
Continuous
 62
     8
370
    -2
100
AcDbLine
 10
11629.55658899228
 20
-3339.613895300552
 30
0.0
 11
11629.70716193297
 21
-3339.681397757288
 31
0.0
  0
LINE
  5
1E005D
330
18
100
AcDbEntity
  8
0
  6
Continuous
 62
     8
370
    -2
100
AcDbLine
 10
11629.70716193297
 20
-3339.681397757288
 30
0.0
 11
11629.46515391866
 21
-3340.652608308769
 31
0.0
  0
LINE
  5
1E005E
330
18
100
AcDbEntity
  8
0
  6
Continuous
 62
     8
370
    -2
100
AcDbLine
 10
11629.55658899228
 20
-3339.613895300552
 30
0.0
 11
11629.55208958665
 21
-3339.615912328912
 31
0.0
  0
LINE
  5
1E005F
330
18
100
AcDbEntity
  8
0
  6
Continuous
 62
     8
370
    -2
100
AcDbLine
 10
11630.59525363123
 20
-3338.968125821013
 30
0.0
 11
11630.27052617239
 21
-3340.973664911752
 31
0.0
  0
LINE
  5
1E0060
330
18
100
AcDbEntity
  8
0
  6
Continuous
 62
     8
370
    -2
100
AcDbLine
 10
11630.8255281117
 20
-3339.047823008339
 30
0.0
 11
11630.59525363123
 21
-3338.968125821013
 31
0.0
  0
LINE
  5
1E0061
330
18
100
AcDbEntity
  8
0
  6
Continuous
 62
     8
370
    -2
100
AcDbLine
 10
11630.8255281117
 20
-3339.047823008339
 30
0.0
 11
11630.50080065286
 21
-3341.053362099078
 31
0.0
  0
LINE
  5
1E0062
330
18
100
AcDbEntity
  8
0
  6
Continuous
 62
     8
370
    -2
100
AcDbLine
 10
11630.59525363123
 20
-3338.968125821013
 30
0.0
 11
11630.59075422561
 21
-3338.970142849373
 31
0.0
  0
LINE
  5
1E0063
330
18
100
AcDbEntity
  8
0
  6
Continuous
 62
     8
370
    -2
100
AcDbLine
 10
11631.31915162103
 20
-3341.294268129589
 30
0.0
 11
11631.40064639147
 21
-3340.267503124932
 31
0.0
  0
LINE
  5
1E0064
330
18
100
AcDbEntity
  8
0
  6
Continuous
 62
     8
370
    -2
100
AcDbLine
 10
11631.40064639147
 20
-3340.267503124932
 30
0.0
 11
11631.5559377346
 21
-3340.305864460657
 31
0.0
  0
LINE
  5
1E0065
330
18
100
AcDbEntity
  8
0
  6
Continuous
 62
     8
370
    -2
100
AcDbLine
 10
11631.5559377346
 20
-3340.305864460657
 30
0.0
 11
11631.47444296416
 21
-3341.332629465314
 31
0.0
  0
LINE
  5
1E0066
330
18
100
AcDbEntity
  8
0
  6
Continuous
 62
     8
370
    -2
100
AcDbLine
 10
11631.40064639147
 20
-3340.267503124932
 30
0.0
 11
11631.39614698585
 21
-3340.269520153293
 31
0.0
  0
LINE
  5
1E0067
330
18
100
AcDbEntity
  8
0
  6
Continuous
 62
     8
370
    -2
100
AcDbLine
 10
11632.1039732001
 20
-3341.464396051056
 30
0.0
 11
11632.1039732001
 21
-3338.822852935169
 31
0.0
  0
LINE
  5
1E0068
330
18
100
AcDbEntity
  8
0
  6
Continuous
 62
     8
370
    -2
100
AcDbLine
 10
11632.72751147507
 20
-3338.916027789052
 30
0.0
 11
11632.72751147507
 21
-3341.557570904939
 31
0.0
  0
LINE
  5
1E0069
330
18
100
AcDbEntity
  8
0
  6
Continuous
 62
     8
370
    -2
100
AcDbLine
 10
11633.27554694057
 20
-3340.562824366622
 30
0.0
 11
11633.27104753495
 21
-3340.564841394982
 31
0.0
  0
LINE
  5
1E006A
330
18
100
AcDbEntity
  8
0
  6
Continuous
 62
     8
370
    -2
100
AcDbLine
 10
11633.35704171101
 20
-3341.613944775374
 30
0.0
 11
11633.27554694057
 21
-3340.562824366622
 31
0.0
  0
LINE
  5
1E006B
330
18
100
AcDbEntity
  8
0
  6
Continuous
 62
     8
370
    -2
100
AcDbLine
 10
11633.27554694057
 20
-3340.562824366622
 30
0.0
 11
11633.4308382837
 21
-3340.570873167326
 31
0.0
  0
LINE
  5
1E006C
330
18
100
AcDbEntity
  8
0
  6
Continuous
 62
     8
370
    -2
100
AcDbLine
 10
11633.4308382837
 20
-3340.570873167326
 30
0.0
 11
11633.51233305413
 21
-3341.621993576079
 31
0.0
  0
LINE
  5
1E006D
330
18
100
AcDbEntity
  8
0
  6
Continuous
 62
     8
370
    -2
100
AcDbLine
 10
11634.00595656347
 20
-3339.523072031812
 30
0.0
 11
11634.00145715784
 21
-3339.525089060172
 31
0.0
  0
LINE
  5
1E006E
330
18
100
AcDbEntity
  8
0
  6
Continuous
 62
     8
370
    -2
100
AcDbLine
 10
11634.00595656347
 20
-3339.523072031812
 30
0.0
 11
11634.3306840223
 21
-3341.625658680795
 31
0.0
  0
LINE
  5
1E006F
330
18
100
AcDbEntity
  8
0
  6
Continuous
 62
     8
370
    -2
100
AcDbLine
 10
11634.23623104393
 20
-3339.512194328171
 30
0.0
 11
11634.00595656347
 21
-3339.523072031812
 31
0.0
  0
LINE
  5
1E0070
330
18
100
AcDbEntity
  8
0
  6
Continuous
 62
     8
370
    -2
100
AcDbLine
 10
11634.23623104393
 20
-3339.512194328171
 30
0.0
 11
11634.56095850277
 21
-3341.614780977155
 31
0.0
  0
LINE
  5
1E0071
330
18
100
AcDbEntity
  8
0
  6
Continuous
 62
     8
370
    -2
100
AcDbLine
 10
11635.3663307565
 20
-3341.534416710392
 30
0.0
 11
11635.1243227422
 21
-3340.490880009014
 31
0.0
  0
LINE
  5
1E0072
330
18
100
AcDbEntity
  8
0
  6
Continuous
 62
     8
370
    -2
100
AcDbLine
 10
11635.1243227422
 20
-3340.490880009014
 30
0.0
 11
11635.27489568289
 21
-3340.468377554075
 31
0.0
  0
LINE
  5
1E0073
330
18
100
AcDbEntity
  8
0
  6
Continuous
 62
     8
370
    -2
100
AcDbLine
 10
11635.27489568289
 20
-3340.468377554075
 30
0.0
 11
11635.51690387866
 21
-3341.51191428257
 31
0.0
  0
LINE
  5
1E0074
330
18
100
AcDbEntity
  8
0
  6
Continuous
 62
     8
370
    -2
100
AcDbLine
 10
11635.1243227422
 20
-3340.490880009014
 30
0.0
 11
11635.11982333658
 21
-3340.492897037374
 31
0.0
  0
LINE
  5
1E0075
330
18
100
AcDbEntity
  8
0
  6
Continuous
 62
     8
370
    -2
100
AcDbLine
 10
11635.68310931191
 20
-3339.357680543403
 30
0.0
 11
11636.30435453277
 21
-3341.354269487955
 31
0.0
  0
LINE
  5
1E0076
330
18
100
AcDbEntity
  8
0
  6
Continuous
 62
     8
370
    -2
100
AcDbLine
 10
11635.93194254557
 20
-3339.394863505728
 30
0.0
 11
11636.52407977564
 21
-3341.297901106146
 31
0.0
  0
LINE
  5
1E0077
330
18
100
AcDbEntity
  8
0
  6
Continuous
 62
     8
370
    -2
100
AcDbLine
 10
11637.28596770579
 20
-3341.058103202696
 30
0.0
 11
11636.8907996642
 21
-3340.053846518962
 31
0.0
  0
LINE
  5
1E0078
330
18
100
AcDbEntity
  8
0
  6
Continuous
 62
     8
370
    -2
100
AcDbLine
 10
11636.8907996642
 20
-3340.053846518962
 30
0.0
 11
11637.03207898262
 21
-3340.001482268662
 31
0.0
  0
LINE
  5
1E0079
330
18
100
AcDbEntity
  8
0
  6
Continuous
 62
     8
370
    -2
100
AcDbLine
 10
11637.03207898262
 20
-3340.001482268662
 30
0.0
 11
11637.42724738716
 21
-3341.005726052556
 31
0.0
  0
LINE
  5
1E007A
330
18
100
AcDbEntity
  8
0
  6
Continuous
 62
     8
370
    -2
100
AcDbLine
 10
11636.8907996642
 20
-3340.053846518962
 30
0.0
 11
11636.88630025857
 21
-3340.055863547322
 31
0.0
  0
LINE
  5
1E007B
330
18
100
AcDbEntity
  8
0
  6
Continuous
 62
     8
370
    -2
100
AcDbLine
 10
11637.66098238631
 20
-3339.653232624331
 30
0.0
 11
11638.15987162224
 21
-3340.691564431119
 31
0.0
  0
LINE
  5
1E007C
330
18
100
AcDbEntity
  8
0
  6
Continuous
 62
     8
370
    -2
100
AcDbLine
 10
11637.9309823292
 20
-3339.693578512045
 30
0.0
 11
11638.36237139794
 21
-3340.591428102901
 31
0.0
  0
LINE
  5
1E007D
330
18
100
AcDbEntity
  8
0
  6
Continuous
 62
     8
370
    -2
100
AcDbLine
 10
11639.0576255155
 20
-3340.199476280097
 30
0.0
 11
11638.84572032985
 21
-3339.830267121185
 31
0.0
  0
LINE
  5
1E007E
330
18
100
AcDbEntity
  8
0
  6
Continuous
 62
     8
370
    -2
100
AcDbLine
 10
11639.03602072917
 20
-3339.858703566248
 30
0.0
 11
11639.18531899981
 21
-3340.118836953322
 31
0.0
  0
LINE
  5
1E007F
330
18
100
AcDbEntity
  8
0
  6
Continuous
 62
     8
370
    -2
100
AcDbLine
 10
11565.74008086731
 20
-3315.702990874852
 30
0.0
 11
11565.7566893245
 21
-3315.694772598295
 31
0.0
  0
LINE
  5
1E0080
330
18
100
AcDbEntity
  8
0
  6
Continuous
 62
     8
370
    -2
100
AcDbLine
 10
11565.6767368721
 20
-3314.711267438775
 30
0.0
 11
11565.6801863209
 21
-3314.718732748433
 31
0.0
  0
LINE
  5
1E0081
330
18
100
AcDbEntity
  8
0
  6
Continuous
 62
     8
370
    -2
100
AcDbLine
 10
11566.84673684909
 20
-3314.186770797871
 30
0.0
 11
11566.46074272327
 21
-3314.35980723068
 31
0.0
  0
LINE
  5
1E0082
330
18
100
AcDbEntity
  8
0
  6
Continuous
 62
     8
370
    -2
100
AcDbLine
 10
11565.87504369059
 20
-3314.622368924063
 30
0.0
 11
11565.6767368721
 21
-3314.711267438775
 31
0.0
  0
LINE
  5
1E0083
330
18
100
AcDbEntity
  8
0
  6
Continuous
 62
     8
370
    -2
100
AcDbLine
 10
11566.87450375051
 20
-3314.246797386623
 30
0.0
 11
11566.84673684909
 21
-3314.186770797871
 31
0.0
  0
LINE
  5
1E0084
330
18
100
AcDbEntity
  8
0
  6
Continuous
 62
     8
370
    -2
100
AcDbLine
 10
11567.0730743109
 20
-3314.082505522753
 30
0.0
 11
11567.12113430799
 21
-3314.186389260195
 31
0.0
  0
LINE
  5
1E0085
330
18
100
AcDbEntity
  8
0
  6
Continuous
 62
     8
370
    -2
100
AcDbLine
 10
11567.97137407653
 20
-3314.016130976565
 30
0.0
 11
11567.82024582685
 21
-3313.713014552503
 31
0.0
  0
ARC
  5
1E0086
330
18
100
AcDbEntity
  8
0
  6
Continuous
 62
     8
370
    -2
100
AcDbCircle
 10
11567.62990078664
 20
-3313.29123548072
 30
0.0
 40
0.462740553361889
100
AcDbArc
 50
294.2892215042655
 51
304.4002655014382
  0
ARC
  5
1E0087
330
18
100
AcDbEntity
  8
0
  6
Continuous
 62
     8
370
    -2
100
AcDbCircle
 10
11565.50175443762
 20
-3314.342800804473
 30
0.0
 40
0.4079050293498463
100
AcDbArc
 50
291.2674491587254
 51
295.402742375575
  0
LWPOLYLINE
  5
1E0088
330
18
100
AcDbEntity
  8
0
  6
Continuous
 62
     8
370
    -2
100
AcDbPolyline
 90
       10
 70
   128
 43
0.0
 10
11589.75065887137
 20
-3315.95257988838
 10
11590.00513460236
 20
-3315.503040801113
 10
11590.43719626431
 20
-3315.271153856785
 10
11590.97768971466
 20
-3315.31647501643
 10
11591.56751550903
 20
-3315.6336751292
 10
11592.13926833733
 20
-3316.186770936371
 10
11592.62949067994
 20
-3316.914516120874
 10
11592.72787521115
 20
-3317.104959015303
 10
11592.72789875408
 20
-3317.105007684693
 10
11592.72789875408
 20
-3317.105007684693
  0
LWPOLYLINE
  5
1E0089
330
18
100
AcDbEntity
  8
0
  6
Continuous
 62
     8
370
    -2
100
AcDbPolyline
 90
        3
 70
   128
 43
0.0
 10
11592.72789875408
 20
-3317.105007684693
 10
11593.51853987814
 20
-3318.72201765098
 10
11594.22336675199
 20
-3320.163601882452
  0
ARC
  5
1E008A
330
18
100
AcDbEntity
  8
0
  6
Continuous
 62
     8
370
    -2
100
AcDbCircle
 10
11589.85367662089
 20
-3317.675368330505
 30
0.0
 40
0.6766146094926103
100
AcDbArc
 50
283.7408479127403
 51
296.2729140588061
  0
LINE
  5
1E008B
330
18
100
AcDbEntity
  8
0
  6
Continuous
 62
     8
370
    -2
100
AcDbLine
 10
11614.81308815763
 20
-3363.022885055031
 30
0.0
 11
11616.09553489697
 21
-3365.739622680428
 31
0.0
  0
SPLINE
  5
1E008C
330
18
100
AcDbEntity
  8
0
  6
Continuous
 62
     8
370
    -2
100
AcDbSpline
210
0.0
220
0.0
230
1.0
 70
     8
 71
     3
 72
    15
 73
    11
 74
     0
 42
0.000000001
 43
0.00000001
 40
0.0
 40
0.0
 40
0.0
 40
0.0
 40
0.0000089936796651
 40
0.1658774192849336
 40
0.3317995987598423
 40
0.4977577641222118
 40
0.6633621733436748
 40
0.8290149000041456
 40
0.9943067145853878
 40
1.0
 40
1.0
 40
1.0
 40
1.0
 10
11616.09553489697
 20
-3365.739622680428
 30
0.0
 10
11616.0955426561
 20
-3365.739636856533
 30
0.0
 10
11616.23865031458
 20
-3366.001097787561
 30
0.0
 10
11616.42116478871
 20
-3366.579854483383
 30
0.0
 10
11616.54735936437
 20
-3367.391202561289
 30
0.0
 10
11616.45902077499
 20
-3368.084896909794
 30
0.0
 10
11616.18138221542
 20
-3368.583829865984
 30
0.0
 10
11615.73877026906
 20
-3368.795680917789
 30
0.0
 10
11615.37102444911
 20
-3368.82595046186
 30
0.0
 10
11615.16776926981
 20
-3368.715375813254
 30
0.0
 10
11615.1610014886
 20
-3368.711694012711
 30
0.0
  0
LWPOLYLINE
  5
1E008D
330
18
100
AcDbEntity
  8
0
  6
Continuous
 62
     8
370
    -2
100
AcDbPolyline
 90
        3
 70
   128
 43
0.0
 10
11593.29628392148
 20
-3319.881997731389
 10
11592.87014335455
 20
-3319.010426174008
 10
11592.08957906271
 20
-3317.414021075639
  0
LINE
  5
1E008E
330
18
100
AcDbEntity
  8
0
  6
Continuous
 62
     8
370
    -2
100
AcDbLine
 10
11590.15317827621
 20
-3318.282085800374
 30
0.0
 11
11590.52862996255
 21
-3319.077451110129
 31
0.0
  0
LWPOLYLINE
  5
1E008F
330
18
100
AcDbEntity
  8
0
  6
Continuous
 62
     8
370
    -2
100
AcDbPolyline
 90
        3
 70
   128
 43
0.0
 10
11615.44930695225
 20
-3366.032181492859
 10
11614.69101402633
 20
-3364.425786262655
 10
11614.47491177891
 20
-3363.968002645953
  0
ARC
  5
1E0090
330
18
100
AcDbEntity
  8
0
  6
Continuous
 62
     8
370
    -2
100
AcDbCircle
 10
11612.50025651986
 20
-3364.879212960395
 30
0.0
 40
2.260538593345365
100
AcDbArc
 50
292.8864672568793
 51
296.6134071499559
  0
LINE
  5
1E0091
330
18
100
AcDbEntity
  8
0
  6
Continuous
 62
     8
370
    -2
100
AcDbLine
 10
11613.38935968068
 20
-3366.647566332121
 30
0.0
 11
11613.51290616574
 21
-3366.900246217594
 31
0.0
  0
LWPOLYLINE
  5
1E0092
330
18
100
AcDbEntity
  8
0
  6
Continuous
 62
     8
370
    -2
100
AcDbPolyline
 90
       23
 70
   128
 43
0.0
 10
11619.83374189494
 20
-3334.649618967322
 10
11620.94618201064
 20
-3337.079188632214
 10
11621.9632015341
 20
-3339.538156508047
 10
11622.88016162335
 20
-3342.015328589245
 10
11623.69288065901
 20
-3344.499388524667
 10
11624.39764722414
 20
-3346.979005193793
 10
11624.99124651316
 20
-3349.4428775192
 10
11625.47097096155
 20
-3351.879742066966
 10
11625.83463178287
 20
-3354.278484415241
 10
11626.08056860491
 20
-3356.628161564255
 10
11626.20765851371
 20
-3358.918062118064
 10
11626.21532451352
 20
-3361.137740470876
 10
11626.10352954352
 20
-3363.277043897066
 10
11625.87278331022
 20
-3365.326237172815
 10
11625.52414019232
 20
-3367.275949015676
 10
11625.05919061364
 20
-3369.11730191113
 10
11624.48005528112
 20
-3370.841884914361
 10
11623.78937618574
 20
-3372.441830101922
 10
11622.99030679984
 20
-3373.90983783852
 10
11622.08649115746
 20
-3375.239204641096
 10
11621.08205413787
 20
-3376.423872362646
 10
11619.98157854967
 20
-3377.458442803938
 10
11619.90836142641
 20
-3377.51911941669
  0
LWPOLYLINE
  5
1E0093
330
18
100
AcDbEntity
  8
0
  6
Continuous
 62
     8
370
    -2
100
AcDbPolyline
 90
       23
 70
   128
 43
0.0
 10
11585.15196699928
 20
-3307.081333296979
 10
11586.0824460257
 20
-3306.90482652371
 10
11587.61084889363
 20
-3306.760897601125
 10
11589.19593223957
 20
-3306.784714666586
 10
11590.8304673709
 20
-3306.976176641408
 10
11592.50699283606
 20
-3307.334404915941
 10
11594.21786492451
 20
-3307.85776524491
 10
11595.95527155698
 20
-3308.543871003585
 10
11597.71128568896
 20
-3309.389586085876
 10
11599.47789707168
 20
-3310.3910612121
 10
11601.24704711112
 20
-3311.543719634884
 10
11603.01065853353
 20
-3312.84230734038
 10
11604.7606872769
 20
-3314.280899227429
 10
11606.48915048007
 20
-3315.852924152128
 10
11608.18815709064
 20
-3317.551214303834
 10
11609.84995623933
 20
-3319.3680168348
 10
11611.46696784783
 20
-3321.29504971322
 10
11613.03181178495
 20
-3323.32351849711
 10
11614.53734886167
 20
-3325.444159783415
 10
11615.97670831082
 20
-3327.647304072655
 10
11617.34332542939
 20
-3329.92289481288
 10
11618.63096235276
 20
-3332.260560747363
 10
11619.83374189494
 20
-3334.649618967322
  0
LWPOLYLINE
  5
1E0094
330
18
100
AcDbEntity
  8
0
  6
Continuous
 62
     8
370
    -2
100
AcDbPolyline
 90
       30
 70
   128
 43
0.0
 10
11618.7087424392
 20
-3335.185157312101
 10
11617.52005477982
 20
-3332.825268683985
 10
11616.24668985776
 20
-3330.516824732822
 10
11614.89458718162
 20
-3328.270595869698
 10
11613.47004828628
 20
-3326.097054474122
 10
11611.97971618319
 20
-3324.006321009003
 10
11610.43053872077
 20
-3322.008160084591
 10
11608.82973954861
 20
-3320.111872487086
 10
11607.18478248044
 20
-3318.326312827505
 10
11605.50333698003
 20
-3316.659798715753
 10
11603.79324207496
 20
-3315.120104438219
 10
11602.06247122891
 20
-3313.714401924341
 10
11600.31909496806
 20
-3312.449250259805
 10
11598.57124049969
 20
-3311.330552830119
 10
11596.82705953208
 20
-3310.363521200736
 10
11595.09467973578
 20
-3309.552654480804
 10
11593.38218401351
 20
-3308.90174774849
 10
11591.69755045125
 20
-3308.413830367544
 10
11590.0486396853
 20
-3308.091181598602
 10
11588.44313652978
 20
-3307.935294072397
 10
11586.88852483098
 20
-3307.94690449339
 10
11585.39205792112
 20
-3308.125955068664
 10
11583.96070692135
 20
-3308.471614017482
 10
11582.60115154681
 20
-3308.982265933751
 10
11581.31972555449
 20
-3309.655533575471
 10
11580.12240862226
 20
-3310.488274222807
 10
11579.01477705379
 20
-3311.476609058925
 10
11578.00200175286
 20
-3312.615926743691
 10
11577.08879874499
 20
-3313.900919353743
 10
11576.48773997975
 20
-3314.927087127948
  0
LWPOLYLINE
  5
1E0095
330
18
100
AcDbEntity
  8
0
  6
Continuous
 62
     8
370
    -2
100
AcDbPolyline
 90
       30
 70
   128
 43
0.0
 10
11608.46848717795
 20
-3379.597190418088
 10
11608.66884622495
 20
-3379.627868600307
 10
11610.27435005021
 20
-3379.783756477091
 10
11611.82895993428
 20
-3379.772145784924
 10
11613.32542865888
 20
-3379.59308252675
 10
11614.75677784391
 20
-3379.247429783795
 10
11616.11633435968
 20
-3378.736778006746
 10
11617.39775921077
 20
-3378.063510225806
 10
11618.59507795774
 20
-3377.230763372607
 10
11619.70270771147
 20
-3376.24244121939
 10
11620.71548482713
 20
-3375.103123805797
 10
11621.62868716526
 20
-3373.818130845166
 10
11622.43805639004
 20
-3372.39345795972
 10
11623.13981934921
 20
-3370.835749261014
 10
11623.73070323872
 20
-3369.152258677806
 10
11624.20795486762
 20
-3367.350848253846
 10
11624.56934721173
 20
-3365.439913334808
 10
11624.81319625471
 20
-3363.428353593737
 10
11624.93836538
 20
-3361.325562164315
 10
11624.94427018568
 20
-3359.141336110889
 10
11624.83088388594
 20
-3356.885850253506
 10
11624.59873350931
 20
-3354.569635128741
 10
11624.24890417036
 20
-3352.203485374548
 10
11623.78302474591
 20
-3349.798427172705
 10
11623.20326802946
 20
-3347.365680339732
 10
11622.51233552154
 20
-3344.916599227821
 10
11621.71345205377
 20
-3342.462571222974
 10
11620.81034038255
 20
-3340.015064764857
 10
11619.8072113715
 20
-3337.585490323012
 10
11618.7087424392
 20
-3335.185157312101
  0
LWPOLYLINE
  5
1E0096
330
18
100
AcDbEntity
  8
0
  6
Continuous
 62
     8
370
    -2
100
AcDbPolyline
 90
       13
 70
   128
 43
0.0
 10
11622.96990019262
 20
-3304.348497391627
 10
11621.94106284309
 20
-3303.519560446774
 10
11620.17675528867
 20
-3302.217907091464
 10
11618.40677112665
 20
-3301.062222627021
 10
11616.63919452678
 20
-3300.057788005904
 10
11614.88209676015
 20
-3299.209193320887
 10
11613.14350399311
 20
-3298.520319609387
 10
11611.43135628412
 20
-3297.994308393193
 10
11609.75347342058
 20
-3297.633558398928
 10
11608.11751941605
 20
-3297.43972157734
 10
11606.53096521889
 20
-3297.413680927207
 10
11605.0010570184
 20
-3297.555555189091
 10
11603.82775587202
 20
-3297.788273851995
  0
LWPOLYLINE
  5
1E0097
330
18
100
AcDbEntity
  8
0
  6
Continuous
 62
     8
370
    -2
100
AcDbPolyline
 90
       17
 70
   128
 43
0.0
 10
11638.89396415705
 20
-3368.101624635348
 10
11638.89581784511
 20
-3368.100078630167
 10
11639.99564394921
 20
-3367.06308259894
 10
11640.99927396431
 20
-3365.87589369837
 10
11641.90212718427
 20
-3364.543940733765
 10
11642.70007830669
 20
-3363.073298249979
 10
11643.38948404545
 20
-3361.470700509487
 10
11643.96719356407
 20
-3359.74344954546
 10
11644.43057236412
 20
-3357.899456269176
 10
11644.77749942782
 20
-3355.947108676859
 10
11645.00639297739
 20
-3353.895351848376
 10
11645.1162082012
 20
-3351.753545541697
 10
11645.10644178963
 20
-3349.531480257827
 10
11644.97713781859
 20
-3347.239296816573
 10
11644.72888993519
 20
-3344.887454262004
 10
11644.36282763407
 20
-3342.486717791706
 10
11643.99933205657
 20
-3340.600363290977
  0
LINE
  5
1E0098
330
18
100
AcDbEntity
  8
0
  6
Continuous
 62
     8
370
    -2
100
AcDbLine
 10
11623.53547564178
 20
-3349.950536340307
 30
0.0
 11
11622.82224551981
 21
-3349.749425159784
 31
0.0
  0
LINE
  5
1E0099
330
18
100
AcDbEntity
  8
0
  6
Continuous
 62
     8
370
    -2
100
AcDbLine
 10
11622.82224551981
 20
-3349.749425159784
 30
0.0
 11
11623.51717394584
 21
-3349.843954381506
 31
0.0
  0
LINE
  5
1E009A
330
18
100
AcDbEntity
  8
0
  6
Continuous
 62
     8
370
    -2
100
AcDbLine
 10
11611.72452664192
 20
-3324.174025309172
 30
0.0
 11
11611.73744265501
 21
-3324.373607812873
 31
0.0
  0
SPLINE
  5
1E009B
330
18
100
AcDbEntity
  8
0
  6
Continuous
 62
     8
370
    -2
100
AcDbSpline
210
0.0
220
0.0
230
1.0
 70
     8
 71
     3
 72
     9
 73
     5
 74
     0
 42
0.000000001
 43
0.00000001
 40
0.0
 40
0.0
 40
0.0
 40
0.0
 40
0.905068351296736
 40
1.0
 40
1.0
 40
1.0
 40
1.0
 10
11622.85768041021
 20
-3350.592857279719
 30
0.0
 10
11623.12728823778
 20
-3350.636184706775
 30
0.0
 10
11623.42517494124
 20
-3350.684056701187
 30
0.0
 10
11623.64825134475
 20
-3350.726528993916
 30
0.0
 10
11623.66942835552
 20
-3350.730560958689
 30
0.0
  0
SPLINE
  5
1E009C
330
18
100
AcDbEntity
  8
0
  6
Continuous
 62
     8
370
    -2
100
AcDbSpline
210
0.0
220
0.0
230
1.0
 70
     8
 71
     3
 72
     9
 73
     5
 74
     0
 42
0.000000001
 43
0.00000001
 40
0.0
 40
0.0
 40
0.0
 40
0.0
 40
0.4340467181521813
 40
1.0
 40
1.0
 40
1.0
 40
1.0
 10
11622.55257909155
 20
-3357.161336048508
 30
0.0
 10
11622.90173316674
 20
-3357.416955868935
 30
0.0
 10
11623.70614905238
 20
-3358.00587823544
 30
0.0
 10
11624.30594222232
 20
-3358.585792653515
 30
0.0
 10
11624.64539713527
 20
-3358.913997121616
 30
0.0
  0
SPLINE
  5
1E009D
330
18
100
AcDbEntity
  8
0
  6
Continuous
 62
     8
370
    -2
100
AcDbSpline
210
0.0
220
0.0
230
1.0
 70
     8
 71
     3
 72
    10
 73
     6
 74
     0
 42
0.000000001
 43
0.00000001
 40
0.0
 40
0.0
 40
0.0
 40
0.0
 40
0.2045541730571161
 40
0.6568065706106803
 40
0.9999999999999999
 40
0.9999999999999999
 40
0.9999999999999999
 40
0.9999999999999999
 10
11624.60610090278
 20
-3360.264652957229
 30
0.0
 10
11624.47753096859
 20
-3360.108506443526
 30
0.0
 10
11624.06470351904
 20
-3359.607132872672
 30
0.0
 10
11623.13292041438
 20
-3358.810936193679
 30
0.0
 10
11622.23958566678
 20
-3358.174776038064
 30
0.0
 10
11621.85415826841
 20
-3357.900306076627
 30
0.0
  0
SPLINE
  5
1E009E
330
18
100
AcDbEntity
  8
0
  6
Continuous
 62
     8
370
    -2
100
AcDbSpline
210
0.0
220
0.0
230
1.0
 70
     8
 71
     3
 72
    10
 73
     6
 74
     0
 42
0.000000001
 43
0.00000001
 40
0.0
 40
0.0
 40
0.0
 40
0.0
 40
0.2369581973310489
 40
0.6753025882096644
 40
1.0
 40
1.0
 40
1.0
 40
1.0
 10
11621.79576377172
 20
-3358.061485631516
 30
0.0
 10
11622.07078799204
 20
-3358.25465629812
 30
0.0
 10
11622.85457420367
 20
-3358.805169648545
 30
0.0
 10
11623.84600421786
 20
-3359.612243381635
 30
0.0
 10
11624.37549663716
 20
-3360.19743612516
 30
0.0
 10
11624.60081170837
 20
-3360.446453372389
 30
0.0
  0
SPLINE
  5
1E009F
330
18
100
AcDbEntity
  8
0
  6
Continuous
 62
     8
370
    -2
100
AcDbSpline
210
0.0
220
0.0
230
1.0
 70
     8
 71
     3
 72
     9
 73
     5
 74
     0
 42
0.000000001
 43
0.00000001
 40
0.0
 40
0.0
 40
0.0
 40
0.0
 40
0.0871373731485789
 40
1.0
 40
1.0
 40
1.0
 40
1.0
 10
11605.92150869767
 20
-3317.502729534732
 30
0.0
 10
11605.94201584368
 20
-3317.54703531532
 30
0.0
 10
11606.17735855911
 20
-3318.05549430355
 30
0.0
 10
11606.30607784983
 20
-3318.609736274655
 30
0.0
 10
11606.42358087967
 20
-3319.11568305631
 30
0.0
  0
SPLINE
  5
1E00A0
330
18
100
AcDbEntity
  8
0
  6
Continuous
 62
     8
370
    -2
100
AcDbSpline
210
0.0
220
0.0
230
1.0
 70
     8
 71
     3
 72
    10
 73
     6
 74
     0
 42
0.000000001
 43
0.00000001
 40
0.0
 40
0.0
 40
0.0
 40
0.0
 40
0.3286645691269145
 40
0.9366559353374674
 40
1.0
 40
1.0
 40
1.0
 40
1.0
 10
11605.39024194843
 20
-3319.081752973143
 30
0.0
 10
11605.27020391774
 20
-3318.687307667522
 30
0.0
 10
11604.92810944064
 20
-3317.563184256052
 30
0.0
 10
11604.43933682663
 20
-3316.393133992019
 30
0.0
 10
11603.96379747314
 20
-3315.70972691865
 30
0.0
 10
11603.91892780863
 20
-3315.645243830382
 30
0.0
  0
SPLINE
  5
1E00A1
330
18
100
AcDbEntity
  8
0
  6
Continuous
 62
     8
370
    -2
100
AcDbSpline
210
0.0
220
0.0
230
1.0
 70
     8
 71
     3
 72
     9
 73
     5
 74
     0
 42
0.000000001
 43
0.00000001
 40
0.0
 40
0.0
 40
0.0
 40
0.0
 40
0.5488621914267551
 40
0.9999999999999999
 40
0.9999999999999999
 40
0.9999999999999999
 40
0.9999999999999999
 10
11603.68801672061
 20
-3315.431061888155
 30
0.0
 10
11604.03714034431
 20
-3316.047295020908
 30
0.0
 10
11604.67322646786
 20
-3317.170041572553
 30
0.0
 10
11605.05107439493
 20
-3318.419268809685
 30
0.0
 10
11605.22153588073
 20
-3318.982842447854
 30
0.0
  0
SPLINE
  5
1E00A2
330
18
100
AcDbEntity
  8
0
  6
Continuous
 62
     8
370
    -2
100
AcDbSpline
210
0.0
220
0.0
230
1.0
 70
     8
 71
     3
 72
    12
 73
     8
 74
     0
 42
0.000000001
 43
0.00000001
 40
0.0
 40
0.0
 40
0.0
 40
0.0
 40
0.1345261437155908
 40
0.3872221248177826
 40
0.6483792297006966
 40
0.9174844794133613
 40
1.0
 40
1.0
 40
1.0
 40
1.0
 10
11622.6648936854
 20
-3370.904566501459
 30
0.0
 10
11622.6977844804
 20
-3370.629328771977
 30
0.0
 10
11622.7924578515
 20
-3369.837080250637
 30
0.0
 10
11622.52184028061
 20
-3368.407316097553
 30
0.0
 10
11621.88881320311
 20
-3366.621162421297
 30
0.0
 10
11621.10464170105
 20
-3365.175375107104
 30
0.0
 10
11620.54918910994
 20
-3364.344454022515
 30
0.0
 10
11620.41883998501
 20
-3364.14946017786
 30
0.0
  0
SPLINE
  5
1E00A3
330
18
100
AcDbEntity
  8
0
  6
Continuous
 62
     8
370
    -2
100
AcDbSpline
210
0.0
220
0.0
230
1.0
 70
     8
 71
     3
 72
    11
 73
     7
 74
     0
 42
0.000000001
 43
0.00000001
 40
0.0
 40
0.0
 40
0.0
 40
0.0
 40
0.2466508933700692
 40
0.5421434436026162
 40
0.8470853833865206
 40
1.0
 40
1.0
 40
1.0
 40
1.0
 10
11620.45791197309
 20
-3362.539382234324
 30
0.0
 10
11620.84240749423
 20
-3363.077258157881
 30
0.0
 10
11621.68753610104
 20
-3364.259519861635
 30
0.0
 10
11622.62891943254
 20
-3366.102101130497
 30
0.0
 10
11623.22672680784
 20
-3367.705253499364
 30
0.0
 10
11623.32155637547
 20
-3368.620616593657
 30
0.0
 10
11623.353227489
 20
-3368.926328927947
 30
0.0
  0
SPLINE
  5
1E00A4
330
18
100
AcDbEntity
  8
0
  6
Continuous
 62
     8
370
    -2
100
AcDbSpline
210
0.0
220
0.0
230
1.0
 70
     8
 71
     3
 72
    12
 73
     8
 74
     0
 42
0.000000001
 43
0.00000001
 40
0.0
 40
0.0
 40
0.0
 40
0.0
 40
0.2653085103933444
 40
0.5322299075389385
 40
0.8067076535303441
 40
0.9686497784755229
 40
1.0
 40
1.0
 40
1.0
 40
1.0
 10
11620.51032358681
 20
-3364.56619134937
 30
0.0
 10
11620.87762814048
 20
-3365.163167364853
 30
0.0
 10
11621.61447019786
 20
-3366.360748584741
 30
0.0
 10
11622.33672270285
 20
-3368.119876420253
 30
0.0
 10
11622.63885986551
 20
-3369.574391638761
 30
0.0
 10
11622.72227552896
 20
-3370.51133129495
 30
0.0
 10
11622.66131460612
 20
-3370.872766696205
 30
0.0
 10
11622.6514273112
 20
-3370.93138815796
 30
0.0
  0
SPLINE
  5
1E00A5
330
18
100
AcDbEntity
  8
0
  6
Continuous
 62
     8
370
    -2
100
AcDbSpline
210
0.0
220
0.0
230
1.0
 70
     8
 71
     3
 72
    12
 73
     8
 74
     0
 42
0.000000001
 43
0.00000001
 40
0.0
 40
0.0
 40
0.0
 40
0.0
 40
0.158616170312095
 40
0.4079627996247616
 40
0.6325248976193124
 40
0.8570365730968568
 40
1.0
 40
1.0
 40
1.0
 40
1.0
 10
11591.89843590659
 20
-3308.92615029016
 30
0.0
 10
11592.44221645418
 20
-3309.178535304673
 30
0.0
 10
11593.84082691198
 20
-3309.827672759586
 30
0.0
 10
11595.78569040325
 20
-3311.271251742532
 30
0.0
 10
11597.68204498256
 20
-3313.133593790122
 30
0.0
 10
11599.0476082763
 20
-3314.942000858898
 30
0.0
 10
11599.70565451447
 20
-3316.176422421209
 30
0.0
 10
11599.96166245803
 20
-3316.656664853004
 30
0.0
  0
LINE
  5
1E00A6
330
18
100
AcDbEntity
  8
0
  6
Continuous
 62
     8
370
    -2
100
AcDbLine
 10
11597.35426856582
 20
-3314.830371660269
 30
0.0
 11
11596.3073993234
 21
-3315.347513442869
 31
0.0
  0
SPLINE
  5
1E00A7
330
18
100
AcDbEntity
  8
0
  6
Continuous
 62
     8
370
    -2
100
AcDbSpline
210
0.0
220
0.0
230
1.0
 70
     8
 71
     3
 72
    13
 73
     9
 74
     0
 42
0.000000001
 43
0.00000001
 40
0.0
 40
0.0
 40
0.0
 40
0.0
 40
0.1412977867257823
 40
0.380793876297361
 40
0.5352242548333996
 40
0.7407206881292621
 40
0.9461406474651891
 40
1.0
 40
1.0
 40
1.0
 40
1.0
 10
11590.16802934329
 20
-3314.720341066381
 30
0.0
 10
11589.74732260097
 20
-3314.491543702722
 30
0.0
 10
11588.61352882468
 20
-3313.874940732404
 30
0.0
 10
11586.83512978887
 20
-3313.327914779243
 30
0.0
 10
11584.79694813054
 20
-3312.904165490664
 30
0.0
 10
11582.82655932492
 20
-3312.714881007015
 30
0.0
 10
11581.20180088152
 20
-3312.732826192296
 30
0.0
 10
11580.31144006234
 20
-3312.813232074035
 30
0.0
 10
11580.12648794682
 20
-3312.829934558699
 30
0.0
  0
SPLINE
  5
1E00A8
330
18
100
AcDbEntity
  8
0
  6
Continuous
 62
     8
370
    -2
100
AcDbSpline
210
0.0
220
0.0
230
1.0
 70
     8
 71
     3
 72
    12
 73
     8
 74
     0
 42
0.000000001
 43
0.00000001
 40
0.0
 40
0.0
 40
0.0
 40
0.0
 40
0.2063084018558186
 40
0.4126789169783862
 40
0.5822673419578288
 40
0.8459401221563291
 40
1.0
 40
1.0
 40
1.0
 40
1.0
 10
11580.99623047321
 20
-3311.56035838141
 30
0.0
 10
11581.6896320705
 20
-3311.552811575958
 30
0.0
 10
11583.07664402747
 20
-3311.537715692936
 30
0.0
 10
11585.03378974336
 20
-3311.773017764434
 30
0.0
 10
11587.12838071388
 20
-3312.234110884329
 30
0.0
 10
11589.00652553014
 20
-3312.840877564135
 30
0.0
 10
11590.20115162138
 20
-3313.511267650193
 30
0.0
 10
11590.64172993419
 20
-3313.758507631978
 30
0.0
  0
SPLINE
  5
1E00A9
330
18
100
AcDbEntity
  8
0
  6
Continuous
 62
     8
370
    -2
100
AcDbSpline
210
0.0
220
0.0
230
1.0
 70
     8
 71
     3
 72
    12
 73
     8
 74
     0
 42
0.000000001
 43
0.00000001
 40
0.0
 40
0.0
 40
0.0
 40
0.0
 40
0.1293010182850554
 40
0.3543384063195903
 40
0.5794715704923025
 40
0.8218261273215416
 40
1.0
 40
1.0
 40
1.0
 40
1.0
 10
11580.12648794682
 20
-3312.829934558699
 30
0.0
 10
11580.5691624162
 20
-3312.80221332681
 30
0.0
 10
11581.7822740226
 20
-3312.726245656492
 30
0.0
 10
11583.80704751946
 20
-3312.829702187728
 30
0.0
 10
11586.18200741699
 20
-3313.242344105254
 30
0.0
 10
11588.3309870803
 20
-3313.891037056425
 30
0.0
 10
11589.59171981876
 20
-3314.559234607481
 30
0.0
 10
11590.12588021949
 20
-3314.84234351768
 30
0.0
  0
SPLINE
  5
1E00AA
330
18
100
AcDbEntity
  8
0
  6
Continuous
 62
     8
370
    -2
100
AcDbSpline
210
0.0
220
0.0
230
1.0
 70
     8
 71
     3
 72
    11
 73
     7
 74
     0
 42
0.000000001
 43
0.00000001
 40
0.0
 40
0.0
 40
0.0
 40
0.0
 40
0.3030645246371003
 40
0.5544686838585051
 40
0.8058940536962663
 40
0.9999999999999999
 40
0.9999999999999999
 40
0.9999999999999999
 40
0.9999999999999999
 10
11615.06890008933
 20
-3377.558558607577
 30
0.0
 10
11615.28728846278
 20
-3376.737987501081
 30
0.0
 10
11615.68683873724
 20
-3375.236719802474
 30
0.0
 10
11615.66048944984
 20
-3372.798016710959
 30
0.0
 10
11615.37859809793
 20
-3370.605533893891
 30
0.0
 10
11614.97375686714
 20
-3369.164526133668
 30
0.0
 10
11614.79737849067
 20
-3368.536718020533
 30
0.0
  0
SPLINE
  5
1E00AB
330
18
100
AcDbEntity
  8
0
  6
Continuous
 62
     8
370
    -2
100
AcDbSpline
210
0.0
220
0.0
230
1.0
 70
     8
 71
     3
 72
    12
 73
     8
 74
     0
 42
0.000000001
 43
0.00000001
 40
0.0
 40
0.0
 40
0.0
 40
0.0
 40
0.1203078533230198
 40
0.3677495493092679
 40
0.6151922135550731
 40
0.8076182640869903
 40
1.0
 40
1.0
 40
1.0
 40
1.0
 10
11615.85032505069
 20
-3368.944106881445
 30
0.0
 10
11615.95707264127
 20
-3369.353934265434
 30
0.0
 10
11616.28337202441
 20
-3370.606669075287
 30
0.0
 10
11616.50080644419
 20
-3372.646341879777
 30
0.0
 10
11616.45924153664
 20
-3374.819625523632
 30
0.0
 10
11616.12958912877
 20
-3376.699614728338
 30
0.0
 10
11615.71768110977
 20
-3377.737357156539
 30
0.0
 10
11615.51175081801
 20
-3378.256168617223
 30
0.0
  0
SPLINE
  5
1E00AC
330
18
100
AcDbEntity
  8
0
  6
Continuous
 62
     8
370
    -2
100
AcDbSpline
210
0.0
220
0.0
230
1.0
 70
     8
 71
     3
 72
    12
 73
     8
 74
     0
 42
0.000000001
 43
0.00000001
 40
0.0
 40
0.0
 40
0.0
 40
0.0
 40
0.146615601966303
 40
0.3936358285102199
 40
0.647684652229855
 40
0.8225404637283981
 40
1.0
 40
1.0
 40
1.0
 40
1.0
 10
11614.62153827254
 20
-3368.443950668837
 30
0.0
 10
11614.77087823545
 20
-3368.92609166983
 30
0.0
 10
11615.17182847025
 20
-3370.220551262395
 30
0.0
 10
11615.52352577393
 20
-3372.302962636938
 30
0.0
 10
11615.62118350011
 20
-3374.378860260213
 30
0.0
 10
11615.46089667111
 20
-3376.14041175736
 30
0.0
 10
11615.20020780836
 20
-3377.08351969957
 30
0.0
 10
11615.06890008933
 20
-3377.558558607577
 30
0.0
  0
LWPOLYLINE
  5
1E00AD
330
18
100
AcDbEntity
  8
0
  6
Continuous
 62
     8
370
    -2
100
AcDbPolyline
 90
       19
 70
   128
 43
0.0
 10
11639.70271112431
 20
-3367.506573666252
 10
11640.14315910073
 20
-3367.335400045991
 10
11641.44589032988
 20
-3366.702470563946
 10
11642.66684223062
 20
-3365.910806865108
 10
11643.80045050514
 20
-3364.963986732261
 10
11644.84154130691
 20
-3363.866356086942
 10
11645.78536413182
 20
-3362.622914083165
 10
11646.62761129159
 20
-3361.239325079325
 10
11647.36444264045
 20
-3359.721920507636
 10
11647.99249165301
 20
-3358.077606276387
 10
11648.5088972154
 20
-3356.31389085166
 10
11648.91130012414
 20
-3354.438832344936
 10
11649.19786823191
 20
-3352.460975424275
 10
11649.36728775294
 20
-3350.389336989079
 10
11649.41879041387
 20
-3348.233386251142
 10
11649.35214023944
 20
-3346.00294950457
 10
11649.16764093176
 20
-3343.708204214453
 10
11648.86613298283
 20
-3341.359639651233
 10
11648.62997230393
 20
-3339.931086626015
  0
LWPOLYLINE
  5
1E00AE
330
18
100
AcDbEntity
  8
0
  6
Continuous
 62
     8
370
    -2
100
AcDbPolyline
 90
       13
 70
   128
 43
0.0
 10
11622.96989957101
 20
-3299.148656724887
 10
11622.10013330461
 20
-3298.637256450839
 10
11620.35784066235
 20
-3297.723632451401
 10
11618.62999278251
 20
-3296.965994473113
 10
11616.92447428377
 20
-3296.367790697793
 10
11615.24906657177
 20
-3295.931756185735
 10
11613.61141404731
 20
-3295.659882491034
 10
11612.0189899562
 20
-3295.553402181408
 10
11610.47905855341
 20
-3295.612811920015
 10
11608.99864747286
 20
-3295.837831299911
 10
11607.58451119552
 20
-3296.227440139407
 10
11606.24310178767
 20
-3296.779851435868
 10
11605.04544628814
 20
-3297.450770524895
  0
ARC
  5
1E00AF
330
18
100
AcDbEntity
  8
0
  6
Continuous
 62
     8
370
    -2
100
AcDbCircle
 10
11610.77101623582
 20
-3317.96697275309
 30
0.0
 40
23.05295354498948
100
AcDbArc
 50
58.05074926926356
 51
85.91177865941523
  0
LWPOLYLINE
  5
1E00B0
330
18
100
AcDbEntity
  8
0
  6
Continuous
 62
     8
370
    -2
100
AcDbPolyline
 90
       14
 70
   128
 43
0.0
 10
11649.22162804938
 20
-3339.6658585001
 10
11649.49492506671
 20
-3341.301359584144
 10
11649.79989890157
 20
-3343.676931049508
 10
11649.98651731368
 20
-3345.998039422294
 10
11650.05393548792
 20
-3348.254116917731
 10
11650.00184036992
 20
-3350.434845040528
 10
11649.83047115556
 20
-3352.530289692346
 10
11649.54061111749
 20
-3354.530891076321
 10
11649.13358206664
 20
-3356.427497294608
 10
11648.61124204613
 20
-3358.211481163393
 10
11647.97597447883
 20
-3359.874702806946
 10
11647.23067514533
 20
-3361.409556092985
 10
11646.3787456267
 20
-3362.809039008152
 10
11646.16525931245
 20
-3363.115089255829
  0
LWPOLYLINE
  5
1E00B1
330
18
100
AcDbEntity
  8
0
  6
Continuous
 62
     8
370
    -2
100
AcDbPolyline
 90
       22
 70
   128
 43
0.0
 10
11693.7799939475
 20
-3298.081629996012
 10
11692.57721440532
 20
-3295.692565299015
 10
11691.28957457838
 20
-3293.354905407691
 10
11689.92295600801
 20
-3291.079307973488
 10
11688.48359946244
 20
-3288.876164118128
 10
11686.97806093394
 20
-3286.755522614883
 10
11685.41321990039
 20
-3284.727054264872
 10
11683.79620538831
 20
-3282.800020952573
 10
11682.1344091432
 20
-3280.983215616967
 10
11680.43540253262
 20
-3279.284925465261
 10
11678.70693642588
 20
-3277.712900106684
 10
11676.95690623073
 20
-3276.274311241214
 10
11675.19329771189
 20
-3274.975727208116
 10
11673.42414622066
 20
-3273.823065329873
 10
11671.65753483794
 20
-3272.82159020365
 10
11669.90152070596
 20
-3271.975871882839
 10
11668.16411407349
 20
-3271.289766124165
 10
11666.45324198504
 20
-3270.766405795196
 10
11664.77671651988
 20
-3270.408180759181
 10
11663.14218138855
 20
-3270.21671878436
 10
11661.55709804261
 20
-3270.192898480379
 10
11660.04749740231
 20
-3270.333984452423
  0
LWPOLYLINE
  5
1E00B2
330
18
100
AcDbEntity
  8
0
  6
Continuous
 62
     8
370
    -2
100
AcDbPolyline
 90
       22
 70
   128
 43
0.0
 10
11694.65912730049
 20
-3340.230135288843
 10
11695.02830183506
 20
-3339.855882740518
 10
11696.03273958055
 20
-3338.671208650399
 10
11696.93655776356
 20
-3337.341842227468
 10
11697.73562533472
 20
-3335.873834219696
 10
11698.42630551895
 20
-3334.27388919484
 10
11699.00544066999
 20
-3332.549306164491
 10
11699.47038825246
 20
-3330.707952970744
 10
11699.81903227773
 20
-3328.758234786433
 10
11700.04978186829
 20
-3326.709048489395
 10
11700.16157479104
 20
-3324.569738280249
 10
11700.15390757196
 20
-3322.350072699316
 10
11700.02681993157
 20
-3320.060172484475
 10
11699.78088329101
 20
-3317.710488885541
 10
11699.41722011053
 20
-3315.311739707701
 10
11698.93749820278
 20
-3312.87487553958
 10
11698.34389601017
 20
-3310.411015734368
 10
11697.63912763031
 20
-3307.931398794069
 10
11696.82641222412
 20
-3305.447332923957
 10
11695.9094492313
 20
-3302.970166885919
 10
11694.89243333731
 20
-3300.511186598359
 10
11693.7799939475
 20
-3298.081629996012
  0
LWPOLYLINE
  5
1E00B3
330
18
100
AcDbEntity
  8
0
  6
Continuous
 62
     8
370
    -2
100
AcDbPolyline
 90
       13
 70
   128
 43
0.0
 10
11605.47251865991
 20
-3297.414506002878
 10
11606.32859788467
 20
-3296.953653009866
 10
11607.66337055158
 20
-3296.403971776831
 10
11609.07051032633
 20
-3296.016293934856
 10
11610.54359733424
 20
-3295.792387097012
 10
11612.07590922982
 20
-3295.733278205682
 10
11613.66045524042
 20
-3295.839228788158
 10
11615.29000557012
 20
-3296.109756329848
 10
11616.95712359476
 20
-3296.543637134474
 10
11618.6542041751
 20
-3297.138874707285
 10
11620.37350386664
 20
-3297.892769468732
 10
11622.10717624096
 20
-3298.801870891762
 10
11622.96989960125
 20
-3299.309074594134
  0
LWPOLYLINE
  5
1E00B4
330
18
100
AcDbEntity
  8
0
  6
Continuous
 62
     8
370
    -2
100
AcDbPolyline
 90
       19
 70
   128
 43
0.0
 10
11648.52148533118
 20
-3339.979720005423
 10
11648.74075330981
 20
-3341.31288611053
 10
11649.04076829589
 20
-3343.649836812933
 10
11649.22435417836
 20
-3345.933222022087
 10
11649.29067402642
 20
-3348.152627790088
 10
11649.239426861
 20
-3350.29791348791
 10
11649.0708445105
 20
-3352.359290133942
 10
11648.78569562111
 20
-3354.3273678715
 10
11648.38528547637
 20
-3356.193153508785
 10
11647.87143475758
 20
-3357.948142103546
 10
11647.24648997499
 20
-3359.584314084732
 10
11646.51330658362
 20
-3361.094214533903
 10
11645.67522509486
 20
-3362.470950940038
 10
11644.73607335029
 20
-3363.70824492656
 10
11643.70013365283
 20
-3364.800458204606
 10
11642.57213234843
 20
-3365.742580012846
 10
11641.3572198589
 20
-3366.530343172174
 10
11640.06093663822
 20
-3367.160132243437
 10
11639.91418988672
 20
-3367.219404979717
  0
LWPOLYLINE
  5
1E00B5
330
18
100
AcDbEntity
  8
0
  6
Continuous
 62
     8
370
    -2
100
AcDbPolyline
 90
        3
 70
   128
 43
0.0
 10
11608.17137548085
 20
-3296.613407479429
 10
11606.98810343973
 20
-3297.068228548207
 10
11606.45175298815
 20
-3297.32541096222
  0
LWPOLYLINE
  5
1E00B6
330
18
100
AcDbEntity
  8
0
  6
Continuous
 62
     8
370
    -2
100
AcDbPolyline
 90
        3
 70
   128
 43
0.0
 10
11640.63976932885
 20
-3366.471550788909
 10
11641.66715610622
 20
-3365.916083233541
 10
11642.20470527702
 20
-3365.569023942281
  0
ARC
  5
1E00B7
330
18
100
AcDbEntity
  8
0
  6
Continuous
 62
     8
370
    -2
100
AcDbCircle
 10
11610.80854001374
 20
-3343.807751599668
 30
0.0
 40
36.0735182739142
100
AcDbArc
 50
1.751437519465729
 51
4.827375015424999
  0
LWPOLYLINE
  5
1E00B8
330
18
100
AcDbEntity
  8
0
  6
Continuous
 62
     8
370
    -2
100
AcDbPolyline
 90
        3
 70
   128
 43
0.0
 10
11622.42034690663
 20
-3302.73975450649
 10
11622.79344814665
 20
-3302.893912299434
 10
11622.96990029129
 20
-3302.969887083529
  0
SPLINE
  5
1E00B9
330
18
100
AcDbEntity
  8
0
  6
Continuous
 62
     8
370
    -2
100
AcDbSpline
210
0.0
220
0.0
230
1.0
 70
     8
 71
     3
 72
    13
 73
     9
 74
     0
 42
0.000000001
 43
0.00000001
 40
0.0
 40
0.0
 40
0.0
 40
0.0
 40
0.0488209244492645
 40
0.1897416205073818
 40
0.3396277248688375
 40
0.5220879841434235
 40
0.7423975958431138
 40
1.0
 40
1.0
 40
1.0
 40
1.0
 10
11649.0374921364
 20
-3350.884513057724
 30
0.0
 10
11649.02143373516
 20
-3350.847242017563
 30
0.0
 10
11648.95902305551
 20
-3350.702388808864
 30
0.0
 10
11648.78239358522
 20
-3350.448523168264
 30
0.0
 10
11648.48154669584
 20
-3350.099072846089
 30
0.0
 10
11648.02999945454
 20
-3349.7014906055
 30
0.0
 10
11647.37257119954
 20
-3349.236653125742
 30
0.0
 10
11646.76483850048
 20
-3348.922962208982
 30
0.0
 10
11646.43726062178
 20
-3348.753877666976
 30
0.0
  0
SPLINE
  5
1E00BA
330
18
100
AcDbEntity
  8
0
  6
Continuous
 62
     8
370
    -2
100
AcDbSpline
210
0.0
220
0.0
230
1.0
 70
     8
 71
     3
 72
    10
 73
     6
 74
     0
 42
0.000000001
 43
0.00000001
 40
0.0
 40
0.0
 40
0.0
 40
0.0
 40
0.3339671095654995
 40
0.6650237344826826
 40
1.0
 40
1.0
 40
1.0
 40
1.0
 10
11646.43726062178
 20
-3348.753877666976
 30
0.0
 10
11646.83851671225
 20
-3348.931328849868
 30
0.0
 10
11647.63753199286
 20
-3349.284684749163
 30
0.0
 10
11648.52904632706
 20
-3349.888920556295
 30
0.0
 10
11648.88082418551
 20
-3350.330950662267
 30
0.0
 10
11649.05774823086
 20
-3350.553266401131
 30
0.0
  0
LINE
  5
1E00BB
330
18
100
AcDbEntity
  8
0
  6
Continuous
 62
     8
370
    -2
100
AcDbLine
 10
11647.05092766951
 20
-3347.918218825225
 30
0.0
 11
11647.25074393179
 21
-3348.011836652194
 31
0.0
  0
LINE
  5
1E00BC
330
18
100
AcDbEntity
  8
0
  6
Continuous
 62
     8
370
    -2
100
AcDbLine
 10
11649.06146601104
 20
-3345.358490968465
 30
0.0
 11
11647.27551465705
 21
-3346.232644735241
 31
0.0
  0
LINE
  5
1E00BD
330
18
100
AcDbEntity
  8
0
  6
Continuous
 62
     8
370
    -2
100
AcDbLine
 10
11646.85662840022
 20
-3342.705546672586
 30
0.0
 11
11646.7248751949
 21
-3342.776041007377
 31
0.0
  0
ARC
  5
1E00BE
330
18
100
AcDbEntity
  8
0
  6
Continuous
 62
     8
370
    -2
100
AcDbCircle
 10
11619.95024208568
 20
-3343.159667405302
 30
0.0
 40
27.50068287684034
100
AcDbArc
 50
350.0414813390461
 51
1.023112458367487
  0
LINE
  5
1E00BF
330
18
100
AcDbEntity
  8
0
  6
Continuous
 62
     8
370
    -2
100
AcDbLine
 10
11646.355350228
 20
-3348.24603663064
 30
0.0
 11
11647.03657805174
 21
-3347.915501993047
 31
0.0
  0
SPLINE
  5
1E00C0
330
18
100
AcDbEntity
  8
0
  6
Continuous
 62
     8
370
    -2
100
AcDbSpline
210
0.0
220
0.0
230
1.0
 70
     8
 71
     3
 72
     9
 73
     5
 74
     0
 42
0.000000001
 43
0.00000001
 40
0.0
 40
0.0
 40
0.0
 40
0.0
 40
0.7351916728410256
 40
0.9999999999999999
 40
0.9999999999999999
 40
0.9999999999999999
 40
0.9999999999999999
 10
11621.98946429602
 20
-3298.9285436466
 30
0.0
 10
11622.2531836676
 20
-3299.141628001214
 30
0.0
 10
11622.61189198997
 20
-3299.431463104745
 30
0.0
 10
11622.89494482565
 20
-3299.796986993845
 30
0.0
 10
11622.96989957357
 20
-3299.893780763454
 30
0.0
  0
SPLINE
  5
1E00C1
330
18
100
AcDbEntity
  8
0
  6
Continuous
 62
     8
370
    -2
100
AcDbSpline
210
0.0
220
0.0
230
1.0
 70
     8
 71
     3
 72
    11
 73
     7
 74
     0
 42
0.000000001
 43
0.00000001
 40
0.0
 40
0.0
 40
0.0
 40
0.0
 40
0.3781779007313484
 40
0.4355829324634113
 40
0.9007245472006827
 40
1.0
 40
1.0
 40
1.0
 40
1.0
 10
11647.03657805174
 20
-3347.915501993047
 30
0.0
 10
11647.04807746104
 20
-3347.910117624895
 30
0.0
 10
11647.06132240851
 20
-3347.903915943451
 30
0.0
 10
11647.07890136213
 20
-3347.89322987473
 30
0.0
 10
11647.0884698735
 20
-3347.886262364103
 30
0.0
 10
11647.08663351447
 20
-3347.883049461796
 30
0.0
 10
11647.08631051684
 20
-3347.882484343643
 30
0.0
  0
LINE
  5
1E00C2
330
18
100
AcDbEntity
  8
0
  6
Continuous
 62
     8
370
    -2
100
AcDbLine
 10
11647.30528153548
 20
-3345.734746091893
 30
0.0
 11
11649.0387074395
 21
-3344.886176848878
 31
0.0
  0
ARC
  5
1E00C3
330
18
100
AcDbEntity
  8
0
  6
Continuous
 62
     8
370
    -2
100
AcDbCircle
 10
11647.17878112755
 20
-3347.875032588219
 30
0.0
 40
0.1545768323985662
100
AcDbArc
 50
245.9600042253034
 51
297.7456385986472
  0
LINE
  5
1E00C4
330
18
100
AcDbEntity
  8
0
  6
Continuous
 62
     8
370
    -2
100
AcDbLine
 10
11646.99271916131
 20
-3359.128835110637
 30
0.0
 11
11647.13827439452
 21
-3359.063208306952
 31
0.0
  0
LINE
  5
1E00C5
330
18
100
AcDbEntity
  8
0
  6
Continuous
 62
     8
370
    -2
100
AcDbLine
 10
11614.91858796738
 20
-3296.653461080699
 30
0.0
 11
11614.47338063294
 21
-3296.897284105896
 31
0.0
  0
LWPOLYLINE
  5
1E00C6
330
18
100
AcDbEntity
  8
0
  6
Continuous
 62
     8
370
    -2
100
AcDbPolyline
 90
       19
 70
   128
 43
0.0
 10
11580.97386900017
 20
-3237.935553903481
 10
11580.93500015532
 20
-3237.921993278255
 10
11579.44707563877
 20
-3237.363028540691
 10
11578.1099997047
 20
-3236.779087091366
 10
11576.93000903135
 20
-3236.172889444498
 10
11575.91260464001
 20
-3235.547264621895
 10
11575.06252835367
 20
-3234.905128599172
 10
11574.38374488234
 20
-3234.249474113763
 10
11573.87942100479
 20
-3233.583360039052
 10
11573.55190470618
 20
-3232.909891232915
 10
11573.40272267964
 20
-3232.23220664136
 10
11573.43257615145
 20
-3231.553468153678
 10
11573.64131962969
 20
-3230.876838889849
 10
11574.02798227812
 20
-3230.205473618904
 10
11574.5907607034
 20
-3229.542502901621
 10
11575.32703335484
 20
-3228.891017957729
 10
11576.23336534502
 20
-3228.254056356251
 10
11577.30552980916
 20
-3227.634587233811
 10
11577.71218848253
 20
-3227.425869098905
  0
LWPOLYLINE
  5
1E00C7
330
18
100
AcDbEntity
  8
0
  6
Continuous
 62
     8
370
    -2
100
AcDbPolyline
 90
       45
 70
   128
 43
0.0
 10
11648.01049883246
 20
-3209.841684863283
 10
11647.93612026593
 20
-3209.606159842622
 10
11647.60546971237
 20
-3208.948650997357
 10
11647.09644285099
 20
-3208.298816576194
 10
11646.41157688402
 20
-3207.659894420693
 10
11645.55428327613
 20
-3207.035067141574
 10
11644.52883531806
 20
-3206.42744773534
 10
11643.34033888238
 20
-3205.840063190326
 10
11641.99471853531
 20
-3205.275839886383
 10
11640.49867203811
 20
-3204.737589281037
 10
11638.85965897342
 20
-3204.227992181927
 10
11637.08584094527
 20
-3203.749587806928
 10
11635.18605755447
 20
-3203.304759172161
 10
11633.16977131688
 20
-3202.895722857168
 10
11631.04702867621
 20
-3202.524516165081
 10
11628.82840429168
 20
-3202.192988797561
 10
11626.5249511714
 20
-3201.902792397268
 10
11624.14814586736
 20
-3201.65537235839
 10
11621.70982855055
 20
-3201.451961878119
 10
11619.22214729861
 20
-3201.293573631587
 10
11616.69749563929
 20
-3201.180997453051
 10
11614.14845076322
 20
-3201.11479310707
 10
11611.5877126189
 20
-3201.095292209534
 10
11609.02803740718
 20
-3201.122590293791
 10
11606.48217926902
 20
-3201.19655212511
 10
11603.96281964106
 20
-3201.316808659351
 10
11601.48251145799
 20
-3201.482761230174
 10
11599.05360967517
 20
-3201.693583191109
 10
11596.68821692272
 20
-3201.948224319696
 10
11594.39811419262
 20
-3202.245414989129
 10
11592.1947143051
 20
-3202.583675747799
 10
11590.08899427217
 20
-3202.961320739431
 10
11588.09144415394
 20
-3203.376469349261
 10
11586.21201413453
 20
-3203.827052574128
 10
11584.4600673147
 20
-3204.31082550735
 10
11582.84433190598
 20
-3204.825378356396
 10
11581.37286038457
 20
-3205.36814781167
 10
11580.05298173385
 20
-3205.936429777969
 10
11578.89127119106
 20
-3206.52739293672
 10
11577.89351481137
 20
-3207.138092895922
 10
11577.0646864846
 20
-3207.76548769984
 10
11576.40891378285
 20
-3208.406451403577
 10
11575.92946355688
 20
-3209.057790943122
 10
11575.62872753648
 20
-3209.716261268136
 10
11575.59193460024
 20
-3209.841879188864
  0
ARC
  5
1E00C8
330
18
100
AcDbEntity
  8
0
  6
Continuous
 62
     8
370
    -2
100
AcDbCircle
 10
11609.16003827127
 20
-3129.868964407387
 30
0.0
 40
111.4354438751292
100
AcDbArc
 50
261.5690958633001
 51
264.4079551736721
  0
LWPOLYLINE
  5
1E00C9
330
18
100
AcDbEntity
  8
0
  6
Continuous
 62
     8
370
    -2
100
AcDbPolyline
 90
       15
 70
   128
 43
0.0
 10
11574.0315699105
 20
-3232.571858481564
 10
11574.26623296705
 20
-3233.056163214695
 10
11574.74598720656
 20
-3233.722907958968
 10
11575.40232357033
 20
-3234.379497256055
 10
11576.23211848083
 20
-3235.022802536006
 10
11577.23141742714
 20
-3235.649757936342
 10
11578.39545695022
 20
-3236.257375611314
 10
11579.71868998104
 20
-3236.84275953816
 10
11581.19480989117
 20
-3237.403121635995
 10
11582.81678611377
 20
-3237.935790094625
 10
11584.57688400328
 20
-3238.438227372182
 10
11586.46672000338
 20
-3238.908038438837
 10
11588.47728458279
 20
-3239.342985226084
 10
11590.59899980544
 20
-3239.740994227415
 10
11592.82175237673
 20
-3240.100169452399
  0
LWPOLYLINE
  5
1E00CA
330
18
100
AcDbEntity
  8
0
  6
Continuous
 62
     8
370
    -2
100
AcDbPolyline
 90
       17
 70
   128
 43
0.0
 10
11631.60124263155
 20
-3199.657826455224
 10
11633.87129108128
 20
-3200.024038005596
 10
11636.04063996012
 20
-3200.429077694122
 10
11638.09938901623
 20
-3200.871098399214
 10
11640.03814693134
 20
-3201.348082556549
 10
11641.84806513592
 20
-3201.857854226062
 10
11643.52088603802
 20
-3202.398087300741
 10
11645.04897905927
 20
-3202.966316903467
 10
11646.42536737258
 20
-3203.559950396423
 10
11647.64377709051
 20
-3204.176278739266
 10
11648.69864473262
 20
-3204.812489628997
 10
11649.58515775525
 20
-3205.465680570291
 10
11650.29927179235
 20
-3206.132871972805
 10
11650.83772689389
 20
-3206.811018094671
 10
11651.19806945092
 20
-3207.497025849765
 10
11651.37864994965
 20
-3208.18776449211
 10
11651.40094226922
 20
-3208.573826497452
  0
LWPOLYLINE
  5
1E00CB
330
18
100
AcDbEntity
  8
0
  6
Continuous
 62
     8
370
    -2
100
AcDbPolyline
 90
       33
 70
   128
 43
0.0
 10
11572.2025554492
 20
-3208.617396024293
 10
11572.20124181569
 20
-3208.533923411583
 10
11572.29158564518
 20
-3207.842000568396
 10
11572.5622033347
 20
-3207.153234416244
 10
11573.01185643754
 20
-3206.470767791363
 10
11573.63849855616
 20
-3205.797715233115
 10
11574.43926812948
 20
-3205.137147126683
 10
11575.41051420726
 20
-3204.492078148741
 10
11576.54779871156
 20
-3203.865450633997
 10
11577.845941178
 20
-3203.260124931352
 10
11579.29901118021
 20
-3202.678861973716
 10
11580.90037989975
 20
-3202.124314043987
 10
11582.64274441134
 20
-3201.599012152755
 10
11584.51815346109
 20
-3201.105352746722
 10
11586.51804561478
 20
-3200.645587549368
 10
11588.63330189783
 20
-3200.221815582751
 10
11590.85426764841
 20
-3199.83596989999
 10
11593.17081002159
 20
-3199.489810897546
 10
11595.57235681473
 20
-3199.184917587851
 10
11598.04795477975
 20
-3198.922682284858
 10
11600.58630347955
 20
-3198.704300633152
 10
11603.17582644177
 20
-3198.530769214395
 10
11605.80470244047
 20
-3198.402880201707
 10
11608.46093938903
 20
-3198.321216870418
 10
11611.13241907697
 20
-3198.286151766033
 10
11613.80694961483
 20
-3198.297844020029
 10
11616.47232943324
 20
-3198.356241899176
 10
11619.11639498344
 20
-3198.461077909375
 10
11621.72708333666
 20
-3198.611874141833
 10
11624.29248239116
 20
-3198.807942761455
 10
11626.80088702481
 20
-3199.048388385673
 10
11629.24085067668
 20
-3199.332114790245
 10
11631.60124263155
 20
-3199.657826455224
  0
ARC
  5
1E00CC
330
18
100
AcDbEntity
  8
0
  6
Continuous
 62
     8
370
    -2
100
AcDbCircle
 10
11614.27551232562
 20
-3314.759301648383
 30
0.0
 40
115.272396142772
100
AcDbArc
 50
81.58171572651739
 51
85.06223905755694
  0
LWPOLYLINE
  5
1E00CD
330
18
100
AcDbEntity
  8
0
  6
Continuous
 62
     8
370
    -2
100
AcDbPolyline
 90
       25
 70
   128
 43
0.0
 10
11598.36273651584
 20
-3200.010241661607
 10
11598.01468819119
 20
-3200.044090535571
 10
11595.57911257268
 20
-3200.309413570217
 10
11593.21916912257
 20
-3200.617135369099
 10
11590.94586419583
 20
-3200.965822455934
 10
11588.76980032255
 20
-3201.353849248037
 10
11586.70111702742
 20
-3201.779405495538
 10
11584.74946110405
 20
-3202.240507871519
 10
11582.92393410989
 20
-3202.735006154234
 10
11581.23304662576
 20
-3203.260595054416
 10
11579.6846814958
 20
-3203.814823752273
 10
11578.28605847418
 20
-3204.395108274933
 10
11577.04370012895
 20
-3204.998743310262
 10
11575.9633973269
 20
-3205.622914208559
 10
11575.0501863327
 20
-3206.264710719769
 10
11574.30832632713
 20
-3206.921140542812
 10
11573.74127566802
 20
-3207.589143438554
 10
11573.35167835881
 20
-3208.265604237829
 10
11573.14134734393
 20
-3208.947369007543
 10
11573.11127007514
 20
-3209.631259910479
 10
11573.26158459307
 20
-3210.314087663189
 10
11573.59158422537
 20
-3210.992668520553
 10
11574.0997389584
 20
-3211.663838992353
 10
11574.78367358408
 20
-3212.324469110793
 10
11574.87674727818
 20
-3212.402339787511
  0
LWPOLYLINE
  5
1E00CE
330
18
100
AcDbEntity
  8
0
  6
Continuous
 62
     8
370
    -2
100
AcDbPolyline
 90
       21
 70
   128
 43
0.0
 10
11648.73128530293
 20
-3212.39775963589
 10
11649.29415915055
 20
-3211.885373392683
 10
11649.86120980967
 20
-3211.217370496941
 10
11650.25080711887
 20
-3210.540909697666
 10
11650.46113813375
 20
-3209.859144927952
 10
11650.49121540255
 20
-3209.175254025015
 10
11650.34090088462
 20
-3208.492426272307
 10
11650.01090125231
 20
-3207.813845414942
 10
11649.50274651929
 20
-3207.142674943142
 10
11648.8188118936
 20
-3206.482044824703
 10
11647.96228501635
 20
-3205.835034084471
 10
11646.93715553046
 20
-3205.204660728613
 10
11645.74820979905
 20
-3204.59386241836
 10
11644.40098634917
 20
-3204.005487807994
 10
11642.90176595004
 20
-3203.44228103423
 10
11641.25754287004
 20
-3202.906866399165
 10
11639.47598009595
 20
-3202.401740676709
 10
11637.56538544663
 20
-3201.929259523272
 10
11635.53466587584
 20
-3201.491625639253
 10
11633.39329062412
 20
-3201.090879254848
 10
11631.15124339598
 20
-3200.728888979933
  0
LWPOLYLINE
  5
1E00CF
330
18
100
AcDbEntity
  8
0
  6
Continuous
 62
     8
370
    -2
100
AcDbPolyline
 90
       19
 70
   128
 43
0.0
 10
11630.38484072673
 20
-3201.07245789746
 10
11632.58487473329
 20
-3201.428265358491
 10
11634.68365319553
 20
-3201.822926095115
 10
11636.67095073644
 20
-3202.2545173485
 10
11638.53708694667
 20
-3202.720936271615
 10
11640.27296736345
 20
-3203.219911062681
 10
11641.87013564871
 20
-3203.749010766116
 10
11643.32081252867
 20
-3204.305657103253
 10
11644.61792934127
 20
-3204.88713850332
 10
11645.75516588698
 20
-3205.490621771457
 10
11646.7269837516
 20
-3206.113167088141
 10
11647.52864561263
 20
-3206.751741916124
 10
11648.15624599545
 20
-3207.403234113322
 10
11648.60673029482
 20
-3208.064470306201
 10
11648.87790224236
 20
-3208.732229029647
 10
11648.96843818364
 20
-3209.403256888404
 10
11648.87790280719
 20
-3210.074284935456
 10
11648.60672997032
 20
-3210.742043341873
 10
11648.36760134156
 20
-3211.125949123373
  0
LWPOLYLINE
  5
1E00D0
330
18
100
AcDbEntity
  8
0
  6
Continuous
 62
     8
370
    -2
100
AcDbPolyline
 90
       34
 70
   128
 43
0.0
 10
11575.25945826551
 20
-3211.160532178519
 10
11574.99575518286
 20
-3210.742043629295
 10
11574.72458323533
 20
-3210.074284905848
 10
11574.63404729404
 20
-3209.403257047092
 10
11574.7245826705
 20
-3208.732229000039
 10
11574.99575550737
 20
-3208.064470593622
 10
11575.44623814436
 20
-3207.403234078102
 10
11576.07384052026
 20
-3206.751741783437
 10
11576.87550176308
 20
-3206.113167327584
 10
11577.84732036491
 20
-3205.490622089484
 10
11578.98455644345
 20
-3204.887138575606
 10
11580.2816729326
 20
-3204.305657161248
 10
11581.73235008691
 20
-3203.749010910787
 10
11583.32951775193
 20
-3203.219911111289
 10
11585.06539890441
 20
-3202.720936431538
 10
11586.93153342145
 20
-3202.254517060079
 10
11588.91883260639
 20
-3201.822925881577
 10
11591.01760936366
 20
-3201.428264949804
 10
11593.21764528193
 20
-3201.072457976805
 10
11595.50821622902
 20
-3200.757237123502
 10
11597.87816643929
 20
-3200.484139291005
 10
11600.31594801284
 20
-3200.254494487919
 10
11602.8096835831
 20
-3200.069421166709
 10
11605.34722753268
 20
-3199.929821343111
 10
11607.91621369388
 20
-3199.836375699978
 10
11610.50412633805
 20
-3199.789538664143
 10
11613.09835943025
 20
-3199.789538743789
 10
11615.68627281595
 20
-3199.836375902372
 10
11618.25525907149
 20
-3199.929821528027
 10
11620.79280147141
 20
-3200.06942108357
 10
11623.28653771075
 20
-3200.254494610468
 10
11625.72431896123
 20
-3200.484139541545
 10
11628.09426875488
 20
-3200.757237495923
 10
11630.38484072673
 20
-3201.07245789746
  0
ARC
  5
1E00D1
330
18
100
AcDbEntity
  8
0
  6
Continuous
 62
     8
370
    -2
100
AcDbCircle
 10
11602.29126442284
 20
-3179.571944965361
 30
0.0
 40
48.60417681850129
100
AcDbArc
 50
248.939982177021
 51
262.6057029215203
  0
TEXT
  5
1E0140
330
18
100
AcDbEntity
  8
文字
100
AcDbText
 10
11572.94762894502
 20
-3413.626124561721
 30
0.0
 40
11.5
  1
MMP-100D/WCL・MCL・SCL
 41
0.5
100
AcDbText
  0
ENDSEC
  0
SECTION
  2
OBJECTS
  0
DICTIONARY
  5
C
330
0
100
AcDbDictionary
281
     1
  3
ACAD_DETAILVIEWSTYLE
350
1948F6
  3
ACAD_GROUP
350
D
  3
ACAD_IMAGE_VARS
350
12DBDF
  3
ACAD_LAYOUT
350
617
  3
ACAD_MLINESTYLE
350
E
  3
ACAD_PLOTSETTINGS
350
618
  3
ACAD_PLOTSTYLENAME
350
615
  3
ACAD_SCALELIST
350
A36
  3
ACAD_SECTIONVIEWSTYLE
350
1948F7
  3
AcadDim
350
AB4
  3
AcDbVariableDictionary
350
6DE
  3
AEC_VARS
350
14A3BB
  3
APPDATA
350
12DBDE
  3
DWGPROPS
350
1E0166
  0
DICTIONARY
  5
8BF
330
2
100
AcDbDictionary
280
     1
281
     1
  3
ACAD_LAYERSTATES
360
8C0
  0
DICTIONARY
  5
A60
330
F
100
AcDbDictionary
280
     1
281
     1
  3
ADSK_XREC_LAYER_RECONCILED
360
A61
  0
DICTIONARY
  5
A66
330
34
100
AcDbDictionary
280
     1
281
     1
  3
ADSK_XREC_LAYER_RECONCILED
360
A67
  0
DICTIONARY
  5
A6E
330
2F4
100
AcDbDictionary
280
     1
281
     1
  3
ADSK_XREC_LAYER_RECONCILED
360
A6F
  0
DICTIONARY
  5
143F
330
18
100
AcDbDictionary
280
     1
281
     1
  3
ACAD_SORTENTS
360
1440
  0
DICTIONARY
  5
1948F6
102
{ACAD_REACTORS
330
C
102
}
330
C
100
AcDbDictionary
281
     1
  0
DICTIONARY
  5
D
102
{ACAD_REACTORS
330
C
102
}
330
C
100
AcDbDictionary
281
     1
  0
RASTERVARIABLES
  5
12DBDF
102
{ACAD_REACTORS
330
C
102
}
330
C
100
AcDbRasterVariables
 90
        0
 70
     1
 71
     1
 72
     0
  0
DICTIONARY
  5
617
102
{ACAD_REACTORS
330
C
102
}
330
C
100
AcDbDictionary
281
     1
  3
Model
350
619
  3
ﾚｲｱｳﾄ1
350
61A
  0
DICTIONARY
  5
E
102
{ACAD_REACTORS
330
C
102
}
330
C
100
AcDbDictionary
281
     1
  3
STANDARD
350
1B
  0
DICTIONARY
  5
618
102
{ACAD_REACTORS
330
C
102
}
330
C
100
AcDbDictionary
281
     1
  0
ACDBDICTIONARYWDFLT
  5
615
102
{ACAD_REACTORS
330
C
102
}
330
C
100
AcDbDictionary
281
     1
  3
Normal
350
616
100
AcDbDictionaryWithDefault
340
616
  0
DICTIONARY
  5
A36
102
{ACAD_REACTORS
330
C
102
}
330
C
100
AcDbDictionary
281
     1
  3
*A1
350
1DD7BE
  3
A0
350
A37
  3
A1
350
A38
  3
A2
350
A39
  3
A3
350
A3A
  3
A4
350
A3B
  3
A5
350
A3C
  3
A6
350
A3D
  3
A7
350
A3E
  3
A8
350
A3F
  3
A9
350
A40
  3
B0
350
A41
  3
B1
350
A42
  3
B2
350
A43
  3
B3
350
A44
  3
B4
350
A45
  3
B5
350
A46
  3
B6
350
A47
  3
B7
350
A48
  3
B8
350
A49
  3
B9
350
A4A
  3
C0
350
A4B
  3
C1
350
A4C
  3
C2
350
A4D
  3
C3
350
A4E
  3
C4
350
A4F
  3
C5
350
A50
  3
C6
350
A51
  3
C7
350
A52
  3
C8
350
A53
  3
C9
350
A54
  3
D0
350
A55
  3
D1
350
A56
  3
D2
350
A57
  0
DICTIONARY
  5
1948F7
102
{ACAD_REACTORS
330
C
102
}
330
C
100
AcDbDictionary
281
     1
  0
XRECORD
  5
AB4
102
{ACAD_REACTORS
330
C
102
}
330
C
100
AcDbXrecord
280
     1
 90
   990106
  3
OPEN
 60
     0
 61
     0
 62
     1
 63
     3
 64
     1
 65
     0
 66
     0
 67
     3
 68
     1
 69
     0
 70
     0
 71
     0
 72
     0
 40
0.0
170
     2
  0
DICTIONARY
  5
6DE
102
{ACAD_REACTORS
330
C
102
}
330
C
100
AcDbDictionary
281
     1
  3
DIMASSOC
350
6DF
  3
INDEXCTL
350
A93
  3
PROJECTNAME
350
6E0
  3
SORTENTS
350
A92
  0
DICTIONARY
  5
14A3BB
102
{ACAD_REACTORS
330
C
102
}
330
C
100
AcDbDictionary
281
     1
  3
AEC_VARS_DWG_SETUP
350
14A3BC
  3
AecDbVarsDwgSetup
350
14A3BC
  0
DICTIONARY
  5
12DBDE
102
{ACAD_REACTORS
330
C
102
}
330
C
100
AcDbDictionary
281
     1
  0
XRECORD
  5
1E0166
102
{ACAD_REACTORS
330
C
102
}
330
C
100
AcDbXrecord
280
     1
  1
DWGPROPS COOKIE
  2

  3

  4

  6

  7

  8
SPAX
  9

300
=
301
=
302
=
303
=
304
=
305
=
306
=
307
=
308
=
309
=
 40
0.0
 41
2448636.244629618
 42
2458075.321033577
  1

 90
        0
  0
DICTIONARY
  5
8C0
102
{ACAD_REACTORS
330
8BF
102
}
330
8BF
100
AcDbDictionary
281
     1
  0
XRECORD
  5
A61
102
{ACAD_REACTORS
330
A60
102
}
330
A60
100
AcDbXrecord
280
     1
290
     1
  0
XRECORD
  5
A67
102
{ACAD_REACTORS
330
A66
102
}
330
A66
100
AcDbXrecord
280
     1
290
     1
  0
XRECORD
  5
A6F
102
{ACAD_REACTORS
330
A6E
102
}
330
A6E
100
AcDbXrecord
280
     1
290
     1
  0
SORTENTSTABLE
  5
1440
102
{ACAD_REACTORS
330
143F
102
}
330
143F
100
AcDbSortentsTable
330
18
331
0
  5
FB0C5
331
D0CC6
  5
D0CC6
331
F6D77
  5
F6D77
331
F6D78
  5
F6D78
  0
LAYOUT
  5
619
102
{ACAD_REACTORS
330
617
102
}
330
617
100
AcDbPlotSettings
  1

  2
JUST PDF 3
  4
A4
  6

 40
3.174999952316284
 41
3.174999952316284
 42
3.175003051757812
 43
3.17498779296875
 44
209.8886566162109
 45
297.0530090332031
 46
14.27171755861491
 47
9.855173074625782
 48
9481.001208193247
 49
-5530.181659437563
140
9830.991645183061
141
-4988.19630916023
142
1.0
143
2.0
 70
  3748
 72
     1
 73
     0
 74
     4
  7
spax form.ctb
 75
    16
147
1.0
148
-9481.001208193247
149
5530.181659437563
100
AcDbLayout
  1
Model
 70
     1
 71
     0
 10
0.0
 20
0.0
 11
12.0
 21
9.0
 12
0.0
 22
0.0
 32
0.0
 14
10838.91170884494
 24
-3413.626124561721
 34
0.0
 15
13830.18181512672
 25
-1268.132123344721
 35
0.0
146
0.0
 13
0.0
 23
0.0
 33
0.0
 16
1.0
 26
0.0
 36
0.0
 17
0.0
 27
1.0
 37
0.0
 76
     0
330
18
331
12C7D1
1001
ACAD_PSEXT
1000
JUST PDF 3
1000
JUST PDF 3
1000
JUST PDF 3 Port:
1000

1070
     0
  0
LAYOUT
  5
61A
102
{ACAD_REACTORS
330
617
102
}
330
617
100
AcDbPlotSettings
  1

  2
Canon LASER SHOT LBP-750
  4

  6

 40
0.0
 41
0.0
 42
0.0
 43
0.0
 44
0.0
 45
0.0
 46
0.0
 47
0.0
 48
0.0
 49
0.0
140
0.0
141
0.0
142
1.0
143
1.0
 70
   688
 72
     0
 73
     0
 74
     5
  7
spax form.ctb
 75
    16
147
1.0
148
0.0
149
0.0
100
AcDbLayout
  1
ﾚｲｱｳﾄ1
 70
     0
 71
     1
 10
0.0
 20
0.0
 11
12.0
 21
9.0
 12
0.0
 22
0.0
 32
0.0
 14
1.000000000000000E+20
 24
1.000000000000000E+20
 34
1.000000000000000E+20
 15
-1.000000000000000E+20
 25
-1.000000000000000E+20
 35
-1.000000000000000E+20
146
0.0
 13
0.0
 23
0.0
 33
0.0
 16
1.0
 26
0.0
 36
0.0
 17
0.0
 27
1.0
 37
0.0
 76
     0
330
15
  0
MLINESTYLE
  5
1B
102
{ACAD_REACTORS
330
E
102
}
330
E
100
AcDbMlineStyle
  2
STANDARD
 70
     0
  3

 62
     0
 51
90.0
 52
90.0
 71
     2
 49
0.5
 62
   256
  6
BYLAYER
 49
-0.5
 62
   256
  6
BYLAYER
  0
ACDBPLACEHOLDER
  5
616
102
{ACAD_REACTORS
330
615
102
}
330
615
  0
SCALE
  5
1DD7BE
102
{ACAD_REACTORS
330
A36
102
}
330
A36
100
AcDbScale
 70
     0
300
1:1_XREF_XREF
140
1.0
141
1.0
290
     0
  0
SCALE
  5
A37
102
{ACAD_REACTORS
330
A36
102
}
330
A36
100
AcDbScale
 70
     0
300
1:1
140
1.0
141
1.0
290
     1
  0
SCALE
  5
A38
102
{ACAD_REACTORS
330
A36
102
}
330
A36
100
AcDbScale
 70
     0
300
1:2
140
1.0
141
2.0
290
     0
  0
SCALE
  5
A39
102
{ACAD_REACTORS
330
A36
102
}
330
A36
100
AcDbScale
 70
     0
300
1:4
140
1.0
141
4.0
290
     0
  0
SCALE
  5
A3A
102
{ACAD_REACTORS
330
A36
102
}
330
A36
100
AcDbScale
 70
     0
300
1:5
140
1.0
141
5.0
290
     0
  0
SCALE
  5
A3B
102
{ACAD_REACTORS
330
A36
102
}
330
A36
100
AcDbScale
 70
     0
300
1:8
140
1.0
141
8.0
290
     0
  0
SCALE
  5
A3C
102
{ACAD_REACTORS
330
A36
102
}
330
A36
100
AcDbScale
 70
     0
300
1:10
140
1.0
141
10.0
290
     0
  0
SCALE
  5
A3D
102
{ACAD_REACTORS
330
A36
102
}
330
A36
100
AcDbScale
 70
     0
300
1:16
140
1.0
141
16.0
290
     0
  0
SCALE
  5
A3E
102
{ACAD_REACTORS
330
A36
102
}
330
A36
100
AcDbScale
 70
     0
300
1:20
140
1.0
141
20.0
290
     0
  0
SCALE
  5
A3F
102
{ACAD_REACTORS
330
A36
102
}
330
A36
100
AcDbScale
 70
     0
300
1:30
140
1.0
141
30.0
290
     0
  0
SCALE
  5
A40
102
{ACAD_REACTORS
330
A36
102
}
330
A36
100
AcDbScale
 70
     0
300
1:40
140
1.0
141
40.0
290
     0
  0
SCALE
  5
A41
102
{ACAD_REACTORS
330
A36
102
}
330
A36
100
AcDbScale
 70
     0
300
1:50
140
1.0
141
50.0
290
     0
  0
SCALE
  5
A42
102
{ACAD_REACTORS
330
A36
102
}
330
A36
100
AcDbScale
 70
     0
300
1:100
140
1.0
141
100.0
290
     0
  0
SCALE
  5
A43
102
{ACAD_REACTORS
330
A36
102
}
330
A36
100
AcDbScale
 70
     0
300
2:1
140
2.0
141
1.0
290
     0
  0
SCALE
  5
A44
102
{ACAD_REACTORS
330
A36
102
}
330
A36
100
AcDbScale
 70
     0
300
4:1
140
4.0
141
1.0
290
     0
  0
SCALE
  5
A45
102
{ACAD_REACTORS
330
A36
102
}
330
A36
100
AcDbScale
 70
     0
300
8:1
140
8.0
141
1.0
290
     0
  0
SCALE
  5
A46
102
{ACAD_REACTORS
330
A36
102
}
330
A36
100
AcDbScale
 70
     0
300
10:1
140
10.0
141
1.0
290
     0
  0
SCALE
  5
A47
102
{ACAD_REACTORS
330
A36
102
}
330
A36
100
AcDbScale
 70
     0
300
100:1
140
100.0
141
1.0
290
     0
  0
SCALE
  5
A48
102
{ACAD_REACTORS
330
A36
102
}
330
A36
100
AcDbScale
 70
     0
300
1/128" = 1'-0"
140
0.0078125
141
12.0
290
     0
  0
SCALE
  5
A49
102
{ACAD_REACTORS
330
A36
102
}
330
A36
100
AcDbScale
 70
     0
300
1/64" = 1'-0"
140
0.015625
141
12.0
290
     0
  0
SCALE
  5
A4A
102
{ACAD_REACTORS
330
A36
102
}
330
A36
100
AcDbScale
 70
     0
300
1/32" = 1'-0"
140
0.03125
141
12.0
290
     0
  0
SCALE
  5
A4B
102
{ACAD_REACTORS
330
A36
102
}
330
A36
100
AcDbScale
 70
     0
300
1/16" = 1'-0"
140
0.0625
141
12.0
290
     0
  0
SCALE
  5
A4C
102
{ACAD_REACTORS
330
A36
102
}
330
A36
100
AcDbScale
 70
     0
300
3/32" = 1'-0"
140
0.09375
141
12.0
290
     0
  0
SCALE
  5
A4D
102
{ACAD_REACTORS
330
A36
102
}
330
A36
100
AcDbScale
 70
     0
300
1/8" = 1'-0"
140
0.125
141
12.0
290
     0
  0
SCALE
  5
A4E
102
{ACAD_REACTORS
330
A36
102
}
330
A36
100
AcDbScale
 70
     0
300
3/16" = 1'-0"
140
0.1875
141
12.0
290
     0
  0
SCALE
  5
A4F
102
{ACAD_REACTORS
330
A36
102
}
330
A36
100
AcDbScale
 70
     0
300
1/4" = 1'-0"
140
0.25
141
12.0
290
     0
  0
SCALE
  5
A50
102
{ACAD_REACTORS
330
A36
102
}
330
A36
100
AcDbScale
 70
     0
300
3/8" = 1'-0"
140
0.375
141
12.0
290
     0
  0
SCALE
  5
A51
102
{ACAD_REACTORS
330
A36
102
}
330
A36
100
AcDbScale
 70
     0
300
1/2" = 1'-0"
140
0.5
141
12.0
290
     0
  0
SCALE
  5
A52
102
{ACAD_REACTORS
330
A36
102
}
330
A36
100
AcDbScale
 70
     0
300
3/4" = 1'-0"
140
0.75
141
12.0
290
     0
  0
SCALE
  5
A53
102
{ACAD_REACTORS
330
A36
102
}
330
A36
100
AcDbScale
 70
     0
300
1" = 1'-0"
140
1.0
141
12.0
290
     0
  0
SCALE
  5
A54
102
{ACAD_REACTORS
330
A36
102
}
330
A36
100
AcDbScale
 70
     0
300
1-1/2" = 1'-0"
140
1.5
141
12.0
290
     0
  0
SCALE
  5
A55
102
{ACAD_REACTORS
330
A36
102
}
330
A36
100
AcDbScale
 70
     0
300
3" = 1'-0"
140
3.0
141
12.0
290
     0
  0
SCALE
  5
A56
102
{ACAD_REACTORS
330
A36
102
}
330
A36
100
AcDbScale
 70
     0
300
6" = 1'-0"
140
6.0
141
12.0
290
     0
  0
SCALE
  5
A57
102
{ACAD_REACTORS
330
A36
102
}
330
A36
100
AcDbScale
 70
     0
300
1'-0" = 1'-0"
140
12.0
141
12.0
290
     0
  0
DICTIONARYVAR
  5
6DF
102
{ACAD_REACTORS
330
6DE
102
}
330
6DE
100
DictionaryVariables
280
     0
  1
1
  0
DICTIONARYVAR
  5
A93
102
{ACAD_REACTORS
330
6DE
102
}
330
6DE
100
DictionaryVariables
280
     0
  1
0
  0
DICTIONARYVAR
  5
6E0
102
{ACAD_REACTORS
330
6DE
102
}
330
6DE
100
DictionaryVariables
280
     0
  1

  0
DICTIONARYVAR
  5
A92
102
{ACAD_REACTORS
330
6DE
102
}
330
6DE
100
DictionaryVariables
280
     0
  1
127
  0
ACAD_PROXY_OBJECT
  5
14A3BC
102
{ACAD_REACTORS
330
14A3BB
102
}
330
14A3BB
100
AcDbProxyObject
 90
      499
 91
      516
 95
   524319
 70
     0
 93
     1888
310
51B4D146518005194651A8FC812095550000000000000B08000000000000008200000000000001807E8F2048F205000200001204000000000000581F8000000000000B0807EC3FA6DEBC0E99F8000000000001C07FE8FCC028FE07000041A4E2520CA600E2005C008C00E8005C008321803A80170023003A00170020898006
310
20064006001202DA008C2080248020801000140019001A801B00100021803780360037803900148010001000100010002080220019001A801B0021082008600820088008200A4008600900087A08032803180260030803C803280390029803A003200170032003B80338049C09
330
0
 94
        0
  0
ENDSEC
  0
EOF
