  0
SECTION
  2
HEADER
  9
$ACADVER
  1
AC1015
  9
$ACADMAINTVER
 70
     6
  9
$DWGCODEPAGE
  3
ANSI_932
  9
$INSBASE
 10
0.0
 20
0.0
 30
0.0
  9
$EXTMIN
 10
182.1785287805
 20
62.71440332326281
 30
0.0
  9
$EXTMAX
 10
273.7785296388
 20
241.8314636916202
 30
0.0
  9
$LIMMIN
 10
0.0
 20
0.0
  9
$LIMMAX
 10
431.8
 20
279.4
  9
$ORTHOMODE
 70
     0
  9
$REGENMODE
 70
     1
  9
$FILLMODE
 70
     1
  9
$QTEXTMODE
 70
     0
  9
$MIRRTEXT
 70
     1
  9
$LTSCALE
 40
1.0
  9
$ATTMODE
 70
     1
  9
$TEXTSIZE
 40
4.0
  9
$TRACEWID
 40
1.0
  9
$TEXTSTYLE
  7
Standard
  9
$CLAYER
  8
0
  9
$CELTYPE
  6
ByLayer
  9
$CECOLOR
 62
   256
  9
$CELTSCALE
 40
1.0
  9
$DISPSILH
 70
     0
  9
$DIMSCALE
 40
1.0
  9
$DIMASZ
 40
2.5
  9
$DIMEXO
 40
1.5
  9
$DIMDLI
 40
3.75
  9
$DIMRND
 40
0.0
  9
$DIMDLE
 40
0.0
  9
$DIMEXE
 40
1.0
  9
$DIMTP
 40
0.0
  9
$DIMTM
 40
0.0
  9
$DIMTXT
 40
4.0
  9
$DIMCEN
 40
2.5
  9
$DIMTSZ
 40
0.0
  9
$DIMTOL
 70
     0
  9
$DIMLIM
 70
     0
  9
$DIMTIH
 70
     1
  9
$DIMTOH
 70
     1
  9
$DIMSE1
 70
     0
  9
$DIMSE2
 70
     0
  9
$DIMTAD
 70
     1
  9
$DIMZIN
 70
     0
  9
$DIMBLK
  1

  9
$DIMASO
 70
     1
  9
$DIMSHO
 70
     1
  9
$DIMPOST
  1

  9
$DIMAPOST
  1

  9
$DIMALT
 70
     0
  9
$DIMALTD
 70
     3
  9
$DIMALTF
 40
0.0393700787
  9
$DIMLFAC
 40
1.0
  9
$DIMTOFL
 70
     1
  9
$DIMTVP
 40
0.0
  9
$DIMTIX
 70
     0
  9
$DIMSOXD
 70
     0
  9
$DIMSAH
 70
     0
  9
$DIMBLK1
  1

  9
$DIMBLK2
  1

  9
$DIMSTYLE
  2
ISO-25
  9
$DIMCLRD
 70
     0
  9
$DIMCLRE
 70
     0
  9
$DIMCLRT
 70
     0
  9
$DIMTFAC
 40
1.0
  9
$DIMGAP
 40
1.524
  9
$DIMJUST
 70
     0
  9
$DIMSD1
 70
     0
  9
$DIMSD2
 70
     0
  9
$DIMTOLJ
 70
     0
  9
$DIMTZIN
 70
     0
  9
$DIMALTZ
 70
     0
  9
$DIMALTTZ
 70
     0
  9
$DIMUPT
 70
     0
  9
$DIMDEC
 70
     2
  9
$DIMTDEC
 70
     2
  9
$DIMALTU
 70
     2
  9
$DIMALTTD
 70
     3
  9
$DIMTXSTY
  7
Standard
  9
$DIMAUNIT
 70
     0
  9
$DIMADEC
 70
     2
  9
$DIMALTRND
 40
0.0
  9
$DIMAZIN
 70
     0
  9
$DIMDSEP
 70
    44
  9
$DIMATFIT
 70
     3
  9
$DIMFRAC
 70
     0
  9
$DIMLDRBLK
  1

  9
$DIMLUNIT
 70
     2
  9
$DIMLWD
 70
    -2
  9
$DIMLWE
 70
    -2
  9
$DIMTMOVE
 70
     0
  9
$LUNITS
 70
     2
  9
$LUPREC
 70
     2
  9
$SKETCHINC
 40
1.0
  9
$FILLETRAD
 40
10.0
  9
$AUNITS
 70
     0
  9
$AUPREC
 70
     2
  9
$MENU
  1
.
  9
$ELEVATION
 40
0.0
  9
$PELEVATION
 40
0.0
  9
$THICKNESS
 40
0.0
  9
$LIMCHECK
 70
     0
  9
$CHAMFERA
 40
0.0
  9
$CHAMFERB
 40
0.0
  9
$CHAMFERC
 40
0.0
  9
$CHAMFERD
 40
0.0
  9
$SKPOLY
 70
     0
  9
$TDCREATE
 40
2457385.81661625
  9
$TDUCREATE
 40
2457385.44161625
  9
$TDUPDATE
 40
2458075.409937662
  9
$TDUUPDATE
 40
2458075.034937662
  9
$TDINDWG
 40
0.0024917593
  9
$TDUSRTIMER
 40
2458075.033797014
  9
$USRTIMER
 70
     1
  9
$ANGBASE
 50
0.0
  9
$ANGDIR
 70
     0
  9
$PDMODE
 70
     0
  9
$PDSIZE
 40
-1.0
  9
$PLINEWID
 40
0.0
  9
$SPLFRAME
 70
     0
  9
$SPLINETYPE
 70
     6
  9
$SPLINESEGS
 70
     8
  9
$HANDSEED
  5
1E7
  9
$SURFTAB1
 70
     6
  9
$SURFTAB2
 70
     6
  9
$SURFTYPE
 70
     6
  9
$SURFU
 70
     6
  9
$SURFV
 70
     6
  9
$UCSBASE
  2

  9
$UCSNAME
  2

  9
$UCSORG
 10
0.0
 20
0.0
 30
0.0
  9
$UCSXDIR
 10
1.0
 20
0.0
 30
0.0
  9
$UCSYDIR
 10
0.0
 20
1.0
 30
0.0
  9
$UCSORTHOREF
  2

  9
$UCSORTHOVIEW
 70
     0
  9
$UCSORGTOP
 10
0.0
 20
0.0
 30
0.0
  9
$UCSORGBOTTOM
 10
0.0
 20
0.0
 30
0.0
  9
$UCSORGLEFT
 10
0.0
 20
0.0
 30
0.0
  9
$UCSORGRIGHT
 10
0.0
 20
0.0
 30
0.0
  9
$UCSORGFRONT
 10
0.0
 20
0.0
 30
0.0
  9
$UCSORGBACK
 10
0.0
 20
0.0
 30
0.0
  9
$PUCSBASE
  2

  9
$PUCSNAME
  2

  9
$PUCSORG
 10
0.0
 20
0.0
 30
0.0
  9
$PUCSXDIR
 10
1.0
 20
0.0
 30
0.0
  9
$PUCSYDIR
 10
0.0
 20
1.0
 30
0.0
  9
$PUCSORTHOREF
  2

  9
$PUCSORTHOVIEW
 70
     0
  9
$PUCSORGTOP
 10
0.0
 20
0.0
 30
0.0
  9
$PUCSORGBOTTOM
 10
0.0
 20
0.0
 30
0.0
  9
$PUCSORGLEFT
 10
0.0
 20
0.0
 30
0.0
  9
$PUCSORGRIGHT
 10
0.0
 20
0.0
 30
0.0
  9
$PUCSORGFRONT
 10
0.0
 20
0.0
 30
0.0
  9
$PUCSORGBACK
 10
0.0
 20
0.0
 30
0.0
  9
$USERI1
 70
     0
  9
$USERI2
 70
     0
  9
$USERI3
 70
     0
  9
$USERI4
 70
     0
  9
$USERI5
 70
     0
  9
$USERR1
 40
0.0
  9
$USERR2
 40
0.0
  9
$USERR3
 40
0.0
  9
$USERR4
 40
0.0
  9
$USERR5
 40
0.0
  9
$WORLDVIEW
 70
     1
  9
$SHADEDGE
 70
     3
  9
$SHADEDIF
 70
    70
  9
$TILEMODE
 70
     1
  9
$MAXACTVP
 70
    64
  9
$PINSBASE
 10
0.0
 20
0.0
 30
0.0
  9
$PLIMCHECK
 70
     0
  9
$PEXTMIN
 10
1.000000000000000E+20
 20
1.000000000000000E+20
 30
1.000000000000000E+20
  9
$PEXTMAX
 10
-1.000000000000000E+20
 20
-1.000000000000000E+20
 30
-1.000000000000000E+20
  9
$PLIMMIN
 10
0.0
 20
0.0
  9
$PLIMMAX
 10
0.0
 20
0.0
  9
$UNITMODE
 70
     0
  9
$VISRETAIN
 70
     1
  9
$PLINEGEN
 70
     0
  9
$PSLTSCALE
 70
     1
  9
$TREEDEPTH
 70
  3020
  9
$CMLSTYLE
  2
Standard
  9
$CMLJUST
 70
     0
  9
$CMLSCALE
 40
20.0
  9
$PROXYGRAPHICS
 70
     1
  9
$MEASUREMENT
 70
     1
  9
$CELWEIGHT
370
    -1
  9
$ENDCAPS
280
     0
  9
$JOINSTYLE
280
     0
  9
$LWDISPLAY
290
     1
  9
$INSUNITS
 70
     4
  9
$HYPERLINKBASE
  1

  9
$STYLESHEET
  1

  9
$XEDIT
290
     1
  9
$CEPSNTYPE
380
     0
  9
$PSTYLEMODE
290
     1
  9
$FINGERPRINTGUID
  2
{20297B24-8DF9-43EF-8414-680975F23F0C}
  9
$VERSIONGUID
  2
{FAEB1C32-E019-11D5-929B-00C0DF256EC4}
  9
$EXTNAMES
290
     1
  9
$PSVPSCALE
 40
0.0
  9
$OLESTARTUP
290
     0
  0
ENDSEC
  0
SECTION
  2
CLASSES
  0
CLASS
  1
ACDBDICTIONARYWDFLT
  2
AcDbDictionaryWithDefault
  3
ObjectDBX Classes
 90
        0
280
     0
281
     0
  0
CLASS
  1
VISUALSTYLE
  2
AcDbVisualStyle
  3
ObjectDBX Classes
 90
     4095
280
     0
281
     0
  0
CLASS
  1
MATERIAL
  2
AcDbMaterial
  3
ObjectDBX Classes
 90
     1153
280
     0
281
     0
  0
CLASS
  1
SCALE
  2
AcDbScale
  3
ObjectDBX Classes
 90
     1153
280
     0
281
     0
  0
CLASS
  1
SUN
  2
AcDbSun
  3
SCENEOE
 90
     1153
280
     0
281
     0
  0
CLASS
  1
ACDBPLACEHOLDER
  2
AcDbPlaceHolder
  3
ObjectDBX Classes
 90
        0
280
     0
281
     0
  0
CLASS
  1
LAYOUT
  2
AcDbLayout
  3
ObjectDBX Classes
 90
        0
280
     0
281
     0
  0
CLASS
  1
TABLESTYLE
  2
AcDbTableStyle
  3
ObjectDBX Classes
 90
     4095
280
     0
281
     0
  0
CLASS
  1
RASTERVARIABLES
  2
AcDbRasterVariables
  3
ISM
 90
        0
280
     0
281
     0
  0
CLASS
  1
DICTIONARYVAR
  2
AcDbDictionaryVar
  3
ObjectDBX Classes
 90
        0
280
     0
281
     0
  0
CLASS
  1
MLEADERSTYLE
  2
AcDbMLeaderStyle
  3
ACDB_MLEADERSTYLE_CLASS
 90
     4095
280
     0
281
     0
  0
ENDSEC
  0
SECTION
  2
TABLES
  0
TABLE
  2
VPORT
  5
8
330
0
100
AcDbSymbolTable
 70
     1
  0
VPORT
  5
29
330
8
100
AcDbSymbolTableRecord
100
AcDbViewportTableRecord
  2
*Active
 70
     0
 10
0.0
 20
0.0
 11
1.0
 21
1.0
 12
227.97852920965
 22
152.2729335074415
 13
0.0
 23
0.0
 14
10.0
 24
10.0
 15
10.0
 25
10.0
 16
0.0
 26
0.0
 36
1.0
 17
0.0
 27
0.0
 37
0.0
 40
182.6994015757246
 41
2.262839879154078
 42
50.0
 43
0.0
 44
0.0
 50
0.0
 51
0.0
 71
    16
 72
  2000
 73
     1
 74
     3
 75
     0
 76
     0
 77
     0
 78
     0
281
     0
 65
     1
110
0.0
120
0.0
130
0.0
111
1.0
121
0.0
131
0.0
112
0.0
122
1.0
132
0.0
 79
     0
146
0.0
  0
ENDTAB
  0
TABLE
  2
LTYPE
  5
5
330
0
100
AcDbSymbolTable
 70
     1
  0
LTYPE
  5
14
330
5
100
AcDbSymbolTableRecord
100
AcDbLinetypeTableRecord
  2
ByBlock
 70
     0
  3

 72
    65
 73
     0
 40
0.0
  0
LTYPE
  5
15
330
5
100
AcDbSymbolTableRecord
100
AcDbLinetypeTableRecord
  2
ByLayer
 70
     0
  3

 72
    65
 73
     0
 40
0.0
  0
LTYPE
  5
16
330
5
100
AcDbSymbolTableRecord
100
AcDbLinetypeTableRecord
  2
Continuous
 70
     0
  3
Solid line
 72
    65
 73
     0
 40
0.0
  0
ENDTAB
  0
TABLE
  2
LAYER
  5
2
330
0
100
AcDbSymbolTable
 70
     2
  0
LAYER
  5
10
330
2
100
AcDbSymbolTableRecord
100
AcDbLayerTableRecord
  2
0
 70
     0
 62
     7
  6
Continuous
370
    -3
390
F
  0
LAYER
  5
72
330
2
100
AcDbSymbolTableRecord
100
AcDbLayerTableRecord
  2
寸法線
 70
     0
 62
     7
  6
Continuous
370
    -3
390
F
  0
ENDTAB
  0
TABLE
  2
STYLE
  5
3
330
0
100
AcDbSymbolTable
 70
     2
  0
STYLE
  5
11
330
3
100
AcDbSymbolTableRecord
100
AcDbTextStyleTableRecord
  2
Standard
 70
     0
 40
0.0
 41
1.0
 50
0.0
 71
     0
 42
4.0
  3
txt
  4
bigfont
  0
STYLE
  5
174
330
3
100
AcDbSymbolTableRecord
100
AcDbTextStyleTableRecord
  2
SLDTEXTSTYLE0
 70
     0
 40
0.0
 41
0.7
 50
0.0
 71
     0
 42
4.0
  3
TXT
  4
bigfont
  0
ENDTAB
  0
TABLE
  2
VIEW
  5
6
330
0
100
AcDbSymbolTable
 70
     0
  0
ENDTAB
  0
TABLE
  2
UCS
  5
7
330
0
100
AcDbSymbolTable
 70
     0
  0
ENDTAB
  0
TABLE
  2
APPID
  5
9
330
0
100
AcDbSymbolTable
 70
     1
  0
APPID
  5
12
330
9
100
AcDbSymbolTableRecord
100
AcDbRegAppTableRecord
  2
ACAD
 70
     0
  0
ENDTAB
  0
TABLE
  2
DIMSTYLE
  5
A
330
0
100
AcDbSymbolTable
 70
     1
100
AcDbDimStyleTable
  0
DIMSTYLE
105
27
330
A
100
AcDbSymbolTableRecord
100
AcDbDimStyleTableRecord
  2
ISO-25
 70
     0
 41
2.5
 42
0.625
 43
3.75
 44
1.25
 73
     0
 74
     0
 77
     1
 78
     8
140
2.5
141
2.5
143
0.0393700787
147
0.625
171
     3
172
     1
178
     0
271
     2
272
     2
274
     3
278
    44
283
     0
284
     8
340
11
  0
ENDTAB
  0
TABLE
  2
BLOCK_RECORD
  5
1
330
0
100
AcDbSymbolTable
 70
     1
  0
BLOCK_RECORD
  5
1F
330
1
100
AcDbSymbolTableRecord
100
AcDbBlockTableRecord
  2
*Model_Space
340
22
  0
BLOCK_RECORD
  5
1B
330
1
100
AcDbSymbolTableRecord
100
AcDbBlockTableRecord
  2
*Paper_Space
340
1E
  0
BLOCK_RECORD
  5
23
330
1
100
AcDbSymbolTableRecord
100
AcDbBlockTableRecord
  2
*Paper_Space0
340
26
  0
ENDTAB
  0
ENDSEC
  0
SECTION
  2
BLOCKS
  0
BLOCK
  5
20
330
1F
100
AcDbEntity
  8
0
100
AcDbBlockBegin
  2
*Model_Space
 70
     0
 10
0.0
 20
0.0
 30
0.0
  3
*Model_Space
  1
*Model_Space
  0
ENDBLK
  5
21
330
1F
100
AcDbEntity
  8
0
100
AcDbBlockEnd
  0
BLOCK
  5
1C
330
1B
100
AcDbEntity
 67
     1
  8
0
100
AcDbBlockBegin
  2
*Paper_Space
 70
     0
 10
0.0
 20
0.0
 30
0.0
  3
*Paper_Space
  1
*Paper_Space
  0
ENDBLK
  5
1D
330
1B
100
AcDbEntity
 67
     1
  8
0
100
AcDbBlockEnd
  0
BLOCK
  5
24
330
23
100
AcDbEntity
  8
0
100
AcDbBlockBegin
  2
*Paper_Space0
 70
     0
 10
0.0
 20
0.0
 30
0.0
  3
*Paper_Space0
  1
*Paper_Space0
  0
ENDBLK
  5
25
330
23
100
AcDbEntity
  8
0
100
AcDbBlockEnd
  0
ENDSEC
  0
SECTION
  2
ENTITIES
  0
LINE
  5
79
330
1F
100
AcDbEntity
  8
0
  6
Continuous
370
    15
100
AcDbLine
 10
182.1785287805
 20
99.2461736496
 30
0.0
 11
182.1785287805
 21
97.7972675805
 31
0.0
  0
SPLINE
  5
7A
330
1F
100
AcDbEntity
  8
0
  6
Continuous
370
    15
100
AcDbSpline
210
0.0
220
0.0
230
1.0
 70
     8
 71
     3
 72
    16
 73
    12
 74
     0
 42
0.000000001
 43
0.00000001
 40
0.0
 40
0.0
 40
0.0
 40
0.0
 40
0.0661238816552523
 40
0.2042523673210719
 40
0.3363126489342461
 40
0.4624208768135242
 40
0.5830070646832933
 40
0.6982200003620616
 40
0.8082998762341521
 40
0.9135543603054156
 40
1.0
 40
1.0
 40
1.0
 40
1.0
 10
269.1247666127763
 20
104.7101487204997
 30
0.0
 10
268.7667886740517
 20
105.3447062755458
 30
0.0
 10
267.6610181172894
 20
107.304813268287
 30
0.0
 10
265.7508143447375
 20
110.4802925727306
 30
0.0
 10
263.4316371899451
 20
114.1797613250053
 30
0.0
 10
261.1276440912213
 20
117.6584360049298
 30
0.0
 10
258.8451620170769
 20
120.9260930076308
 30
0.0
 10
256.5839323797658
 20
123.99035072554
 30
0.0
 10
254.3427173222634
 20
126.8547531490239
 30
0.0
 10
252.2316702069655
 20
129.4161109926809
 30
0.0
 10
250.8309269938484
 20
130.9876377438913
 30
0.0
 10
250.1992730296931
 20
131.6963051804939
 30
0.0
  0
SPLINE
  5
7B
330
1F
100
AcDbEntity
  8
0
  6
Continuous
370
    15
100
AcDbSpline
210
0.0
220
0.0
230
1.0
 70
     8
 71
     3
 72
    17
 73
    13
 74
     0
 42
0.000000001
 43
0.00000001
 40
0.0
 40
0.0
 40
0.0
 40
0.0
 40
0.0240443011003766
 40
0.1220015997511445
 40
0.2235415406993651
 40
0.3300015147610436
 40
0.4411819754980774
 40
0.5573948760564285
 40
0.6789154390149782
 40
0.805986309855167
 40
0.9387250988937603
 40
1.0
 40
1.0
 40
1.0
 40
1.0
 10
205.7661337651095
 20
131.7021427009506
 30
0.0
 10
205.5850757444227
 20
131.5049109933941
 30
0.0
 10
204.6663812030697
 20
130.5041506159935
 30
0.0
 10
203.052167358138
 20
128.6023668775308
 30
0.0
 10
200.8952563060855
 20
125.9559137686542
 30
0.0
 10
198.7255577145635
 20
123.1272546730337
 30
0.0
 10
196.5314433281542
 20
120.1105453712109
 30
0.0
 10
194.3180378067135
 20
116.8998139755996
 30
0.0
 10
192.0831562642345
 20
113.4885280463094
 30
0.0
 10
189.8334409538149
 20
109.8669656024558
 30
0.0
 10
187.9926970151862
 20
106.7847007985176
 30
0.0
 10
186.931249740352
 20
104.8929468275978
 30
0.0
 10
186.5960152692876
 20
104.295478487096
 30
0.0
  0
LINE
  5
7C
330
1F
100
AcDbEntity
  8
0
  6
Continuous
370
    15
100
AcDbLine
 10
269.4863097615
 20
104.3779221747
 30
0.0
 11
269.3499455102
 21
104.4813532001
 31
0.0
  0
LINE
  5
7D
330
1F
100
AcDbEntity
  8
0
  6
Continuous
370
    15
100
AcDbLine
 10
273.628173197
 20
98.7548980476
 30
0.0
 11
273.628173197
 21
99.2378619395
 31
0.0
  0
LINE
  5
7E
330
1F
100
AcDbEntity
  8
0
  6
Continuous
370
    15
100
AcDbLine
 10
272.7785276122
 20
97.7972675805
 30
0.0
 11
272.7785276122
 21
98.6989431533
 31
0.0
  0
LINE
  5
7F
330
1F
100
AcDbEntity
  8
0
  6
Continuous
370
    15
100
AcDbLine
 10
273.6661115534
 20
99.1084523958
 30
0.0
 11
273.6661115534
 21
100.074394573
 31
0.0
  0
LINE
  5
80
330
1F
100
AcDbEntity
  8
0
  6
Continuous
370
    15
100
AcDbLine
 10
271.8755992003
 20
103.1402991474
 30
0.0
 11
270.7613164432
 21
103.6586042669
 31
0.0
  0
LINE
  5
81
330
1F
100
AcDbEntity
  8
0
  6
Continuous
370
    15
100
AcDbLine
 10
273.5819013662
 20
102.9735031212
 30
0.0
 11
272.8338481731
 21
102.9861153524
 31
0.0
  0
ARC
  5
82
330
1F
100
AcDbEntity
  8
0
  6
Continuous
370
    15
100
AcDbCircle
 10
273.5785292096
 20
102.7735326769
 30
0.0
 40
0.2000000000000455
100
AcDbArc
 50
0.0
 51
89.0340676039
  0
LINE
  5
83
330
1F
100
AcDbEntity
  8
0
  6
Continuous
370
    15
100
AcDbLine
 10
273.3689973004
 20
100.8278378396
 30
0.0
 11
273.5819013662
 21
100.831428997
 31
0.0
  0
ARC
  5
84
330
1F
100
AcDbEntity
  8
0
  6
Continuous
370
    15
100
AcDbCircle
 10
273.5785292096
 20
101.0313994866
 30
0.0
 40
0.2000000000000455
100
AcDbArc
 50
270.9659323961
 51
0.0
  0
LINE
  5
85
330
1F
100
AcDbEntity
  8
0
  6
Continuous
370
    15
100
AcDbLine
 10
273.6661115534
 20
97.452010549
 30
0.0
 11
273.6661115534
 21
98.4179527262
 31
0.0
  0
LINE
  5
86
330
1F
100
AcDbEntity
  8
0
  6
Continuous
370
    15
100
AcDbLine
 10
273.628173197
 20
96.8396371133
 30
0.0
 11
273.628173197
 21
97.3226010052
 31
0.0
  0
LWPOLYLINE
  5
87
330
1F
100
AcDbEntity
  8
0
  6
Continuous
370
    15
100
AcDbPolyline
 90
        3
 70
   128
 43
0.0
 10
194.0361799545
 20
129.7030951375
 10
194.3547593303
 20
129.2876531547
 10
195.1400691516
 20
128.2635652447
  0
LWPOLYLINE
  5
88
330
1F
100
AcDbEntity
  8
0
  6
Continuous
370
    15
100
AcDbPolyline
 90
        3
 70
   128
 43
0.0
 10
260.8165459581
 20
128.2629971709
 10
261.6017365701
 20
129.2869334943
 10
261.9242722042
 20
129.7075410692
  0
SPLINE
  5
89
330
1F
100
AcDbEntity
  8
0
  6
Continuous
370
    15
100
AcDbSpline
210
0.0
220
0.0
230
1.0
 70
     8
 71
     3
 72
    15
 73
    11
 74
     0
 42
0.000000001
 43
0.00000001
 40
0.0
 40
0.0
 40
0.0
 40
0.0
 40
0.1394462853432932
 40
0.2870570309240565
 40
0.436993005524225
 40
0.5918155795581702
 40
0.7649282432623447
 40
0.8799033708782564
 40
0.98165905202949
 40
1.0
 40
1.0
 40
1.0
 40
1.0
 10
257.9527756072364
 20
127.4407346058072
 30
0.0
 10
258.1188783250611
 20
127.4435013267057
 30
0.0
 10
258.4608089321748
 20
127.4491967576351
 30
0.0
 10
258.9614608928288
 20
127.4950184619753
 30
0.0
 10
259.4409915040431
 20
127.5693424381206
 30
0.0
 10
259.8942711014714
 20
127.6820092993563
 30
0.0
 10
260.2643286239388
 20
127.8214942490775
 30
0.0
 10
260.5599556492044
 20
128.0096783257978
 30
0.0
 10
260.7362916230199
 20
128.1497043045482
 30
0.0
 10
260.8034411519064
 20
128.2529853571257
 30
0.0
 10
260.8136961109719
 20
128.268758259542
 30
0.0
  0
SPLINE
  5
8A
330
1F
100
AcDbEntity
  8
0
  6
Continuous
370
    15
100
AcDbSpline
210
0.0
220
0.0
230
1.0
 70
     8
 71
     3
 72
    15
 73
    11
 74
     0
 42
0.000000001
 43
0.00000001
 40
0.0
 40
0.0
 40
0.0
 40
0.0
 40
0.0752204481060601
 40
0.1730241340779859
 40
0.2884313220813968
 40
0.4380130998756237
 40
0.5886109944960075
 40
0.7442283473267782
 40
0.8923340221078937
 40
1.0
 40
1.0
 40
1.0
 40
1.0
 10
195.134201819428
 20
128.2789869116041
 30
0.0
 10
195.1824046370526
 20
128.2202952421037
 30
0.0
 10
195.2932820778234
 20
128.0852910570903
 30
0.0
 10
195.5112670842743
 20
127.9299120314287
 30
0.0
 10
195.7970368934081
 20
127.7792608656197
 30
0.0
 10
196.1557065923475
 20
127.6555706486385
 30
0.0
 10
196.5988153403627
 20
127.553517789374
 30
0.0
 10
197.0909607136288
 20
127.4840068602465
 30
0.0
 10
197.5697128930272
 20
127.4458987641748
 30
0.0
 10
197.8757763876087
 20
127.4429904644279
 30
0.0
 10
198.0046125001988
 20
127.4417662281493
 30
0.0
  0
LINE
  5
8B
330
1F
100
AcDbEntity
  8
0
  6
Continuous
370
    15
100
AcDbLine
 10
253.85018977
 20
127.4265247191
 30
0.0
 11
257.9523192592
 21
127.4398172121
 31
0.0
  0
LINE
  5
8C
330
1F
100
AcDbEntity
  8
0
  6
Continuous
370
    15
100
AcDbLine
 10
198.0047391601
 20
127.4398190802
 30
0.0
 11
202.1115122236
 21
127.4265246588
 31
0.0
  0
SPLINE
  5
8D
330
1F
100
AcDbEntity
  8
0
  6
Continuous
370
    15
100
AcDbSpline
210
0.0
220
0.0
230
1.0
 70
     8
 71
     3
 72
    22
 73
    18
 74
     0
 42
0.000000001
 43
0.00000001
 40
0.0
 40
0.0
 40
0.0
 40
0.0
 40
0.0224464747158199
 40
0.0851049403712521
 40
0.1479380106861709
 40
0.2120049763650479
 40
0.2781592818162138
 40
0.346763717994425
 40
0.4175968559439397
 40
0.4899958271712676
 40
0.5631992879571975
 40
0.6366174082954242
 40
0.7098770848422059
 40
0.7828832625892191
 40
0.8556215679682839
 40
0.9281119004723687
 40
1.0
 40
1.0
 40
1.0
 40
1.0
 10
183.9905323333821
 20
124.117235786783
 30
0.0
 10
183.9864770419322
 20
124.0428236130073
 30
0.0
 10
183.9711015613097
 20
123.7606927353414
 30
0.0
 10
184.0487040359509
 20
123.2711963391845
 30
0.0
 10
184.2199665386847
 20
122.659199158382
 30
0.0
 10
184.4941121481773
 20
122.0581183142848
 30
0.0
 10
184.8641273983312
 20
121.4651878281027
 30
0.0
 10
185.3360707710194
 20
120.8787433333486
 30
0.0
 10
185.9118251287667
 20
120.2997269494616
 30
0.0
 10
186.5911660368958
 20
119.7310471174395
 30
0.0
 10
187.3704924883463
 20
119.1762150572551
 30
0.0
 10
188.2445221925608
 20
118.6380354406147
 30
0.0
 10
189.2083440476147
 20
118.1180453741833
 30
0.0
 10
190.2573824370728
 20
117.6166721502628
 30
0.0
 10
191.3906544071481
 20
117.1343351537775
 30
0.0
 10
192.596117917448
 20
116.6702281707663
 30
0.0
 10
193.4657809545775
 20
116.3764394619093
 30
0.0
 10
193.8987986989102
 20
116.2301578349018
 30
0.0
  0
SPLINE
  5
8E
330
1F
100
AcDbEntity
  8
0
  6
Continuous
370
    15
100
AcDbSpline
210
0.0
220
0.0
230
1.0
 70
     8
 71
     3
 72
    22
 73
    18
 74
     0
 42
0.000000001
 43
0.00000001
 40
0.0
 40
0.0
 40
0.0
 40
0.0
 40
0.0610473407709236
 40
0.1336105433544021
 40
0.2063653117824824
 40
0.2793460125521154
 40
0.3525874870131778
 40
0.4261164020224006
 40
0.4999315107798751
 40
0.5739622048897858
 40
0.6478985378904727
 40
0.7211437190100497
 40
0.7928511888690825
 40
0.8621892942338959
 40
0.9288423305680209
 40
0.9932551534534582
 40
1.0
 40
1.0
 40
1.0
 40
1.0
 10
262.0523141570172
 20
116.2309641073556
 30
0.0
 10
262.4208996571163
 20
116.353775332306
 30
0.0
 10
263.2275999706579
 20
116.6225646733064
 30
0.0
 10
264.3771819823174
 20
117.0589346291373
 30
0.0
 10
265.5184011720584
 20
117.5357299732406
 30
0.0
 10
266.5756280967298
 20
118.0313143962473
 30
0.0
 10
267.5495745382583
 20
118.5454350723461
 30
0.0
 10
268.4374514759822
 20
119.0789800593675
 30
0.0
 10
269.2370753225931
 20
119.6329965982444
 30
0.0
 10
269.9450534850434
 20
120.208574042156
 30
0.0
 10
270.5565219148187
 20
120.8060249375476
 30
0.0
 10
271.0657217428543
 20
121.4239078808373
 30
0.0
 10
271.465472579745
 20
122.0581712341997
 30
0.0
 10
271.7558492386741
 20
122.7022319244311
 30
0.0
 10
271.9222373237052
 20
123.3475654123458
 30
0.0
 10
271.9909523812918
 20
123.8022007776137
 30
0.0
 10
271.9752116441104
 20
124.0364630336302
 30
0.0
 10
271.973719621428
 20
124.0586681308613
 30
0.0
  0
LINE
  5
8F
330
1F
100
AcDbEntity
  8
0
  6
Continuous
370
    15
100
AcDbLine
 10
183.978529448
 20
151.1163725756
 30
0.0
 11
183.978529448
 21
124.0704486047
 31
0.0
  0
LINE
  5
90
330
1F
100
AcDbEntity
  8
0
  6
Continuous
370
    15
100
AcDbLine
 10
271.9785289712
 20
124.0704486047
 30
0.0
 11
271.9785289712
 21
151.1163725756
 31
0.0
  0
SPLINE
  5
91
330
1F
100
AcDbEntity
  8
0
  6
Continuous
370
    15
100
AcDbSpline
210
0.0
220
0.0
230
1.0
 70
     8
 71
     3
 72
    74
 73
    70
 74
     0
 42
0.000000001
 43
0.00000001
 40
0.0
 40
0.0
 40
0.0
 40
0.0
 40
0.0067641191578015
 40
0.0202144319421965
 40
0.0337364084068357
 40
0.0475662048840889
 40
0.0618690254984845
 40
0.076698222126933
 40
0.0919831406254322
 40
0.1075709332178882
 40
0.1233025727625491
 40
0.1390587411087232
 40
0.1547747883004991
 40
0.1704348313096202
 40
0.1860378351160741
 40
0.2015888744569238
 40
0.2170948338172713
 40
0.2325625754397081
 40
0.2479982910128896
 40
0.2634072353228032
 40
0.278793861721843
 40
0.294161820681327
 40
0.3095141524492291
 40
0.3248534046983989
 40
0.3401816171836418
 40
0.3555005920627488
 40
0.3708117938948162
 40
0.386116469072733
 40
0.4014157338839278
 40
0.416710497931334
 40
0.4320016099868954
 40
0.4472898023650666
 40
0.4625757434468192
 40
0.4778600500340786
 40
0.4931433049466352
 40
0.5084260575240501
 40
0.5237088438338198
 40
0.538992032493978
 40
0.5542761667683167
 40
0.5695618153260393
 40
0.5848495649147802
 40
0.60014006136453
 40
0.6154339939677897
 40
0.630732148283507
 40
0.6460353855567376
 40
0.6613447195720994
 40
0.6766612710940166
 40
0.6919863923973861
 40
0.7073216546075022
 40
0.7226689275250902
 40
0.7380304552465564
 40
0.7534088837925742
 40
0.7688074810560925
 40
0.784230142455574
 40
0.7996815738091483
 40
0.8151674034517601
 40
0.8306941970873419
 40
0.8462692740141696
 40
0.8619000842364476
 40
0.8775922820034332
 40
0.8933454810340995
 40
0.9091443977283823
 40
0.9249220084098443
 40
0.9405504088922011
 40
0.9558485119214296
 40
0.9706394490781863
 40
0.9848575400879477
 40
0.9985994046736113
 40
1.0
 40
1.0
 40
1.0
 40
1.0
 10
271.9657847530923
 20
151.102803891907
 30
0.0
 10
271.9686093318149
 20
151.2073790020254
 30
0.0
 10
271.9770505276338
 20
151.5198995826097
 30
0.0
 10
271.8819375822808
 20
152.0378658052227
 30
0.0
 10
271.6903825176369
 20
152.6476940275143
 30
0.0
 10
271.3973962358379
 20
153.2469090712744
 30
0.0
 10
271.0074673656285
 20
153.8385078638213
 30
0.0
 10
270.5150483698617
 20
154.4236278436
 30
0.0
 10
269.9185961023359
 20
155.0008686805275
 30
0.0
 10
269.2190550214875
 20
155.5670685520424
 30
0.0
 10
268.4205303901924
 20
156.1187687733072
 30
0.0
 10
267.5283293409913
 20
156.6534081606827
 30
0.0
 10
266.5473535337574
 20
157.1697090062727
 30
0.0
 10
265.4813704804959
 20
157.6673044045048
 30
0.0
 10
264.3332291938982
 20
158.1462057949795
 30
0.0
 10
263.1055125736837
 20
158.6063842170701
 30
0.0
 10
261.8007724928799
 20
159.0476817650456
 30
0.0
 10
260.4216348669383
 20
159.4698181257276
 30
0.0
 10
258.9708954274378
 20
159.872404883302
 30
0.0
 10
257.4515099774086
 20
160.2549724572421
 30
0.0
 10
255.8666414566087
 20
160.6170058976494
 30
0.0
 10
254.2196216704757
 20
160.9579572972119
 30
0.0
 10
252.5139712933465
 20
161.2772641085361
 30
0.0
 10
250.7533781126698
 20
161.5743788314458
 30
0.0
 10
248.9416767251561
 20
161.8487518574644
 30
0.0
 10
247.0828568027993
 20
162.0998748111103
 30
0.0
 10
245.1810329941825
 20
162.3272575723526
 30
0.0
 10
243.2404331271417
 20
162.5304477034001
 30
0.0
 10
241.2654033065955
 20
162.7090445949411
 30
0.0
 10
239.2603678412252
 20
162.8626778569189
 30
0.0
 10
237.2298431964191
 20
162.9910325426822
 30
0.0
 10
235.1784081272038
 20
163.0938457058195
 30
0.0
 10
233.1106986825006
 20
163.1708998017947
 30
0.0
 10
231.0313930094208
 20
163.222034766415
 30
0.0
 10
228.9452024509034
 20
163.2471450125286
 30
0.0
 10
226.8568546494358
 20
163.2461755512167
 30
0.0
 10
224.7710928534764
 20
163.2191326972873
 30
0.0
 10
222.692653929991
 20
163.1660765268585
 30
0.0
 10
220.6262561526498
 20
163.0871182082765
 30
0.0
 10
218.5765803499917
 20
162.9824268900569
 30
0.0
 10
216.548260781828
 20
162.8522304858364
 30
0.0
 10
214.5458838177572
 20
162.6967993010709
 30
0.0
 10
212.5739599355987
 20
162.516461575961
 30
0.0
 10
210.6369284865144
 20
162.311590157858
 30
0.0
 10
208.7391301032464
 20
162.0826075301462
 30
0.0
 10
206.8848042574019
 20
161.8299767740762
 30
0.0
 10
205.0780769599477
 20
161.5541978941226
 30
0.0
 10
203.322933837776
 20
161.2558124297762
 30
0.0
 10
201.6232390245095
 20
160.9353750222165
 30
0.0
 10
199.9826726610174
 20
160.5934773116728
 30
0.0
 10
198.404781293907
 20
160.2307062178804
 30
0.0
 10
196.8929008185108
 20
159.8476482210261
 30
0.0
 10
195.4501950540277
 20
159.4448731552791
 30
0.0
 10
194.0796100014135
 20
159.0229013777247
 30
0.0
 10
192.7838939691766
 20
158.5821798012726
 30
0.0
 10
191.5655629682266
 20
158.1230450831427
 30
0.0
 10
190.4269400333885
 20
157.6456638543201
 30
0.0
 10
189.3701697910211
 20
157.1499769648261
 30
0.0
 10
188.3972708769642
 20
156.635623216263
 30
0.0
 10
187.5103244951091
 20
156.1018689351762
 30
0.0
 10
186.7116946353379
 20
155.5476134674487
 30
0.0
 10
186.0047451003329
 20
154.9717973858581
 30
0.0
 10
185.3943687931883
 20
154.3741102012221
 30
0.0
 10
184.8863355583123
 20
153.7560177604419
 30
0.0
 10
184.4878038008432
 20
153.1216077769849
 30
0.0
 10
184.1986627958452
 20
152.4774814543988
 30
0.0
 10
184.0335421251704
 20
151.8321896618574
 30
0.0
 10
183.9656509191088
 20
151.378212463974
 30
0.0
 10
183.9817253411796
 20
151.1446366731252
 30
0.0
 10
183.9832121379457
 20
151.1230321806636
 30
0.0
  0
SPLINE
  5
92
330
1F
100
AcDbEntity
  8
0
  6
Continuous
370
    15
100
AcDbSpline
210
0.0
220
0.0
230
1.0
 70
     8
 71
     3
 72
    16
 73
    12
 74
     0
 42
0.000000001
 43
0.00000001
 40
0.0
 40
0.0
 40
0.0
 40
0.0
 40
0.1174821232478775
 40
0.2397598302940928
 40
0.3638879577271861
 40
0.4893402931765487
 40
0.6154637705627863
 40
0.7414155439999363
 40
0.866644997255848
 40
0.9943121018037603
 40
1.0
 40
1.0
 40
1.0
 40
1.0
 10
187.3894760258279
 20
120.9606633957099
 30
0.0
 10
187.5042135213477
 20
121.3290328185491
 30
0.0
 10
187.738372061334
 20
122.0808083897064
 30
0.0
 10
188.1755932519331
 20
123.1873055423939
 30
0.0
 10
188.6814980275913
 20
124.2827505530829
 30
0.0
 10
189.257499375696
 20
125.3445126142617
 30
0.0
 10
189.8988957304996
 20
126.3586793044611
 30
0.0
 10
190.5992162662237
 20
127.3148504718066
 30
0.0
 10
191.3682343929591
 20
128.1992813297086
 30
0.0
 10
191.917200358126
 20
128.7784323322639
 30
0.0
 10
192.2254637571397
 20
129.0412807322307
 30
0.0
 10
192.2386119015298
 20
129.0524918222482
 30
0.0
  0
SPLINE
  5
93
330
1F
100
AcDbEntity
  8
0
  6
Continuous
370
    15
100
AcDbSpline
210
0.0
220
0.0
230
1.0
 70
     8
 71
     3
 72
    17
 73
    13
 74
     0
 42
0.000000001
 43
0.00000001
 40
0.0
 40
0.0
 40
0.0
 40
0.0
 40
0.0720469801386864
 40
0.182543681939513
 40
0.292486080096585
 40
0.401472034114543
 40
0.5115966801953946
 40
0.6226814041854482
 40
0.7340743945984659
 40
0.8448807009332778
 40
0.9544902812613388
 40
0.9999999999999999
 40
0.9999999999999999
 40
0.9999999999999999
 40
0.9999999999999999
 10
261.7029787845693
 20
129.4189588171605
 30
0.0
 10
261.965271056948
 20
129.3325750350973
 30
0.0
 10
262.629834610509
 20
129.1137065466843
 30
0.0
 10
263.6450438123796
 20
128.680686534529
 30
0.0
 10
264.7426118514741
 20
128.1348731513586
 30
0.0
 10
265.7786899966617
 20
127.5170683099007
 30
0.0
 10
266.7569640537742
 20
126.8287810012572
 30
0.0
 10
267.6746062567518
 20
126.0673125298429
 30
0.0
 10
268.5235894100734
 20
125.2387868048666
 30
0.0
 10
269.287250603866
 20
124.345879442029
 30
0.0
 10
269.8503421214269
 20
123.5907686094962
 30
0.0
 10
270.1261671125462
 20
123.1141517584674
 30
0.0
 10
270.2070901043496
 20
122.9743193909482
 30
0.0
  0
LINE
  5
94
330
1F
100
AcDbEntity
  8
0
  6
Continuous
370
    15
100
AcDbLine
 10
266.8959254272
 20
156.9755507254
 30
0.0
 11
266.9784964867
 21
161.5447402254
 31
0.0
  0
LINE
  5
95
330
1F
100
AcDbEntity
  8
0
  6
Continuous
370
    15
100
AcDbLine
 10
188.9785619326
 20
161.5447402254
 30
0.0
 11
189.0611255415
 21
156.9759717236
 31
0.0
  0
SPLINE
  5
96
330
1F
100
AcDbEntity
  8
0
  6
Continuous
370
    15
100
AcDbSpline
210
0.0
220
0.0
230
1.0
 70
     8
 71
     3
 72
    17
 73
    13
 74
     0
 42
0.000000001
 43
0.00000001
 40
0.0
 40
0.0
 40
0.0
 40
0.0
 40
0.0605118905753953
 40
0.1670986675858374
 40
0.2746016186768895
 40
0.3824677218038202
 40
0.4899445835559306
 40
0.5964797656914775
 40
0.7030089124786228
 40
0.8122304376902506
 40
0.922284276566468
 40
1.0
 40
1.0
 40
1.0
 40
1.0
 10
195.7234831399999
 20
118.9102077445726
 30
0.0
 10
195.7811030031878
 20
119.1339077100133
 30
0.0
 10
195.940215572199
 20
119.751636982867
 30
0.0
 10
196.24750551331
 20
120.7209732847323
 30
0.0
 10
196.6436790941265
 20
121.8146597687801
 30
0.0
 10
197.0871125493314
 20
122.8530468267398
 30
0.0
 10
197.5737800238244
 20
123.8262901010434
 30
0.0
 10
198.1038237290402
 20
124.724945004973
 30
0.0
 10
198.6862021903431
 20
125.5581282536763
 30
0.0
 10
199.3226605270788
 20
126.3213357767513
 30
0.0
 10
199.9378541071637
 20
126.9543969534022
 30
0.0
 10
200.3561217196786
 20
127.2919407923856
 30
0.0
 10
200.5292380101762
 20
127.4316464151418
 30
0.0
  0
SPLINE
  5
97
330
1F
100
AcDbEntity
  8
0
  6
Continuous
370
    15
100
AcDbSpline
210
0.0
220
0.0
230
1.0
 70
     8
 71
     3
 72
    19
 73
    15
 74
     0
 42
0.000000001
 43
0.00000001
 40
0.0
 40
0.0
 40
0.0
 40
0.0
 40
0.0331545383153843
 40
0.1276062932429389
 40
0.2224395831308857
 40
0.3172484336795983
 40
0.4115894084259676
 40
0.5052036868861184
 40
0.599300175182052
 40
0.6941026646259782
 40
0.7890209065357393
 40
0.8833524813835789
 40
0.9766223758864001
 40
1.0
 40
1.0
 40
1.0
 40
1.0
 10
254.1924191511951
 20
127.0137647228975
 30
0.0
 10
254.3372096092725
 20
126.9692830227832
 30
0.0
 10
254.8944839551389
 20
126.7980803712869
 30
0.0
 10
255.852904790978
 20
126.424072958268
 30
0.0
 10
257.058337859035
 20
125.8940278655914
 30
0.0
 10
258.2337640297382
 20
125.2901423146027
 30
0.0
 10
259.3688648018689
 20
124.6246543106905
 30
0.0
 10
260.4565471897487
 20
123.8948835024699
 30
0.0
 10
261.494152436518
 20
123.0999565417685
 30
0.0
 10
262.4771416514133
 20
122.2393976571973
 30
0.0
 10
263.3967886526393
 20
121.3195702082072
 30
0.0
 10
264.2316096595687
 20
120.3440938265449
 30
0.0
 10
264.8154436158888
 20
119.5862970698393
 30
0.0
 10
265.0901082393376
 20
119.1403361339252
 30
0.0
 10
265.1451544709287
 20
119.0509599752825
 30
0.0
  0
SPLINE
  5
98
330
1F
100
AcDbEntity
  8
0
  6
Continuous
370
    15
100
AcDbSpline
210
0.0
220
0.0
230
1.0
 70
     8
 71
     3
 72
    13
 73
     9
 74
     0
 42
0.000000001
 43
0.00000001
 40
0.0
 40
0.0
 40
0.0
 40
0.0
 40
0.0831597328444972
 40
0.2913449569974053
 40
0.5033643052329863
 40
0.7200207799496463
 40
0.94070883735803
 40
1.0
 40
1.0
 40
1.0
 40
1.0
 10
184.0819062538228
 20
157.3786946005
 30
0.0
 10
184.0970409136681
 20
157.3008512822407
 30
0.0
 10
184.1500642540636
 20
157.0281320534138
 30
0.0
 10
184.3446863046653
 20
156.5684065092905
 30
0.0
 10
184.6604924268461
 20
155.9997057869964
 30
0.0
 10
185.089842766032
 20
155.4380332788075
 30
0.0
 10
185.4670568884757
 20
155.017188276017
 30
0.0
 10
185.7319884201557
 20
154.7883140744217
 30
0.0
 10
185.7880929358087
 20
154.739845414823
 30
0.0
  0
SPLINE
  5
99
330
1F
100
AcDbEntity
  8
0
  6
Continuous
370
    15
100
AcDbSpline
210
0.0
220
0.0
230
1.0
 70
     8
 71
     3
 72
    12
 73
     8
 74
     0
 42
0.000000001
 43
0.00000001
 40
0.0
 40
0.0
 40
0.0
 40
0.0
 40
0.2080663919304857
 40
0.4331017335162249
 40
0.655912738394597
 40
0.8749037895179348
 40
1.0
 40
1.0
 40
1.0
 40
1.0
 10
270.1723517723165
 20
154.7368660517079
 30
0.0
 10
270.3526743170636
 20
154.9089125239449
 30
0.0
 10
270.7280256940805
 20
155.2670367970668
 30
0.0
 10
271.1778241344525
 20
155.8292270985803
 30
0.0
 10
271.5396399266735
 20
156.4172867218586
 30
0.0
 10
271.7741028946482
 20
156.9305942084755
 30
0.0
 10
271.8455953115763
 20
157.250836549678
 30
0.0
 10
271.8715870626054
 20
157.3672637115946
 30
0.0
  0
LINE
  5
9A
330
1F
100
AcDbEntity
  8
0
  6
Continuous
370
    15
100
AcDbLine
 10
271.9785289712
 20
158.1676312737
 30
0.0
 11
271.9785289712
 21
229.8876221377
 31
0.0
  0
LINE
  5
9B
330
1F
100
AcDbEntity
  8
0
  6
Continuous
370
    15
100
AcDbLine
 10
183.978529448
 20
229.8876221377
 30
0.0
 11
183.978529448
 21
158.1676312737
 31
0.0
  0
LINE
  5
9C
330
1F
100
AcDbEntity
  8
0
  6
Continuous
370
    15
100
AcDbLine
 10
227.1627763741
 20
168.8661614944
 30
0.0
 11
227.9785292096
 21
168.8705580774
 31
0.0
  0
SPLINE
  5
9D
330
1F
100
AcDbEntity
  8
0
  6
Continuous
370
    15
100
AcDbSpline
210
0.0
220
0.0
230
1.0
 70
     8
 71
     3
 72
    21
 73
    17
 74
     0
 42
0.000000001
 43
0.00000001
 40
0.0
 40
0.0
 40
0.0
 40
0.0
 40
0.0565622434665056
 40
0.1287573500651473
 40
0.2008929070405529
 40
0.2730766170815928
 40
0.3453845014638885
 40
0.4178395285877038
 40
0.4904391975671175
 40
0.5631703269479644
 40
0.636016220517214
 40
0.70896027636862
 40
0.7819873369400244
 40
0.8550841261090237
 40
0.9282395466104164
 40
1.0
 40
1.0
 40
1.0
 40
1.0
 10
186.3673234231553
 20
160.5511834806168
 30
0.0
 10
186.4916268257551
 20
160.6768041080906
 30
0.0
 10
186.7745890235383
 20
160.9627648146637
 30
0.0
 10
187.3312151790466
 20
161.4103477803234
 30
0.0
 10
188.0149483836906
 20
161.8897426768381
 30
0.0
 10
188.7954338287224
 20
162.3642459614318
 30
0.0
 10
189.667640297372
 20
162.8320041246613
 30
0.0
 10
190.6310127595931
 20
163.2913587765721
 30
0.0
 10
191.6832111643178
 20
163.7406409927564
 30
0.0
 10
192.821870451386
 20
164.178275236692
 30
0.0
 10
194.0441988595091
 20
164.6028079077732
 30
0.0
 10
195.3473242223194
 20
165.012846771405
 30
0.0
 10
196.727618922186
 20
165.4072806168309
 30
0.0
 10
198.1832935913777
 20
165.7844418435964
 30
0.0
 10
199.6948534521819
 20
166.1427974922449
 30
0.0
 10
200.7540699426825
 20
166.3648015210093
 30
0.0
 10
201.2785801537118
 20
166.4747350247083
 30
0.0
  0
SPLINE
  5
9E
330
1F
100
AcDbEntity
  8
0
  6
Continuous
370
    15
100
AcDbSpline
210
0.0
220
0.0
230
1.0
 70
     8
 71
     3
 72
    21
 73
    17
 74
     0
 42
0.000000001
 43
0.00000001
 40
0.0
 40
0.0
 40
0.0
 40
0.0
 40
0.0690186766947563
 40
0.1426613902451805
 40
0.2162622722714006
 40
0.2898136544179321
 40
0.3633060981890682
 40
0.4367286606414083
 40
0.5100680280682129
 40
0.5833090618613475
 40
0.6564344568554131
 40
0.7294264328904079
 40
0.8022690866455742
 40
0.8749545371837946
 40
0.9474953893621828
 40
1.0
 40
1.0
 40
1.0
 40
1.0
 10
254.199744934567
 20
166.5703783815457
 30
0.0
 10
254.7079348196685
 20
166.4672882189246
 30
0.0
 10
255.7583617329193
 20
166.2542011731504
 30
0.0
 10
257.271240138029
 20
165.9067180713792
 30
0.0
 10
258.7526332175396
 20
165.535057795238
 30
0.0
 10
260.1598418857633
 20
165.1455800758609
 30
0.0
 10
261.4911678019802
 20
164.7399590939268
 30
0.0
 10
262.7428598002718
 20
164.3192321955858
 30
0.0
 10
263.9119322167205
 20
163.8847324776077
 30
0.0
 10
264.9954093344527
 20
163.4378691469862
 30
0.0
 10
265.9906568829647
 20
162.9802005407211
 30
0.0
 10
266.8948893205475
 20
162.5134638390519
 30
0.0
 10
267.7070968043542
 20
162.0395674826272
 30
0.0
 10
268.4211741384059
 20
161.560727321768
 30
0.0
 10
268.9940809875207
 20
161.1231687319936
 30
0.0
 10
269.285445162092
 20
160.8465551823466
 30
0.0
 10
269.407784367331
 20
160.7304095310429
 30
0.0
  0
LINE
  5
9F
330
1F
100
AcDbEntity
  8
0
  6
Continuous
370
    15
100
AcDbLine
 10
227.9785292096
 20
168.8705580774
 30
0.0
 11
228.494090062
 21
168.8688689678
 31
0.0
  0
SPLINE
  5
A0
330
1F
100
AcDbEntity
  8
0
  6
Continuous
370
    15
100
AcDbSpline
210
0.0
220
0.0
230
1.0
 70
     8
 71
     3
 72
    73
 73
    69
 74
     0
 42
0.000000001
 43
0.00000001
 40
0.0
 40
0.0
 40
0.0
 40
0.0
 40
0.0093484890654003
 40
0.0231817587750868
 40
0.0371615081986572
 40
0.0514792070734327
 40
0.0662264014304617
 40
0.0813770589701764
 40
0.0968184199530054
 40
0.1124162899336065
 40
0.1280667103815063
 40
0.1436988327169471
 40
0.1592918756731336
 40
0.1748413857363027
 40
0.1903497023415539
 40
0.2058215756284538
 40
0.2212621985393311
 40
0.2366765132508991
 40
0.2520687567784429
 40
0.2674425785159304
 40
0.2828009640651603
 40
0.2981464677730717
 40
0.3134811274308051
 40
0.3288067172156961
 40
0.3441246260429984
 40
0.3594361201675368
 40
0.3747421961126744
 40
0.3900437513540219
 40
0.4053415351681373
 40
0.4206362176485104
 40
0.435928391093623
 40
0.4512185714059549
 40
0.4665072494698245
 40
0.4817948662161271
 40
0.4970818480321261
 40
0.5123685996297723
 40
0.5276554697266775
 40
0.5429427805253656
 40
0.5582309383818742
 40
0.5735203659725044
 40
0.5888115214183428
 40
0.604104885024555
 40
0.6194010015332894
 40
0.6347004636008319
 40
0.6500039179465068
 40
0.6653121772507254
 40
0.6806261256853333
 40
0.6959467884120889
 40
0.7112753938820454
 40
0.726613427237154
 40
0.7419626065450493
 40
0.7573250093775542
 40
0.7727032117367527
 40
0.7881002098411328
 40
0.8035196845148748
 40
0.8189659722069692
 40
0.8344440820565636
 40
0.8499595579666501
 40
0.8655177898155656
 40
0.8811225311349776
 40
0.89677230722956
 40
0.9124533747004081
 40
0.9281083365393922
 40
0.9436364997421149
 40
0.958893415614225
 40
0.9737369018959392
 40
0.9881159954505891
 40
1.0
 40
1.0
 40
1.0
 40
1.0
 10
271.966418052443
 20
229.9753383619478
 30
0.0
 10
271.9630878298015
 20
230.1115877839514
 30
0.0
 10
271.954829766129
 20
230.4494500001915
 30
0.0
 10
271.8269792569837
 20
230.9839070937882
 30
0.0
 10
271.6009380055633
 20
231.5739545245671
 30
0.0
 10
271.2734076976222
 20
232.1561590299108
 30
0.0
 10
270.8467588123892
 20
232.7324145812938
 30
0.0
 10
270.3173219020229
 20
233.3021445551338
 30
0.0
 10
269.6855480318686
 20
233.863009437567
 30
0.0
 10
268.953963503788
 20
234.4119725019206
 30
0.0
 10
268.1268303989913
 20
234.9464440017964
 30
0.0
 10
267.2084335089909
 20
235.4648423022528
 30
0.0
 10
266.2024665349016
 20
235.9664182629695
 30
0.0
 10
265.111778171628
 20
236.4508524520516
 30
0.0
 10
263.9389564702961
 20
236.9179051033094
 30
0.0
 10
262.6865466648374
 20
237.3672463207722
 30
0.0
 10
261.3571957441721
 20
237.7984669642599
 30
0.0
 10
259.9536538073396
 20
238.2110388212279
 30
0.0
 10
258.4788801650185
 20
238.6044407609933
 30
0.0
 10
256.9359813858192
 20
238.9780580867508
 30
0.0
 10
255.3282623371155
 20
239.3312858906822
 30
0.0
 10
253.6592014069378
 20
239.6634893911825
 30
0.0
 10
251.9324275413253
 20
239.9740764249245
 30
0.0
 10
250.1517459125045
 20
240.2624416839334
 30
0.0
 10
248.3210881218001
 20
240.528040207795
 30
0.0
 10
246.4445324171548
 20
240.7703243126687
 30
0.0
 10
244.5262635326939
 20
240.9887880629173
 30
0.0
 10
242.5705875649511
 20
241.1830242537211
 30
0.0
 10
240.5818989585338
 20
241.3525757579858
 30
0.0
 10
238.5646858127656
 20
241.4971244768958
 30
0.0
 10
236.523501426614
 20
241.6163467217415
 30
0.0
 10
234.4629639087094
 20
241.7099790404467
 30
0.0
 10
232.3877424899086
 20
241.7778585448667
 30
0.0
 10
230.3025405706395
 20
241.8197921100474
 30
0.0
 10
228.2120903171225
 20
241.8357212443653
 30
0.0
 10
226.1211376666751
 20
241.825615878
 30
0.0
 10
224.0344347078804
 20
241.7894785974419
 30
0.0
 10
221.9567245654361
 20
241.7273935853466
 30
0.0
 10
219.8927232613718
 20
241.6395065806481
 30
0.0
 10
217.8471127362176
 20
241.5260006927344
 30
0.0
 10
215.8245248758866
 20
241.387134225278
 30
0.0
 10
213.8295392270094
 20
241.2231804152734
 30
0.0
 10
211.8666606758444
 20
241.0345141443821
 30
0.0
 10
209.9403186754256
 20
240.8215173911879
 30
0.0
 10
208.0548412492454
 20
240.5846730644408
 30
0.0
 10
206.2144624367512
 20
240.3244171900034
 30
0.0
 10
204.4232894726851
 20
240.0413455927003
 30
0.0
 10
202.6853117574887
 20
239.7359793085926
 30
0.0
 10
201.0043666171413
 20
239.4089468961622
 30
0.0
 10
199.3841544433893
 20
239.0608743320788
 30
0.0
 10
197.8281982430759
 20
238.6923889222871
 30
0.0
 10
196.3398523960654
 20
238.3041718479569
 30
0.0
 10
194.9222898518777
 20
237.8968278118225
 30
0.0
 10
193.578480641681
 20
237.4709815516425
 30
0.0
 10
192.3111949280663
 20
237.0272118844343
 30
0.0
 10
191.1229993520527
 20
236.5659645602988
 30
0.0
 10
190.016272680813
 20
236.0876290443565
 30
0.0
 10
188.9932005526784
 20
235.5923508214766
 30
0.0
 10
188.0558779407184
 20
235.0801061834785
 30
0.0
 10
187.206391356453
 20
234.5505502976723
 30
0.0
 10
186.4470256773494
 20
234.0031077688173
 30
0.0
 10
185.7808959413186
 20
233.4372749167237
 30
0.0
 10
185.2119856059685
 20
232.8531285653635
 30
0.0
 10
184.7455375848143
 20
232.2522409867378
 30
0.0
 10
184.3852056859057
 20
231.6382066198526
 30
0.0
 10
184.1379560039508
 20
231.0168256731
 30
0.0
 10
183.996895899192
 20
230.4256822312594
 30
0.0
 10
183.9888215457361
 20
230.0428258203694
 30
0.0
 10
183.9851679153523
 20
229.8695839845906
 30
0.0
  0
LWPOLYLINE
  5
A1
330
1F
100
AcDbEntity
  8
0
  6
Continuous
370
    15
100
AcDbPolyline
 90
        9
 70
   128
 43
0.0
 10
272.6579064376
 20
98.6475744032
 10
272.6591097064
 20
98.6581898613
 10
272.6686576254
 20
98.668518236
 10
272.6861515887
 20
98.6781248646
 10
272.7108502634
 20
98.6866053355
 10
272.7417180188
 20
98.6936027229
 10
272.7774510033
 20
98.6988224106
 10
272.8165516503
 20
98.7020448076
 10
272.8573659308
 20
98.7031342663
  0
ARC
  5
A2
330
1F
100
AcDbEntity
  8
0
  6
Continuous
370
    15
100
AcDbCircle
 10
269.7117991162
 20
97.7972675805
 30
0.0
 40
3.066361042390389
100
AcDbArc
 50
343.9007784379999
 51
16.099221562
  0
LWPOLYLINE
  5
A3
330
1F
100
AcDbEntity
  8
0
  6
Continuous
370
    15
100
AcDbPolyline
 90
        9
 70
   128
 43
0.0
 10
272.8573659308
 20
96.8914008947
 10
272.8165516503
 20
96.8924903534
 10
272.7774510033
 20
96.8957127503
 10
272.7417180188
 20
96.9009324381
 10
272.7108502634
 20
96.9079298254
 10
272.6861515887
 20
96.9164102964
 10
272.6686576254
 20
96.926016925
 10
272.6591097064
 20
96.9363452997
 10
272.6579064376
 20
96.9469607577
  0
LINE
  5
A4
330
1F
100
AcDbEntity
  8
0
  6
Continuous
370
    15
100
AcDbLine
 10
273.4281698115
 20
96.8914008947
 30
0.0
 11
272.8573659308
 21
96.8914008947
 31
0.0
  0
LWPOLYLINE
  5
A5
330
1F
100
AcDbEntity
  8
0
  6
Continuous
370
    15
100
AcDbPolyline
 90
        9
 70
   128
 43
0.0
 10
273.6275138207
 20
96.8354369815
 10
273.6266048498
 20
96.8461048064
 10
273.617265547
 20
96.8564977809
 10
273.5998907931
 20
96.8661743725
 10
273.5752181954
 20
96.8747233
 10
273.544298286
 20
96.8817813099
 10
273.5084460921
 20
96.8870485436
 10
273.4691778071
 20
96.8903011313
 10
273.4281698115
 20
96.8914008947
  0
LWPOLYLINE
  5
A6
330
1F
100
AcDbEntity
  8
0
  6
Continuous
370
    15
100
AcDbPolyline
 90
      125
 70
   128
 43
0.0
 10
273.6275138207
 20
96.8354369815
 10
273.3885513492
 20
96.2536572339
 10
273.0389701076
 20
95.6756376525
 10
272.5796269126
 20
95.1027864165
 10
272.0116319008
 20
94.5364990501
 10
271.3363746054
 20
93.9781545663
 10
270.5554978795
 20
93.4291136585
 10
269.6709053464
 20
92.8907133978
 10
268.6847502239
 20
92.3642650639
 10
267.5994353242
 20
91.8510519749
 10
266.4176056035
 20
91.3523232211
 10
265.1421407111
 20
90.8692946285
 10
263.7761400886
 20
90.4031424918
 10
262.322941596
 20
89.9550021284
 10
260.786080534
 20
89.5259654678
 10
259.1692989565
 20
89.1170776767
 10
257.4765382208
 20
88.729334267
 10
255.7119203605
 20
88.3636810955
 10
253.8797443606
 20
88.0210071324
 10
251.9844731189
 20
87.7021483184
 10
250.0307241328
 20
87.4078808153
 10
248.0232564606
 20
87.13892197
 10
245.9669614084
 20
86.8959264582
 10
243.8668457664
 20
86.6794862839
 10
241.7280262209
 20
86.4901288515
 10
239.5557135217
 20
86.3283160012
 10
237.3551985122
 20
86.194441117
 10
235.1318423509
 20
86.0888300903
 10
232.8910606786
 20
86.0117413204
 10
230.6383124426
 20
85.9633608931
 10
228.379084879
 20
85.9438083665
 10
226.1188816385
 20
85.953130985
 10
223.8632084675
 20
85.9913056084
 10
221.6175601691
 20
86.0582387117
 10
219.3874072157
 20
86.1537683133
 10
217.1781815462
 20
86.2776610826
 10
214.9952657394
 20
86.4296152325
 10
212.8439767159
 20
86.6092614835
 10
210.7295559592
 20
86.8161611355
 10
208.6571527518
 20
87.0498108886
 10
206.6318167247
 20
87.3096409147
 10
204.6584801622
 20
87.5950187144
 10
202.7419505514
 20
87.9052491167
 10
200.8868975438
 20
88.2395762074
 10
199.0978380538
 20
88.597185258
 10
197.3791325338
 20
88.9772056173
 10
195.73496821
 20
89.3787126405
 10
194.1693479068
 20
89.8007257605
 10
192.6860825963
 20
90.242219094
 10
191.2887932606
 20
90.7021161383
 10
189.9808773644
 20
91.1792970031
 10
188.7655237563
 20
91.6725988918
 10
187.645694042
 20
92.1808204412
 10
186.6241114087
 20
92.7027236492
 10
185.7032680757
 20
93.2370372495
 10
184.885410393
 20
93.7824593634
 10
184.1725239403
 20
94.3376615974
 10
183.5663484283
 20
94.9012912124
 10
183.0683590717
 20
95.4719752217
 10
182.6797703154
 20
96.048323886
 10
182.401528383
 20
96.6289328828
 10
182.2343150027
 20
97.212387826
 10
182.1785287805
 20
97.7972675805
 10
182.2343150027
 20
98.3821473349
 10
182.401528383
 20
98.9656022782
 10
182.6797703154
 20
99.546211275
 10
183.0683590717
 20
100.1225599392
 10
183.5663484283
 20
100.6932439485
 10
184.1725239403
 20
101.2568735635
 10
184.885410393
 20
101.8120757975
 10
185.7032680757
 20
102.3574979115
 10
186.6241114087
 20
102.8918115118
 10
187.645694042
 20
103.4137147197
 10
188.7655237563
 20
103.9219362691
 10
189.9808773644
 20
104.4152381579
 10
191.2887932606
 20
104.8924190226
 10
192.6860825963
 20
105.352316067
 10
194.1693479068
 20
105.7938094005
 10
195.73496821
 20
106.2158225205
 10
197.3791325338
 20
106.6173295437
 10
199.0978380538
 20
106.997349903
 10
200.8868975438
 20
107.3549589535
 10
202.7419505514
 20
107.6892860443
 10
204.6584801622
 20
107.9995164466
 10
206.6318167247
 20
108.2848942462
 10
208.6571527518
 20
108.5447242724
 10
210.7295559592
 20
108.7783740255
 10
212.8439767159
 20
108.9852736775
 10
214.9952657394
 20
109.1649199285
 10
217.1781815462
 20
109.3168740783
 10
219.3874072157
 20
109.4407668476
 10
221.6175601691
 20
109.5362964492
 10
223.8632084675
 20
109.6032295525
 10
226.1188816385
 20
109.641404176
 10
228.379084879
 20
109.6507267945
 10
230.6383124426
 20
109.6311742678
 10
232.8910606786
 20
109.5827938406
 10
235.1318423509
 20
109.5057050706
 10
237.3551985122
 20
109.400094044
 10
239.5557135217
 20
109.2662191597
 10
241.7280262209
 20
109.1044063095
 10
243.8668457664
 20
108.915048877
 10
245.9669614084
 20
108.6986087027
 10
248.0232564606
 20
108.4556131909
 10
250.0307241328
 20
108.1866543457
 10
251.9844731189
 20
107.8923868426
 10
253.8797443606
 20
107.5735280286
 10
255.7119203605
 20
107.2308540655
 10
257.4765382208
 20
106.8652008939
 10
259.1692989565
 20
106.4774574842
 10
260.786080534
 20
106.0685696932
 10
262.322941596
 20
105.6395330325
 10
263.7761400886
 20
105.1913926692
 10
265.1421407111
 20
104.7252405325
 10
266.4176056035
 20
104.2422119398
 10
267.5994353242
 20
103.743483186
 10
268.6847502239
 20
103.2302700971
 10
269.6709053464
 20
102.7038217631
 10
270.5554978795
 20
102.1654215025
 10
271.3363746054
 20
101.6163805947
 10
272.0116319008
 20
101.0580361108
 10
272.5796269126
 20
100.4917487445
 10
273.0389701076
 20
99.9188975084
 10
273.3885513492
 20
99.340877927
 10
273.6275138207
 20
98.7590981794
  0
LWPOLYLINE
  5
A7
330
1F
100
AcDbEntity
  8
0
  6
Continuous
370
    15
100
AcDbPolyline
 90
        9
 70
   128
 43
0.0
 10
273.4281698115
 20
98.7031342663
 10
273.4691778071
 20
98.7042340296
 10
273.5084460921
 20
98.7074866174
 10
273.544298286
 20
98.712753851
 10
273.5752181954
 20
98.719811861
 10
273.5998907931
 20
98.7283607884
 10
273.617265547
 20
98.7380373801
 10
273.6266048498
 20
98.7484303545
 10
273.6275138207
 20
98.7590981794
  0
LINE
  5
A8
330
1F
100
AcDbEntity
  8
0
  6
Continuous
370
    15
100
AcDbLine
 10
273.4281698115
 20
98.7031342663
 30
0.0
 11
272.8573659308
 21
98.7031342663
 31
0.0
  0
LWPOLYLINE
  5
A9
330
1F
100
AcDbEntity
  8
0
  6
Continuous
370
    15
100
AcDbPolyline
 90
      123
 70
   128
 43
0.0
 10
227.9785292096
 20
86.7974628688
 10
225.790683214
 20
86.8120479603
 10
223.6086388923
 20
86.8557637037
 10
221.4381827846
 20
86.9284934336
 10
219.2850706972
 20
87.0300462432
 10
217.1550111718
 20
87.1601511989
 10
215.0536550082
 20
87.3184650542
 10
212.9865724467
 20
87.5045654998
 10
210.9592461832
 20
87.7179608061
 10
208.9770508803
 20
87.9580840374
 10
207.0452457167
 20
88.2242998017
 10
205.1689511038
 20
88.5159013579
 10
203.3531440295
 20
88.8321154369
 10
201.6026375688
 20
89.1721032055
 10
199.9220771588
 20
89.5349631589
 10
198.315916384
 20
89.9197335317
 10
196.7884151138
 20
90.3253937433
 10
195.3436264641
 20
90.7508677734
 10
193.9853781707
 20
91.1950280179
 10
192.7172707267
 20
91.6566957716
 10
191.5426755197
 20
92.1346474951
 10
190.4646957166
 20
92.6276152969
 10
189.486199791
 20
93.1342922362
 10
188.6097768195
 20
93.6533342516
 10
187.8377551086
 20
94.1833657049
 10
187.1721761174
 20
94.7229803453
 10
186.6148130841
 20
95.2707473355
 10
186.1671337731
 20
95.8252142647
 10
185.8303340025
 20
96.3849107645
 10
185.6053041167
 20
96.9483526062
 10
185.4926364369
 20
97.514045558
 10
185.4926364369
 20
98.080489603
 10
185.6053041167
 20
98.6461825548
 10
185.8303340025
 20
99.2096243965
 10
186.1671337731
 20
99.7693208962
 10
186.6148130841
 20
100.3237878255
 10
187.1721761174
 20
100.8715548156
 10
187.8377551086
 20
101.411169456
 10
188.6097768195
 20
101.9412009093
 10
189.486199791
 20
102.4602429248
 10
190.4646957166
 20
102.9669198641
 10
191.5426755197
 20
103.4598876658
 10
192.7172707267
 20
103.9378393893
 10
193.9853781707
 20
104.3995071431
 10
195.3436264641
 20
104.8436673876
 10
196.7884151138
 20
105.2691414176
 10
198.315916384
 20
105.6748016293
 10
199.9220771588
 20
106.059572002
 10
201.6026375688
 20
106.4224319555
 10
203.3531440295
 20
106.762419724
 10
205.1689511038
 20
107.078633803
 10
207.0452457167
 20
107.3702353593
 10
208.9770508803
 20
107.6364511236
 10
210.9592461832
 20
107.8765743549
 10
212.9865724467
 20
108.0899696611
 10
215.0536550082
 20
108.2760701068
 10
217.1550111718
 20
108.434383962
 10
219.2850706972
 20
108.5644889178
 10
221.4381827846
 20
108.6660417274
 10
223.6086388923
 20
108.7387714573
 10
225.790683214
 20
108.7824872006
 10
227.9785292096
 20
108.7970722922
 10
230.1663752053
 20
108.7824872006
 10
232.3484195269
 20
108.7387714573
 10
234.5188756346
 20
108.6660417274
 10
236.671987722
 20
108.5644889178
 10
238.8020472474
 20
108.434383962
 10
240.903403411
 20
108.2760701068
 10
242.9704859726
 20
108.0899696611
 10
244.9978122361
 20
107.8765743549
 10
246.9800075389
 20
107.6364511236
 10
248.9118127025
 20
107.3702353593
 10
250.7881073154
 20
107.078633803
 10
252.6039143897
 20
106.762419724
 10
254.3544208504
 20
106.4224319555
 10
256.0349812604
 20
106.059572002
 10
257.6411420353
 20
105.6748016293
 10
259.1686433054
 20
105.2691414176
 10
260.6134319551
 20
104.8436673876
 10
261.9716802485
 20
104.3995071431
 10
263.2397876926
 20
103.9378393893
 10
264.4143828995
 20
103.4598876658
 10
265.4923627026
 20
102.9669198641
 10
266.4708586283
 20
102.4602429248
 10
267.3472815998
 20
101.9412009093
 10
268.1193033106
 20
101.411169456
 10
268.7848823018
 20
100.8715548156
 10
269.3422453351
 20
100.3237878255
 10
269.7899246461
 20
99.7693208962
 10
270.1267244167
 20
99.2096243965
 10
270.3517543025
 20
98.6461825548
 10
270.4644219823
 20
98.080489603
 10
270.4644219823
 20
97.514045558
 10
270.3517543025
 20
96.9483526062
 10
270.1267244167
 20
96.3849107645
 10
269.7899246461
 20
95.8252142647
 10
269.3422453351
 20
95.2707473355
 10
268.7848823018
 20
94.7229803453
 10
268.1193033106
 20
94.1833657049
 10
267.3472815998
 20
93.6533342516
 10
266.4708586283
 20
93.1342922362
 10
265.4923627026
 20
92.6276152969
 10
264.4143828995
 20
92.1346474951
 10
263.2397876926
 20
91.6566957716
 10
261.9716802485
 20
91.1950280179
 10
260.6134319551
 20
90.7508677734
 10
259.1686433054
 20
90.3253937433
 10
257.6411420353
 20
89.9197335317
 10
256.0349812604
 20
89.5349631589
 10
254.3544208504
 20
89.1721032055
 10
252.6039143897
 20
88.8321154369
 10
250.7881073154
 20
88.5159013579
 10
248.9118127025
 20
88.2242998017
 10
246.9800075389
 20
87.9580840374
 10
244.9978122361
 20
87.7179608061
 10
242.9704859726
 20
87.5045654998
 10
240.903403411
 20
87.3184650542
 10
238.8020472474
 20
87.1601511989
 10
236.671987722
 20
87.0300462432
 10
234.5188756346
 20
86.9284934336
 10
232.3484195269
 20
86.8557637037
 10
230.1663752053
 20
86.8120479603
 10
227.9785292096
 20
86.7974628688
  0
ARC
  5
AA
330
1F
100
AcDbEntity
  8
0
  6
Continuous
370
    15
100
AcDbCircle
 10
270.3423826729
 20
98.3519974249
 30
0.0
 40
3.443894378289658
100
AcDbArc
 50
342.5349281562999
 51
344.7884897029
  0
LWPOLYLINE
  5
AB
330
1F
100
AcDbEntity
  8
0
  6
Continuous
370
    15
100
AcDbPolyline
 90
       63
 70
   128
 43
0.0
 10
182.1785287805
 20
99.2461736496
 10
182.2347136087
 20
99.833153259
 10
182.4031339831
 20
100.418692751
 10
182.6833726711
 20
101.0013554428
 10
183.0747442193
 20
101.5797116422
 10
183.5762875028
 20
102.152342564
 10
184.1867731757
 20
102.7178431627
 10
184.9046999462
 20
103.2748259888
 10
185.7283132024
 20
103.8219243229
 10
186.6555863865
 20
104.3577960318
 10
187.684243346
 20
104.8811262203
 10
188.8117657847
 20
105.390631088
 10
190.0353858121
 20
105.8850605807
 10
191.3520971186
 20
106.3632012827
 10
192.7586736031
 20
106.8238802739
 10
194.2516619213
 20
107.2659670578
 10
195.8274001129
 20
107.6883769362
 10
197.4820231892
 20
108.0900739021
 10
199.2114687212
 20
108.4700730495
 10
201.0114936031
 20
108.8274400919
 10
202.8776852287
 20
109.1612995573
 10
204.8054596282
 20
109.4708328602
 10
206.7900894083
 20
109.7552792658
 10
208.8267074771
 20
110.0139407106
 10
210.9103126324
 20
110.2461837308
 10
213.03579657
 20
110.4514384984
 10
215.197942952
 20
110.6292007493
 10
217.3914460338
 20
110.779034676
 10
219.6109246336
 20
110.9005719631
 10
221.8509333081
 20
110.9935156445
 10
224.1059760902
 20
111.0576362462
 10
226.3705203416
 20
111.0927775717
 10
228.63900985
 20
111.0988528451
 10
230.9058788571
 20
111.0758476039
 10
233.1655656792
 20
111.0238187344
 10
235.4125257455
 20
110.9428925437
 10
237.6412467904
 20
110.8332686162
 10
239.8462600879
 20
110.6952149928
 10
242.0221555851
 20
110.5290710636
 10
244.163594941
 20
110.3352446751
 10
246.2653236337
 20
110.1142102018
 10
248.32218493
 20
109.866511439
 10
250.3291329242
 20
109.5927558178
 10
252.2812446452
 20
109.2936144046
 10
254.1737275071
 20
108.9698209375
 10
256.0019416608
 20
108.6221708616
 10
257.7613981314
 20
108.2515165088
 10
259.4477848954
 20
107.8587680611
 10
261.0569575675
 20
107.4448877663
 10
262.5849747903
 20
107.010891866
 10
264.0280814715
 20
106.5578448105
 10
265.3827423103
 20
106.0868587771
 10
266.6456306226
 20
105.5990888486
 10
267.8136469669
 20
105.0957320496
 10
268.8839303203
 20
104.5780234897
 10
269.8538506277
 20
104.0472329888
 10
270.7210274286
 20
103.5046626666
 10
271.4833335824
 20
102.9516442914
 10
272.1389027186
 20
102.3895344589
 10
272.6861217864
 20
101.8197124231
 10
273.1236534066
 20
101.2435761186
 10
273.4504172452
 20
100.6625391482
 10
273.6656160898
 20
100.0780271666
  0
ARC
  5
AC
330
1F
100
AcDbEntity
  8
0
  6
Continuous
370
    15
100
AcDbCircle
 10
270.3423826729
 20
98.2084655199
 30
0.0
 40
3.443894378308253
100
AcDbArc
 50
15.2115102971
 51
17.4650718437
  0
ARC
  5
AD
330
1F
100
AcDbEntity
  8
0
  6
Continuous
370
    15
100
AcDbCircle
 10
209.6611216408
 20
128.0096633182
 30
0.0
 40
5.37503332054069
100
AcDbArc
 50
119.9311790165
 51
136.7769353097
  0
ARC
  5
AE
330
1F
100
AcDbEntity
  8
0
  6
Continuous
370
    15
100
AcDbCircle
 10
246.2961632229
 20
128.0099861471
 30
0.0
 40
5.374640562312964
100
AcDbArc
 50
43.2190609645
 51
60.06919584500002
  0
LWPOLYLINE
  5
AF
330
1F
100
AcDbEntity
  8
0
  6
Continuous
370
    15
100
AcDbPolyline
 90
        3
 70
   128
 43
0.0
 10
200.943870271
 20
131.5911125892
 10
201.9269054629
 20
131.5747619092
 10
205.5961562194
 20
131.5139455238
  0
LWPOLYLINE
  5
B0
330
1F
100
AcDbEntity
  8
0
  6
Continuous
370
    15
100
AcDbPolyline
 90
        3
 70
   128
 43
0.0
 10
254.9362776674
 20
131.5898315752
 10
254.0301529564
 20
131.5747619092
 10
250.3609021999
 20
131.5139455238
  0
SPLINE
  5
B1
330
1F
100
AcDbEntity
  8
0
  6
Continuous
370
    15
100
AcDbSpline
210
0.0
220
0.0
230
1.0
 70
     8
 71
     3
 72
     9
 73
     5
 74
     0
 42
0.000000001
 43
0.00000001
 40
0.0
 40
0.0
 40
0.0
 40
0.0
 40
0.3797508761993637
 40
1.0
 40
1.0
 40
1.0
 40
1.0
 10
269.654208595284
 20
104.2451344219373
 30
0.0
 10
269.764829967367
 20
104.1703939942172
 30
0.0
 10
270.0561298142301
 20
103.9735796287888
 30
0.0
 10
270.4414566560061
 20
103.7864716639853
 30
0.0
 10
270.6804552919946
 20
103.6704181127598
 30
0.0
  0
ARC
  5
B2
330
1F
100
AcDbEntity
  8
0
  6
Continuous
370
    15
100
AcDbCircle
 10
270.7008091142
 20
103.5270936707
 30
0.0
 40
0.144762473593384
100
AcDbArc
 50
65.2930913784
 51
98.08265446449998
  0
LINE
  5
B3
330
1F
100
AcDbEntity
  8
0
  6
Continuous
370
    15
100
AcDbLine
 10
273.6275138207
 20
99.2420620713
 30
0.0
 11
273.628173197
 21
99.2378619395
 31
0.0
  0
LWPOLYLINE
  5
B4
330
1F
100
AcDbEntity
  8
0
  6
Continuous
370
    15
100
AcDbPolyline
 90
        5
 70
   128
 43
0.0
 10
273.628173197
 20
99.078118633
 10
273.6371213443
 20
99.0816103364
 10
273.6546600111
 20
99.0911887026
 10
273.6642936118
 20
99.1014908637
 10
273.6656160898
 20
99.1120849894
  0
LINE
  5
B5
330
1F
100
AcDbEntity
  8
0
  6
Continuous
370
    15
100
AcDbLine
 10
273.6656160898
 20
100.0780271666
 30
0.0
 11
273.6661115534
 21
100.074394573
 31
0.0
  0
ELLIPSE
  5
B6
330
1F
100
AcDbEntity
  8
0
  6
Continuous
370
    15
100
AcDbEllipse
 10
272.8339676432
 20
103.2898836537
 30
0.0
 11
1.199986883789279
 21
-0.02168426432844228
 31
0.0
210
0.0
220
0.0
230
1.0
 40
0.258740214
 41
3.669866938884369
 42
4.71706449008081
  0
LINE
  5
B7
330
1F
100
AcDbEntity
  8
0
  6
Continuous
370
    15
100
AcDbLine
 10
273.7785296388
 20
102.7735328912
 30
0.0
 11
273.7785296388
 21
101.7043287461
 31
0.0
  0
LINE
  5
B8
330
1F
100
AcDbEntity
  8
0
  6
Continuous
370
    15
100
AcDbLine
 10
273.7785296388
 20
101.7043287461
 30
0.0
 11
273.7785296388
 21
101.031399227
 31
0.0
  0
ARC
  5
B9
330
1F
100
AcDbEntity
  8
0
  6
Continuous
370
    15
100
AcDbCircle
 10
272.8844605449
 20
98.1210707608
 30
0.0
 40
0.6173346867657764
100
AcDbArc
 50
258.8691790232
 51
270.6378681392
  0
LINE
  5
BA
330
1F
100
AcDbEntity
  8
0
  6
Continuous
370
    15
100
AcDbLine
 10
273.4661081679
 20
97.5037743303
 30
0.0
 11
272.8913331277
 21
97.5037743303
 31
0.0
  0
LWPOLYLINE
  5
BB
330
1F
100
AcDbEntity
  8
0
  6
Continuous
370
    15
100
AcDbPolyline
 90
        9
 70
   128
 43
0.0
 10
273.6656160898
 20
97.4483779553
 10
273.6642936118
 20
97.458972081
 10
273.6546600111
 20
97.4692742422
 10
273.6371213443
 20
97.4788526084
 10
273.6124077685
 20
97.4873054195
 10
273.5815660901
 20
97.4942782806
 10
273.5458778091
 20
97.4994788656
 10
273.5068479426
 20
97.5026890899
 10
273.4661081679
 20
97.5037743303
  0
LWPOLYLINE
  5
BC
330
1F
100
AcDbEntity
  8
0
  6
Continuous
370
    15
100
AcDbPolyline
 90
        9
 70
   128
 43
0.0
 10
273.4281698115
 20
97.3743647866
 10
273.4691778071
 20
97.3732650232
 10
273.5084460921
 20
97.3700124355
 10
273.544298286
 20
97.3647452018
 10
273.5752181954
 20
97.3576871919
 10
273.5998907931
 20
97.3491382644
 10
273.617265547
 20
97.3394616728
 10
273.6266048498
 20
97.3290686983
 10
273.628173197
 20
97.3226010052
  0
LINE
  5
BD
330
1F
100
AcDbEntity
  8
0
  6
Continuous
370
    15
100
AcDbLine
 10
273.4281698115
 20
97.3743647866
 30
0.0
 11
272.8573659308
 21
97.3743647866
 31
0.0
  0
ARC
  5
BE
330
1F
100
AcDbEntity
  8
0
  6
Continuous
370
    15
100
AcDbCircle
 10
272.8538526015
 20
98.0440545185
 30
0.0
 40
0.6696989477450965
100
AcDbArc
 50
261.0662977837
 51
270.3005826162001
  0
ARC
  5
BF
330
1F
100
AcDbEntity
  8
0
  6
Continuous
370
    15
100
AcDbCircle
 10
272.8875421382
 20
99.1322463361
 30
0.0
 40
0.6625406745025273
100
AcDbArc
 50
260.5294795002998
 51
270.3278423379
  0
LWPOLYLINE
  5
C0
330
1F
100
AcDbEntity
  8
0
  6
Continuous
370
    15
100
AcDbPolyline
 90
        9
 70
   128
 43
0.0
 10
273.4661081679
 20
98.4697165075
 10
273.5068479426
 20
98.4686312671
 10
273.5458778091
 20
98.4654210428
 10
273.5815660901
 20
98.4602204579
 10
273.6124077685
 20
98.4532475967
 10
273.6371213443
 20
98.4447947856
 10
273.6546600111
 20
98.4352164194
 10
273.6642936118
 20
98.4249142582
 10
273.6661115534
 20
98.4179527262
  0
LINE
  5
C1
330
1F
100
AcDbEntity
  8
0
  6
Continuous
370
    15
100
AcDbLine
 10
273.4661081679
 20
98.4697165075
 30
0.0
 11
272.8913331277
 21
98.4697165075
 31
0.0
  0
LINE
  5
C2
330
1F
100
AcDbEntity
  8
0
  6
Continuous
370
    15
100
AcDbLine
 10
183.978529448
 20
124.0704486047
 30
0.0
 11
183.9787455149
 21
124.1061790229
 31
0.0
  0
LWPOLYLINE
  5
C3
330
1F
100
AcDbEntity
  8
0
  6
Continuous
370
    15
100
AcDbPolyline
 90
       89
 70
   128
 43
0.0
 10
194.0549628682
 20
116.4783443646
 10
193.9853595443
 20
116.5022819641
 10
192.7172558255
 20
116.9639497179
 10
191.5426568933
 20
117.4419019235
 10
190.4646808155
 20
117.9348697252
 10
189.4861848898
 20
118.4415471466
 10
188.6097619183
 20
118.960589162
 10
187.8377364822
 20
119.4906208564
 10
187.1721612163
 20
120.0302357378
 10
186.6147944577
 20
120.578002969
 10
186.1671151466
 20
121.1324702598
 10
185.8303153761
 20
121.6921670006
 10
185.6052854903
 20
122.2556090231
 10
185.4926178105
 20
122.8213022762
 10
185.4926178105
 20
123.3877465623
 10
185.6052854903
 20
123.9534398154
 10
185.8303153761
 20
124.5168818379
 10
186.1671151466
 20
125.0765785787
 10
186.6147944577
 20
125.6310458694
 10
187.1721612163
 20
126.1788131007
 10
187.8377364822
 20
126.7184279821
 10
188.6097619183
 20
127.2484596765
 10
189.4861848898
 20
127.7675016919
 10
190.4646808155
 20
128.2741791133
 10
191.5426568933
 20
128.767146915
 10
192.7172558255
 20
129.2450991206
 10
193.9853595443
 20
129.7067668744
 10
195.343611563
 20
130.1509271189
 10
196.7884002127
 20
130.576401631
 10
198.3159033455
 20
130.9820618427
 10
199.9220641203
 20
131.3668326975
 10
201.602626393
 20
131.7296926509
 10
203.3531328536
 20
132.0696804195
 10
205.1689417906
 20
132.3858944985
 10
207.0452364035
 20
132.6774960547
 10
208.9770434297
 20
132.9437118191
 10
210.9592387326
 20
133.1838360145
 10
212.9865659274
 20
133.3972313208
 10
215.0536484889
 20
133.5833317664
 10
217.1550065152
 20
133.7416446575
 10
219.2850660406
 20
133.8717505774
 10
221.438179525
 20
133.973303387
 10
223.6086370297
 20
134.0460331169
 10
225.7906820498
 20
134.0897488603
 10
227.9785292096
 20
134.1043339518
 10
230.1663763694
 20
134.0897488603
 10
232.3484213896
 20
134.0460331169
 10
234.5188788943
 20
133.973303387
 10
236.6719923787
 20
133.8717505774
 10
238.802051904
 20
133.7416446575
 10
240.9034099303
 20
133.5833317664
 10
242.9704924918
 20
133.3972313208
 10
244.9978196867
 20
133.1838360145
 10
246.9800149895
 20
132.9437118191
 10
248.9118220158
 20
132.6774960547
 10
250.7881166287
 20
132.3858944985
 10
252.6039255656
 20
132.0696804195
 10
254.3544320263
 20
131.7296926509
 10
256.0349942989
 20
131.3668326975
 10
257.6411550738
 20
130.9820618427
 10
259.1686582066
 20
130.576401631
 10
260.6134468563
 20
130.1509271189
 10
261.971698875
 20
129.7067668744
 10
263.2398025937
 20
129.2450991206
 10
264.414401526
 20
128.767146915
 10
265.4923776038
 20
128.2741791133
 10
266.4708735294
 20
127.7675016919
 10
267.3472965009
 20
127.2484596765
 10
268.1193219371
 20
126.7184279821
 10
268.784897203
 20
126.1788131007
 10
269.3422639616
 20
125.6310458694
 10
269.7899432726
 20
125.0765785787
 10
270.1267430432
 20
124.5168818379
 10
270.351772929
 20
123.9534398154
 10
270.4644406087
 20
123.3877465623
 10
270.4644406087
 20
122.8213022762
 10
270.351772929
 20
122.2556090231
 10
270.1267430432
 20
121.6921670006
 10
269.7899432726
 20
121.1324702598
 10
269.3422639616
 20
120.578002969
 10
268.784897203
 20
120.0302357378
 10
268.1193219371
 20
119.4906208564
 10
267.3472965009
 20
118.960589162
 10
266.4708735294
 20
118.4415471466
 10
265.4923776038
 20
117.9348697252
 10
264.414401526
 20
117.4419019235
 10
263.2398025937
 20
116.9639497179
 10
261.971698875
 20
116.5022819641
 10
261.9213664777
 20
116.4849581304
  0
LINE
  5
C4
330
1F
100
AcDbEntity
  8
0
  6
Continuous
370
    15
100
AcDbLine
 10
255.2197443194
 20
125.7077095135
 30
0.0
 11
255.2165908612
 21
126.6545028645
 31
0.0
  0
SPLINE
  5
C5
330
1F
100
AcDbEntity
  8
0
  6
Continuous
370
    15
100
AcDbSpline
210
0.0
220
0.0
230
1.0
 70
     8
 71
     3
 72
    10
 73
     6
 74
     0
 42
0.000000001
 43
0.00000001
 40
0.0
 40
0.0
 40
0.0
 40
0.0
 40
0.0901369700277936
 40
0.4196686525207414
 40
1.0
 40
1.0
 40
1.0
 40
1.0
 10
265.4179090507112
 20
118.875498154054
 30
0.0
 10
265.4099443232165
 20
118.8736414734566
 30
0.0
 10
265.3728613543261
 20
118.8649969556273
 30
0.0
 10
265.2875864621932
 20
118.8974361826256
 30
0.0
 10
265.2252827768099
 20
118.9818084626408
 30
0.0
 10
265.1855440683446
 20
119.0356230230067
 30
0.0
  0
SPLINE
  5
C6
330
1F
100
AcDbEntity
  8
0
  6
Continuous
370
    15
100
AcDbSpline
210
0.0
220
0.0
230
1.0
 70
     8
 71
     3
 72
    12
 73
     8
 74
     0
 42
0.000000001
 43
0.00000001
 40
0.0
 40
0.0
 40
0.0
 40
0.0
 40
0.5
 40
0.5
 40
0.75
 40
0.75
 40
1.0
 40
1.0
 40
1.0
 40
1.0
 10
265.6307764711486
 20
119.9508442139986
 30
0.0
 10
265.6329134201449
 20
119.7563639708887
 30
0.0
 10
265.6257762163526
 20
119.5583339487864
 30
0.0
 10
265.5843652316566
 20
119.2602182891847
 30
0.0
 10
265.5652742292579
 20
119.1609816847646
 30
0.0
 10
265.5071763970244
 20
118.983521824894
 30
0.0
 10
265.465619312852
 20
118.9067872527537
 30
0.0
 10
265.4179103492973
 20
118.8754997467304
 30
0.0
  0
LINE
  5
C7
330
1F
100
AcDbEntity
  8
0
  6
Continuous
370
    15
100
AcDbLine
 10
265.6307758637
 20
119.9508448104
 30
0.0
 11
265.5461521692
 21
127.6383556162
 31
0.0
  0
SPLINE
  5
C8
330
1F
100
AcDbEntity
  8
0
  6
Continuous
370
    15
100
AcDbSpline
210
0.0
220
0.0
230
1.0
 70
     8
 71
     3
 72
     9
 73
     5
 74
     0
 42
0.000000001
 43
0.00000001
 40
0.0
 40
0.0
 40
0.0
 40
0.0
 40
0.2684085711914274
 40
1.0
 40
1.0
 40
1.0
 40
1.0
 10
270.2508734412274
 20
122.9792417314604
 30
0.0
 10
270.2491620466717
 20
122.9767120184681
 30
0.0
 10
270.2427859665484
 20
122.9672871592653
 30
0.0
 10
270.2363683605622
 20
122.9794420498352
 30
0.0
 10
270.2316732950292
 20
122.9883344635943
 30
0.0
  0
SPLINE
  5
C9
330
1F
100
AcDbEntity
  8
0
  6
Continuous
370
    15
100
AcDbSpline
210
0.0
220
0.0
230
1.0
 70
     8
 71
     3
 72
    12
 73
     8
 74
     0
 42
0.000000001
 43
0.00000001
 40
0.0
 40
0.0
 40
0.0
 40
0.0
 40
0.5000000000000002
 40
0.5000000000000002
 40
0.7500000000000001
 40
0.7500000000000001
 40
1.0
 40
1.0
 40
1.0
 40
1.0
 10
270.2792808801989
 20
124.0670092092413
 30
0.0
 10
270.2825821296366
 20
123.8728089371436
 30
0.0
 10
270.2841407947784
 20
123.6744917189908
 30
0.0
 10
270.2802064103892
 20
123.3740415750868
 30
0.0
 10
270.2778125391961
 20
123.273698879766
 30
0.0
 10
270.2683899518315
 20
123.0927629127909
 30
0.0
 10
270.2607822016665
 20
123.0134972214581
 30
0.0
 10
270.2508720220785
 20
122.9792433489041
 30
0.0
  0
LINE
  5
CA
330
1F
100
AcDbEntity
  8
0
  6
Continuous
370
    15
100
AcDbLine
 10
186.9832480199
 20
123.9096566956
 30
0.0
 11
187.0036179073
 21
126.0236036996
 31
0.0
  0
SPLINE
  5
CB
330
1F
100
AcDbEntity
  8
0
  6
Continuous
370
    15
100
AcDbSpline
210
0.0
220
0.0
230
1.0
 70
     8
 71
     3
 72
    18
 73
    14
 74
     0
 42
0.000000001
 43
0.00000001
 40
0.0
 40
0.0
 40
0.0
 40
0.0
 40
0.0624999999999988
 40
0.0624999999999988
 40
0.1249999999999976
 40
0.1249999999999976
 40
0.2499999999999999
 40
0.2499999999999999
 40
0.4999999999999999
 40
0.4999999999999999
 40
0.7499999999999999
 40
0.7499999999999999
 40
1.0
 40
1.0
 40
1.0
 40
1.0
 10
187.3145592909806
 20
120.8896221536289
 30
0.0
 10
187.2951370895828
 20
120.9137172592414
 30
0.0
 10
187.2774204681311
 20
120.9584318048602
 30
0.0
 10
187.2462834666833
 20
121.0580982072785
 30
0.0
 10
187.2326191441315
 20
121.1135331774795
 30
0.0
 10
187.1944568680928
 20
121.2880558145682
 30
0.0
 10
187.1735560173197
 20
121.4115602767536
 30
0.0
 10
187.1168175909119
 20
121.7880145487427
 30
0.0
 10
187.0868686406972
 20
122.0509978337795
 30
0.0
 10
187.0370826273187
 20
122.5775851353182
 30
0.0
 10
187.0173714648535
 20
122.8425260881419
 30
0.0
 10
186.9893826423471
 20
123.376273125997
 30
0.0
 10
186.9807905442821
 20
123.6467578241365
 30
0.0
 10
186.98324977783
 20
123.9096574924585
 30
0.0
  0
SPLINE
  5
CC
330
1F
100
AcDbEntity
  8
0
  6
Continuous
370
    15
100
AcDbSpline
210
0.0
220
0.0
230
1.0
 70
     8
 71
     3
 72
    10
 73
     6
 74
     0
 42
0.000000001
 43
0.00000001
 40
0.0
 40
0.0
 40
0.0
 40
0.0
 40
0.2064178824435946
 40
0.6170024323390989
 40
1.0
 40
1.0
 40
1.0
 40
1.0
 10
187.3758004851422
 20
120.9650861957142
 30
0.0
 10
187.3727825121958
 20
120.9536416770555
 30
0.0
 10
187.3637615076848
 20
120.9194329361955
 30
0.0
 10
187.3424188607997
 20
120.8884994599408
 30
0.0
 10
187.3236288489596
 20
120.889257444062
 30
0.0
 10
187.3145604379258
 20
120.8896232613711
 30
0.0
  0
LINE
  5
CD
330
1F
100
AcDbEntity
  8
0
  6
Continuous
370
    15
100
AcDbLine
 10
194.2989135034
 20
119.5899255126
 30
0.0
 11
194.2573988683
 21
129.4146179983
 31
0.0
  0
SPLINE
  5
CE
330
1F
100
AcDbEntity
  8
0
  6
Continuous
370
    15
100
AcDbSpline
210
0.0
220
0.0
230
1.0
 70
     8
 71
     3
 72
    11
 73
     7
 74
     0
 42
0.000000001
 43
0.00000001
 40
0.0
 40
0.0
 40
0.0
 40
0.0
 40
0.3479970418667965
 40
0.6267624931862972
 40
0.904848959137554
 40
1.0
 40
1.0
 40
1.0
 40
1.0
 10
194.7768980510316
 20
117.5384583493836
 30
0.0
 10
194.6839831556044
 20
117.7609059668975
 30
0.0
 10
194.5166381368086
 20
118.1615467959358
 30
0.0
 10
194.3725474840614
 20
118.7963031901065
 30
0.0
 10
194.3070994535053
 20
119.2613049610386
 30
0.0
 10
194.3005764426051
 20
119.5231677157192
 30
0.0
 10
194.2989135034165
 20
119.5899255126075
 30
0.0
  0
SPLINE
  5
CF
330
1F
100
AcDbEntity
  8
0
  6
Continuous
370
    15
100
AcDbSpline
210
0.0
220
0.0
230
1.0
 70
     8
 71
     3
 72
    11
 73
     7
 74
     0
 42
0.000000001
 43
0.00000001
 40
0.0
 40
0.0
 40
0.0
 40
0.0
 40
0.26439392708751
 40
0.541107016603128
 40
0.8172040418200512
 40
1.0
 40
1.0
 40
1.0
 40
1.0
 10
236.6493798665485
 20
168.6600081891596
 30
0.0
 10
236.6168123487029
 20
168.0599755119351
 30
0.0
 10
236.5501598630964
 20
166.8319522535571
 30
0.0
 10
236.3613428142999
 20
165.2116958101268
 30
0.0
 10
236.1371614774122
 20
163.9197461642085
 30
0.0
 10
235.9299743153915
 20
163.3019707370428
 30
0.0
 10
235.8474431432567
 20
163.0558853636887
 30
0.0
  0
SPLINE
  5
D0
330
1F
100
AcDbEntity
  8
0
  6
Continuous
370
    15
100
AcDbSpline
210
0.0
220
0.0
230
1.0
 70
     8
 71
     3
 72
     8
 73
     4
 74
     0
 42
0.000000001
 43
0.00000001
 40
0.0
 40
0.0
 40
0.0
 40
0.0
 40
1.0
 40
1.0
 40
1.0
 40
1.0
 10
236.6545566508453
 20
168.74176434565
 30
0.0
 10
236.9946899994442
 20
167.5756855073247
 30
0.0
 10
237.1918045076186
 20
166.4005888929524
 30
0.0
 10
237.2468340003548
 20
165.2126042631411
 30
0.0
  0
LINE
  5
D1
330
1F
100
AcDbEntity
  8
0
  6
Continuous
370
    15
100
AcDbLine
 10
237.2468335427
 20
165.2126042762
 30
0.0
 11
237.2076015793
 21
162.9877167191
 31
0.0
  0
SPLINE
  5
D2
330
1F
100
AcDbEntity
  8
0
  6
Continuous
370
    15
100
AcDbSpline
210
0.0
220
0.0
230
1.0
 70
     8
 71
     3
 72
    11
 73
     7
 74
     0
 42
0.000000001
 43
0.00000001
 40
0.0
 40
0.0
 40
0.0
 40
0.0
 40
0.2589811584070584
 40
0.5370259276235194
 40
0.8144513831148142
 40
1.0
 40
1.0
 40
1.0
 40
1.0
 10
223.1967200398228
 20
168.8157151636403
 30
0.0
 10
223.1221670100576
 20
168.2254579713912
 30
0.0
 10
222.9675730997781
 20
167.001494737333
 30
0.0
 10
222.4898576457009
 20
165.3607596245725
 30
0.0
 10
221.922324275403
 20
164.024911564643
 30
0.0
 10
221.4380509894824
 20
163.3691419417853
 30
0.0
 10
221.2439661718688
 20
163.1063256119378
 30
0.0
  0
LINE
  5
D3
330
1F
100
AcDbEntity
  8
0
  6
Continuous
370
    15
100
AcDbLine
 10
223.3395043634
 20
163.1782211909
 30
0.0
 11
223.3903969511
 21
168.7662093207
 31
0.0
  0
SPLINE
  5
D4
330
1F
100
AcDbEntity
  8
0
  6
Continuous
370
    15
100
AcDbSpline
210
0.0
220
0.0
230
1.0
 70
     8
 71
     3
 72
     8
 73
     4
 74
     0
 42
0.000000001
 43
0.00000001
 40
0.0
 40
0.0
 40
0.0
 40
0.0
 40
1.0
 40
1.0
 40
1.0
 40
1.0
 10
246.2381238656033
 20
167.6755617710934
 30
0.0
 10
245.8684838988417
 20
166.5226356299677
 30
0.0
 10
245.3576426343298
 20
165.3736955054055
 30
0.0
 10
244.7073638099835
 20
164.2245549202854
 30
0.0
  0
SPLINE
  5
D5
330
1F
100
AcDbEntity
  8
0
  6
Continuous
370
    15
100
AcDbSpline
210
0.0
220
0.0
230
1.0
 70
     8
 71
     3
 72
    11
 73
     7
 74
     0
 42
0.000000001
 43
0.00000001
 40
0.0
 40
0.0
 40
0.0
 40
0.0
 40
0.2815670238949933
 40
0.5714530767547353
 40
0.8530009426620252
 40
1.0
 40
1.0
 40
1.0
 40
1.0
 10
246.2381234265647
 20
167.6755616311075
 30
0.0
 10
246.2712541350181
 20
167.0546137770246
 30
0.0
 10
246.338494414149
 20
165.7943718750744
 30
0.0
 10
246.5069850083027
 20
164.1432468411867
 30
0.0
 10
246.6712510160786
 20
162.8931835014712
 30
0.0
 10
246.7650982610827
 20
162.3243328541807
 30
0.0
 10
246.7972895003638
 20
162.1292071762629
 30
0.0
  0
LINE
  5
D6
330
1F
100
AcDbEntity
  8
0
  6
Continuous
370
    15
100
AcDbLine
 10
244.70736439
 20
164.2245547166
 30
0.0
 11
244.7236439086
 21
162.3704432722
 31
0.0
  0
SPLINE
  5
D7
330
1F
100
AcDbEntity
  8
0
  6
Continuous
370
    15
100
AcDbSpline
210
0.0
220
0.0
230
1.0
 70
     8
 71
     3
 72
    11
 73
     7
 74
     0
 42
0.000000001
 43
0.00000001
 40
0.0
 40
0.0
 40
0.0
 40
0.0
 40
0.2591010587631702
 40
0.5375482768942709
 40
0.8157429964720443
 40
0.9999999999999999
 40
0.9999999999999999
 40
0.9999999999999999
 40
0.9999999999999999
 10
233.6428331084333
 20
168.7791532580138
 30
0.0
 10
233.6321112860511
 20
168.1949440708365
 30
0.0
 10
233.609867080743
 20
166.9829048633859
 30
0.0
 10
233.474572530802
 20
165.3628576995736
 30
0.0
 10
233.2883175677611
 20
164.051392208797
 30
0.0
 10
233.0929003513603
 20
163.4203252160144
 30
0.0
 10
233.0150392710946
 20
163.1688859688329
 30
0.0
  0
SPLINE
  5
D8
330
1F
100
AcDbEntity
  8
0
  6
Continuous
370
    15
100
AcDbSpline
210
0.0
220
0.0
230
1.0
 70
     8
 71
     3
 72
    11
 73
     7
 74
     0
 42
0.000000001
 43
0.00000001
 40
0.0
 40
0.0
 40
0.0
 40
0.0
 40
0.2874441134131637
 40
0.57494920952524
 40
0.8618138707004778
 40
1.0
 40
1.0
 40
1.0
 40
1.0
 10
210.502255509027
 20
167.7983219755942
 30
0.0
 10
210.3893956548148
 20
167.1542500213653
 30
0.0
 10
210.1636520026108
 20
165.8659694698376
 30
0.0
 10
209.4523489528728
 20
164.1263544228823
 30
0.0
 10
208.6944786203192
 20
162.8092973335321
 30
0.0
 10
208.0884652394954
 20
162.1700189300441
 30
0.0
 10
207.8914472706399
 20
161.9621863366165
 30
0.0
  0
SPLINE
  5
D9
330
1F
100
AcDbEntity
  8
0
  6
Continuous
370
    15
100
AcDbSpline
210
0.0
220
0.0
230
1.0
 70
     8
 71
     3
 72
     8
 73
     4
 74
     0
 42
0.000000001
 43
0.00000001
 40
0.0
 40
0.0
 40
0.0
 40
0.0
 40
1.0
 40
1.0
 40
1.0
 40
1.0
 10
210.502255401268
 20
167.7983219771261
 30
0.0
 10
212.1677004438504
 20
166.8472538951706
 30
0.0
 10
213.7404194843553
 20
165.8618946910252
 30
0.0
 10
215.2199662374201
 20
164.838426392646
 30
0.0
  0
LINE
  5
DA
330
1F
100
AcDbEntity
  8
0
  6
Continuous
370
    15
100
AcDbLine
 10
215.219965937
 20
164.8384263418
 30
0.0
 11
215.2132762469
 21
162.7440615299
 31
0.0
  0
SPLINE
  5
DB
330
1F
100
AcDbEntity
  8
0
  6
Continuous
370
    15
100
AcDbSpline
210
0.0
220
0.0
230
1.0
 70
     8
 71
     3
 72
    11
 73
     7
 74
     0
 42
0.000000001
 43
0.00000001
 40
0.0
 40
0.0
 40
0.0
 40
0.0
 40
0.2751701180100269
 40
0.5503558830460911
 40
0.8252922047692285
 40
1.0
 40
1.0
 40
1.0
 40
1.0
 10
220.19178027881
 20
168.7983171946612
 30
0.0
 10
220.1368930693146
 20
168.166672771232
 30
0.0
 10
220.0271155292668
 20
166.9033480071134
 30
0.0
 10
219.6040162224792
 20
165.214602578991
 30
0.0
 10
219.0914826708589
 20
163.8796112471116
 30
0.0
 10
218.6347077017183
 20
163.2247355854184
 30
0.0
 10
218.4572292364917
 20
162.9702857245377
 30
0.0
  0
ARC
  5
DC
330
1F
100
AcDbEntity
  8
0
  6
Continuous
370
    15
100
AcDbCircle
 10
233.8240105859
 20
90.5677728176
 30
0.0
 40
78.10071250209407
100
AcDbArc
 50
78.965569033
 51
80.8540408591
  0
SPLINE
  5
DD
330
1F
100
AcDbEntity
  8
0
  6
Continuous
370
    15
100
AcDbSpline
210
0.0
220
0.0
230
1.0
 70
     8
 71
     3
 72
    11
 73
     7
 74
     0
 42
0.000000001
 43
0.00000001
 40
0.0
 40
0.0
 40
0.0
 40
0.0
 40
0.2903249364011188
 40
0.5807114567488778
 40
0.8704510977952862
 40
1.0
 40
1.0
 40
1.0
 40
1.0
 10
248.7723974384151
 20
167.2245861079844
 30
0.0
 10
248.7891821650257
 20
166.5970828469427
 30
0.0
 10
248.822755178636
 20
165.3419432183895
 30
0.0
 10
248.9565025596154
 20
163.7029027270001
 30
0.0
 10
249.0958836869108
 20
162.5071751417422
 30
0.0
 10
249.1822766808905
 20
161.9693699790959
 30
0.0
 10
249.2089697964273
 20
161.8032026236021
 30
0.0
  0
SPLINE
  5
DE
330
1F
100
AcDbEntity
  8
0
  6
Continuous
370
    15
100
AcDbSpline
210
0.0
220
0.0
230
1.0
 70
     8
 71
     3
 72
     8
 73
     4
 74
     0
 42
0.000000001
 43
0.00000001
 40
0.0
 40
0.0
 40
0.0
 40
0.0
 40
1.0
 40
1.0
 40
1.0
 40
1.0
 10
256.0499974447213
 20
165.2903316757645
 30
0.0
 10
254.9561584312208
 20
164.2127488116926
 30
0.0
 10
253.7470557623271
 20
163.1523553721456
 30
0.0
 10
252.4247630165387
 20
162.1047673260928
 30
0.0
  0
SPLINE
  5
DF
330
1F
100
AcDbEntity
  8
0
  6
Continuous
370
    15
100
AcDbSpline
210
0.0
220
0.0
230
1.0
 70
     8
 71
     3
 72
    10
 73
     6
 74
     0
 42
0.000000001
 43
0.00000001
 40
0.0
 40
0.0
 40
0.0
 40
0.0
 40
0.3363750667635525
 40
0.6727695953795377
 40
0.9999999999999999
 40
0.9999999999999999
 40
0.9999999999999999
 40
0.9999999999999999
 10
256.0499979056201
 20
165.2903317485691
 30
0.0
 10
256.1246958101819
 20
164.6569641602206
 30
0.0
 10
256.2740959411468
 20
163.3901923383982
 30
0.0
 10
256.7102411456806
 20
161.6880580625427
 30
0.0
 10
257.1079692044278
 20
160.7468521448299
 30
0.0
 10
257.3040870822749
 20
160.2827478325005
 30
0.0
  0
LINE
  5
E0
330
1F
100
AcDbEntity
  8
0
  6
Continuous
370
    15
100
AcDbLine
 10
252.4247633166
 20
162.1047673292
 30
0.0
 11
252.4224554993
 21
161.2874716729
 31
0.0
  0
ARC
  5
E1
330
1F
100
AcDbEntity
  8
0
  6
Continuous
370
    15
100
AcDbCircle
 10
227.9761041399
 20
37.5919864579
 30
0.0
 40
131.2543540385681
100
AcDbArc
 50
87.4954998656
 51
92.0021823366
  0
ARC
  5
E2
330
1F
100
AcDbEntity
  8
0
  6
Continuous
370
    15
100
AcDbCircle
 10
222.7909001075
 20
86.7632694451
 30
0.0
 40
81.9615185601188
100
AcDbArc
 50
98.62297895050001
 51
100.45163694
  0
SPLINE
  5
E3
330
1F
100
AcDbEntity
  8
0
  6
Continuous
370
    15
100
AcDbSpline
210
0.0
220
0.0
230
1.0
 70
     8
 71
     3
 72
    11
 73
     7
 74
     0
 42
0.000000001
 43
0.00000001
 40
0.0
 40
0.0
 40
0.0
 40
0.0
 40
0.2946098072598656
 40
0.589236659934688
 40
0.8835962600659645
 40
1.0
 40
1.0
 40
1.0
 40
1.0
 10
207.9226298130832
 20
167.3649137406083
 30
0.0
 10
207.8328119595898
 20
166.7255560418361
 30
0.0
 10
207.653171055958
 20
165.4468036525927
 30
0.0
 10
207.0049683811644
 20
163.7068502678333
 30
0.0
 10
206.3242547088561
 20
162.4224108737789
 30
0.0
 10
205.7730434560469
 20
161.8104333550343
 30
0.0
 10
205.6168390311084
 20
161.637008745316
 30
0.0
  0
ARC
  5
E4
330
1F
100
AcDbEntity
  8
0
  6
Continuous
370
    15
100
AcDbCircle
 10
226.7021650254
 20
74.2493019013
 30
0.0
 40
91.31391111326253
100
AcDbArc
 50
94.4788886964
 51
97.2237371864
  0
ARC
  5
E5
330
1F
100
AcDbEntity
  8
0
  6
Continuous
370
    15
100
AcDbCircle
 10
230.4633983588
 20
85.3320882582
 30
0.0
 40
80.16802250393187
100
AcDbArc
 50
79.7655538775
 51
85.14610088129999
  0
ARC
  5
E6
330
1F
100
AcDbEntity
  8
0
  6
Continuous
370
    15
100
AcDbCircle
 10
225.2178725904
 20
70.4780400252
 30
0.0
 40
98.42655467401843
100
AcDbArc
 50
95.97514524739996
 51
98.5984506982
  0
ARC
  5
E7
330
1F
100
AcDbEntity
  8
0
  6
Continuous
370
    15
100
AcDbCircle
 10
217.1765959103
 20
114.8807887641
 30
0.0
 40
53.29370753738474
100
AcDbArc
 50
99.9995752301
 51
108.2926725651
  0
ARC
  5
E8
330
1F
100
AcDbEntity
  8
0
  6
Continuous
370
    15
100
AcDbCircle
 10
209.9818679906
 20
137.5157527726
 30
0.0
 40
29.54563475540529
100
AcDbArc
 50
108.8226962923
 51
112.4337582413
  0
ARC
  5
E9
330
1F
100
AcDbEntity
  8
0
  6
Continuous
370
    15
100
AcDbCircle
 10
203.2074017201
 20
152.6897277672
 30
0.0
 40
12.94334605853442
100
AcDbArc
 50
110.347603266
 51
131.7579919327
  0
ARC
  5
EA
330
1F
100
AcDbEntity
  8
0
  6
Continuous
370
    15
100
AcDbCircle
 10
197.8753924891
 20
158.9899370313
 30
0.0
 40
4.69764939448106
100
AcDbArc
 50
134.4222201773
 51
146.7382205096
  0
ARC
  5
EB
330
1F
100
AcDbEntity
  8
0
  6
Continuous
370
    15
100
AcDbCircle
 10
196.6535518102
 20
159.8079100399
 30
0.0
 40
3.227378646508026
100
AcDbArc
 50
146.9837502512
 51
158.0768006569
  0
ELLIPSE
  5
EC
330
1F
100
AcDbEntity
  8
0
  6
Continuous
370
    15
100
AcDbEllipse
 10
227.9785292096
 20
-520.0748434855
 30
0.0
 11
-8.89176537252437
 21
1917.779445769895
 31
0.0
210
0.0
220
0.0
230
1.0
 40
0.0173817748
 41
1.206835364865443
 42
1.207647702696097
  0
ARC
  5
ED
330
1F
100
AcDbEntity
  8
0
  6
Continuous
370
    15
100
AcDbCircle
 10
200.1564613859
 20
158.62551216
 30
0.0
 40
7.546171465289808
100
AcDbArc
 50
114.5633034236
 51
149.3808277072
  0
ARC
  5
EE
330
1F
100
AcDbEntity
  8
0
  6
Continuous
370
    15
100
AcDbCircle
 10
258.5621723038
 20
159.3584604325
 30
0.0
 40
4.093256200030083
100
AcDbArc
 50
28.8279282582
 51
42.32969795
  0
ARC
  5
EF
330
1F
100
AcDbEntity
  8
0
  6
Continuous
370
    15
100
AcDbCircle
 10
253.5835788042
 20
154.0126865728
 30
0.0
 40
11.38945036427995
100
AcDbArc
 50
45.3467929652
 51
68.6797611549
  0
ARC
  5
F0
330
1F
100
AcDbEntity
  8
0
  6
Continuous
370
    15
100
AcDbCircle
 10
246.9588076886
 20
140.0547255116
 30
0.0
 40
26.82322802557259
100
AcDbArc
 50
66.33681985369999
 51
70.1883173625
  0
ARC
  5
F1
330
1F
100
AcDbEntity
  8
0
  6
Continuous
370
    15
100
AcDbCircle
 10
239.6819405171
 20
118.3638365789
 30
0.0
 40
49.69918763506778
100
AcDbArc
 50
70.7711239356
 51
79.4607200275
  0
ARC
  5
F2
330
1F
100
AcDbEntity
  8
0
  6
Continuous
370
    15
100
AcDbCircle
 10
230.9673102837
 20
72.3562585536
 30
0.0
 40
96.5347982503322
100
AcDbArc
 50
80.89816304679998
 51
84.0434725001
  0
ELLIPSE
  5
F3
330
1F
100
AcDbEntity
  8
0
  6
Continuous
370
    15
100
AcDbEllipse
 10
227.9785292096
 20
-520.0748434855
 30
0.0
 11
8.89176537252437
 21
1917.779445769894
 31
0.0
210
0.0
220
0.0
230
1.0
 40
0.0173817748
 41
5.075537604483591
 42
5.076349942314248
  0
ARC
  5
F4
330
1F
100
AcDbEntity
  8
0
  6
Continuous
370
    15
100
AcDbCircle
 10
259.468062913
 20
159.8839112473
 30
0.0
 40
3.046359624359563
100
AcDbArc
 50
21.7526883906
 51
28.3853805255
  0
ARC
  5
F5
330
1F
100
AcDbEntity
  8
0
  6
Continuous
370
    15
100
AcDbCircle
 10
256.2826160653
 20
159.1683899304
 30
0.0
 40
6.858439431851462
100
AcDbArc
 50
28.7669332676
 51
67.50657357609998
  0
SPLINE
  5
F6
330
1F
100
AcDbEntity
  8
0
  6
Continuous
370
    15
100
AcDbSpline
210
0.0
220
0.0
230
1.0
 70
     8
 71
     3
 72
    10
 73
     6
 74
     0
 42
0.000000001
 43
0.00000001
 40
0.0
 40
0.0
 40
0.0
 40
0.0
 40
0.3408267756718647
 40
0.6817258477789813
 40
1.0
 40
1.0
 40
1.0
 40
1.0
 10
200.4492448515973
 20
165.4813321370486
 30
0.0
 10
200.3182460854523
 20
164.8262283536939
 30
0.0
 10
200.0562207656041
 20
163.5158818258711
 30
0.0
 10
199.2762636366243
 20
161.7151599603187
 30
0.0
 10
198.5290511284441
 20
160.6694902373605
 30
0.0
 10
198.1682682283006
 20
160.1646007298764
 30
0.0
  0
SPLINE
  5
F7
330
1F
100
AcDbEntity
  8
0
  6
Continuous
370
    15
100
AcDbSpline
210
0.0
220
0.0
230
1.0
 70
     8
 71
     3
 72
     8
 73
     4
 74
     0
 42
0.000000001
 43
0.00000001
 40
0.0
 40
0.0
 40
0.0
 40
0.0
 40
1.0
 40
1.0
 40
1.0
 40
1.0
 10
200.4492448716359
 20
165.4813319266261
 30
0.0
 10
200.4548559036813
 20
165.4791832709485
 30
0.0
 10
200.4604665870021
 20
165.4770342859024
 30
0.0
 10
200.4660769216004
 20
165.4748849714259
 30
0.0
  0
SPLINE
  5
F8
330
1F
100
AcDbEntity
  8
0
  6
Continuous
370
    15
100
AcDbSpline
210
0.0
220
0.0
230
1.0
 70
     8
 71
     3
 72
     9
 73
     5
 74
     0
 42
0.000000001
 43
0.00000001
 40
0.0
 40
0.0
 40
0.0
 40
0.0
 40
0.5602612433859367
 40
1.0
 40
1.0
 40
1.0
 40
1.0
 10
200.4660775758109
 20
165.47488513318
 30
0.0
 10
201.4469607243394
 20
164.7738913497684
 30
0.0
 10
203.1977210350124
 20
163.5227004246649
 30
0.0
 10
204.8822227282573
 20
162.2096808545739
 30
0.0
 10
205.6229634083591
 20
161.6322952614122
 30
0.0
  0
SPLINE
  5
F9
330
1F
100
AcDbEntity
  8
0
  6
Continuous
370
    15
100
AcDbSpline
210
0.0
220
0.0
230
1.0
 70
     8
 71
     3
 72
    10
 73
     6
 74
     0
 42
0.000000001
 43
0.00000001
 40
0.0
 40
0.0
 40
0.0
 40
0.0
 40
0.35489457596457
 40
0.7098644445792999
 40
1.0
 40
1.0
 40
1.0
 40
1.0
 10
257.7245587356172
 20
164.622675489223
 30
0.0
 10
257.7904286761863
 20
163.9931539555893
 30
0.0
 10
257.9221825319602
 20
162.7339773321964
 30
0.0
 10
258.3216945192334
 20
161.135028909074
 30
0.0
 10
258.6863545746245
 20
160.2807613071136
 30
0.0
 10
258.8503600902638
 20
159.8965552596396
 30
0.0
  0
ARC
  5
FA
330
1F
100
AcDbEntity
  8
0
  6
Continuous
370
    15
100
AcDbCircle
 10
241.1935602011
 20
134.3216697156
 30
0.0
 40
29.96732281049472
100
AcDbArc
 50
67.9891810005
 51
74.8080867254
  0
ARC
  5
FB
330
1F
100
AcDbEntity
  8
0
  6
Continuous
370
    15
100
AcDbCircle
 10
217.1878670554
 20
114.8706612332
 30
0.0
 40
53.29545684129182
100
AcDbArc
 50
99.9960882191
 51
108.2857537637
  0
SPLINE
  5
FC
330
1F
100
AcDbEntity
  8
0
  6
Continuous
370
    15
100
AcDbSpline
210
0.0
220
0.0
230
1.0
 70
     8
 71
     3
 72
    10
 73
     6
 74
     0
 42
0.000000001
 43
0.00000001
 40
0.0
 40
0.0
 40
0.0
 40
0.0
 40
0.361082572202896
 40
0.7221858070975261
 40
1.0
 40
1.0
 40
1.0
 40
1.0
 10
198.7068092323623
 20
164.8254137572734
 30
0.0
 10
198.5929023153631
 20
164.1774692657227
 30
0.0
 10
198.3650819631229
 20
162.8815432044617
 30
0.0
 10
197.6890115461207
 20
161.1829331115304
 30
0.0
 10
197.0371805574102
 20
160.2206859519353
 30
0.0
 10
196.7537512875876
 20
159.80228146587
 30
0.0
  0
SPLINE
  5
FD
330
1F
100
AcDbEntity
  8
0
  6
Continuous
370
    15
100
AcDbSpline
210
0.0
220
0.0
230
1.0
 70
     8
 71
     3
 72
     9
 73
     5
 74
     0
 42
0.000000001
 43
0.00000001
 40
0.0
 40
0.0
 40
0.0
 40
0.0
 40
0.7952687671094885
 40
1.0
 40
1.0
 40
1.0
 40
1.0
 10
261.5882435686669
 20
162.1148419408105
 30
0.0
 10
260.8174582471652
 20
161.6811398575736
 30
0.0
 10
259.8482446260855
 20
161.1357870143916
 30
0.0
 10
258.8207903393823
 20
160.6103176436069
 30
0.0
 10
258.6104383565269
 20
160.50273765148
 30
0.0
  0
SPLINE
  5
FE
330
1F
100
AcDbEntity
  8
0
  6
Continuous
370
    15
100
AcDbSpline
210
0.0
220
0.0
230
1.0
 70
     8
 71
     3
 72
     9
 73
     5
 74
     0
 42
0.000000001
 43
0.00000001
 40
0.0
 40
0.0
 40
0.0
 40
0.0
 40
0.556880363939391
 40
1.0
 40
1.0
 40
1.0
 40
1.0
 10
261.5882435686669
 20
162.1148419408105
 30
0.0
 10
261.6858535052522
 20
161.4671615700974
 30
0.0
 10
261.8611334089908
 20
160.3041103787583
 30
0.0
 10
262.2774709253704
 20
159.2733618403915
 30
0.0
 10
262.461958254107
 20
158.8166169232003
 30
0.0
  0
SPLINE
  5
FF
330
1F
100
AcDbEntity
  8
0
  6
Continuous
370
    15
100
AcDbSpline
210
0.0
220
0.0
230
1.0
 70
     8
 71
     3
 72
     9
 73
     5
 74
     0
 42
0.000000001
 43
0.00000001
 40
0.0
 40
0.0
 40
0.0
 40
0.0
 40
0.5543059048009628
 40
1.0
 40
1.0
 40
1.0
 40
1.0
 10
194.5873180277429
 20
162.3450042690411
 30
0.0
 10
194.4678573350519
 20
161.6731877728389
 30
0.0
 10
194.252343317149
 20
160.4611918507615
 30
0.0
 10
193.7388043711299
 20
159.3271558228026
 30
0.0
 10
193.5099230952344
 20
158.8217226613983
 30
0.0
  0
SPLINE
  5
100
330
1F
100
AcDbEntity
  8
0
  6
Continuous
370
    15
100
AcDbSpline
210
0.0
220
0.0
230
1.0
 70
     8
 71
     3
 72
     9
 73
     5
 74
     0
 42
0.000000001
 43
0.00000001
 40
0.0
 40
0.0
 40
0.0
 40
0.0
 40
0.9682281849556439
 40
1.0
 40
1.0
 40
1.0
 40
1.0
 10
194.5873180277429
 20
162.3450042690411
 30
0.0
 10
195.5928681059857
 20
162.0673629094471
 30
0.0
 10
196.6314146943489
 20
161.7806109186374
 30
0.0
 10
197.6785411622102
 20
161.4591322954109
 30
0.0
 10
197.7118102706752
 20
161.4489183360531
 30
0.0
  0
SPLINE
  5
101
330
1F
100
AcDbEntity
  8
0
  6
Continuous
370
    15
100
AcDbSpline
210
0.0
220
0.0
230
1.0
 70
     8
 71
     3
 72
     9
 73
     5
 74
     0
 42
0.000000001
 43
0.00000001
 40
0.0
 40
0.0
 40
0.0
 40
0.0
 40
0.701041871563396
 40
1.0
 40
1.0
 40
1.0
 40
1.0
 10
262.1481584258161
 20
161.3321498336248
 30
0.0
 10
262.2392849171548
 20
160.6845741044953
 30
0.0
 10
262.3692721476401
 20
159.7608407935516
 30
0.0
 10
262.6978890122298
 20
158.9469107233622
 30
0.0
 10
262.7961316950402
 20
158.7035797129001
 30
0.0
  0
SPLINE
  5
102
330
1F
100
AcDbEntity
  8
0
  6
Continuous
370
    15
100
AcDbSpline
210
0.0
220
0.0
230
1.0
 70
     8
 71
     3
 72
     9
 73
     5
 74
     0
 42
0.000000001
 43
0.00000001
 40
0.0
 40
0.0
 40
0.0
 40
0.0
 40
0.6808433786122634
 40
1.0
 40
1.0
 40
1.0
 40
1.0
 10
193.9473429567895
 20
161.5664340145879
 30
0.0
 10
193.8444345924405
 20
160.9015965502229
 30
0.0
 10
193.6932862261911
 20
159.9251055021348
 30
0.0
 10
193.3040151383221
 20
159.0035398261094
 30
0.0
 10
193.1797766931138
 20
158.7094160385623
 30
0.0
  0
SPLINE
  5
103
330
1F
100
AcDbEntity
  8
0
  6
Continuous
370
    15
100
AcDbSpline
210
0.0
220
0.0
230
1.0
 70
     8
 71
     3
 72
     8
 73
     4
 74
     0
 42
0.000000001
 43
0.00000001
 40
0.0
 40
0.0
 40
0.0
 40
0.0
 40
1.0
 40
1.0
 40
1.0
 40
1.0
 10
270.2508720220789
 20
122.9792433489034
 30
0.0
 10
269.9870860167536
 20
123.4272508829561
 30
0.0
 10
269.6975449701299
 20
123.8565227565091
 30
0.0
 10
269.3842596226105
 20
124.2687587379631
 30
0.0
  0
SPLINE
  5
104
330
1F
100
AcDbEntity
  8
0
  6
Continuous
370
    15
100
AcDbSpline
210
0.0
220
0.0
230
1.0
 70
     8
 71
     3
 72
     8
 73
     4
 74
     0
 42
0.000000001
 43
0.00000001
 40
0.0
 40
0.0
 40
0.0
 40
0.0
 40
1.0
 40
1.0
 40
1.0
 40
1.0
 10
187.3145592909806
 20
120.889622153629
 30
0.0
 10
187.4661027607465
 20
121.4320872221844
 30
0.0
 10
187.6405204011594
 20
121.9684633610695
 30
0.0
 10
187.8358249559545
 20
122.4923993380789
 30
0.0
  0
SPLINE
  5
105
330
1F
100
AcDbEntity
  8
0
  6
Continuous
370
    15
100
AcDbSpline
210
0.0
220
0.0
230
1.0
 70
     8
 71
     3
 72
    10
 73
     6
 74
     0
 42
0.000000001
 43
0.00000001
 40
0.0
 40
0.0
 40
0.0
 40
0.0
 40
0.5
 40
0.5
 40
1.0
 40
1.0
 40
1.0
 40
1.0
 10
193.6839503502541
 20
161.0063885287045
 30
0.0
 10
193.7218439242468
 20
160.9962791650761
 30
0.0
 10
193.7566712664597
 20
160.9905080433575
 30
0.0
 10
193.8095903455491
 20
160.9899772878874
 30
0.0
 10
193.8272719594111
 20
160.9954070997679
 30
0.0
 10
193.8317375405881
 20
161.0060549707067
 30
0.0
  0
LINE
  5
106
330
1F
100
AcDbEntity
  8
0
  6
Continuous
370
    15
100
AcDbLine
 10
193.6839500315
 20
161.006388559
 30
0.0
 11
193.6595605559
 21
161.0128952254
 31
0.0
  0
LINE
  5
107
330
1F
100
AcDbEntity
  8
0
  6
Continuous
370
    15
100
AcDbLine
 10
193.6624402053
 20
162.4689992083
 30
0.0
 11
191.2020722277
 21
162.2983718001
 31
0.0
  0
LINE
  5
108
330
1F
100
AcDbEntity
  8
0
  6
Continuous
370
    15
100
AcDbLine
 10
262.2731083877
 20
161.006388559
 30
0.0
 11
262.2974978633
 21
161.0128952254
 31
0.0
  0
LINE
  5
109
330
1F
100
AcDbEntity
  8
0
  6
Continuous
370
    15
100
AcDbLine
 10
262.2946182139
 20
162.4689992083
 30
0.0
 11
264.7549861915
 21
162.2983718001
 31
0.0
  0
LWPOLYLINE
  5
10A
330
1F
100
AcDbEntity
  8
0
  6
Continuous
370
    15
100
AcDbPolyline
 90
        8
 70
   128
 43
0.0
 10
264.7549861915
 20
162.2983718001
 10
265.3189243622
 20
162.2430172462
 10
265.8286856361
 20
162.1595860055
 10
266.2636654325
 20
162.0514503139
 10
266.6062841065
 20
161.9229808117
 10
266.8426910288
 20
161.7793701445
 10
266.9633345552
 20
161.6264228028
 10
266.9784964867
 20
161.5447402254
  0
LWPOLYLINE
  5
10B
330
1F
100
AcDbEntity
  8
0
  6
Continuous
370
    15
100
AcDbPolyline
 90
        8
 70
   128
 43
0.0
 10
188.9785619326
 20
161.5447402254
 10
188.9937238641
 20
161.6264228028
 10
189.1143673904
 20
161.7793701445
 10
189.3507743127
 20
161.9229808117
 10
189.6933929868
 20
162.0514503139
 10
190.1283727832
 20
162.1595860055
 10
190.6381340571
 20
162.2430172462
 10
191.2020722277
 20
162.2983718001
  0
SPLINE
  5
10C
330
1F
100
AcDbEntity
  8
0
  6
Continuous
370
    15
100
AcDbSpline
210
0.0
220
0.0
230
1.0
 70
     8
 71
     3
 72
    14
 73
    10
 74
     0
 42
0.000000001
 43
0.00000001
 40
0.0
 40
0.0
 40
0.0
 40
0.0
 40
0.1021065870267895
 40
0.9121486124522861
 40
0.9560663094576344
 40
0.970613958730143
 40
0.9997172299632265
 40
0.9999721462990306
 40
1.0
 40
1.0
 40
1.0
 40
1.0
 10
195.3664624936662
 20
118.3928316270759
 30
0.0
 10
195.3688095046747
 20
118.4043886632014
 30
0.0
 10
195.3897760544069
 20
118.5076311157495
 30
0.0
 10
195.4170297950953
 20
118.6153861391832
 30
0.0
 10
195.4387664626857
 20
118.7080080013816
 30
0.0
 10
195.4413608955881
 20
118.7186579689256
 30
0.0
 10
195.4414936110664
 20
118.7200807600375
 30
0.0
 10
195.4431289719504
 20
118.7262100356056
 30
0.0
 10
195.4431154033913
 20
118.7261777926321
 30
0.0
 10
195.4431140668473
 20
118.7261746166021
 30
0.0
  0
SPLINE
  5
10D
330
1F
100
AcDbEntity
  8
0
  6
Continuous
370
    15
100
AcDbSpline
210
0.0
220
0.0
230
1.0
 70
     8
 71
     3
 72
    10
 73
     6
 74
     0
 42
0.000000001
 43
0.00000001
 40
0.0
 40
0.0
 40
0.0
 40
0.0
 40
0.5
 40
0.5
 40
1.0
 40
1.0
 40
1.0
 40
1.0
 10
265.4179103492977
 20
118.8754997467297
 30
0.0
 10
265.2729101357982
 20
119.1137577068255
 30
0.0
 10
265.1212707176911
 20
119.3480307524833
 30
0.0
 10
264.8050653350026
 20
119.8089526648645
 30
0.0
 10
264.640041033475
 20
120.0351587120347
 30
0.0
 10
264.4696901003966
 20
120.258441870703
 30
0.0
  0
ARC
  5
10E
330
1F
100
AcDbEntity
  8
0
  6
Continuous
370
    15
100
AcDbCircle
 10
227.1917508373
 20
23.2499707966
 30
0.0
 40
145.6931423867549
100
AcDbArc
 50
89.8652398456
 51
98.8289943314
  0
ARC
  5
10F
330
1F
100
AcDbEntity
  8
0
  6
Continuous
370
    15
100
AcDbCircle
 10
228.8764014552
 20
24.5193204866
 30
0.0
 40
144.4188898893915
100
AcDbArc
 50
80.9744563781
 51
89.7904273408
  0
ARC
  5
110
330
1F
100
AcDbEntity
  8
0
  6
Continuous
370
    15
100
AcDbCircle
 10
268.9849241527
 20
158.1676259322
 30
0.0
 40
2.993385064419458
100
AcDbArc
 50
346.5804474857
 51
13.3817091795
  0
ARC
  5
111
330
1F
100
AcDbEntity
  8
0
  6
Continuous
370
    15
100
AcDbCircle
 10
186.9691277735
 20
158.1674157754
 30
0.0
 40
2.990386702116726
100
AcDbArc
 50
167.7516773681
 51
193.2275707415
  0
LINE
  5
112
330
1F
100
AcDbEntity
  8
0
  6
Continuous
370
    15
100
AcDbLine
 10
271.9785289712
 20
229.8876221377
 30
0.0
 11
271.9776721544
 21
229.9587545442
 31
0.0
  0
LINE
  5
113
330
1F
100
AcDbEntity
  8
0
  6
Continuous
370
    15
100
AcDbLine
 10
183.978529448
 20
229.8876221377
 30
0.0
 11
183.9785629757
 21
229.8731494687
 31
0.0
  0
ARC
  5
114
330
1F
100
AcDbEntity
  8
0
  6
Continuous
370
    15
100
AcDbCircle
 10
229.1257050188
 20
30.5562021309
 30
0.0
 40
138.331990889867
100
AcDbArc
 50
79.5149050551
 51
90.2589457408
  0
ARC
  5
115
330
1F
100
AcDbEntity
  8
0
  6
Continuous
370
    15
100
AcDbCircle
 10
226.671973793
 20
32.5357099397
 30
0.0
 40
136.3507181106178
100
AcDbArc
 50
89.7967612938
 51
100.7759210949
  0
ARC
  5
116
330
1F
100
AcDbEntity
  8
0
  6
Continuous
370
    15
100
AcDbCircle
 10
266.1591327587
 20
157.2130622896
 30
0.0
 40
4.81023138717798
100
AcDbArc
 50
19.7306478076
 51
48.0939546422
  0
ARC
  5
117
330
1F
100
AcDbEntity
  8
0
  6
Continuous
370
    15
100
AcDbCircle
 10
189.6747539904
 20
157.2759249048
 30
0.0
 40
4.672523827077216
100
AcDbArc
 50
134.2071125108
 51
160.7097335628
  0
ARC
  5
118
330
1F
100
AcDbEntity
  8
0
  6
Continuous
370
    15
100
AcDbCircle
 10
191.6851438991
 20
162.0316322962
 30
0.0
 40
4.373554478623094
100
AcDbArc
 50
187.9387769968
 51
232.6634365386
  0
ARC
  5
119
330
1F
100
AcDbEntity
  8
0
  6
Continuous
370
    15
100
AcDbCircle
 10
262.4508436835
 20
163.742804496
 30
0.0
 40
6.850841562496504
100
AcDbArc
 50
310.7683295939
 51
320.5748613864
  0
ARC
  5
11A
330
1F
100
AcDbEntity
  8
0
  6
Continuous
370
    15
100
AcDbCircle
 10
265.1442765438
 20
161.6906005397
 30
0.0
 40
3.469256561333038
100
AcDbArc
 50
318.5053460194
 51
355.6564066119
  0
ARC
  5
11B
330
1F
100
AcDbEntity
  8
0
  6
Continuous
370
    15
100
AcDbCircle
 10
202.1138897216
 20
3.2083945883
 30
0.0
 40
161.0173130967401
100
AcDbArc
 50
92.57680409920002
 51
93.56105548560002
  0
SPLINE
  5
11C
330
1F
100
AcDbEntity
  8
0
  6
Continuous
370
    15
100
AcDbSpline
210
0.0
220
0.0
230
1.0
 70
     8
 71
     3
 72
     9
 73
     5
 74
     0
 42
0.000000001
 43
0.00000001
 40
0.0
 40
0.0
 40
0.0
 40
0.0
 40
0.9474693803515045
 40
1.0
 40
1.0
 40
1.0
 40
1.0
 10
261.4569010086141
 20
163.814607620968
 30
0.0
 10
261.4280996834674
 20
163.8095196853837
 30
0.0
 10
261.3977015241771
 20
163.8041496589852
 30
0.0
 10
261.3623936680258
 20
163.8032194298464
 30
0.0
 10
261.3605389244638
 20
163.8031705643334
 30
0.0
  0
ARC
  5
11D
330
1F
100
AcDbEntity
  8
0
  6
Continuous
370
    15
100
AcDbCircle
 10
246.5917500555
 20
245.0398577156
 30
0.0
 40
82.57429361370046
100
AcDbArc
 50
280.3710140654
 51
281.5895583128001
  0
SPLINE
  5
11E
330
1F
100
AcDbEntity
  8
0
  6
Continuous
370
    15
100
AcDbSpline
210
0.0
220
0.0
230
1.0
 70
     8
 71
     3
 72
    10
 73
     6
 74
     0
 42
0.000000001
 43
0.00000001
 40
0.0
 40
0.0
 40
0.0
 40
0.0
 40
0.5
 40
0.5
 40
1.0
 40
1.0
 40
1.0
 40
1.0
 10
267.4839019257753
 20
159.4517458929396
 30
0.0
 10
267.5508837942443
 20
159.4575249458534
 30
0.0
 10
267.6277250057809
 20
159.4533965230967
 30
0.0
 10
267.7325878039327
 20
159.4292215469084
 30
0.0
 10
267.7572904166116
 20
159.4099298437202
 30
0.0
 10
267.742811508519
 20
159.392044113829
 30
0.0
  0
LINE
  5
11F
330
1F
100
AcDbEntity
  8
0
  6
Continuous
370
    15
100
AcDbLine
 10
266.9398428745
 20
159.4058156056
 30
0.0
 11
267.4839028962
 21
159.4517458204
 31
0.0
  0
LINE
  5
120
330
1F
100
AcDbEntity
  8
0
  6
Continuous
370
     0
100
AcDbLine
 10
273.6656160898
 20
99.1120849894
 30
0.0
 11
273.6656160898
 21
100.0780271666
 31
0.0
  0
LINE
  5
121
330
1F
100
AcDbEntity
  8
0
  6
Continuous
370
     0
100
AcDbLine
 10
273.6275138207
 20
98.7590981794
 30
0.0
 11
273.6275138207
 21
99.2420620713
 31
0.0
  0
LINE
  5
122
330
1F
100
AcDbEntity
  8
0
  6
Continuous
370
     0
100
AcDbLine
 10
269.2810090132
 20
104.3364555759
 30
0.0
 11
268.9299525566
 21
104.9080907628
 31
0.0
  0
SPLINE
  5
123
330
1F
100
AcDbEntity
  8
0
  6
Continuous
370
     0
100
AcDbSpline
210
0.0
220
0.0
230
1.0
 70
     8
 71
     3
 72
    11
 73
     7
 74
     0
 42
0.000000001
 43
0.00000001
 40
0.0
 40
0.0
 40
0.0
 40
0.0
 40
0.075092820469976
 40
0.3757807297026362
 40
0.6866221976086426
 40
1.0
 40
1.0
 40
1.0
 40
1.0
 10
270.8501720674119
 20
103.5031439833096
 30
0.0
 10
270.7844285287908
 20
103.5366301236786
 30
0.0
 10
270.4554336293899
 20
103.7042020191546
 30
0.0
 10
269.929075929092
 20
104.0196568225815
 30
0.0
 10
269.3430876986451
 20
104.4558997359064
 30
0.0
 10
269.0680368005545
 20
104.7569526733218
 30
0.0
 10
268.9299525566182
 20
104.908090762804
 30
0.0
  0
LINE
  5
124
330
1F
100
AcDbEntity
  8
0
  6
Continuous
370
     0
100
AcDbLine
 10
270.8501720674
 20
103.5031439833
 30
0.0
 11
270.9563391156
 21
103.3015444867
 31
0.0
  0
ARC
  5
125
330
1F
100
AcDbEntity
  8
0
  6
Continuous
370
     0
100
AcDbCircle
 10
270.685918511
 20
103.5123859488
 30
0.0
 40
0.1645133572337418
100
AcDbArc
 50
356.7795652085999
 51
62.7219637791
  0
LINE
  5
126
330
1F
100
AcDbEntity
  8
0
  6
Continuous
370
     0
100
AcDbLine
 10
272.6579064376
 20
98.6551669304
 30
0.0
 11
272.6579064376
 21
98.6475744032
 31
0.0
  0
LINE
  5
127
330
1F
100
AcDbEntity
  8
0
  6
Continuous
370
     0
100
AcDbLine
 10
271.9644510992
 20
102.9848388638
 30
0.0
 11
270.8501720674
 21
103.5031439833
 31
0.0
  0
LINE
  5
128
330
1F
100
AcDbEntity
  8
0
  6
Continuous
370
     0
100
AcDbLine
 10
271.9644510992
 20
102.5493192708
 30
0.0
 11
271.9644510992
 21
102.9848388638
 31
0.0
  0
LINE
  5
129
330
1F
100
AcDbEntity
  8
0
  6
Continuous
370
     0
100
AcDbLine
 10
273.5820205755
 20
101.5111762942
 30
0.0
 11
272.942757035
 21
101.5003956253
 31
0.0
  0
LINE
  5
12A
330
1F
100
AcDbEntity
  8
0
  6
Continuous
370
     0
100
AcDbLine
 10
273.5820205755
 20
100.8382467751
 30
0.0
 11
273.5820205755
 21
101.5111762942
 31
0.0
  0
LINE
  5
12B
330
1F
100
AcDbEntity
  8
0
  6
Continuous
370
     0
100
AcDbLine
 10
273.3654731758
 20
100.8345908474
 30
0.0
 11
273.5820205755
 21
100.8382467751
 31
0.0
  0
ARC
  5
12C
330
1F
100
AcDbEntity
  8
0
  6
Continuous
370
     0
100
AcDbCircle
 10
271.8001863146
 20
102.9940762188
 30
0.0
 40
0.1645243087632184
100
AcDbArc
 50
356.7813879748
 51
62.7180712074
  0
ELLIPSE
  5
12D
330
1F
100
AcDbEntity
  8
0
  6
Continuous
370
     0
100
AcDbEllipse
 10
272.8304771619
 20
102.0022994775
 30
0.0
 11
0.9999842651809557
 21
0.02168395160495606
 31
0.0
210
0.0
220
0.0
230
1.0
 40
0.2587055447
 41
4.627487945401315
 42
4.706779192450969
  0
ARC
  5
12E
330
1F
100
AcDbEntity
  8
0
  6
Continuous
370
     0
100
AcDbCircle
 10
231.0486794572
 20
100.9870714065
 30
0.0
 40
41.78864370177861
100
AcDbArc
 50
0.899976471
 51
1.03715751
  0
ELLIPSE
  5
12F
330
1F
100
AcDbEntity
  8
0
  6
Continuous
370
     0
100
AcDbEllipse
 10
272.8304771619
 20
103.0967279115
 30
0.0
 11
0.9999842651809557
 21
-0.02168395160495606
 31
0.0
210
0.0
220
0.0
230
1.0
 40
0.2587055447
 41
3.67080121712167
 42
4.717998768318417
  0
LINE
  5
130
330
1F
100
AcDbEntity
  8
0
  6
Continuous
370
     0
100
AcDbLine
 10
272.8304767854
 20
102.8379089339
 30
0.0
 11
272.8304767854
 21
101.7434803265
 31
0.0
  0
ARC
  5
131
330
1F
100
AcDbEntity
  8
0
  6
Continuous
370
     0
100
AcDbCircle
 10
278.6683006277
 20
102.7792521407
 30
0.0
 40
5.838118518201546
100
AcDbArc
 50
177.9694022196
 51
179.4243276795
  0
LINE
  5
132
330
1F
100
AcDbEntity
  8
0
  6
Continuous
370
     0
100
AcDbLine
 10
272.8304767854
 20
101.7434803265
 30
0.0
 11
273.5785299785
 21
101.7560925576
 31
0.0
  0
ARC
  5
133
330
1F
100
AcDbEntity
  8
0
  6
Continuous
370
     0
100
AcDbCircle
 10
250.7216138419
 20
101.3078480769
 30
0.0
 40
22.86131095080813
100
AcDbArc
 50
0.509594674
 51
1.1234772508
  0
ARC
  5
134
330
1F
100
AcDbEntity
  8
0
  6
Continuous
370
     0
100
AcDbCircle
 10
273.5820188376
 20
101.7077162913
 30
0.0
 40
0.1965399970493135
100
AcDbArc
 50
270.0005066453
 51
359.0124063616
  0
ARC
  5
135
330
1F
100
AcDbEntity
  8
0
  6
Continuous
370
     0
100
AcDbCircle
 10
273.6251790115
 20
101.5240793607
 30
0.0
 40
0.2366564088311584
100
AcDbArc
 50
49.60988679430001
 51
101.3684272684
  0
LINE
  5
136
330
1F
100
AcDbEntity
  8
0
  6
Continuous
370
     0
100
AcDbLine
 10
273.5785299785
 20
102.8252967027
 30
0.0
 11
272.8304767854
 21
102.8379089339
 31
0.0
  0
LINE
  5
137
330
1F
100
AcDbEntity
  8
0
  6
Continuous
370
     0
100
AcDbLine
 10
273.5785299785
 20
101.7560925576
 30
0.0
 11
273.5785299785
 21
102.8252967027
 31
0.0
  0
ARC
  5
138
330
1F
100
AcDbEntity
  8
0
  6
Continuous
370
     0
100
AcDbCircle
 10
273.6251790115
 20
102.5932835058
 30
0.0
 40
0.236656408831242
100
AcDbArc
 50
49.60988679439999
 51
101.3684272684
  0
ARC
  5
139
330
1F
100
AcDbEntity
  8
0
  6
Continuous
370
     0
100
AcDbCircle
 10
273.5820188376
 20
101.0347867722
 30
0.0
 40
0.1965399970493138
100
AcDbArc
 50
270.0005066453
 51
359.0124063616
  0
ARC
  5
13A
330
1F
100
AcDbEntity
  8
0
  6
Continuous
370
     0
100
AcDbCircle
 10
281.7823785993
 20
102.7128177677
 30
0.0
 40
8.204619656270022
100
AcDbArc
 50
178.179234946
 51
179.2144949532
  0
LWPOLYLINE
  5
13B
330
1F
100
AcDbEntity
  8
0
  6
Continuous
370
     0
100
AcDbPolyline
 90
        3
 70
   128
 43
0.0
 10
273.5820205755
 20
100.8382467751
 10
273.5819535203
 20
100.8318580486
 10
273.5819013662
 20
100.831428997
  0
LINE
  5
13C
330
1F
100
AcDbEntity
  8
0
  6
Continuous
370
     0
100
AcDbLine
 10
272.8913331277
 20
98.4697165075
 30
0.0
 11
272.8913331277
 21
97.5037743303
 31
0.0
  0
LINE
  5
13D
330
1F
100
AcDbEntity
  8
0
  6
Continuous
370
     0
100
AcDbLine
 10
273.4661081679
 20
97.5037743303
 30
0.0
 11
273.4661081679
 21
98.4697165075
 31
0.0
  0
LINE
  5
13E
330
1F
100
AcDbEntity
  8
0
  6
Continuous
370
     0
100
AcDbLine
 10
272.8573659308
 20
97.3743647866
 30
0.0
 11
272.8573659308
 21
96.8914008947
 31
0.0
  0
LINE
  5
13F
330
1F
100
AcDbEntity
  8
0
  6
Continuous
370
     0
100
AcDbLine
 10
273.4281698115
 20
96.8914008947
 30
0.0
 11
273.4281698115
 21
97.3743647866
 31
0.0
  0
LINE
  5
140
330
1F
100
AcDbEntity
  8
0
  6
Continuous
370
     0
100
AcDbLine
 10
197.9843953497
 20
130.897521081
 30
0.0
 11
197.9978380598
 21
129.1951517715
 31
0.0
  0
LWPOLYLINE
  5
141
330
1F
100
AcDbEntity
  8
0
  6
Continuous
370
     0
100
AcDbPolyline
 90
        9
 70
   128
 43
0.0
 10
195.1336355753
 20
128.2775659924
 10
195.0958872087
 20
128.5281004196
 10
195.3876482196
 20
128.7735706325
 10
195.9776373453
 20
128.9805693837
 10
196.7987006403
 20
129.1253782657
 10
197.759853477
 20
129.1918954302
 10
197.9977784551
 20
129.1951515907
 10
197.9978380598
 20
129.1951517715
 10
197.9978380598
 20
129.1951517715
  0
SPLINE
  5
142
330
1F
100
AcDbEntity
  8
0
  6
Continuous
370
     0
100
AcDbSpline
210
0.0
220
0.0
230
1.0
 70
     8
 71
     3
 72
    14
 73
    10
 74
     0
 42
0.000000001
 43
0.00000001
 40
0.0
 40
0.0
 40
0.0
 40
0.0
 40
0.0000115013175812
 40
0.1921373153165546
 40
0.3843245340932699
 40
0.5765546987529602
 40
0.7683753736718796
 40
0.960251585922134
 40
1.0
 40
1.0
 40
1.0
 40
1.0
 10
257.9592203594527
 20
129.1951517714548
 30
0.0
 10
257.9592402276651
 20
129.1951517112115
 30
0.0
 10
258.2911521982487
 20
129.1941453061619
 30
0.0
 10
258.9593634747338
 20
129.1624637264161
 30
0.0
 10
259.8385939891764
 20
129.032443267114
 30
0.0
 10
260.5096610323175
 20
128.8336483062141
 30
0.0
 10
260.8605577590725
 20
128.5911287825238
 30
0.0
 10
260.9503011345237
 20
128.3941212900041
 30
0.0
 10
260.8225252331551
 20
128.295664704518
 30
0.0
 10
260.8005979902825
 20
128.2787688623503
 30
0.0
  0
LINE
  5
143
330
1F
100
AcDbEntity
  8
0
  6
Continuous
370
     0
100
AcDbLine
 10
257.9726630695
 20
130.897521081
 30
0.0
 11
257.9592203595
 21
129.1951517715
 31
0.0
  0
LWPOLYLINE
  5
144
330
1F
100
AcDbEntity
  8
0
  6
Continuous
370
     0
100
AcDbPolyline
 90
        3
 70
   128
 43
0.0
 10
197.9978380598
 20
129.1951517715
 10
199.9976819254
 20
129.2016389289
 10
203.5919779785
 20
129.2132658077
  0
LWPOLYLINE
  5
145
330
1F
100
AcDbEntity
  8
0
  6
Continuous
370
     0
100
AcDbPolyline
 90
        3
 70
   128
 43
0.0
 10
252.3687647529
 20
129.2132541773
 10
254.2670590676
 20
129.2071194865
 10
257.9592203595
 20
129.1951517715
  0
ARC
  5
146
330
1F
100
AcDbEntity
  8
0
  6
Continuous
370
     0
100
AcDbCircle
 10
258.044843645
 20
127.4657071264
 30
0.0
 40
0.0961174657630073
100
AcDbArc
 50
175.1204817127
 51
195.6252079497999
  0
SPLINE
  5
147
330
1F
100
AcDbEntity
  8
0
  6
Continuous
370
     0
100
AcDbSpline
210
0.0
220
0.0
230
1.0
 70
     8
 71
     3
 72
    17
 73
    13
 74
     0
 42
0.000000001
 43
0.00000001
 40
0.0
 40
0.0
 40
0.0
 40
0.0
 40
0.0259367015005825
 40
0.1342613826546499
 40
0.2424032957017853
 40
0.3505259851691876
 40
0.4584718498937558
 40
0.5666062611484822
 40
0.6747580530220258
 40
0.7831466829967818
 40
0.8915746943102025
 40
1.0
 40
1.0
 40
1.0
 40
1.0
 10
257.9490745313249
 20
127.4738829501842
 30
0.0
 10
258.006792426303
 20
127.4744500962796
 30
0.0
 10
258.3055692149975
 20
127.4773859290776
 30
0.0
 10
258.8383138441543
 20
127.5151799717044
 30
0.0
 10
259.4465715643627
 20
127.6221340728355
 30
0.0
 10
259.8835259452575
 20
127.7754554561282
 30
0.0
 10
260.099853794622
 20
127.9574369235723
 30
0.0
 10
260.0711917770518
 20
128.1476773776922
 30
0.0
 10
259.8001113521873
 20
128.325259008152
 30
0.0
 10
259.3167721957346
 20
128.4684760804008
 30
0.0
 10
258.6757997940454
 20
128.5667477710215
 30
0.0
 10
258.1913142706309
 20
128.5806563625556
 30
0.0
 10
257.9490745313249
 20
128.5876105715557
 30
0.0
  0
ARC
  5
148
330
1F
100
AcDbEntity
  8
0
  6
Continuous
370
     0
100
AcDbCircle
 10
236.1580194734
 20
129.2553725655
 30
0.0
 40
21.8012840588815
100
AcDbArc
 50
358.2447855477999
 51
359.8417340137
  0
SPLINE
  5
149
330
1F
100
AcDbEntity
  8
0
  6
Continuous
370
     0
100
AcDbSpline
210
0.0
220
0.0
230
1.0
 70
     8
 71
     3
 72
    17
 73
    13
 74
     0
 42
0.000000001
 43
0.00000001
 40
0.0
 40
0.0
 40
0.0
 40
0.0
 40
0.0259367015005825
 40
0.1342613826546499
 40
0.2424032957017853
 40
0.3505259851691876
 40
0.4584718498937558
 40
0.5666062611484822
 40
0.6747580530220258
 40
0.7831466829967818
 40
0.8915746943102025
 40
1.0
 40
1.0
 40
1.0
 40
1.0
 10
198.007983887919
 20
128.5876105715557
 30
0.0
 10
197.9502659929408
 20
128.5870434254603
 30
0.0
 10
197.6514892042463
 20
128.5841075926623
 30
0.0
 10
197.1187445750896
 20
128.5463135500355
 30
0.0
 10
196.5104868548811
 20
128.4393594489044
 30
0.0
 10
196.0735324739864
 20
128.2860380656117
 30
0.0
 10
195.8572046246218
 20
128.1040565981677
 30
0.0
 10
195.8858666421921
 20
127.9138161440477
 30
0.0
 10
196.1569470670565
 20
127.7362345135879
 30
0.0
 10
196.6402862235092
 20
127.5930174413391
 30
0.0
 10
197.2812586251985
 20
127.4947457507184
 30
0.0
 10
197.765744148613
 20
127.4808371591843
 30
0.0
 10
198.007983887919
 20
127.4738829501842
 30
0.0
  0
ARC
  5
14A
330
1F
100
AcDbEntity
  8
0
  6
Continuous
370
     0
100
AcDbCircle
 10
197.9086162731
 20
127.4659608395
 30
0.0
 40
0.0996829108749463
100
AcDbArc
 50
344.8038140841
 51
4.5582805994
  0
ARC
  5
14B
330
1F
100
AcDbEntity
  8
0
  6
Continuous
370
     0
100
AcDbCircle
 10
219.7990389458
 20
129.2553725655
 30
0.0
 40
21.8012840588815
100
AcDbArc
 50
180.1582659863
 51
181.7552144522
  0
LWPOLYLINE
  5
14C
330
1F
100
AcDbEntity
  8
0
  6
Continuous
370
     0
100
AcDbPolyline
 90
        4
 70
   128
 43
0.0
 10
203.0683977403
 20
128.6040013841
 10
201.9566928841
 20
128.6004082614
 10
199.9823393173
 20
128.5940151112
 10
198.0079838879
 20
128.5876105716
  0
LWPOLYLINE
  5
14D
330
1F
100
AcDbEntity
  8
0
  6
Continuous
370
     0
100
AcDbPolyline
 90
        4
 70
   128
 43
0.0
 10
257.9490745313
 20
128.5876105716
 10
255.9747191019
 20
128.5940151112
 10
254.0003636725
 20
128.6004082614
 10
252.8738731392
 20
128.6040491711
  0
LWPOLYLINE
  5
14E
330
1F
100
AcDbEntity
  8
0
  6
Continuous
370
     0
100
AcDbPolyline
 90
        4
 70
   128
 43
0.0
 10
253.8220116742
 20
127.4605088035
 10
254.0003655351
 20
127.4610852603
 10
255.9747191019
 20
127.4674784106
 10
257.9490745313
 20
127.4738829502
  0
LWPOLYLINE
  5
14F
330
1F
100
AcDbEntity
  8
0
  6
Continuous
370
     0
100
AcDbPolyline
 90
        4
 70
   128
 43
0.0
 10
198.0079838879
 20
127.4738829502
 10
199.9823393173
 20
127.4674784106
 10
201.9566947467
 20
127.4610852603
 10
202.1391184874
 20
127.4604956666
  0
LWPOLYLINE
  5
150
330
1F
100
AcDbEntity
  8
0
  6
Continuous
370
     0
100
AcDbPolyline
 90
       64
 70
   128
 43
0.0
 10
183.9787455149
 20
124.1061790229
 10
184.0097920842
 20
124.4996658374
 10
184.1486485548
 20
125.0709013856
 10
184.3982281036
 20
125.6396096173
 10
184.7578899808
 20
126.2043541814
 10
185.226732666
 20
126.7637081576
 10
185.803571517
 20
127.3162589074
 10
186.4869462199
 20
127.8606103038
 10
187.2751319654
 20
128.3953871907
 10
188.1661394484
 20
128.9192394806
 10
189.1577148683
 20
129.4308428776
 10
190.24735483
 20
129.9289053857
 10
191.4323100693
 20
130.4121692373
 10
192.7095817275
 20
130.8794133034
 10
194.0759474285
 20
131.3294574324
 10
195.5279538281
 20
131.7611643787
 10
197.0619296528
 20
132.1734441412
 10
198.6740061886
 20
132.5652544456
 10
200.3601098306
 20
132.9356070114
 10
202.1159788467
 20
133.2835646594
 10
203.9371782787
 20
133.6082499894
 10
205.8191092558
 20
133.9088415234
 10
207.7570145823
 20
134.1845804548
 10
209.746002952
 20
134.4347696844
 10
211.7810489483
 20
134.6587786409
 10
213.8570107393
 20
134.8560403888
 10
215.9686440475
 20
135.0260564491
 10
218.1106161199
 20
135.1683977635
 10
220.2775145754
 20
135.2827046942
 10
222.4638669625
 20
135.3686889527
 10
224.6641498398
 20
135.4261316708
 10
226.8728049578
 20
135.4548901507
 10
229.0842534615
 20
135.4548901507
 10
231.2929085795
 20
135.4261316708
 10
233.4931914568
 20
135.3686889527
 10
235.6795438438
 20
135.2827046942
 10
237.8464422993
 20
135.1683977635
 10
239.9884143717
 20
135.0260564491
 10
242.10004768
 20
134.8560403888
 10
244.1760094709
 20
134.6587786409
 10
246.2110554673
 20
134.4347696844
 10
248.200043837
 20
134.1845804548
 10
250.1379491634
 20
133.9088415234
 10
252.0198801406
 20
133.6082499894
 10
253.8410795726
 20
133.2835646594
 10
255.5969485886
 20
132.9356070114
 10
257.2830522306
 20
132.5652544456
 10
258.8951287664
 20
132.1734441412
 10
260.4291045911
 20
131.7611643787
 10
261.8811109908
 20
131.3294574324
 10
263.2474766917
 20
130.8794133034
 10
264.5247483499
 20
130.4121692373
 10
265.7097035892
 20
129.9289053857
 10
266.7993435509
 20
129.4308428776
 10
267.7909189708
 20
128.9192394806
 10
268.6819264538
 20
128.3953871907
 10
269.4701121993
 20
127.8606103038
 10
270.1534869022
 20
127.3162589074
 10
270.7303257532
 20
126.7637081576
 10
271.1991684384
 20
126.2043541814
 10
271.5588303156
 20
125.6396096173
 10
271.8084098644
 20
125.0709013856
 10
271.947266335
 20
124.4996658374
 10
271.97851407
 20
124.0615821808
  0
LWPOLYLINE
  5
151
330
1F
100
AcDbEntity
  8
0
  6
Continuous
370
     0
100
AcDbPolyline
 90
       90
 70
   128
 43
0.0
 10
262.0080912359
 20
116.3010333481
 10
262.1761241801
 20
116.3577090642
 10
263.4625451512
 20
116.8184468701
 10
264.6563963838
 20
117.2955838649
 10
265.7545560844
 20
117.7878757792
 10
266.7541632302
 20
118.2940388126
 10
267.6526101179
 20
118.8127510799
 10
268.4475498147
 20
119.3426605649
 10
269.1369147844
 20
119.8823841572
 10
269.7188982613
 20
120.4305141596
 10
270.1919877775
 20
120.985619976
 10
270.5549465365
 20
121.546254137
 10
270.8068283148
 20
122.1109534451
 10
270.9469737358
 20
122.6782449105
 10
270.9750214465
 20
123.2466484927
 10
270.890896941
 20
123.8146813191
 10
270.6948200114
 20
124.3808614208
 10
270.3872972972
 20
124.94371162
 10
269.9691371865
 20
125.5017635969
 10
269.4414311893
 20
126.0535615662
 10
268.8055502124
 20
126.5976658925
 10
268.0631557353
 20
127.1326568265
 10
267.2161849089
 20
127.6571387234
 10
266.2668468304
 20
128.1697434172
 10
265.2176225431
 20
128.6691340779
 10
264.0712426848
 20
129.1540066573
 10
262.830702389
 20
129.6230971206
 10
261.4992352076
 20
130.0751814462
 10
260.0803168364
 20
130.5090799647
 10
258.577650214
 20
130.9236607334
 10
256.9951524831
 20
131.3178419468
 10
255.3369549908
 20
131.6905962752
 10
253.6073809363
 20
132.0409499007
 10
251.8109453715
 20
132.3679907129
 10
249.952332849
 20
132.6708625233
 10
248.0363936968
 20
132.9487776002
 10
246.0681253917
 20
133.2010099188
 10
244.0526632465
 20
133.4269019112
 10
241.9952664397
 20
133.6258644657
 10
239.9013003208
 20
133.7973769273
 10
237.7762298904
 20
133.9409938466
 10
235.6255983807
 20
134.056339195
 10
233.4550165444
 20
134.1431131136
 10
231.2701470557
 20
134.201088057
 10
229.0766901908
 20
134.2301136137
 10
226.8803682284
 20
134.2301136137
 10
224.6869113635
 20
134.201088057
 10
222.5020418748
 20
134.1431131136
 10
220.3314600386
 20
134.056339195
 10
218.1808285288
 20
133.9409938466
 10
216.0557580985
 20
133.7973769273
 10
213.9617919795
 20
133.6258644657
 10
211.9043951727
 20
133.4269019112
 10
209.8889330275
 20
133.2010099188
 10
207.9206647225
 20
132.9487776002
 10
206.0047255702
 20
132.6708625233
 10
204.1461130477
 20
132.3679907129
 10
202.349677483
 20
132.0409499007
 10
200.6201034285
 20
131.6905962752
 10
198.9619059361
 20
131.3178419468
 10
197.3794082053
 20
130.9236607334
 10
195.8767415829
 20
130.5090799647
 10
194.4578232117
 20
130.0751814462
 10
193.1263560302
 20
129.6230971206
 10
191.8858157344
 20
129.1540066573
 10
190.7394358761
 20
128.6691340779
 10
189.6902115889
 20
128.1697434172
 10
188.7408735104
 20
127.6571387234
 10
187.893902684
 20
127.1326568265
 10
187.1515082069
 20
126.5976658925
 10
186.5156272299
 20
126.0535615662
 10
185.9879212327
 20
125.5017635969
 10
185.569761122
 20
124.94371162
 10
185.2622384079
 20
124.3808614208
 10
185.0661614783
 20
123.8146813191
 10
184.9820369728
 20
123.2466484927
 10
185.0100846834
 20
122.6782449105
 10
185.1502301045
 20
122.1109534451
 10
185.4021118827
 20
121.546254137
 10
185.7650706418
 20
120.985619976
 10
186.2381601579
 20
120.4305141596
 10
186.8201436348
 20
119.8823841572
 10
187.5095086045
 20
119.3426605649
 10
188.3044483013
 20
118.8127510799
 10
189.2028951891
 20
118.2940388126
 10
190.2025023348
 20
117.7878757792
 10
191.3006620355
 20
117.2955838649
 10
192.494513268
 20
116.8184468701
 10
193.7809342392
 20
116.3577090642
 10
193.9282620199
 20
116.3079773442
  0
LWPOLYLINE
  5
152
330
1F
100
AcDbEntity
  8
0
  6
Continuous
370
     0
100
AcDbPolyline
 90
       65
 70
   128
 43
0.0
 10
271.9785289712
 20
151.1163725756
 10
271.9771841414
 20
151.2054551009
 10
271.9039263077
 20
151.7792489923
 10
271.7190326996
 20
152.3513582346
 10
271.4229727037
 20
152.9203287825
 10
271.0165025539
 20
153.484714432
 10
270.5006467052
 20
154.0430810919
 10
269.8767276354
 20
154.5940096155
 10
269.1463211424
 20
155.1360997779
 10
268.3112861462
 20
155.6679740128
 10
267.373746062
 20
156.188280063
 10
266.3360850759
 20
156.6956960433
 10
265.2009406931
 20
157.1889323681
 10
263.9711925633
 20
157.6667351264
 10
262.6499699302
 20
158.1278904206
 10
261.2406330056
 20
158.5712258124
 10
259.7467580683
 20
158.9956146623
 10
258.172146777
 20
159.3999785392
 10
256.5207982309
 20
159.7832905956
 10
254.7969089694
 20
160.1445750854
 10
253.004859934
 20
160.4829141128
 10
251.1492090173
 20
160.7974485971
 10
249.2346687116
 20
161.0873792362
 10
247.2661079712
 20
161.3519684355
 10
245.2485261358
 20
161.5905432
 10
243.1870538614
 20
161.8024989914
 10
241.0869289063
 20
161.987295871
 10
238.9534896113
 20
162.144464285
 10
236.7921572052
 20
162.2736050647
 10
234.6084246285
 20
162.374389426
 10
232.4078430295
 20
162.4465618621
 10
230.196003836
 20
162.4899391796
 10
227.9785292096
 20
162.5044104984
 10
225.7610545832
 20
162.4899391796
 10
223.5492153898
 20
162.4465618621
 10
221.3486337907
 20
162.374389426
 10
219.1649012141
 20
162.2736050647
 10
217.003568808
 20
162.144464285
 10
214.870129513
 20
161.987295871
 10
212.7700045578
 20
161.8024989914
 10
210.7085322834
 20
161.5905432
 10
208.690950448
 20
161.3519684355
 10
206.7223897077
 20
161.0873792362
 10
204.807849402
 20
160.7974485971
 10
202.9521984853
 20
160.4829141128
 10
201.1601494498
 20
160.1445750854
 10
199.4362601883
 20
159.7832905956
 10
197.7849116422
 20
159.3999785392
 10
196.2103003509
 20
158.9956146623
 10
194.7164254136
 20
158.5712258124
 10
193.3070884891
 20
158.1278904206
 10
191.9858658559
 20
157.6667351264
 10
190.7561177261
 20
157.1889323681
 10
189.6209733434
 20
156.6956960433
 10
188.5833123572
 20
156.188280063
 10
187.6457722731
 20
155.6679740128
 10
186.8107372768
 20
155.1360997779
 10
186.0803307839
 20
154.5940096155
 10
185.4564117141
 20
154.0430810919
 10
184.9405558653
 20
153.484714432
 10
184.5340857155
 20
152.9203287825
 10
184.2380257197
 20
152.3513582346
 10
184.0531321116
 20
151.7792489923
 10
183.9798742778
 20
151.2054551009
 10
183.978529448
 20
151.1163725756
  0
SPLINE
  5
153
330
1F
100
AcDbEntity
  8
0
  6
Continuous
370
     0
100
AcDbSpline
210
0.0
220
0.0
230
1.0
 70
     8
 71
     3
 72
     9
 73
     5
 74
     0
 42
0.000000001
 43
0.00000001
 40
0.0
 40
0.0
 40
0.0
 40
0.0
 40
0.4030746085074353
 40
1.0
 40
1.0
 40
1.0
 40
1.0
 10
267.9559158034406
 20
126.8051117227586
 30
0.0
 10
268.3119662504351
 20
126.4742121441124
 30
0.0
 10
269.195302584403
 20
125.6532733609143
 30
0.0
 10
269.874094421777
 20
124.6599499151868
 30
0.0
 10
270.2792825050435
 20
124.0670099284673
 30
0.0
  0
SPLINE
  5
154
330
1F
100
AcDbEntity
  8
0
  6
Continuous
370
     0
100
AcDbSpline
210
0.0
220
0.0
230
1.0
 70
     8
 71
     3
 72
    13
 73
     9
 74
     0
 42
0.000000001
 43
0.00000001
 40
0.0
 40
0.0
 40
0.0
 40
0.0
 40
0.1750016996737365
 40
0.3500267563062192
 40
0.5432532608809565
 40
0.7370912001168214
 40
0.9303357155583555
 40
1.0
 40
1.0
 40
1.0
 40
1.0
 10
269.3842591590962
 20
124.2687583440015
 30
0.0
 10
269.046318117753
 20
124.6853090205907
 30
0.0
 10
268.3703909310763
 20
125.5184659695546
 30
0.0
 10
267.1356186713716
 20
126.6478779284655
 30
0.0
 10
265.7291682703809
 20
127.6840832287591
 30
0.0
 10
264.1320447824049
 20
128.5753188625033
 30
0.0
 10
262.8105860017022
 20
129.1992696258562
 30
0.0
 10
261.9825155631967
 20
129.4349161345025
 30
0.0
 10
261.7630975194058
 20
129.4973565907113
 30
0.0
  0
SPLINE
  5
155
330
1F
100
AcDbEntity
  8
0
  6
Continuous
370
     0
100
AcDbSpline
210
0.0
220
0.0
230
1.0
 70
     8
 71
     3
 72
    11
 73
     7
 74
     0
 42
0.000000001
 43
0.00000001
 40
0.0
 40
0.0
 40
0.0
 40
0.0
 40
0.2060301931560396
 40
0.4155792524884137
 40
0.7078472436423526
 40
1.0
 40
1.0
 40
1.0
 40
1.0
 10
191.8994130439839
 20
128.9008233224893
 30
0.0
 10
191.5424820744595
 20
128.5376109658748
 30
0.0
 10
190.822523978839
 20
127.8049828139315
 30
0.0
 10
189.7575543942857
 20
126.3730255205993
 30
0.0
 10
188.7017480238144
 20
124.6286454992251
 30
0.0
 10
188.1244283352154
 20
123.2043867885811
 30
0.0
 10
187.8358254082284
 20
122.4923978493576
 30
0.0
  0
SPLINE
  5
156
330
1F
100
AcDbEntity
  8
0
  6
Continuous
370
     0
100
AcDbSpline
210
0.0
220
0.0
230
1.0
 70
     8
 71
     3
 72
    10
 73
     6
 74
     0
 42
0.000000001
 43
0.00000001
 40
0.0
 40
0.0
 40
0.0
 40
0.0
 40
0.4485011113185159
 40
0.8970862047939941
 40
0.9999999999999999
 40
0.9999999999999999
 40
0.9999999999999999
 40
0.9999999999999999
 10
186.9832480199418
 20
123.9096566955968
 30
0.0
 10
187.2542249284379
 20
124.4773267077485
 30
0.0
 10
187.7962294860518
 20
125.6127730286715
 30
0.0
 10
188.5157548576113
 20
126.7981037620661
 30
0.0
 10
188.9788100853495
 20
127.3839251711515
 30
0.0
 10
189.0652196354947
 20
127.4932438039888
 30
0.0
  0
SPLINE
  5
157
330
1F
100
AcDbEntity
  8
0
  6
Continuous
370
     0
100
AcDbSpline
210
0.0
220
0.0
230
1.0
 70
     8
 71
     3
 72
    13
 73
     9
 74
     0
 42
0.000000001
 43
0.00000001
 40
0.0
 40
0.0
 40
0.0
 40
0.0
 40
0.1858779570066127
 40
0.3736905346671464
 40
0.5368562679609851
 40
0.700030752924193
 40
0.8677645735868307
 40
1.0
 40
1.0
 40
1.0
 40
1.0
 10
187.8358254082284
 20
122.4923978493576
 30
0.0
 10
188.0240021183989
 20
122.9562448307889
 30
0.0
 10
188.4023140848523
 20
123.8887665202146
 30
0.0
 10
189.0688482778284
 20
125.1510982951749
 30
0.0
 10
189.7819745722177
 20
126.2967031133407
 30
0.0
 10
190.5407299904233
 20
127.3278127508046
 30
0.0
 10
191.3087493633968
 20
128.2344160963884
 30
0.0
 10
191.8561655548138
 20
128.7583991321168
 30
0.0
 10
192.0974830038629
 20
128.9893865444541
 30
0.0
  0
SPLINE
  5
158
330
1F
100
AcDbEntity
  8
0
  6
Continuous
370
     0
100
AcDbSpline
210
0.0
220
0.0
230
1.0
 70
     8
 71
     3
 72
    13
 73
     9
 74
     0
 42
0.000000001
 43
0.00000001
 40
0.0
 40
0.0
 40
0.0
 40
0.0
 40
0.0047242107685242
 40
0.1993618780921279
 40
0.3946134282842665
 40
0.5892550065988239
 40
0.7946461651734368
 40
0.9999999999999999
 40
0.9999999999999999
 40
0.9999999999999999
 40
0.9999999999999999
 10
261.7361413188062
 20
129.462202871388
 30
0.0
 10
261.7512430658431
 20
129.4582764557821
 30
0.0
 10
262.3885373779032
 20
129.2925815645683
 30
0.0
 10
263.5510660217274
 20
128.7740819023397
 30
0.0
 10
265.2129470245055
 20
127.9469040097505
 30
0.0
 10
266.7545471016061
 20
126.9115875686124
 30
0.0
 10
268.1792316727413
 20
125.7089434154283
 30
0.0
 10
268.9826076641466
 20
124.748790951965
 30
0.0
 10
269.3842591590962
 20
124.2687583440015
 30
0.0
  0
LINE
  5
159
330
1F
100
AcDbEntity
  8
0
  6
Continuous
370
     0
100
AcDbLine
 10
193.6943696685
 20
160.3779146222
 30
0.0
 11
193.6839500315
 21
161.006388559
 31
0.0
  0
LINE
  5
15A
330
1F
100
AcDbEntity
  8
0
  6
Continuous
370
     0
100
AcDbLine
 10
262.2731083877
 20
161.006388559
 30
0.0
 11
262.2683623679
 21
160.7201787905
 31
0.0
  0
LINE
  5
15B
330
1F
100
AcDbEntity
  8
0
  6
Continuous
370
     0
100
AcDbLine
 10
191.2222223229
 20
157.9704247684
 30
0.0
 11
191.2020722277
 21
162.2983718001
 31
0.0
  0
LINE
  5
15C
330
1F
100
AcDbEntity
  8
0
  6
Continuous
370
     0
100
AcDbLine
 10
264.734832371
 20
157.9699675277
 30
0.0
 11
264.7549861915
 21
162.2983718001
 31
0.0
  0
SPLINE
  5
15D
330
1F
100
AcDbEntity
  8
0
  6
Continuous
370
     0
100
AcDbSpline
210
0.0
220
0.0
230
1.0
 70
     8
 71
     3
 72
    13
 73
     9
 74
     0
 42
0.000000001
 43
0.00000001
 40
0.0
 40
0.0
 40
0.0
 40
0.0
 40
0.1676523490419453
 40
0.3304276367239875
 40
0.4937161487834415
 40
0.656494618100527
 40
0.8282629046783291
 40
1.0
 40
1.0
 40
1.0
 40
1.0
 10
200.1292722172818
 20
127.4329414434501
 30
0.0
 10
199.7503545324329
 20
127.1124440118599
 30
0.0
 10
199.0035420014241
 20
126.4807725232013
 30
0.0
 10
198.0686788906516
 20
125.2446228203981
 30
0.0
 10
197.2432077234917
 20
123.8836214408636
 30
0.0
 10
196.5270574340397
 20
122.3355524271701
 30
0.0
 10
195.9138600487842
 20
120.6250156350733
 30
0.0
 10
195.6000223785717
 20
119.3590921099537
 30
0.0
 10
195.4431177921376
 20
118.7261878221046
 30
0.0
  0
SPLINE
  5
15E
330
1F
100
AcDbEntity
  8
0
  6
Continuous
370
     0
100
AcDbSpline
210
0.0
220
0.0
230
1.0
 70
     8
 71
     3
 72
    13
 73
     9
 74
     0
 42
0.000000001
 43
0.00000001
 40
0.0
 40
0.0
 40
0.0
 40
0.0
 40
0.1816760596683823
 40
0.3633755243079275
 40
0.5600237823632426
 40
0.7572889520805822
 40
0.9539427550145783
 40
1.0
 40
1.0
 40
1.0
 40
1.0
 10
194.2989135034165
 20
119.5899255126075
 30
0.0
 10
194.4588070062732
 20
120.1672159789126
 30
0.0
 10
194.7786146107535
 20
121.3218712827237
 30
0.0
 10
195.4032554344974
 20
122.9630575978337
 30
0.0
 10
196.1533174858432
 20
124.52370121627
 30
0.0
 10
197.0574856820405
 20
125.9482877912362
 30
0.0
 10
197.797906381775
 20
126.920255219635
 30
0.0
 10
198.2691834855738
 20
127.3559874526556
 30
0.0
 10
198.3586137987456
 20
127.4386727130766
 30
0.0
  0
SPLINE
  5
15F
330
1F
100
AcDbEntity
  8
0
  6
Continuous
370
     0
100
AcDbSpline
210
0.0
220
0.0
230
1.0
 70
     8
 71
     3
 72
    14
 73
    10
 74
     0
 42
0.000000001
 43
0.00000001
 40
0.0
 40
0.0
 40
0.0
 40
0.0
 40
0.1456192607342838
 40
0.2912578369329633
 40
0.4520420355614853
 40
0.613334905757937
 40
0.7741339376790866
 40
0.9942423498992087
 40
1.0
 40
1.0
 40
1.0
 40
1.0
 10
195.4431177921376
 20
118.7261878221046
 30
0.0
 10
195.587451404886
 20
119.2636602627959
 30
0.0
 10
195.8761377753141
 20
120.3386764364633
 30
0.0
 10
196.4324200440157
 20
121.892858439376
 30
0.0
 10
197.1025685480717
 20
123.3857135742337
 30
0.0
 10
197.9002371377547
 20
124.7895569677446
 30
0.0
 10
198.9314335494275
 20
126.158717375644
 30
0.0
 10
199.7261871119196
 20
127.0659184055558
 30
0.0
 10
200.2758594089306
 20
127.4233098948088
 30
0.0
 10
200.2898713446937
 20
127.4324203168127
 30
0.0
  0
SPLINE
  5
160
330
1F
100
AcDbEntity
  8
0
  6
Continuous
370
     0
100
AcDbSpline
210
0.0
220
0.0
230
1.0
 70
     8
 71
     3
 72
    13
 73
     9
 74
     0
 42
0.000000001
 43
0.00000001
 40
0.0
 40
0.0
 40
0.0
 40
0.0
 40
0.1166636350140011
 40
0.2821798088122314
 40
0.4482228033935685
 40
0.6137392152410558
 40
0.8068922802334447
 40
1.0
 40
1.0
 40
1.0
 40
1.0
 10
256.3320917881808
 20
127.4345653936561
 30
0.0
 10
256.7670908707246
 20
127.2502452185368
 30
0.0
 10
257.8192435653579
 20
126.8044213611782
 30
0.0
 10
259.416446717623
 20
125.9123301987218
 30
0.0
 10
261.0980256026559
 20
124.7861646295117
 30
0.0
 10
262.738535838078
 20
123.4311088799503
 30
0.0
 10
264.3039488614808
 20
121.8432641098793
 30
0.0
 10
265.1885348116941
 20
120.5816018724533
 30
0.0
 10
265.6307758636556
 20
119.9508448103898
 30
0.0
  0
SPLINE
  5
161
330
1F
100
AcDbEntity
  8
0
  6
Continuous
370
     0
100
AcDbSpline
210
0.0
220
0.0
230
1.0
 70
     8
 71
     3
 72
    14
 73
    10
 74
     0
 42
0.000000001
 43
0.00000001
 40
0.0
 40
0.0
 40
0.0
 40
0.0
 40
0.1380762790686324
 40
0.2761710090375245
 40
0.4286266464522702
 40
0.5815647066639498
 40
0.7340345524581424
 40
0.9427415215296933
 40
0.9999999999999999
 40
0.9999999999999999
 40
0.9999999999999999
 40
0.9999999999999999
 10
264.4696848340116
 20
120.258446803148
 30
0.0
 10
264.106213529601
 20
120.7110428121143
 30
0.0
 10
263.3792223507226
 20
121.6162953096882
 30
0.0
 10
262.0676415679164
 20
122.8778077326864
 30
0.0
 10
260.5898994439572
 20
124.0582702746095
 30
0.0
 10
258.9455775702796
 20
125.1325293438602
 30
0.0
 10
256.9957004986978
 20
126.1526604249197
 30
0.0
 10
255.3403829728964
 20
126.8726075887
 30
0.0
 10
254.260447512831
 20
127.1519799060614
 30
0.0
 10
254.0279531724534
 20
127.2121246878994
 30
0.0
  0
SPLINE
  5
162
330
1F
100
AcDbEntity
  8
0
  6
Continuous
370
     0
100
AcDbSpline
210
0.0
220
0.0
230
1.0
 70
     8
 71
     3
 72
    13
 73
     9
 74
     0
 42
0.000000001
 43
0.00000001
 40
0.0
 40
0.0
 40
0.0
 40
0.0
 40
0.19895618053665
 40
0.3556096125847396
 40
0.5127571435234335
 40
0.6694136770041924
 40
0.8347218665264577
 40
1.0
 40
1.0
 40
1.0
 40
1.0
 10
254.1162351019464
 20
127.1056498061129
 30
0.0
 10
254.9084767274923
 20
126.8378227904203
 30
0.0
 10
256.3245108349727
 20
126.359115061747
 30
0.0
 10
258.2784734971611
 20
125.3968157455919
 30
0.0
 10
259.9913299666503
 20
124.378161790316
 30
0.0
 10
261.6211264566771
 20
123.1843669724359
 30
0.0
 10
263.1498282323217
 20
121.8283488647806
 30
0.0
 10
264.029759300463
 20
120.7817157713059
 30
0.0
 10
264.4696848340116
 20
120.258446803148
 30
0.0
  0
LINE
  5
163
330
1F
100
AcDbEntity
  8
0
  6
Continuous
370
     0
100
AcDbLine
 10
227.9785292096
 20
168.9432964194
 30
0.0
 11
227.5344220154
 21
168.9427102004
 31
0.0
  0
LWPOLYLINE
  5
164
330
1F
100
AcDbEntity
  8
0
  6
Continuous
370
     0
100
AcDbPolyline
 90
       27
 70
   128
 43
0.0
 10
204.8299068458
 20
167.2167713855
 10
203.1283618755
 20
166.9253385601
 10
201.3519180812
 20
166.587718808
 10
199.6438259132
 20
166.2272442261
 10
198.0084681757
 20
165.8448413878
 10
196.4500414081
 20
165.4414908599
 10
194.9725502975
 20
165.0182291319
 10
193.5797834642
 20
164.576142348
 10
192.2753209121
 20
164.1163648615
 10
191.0625042267
 20
163.6400773059
 10
189.9444514759
 20
163.1485027386
 10
188.9240311332
 20
162.6429023018
 10
188.003865803
 20
162.1245742588
 10
187.1863098688
 20
161.5948491724
 10
186.4734718449
 20
161.055086531
 10
185.8671733983
 20
160.5066720966
 10
185.3689754255
 20
159.9510135663
 10
184.9801557012
 20
159.389537318
 10
184.7017126031
 20
158.8236847951
 10
184.534361387
 20
158.2549084684
 10
184.4785304613
 20
157.6846682814
 10
184.534361387
 20
157.1144280945
 10
184.7017126031
 20
156.5456517678
 10
184.9801557012
 20
155.9797992449
 10
185.3689754255
 20
155.4183229966
 10
185.8671733983
 20
154.8626644663
 10
185.8837732918
 20
154.8461242667
  0
LWPOLYLINE
  5
165
330
1F
100
AcDbEntity
  8
0
  6
Continuous
370
     0
100
AcDbPolyline
 90
       27
 70
   128
 43
0.0
 10
270.0771817811
 20
154.8499968799
 10
270.089885021
 20
154.8626644663
 10
270.5880829938
 20
155.4183229966
 10
270.9769027181
 20
155.9797992449
 10
271.2553458161
 20
156.5456517678
 10
271.4226970322
 20
157.1144280945
 10
271.4785279579
 20
157.6846682814
 10
271.4226970322
 20
158.2549084684
 10
271.2553458161
 20
158.8236847951
 10
270.9769027181
 20
159.389537318
 10
270.5880829938
 20
159.9510135663
 10
270.089885021
 20
160.5066720966
 10
269.4835865743
 20
161.055086531
 10
268.7707485504
 20
161.5948491724
 10
267.9531926162
 20
162.1245742588
 10
267.0330272861
 20
162.6429023018
 10
266.0126069434
 20
163.1485027386
 10
264.8945541926
 20
163.6400773059
 10
263.6817375071
 20
164.1163648615
 10
262.377274955
 20
164.576142348
 10
260.9845081217
 20
165.0182291319
 10
259.5070170112
 20
165.4414908599
 10
257.9485902436
 20
165.8448413878
 10
256.313232506
 20
166.2272442261
 10
254.6051403381
 20
166.587718808
 10
252.8286965437
 20
166.9253385601
 10
251.5320831783
 20
167.1500880038
  0
LINE
  5
166
330
1F
100
AcDbEntity
  8
0
  6
Continuous
370
     0
100
AcDbLine
 10
229.4046460058
 20
168.9372442862
 30
0.0
 11
227.9785292096
 21
168.9432964194
 31
0.0
  0
LWPOLYLINE
  5
167
330
1F
100
AcDbEntity
  8
0
  6
Continuous
370
     0
100
AcDbPolyline
 90
       32
 70
   128
 43
0.0
 10
227.9785292096
 20
169.5556691966
 10
230.1892792213
 20
169.5412856178
 10
232.3944445573
 20
169.4981715203
 10
234.5884552099
 20
169.4264348918
 10
236.76576818
 20
169.3262579615
 10
238.9208840079
 20
169.1978933435
 10
241.0483591132
 20
169.0416650011
 10
243.1428179018
 20
168.8579682464
 10
245.1989704616
 20
168.6472668482
 10
247.2116237379
 20
168.4100920673
 10
249.1756917782
 20
168.1470445856
 10
251.0862124957
 20
167.8587887203
 10
252.9383635022
 20
167.5460514603
 10
254.7274621077
 20
167.209624394
 10
256.4489913977
 20
166.8503559964
 10
258.098602096
 20
166.4691535573
 10
259.6721256025
 20
166.0669812526
 10
261.1655907579
 20
165.6448548419
 10
262.5752219803
 20
165.2038402218
 10
263.8974578924
 20
164.7450510157
 10
265.1289569087
 20
164.2696471275
 10
266.2666158624
 20
163.7788289563
 10
267.3075513787
 20
163.2738364326
 10
268.2491408534
 20
162.7559451614
 10
269.0890038259
 20
162.2264630474
 10
269.8250168808
 20
161.6867286081
 10
270.4553210981
 20
161.1381042243
 10
270.978325779
 20
160.5819763813
 10
271.3927121706
 20
160.019749522
 10
271.6974260159
 20
159.4528441187
 10
271.8917036302
 20
158.8826920936
 10
271.8970382459
 20
158.8604070317
  0
LWPOLYLINE
  5
168
330
1F
100
AcDbEntity
  8
0
  6
Continuous
370
     0
100
AcDbPolyline
 90
       32
 70
   128
 43
0.0
 10
184.0468102939
 20
158.8018235124
 10
184.065354789
 20
158.8826920936
 10
184.2596324034
 20
159.4528441187
 10
184.5643462486
 20
160.019749522
 10
184.9787326403
 20
160.5819763813
 10
185.5017373211
 20
161.1381042243
 10
186.1320415385
 20
161.6867286081
 10
186.8680545933
 20
162.2264630474
 10
187.7079175658
 20
162.7559451614
 10
188.6495070405
 20
163.2738364326
 10
189.6904425569
 20
163.7788289563
 10
190.8281015105
 20
164.2696471275
 10
192.0596005268
 20
164.7450510157
 10
193.3818364389
 20
165.2038402218
 10
194.7914676614
 20
165.6448548419
 10
196.2849328168
 20
166.0669812526
 10
197.8584563233
 20
166.4691535573
 10
199.5080670215
 20
166.8503559964
 10
201.2295963116
 20
167.209624394
 10
203.0186949171
 20
167.5460514603
 10
204.8708459236
 20
167.8587887203
 10
206.7813666411
 20
168.1470445856
 10
208.7454346813
 20
168.4100920673
 10
210.7580879576
 20
168.6472668482
 10
212.8142405174
 20
168.8579682464
 10
214.9086993061
 20
169.0416650011
 10
217.0361744113
 20
169.1978933435
 10
219.1912902392
 20
169.3262579615
 10
221.3686032094
 20
169.4264348918
 10
223.562613862
 20
169.4981715203
 10
225.7677791979
 20
169.5412856178
 10
227.9785292096
 20
169.5556691966
  0
LWPOLYLINE
  5
169
330
1F
100
AcDbEntity
  8
0
  6
Continuous
370
     0
100
AcDbPolyline
 90
       64
 70
   128
 43
0.0
 10
271.9776721544
 20
229.9587545442
 10
271.947266335
 20
230.3168393705
 10
271.8084098644
 20
230.8880749186
 10
271.5588303156
 20
231.4567831503
 10
271.1991684384
 20
232.0215277144
 10
270.7303257532
 20
232.5808816906
 10
270.1534869022
 20
233.1334324404
 10
269.4701121993
 20
233.6777838368
 10
268.6819264538
 20
234.2125607237
 10
267.7909189708
 20
234.7364130136
 10
266.7993435509
 20
235.2480164106
 10
265.7097035892
 20
235.7460789187
 10
264.5247483499
 20
236.2293427703
 10
263.2474766917
 20
236.6965868364
 10
261.8811109908
 20
237.1466309655
 10
260.4291045911
 20
237.5783379118
 10
258.8951287664
 20
237.9906176743
 10
257.2830522306
 20
238.3824279786
 10
255.5969485886
 20
238.7527805444
 10
253.8410795726
 20
239.1007381924
 10
252.0198801406
 20
239.4254235224
 10
250.1379491634
 20
239.7260150564
 10
248.200043837
 20
240.0017539879
 10
246.2110554673
 20
240.2519432174
 10
244.1760094709
 20
240.4759521739
 10
242.10004768
 20
240.6732139218
 10
239.9884143717
 20
240.8432299822
 10
237.8464422993
 20
240.9855712965
 10
235.6795438438
 20
241.0998782272
 10
233.4931914568
 20
241.1858624857
 10
231.2929085795
 20
241.2433052039
 10
229.0842534615
 20
241.2720636837
 10
226.8728049578
 20
241.2720636837
 10
224.6641498398
 20
241.2433052039
 10
222.4638669625
 20
241.1858624857
 10
220.2775145754
 20
241.0998782272
 10
218.1106161199
 20
240.9855712965
 10
215.9686440475
 20
240.8432299822
 10
213.8570107393
 20
240.6732139218
 10
211.7810489483
 20
240.4759521739
 10
209.746002952
 20
240.2519432174
 10
207.7570145823
 20
240.0017539879
 10
205.8191092558
 20
239.7260150564
 10
203.9371782787
 20
239.4254235224
 10
202.1159788467
 20
239.1007381924
 10
200.3601098306
 20
238.7527805444
 10
198.6740061886
 20
238.3824279786
 10
197.0619296528
 20
237.9906176743
 10
195.5279538281
 20
237.5783379118
 10
194.0759474285
 20
237.1466309655
 10
192.7095817275
 20
236.6965868364
 10
191.4323100693
 20
236.2293427703
 10
190.24735483
 20
235.7460789187
 10
189.1577148683
 20
235.2480164106
 10
188.1661394484
 20
234.7364130136
 10
187.2751319654
 20
234.2125607237
 10
186.4869462199
 20
233.6777838368
 10
185.803571517
 20
233.1334324404
 10
185.226732666
 20
232.5808816906
 10
184.7578899808
 20
232.0215277144
 10
184.3982281036
 20
231.4567831503
 10
184.1486485548
 20
230.8880749186
 10
184.0097920842
 20
230.3168393705
 10
183.978529448
 20
229.8876221377
  0
LINE
  5
16A
330
1F
100
AcDbEntity
  8
0
  6
Continuous
370
     0
100
AcDbLine
 10
227.9785292096
 20
168.8875950032
 30
0.0
 11
228.5005218339
 21
168.8867802745
 31
0.0
  0
LWPOLYLINE
  5
16B
330
1F
100
AcDbEntity
  8
0
  6
Continuous
370
     0
100
AcDbPolyline
 90
       25
 70
   128
 43
0.0
 10
254.2993238069
 20
166.5783643717
 10
254.4734047599
 20
166.5436704239
 10
256.1730461068
 20
166.1849795678
 10
257.8003143765
 20
165.8044684429
 10
259.3510279305
 20
165.4031142416
 10
260.8212100215
 20
164.9819462219
 10
262.2070850678
 20
164.5420466715
 10
263.5050991423
 20
164.0845441584
 10
264.7119143851
 20
163.6106130491
 10
265.8244350798
 20
163.121470616
 10
266.8398039289
 20
162.6183717341
 10
267.7554206796
 20
162.1026079173
 10
268.5689272232
 20
161.5755034615
 10
269.2782411225
 20
161.0384113468
 10
269.8815369852
 20
160.4927101039
 10
270.3772725411
 20
159.9398009216
 10
270.7641662903
 20
159.3811025852
 10
271.0412347562
 20
158.8180495475
 10
271.2077589579
 20
158.2520871687
 10
271.2633142121
 20
157.6846682814
 10
271.2077589579
 20
157.1172493942
 10
271.0412347562
 20
156.5512870154
 10
270.7641662903
 20
155.9882339777
 10
270.3772725411
 20
155.4295356413
 10
269.9589894958
 20
154.9552200668
  0
LWPOLYLINE
  5
16C
330
1F
100
AcDbEntity
  8
0
  6
Continuous
370
     0
100
AcDbPolyline
 90
       24
 70
   128
 43
0.0
 10
185.9939189501
 20
154.9594983571
 10
185.5797858782
 20
155.4295356413
 10
185.192892129
 20
155.9882339777
 10
184.915823663
 20
156.5512870154
 10
184.7492994614
 20
157.1172493942
 10
184.6937442072
 20
157.6846682814
 10
184.7492994614
 20
158.2520871687
 10
184.915823663
 20
158.8180495475
 10
185.192892129
 20
159.3811025852
 10
185.5797858782
 20
159.9398009216
 10
186.0755214341
 20
160.4927101039
 10
186.6788172968
 20
161.0384113468
 10
187.388131196
 20
161.5755034615
 10
188.2016377397
 20
162.1026079173
 10
189.1172544904
 20
162.6183717341
 10
190.1326233394
 20
163.121470616
 10
191.2451440342
 20
163.6106130491
 10
192.4519592769
 20
164.0845441584
 10
193.7499733515
 20
164.5420466715
 10
195.1358483977
 20
164.9819462219
 10
196.6060304887
 20
165.4031142416
 10
198.1567440428
 20
165.8044684429
 10
199.7840123124
 20
166.1849795678
 10
201.1786864944
 20
166.482007507
  0
LINE
  5
16D
330
1F
100
AcDbEntity
  8
0
  6
Continuous
370
     0
100
AcDbLine
 10
227.1556339449
 20
168.8855702335
 30
0.0
 11
227.9785292096
 21
168.8875950032
 31
0.0
  0
ARC
  5
16E
330
1F
100
AcDbEntity
  8
0
  6
Continuous
370
     0
100
AcDbCircle
 10
267.3664840268
 20
157.9044122206
 30
0.0
 40
3.448947112109794
100
AcDbArc
 50
310.0284399063
 51
15.6877798183
  0
ARC
  5
16F
330
1F
100
AcDbEntity
  8
0
  6
Continuous
370
     0
100
AcDbCircle
 10
188.7311289871
 20
157.9507528464
 30
0.0
 40
3.573772273647811
100
AcDbArc
 50
165.9308325003
 51
228.3755752853
  0
LINE
  5
170
330
1F
100
AcDbEntity
  8
0
  6
Continuous
370
     0
100
AcDbLine
 10
195.2672766395
 20
164.9810195583
 30
0.0
 11
195.2603848524
 21
164.3678856944
 31
0.0
  0
LINE
  5
171
330
1F
100
AcDbEntity
  8
0
  6
Continuous
370
     0
100
AcDbLine
 10
260.991902823
 20
164.1165695204
 30
0.0
 11
260.9854543455
 21
164.887478992
 31
0.0
  0
LINE
  5
172
330
1F
100
AcDbEntity
  8
0
  6
Continuous
370
     0
100
AcDbLine
 10
261.4490071185
 20
164.7462338314
 30
0.0
 11
261.4569010086
 21
163.814607621
 31
0.0
  0
LINE
  5
173
330
1F
100
AcDbEntity
  8
0
  6
Continuous
370
     0
100
AcDbLine
 10
195.0220035262
 20
164.1479294188
 30
0.0
 11
195.0304524846
 21
164.9064963984
 31
0.0
  0
MTEXT
  5
175
330
1F
100
AcDbEntity
  8
寸法線
 62
     7
100
AcDbMText
 10
199.2710574018126
 20
70.65190332326281
 30
0.0
 40
7.9375
 41
0.0
 71
     1
 72
     1
  1
{MMP-100F/FLF}
  7
SLDTEXTSTYLE0
 73
     1
 44
1.0
1001
ACAD
1000
ACAD_MTEXT_DEFINED_HEIGHT_BEGIN
1070
    46
1040
7.9375
1000
ACAD_MTEXT_DEFINED_HEIGHT_END
  0
ENDSEC
  0
SECTION
  2
OBJECTS
  0
DICTIONARY
  5
C
330
0
100
AcDbDictionary
281
     1
  3
ACAD_DETAILVIEWSTYLE
350
1BF
  3
ACAD_GROUP
350
D
  3
ACAD_IMAGE_VARS
350
197
  3
ACAD_LAYOUT
350
1A
  3
ACAD_MLINESTYLE
350
17
  3
ACAD_PLOTSETTINGS
350
19
  3
ACAD_PLOTSTYLENAME
350
E
  3
ACAD_SCALELIST
350
47
  3
ACAD_SECTIONVIEWSTYLE
350
1C0
  3
AcDbVariableDictionary
350
1BB
  3
APPDATA
350
195
  3
DWGPROPS
350
1E6
  0
DICTIONARY
  5
1BF
102
{ACAD_REACTORS
330
C
102
}
330
C
100
AcDbDictionary
281
     1
  0
DICTIONARY
  5
D
102
{ACAD_REACTORS
330
C
102
}
330
C
100
AcDbDictionary
281
     1
  0
RASTERVARIABLES
  5
197
102
{ACAD_REACTORS
330
C
102
}
330
C
100
AcDbRasterVariables
 90
        0
 70
     1
 71
     1
 72
     1
  0
DICTIONARY
  5
1A
102
{ACAD_REACTORS
330
C
102
}
330
C
100
AcDbDictionary
281
     1
  3
Layout1
350
1E
  3
Layout2
350
26
  3
Model
350
22
  0
DICTIONARY
  5
17
102
{ACAD_REACTORS
330
C
102
}
330
C
100
AcDbDictionary
281
     1
  3
Standard
350
18
  0
DICTIONARY
  5
19
102
{ACAD_REACTORS
330
C
102
}
330
C
100
AcDbDictionary
281
     1
  0
ACDBDICTIONARYWDFLT
  5
E
102
{ACAD_REACTORS
330
C
102
}
330
C
100
AcDbDictionary
281
     1
  3
Normal
350
F
100
AcDbDictionaryWithDefault
340
F
  0
DICTIONARY
  5
47
102
{ACAD_REACTORS
330
C
102
}
330
C
100
AcDbDictionary
281
     1
  3
A0
350
48
  3
A1
350
49
  3
A2
350
4A
  3
A3
350
4B
  3
A4
350
4C
  3
A5
350
4D
  3
A6
350
4E
  3
A7
350
4F
  3
A8
350
50
  3
A9
350
51
  3
B0
350
52
  3
B1
350
53
  3
B2
350
54
  3
B3
350
55
  3
B4
350
56
  3
B5
350
57
  3
B6
350
58
  3
B7
350
59
  3
B8
350
5A
  3
B9
350
5B
  3
C0
350
5C
  3
C1
350
5D
  3
C2
350
5E
  3
C3
350
5F
  3
C4
350
60
  3
C5
350
61
  3
C6
350
62
  3
C7
350
63
  3
C8
350
64
  3
C9
350
65
  3
D0
350
66
  3
D1
350
67
  3
D2
350
68
  0
DICTIONARY
  5
1C0
102
{ACAD_REACTORS
330
C
102
}
330
C
100
AcDbDictionary
281
     1
  0
DICTIONARY
  5
1BB
102
{ACAD_REACTORS
330
C
102
}
330
C
100
AcDbDictionary
281
     1
  0
DICTIONARY
  5
195
102
{ACAD_REACTORS
330
C
102
}
330
C
100
AcDbDictionary
281
     1
  0
XRECORD
  5
1E6
102
{ACAD_REACTORS
330
C
102
}
330
C
100
AcDbXrecord
280
     1
  1
DWGPROPS COOKIE
  2

  3

  4

  6

  7

  8
SPAX
  9

300
=
301
=
302
=
303
=
304
=
305
=
306
=
307
=
308
=
309
=
 40
0.0
 41
2457385.44161625
 42
2458075.034937662
  1

 90
        0
  0
LAYOUT
  5
1E
102
{ACAD_REACTORS
330
1A
102
}
330
1A
100
AcDbPlotSettings
  1

  2
none_device
  4

  6

 40
0.0
 41
0.0
 42
0.0
 43
0.0
 44
0.0
 45
0.0
 46
0.0
 47
0.0
 48
0.0
 49
0.0
140
0.0
141
0.0
142
1.0
143
1.0
 70
   688
 72
     1
 73
     0
 74
     5
  7

 75
    16
147
1.0
148
0.0
149
0.0
100
AcDbLayout
  1
Layout1
 70
     1
 71
     1
 10
0.0
 20
0.0
 11
420.0
 21
297.0
 12
0.0
 22
0.0
 32
0.0
 14
1.000000000000000E+20
 24
1.000000000000000E+20
 34
1.000000000000000E+20
 15
-1.000000000000000E+20
 25
-1.000000000000000E+20
 35
-1.000000000000000E+20
146
0.0
 13
0.0
 23
0.0
 33
0.0
 16
1.0
 26
0.0
 36
0.0
 17
0.0
 27
1.0
 37
0.0
 76
     0
330
1B
  0
LAYOUT
  5
26
102
{ACAD_REACTORS
330
1A
102
}
330
1A
100
AcDbPlotSettings
  1

  2
none_device
  4

  6

 40
0.0
 41
0.0
 42
0.0
 43
0.0
 44
0.0
 45
0.0
 46
0.0
 47
0.0
 48
0.0
 49
0.0
140
0.0
141
0.0
142
1.0
143
1.0
 70
   688
 72
     1
 73
     0
 74
     5
  7

 75
    16
147
1.0
148
0.0
149
0.0
100
AcDbLayout
  1
Layout2
 70
     1
 71
     2
 10
0.0
 20
0.0
 11
0.0
 21
0.0
 12
0.0
 22
0.0
 32
0.0
 14
0.0
 24
0.0
 34
0.0
 15
0.0
 25
0.0
 35
0.0
146
0.0
 13
0.0
 23
0.0
 33
0.0
 16
1.0
 26
0.0
 36
0.0
 17
0.0
 27
1.0
 37
0.0
 76
     0
330
23
  0
LAYOUT
  5
22
102
{ACAD_REACTORS
330
1A
102
}
330
1A
100
AcDbPlotSettings
  1

  2
none_device
  4
Letter_(8.50_x_11.00_Inches)
  6

 40
6.35
 41
6.35
 42
6.35000508
 43
6.35000508
 44
215.9
 45
279.4
 46
0.0
 47
0.0
 48
0.0
 49
0.0
140
0.0
141
0.0
142
1.0
143
1.0
 70
  1712
 72
     1
 73
     0
 74
     0
  7

 75
     0
147
1.0
148
0.0
149
0.0
100
AcDbLayout
  1
Model
 70
     1
 71
     0
 10
0.0
 20
0.0
 11
431.8
 21
279.4
 12
0.0
 22
0.0
 32
0.0
 14
182.1785287805
 24
62.71440332326281
 34
0.0
 15
273.7785296388
 25
241.8314636916202
 35
0.0
146
0.0
 13
0.0
 23
0.0
 33
0.0
 16
1.0
 26
0.0
 36
0.0
 17
0.0
 27
1.0
 37
0.0
 76
     0
330
1F
331
29
  0
MLINESTYLE
  5
18
102
{ACAD_REACTORS
330
17
102
}
330
17
100
AcDbMlineStyle
  2
Standard
 70
     0
  3

 62
   256
 51
90.0
 52
90.0
 71
     2
 49
0.5
 62
   256
  6
BYLAYER
 49
-0.5
 62
   256
  6
BYLAYER
  0
ACDBPLACEHOLDER
  5
F
102
{ACAD_REACTORS
330
E
102
}
330
E
  0
SCALE
  5
48
102
{ACAD_REACTORS
330
47
102
}
330
47
100
AcDbScale
 70
     0
300
1:1
140
1.0
141
1.0
290
     1
  0
SCALE
  5
49
102
{ACAD_REACTORS
330
47
102
}
330
47
100
AcDbScale
 70
     0
300
1:2
140
1.0
141
2.0
290
     0
  0
SCALE
  5
4A
102
{ACAD_REACTORS
330
47
102
}
330
47
100
AcDbScale
 70
     0
300
1:4
140
1.0
141
4.0
290
     0
  0
SCALE
  5
4B
102
{ACAD_REACTORS
330
47
102
}
330
47
100
AcDbScale
 70
     0
300
1:5
140
1.0
141
5.0
290
     0
  0
SCALE
  5
4C
102
{ACAD_REACTORS
330
47
102
}
330
47
100
AcDbScale
 70
     0
300
1:8
140
1.0
141
8.0
290
     0
  0
SCALE
  5
4D
102
{ACAD_REACTORS
330
47
102
}
330
47
100
AcDbScale
 70
     0
300
1:10
140
1.0
141
10.0
290
     0
  0
SCALE
  5
4E
102
{ACAD_REACTORS
330
47
102
}
330
47
100
AcDbScale
 70
     0
300
1:16
140
1.0
141
16.0
290
     0
  0
SCALE
  5
4F
102
{ACAD_REACTORS
330
47
102
}
330
47
100
AcDbScale
 70
     0
300
1:20
140
1.0
141
20.0
290
     0
  0
SCALE
  5
50
102
{ACAD_REACTORS
330
47
102
}
330
47
100
AcDbScale
 70
     0
300
1:30
140
1.0
141
30.0
290
     0
  0
SCALE
  5
51
102
{ACAD_REACTORS
330
47
102
}
330
47
100
AcDbScale
 70
     0
300
1:40
140
1.0
141
40.0
290
     0
  0
SCALE
  5
52
102
{ACAD_REACTORS
330
47
102
}
330
47
100
AcDbScale
 70
     0
300
1:50
140
1.0
141
50.0
290
     0
  0
SCALE
  5
53
102
{ACAD_REACTORS
330
47
102
}
330
47
100
AcDbScale
 70
     0
300
1:100
140
1.0
141
100.0
290
     0
  0
SCALE
  5
54
102
{ACAD_REACTORS
330
47
102
}
330
47
100
AcDbScale
 70
     0
300
2:1
140
2.0
141
1.0
290
     0
  0
SCALE
  5
55
102
{ACAD_REACTORS
330
47
102
}
330
47
100
AcDbScale
 70
     0
300
4:1
140
4.0
141
1.0
290
     0
  0
SCALE
  5
56
102
{ACAD_REACTORS
330
47
102
}
330
47
100
AcDbScale
 70
     0
300
8:1
140
8.0
141
1.0
290
     0
  0
SCALE
  5
57
102
{ACAD_REACTORS
330
47
102
}
330
47
100
AcDbScale
 70
     0
300
10:1
140
10.0
141
1.0
290
     0
  0
SCALE
  5
58
102
{ACAD_REACTORS
330
47
102
}
330
47
100
AcDbScale
 70
     0
300
100:1
140
100.0
141
1.0
290
     0
  0
SCALE
  5
59
102
{ACAD_REACTORS
330
47
102
}
330
47
100
AcDbScale
 70
     0
300
1/128" = 1'-0"
140
0.0078125
141
12.0
290
     0
  0
SCALE
  5
5A
102
{ACAD_REACTORS
330
47
102
}
330
47
100
AcDbScale
 70
     0
300
1/64" = 1'-0"
140
0.015625
141
12.0
290
     0
  0
SCALE
  5
5B
102
{ACAD_REACTORS
330
47
102
}
330
47
100
AcDbScale
 70
     0
300
1/32" = 1'-0"
140
0.03125
141
12.0
290
     0
  0
SCALE
  5
5C
102
{ACAD_REACTORS
330
47
102
}
330
47
100
AcDbScale
 70
     0
300
1/16" = 1'-0"
140
0.0625
141
12.0
290
     0
  0
SCALE
  5
5D
102
{ACAD_REACTORS
330
47
102
}
330
47
100
AcDbScale
 70
     0
300
3/32" = 1'-0"
140
0.09375
141
12.0
290
     0
  0
SCALE
  5
5E
102
{ACAD_REACTORS
330
47
102
}
330
47
100
AcDbScale
 70
     0
300
1/8" = 1'-0"
140
0.125
141
12.0
290
     0
  0
SCALE
  5
5F
102
{ACAD_REACTORS
330
47
102
}
330
47
100
AcDbScale
 70
     0
300
3/16" = 1'-0"
140
0.1875
141
12.0
290
     0
  0
SCALE
  5
60
102
{ACAD_REACTORS
330
47
102
}
330
47
100
AcDbScale
 70
     0
300
1/4" = 1'-0"
140
0.25
141
12.0
290
     0
  0
SCALE
  5
61
102
{ACAD_REACTORS
330
47
102
}
330
47
100
AcDbScale
 70
     0
300
3/8" = 1'-0"
140
0.375
141
12.0
290
     0
  0
SCALE
  5
62
102
{ACAD_REACTORS
330
47
102
}
330
47
100
AcDbScale
 70
     0
300
1/2" = 1'-0"
140
0.5
141
12.0
290
     0
  0
SCALE
  5
63
102
{ACAD_REACTORS
330
47
102
}
330
47
100
AcDbScale
 70
     0
300
3/4" = 1'-0"
140
0.75
141
12.0
290
     0
  0
SCALE
  5
64
102
{ACAD_REACTORS
330
47
102
}
330
47
100
AcDbScale
 70
     0
300
1" = 1'-0"
140
1.0
141
12.0
290
     0
  0
SCALE
  5
65
102
{ACAD_REACTORS
330
47
102
}
330
47
100
AcDbScale
 70
     0
300
1-1/2" = 1'-0"
140
1.5
141
12.0
290
     0
  0
SCALE
  5
66
102
{ACAD_REACTORS
330
47
102
}
330
47
100
AcDbScale
 70
     0
300
3" = 1'-0"
140
3.0
141
12.0
290
     0
  0
SCALE
  5
67
102
{ACAD_REACTORS
330
47
102
}
330
47
100
AcDbScale
 70
     0
300
6" = 1'-0"
140
6.0
141
12.0
290
     0
  0
SCALE
  5
68
102
{ACAD_REACTORS
330
47
102
}
330
47
100
AcDbScale
 70
     0
300
1'-0" = 1'-0"
140
12.0
141
12.0
290
     0
  0
ENDSEC
  0
EOF
