  0
SECTION
  2
HEADER
  9
$ACADVER
  1
AC1015
  9
$ACADMAINTVER
 70
     6
  9
$DWGCODEPAGE
  3
ANSI_932
  9
$INSBASE
 10
0.0
 20
0.0
 30
0.0
  9
$EXTMIN
 10
151.7813818402
 20
63.49098338368583
 30
0.0
  9
$EXTMAX
 10
282.9785289116
 20
241.9038043921065
 30
0.0
  9
$LIMMIN
 10
0.0
 20
0.0
  9
$LIMMAX
 10
431.8
 20
279.4
  9
$ORTHOMODE
 70
     0
  9
$REGENMODE
 70
     1
  9
$FILLMODE
 70
     1
  9
$QTEXTMODE
 70
     0
  9
$MIRRTEXT
 70
     1
  9
$LTSCALE
 40
1.0
  9
$ATTMODE
 70
     1
  9
$TEXTSIZE
 40
4.0
  9
$TRACEWID
 40
1.0
  9
$TEXTSTYLE
  7
Standard
  9
$CLAYER
  8
0
  9
$CELTYPE
  6
ByLayer
  9
$CECOLOR
 62
   256
  9
$CELTSCALE
 40
1.0
  9
$DISPSILH
 70
     0
  9
$DIMSCALE
 40
1.0
  9
$DIMASZ
 40
2.5
  9
$DIMEXO
 40
1.5
  9
$DIMDLI
 40
3.75
  9
$DIMRND
 40
0.0
  9
$DIMDLE
 40
0.0
  9
$DIMEXE
 40
1.0
  9
$DIMTP
 40
0.0
  9
$DIMTM
 40
0.0
  9
$DIMTXT
 40
4.0
  9
$DIMCEN
 40
2.5
  9
$DIMTSZ
 40
0.0
  9
$DIMTOL
 70
     0
  9
$DIMLIM
 70
     0
  9
$DIMTIH
 70
     1
  9
$DIMTOH
 70
     1
  9
$DIMSE1
 70
     0
  9
$DIMSE2
 70
     0
  9
$DIMTAD
 70
     1
  9
$DIMZIN
 70
     0
  9
$DIMBLK
  1

  9
$DIMASO
 70
     1
  9
$DIMSHO
 70
     1
  9
$DIMPOST
  1

  9
$DIMAPOST
  1

  9
$DIMALT
 70
     0
  9
$DIMALTD
 70
     3
  9
$DIMALTF
 40
0.0393700787
  9
$DIMLFAC
 40
1.0
  9
$DIMTOFL
 70
     1
  9
$DIMTVP
 40
0.0
  9
$DIMTIX
 70
     0
  9
$DIMSOXD
 70
     0
  9
$DIMSAH
 70
     0
  9
$DIMBLK1
  1

  9
$DIMBLK2
  1

  9
$DIMSTYLE
  2
ISO-25
  9
$DIMCLRD
 70
     0
  9
$DIMCLRE
 70
     0
  9
$DIMCLRT
 70
     0
  9
$DIMTFAC
 40
1.0
  9
$DIMGAP
 40
1.524
  9
$DIMJUST
 70
     0
  9
$DIMSD1
 70
     0
  9
$DIMSD2
 70
     0
  9
$DIMTOLJ
 70
     0
  9
$DIMTZIN
 70
     0
  9
$DIMALTZ
 70
     0
  9
$DIMALTTZ
 70
     0
  9
$DIMUPT
 70
     0
  9
$DIMDEC
 70
     2
  9
$DIMTDEC
 70
     2
  9
$DIMALTU
 70
     2
  9
$DIMALTTD
 70
     3
  9
$DIMTXSTY
  7
Standard
  9
$DIMAUNIT
 70
     0
  9
$DIMADEC
 70
     2
  9
$DIMALTRND
 40
0.0
  9
$DIMAZIN
 70
     0
  9
$DIMDSEP
 70
    44
  9
$DIMATFIT
 70
     3
  9
$DIMFRAC
 70
     0
  9
$DIMLDRBLK
  1

  9
$DIMLUNIT
 70
     2
  9
$DIMLWD
 70
    -2
  9
$DIMLWE
 70
    -2
  9
$DIMTMOVE
 70
     0
  9
$LUNITS
 70
     2
  9
$LUPREC
 70
     2
  9
$SKETCHINC
 40
1.0
  9
$FILLETRAD
 40
10.0
  9
$AUNITS
 70
     0
  9
$AUPREC
 70
     2
  9
$MENU
  1
.
  9
$ELEVATION
 40
0.0
  9
$PELEVATION
 40
0.0
  9
$THICKNESS
 40
0.0
  9
$LIMCHECK
 70
     0
  9
$CHAMFERA
 40
0.0
  9
$CHAMFERB
 40
0.0
  9
$CHAMFERC
 40
0.0
  9
$CHAMFERD
 40
0.0
  9
$SKPOLY
 70
     0
  9
$TDCREATE
 40
2457385.817139792
  9
$TDUCREATE
 40
2457385.442139792
  9
$TDUPDATE
 40
2458075.40861228
  9
$TDUUPDATE
 40
2458075.03361228
  9
$TDINDWG
 40
0.002713912
  9
$TDUSRTIMER
 40
2458075.031853044
  9
$USRTIMER
 70
     1
  9
$ANGBASE
 50
0.0
  9
$ANGDIR
 70
     0
  9
$PDMODE
 70
     0
  9
$PDSIZE
 40
-1.0
  9
$PLINEWID
 40
0.0
  9
$SPLFRAME
 70
     0
  9
$SPLINETYPE
 70
     6
  9
$SPLINESEGS
 70
     8
  9
$HANDSEED
  5
3C9
  9
$SURFTAB1
 70
     6
  9
$SURFTAB2
 70
     6
  9
$SURFTYPE
 70
     6
  9
$SURFU
 70
     6
  9
$SURFV
 70
     6
  9
$UCSBASE
  2

  9
$UCSNAME
  2

  9
$UCSORG
 10
0.0
 20
0.0
 30
0.0
  9
$UCSXDIR
 10
1.0
 20
0.0
 30
0.0
  9
$UCSYDIR
 10
0.0
 20
1.0
 30
0.0
  9
$UCSORTHOREF
  2

  9
$UCSORTHOVIEW
 70
     0
  9
$UCSORGTOP
 10
0.0
 20
0.0
 30
0.0
  9
$UCSORGBOTTOM
 10
0.0
 20
0.0
 30
0.0
  9
$UCSORGLEFT
 10
0.0
 20
0.0
 30
0.0
  9
$UCSORGRIGHT
 10
0.0
 20
0.0
 30
0.0
  9
$UCSORGFRONT
 10
0.0
 20
0.0
 30
0.0
  9
$UCSORGBACK
 10
0.0
 20
0.0
 30
0.0
  9
$PUCSBASE
  2

  9
$PUCSNAME
  2

  9
$PUCSORG
 10
0.0
 20
0.0
 30
0.0
  9
$PUCSXDIR
 10
1.0
 20
0.0
 30
0.0
  9
$PUCSYDIR
 10
0.0
 20
1.0
 30
0.0
  9
$PUCSORTHOREF
  2

  9
$PUCSORTHOVIEW
 70
     0
  9
$PUCSORGTOP
 10
0.0
 20
0.0
 30
0.0
  9
$PUCSORGBOTTOM
 10
0.0
 20
0.0
 30
0.0
  9
$PUCSORGLEFT
 10
0.0
 20
0.0
 30
0.0
  9
$PUCSORGRIGHT
 10
0.0
 20
0.0
 30
0.0
  9
$PUCSORGFRONT
 10
0.0
 20
0.0
 30
0.0
  9
$PUCSORGBACK
 10
0.0
 20
0.0
 30
0.0
  9
$USERI1
 70
     0
  9
$USERI2
 70
     0
  9
$USERI3
 70
     0
  9
$USERI4
 70
     0
  9
$USERI5
 70
     0
  9
$USERR1
 40
0.0
  9
$USERR2
 40
0.0
  9
$USERR3
 40
0.0
  9
$USERR4
 40
0.0
  9
$USERR5
 40
0.0
  9
$WORLDVIEW
 70
     1
  9
$SHADEDGE
 70
     3
  9
$SHADEDIF
 70
    70
  9
$TILEMODE
 70
     1
  9
$MAXACTVP
 70
    64
  9
$PINSBASE
 10
0.0
 20
0.0
 30
0.0
  9
$PLIMCHECK
 70
     0
  9
$PEXTMIN
 10
1.000000000000000E+20
 20
1.000000000000000E+20
 30
1.000000000000000E+20
  9
$PEXTMAX
 10
-1.000000000000000E+20
 20
-1.000000000000000E+20
 30
-1.000000000000000E+20
  9
$PLIMMIN
 10
0.0
 20
0.0
  9
$PLIMMAX
 10
0.0
 20
0.0
  9
$UNITMODE
 70
     0
  9
$VISRETAIN
 70
     1
  9
$PLINEGEN
 70
     0
  9
$PSLTSCALE
 70
     1
  9
$TREEDEPTH
 70
  3020
  9
$CMLSTYLE
  2
Standard
  9
$CMLJUST
 70
     0
  9
$CMLSCALE
 40
20.0
  9
$PROXYGRAPHICS
 70
     1
  9
$MEASUREMENT
 70
     1
  9
$CELWEIGHT
370
    -1
  9
$ENDCAPS
280
     0
  9
$JOINSTYLE
280
     0
  9
$LWDISPLAY
290
     1
  9
$INSUNITS
 70
     4
  9
$HYPERLINKBASE
  1

  9
$STYLESHEET
  1

  9
$XEDIT
290
     1
  9
$CEPSNTYPE
380
     0
  9
$PSTYLEMODE
290
     1
  9
$FINGERPRINTGUID
  2
{71A57BE7-6AB8-4113-9BBE-F16B67DA5EF2}
  9
$VERSIONGUID
  2
{FAEB1C32-E019-11D5-929B-00C0DF256EC4}
  9
$EXTNAMES
290
     1
  9
$PSVPSCALE
 40
0.0
  9
$OLESTARTUP
290
     0
  0
ENDSEC
  0
SECTION
  2
CLASSES
  0
CLASS
  1
ACDBDICTIONARYWDFLT
  2
AcDbDictionaryWithDefault
  3
ObjectDBX Classes
 90
        0
280
     0
281
     0
  0
CLASS
  1
VISUALSTYLE
  2
AcDbVisualStyle
  3
ObjectDBX Classes
 90
     4095
280
     0
281
     0
  0
CLASS
  1
MATERIAL
  2
AcDbMaterial
  3
ObjectDBX Classes
 90
     1153
280
     0
281
     0
  0
CLASS
  1
SCALE
  2
AcDbScale
  3
ObjectDBX Classes
 90
     1153
280
     0
281
     0
  0
CLASS
  1
SUN
  2
AcDbSun
  3
SCENEOE
 90
     1153
280
     0
281
     0
  0
CLASS
  1
ACDBPLACEHOLDER
  2
AcDbPlaceHolder
  3
ObjectDBX Classes
 90
        0
280
     0
281
     0
  0
CLASS
  1
LAYOUT
  2
AcDbLayout
  3
ObjectDBX Classes
 90
        0
280
     0
281
     0
  0
CLASS
  1
TABLESTYLE
  2
AcDbTableStyle
  3
ObjectDBX Classes
 90
     4095
280
     0
281
     0
  0
CLASS
  1
RASTERVARIABLES
  2
AcDbRasterVariables
  3
ISM
 90
        0
280
     0
281
     0
  0
CLASS
  1
DICTIONARYVAR
  2
AcDbDictionaryVar
  3
ObjectDBX Classes
 90
        0
280
     0
281
     0
  0
CLASS
  1
MLEADERSTYLE
  2
AcDbMLeaderStyle
  3
ACDB_MLEADERSTYLE_CLASS
 90
     4095
280
     0
281
     0
  0
ENDSEC
  0
SECTION
  2
TABLES
  0
TABLE
  2
VPORT
  5
8
330
0
100
AcDbSymbolTable
 70
     1
  0
VPORT
  5
29
330
8
100
AcDbSymbolTableRecord
100
AcDbViewportTableRecord
  2
*Active
 70
     0
 10
0.0
 20
0.0
 11
1.0
 21
1.0
 12
217.3799553759
 22
152.6946331890957
 13
0.0
 23
0.0
 14
10.0
 24
10.0
 15
10.0
 25
10.0
 16
0.0
 26
0.0
 36
1.0
 17
0.0
 27
0.0
 37
0.0
 40
181.9754456030361
 41
2.262839879154078
 42
50.0
 43
0.0
 44
0.0
 50
0.0
 51
0.0
 71
    16
 72
  2000
 73
     1
 74
     3
 75
     0
 76
     0
 77
     0
 78
     0
281
     0
 65
     1
110
0.0
120
0.0
130
0.0
111
1.0
121
0.0
131
0.0
112
0.0
122
1.0
132
0.0
 79
     0
146
0.0
  0
ENDTAB
  0
TABLE
  2
LTYPE
  5
5
330
0
100
AcDbSymbolTable
 70
     1
  0
LTYPE
  5
14
330
5
100
AcDbSymbolTableRecord
100
AcDbLinetypeTableRecord
  2
ByBlock
 70
     0
  3

 72
    65
 73
     0
 40
0.0
  0
LTYPE
  5
15
330
5
100
AcDbSymbolTableRecord
100
AcDbLinetypeTableRecord
  2
ByLayer
 70
     0
  3

 72
    65
 73
     0
 40
0.0
  0
LTYPE
  5
16
330
5
100
AcDbSymbolTableRecord
100
AcDbLinetypeTableRecord
  2
Continuous
 70
     0
  3
Solid line
 72
    65
 73
     0
 40
0.0
  0
ENDTAB
  0
TABLE
  2
LAYER
  5
2
330
0
100
AcDbSymbolTable
 70
     2
  0
LAYER
  5
10
330
2
100
AcDbSymbolTableRecord
100
AcDbLayerTableRecord
  2
0
 70
     0
 62
     7
  6
Continuous
370
    -3
390
F
  0
LAYER
  5
72
330
2
100
AcDbSymbolTableRecord
100
AcDbLayerTableRecord
  2
寸法線
 70
     0
 62
     7
  6
Continuous
370
    -3
390
F
  0
ENDTAB
  0
TABLE
  2
STYLE
  5
3
330
0
100
AcDbSymbolTable
 70
     2
  0
STYLE
  5
11
330
3
100
AcDbSymbolTableRecord
100
AcDbTextStyleTableRecord
  2
Standard
 70
     0
 40
0.0
 41
1.0
 50
0.0
 71
     0
 42
4.0
  3
txt
  4
bigfont
  0
STYLE
  5
356
330
3
100
AcDbSymbolTableRecord
100
AcDbTextStyleTableRecord
  2
SLDTEXTSTYLE0
 70
     0
 40
0.0
 41
0.7
 50
0.0
 71
     0
 42
4.0
  3
TXT
  4
bigfont
  0
ENDTAB
  0
TABLE
  2
VIEW
  5
6
330
0
100
AcDbSymbolTable
 70
     0
  0
ENDTAB
  0
TABLE
  2
UCS
  5
7
330
0
100
AcDbSymbolTable
 70
     0
  0
ENDTAB
  0
TABLE
  2
APPID
  5
9
330
0
100
AcDbSymbolTable
 70
     1
  0
APPID
  5
12
330
9
100
AcDbSymbolTableRecord
100
AcDbRegAppTableRecord
  2
ACAD
 70
     0
  0
ENDTAB
  0
TABLE
  2
DIMSTYLE
  5
A
330
0
100
AcDbSymbolTable
 70
     1
100
AcDbDimStyleTable
  0
DIMSTYLE
105
27
330
A
100
AcDbSymbolTableRecord
100
AcDbDimStyleTableRecord
  2
ISO-25
 70
     0
 41
2.5
 42
0.625
 43
3.75
 44
1.25
 73
     0
 74
     0
 77
     1
 78
     8
140
2.5
141
2.5
143
0.0393700787
147
0.625
171
     3
172
     1
178
     0
271
     2
272
     2
274
     3
278
    44
283
     0
284
     8
340
11
  0
ENDTAB
  0
TABLE
  2
BLOCK_RECORD
  5
1
330
0
100
AcDbSymbolTable
 70
     1
  0
BLOCK_RECORD
  5
1F
330
1
100
AcDbSymbolTableRecord
100
AcDbBlockTableRecord
  2
*Model_Space
340
22
  0
BLOCK_RECORD
  5
1B
330
1
100
AcDbSymbolTableRecord
100
AcDbBlockTableRecord
  2
*Paper_Space
340
1E
  0
BLOCK_RECORD
  5
23
330
1
100
AcDbSymbolTableRecord
100
AcDbBlockTableRecord
  2
*Paper_Space0
340
26
  0
ENDTAB
  0
ENDSEC
  0
SECTION
  2
BLOCKS
  0
BLOCK
  5
20
330
1F
100
AcDbEntity
  8
0
100
AcDbBlockBegin
  2
*Model_Space
 70
     0
 10
0.0
 20
0.0
 30
0.0
  3
*Model_Space
  1
*Model_Space
  0
ENDBLK
  5
21
330
1F
100
AcDbEntity
  8
0
100
AcDbBlockEnd
  0
BLOCK
  5
1C
330
1B
100
AcDbEntity
 67
     1
  8
0
100
AcDbBlockBegin
  2
*Paper_Space
 70
     0
 10
0.0
 20
0.0
 30
0.0
  3
*Paper_Space
  1
*Paper_Space
  0
ENDBLK
  5
1D
330
1B
100
AcDbEntity
 67
     1
  8
0
100
AcDbBlockEnd
  0
BLOCK
  5
24
330
23
100
AcDbEntity
  8
0
100
AcDbBlockBegin
  2
*Paper_Space0
 70
     0
 10
0.0
 20
0.0
 30
0.0
  3
*Paper_Space0
  1
*Paper_Space0
  0
ENDBLK
  5
25
330
23
100
AcDbEntity
  8
0
100
AcDbBlockEnd
  0
ENDSEC
  0
SECTION
  2
ENTITIES
  0
LINE
  5
79
330
1F
100
AcDbEntity
  8
0
  6
Continuous
370
    15
100
AcDbLine
 10
229.8285292102
 20
120.4503718279
 30
0.0
 11
229.8285292102
 21
120.502135549
 31
0.0
  0
LINE
  5
7A
330
1F
100
AcDbEntity
  8
0
  6
Continuous
370
    15
100
AcDbLine
 10
226.1285292091
 20
120.502135549
 30
0.0
 11
226.1285292091
 21
120.4503718279
 31
0.0
  0
LINE
  5
7B
330
1F
100
AcDbEntity
  8
0
  6
Continuous
370
    15
100
AcDbLine
 10
194.1727826245
 20
120.3426471578
 30
0.0
 11
194.0313817806
 21
120.3826150828
 31
0.0
  0
LINE
  5
7C
330
1F
100
AcDbEntity
  8
0
  6
Continuous
370
    15
100
AcDbLine
 10
193.0249610789
 20
116.82212169
 30
0.0
 11
193.1663619227
 21
116.7821528008
 31
0.0
  0
LINE
  5
7D
330
1F
100
AcDbEntity
  8
0
  6
Continuous
370
    15
100
AcDbLine
 10
151.9618274517
 20
181.6350772063
 30
0.0
 11
151.8378348894
 21
181.3199014708
 31
0.0
  0
LINE
  5
7E
330
1F
100
AcDbEntity
  8
0
  6
Continuous
370
    15
100
AcDbLine
 10
194.1221373029
 20
149.2056849053
 30
0.0
 11
194.2461261399
 21
149.5208623921
 31
0.0
  0
LINE
  5
7F
330
1F
100
AcDbEntity
  8
0
  6
Continuous
370
    15
100
AcDbLine
 10
190.2985216923
 20
113.1185800132
 30
0.0
 11
190.58132338
 21
113.0386427169
 31
0.0
  0
LINE
  5
80
330
1F
100
AcDbEntity
  8
0
  6
Continuous
370
    15
100
AcDbLine
 10
197.3267679907
 20
141.5461900588
 30
0.0
 11
197.0439681656
 21
141.626126873
 31
0.0
  0
LINE
  5
81
330
1F
100
AcDbEntity
  8
0
  6
Continuous
370
    15
100
AcDbLine
 10
232.3785291858
 20
126.1058600029
 30
0.0
 11
223.5785292335
 21
126.1058600029
 31
0.0
  0
LINE
  5
82
330
1F
100
AcDbEntity
  8
0
  6
Continuous
370
    15
100
AcDbLine
 10
282.9785289116
 20
98.7357183323
 30
0.0
 11
282.9785289116
 21
99.7291303448
 31
0.0
  0
LINE
  5
83
330
1F
100
AcDbEntity
  8
0
  6
Continuous
370
    15
100
AcDbLine
 10
172.9785295076
 20
99.7291303448
 30
0.0
 11
172.9785295076
 21
98.7357183323
 31
0.0
  0
SPLINE
  5
84
330
1F
100
AcDbEntity
  8
0
  6
Continuous
370
    15
100
AcDbSpline
210
0.0
220
0.0
230
1.0
 70
     8
 71
     3
 72
    13
 73
     9
 74
     0
 42
0.000000001
 43
0.00000001
 40
0.0
 40
0.0
 40
0.0
 40
0.0
 40
0.0340328007803805
 40
0.2479492999566227
 40
0.4565308896521573
 40
0.663459604133177
 40
0.8702488116127617
 40
0.9999999999999999
 40
0.9999999999999999
 40
0.9999999999999999
 40
0.9999999999999999
 10
182.3848130054555
 20
99.28132813083636
 30
0.0
 10
182.4022120160655
 20
99.32074409258688
 30
0.0
 10
182.5289742102362
 20
99.60791293849591
 30
0.0
 10
182.9806262100201
 20
100.158340618507
 30
0.0
 10
183.74625077761
 20
100.9186402561344
 30
0.0
 10
184.7489694571609
 20
101.6695398526373
 30
0.0
 10
185.7762139471021
 20
102.3182071916544
 30
0.0
 10
186.5537483702365
 20
102.706825857533
 30
0.0
 10
186.8535222358785
 20
102.8566555194294
 30
0.0
  0
SPLINE
  5
85
330
1F
100
AcDbEntity
  8
0
  6
Continuous
370
    15
100
AcDbSpline
210
0.0
220
0.0
230
1.0
 70
     8
 71
     3
 72
    12
 73
     8
 74
     0
 42
0.000000001
 43
0.00000001
 40
0.0
 40
0.0
 40
0.0
 40
0.0
 40
0.1750759629550104
 40
0.40110637333414
 40
0.6265621215179253
 40
0.851877021524297
 40
1.0
 40
1.0
 40
1.0
 40
1.0
 10
269.7389365978322
 20
102.5279686872223
 30
0.0
 10
270.0793931285182
 20
102.3397445864861
 30
0.0
 10
270.8593933181302
 20
101.9085152780988
 30
0.0
 10
271.8356698597267
 20
101.2168659038066
 30
0.0
 10
272.6928643263542
 20
100.4669670777383
 30
0.0
 10
273.2816909627854
 20
99.80406355377019
 30
0.0
 10
273.4987836371162
 20
99.40319084059449
 30
0.0
 10
273.5848927743516
 20
99.24418591986554
 30
0.0
  0
LINE
  5
86
330
1F
100
AcDbEntity
  8
0
  6
Continuous
370
    15
100
AcDbLine
 10
271.9563299663
 20
150.7796764404
 30
0.0
 11
271.3013568766
 21
121.1963866159
 31
0.0
  0
LINE
  5
87
330
1F
100
AcDbEntity
  8
0
  6
Continuous
370
    15
100
AcDbLine
 10
184.6541108437
 20
121.2010329192
 30
0.0
 11
184.0092817195
 21
150.531807153
 31
0.0
  0
LINE
  5
88
330
1F
100
AcDbEntity
  8
0
  6
Continuous
370
    15
100
AcDbLine
 10
276.4785306401
 20
115.9105085057
 30
0.0
 11
276.4785306401
 21
117.3500872665
 31
0.0
  0
LINE
  5
89
330
1F
100
AcDbEntity
  8
0
  6
Continuous
370
    15
100
AcDbLine
 10
179.4785277791
 20
117.3500872665
 30
0.0
 11
179.4785277791
 21
115.9105085057
 31
0.0
  0
LINE
  5
8A
330
1F
100
AcDbEntity
  8
0
  6
Continuous
370
    15
100
AcDbLine
 10
276.4785306401
 20
117.8454416201
 30
0.0
 11
276.4785306401
 21
119.2819392357
 31
0.0
  0
LINE
  5
8B
330
1F
100
AcDbEntity
  8
0
  6
Continuous
370
    15
100
AcDbLine
 10
179.4785277791
 20
119.2819392357
 30
0.0
 11
179.4785277791
 21
117.8454416201
 31
0.0
  0
LINE
  5
8C
330
1F
100
AcDbEntity
  8
0
  6
Continuous
370
    15
100
AcDbLine
 10
276.4785306401
 20
119.7803712567
 30
0.0
 11
276.4785306401
 21
121.2137876066
 31
0.0
  0
LINE
  5
8D
330
1F
100
AcDbEntity
  8
0
  6
Continuous
370
    15
100
AcDbLine
 10
179.4785277791
 20
121.2137876066
 30
0.0
 11
179.4785277791
 21
119.7803712567
 31
0.0
  0
LINE
  5
8E
330
1F
100
AcDbEntity
  8
0
  6
Continuous
370
    15
100
AcDbLine
 10
276.4785306401
 20
121.7153043711
 30
0.0
 11
276.4785306401
 21
123.1456395758
 31
0.0
  0
LINE
  5
8F
330
1F
100
AcDbEntity
  8
0
  6
Continuous
370
    15
100
AcDbLine
 10
179.4785277791
 20
123.1456395758
 30
0.0
 11
179.4785277791
 21
121.7153043711
 31
0.0
  0
LINE
  5
90
330
1F
100
AcDbEntity
  8
0
  6
Continuous
370
    15
100
AcDbLine
 10
179.4785277791
 20
125.077491545
 30
0.0
 11
179.4785277791
 21
123.6502374855
 31
0.0
  0
LINE
  5
91
330
1F
100
AcDbEntity
  8
0
  6
Continuous
370
    15
100
AcDbLine
 10
276.4785306401
 20
123.6502374855
 30
0.0
 11
276.4785306401
 21
125.077491545
 31
0.0
  0
LINE
  5
92
330
1F
100
AcDbEntity
  8
0
  6
Continuous
370
    15
100
AcDbLine
 10
276.4785306401
 20
125.5851705999
 30
0.0
 11
276.4785306401
 21
127.0093435143
 31
0.0
  0
LINE
  5
93
330
1F
100
AcDbEntity
  8
0
  6
Continuous
370
    15
100
AcDbLine
 10
179.4785277791
 20
127.0093435143
 30
0.0
 11
179.4785277791
 21
125.5851705999
 31
0.0
  0
LINE
  5
94
330
1F
100
AcDbEntity
  8
0
  6
Continuous
370
    15
100
AcDbLine
 10
276.4785306401
 20
127.5201038348
 30
0.0
 11
276.4785306401
 21
128.9411954835
 31
0.0
  0
LINE
  5
95
330
1F
100
AcDbEntity
  8
0
  6
Continuous
370
    15
100
AcDbLine
 10
179.4785277791
 20
128.9411954835
 30
0.0
 11
179.4785277791
 21
127.5201038348
 31
0.0
  0
LINE
  5
96
330
1F
100
AcDbEntity
  8
0
  6
Continuous
370
    15
100
AcDbLine
 10
276.4785306401
 20
129.4550369493
 30
0.0
 11
276.4785306401
 21
130.8730474527
 31
0.0
  0
LINE
  5
97
330
1F
100
AcDbEntity
  8
0
  6
Continuous
370
    15
100
AcDbLine
 10
179.4785277791
 20
130.8730474527
 30
0.0
 11
179.4785277791
 21
129.4550369493
 31
0.0
  0
LINE
  5
98
330
1F
100
AcDbEntity
  8
0
  6
Continuous
370
    15
100
AcDbLine
 10
276.4785306401
 20
131.3899700637
 30
0.0
 11
276.4785306401
 21
132.804899422
 31
0.0
  0
LINE
  5
99
330
1F
100
AcDbEntity
  8
0
  6
Continuous
370
    15
100
AcDbLine
 10
179.4785277791
 20
132.804899422
 30
0.0
 11
179.4785277791
 21
131.3899700637
 31
0.0
  0
LINE
  5
9A
330
1F
100
AcDbEntity
  8
0
  6
Continuous
370
    15
100
AcDbLine
 10
276.4785306401
 20
133.3249032986
 30
0.0
 11
276.4785306401
 21
134.7367513912
 31
0.0
  0
LINE
  5
9B
330
1F
100
AcDbEntity
  8
0
  6
Continuous
370
    15
100
AcDbLine
 10
179.4785277791
 20
134.7367513912
 30
0.0
 11
179.4785277791
 21
133.3249032986
 31
0.0
  0
LINE
  5
9C
330
1F
100
AcDbEntity
  8
0
  6
Continuous
370
    15
100
AcDbLine
 10
179.4785277791
 20
136.6686033604
 30
0.0
 11
179.4785277791
 21
135.259836413
 31
0.0
  0
LINE
  5
9D
330
1F
100
AcDbEntity
  8
0
  6
Continuous
370
    15
100
AcDbLine
 10
276.4785306401
 20
135.259836413
 30
0.0
 11
276.4785306401
 21
136.6686033604
 31
0.0
  0
LINE
  5
9E
330
1F
100
AcDbEntity
  8
0
  6
Continuous
370
    15
100
AcDbLine
 10
276.4785306401
 20
137.1947677282
 30
0.0
 11
276.4785306401
 21
138.6004535305
 31
0.0
  0
LINE
  5
9F
330
1F
100
AcDbEntity
  8
0
  6
Continuous
370
    15
100
AcDbLine
 10
179.4785277791
 20
138.6004535305
 30
0.0
 11
179.4785277791
 21
137.1947677282
 31
0.0
  0
LINE
  5
A0
330
1F
100
AcDbEntity
  8
0
  6
Continuous
370
    15
100
AcDbLine
 10
276.4785306401
 20
139.1297008427
 30
0.0
 11
276.4785306401
 21
140.5323054997
 31
0.0
  0
LINE
  5
A1
330
1F
100
AcDbEntity
  8
0
  6
Continuous
370
    15
100
AcDbLine
 10
179.4785277791
 20
140.5323054997
 30
0.0
 11
179.4785277791
 21
139.1297008427
 31
0.0
  0
LINE
  5
A2
330
1F
100
AcDbEntity
  8
0
  6
Continuous
370
    15
100
AcDbLine
 10
276.4785306401
 20
141.0646340776
 30
0.0
 11
276.4785306401
 21
142.464157469
 31
0.0
  0
LINE
  5
A3
330
1F
100
AcDbEntity
  8
0
  6
Continuous
370
    15
100
AcDbLine
 10
179.4785277791
 20
142.464157469
 30
0.0
 11
179.4785277791
 21
141.0646340776
 31
0.0
  0
LINE
  5
A4
330
1F
100
AcDbEntity
  8
0
  6
Continuous
370
    15
100
AcDbLine
 10
276.4785306401
 20
142.999567192
 30
0.0
 11
276.4785306401
 21
144.3960094382
 31
0.0
  0
LINE
  5
A5
330
1F
100
AcDbEntity
  8
0
  6
Continuous
370
    15
100
AcDbLine
 10
179.4785277791
 20
144.3960094382
 30
0.0
 11
179.4785277791
 21
142.999567192
 31
0.0
  0
LINE
  5
A6
330
1F
100
AcDbEntity
  8
0
  6
Continuous
370
    15
100
AcDbLine
 10
179.4785277791
 20
146.3278614074
 30
0.0
 11
179.4785277791
 21
144.9345003064
 31
0.0
  0
LINE
  5
A7
330
1F
100
AcDbEntity
  8
0
  6
Continuous
370
    15
100
AcDbLine
 10
276.4785306401
 20
144.9345003064
 30
0.0
 11
276.4785306401
 21
146.3278614074
 31
0.0
  0
LINE
  5
A8
330
1F
100
AcDbEntity
  8
0
  6
Continuous
370
    15
100
AcDbLine
 10
276.4785306401
 20
146.8694334208
 30
0.0
 11
276.4785306401
 21
148.2597133767
 31
0.0
  0
LINE
  5
A9
330
1F
100
AcDbEntity
  8
0
  6
Continuous
370
    15
100
AcDbLine
 10
179.4785277791
 20
148.2597133767
 30
0.0
 11
179.4785277791
 21
146.8694334208
 31
0.0
  0
LINE
  5
AA
330
1F
100
AcDbEntity
  8
0
  6
Continuous
370
    15
100
AcDbLine
 10
276.1443050451
 20
150.9122036217
 30
0.0
 11
273.351577843
 21
150.9122036217
 31
0.0
  0
LINE
  5
AB
330
1F
100
AcDbEntity
  8
0
  6
Continuous
370
    15
100
AcDbLine
 10
182.6074028261
 20
150.9122036217
 30
0.0
 11
179.8127533741
 21
150.9122036217
 31
0.0
  0
LINE
  5
AC
330
1F
100
AcDbEntity
  8
0
  6
Continuous
370
    15
100
AcDbLine
 10
276.4785306401
 20
148.8093086048
 30
0.0
 11
276.4785306401
 21
150.1915644463
 31
0.0
  0
LINE
  5
AD
330
1F
100
AcDbEntity
  8
0
  6
Continuous
370
    15
100
AcDbLine
 10
179.4785277791
 20
150.1915644463
 30
0.0
 11
179.4785277791
 21
148.809427319
 31
0.0
  0
LINE
  5
AE
330
1F
100
AcDbEntity
  8
0
  6
Continuous
370
    15
100
AcDbLine
 10
179.4785277791
 20
115.9105055805
 30
0.0
 11
179.4785277791
 21
115.4182327087
 31
0.0
  0
LINE
  5
AF
330
1F
100
AcDbEntity
  8
0
  6
Continuous
370
    15
100
AcDbLine
 10
276.4785306401
 20
115.4182327087
 30
0.0
 11
276.4785306401
 21
115.9105055805
 31
0.0
  0
LINE
  5
B0
330
1F
100
AcDbEntity
  8
0
  6
Continuous
370
    15
100
AcDbLine
 10
276.4785306401
 20
117.3500846779
 30
0.0
 11
276.4785306401
 21
117.8454385744
 31
0.0
  0
LINE
  5
B1
330
1F
100
AcDbEntity
  8
0
  6
Continuous
370
    15
100
AcDbLine
 10
179.4785277791
 20
117.8454385744
 30
0.0
 11
179.4785277791
 21
117.3500846779
 31
0.0
  0
LINE
  5
B2
330
1F
100
AcDbEntity
  8
0
  6
Continuous
370
    15
100
AcDbLine
 10
179.4785277791
 20
119.7803718094
 30
0.0
 11
179.4785277791
 21
119.2819366472
 31
0.0
  0
LINE
  5
B3
330
1F
100
AcDbEntity
  8
0
  6
Continuous
370
    15
100
AcDbLine
 10
276.4785306401
 20
119.2819366472
 30
0.0
 11
276.4785306401
 21
119.7803718094
 31
0.0
  0
LINE
  5
B4
330
1F
100
AcDbEntity
  8
0
  6
Continuous
370
    15
100
AcDbLine
 10
179.4785277791
 20
121.7153050443
 30
0.0
 11
179.4785277791
 21
121.2137886164
 31
0.0
  0
LINE
  5
B5
330
1F
100
AcDbEntity
  8
0
  6
Continuous
370
    15
100
AcDbLine
 10
276.4785306401
 20
121.2137886164
 30
0.0
 11
276.4785306401
 21
121.7153050443
 31
0.0
  0
LINE
  5
B6
330
1F
100
AcDbEntity
  8
0
  6
Continuous
370
    15
100
AcDbLine
 10
276.4785306401
 20
123.1456405856
 30
0.0
 11
276.4785306401
 21
123.6502380382
 31
0.0
  0
LINE
  5
B7
330
1F
100
AcDbEntity
  8
0
  6
Continuous
370
    15
100
AcDbLine
 10
179.4785277791
 20
123.6502380382
 30
0.0
 11
179.4785277791
 21
123.1456405856
 31
0.0
  0
LINE
  5
B8
330
1F
100
AcDbEntity
  8
0
  6
Continuous
370
    15
100
AcDbLine
 10
276.4785306401
 20
125.0774925549
 30
0.0
 11
276.4785306401
 21
125.5851712731
 31
0.0
  0
LINE
  5
B9
330
1F
100
AcDbEntity
  8
0
  6
Continuous
370
    15
100
AcDbLine
 10
179.4785277791
 20
125.5851712731
 30
0.0
 11
179.4785277791
 21
125.0774925549
 31
0.0
  0
LINE
  5
BA
330
1F
100
AcDbEntity
  8
0
  6
Continuous
370
    15
100
AcDbLine
 10
276.4785306401
 20
127.0093445241
 30
0.0
 11
276.4785306401
 21
127.5201045081
 31
0.0
  0
LINE
  5
BB
330
1F
100
AcDbEntity
  8
0
  6
Continuous
370
    15
100
AcDbLine
 10
179.4785277791
 20
127.5201045081
 30
0.0
 11
179.4785277791
 21
127.0093445241
 31
0.0
  0
LINE
  5
BC
330
1F
100
AcDbEntity
  8
0
  6
Continuous
370
    15
100
AcDbLine
 10
276.4785306401
 20
128.9411964933
 30
0.0
 11
276.4785306401
 21
129.4550375019
 31
0.0
  0
LINE
  5
BD
330
1F
100
AcDbEntity
  8
0
  6
Continuous
370
    15
100
AcDbLine
 10
179.4785277791
 20
129.4550375019
 30
0.0
 11
179.4785277791
 21
128.9411964933
 31
0.0
  0
LINE
  5
BE
330
1F
100
AcDbEntity
  8
0
  6
Continuous
370
    15
100
AcDbLine
 10
179.4785277791
 20
131.3899707369
 30
0.0
 11
179.4785277791
 21
130.8730484626
 31
0.0
  0
LINE
  5
BF
330
1F
100
AcDbEntity
  8
0
  6
Continuous
370
    15
100
AcDbLine
 10
276.4785306401
 20
130.8730484626
 30
0.0
 11
276.4785306401
 21
131.3899707369
 31
0.0
  0
LINE
  5
C0
330
1F
100
AcDbEntity
  8
0
  6
Continuous
370
    15
100
AcDbLine
 10
276.4785306401
 20
132.8048986326
 30
0.0
 11
276.4785306401
 21
133.3249021726
 31
0.0
  0
LINE
  5
C1
330
1F
100
AcDbEntity
  8
0
  6
Continuous
370
    15
100
AcDbLine
 10
179.4785277791
 20
133.3249021726
 30
0.0
 11
179.4785277791
 21
132.8048986326
 31
0.0
  0
LINE
  5
C2
330
1F
100
AcDbEntity
  8
0
  6
Continuous
370
    15
100
AcDbLine
 10
179.4785277791
 20
135.2598351665
 30
0.0
 11
179.4785277791
 21
134.7367506019
 31
0.0
  0
LINE
  5
C3
330
1F
100
AcDbEntity
  8
0
  6
Continuous
370
    15
100
AcDbLine
 10
276.4785306401
 20
134.7367506019
 30
0.0
 11
276.4785306401
 21
135.2598351665
 31
0.0
  0
LINE
  5
C4
330
1F
100
AcDbEntity
  8
0
  6
Continuous
370
    15
100
AcDbLine
 10
276.4785306401
 20
136.6686025711
 30
0.0
 11
276.4785306401
 21
137.1947684015
 31
0.0
  0
LINE
  5
C5
330
1F
100
AcDbEntity
  8
0
  6
Continuous
370
    15
100
AcDbLine
 10
179.4785277791
 20
137.1947684015
 30
0.0
 11
179.4785277791
 21
136.6686025711
 31
0.0
  0
LINE
  5
C6
330
1F
100
AcDbEntity
  8
0
  6
Continuous
370
    15
100
AcDbLine
 10
179.4785277791
 20
139.1297016364
 30
0.0
 11
179.4785277791
 21
138.6004545403
 31
0.0
  0
LINE
  5
C7
330
1F
100
AcDbEntity
  8
0
  6
Continuous
370
    15
100
AcDbLine
 10
276.4785306401
 20
138.6004545403
 30
0.0
 11
276.4785306401
 21
139.1297016364
 31
0.0
  0
LINE
  5
C8
330
1F
100
AcDbEntity
  8
0
  6
Continuous
370
    15
100
AcDbLine
 10
179.4785277791
 20
141.0646346303
 30
0.0
 11
179.4785277791
 21
140.5323065096
 31
0.0
  0
LINE
  5
C9
330
1F
100
AcDbEntity
  8
0
  6
Continuous
370
    15
100
AcDbLine
 10
276.4785306401
 20
140.5323065096
 30
0.0
 11
276.4785306401
 21
141.0646346303
 31
0.0
  0
LINE
  5
CA
330
1F
100
AcDbEntity
  8
0
  6
Continuous
370
    15
100
AcDbLine
 10
179.4785277791
 20
142.9995678652
 30
0.0
 11
179.4785277791
 21
142.4641584788
 31
0.0
  0
LINE
  5
CB
330
1F
100
AcDbEntity
  8
0
  6
Continuous
370
    15
100
AcDbLine
 10
276.4785306401
 20
142.4641584788
 30
0.0
 11
276.4785306401
 21
142.9995678652
 31
0.0
  0
LINE
  5
CC
330
1F
100
AcDbEntity
  8
0
  6
Continuous
370
    15
100
AcDbLine
 10
276.4785306401
 20
144.3960095484
 30
0.0
 11
276.4785306401
 21
144.9344999595
 31
0.0
  0
LINE
  5
CD
330
1F
100
AcDbEntity
  8
0
  6
Continuous
370
    15
100
AcDbLine
 10
179.4785277791
 20
144.9344999595
 30
0.0
 11
179.4785277791
 21
144.3960095484
 31
0.0
  0
LINE
  5
CE
330
1F
100
AcDbEntity
  8
0
  6
Continuous
370
    15
100
AcDbLine
 10
182.1785287805
 20
98.968783728
 30
0.0
 11
182.1785287805
 21
97.7972675805
 31
0.0
  0
SPLINE
  5
CF
330
1F
100
AcDbEntity
  8
0
  6
Continuous
370
    15
100
AcDbSpline
210
0.0
220
0.0
230
1.0
 70
     8
 71
     3
 72
     9
 73
     5
 74
     0
 42
0.000000001
 43
0.00000001
 40
0.0
 40
0.0
 40
0.0
 40
0.0
 40
0.5165023590590225
 40
0.9999999999999999
 40
0.9999999999999999
 40
0.9999999999999999
 40
0.9999999999999999
 10
255.0309242553792
 20
125.931271882262
 30
0.0
 10
254.2302036481144
 20
126.9486851382441
 30
0.0
 10
252.6799288173787
 20
128.9184985149643
 30
0.0
 10
251.0055808886996
 20
130.7767210501293
 30
0.0
 10
250.1960376150689
 20
131.6751672622249
 30
0.0
  0
SPLINE
  5
D0
330
1F
100
AcDbEntity
  8
0
  6
Continuous
370
    15
100
AcDbSpline
210
0.0
220
0.0
230
1.0
 70
     8
 71
     3
 72
     9
 73
     5
 74
     0
 42
0.000000001
 43
0.00000001
 40
0.0
 40
0.0
 40
0.0
 40
0.0
 40
0.4324589542694834
 40
0.9999999999999999
 40
0.9999999999999999
 40
0.9999999999999999
 40
0.9999999999999999
 10
205.7846261061511
 20
131.7040812154701
 30
0.0
 10
205.0542675104845
 20
130.8942067513202
 30
0.0
 10
203.3654168381696
 20
129.0214869101551
 30
0.0
 10
201.7946154471437
 20
127.0416611537463
 30
0.0
 10
200.9031211830459
 20
125.9180287735899
 30
0.0
  0
LINE
  5
D1
330
1F
100
AcDbEntity
  8
0
  6
Continuous
370
    15
100
AcDbLine
 10
273.628173197
 20
98.7548980476
 30
0.0
 11
273.628173197
 21
99.2378619395
 31
0.0
  0
LINE
  5
D2
330
1F
100
AcDbEntity
  8
0
  6
Continuous
370
    15
100
AcDbLine
 10
272.7785276122
 20
97.7972675805
 30
0.0
 11
272.7785276122
 21
98.6989431533
 31
0.0
  0
LINE
  5
D3
330
1F
100
AcDbEntity
  8
0
  6
Continuous
370
    15
100
AcDbLine
 10
273.6661115534
 20
97.452010549
 30
0.0
 11
273.6661115534
 21
98.4179527262
 31
0.0
  0
LINE
  5
D4
330
1F
100
AcDbEntity
  8
0
  6
Continuous
370
    15
100
AcDbLine
 10
273.628173197
 20
96.8396371133
 30
0.0
 11
273.628173197
 21
97.3226010052
 31
0.0
  0
LWPOLYLINE
  5
D5
330
1F
100
AcDbEntity
  8
0
  6
Continuous
370
    15
100
AcDbPolyline
 90
        3
 70
   128
 43
0.0
 10
260.8165459581
 20
128.2629971709
 10
261.6017365701
 20
129.2869334943
 10
261.9043605275
 20
129.6815723372
  0
SPLINE
  5
D6
330
1F
100
AcDbEntity
  8
0
  6
Continuous
370
    15
100
AcDbSpline
210
0.0
220
0.0
230
1.0
 70
     8
 71
     3
 72
    13
 73
     9
 74
     0
 42
0.000000001
 43
0.00000001
 40
0.0
 40
0.0
 40
0.0
 40
0.0
 40
0.0421003020218749
 40
0.3082968141671452
 40
0.5854455501001657
 40
0.8199251210487792
 40
0.991902877542136
 40
1.0
 40
1.0
 40
1.0
 40
1.0
 10
258.5309462494931
 20
127.4642571698206
 30
0.0
 10
258.5726191993925
 20
127.4657058261303
 30
0.0
 10
258.8777865514999
 20
127.476314209055
 30
0.0
 10
259.4087350415516
 20
127.5608985508049
 30
0.0
 10
260.0207633315415
 20
127.708412001236
 30
0.0
 10
260.459573574428
 20
127.9395580086312
 30
0.0
 10
260.7411063865968
 20
128.1268213680982
 30
0.0
 10
260.8147471464382
 20
128.2651106970524
 30
0.0
 10
260.8180584259114
 20
128.2713289193701
 30
0.0
  0
LINE
  5
D7
330
1F
100
AcDbEntity
  8
0
  6
Continuous
370
    15
100
AcDbLine
 10
257.9529600091
 20
127.4411677607
 30
0.0
 11
258.5309462495
 21
127.4642571698
 31
0.0
  0
LINE
  5
D8
330
1F
100
AcDbEntity
  8
0
  6
Continuous
370
    15
100
AcDbLine
 10
197.5912151731
 20
127.4557936116
 30
0.0
 11
198.0046255387
 21
127.444055701
 31
0.0
  0
LINE
  5
D9
330
1F
100
AcDbEntity
  8
0
  6
Continuous
370
    15
100
AcDbLine
 10
253.8262342907
 20
127.4264471029
 30
0.0
 11
257.9523192592
 21
127.4398172121
 31
0.0
  0
LINE
  5
DA
330
1F
100
AcDbEntity
  8
0
  6
Continuous
370
    15
100
AcDbLine
 10
198.0047391601
 20
127.4398190802
 30
0.0
 11
202.1294867493
 21
127.4264664467
 31
0.0
  0
SPLINE
  5
DB
330
1F
100
AcDbEntity
  8
0
  6
Continuous
370
    15
100
AcDbSpline
210
0.0
220
0.0
230
1.0
 70
     8
 71
     3
 72
     9
 73
     5
 74
     0
 42
0.000000001
 43
0.00000001
 40
0.0
 40
0.0
 40
0.0
 40
0.0
 40
0.1478349570351096
 40
0.9999999999999999
 40
0.9999999999999999
 40
0.9999999999999999
 40
0.9999999999999999
 10
184.6399137623391
 20
121.8468717407347
 30
0.0
 10
184.6522605052635
 20
121.8211097262203
 30
0.0
 10
184.7357775784373
 20
121.6468477314183
 30
0.0
 10
184.8741958897353
 20
121.488539944565
 30
0.0
 10
184.9921511359296
 20
121.3536355825794
 30
0.0
  0
LINE
  5
DC
330
1F
100
AcDbEntity
  8
0
  6
Continuous
370
    15
100
AcDbLine
 10
270.9584923334
 20
121.3528200416
 30
0.0
 11
271.3154161222
 21
121.8314234297
 31
0.0
  0
LINE
  5
DD
330
1F
100
AcDbEntity
  8
0
  6
Continuous
370
    15
100
AcDbLine
 10
271.9785289712
 20
150.8061836563
 30
0.0
 11
271.9785289712
 21
151.1163725756
 31
0.0
  0
SPLINE
  5
DE
330
1F
100
AcDbEntity
  8
0
  6
Continuous
370
    15
100
AcDbSpline
210
0.0
220
0.0
230
1.0
 70
     8
 71
     3
 72
    22
 73
    18
 74
     0
 42
0.000000001
 43
0.00000001
 40
0.0
 40
0.0
 40
0.0
 40
0.0
 40
0.0189269538502138
 40
0.0907405429799393
 40
0.1625728370574207
 40
0.2344312165757539
 40
0.3063242872278976
 40
0.3782626165647223
 40
0.4502592549030739
 40
0.5223308684167912
 40
0.5944987851385045
 40
0.6667913298413713
 40
0.7392457037126865
 40
0.8119112807689352
 40
0.884851795333654
 40
0.9581442168246916
 40
1.0
 40
1.0
 40
1.0
 40
1.0
 10
219.8520151771388
 20
163.0405178598134
 30
0.0
 10
219.5816923095819
 20
163.0288405176022
 30
0.0
 10
218.2856969805853
 20
162.9728564231094
 30
0.0
 10
216.0062908279545
 20
162.8154762019028
 30
0.0
 10
213.0346103860403
 20
162.5675953363941
 30
0.0
 10
210.1416227906452
 20
162.2602712666335
 30
0.0
 10
207.3378659538424
 20
161.9006263708709
 30
0.0
 10
204.63834162771
 20
161.4887449264474
 30
0.0
 10
202.0560883666326
 20
161.026836409353
 30
0.0
 10
199.6037699370661
 20
160.5167203293848
 30
0.0
 10
197.2932055609213
 20
159.9604090950651
 30
0.0
 10
195.1350560927274
 20
159.3599002474969
 30
0.0
 10
193.1400261209218
 20
158.7168123186723
 30
0.0
 10
191.3137638975026
 20
158.0331863028598
 30
0.0
 10
189.675799775402
 20
157.3072763057092
 30
0.0
 10
188.4040138473341
 20
156.6576728855584
 30
0.0
 10
187.7609830984386
 20
156.2330460899395
 30
0.0
 10
187.5272447116456
 20
156.0786964225752
 30
0.0
  0
SPLINE
  5
DF
330
1F
100
AcDbEntity
  8
0
  6
Continuous
370
    15
100
AcDbSpline
210
0.0
220
0.0
230
1.0
 70
     8
 71
     3
 72
    10
 73
     6
 74
     0
 42
0.000000001
 43
0.00000001
 40
0.0
 40
0.0
 40
0.0
 40
0.0
 40
0.1453262200871634
 40
0.6375187141756096
 40
1.0
 40
1.0
 40
1.0
 40
1.0
 10
226.1372967961959
 20
163.2293875602501
 30
0.0
 10
225.8304878995319
 20
163.2277003571077
 30
0.0
 10
224.4845751442043
 20
163.2202989151845
 30
0.0
 10
222.3797024442909
 20
163.1613191129691
 30
0.0
 10
220.6047864193176
 20
163.0764937143333
 30
0.0
 10
219.8520151771388
 20
163.0405178598134
 30
0.0
  0
SPLINE
  5
E0
330
1F
100
AcDbEntity
  8
0
  6
Continuous
370
    15
100
AcDbSpline
210
0.0
220
0.0
230
1.0
 70
     8
 71
     3
 72
    27
 73
    23
 74
     0
 42
0.000000001
 43
0.00000001
 40
0.0
 40
0.0
 40
0.0
 40
0.0
 40
0.001173522360058
 40
0.0498279650137345
 40
0.098378091497184
 40
0.1484476049374945
 40
0.2011730903028284
 40
0.256348045216048
 40
0.3128342953935888
 40
0.3695573857626837
 40
0.4260265510695275
 40
0.4821955880800058
 40
0.5381052660833431
 40
0.5938099202506779
 40
0.6493571307012049
 40
0.7047842317819616
 40
0.7601195313674673
 40
0.8153843358577286
 40
0.8705949790740855
 40
0.9257639298748099
 40
0.980901008912718
 40
1.0
 40
1.0
 40
1.0
 40
1.0
 10
271.9757126517377
 20
151.0893678765464
 30
0.0
 10
271.9766699270306
 20
151.09683054443
 30
0.0
 10
272.0173160036872
 20
151.4136967302535
 30
0.0
 10
271.8867306323511
 20
152.047408394486
 30
0.0
 10
271.5786023679572
 20
152.9514511569872
 30
0.0
 10
271.0359060562868
 20
153.8258445658211
 30
0.0
 10
270.2860381301365
 20
154.6803240703028
 30
0.0
 10
269.3075338463154
 20
155.5181237665426
 30
0.0
 10
268.1042940429428
 20
156.3316496160649
 30
0.0
 10
266.6894350500631
 20
157.1114439580828
 30
0.0
 10
265.0797384527051
 20
157.8517818741997
 30
0.0
 10
263.2878236292498
 20
158.5506526487074
 30
0.0
 10
261.3230851223562
 20
159.207315477393
 30
0.0
 10
259.194692177597
 20
159.8207245181682
 30
0.0
 10
256.9123835220904
 20
160.3894561501603
 30
0.0
 10
254.4867181543438
 20
160.9117829164654
 30
0.0
 10
251.9292616879005
 20
161.3859881991723
 30
0.0
 10
249.2519523921955
 20
161.8098957016287
 30
0.0
 10
246.469212742891
 20
162.183083390753
 30
0.0
 10
243.5897057259079
 20
162.4990668164219
 30
0.0
 10
241.2873514106288
 20
162.7146465598799
 30
0.0
 10
239.9301372372428
 20
162.8052553082699
 30
0.0
 10
239.5809616766653
 20
162.8285665594584
 30
0.0
  0
SPLINE
  5
E1
330
1F
100
AcDbEntity
  8
0
  6
Continuous
370
    15
100
AcDbSpline
210
0.0
220
0.0
230
1.0
 70
     8
 71
     3
 72
    10
 73
     6
 74
     0
 42
0.000000001
 43
0.00000001
 40
0.0
 40
0.0
 40
0.0
 40
0.0
 40
0.2798461487502442
 40
0.649993920303047
 40
1.0
 40
1.0
 40
1.0
 40
1.0
 10
187.9736909515939
 20
122.6577389519265
 30
0.0
 10
188.1430735495459
 20
123.0769772492959
 30
0.0
 10
188.5364956472436
 20
124.0507349574698
 30
0.0
 10
189.2929344758415
 20
125.4572657270546
 30
0.0
 10
189.9381079852728
 20
126.376372296408
 30
0.0
 10
190.2516724414907
 20
126.8230725210958
 30
0.0
  0
LINE
  5
E2
330
1F
100
AcDbEntity
  8
0
  6
Continuous
370
    15
100
AcDbLine
 10
266.8958769984
 20
156.9728929492
 30
0.0
 11
266.9784964867
 21
161.5447402254
 31
0.0
  0
LINE
  5
E3
330
1F
100
AcDbEntity
  8
0
  6
Continuous
370
    15
100
AcDbLine
 10
188.9785619326
 20
161.5447402254
 30
0.0
 11
189.0613080807
 21
156.9658308841
 31
0.0
  0
SPLINE
  5
E4
330
1F
100
AcDbEntity
  8
0
  6
Continuous
370
    15
100
AcDbSpline
210
0.0
220
0.0
230
1.0
 70
     8
 71
     3
 72
    10
 73
     6
 74
     0
 42
0.000000001
 43
0.00000001
 40
0.0
 40
0.0
 40
0.0
 40
0.0
 40
0.2383829432735547
 40
0.7858203742829132
 40
1.0
 40
1.0
 40
1.0
 40
1.0
 10
198.7009977794967
 20
125.5255268223247
 30
0.0
 10
198.8301311823066
 20
125.7054845601996
 30
0.0
 10
199.2558145702833
 20
126.2987084502564
 30
0.0
 10
199.8668361069557
 20
126.9370026878972
 30
0.0
 10
200.3781224033922
 20
127.323094735813
 30
0.0
 10
200.5219047762237
 20
127.4316703639251
 30
0.0
  0
SPLINE
  5
E5
330
1F
100
AcDbEntity
  8
0
  6
Continuous
370
    15
100
AcDbSpline
210
0.0
220
0.0
230
1.0
 70
     8
 71
     3
 72
    10
 73
     6
 74
     0
 42
0.000000001
 43
0.00000001
 40
0.0
 40
0.0
 40
0.0
 40
0.0
 40
0.3335116939765533
 40
0.7965667882416098
 40
1.0
 40
1.0
 40
1.0
 40
1.0
 10
254.1596533603749
 20
127.0126289256061
 30
0.0
 10
254.5988685551779
 20
126.8684585296014
 30
0.0
 10
255.6478999486489
 20
126.5241187316899
 30
0.0
 10
256.9422897680843
 20
125.9671708304554
 30
0.0
 10
257.7610453506165
 20
125.5115577258064
 30
0.0
 10
258.0109553284726
 20
125.3724902637665
 30
0.0
  0
SPLINE
  5
E6
330
1F
100
AcDbEntity
  8
0
  6
Continuous
370
    15
100
AcDbSpline
210
0.0
220
0.0
230
1.0
 70
     8
 71
     3
 72
    10
 73
     6
 74
     0
 42
0.000000001
 43
0.00000001
 40
0.0
 40
0.0
 40
0.0
 40
0.0
 40
0.2974543945671676
 40
0.8891527252118159
 40
1.0
 40
1.0
 40
1.0
 40
1.0
 10
270.1599726326547
 20
154.7506284833265
 30
0.0
 10
270.3154270313328
 20
154.8892578691605
 30
0.0
 10
270.7801123906868
 20
155.3036497842241
 30
0.0
 10
271.1828783157394
 20
155.7893305691504
 30
0.0
 10
271.3586916034357
 20
156.1489814293824
 30
0.0
 10
271.3864313311658
 20
156.205726952269
 30
0.0
  0
LINE
  5
E7
330
1F
100
AcDbEntity
  8
0
  6
Continuous
370
    15
100
AcDbLine
 10
271.9785289712
 20
158.1676312737
 30
0.0
 11
271.9785289712
 21
229.8876221377
 31
0.0
  0
LINE
  5
E8
330
1F
100
AcDbEntity
  8
0
  6
Continuous
370
    15
100
AcDbLine
 10
183.978529448
 20
229.8876221377
 30
0.0
 11
183.978529448
 21
159.3615219871
 31
0.0
  0
SPLINE
  5
E9
330
1F
100
AcDbEntity
  8
0
  6
Continuous
370
    15
100
AcDbSpline
210
0.0
220
0.0
230
1.0
 70
     8
 71
     3
 72
    20
 73
    16
 74
     0
 42
0.000000001
 43
0.00000001
 40
0.0
 40
0.0
 40
0.0
 40
0.0
 40
0.0402832250519697
 40
0.1251298901701603
 40
0.2101054062441927
 40
0.2952483217163209
 40
0.3806092875441557
 40
0.4662514120577094
 40
0.5522433606027972
 40
0.6386259560195822
 40
0.7253021860068756
 40
0.8114279747920492
 40
0.895393651880586
 40
0.9756720357809361
 40
1.0
 40
1.0
 40
1.0
 40
1.0
 10
199.1174610204778
 20
238.9845736601166
 30
0.0
 10
198.7407893235271
 20
238.9000803625529
 30
0.0
 10
197.5707517208068
 20
238.6376228003639
 30
0.0
 10
195.7678703846894
 20
238.1496404608689
 30
0.0
 10
193.7139783215908
 20
237.5255613535482
 30
0.0
 10
191.8383789386747
 20
236.8589935330539
 30
0.0
 10
190.1392492816387
 20
236.1546729843539
 30
0.0
 10
188.6267874116977
 20
235.4126589896944
 30
0.0
 10
187.3071485839775
 20
234.6329642429781
 30
0.0
 10
186.1870067582635
 20
233.813814579114
 30
0.0
 10
185.2781356616926
 20
232.9534311399414
 30
0.0
 10
184.5883752604206
 20
232.0526024034093
 30
0.0
 10
184.1572103619772
 20
231.1204556394673
 30
0.0
 10
183.9649166127886
 20
230.383074431528
 30
0.0
 10
183.9958814444214
 20
229.9717200740089
 30
0.0
 10
184.0030828363977
 20
229.8760527051447
 30
0.0
  0
SPLINE
  5
EA
330
1F
100
AcDbEntity
  8
0
  6
Continuous
370
    15
100
AcDbSpline
210
0.0
220
0.0
230
1.0
 70
     8
 71
     3
 72
    19
 73
    15
 74
     0
 42
0.000000001
 43
0.00000001
 40
0.0
 40
0.0
 40
0.0
 40
0.0
 40
0.0500783879552581
 40
0.1342556014221528
 40
0.2198598452198311
 40
0.3090196578642468
 40
0.401700991972658
 40
0.4963654927534679
 40
0.5915171015802659
 40
0.6863780845091978
 40
0.7808546128354511
 40
0.8749882810937869
 40
0.9688473806186898
 40
1.0
 40
1.0
 40
1.0
 40
1.0
 10
271.9504514582238
 20
229.9468568694477
 30
0.0
 10
271.9506605116683
 20
230.126142300546
 30
0.0
 10
271.951220964931
 20
230.6067902279482
 30
0.0
 10
271.7018020319651
 20
231.3766127505694
 30
0.0
 10
271.2401002386087
 20
232.2399865081351
 30
0.0
 10
270.5542290549749
 20
233.083677718548
 30
0.0
 10
269.6478905877004
 20
233.9119797447177
 30
0.0
 10
268.5167380738329
 20
234.7191048528738
 30
0.0
 10
267.1730910725016
 20
235.4965692395369
 30
0.0
 10
265.6298216644453
 20
236.238272614984
 30
0.0
 10
263.9027653036813
 20
236.9425661868775
 30
0.0
 10
261.9869854376013
 20
237.6042011429366
 30
0.0
 10
260.3976044247521
 20
238.0956658015357
 30
0.0
 10
259.3967133202819
 20
238.3513878707361
 30
0.0
 10
259.1472936667285
 20
238.4151131947209
 30
0.0
  0
LWPOLYLINE
  5
EB
330
1F
100
AcDbEntity
  8
0
  6
Continuous
370
    15
100
AcDbPolyline
 90
       18
 70
   128
 43
0.0
 10
227.9785292096
 20
122.2890961916
 10
228.6468262657
 20
122.1684253866
 10
229.2248661736
 20
121.8227171138
 10
229.634581284
 20
121.2986528213
 10
229.8206374155
 20
120.6670157326
 10
229.7579066701
 20
120.0131084304
 10
229.4548610564
 20
119.4252489179
 10
228.9524287091
 20
118.9828276817
 10
228.3184658202
 20
118.7455989903
 10
227.6385925991
 20
118.7455989903
 10
227.0046297101
 20
118.9828276817
 10
226.5021973628
 20
119.4252489179
 10
226.1991517491
 20
120.0131084304
 10
226.1364210037
 20
120.6670157326
 10
226.3224771352
 20
121.2986528213
 10
226.7321922457
 20
121.8227171138
 10
227.3102321535
 20
122.1684253866
 10
227.9785292096
 20
122.2890961916
  0
ARC
  5
EC
330
1F
100
AcDbEntity
  8
0
  6
Continuous
370
    15
100
AcDbCircle
 10
227.9785292096
 20
120.4971623508
 30
0.0
 40
1.850591622995361
100
AcDbArc
 50
181.4488259729
 51
358.5511740271
  0
LWPOLYLINE
  5
ED
330
1F
100
AcDbEntity
  8
0
  6
Continuous
370
    15
100
AcDbPolyline
 90
       18
 70
   128
 43
0.0
 10
194.7453634687
 20
118.2954221563
 10
194.4898458071
 20
117.6707895409
 10
194.1044458993
 20
117.1719705245
 10
193.6412172265
 20
116.8663374834
 10
193.1627223141
 20
116.7951610765
 10
192.7335837729
 20
116.9680615469
 10
192.411755944
 20
117.3616801507
 10
192.24070924
 20
117.9228634425
 10
192.2435404606
 20
118.5758164548
 10
192.419865901
 20
119.2323554546
 10
192.7458772309
 20
119.8038124335
 10
193.1775377936
 20
120.2130054211
 10
193.656557972
 20
120.4046721653
 10
194.1182369239
 20
120.35293117
 10
194.5002244659
 20
120.0647658706
 10
194.7509290524
 20
119.5790940572
 10
194.8364952452
 20
118.9615123433
 10
194.7453634687
 20
118.2954221563
  0
LWPOLYLINE
  5
EE
330
1F
100
AcDbEntity
  8
0
  6
Continuous
370
    15
100
AcDbPolyline
 90
        6
 70
   128
 43
0.0
 10
194.8867643125
 20
118.2554532671
 10
194.6312466509
 20
117.6308206517
 10
194.2458467431
 20
117.1320061979
 10
193.7826180704
 20
116.8263695584
 10
193.304123158
 20
116.7551931515
 10
193.1663619227
 20
116.7821528008
  0
LWPOLYLINE
  5
EF
330
1F
100
AcDbEntity
  8
0
  6
Continuous
370
    15
100
AcDbPolyline
 90
        6
 70
   128
 43
0.0
 10
194.1727826245
 20
120.3426471578
 10
194.2596377678
 20
120.312963245
 10
194.6416215844
 20
120.0247969814
 10
194.8923298962
 20
119.539125168
 10
194.9778960891
 20
118.9215444183
 10
194.8867643125
 20
118.2554532671
  0
LINE
  5
F0
330
1F
100
AcDbEntity
  8
0
  6
Continuous
370
    15
100
AcDbLine
 10
162.2560934968
 20
173.1665369751
 30
0.0
 11
154.6295748897
 21
180.2216333582
 31
0.0
  0
LINE
  5
F1
330
1F
100
AcDbEntity
  8
0
  6
Continuous
370
    15
100
AcDbLine
 10
165.0845201559
 20
173.8985876621
 30
0.0
 11
162.2560934968
 21
173.1665369751
 31
0.0
  0
LINE
  5
F2
330
1F
100
AcDbEntity
  8
0
  6
Continuous
370
    15
100
AcDbLine
 10
157.4580015488
 20
180.9536840453
 30
0.0
 11
165.0845201559
 21
173.8985876621
 31
0.0
  0
LINE
  5
F3
330
1F
100
AcDbEntity
  8
0
  6
Continuous
370
    15
100
AcDbLine
 10
154.6295748897
 20
180.2216333582
 30
0.0
 11
157.4580015488
 21
180.9536840453
 31
0.0
  0
LWPOLYLINE
  5
F4
330
1F
100
AcDbEntity
  8
0
  6
Continuous
370
    15
100
AcDbPolyline
 90
        9
 70
   128
 43
0.0
 10
181.5871799238
 20
158.3812625087
 10
181.9091381378
 20
157.9751000409
 10
181.9990740962
 20
157.5834043795
 10
181.8432973571
 20
157.26581103
 10
181.4655231185
 20
157.0706696946
 10
180.9232624121
 20
157.0276884641
 10
180.2990713961
 20
157.143411304
 10
179.6879785009
 20
157.4002216246
 10
179.1830154009
 20
157.7590189426
  0
LINE
  5
F5
330
1F
100
AcDbEntity
  8
0
  6
Continuous
370
    15
100
AcDbLine
 10
169.7660738475
 20
169.3166631642
 30
0.0
 11
181.5871799238
 21
158.3812625087
 31
0.0
  0
LWPOLYLINE
  5
F6
330
1F
100
AcDbEntity
  8
0
  6
Continuous
370
    15
100
AcDbPolyline
 90
        9
 70
   128
 43
0.0
 10
167.3619093247
 20
168.6944195981
 10
167.0399511106
 20
169.1005838651
 10
166.9500151522
 20
169.4922786269
 10
167.1057918913
 20
169.8098724262
 10
167.4835661299
 20
170.0050142114
 10
168.0258268364
 20
170.0479949921
 10
168.6500178523
 20
169.9322717024
 10
169.2611107476
 20
169.6754622814
 10
169.7660738475
 20
169.3166631642
  0
LINE
  5
F7
330
1F
100
AcDbEntity
  8
0
  6
Continuous
370
    15
100
AcDbLine
 10
179.1830154009
 20
157.7590189426
 30
0.0
 11
167.3619093247
 21
168.6944195981
 31
0.0
  0
ARC
  5
F8
330
1F
100
AcDbEntity
  8
0
  6
Continuous
370
    15
100
AcDbCircle
 10
156.3091621829
 20
177.944701044
 30
0.0
 40
4.832542954602651
100
AcDbArc
 50
47.4140271325
 51
99.0218208511
  0
LINE
  5
F9
330
1F
100
AcDbEntity
  8
0
  6
Continuous
370
    15
100
AcDbLine
 10
193.8986608632
 20
149.7547874807
 30
0.0
 11
159.5793234058
 21
181.5027225426
 31
0.0
  0
LWPOLYLINE
  5
FA
330
1F
100
AcDbEntity
  8
0
  6
Continuous
370
    15
100
AcDbPolyline
 90
        9
 70
   128
 43
0.0
 10
193.8270980365
 20
148.9838494389
 10
193.95283776
 20
149.0308502911
 10
194.0493190534
 20
149.0986383083
 10
194.1128389783
 20
149.1846084131
 10
194.1409537442
 20
149.2854580467
 10
194.1325830169
 20
149.3973101177
 10
194.0880508967
 20
149.5158678188
 10
194.0090635665
 20
149.6365712436
 10
193.8986608632
 20
149.7547874807
  0
LINE
  5
FB
330
1F
100
AcDbEntity
  8
0
  6
Continuous
370
    15
100
AcDbLine
 10
193.1199932344
 20
148.8008362851
 30
0.0
 11
193.8270980365
 21
148.9838494389
 31
0.0
  0
ARC
  5
FC
330
1F
100
AcDbEntity
  8
0
  6
Continuous
370
    15
100
AcDbCircle
 10
193.1705791678
 20
148.4335142267
 30
0.0
 40
0.3707889308327525
100
AcDbArc
 50
97.8411931315
 51
168.9154322369
  0
ARC
  5
FD
330
1F
100
AcDbEntity
  8
0
  6
Continuous
370
    15
100
AcDbCircle
 10
189.1407872349
 20
146.4147405902
 30
0.0
 40
1.314683278277161
100
AcDbArc
 50
71.6920223623
 51
101.5590813545
  0
LINE
  5
FE
330
1F
100
AcDbEntity
  8
0
  6
Continuous
370
    15
100
AcDbLine
 10
188.1702447183
 20
147.5197480648
 30
0.0
 11
188.8773532457
 21
147.7027602545
 31
0.0
  0
ARC
  5
FF
330
1F
100
AcDbEntity
  8
0
  6
Continuous
370
    15
100
AcDbCircle
 10
187.9176443563
 20
149.1106547782
 30
0.0
 40
1.610835532798864
100
AcDbArc
 50
227.4138048752
 51
279.0219742246
  0
LINE
  5
100
330
1F
100
AcDbEntity
  8
0
  6
Continuous
370
    15
100
AcDbLine
 10
186.8275942154
 20
147.924660763
 30
0.0
 11
152.5082530327
 21
179.6725948608
 31
0.0
  0
LWPOLYLINE
  5
101
330
1F
100
AcDbEntity
  8
0
  6
Continuous
370
    15
100
AcDbPolyline
 90
        9
 70
   128
 43
0.0
 10
152.7229415126
 20
181.9854084322
 10
152.3457260676
 20
181.8444059403
 10
152.0562859125
 20
181.6410406827
 10
151.8657224126
 20
181.3831292606
 10
151.7813818402
 20
181.0805823839
 10
151.8064902968
 20
180.7450265084
 10
151.9400941081
 20
180.3893550916
 10
152.1770449228
 20
180.0272395237
 10
152.5082530327
 20
179.6725948608
  0
LINE
  5
102
330
1F
100
AcDbEntity
  8
0
  6
Continuous
370
    15
100
AcDbLine
 10
155.5513681717
 20
182.7174591193
 30
0.0
 11
152.7229415126
 21
181.9854084322
 31
0.0
  0
LINE
  5
103
330
1F
100
AcDbEntity
  8
0
  6
Continuous
370
    15
100
AcDbLine
 10
194.0226534255
 20
150.0699631683
 30
0.0
 11
159.7033085175
 21
181.8178982219
 31
0.0
  0
ARC
  5
104
330
1F
100
AcDbEntity
  8
0
  6
Continuous
370
    15
100
AcDbCircle
 10
156.4331559317
 20
178.2599004943
 30
0.0
 40
4.832519608221358
100
AcDbArc
 50
47.4139118117
 51
99.0218790443
  0
LINE
  5
105
330
1F
100
AcDbEntity
  8
0
  6
Continuous
370
    15
100
AcDbLine
 10
155.675360734
 20
183.0326347423
 30
0.0
 11
152.8469340749
 21
182.3005840553
 31
0.0
  0
ARC
  5
106
330
1F
100
AcDbEntity
  8
0
  6
Continuous
370
    15
100
AcDbCircle
 10
153.0261619692
 20
181.1408779641
 30
0.0
 40
1.17347384123135
100
AcDbArc
 50
98.78532715160003
 51
155.0932857075
  0
LINE
  5
107
330
1F
100
AcDbEntity
  8
0
  6
Continuous
370
    15
100
AcDbLine
 10
162.2560934968
 20
173.1665369751
 30
0.0
 11
162.3800860591
 21
173.4817125982
 31
0.0
  0
LINE
  5
108
330
1F
100
AcDbEntity
  8
0
  6
Continuous
370
    15
100
AcDbLine
 10
162.3800860591
 20
173.4817125982
 30
0.0
 11
154.9926789351
 21
180.3156116007
 31
0.0
  0
LINE
  5
109
330
1F
100
AcDbEntity
  8
0
  6
Continuous
370
    15
100
AcDbLine
 10
164.8454086728
 20
174.1197850429
 30
0.0
 11
162.3800860591
 21
173.4817125982
 31
0.0
  0
LWPOLYLINE
  5
10A
330
1F
100
AcDbEntity
  8
0
  6
Continuous
370
    15
100
AcDbPolyline
 90
        3
 70
   128
 43
0.0
 10
167.4858981617
 20
169.0095961853
 10
167.1639436729
 20
169.4157604524
 10
167.0719774313
 20
169.774475613
  0
LINE
  5
10B
330
1F
100
AcDbEntity
  8
0
  6
Continuous
370
    15
100
AcDbLine
 10
179.3070079632
 20
158.0741964295
 30
0.0
 11
167.4858981617
 21
169.0095961853
 31
0.0
  0
ARC
  5
10C
330
1F
100
AcDbEntity
  8
0
  6
Continuous
370
    15
100
AcDbCircle
 10
196.5591594525
 20
115.3113306258
 30
0.0
 40
0.593496507508278
100
AcDbArc
 50
293.1320497547
 51
2.6091285846
  0
ARC
  5
10D
330
1F
100
AcDbEntity
  8
0
  6
Continuous
370
    15
100
AcDbCircle
 10
196.9494563355
 20
115.0881152794
 30
0.0
 40
0.4216610275589713
100
AcDbArc
 50
287.3380868645
 51
321.6146937249
  0
ARC
  5
10E
330
1F
100
AcDbEntity
  8
0
  6
Continuous
370
    15
100
AcDbCircle
 10
191.5609883343
 20
141.1932202099
 30
0.0
 40
0.8909336683205905
100
AcDbArc
 50
287.8819599065
 51
330.0475304405
  0
ARC
  5
10F
330
1F
100
AcDbEntity
  8
0
  6
Continuous
370
    15
100
AcDbCircle
 10
195.9488563988
 20
141.9092112323
 30
0.0
 40
0.4831652855592554
100
AcDbArc
 50
221.3005376516
 51
285.4039154336
  0
LINE
  5
110
330
1F
100
AcDbEntity
  8
0
  6
Continuous
370
    15
100
AcDbLine
 10
196.7843023933
 20
141.6264157241
 30
0.0
 11
196.0771957285
 21
141.4434025703
 31
0.0
  0
LWPOLYLINE
  5
111
330
1F
100
AcDbEntity
  8
0
  6
Continuous
370
    15
100
AcDbPolyline
 90
        9
 70
   128
 43
0.0
 10
197.479069034
 20
140.8468419779
 10
197.4678894378
 20
141.0311188237
 10
197.4299659826
 20
141.2012777364
 10
197.3667552568
 20
141.3507834784
 10
197.2806880124
 20
141.4738905448
 10
197.1750704445
 20
141.5658674062
 10
197.0539612569
 20
141.6231783448
 10
196.9220151998
 20
141.6436241594
 10
196.7843023933
 20
141.6264157241
  0
LINE
  5
112
330
1F
100
AcDbEntity
  8
0
  6
Continuous
370
    15
100
AcDbLine
 10
197.1520406998
 20
115.3383478613
 30
0.0
 11
197.479069034
 21
140.8468419779
 31
0.0
  0
LINE
  5
113
330
1F
100
AcDbEntity
  8
0
  6
Continuous
370
    15
100
AcDbLine
 10
196.7923154928
 20
114.7655501156
 30
0.0
 11
190.4283555098
 21
113.1184360697
 31
0.0
  0
LWPOLYLINE
  5
114
330
1F
100
AcDbEntity
  8
0
  6
Continuous
370
    15
100
AcDbPolyline
 90
        9
 70
   128
 43
0.0
 10
190.0809721894
 20
113.5082206616
 10
190.0865601249
 20
113.4160858371
 10
190.1055218525
 20
113.331004164
 10
190.1371272154
 20
113.256250811
 10
190.1801617689
 20
113.1946968602
 10
190.2329714842
 20
113.148708847
 10
190.293526078
 20
113.1200533777
 10
190.3594972439
 20
113.1098331692
 10
190.4283555098
 20
113.1184360697
  0
LINE
  5
115
330
1F
100
AcDbEntity
  8
0
  6
Continuous
370
    15
100
AcDbLine
 10
190.0809721894
 20
113.5082206616
 30
0.0
 11
190.4080005236
 21
139.0167147782
 31
0.0
  0
ARC
  5
116
330
1F
100
AcDbEntity
  8
0
  6
Continuous
370
    15
100
AcDbCircle
 10
191.5937614013
 20
139.0707552096
 30
0.0
 40
1.186991671112595
100
AcDbArc
 50
113.1321881346
 51
182.6094195483
  0
LINE
  5
117
330
1F
100
AcDbEntity
  8
0
  6
Continuous
370
    15
100
AcDbLine
 10
191.8345557399
 20
140.3453265397
 30
0.0
 11
191.1274472125
 21
140.1623138679
 31
0.0
  0
LINE
  5
118
330
1F
100
AcDbEntity
  8
0
  6
Continuous
370
    15
100
AcDbLine
 10
197.5638715423
 20
125.3229608711
 30
0.0
 11
197.7618688591
 21
140.7669041995
 31
0.0
  0
LWPOLYLINE
  5
119
330
1F
100
AcDbEntity
  8
0
  6
Continuous
370
    15
100
AcDbPolyline
 90
        7
 70
   128
 43
0.0
 10
182.0011006541
 20
157.6163848243
 10
181.9672861941
 20
157.5809867177
 10
181.5895119555
 20
157.3858453823
 10
181.0472512491
 20
157.3428641518
 10
180.4230639584
 20
157.4585887909
 10
179.8119710631
 20
157.7153973123
 10
179.3070079632
 20
158.0741964295
  0
LINE
  5
11A
330
1F
100
AcDbEntity
  8
0
  6
Continuous
370
    15
100
AcDbLine
 10
197.0751153178
 20
114.6856133014
 30
0.0
 11
190.7111534722
 21
113.0384987735
 31
0.0
  0
ARC
  5
11B
330
1F
100
AcDbEntity
  8
0
  6
Continuous
370
    15
100
AcDbCircle
 10
193.7333341889
 20
149.632191408
 30
0.0
 40
0.5247377771191334
100
AcDbArc
 50
347.7509636035
 51
56.5396593508
  0
LWPOLYLINE
  5
11C
330
1F
100
AcDbEntity
  8
0
  6
Continuous
370
    15
100
AcDbPolyline
 90
        3
 70
   128
 43
0.0
 10
190.7111534722
 20
113.0384987735
 10
190.6422989316
 20
113.029896355
 10
190.58132338
 20
113.0386427169
  0
SPLINE
  5
11D
330
1F
100
AcDbEntity
  8
0
  6
Continuous
370
    15
100
AcDbSpline
210
0.0
220
0.0
230
1.0
 70
     8
 71
     3
 72
    10
 73
     6
 74
     0
 42
0.000000001
 43
0.00000001
 40
0.0
 40
0.0
 40
0.0
 40
0.0
 40
0.4206615648017514
 40
0.8413614511660552
 40
1.0
 40
1.0
 40
1.0
 40
1.0
 10
189.5537616558156
 20
147.6628769008059
 30
0.0
 10
189.659077894149
 20
147.6248836271757
 30
0.0
 10
189.8697199649483
 20
147.5488936187917
 30
0.0
 10
190.0857194116437
 20
147.3965487872216
 30
0.0
 10
190.1822440747531
 20
147.2964613710519
 30
0.0
 10
190.2086751408658
 20
147.2690547266917
 30
0.0
  0
SPLINE
  5
11E
330
1F
100
AcDbEntity
  8
0
  6
Continuous
370
    15
100
AcDbSpline
210
0.0
220
0.0
230
1.0
 70
     8
 71
     3
 72
    10
 73
     6
 74
     0
 42
0.000000001
 43
0.00000001
 40
0.0
 40
0.0
 40
0.0
 40
0.0
 40
0.4206500001846326
 40
0.8413394414390585
 40
0.9999999999999999
 40
0.9999999999999999
 40
0.9999999999999999
 40
0.9999999999999999
 10
193.037101799973
 20
148.0011054137443
 30
0.0
 10
192.9771890455235
 20
148.0761956369621
 30
0.0
 10
192.8573579190727
 20
148.2263831240221
 30
0.0
 10
192.8021848304963
 20
148.3963672901025
 30
0.0
 10
192.8057351948237
 20
148.481489659138
 30
0.0
 10
192.8067074961743
 20
148.5048012369778
 30
0.0
  0
ARC
  5
11F
330
1F
100
AcDbEntity
  8
0
  6
Continuous
370
    15
100
AcDbCircle
 10
185.7262858926
 20
141.7110838193
 30
0.0
 40
9.644293695737987
100
AcDbArc
 50
3.0859734318
 51
40.7077823543
  0
SPLINE
  5
120
330
1F
100
AcDbEntity
  8
0
  6
Continuous
370
    15
100
AcDbSpline
210
0.0
220
0.0
230
1.0
 70
     8
 71
     3
 72
    10
 73
     6
 74
     0
 42
0.000000001
 43
0.00000001
 40
0.0
 40
0.0
 40
0.0
 40
0.0
 40
0.4206595191337099
 40
0.8413623828546296
 40
1.0
 40
1.0
 40
1.0
 40
1.0
 10
195.585874641665
 20
141.5903179317857
 30
0.0
 10
195.53545008773
 20
141.6600545929932
 30
0.0
 10
195.4345957841344
 20
141.7995351010457
 30
0.0
 10
195.3729860183037
 20
142.0411608046756
 30
0.0
 10
195.3601178259851
 20
142.1896250488533
 30
0.0
 10
195.3565941996656
 20
142.2302781961915
 30
0.0
  0
SPLINE
  5
121
330
1F
100
AcDbEntity
  8
0
  6
Continuous
370
    15
100
AcDbSpline
210
0.0
220
0.0
230
1.0
 70
     8
 71
     3
 72
    10
 73
     6
 74
     0
 42
0.000000001
 43
0.00000001
 40
0.0
 40
0.0
 40
0.0
 40
0.0
 40
0.4206486765439076
 40
0.8413400983611399
 40
1.0
 40
1.0
 40
1.0
 40
1.0
 10
192.5281675405583
 20
141.4982275091389
 30
0.0
 10
192.5260111551375
 20
141.3872440241055
 30
0.0
 10
192.5216981651693
 20
141.1652657761727
 30
0.0
 10
192.4288667062822
 20
140.9096939158868
 30
0.0
 10
192.353553824408
 20
140.7830704298931
 30
0.0
 10
192.3329288013063
 20
140.7483935956138
 30
0.0
  0
ARC
  5
122
330
1F
100
AcDbEntity
  8
0
  6
Continuous
370
    15
100
AcDbCircle
 10
182.8978592335
 20
140.9790331323
 30
0.0
 40
9.644293695737884
100
AcDbArc
 50
3.0859734318
 51
40.7077823543
  0
ARC
  5
123
330
1F
100
AcDbEntity
  8
0
  6
Continuous
370
    15
100
AcDbCircle
 10
197.0216445006
 20
140.8647211252
 30
0.0
 40
0.7466593947463993
100
AcDbArc
 50
352.4722659057
 51
65.8798470405
  0
ARC
  5
124
330
1F
100
AcDbEntity
  8
0
  6
Continuous
370
    15
100
AcDbCircle
 10
185.465979538
 20
141.6425046279
 30
0.0
 40
10.18746271602078
100
AcDbArc
 50
2.8550929733
 51
40.9386674456
  0
SPLINE
  5
125
330
1F
100
AcDbEntity
  8
0
  6
Continuous
370
    15
100
AcDbSpline
210
0.0
220
0.0
230
1.0
 70
     8
 71
     3
 72
    10
 73
     6
 74
     0
 42
0.000000001
 43
0.00000001
 40
0.0
 40
0.0
 40
0.0
 40
0.0
 40
0.2538857736904871
 40
0.796415177776007
 40
1.0
 40
1.0
 40
1.0
 40
1.0
 10
192.9474675901017
 20
148.714265347996
 30
0.0
 10
192.9502137003082
 20
148.6838465545175
 30
0.0
 10
192.958827983088
 20
148.588425734108
 30
0.0
 10
193.0501722809307
 20
148.4470529514909
 30
0.0
 10
193.1377962284622
 20
148.3455449180172
 30
0.0
 10
193.161705309876
 20
148.3178474231561
 30
0.0
  0
SPLINE
  5
126
330
1F
100
AcDbEntity
  8
0
  6
Continuous
370
    15
100
AcDbSpline
210
0.0
220
0.0
230
1.0
 70
     8
 71
     3
 72
    10
 73
     6
 74
     0
 42
0.000000001
 43
0.00000001
 40
0.0
 40
0.0
 40
0.0
 40
0.0
 40
0.4209702855946074
 40
0.8419824911395993
 40
1.0
 40
1.0
 40
1.0
 40
1.0
 10
195.6407965965352
 20
142.1499437032522
 30
0.0
 10
195.6537113755277
 20
142.0429555292807
 30
0.0
 10
195.679542219558
 20
141.8289685275241
 30
0.0
 10
195.7755610067579
 20
141.6225162503855
 30
0.0
 10
195.8487101618058
 20
141.5344220660961
 30
0.0
 10
195.8686726040921
 20
141.5103811175918
 30
0.0
  0
LWPOLYLINE
  5
127
330
1F
100
AcDbEntity
  8
0
  6
Continuous
370
    15
100
AcDbPolyline
 90
        3
 70
   128
 43
0.0
 10
195.8686726041
 20
141.5103811176
 10
195.919064606
 20
141.4616852934
 10
195.9653885908
 20
141.4265672705
  0
LINE
  5
128
330
1F
100
AcDbEntity
  8
0
  6
Continuous
370
    15
100
AcDbLine
 10
223.5785292335
 20
126.1058600029
 30
0.0
 11
223.5785292335
 21
123.6485350761
 31
0.0
  0
LINE
  5
129
330
1F
100
AcDbEntity
  8
0
  6
Continuous
370
    15
100
AcDbLine
 10
232.3785291858
 20
126.1058600029
 30
0.0
 11
232.3785291858
 21
123.6485350761
 31
0.0
  0
LINE
  5
12A
330
1F
100
AcDbEntity
  8
0
  6
Continuous
370
    15
100
AcDbLine
 10
223.5785292335
 20
122.7427104995
 30
0.0
 11
223.5785292335
 21
123.6485350761
 31
0.0
  0
LINE
  5
12B
330
1F
100
AcDbEntity
  8
0
  6
Continuous
370
    15
100
AcDbLine
 10
232.3785291858
 20
122.7427104995
 30
0.0
 11
232.3785291858
 21
123.6485350761
 31
0.0
  0
LINE
  5
12C
330
1F
100
AcDbEntity
  8
0
  6
Continuous
370
    15
100
AcDbLine
 10
223.5785292335
 20
126.4043773572
 30
0.0
 11
223.5785292335
 21
126.10585799
 31
0.0
  0
LINE
  5
12D
330
1F
100
AcDbEntity
  8
0
  6
Continuous
370
    15
100
AcDbLine
 10
232.3785291858
 20
126.4043773572
 30
0.0
 11
232.3785291858
 21
126.10585799
 31
0.0
  0
LINE
  5
12E
330
1F
100
AcDbEntity
  8
0
  6
Continuous
370
    15
100
AcDbLine
 10
223.5785292335
 20
130.9687803251
 30
0.0
 11
223.5785292335
 21
126.4043773572
 31
0.0
  0
LINE
  5
12F
330
1F
100
AcDbEntity
  8
0
  6
Continuous
370
    15
100
AcDbLine
 10
232.3785291858
 20
130.9687803251
 30
0.0
 11
232.3785291858
 21
126.4043773572
 31
0.0
  0
ARC
  5
130
330
1F
100
AcDbEntity
  8
0
  6
Continuous
370
    15
100
AcDbCircle
 10
231.4136131757
 20
135.5815406507
 30
0.0
 40
0.96565756992452
100
AcDbArc
 50
2.245571818200001
 51
92.08210773470003
  0
ARC
  5
131
330
1F
100
AcDbEntity
  8
0
  6
Continuous
370
    15
100
AcDbCircle
 10
224.5434452436
 20
135.5815406507
 30
0.0
 40
0.9656575699245357
100
AcDbArc
 50
87.9178922653
 51
177.7544281818
  0
LINE
  5
132
330
1F
100
AcDbEntity
  8
0
  6
Continuous
370
    15
100
AcDbLine
 10
231.3785292547
 20
136.546560682
 30
0.0
 11
224.5785291645
 21
136.546560682
 31
0.0
  0
LINE
  5
133
330
1F
100
AcDbEntity
  8
0
  6
Continuous
370
    15
100
AcDbLine
 10
223.5785292335
 20
135.6193776143
 30
0.0
 11
223.5785292335
 21
132.2815171688
 31
0.0
  0
LINE
  5
134
330
1F
100
AcDbEntity
  8
0
  6
Continuous
370
    15
100
AcDbLine
 10
232.3785291858
 20
135.6193776143
 30
0.0
 11
232.3785291858
 21
132.2815171688
 31
0.0
  0
ARC
  5
135
330
1F
100
AcDbEntity
  8
0
  6
Continuous
370
    15
100
AcDbCircle
 10
231.4136118109
 20
135.731383977
 30
0.0
 40
0.9656588445911415
100
AcDbArc
 50
2.2454338706
 51
92.08202395440001
  0
LINE
  5
136
330
1F
100
AcDbEntity
  8
0
  6
Continuous
370
    15
100
AcDbLine
 10
232.3785291858
 20
135.7692186673
 30
0.0
 11
232.3785291858
 21
135.6193776143
 31
0.0
  0
ARC
  5
137
330
1F
100
AcDbEntity
  8
0
  6
Continuous
370
    15
100
AcDbCircle
 10
224.5434466083
 20
135.731383977
 30
0.0
 40
0.9656588445911455
100
AcDbArc
 50
87.9179760456
 51
177.7545661294
  0
LINE
  5
138
330
1F
100
AcDbEntity
  8
0
  6
Continuous
370
    15
100
AcDbLine
 10
223.5785292335
 20
135.6193776143
 30
0.0
 11
223.5785292335
 21
135.7692186673
 31
0.0
  0
LINE
  5
139
330
1F
100
AcDbEntity
  8
0
  6
Continuous
370
    15
100
AcDbLine
 10
231.3785292547
 20
136.6964053334
 30
0.0
 11
224.5785291645
 21
136.6964053334
 31
0.0
  0
LINE
  5
13A
330
1F
100
AcDbEntity
  8
0
  6
Continuous
370
    15
100
AcDbLine
 10
223.5785292335
 20
130.9687803251
 30
0.0
 11
223.5785292335
 21
132.2815171688
 31
0.0
  0
LINE
  5
13B
330
1F
100
AcDbEntity
  8
0
  6
Continuous
370
    15
100
AcDbLine
 10
232.3785291858
 20
130.9687803251
 30
0.0
 11
232.3785291858
 21
132.2815171688
 31
0.0
  0
LWPOLYLINE
  5
13C
330
1F
100
AcDbEntity
  8
0
  6
Continuous
370
    15
100
AcDbPolyline
 90
       25
 70
   128
 43
0.0
 10
227.9785292096
 20
112.7359502167
 10
224.2769385095
 20
112.7035751124
 10
220.5922373444
 20
112.6065963541
 10
216.941238182
 20
112.4454564988
 10
213.3405998222
 20
112.2208912127
 10
209.8067512609
 20
111.933925415
 10
206.3558155544
 20
111.5858674927
 10
203.0035385735
 20
111.1783054437
 10
199.7652182229
 20
110.7131010921
 10
196.6556290038
 20
110.1923746611
 10
193.6889568217
 20
109.6185028447
 10
190.8787431069
 20
108.9941043451
 10
188.2378065832
 20
108.3220273384
 10
185.7781948395
 20
107.605339833
 10
183.5111359007
 20
106.8473113498
 10
181.4469711728
 20
106.0513994245
 10
179.5951219149
 20
105.2212370723
 10
177.9640296347
 20
104.3606115769
 10
176.561144913
 20
103.4734495454
 10
175.3928677983
 20
102.5637993121
 10
174.464525456
 20
101.635811173
 10
173.7803535409
 20
100.6937195483
 10
173.3434775717
 20
99.7418226144
 10
173.1558868535
 20
98.7844639093
 10
173.1497922785
 20
98.4322153388
  0
LWPOLYLINE
  5
13D
330
1F
100
AcDbEntity
  8
0
  6
Continuous
370
    15
100
AcDbPolyline
 90
       48
 70
   128
 43
0.0
 10
173.1838600583
 20
98.0321032901
 10
173.2184419282
 20
97.8260116176
 10
173.5308522232
 20
96.8708388955
 10
174.0916946776
 20
95.9233038943
 10
174.8984137423
 20
94.9877303409
 10
175.9473213799
 20
94.0683867634
 10
177.2336380429
 20
93.1694675688
 10
178.7514926739
 20
92.2950750853
 10
180.4939562328
 20
91.4491985914
 10
182.4530826755
 20
90.6356972018
 10
184.6199313052
 20
89.8582839587
 10
186.9846114762
 20
89.1205041374
 10
189.5363421984
 20
88.425725605
 10
192.263474489
 20
87.7771185724
 10
195.1535658784
 20
87.1776411318
 10
198.1934307016
 20
86.6300296151
 10
201.3691978402
 20
86.1367831664
 10
204.6663777776
 20
85.7001502446
 10
208.0699240662
 20
85.3221247656
 10
211.5643115587
 20
85.0044316405
 10
215.1335904248
 20
84.7485200259
 10
218.7614792831
 20
84.5555575391
 10
222.4314234093
 20
84.4264244728
 10
226.1266773905
 20
84.3617109028
 10
229.8303810287
 20
84.3617109028
 10
233.52563501
 20
84.4264244728
 10
237.1955791361
 20
84.5555575391
 10
240.8234679945
 20
84.7485200259
 10
244.3927468605
 20
85.0044316405
 10
247.887134353
 20
85.3221247656
 10
251.2906806417
 20
85.7001502446
 10
254.587860579
 20
86.1367831664
 10
257.7636277176
 20
86.6300296151
 10
260.8034925408
 20
87.1776411318
 10
263.6935839303
 20
87.7771185724
 10
266.4207162209
 20
88.425725605
 10
268.9724469431
 20
89.1205041374
 10
271.3371271141
 20
89.8582839587
 10
273.5039757438
 20
90.6356972018
 10
275.4631021864
 20
91.4491985914
 10
277.2055657454
 20
92.2950750853
 10
278.7234203763
 20
93.1694675688
 10
280.0097370393
 20
94.0683867634
 10
281.0586446769
 20
94.9877303409
 10
281.8653637416
 20
95.9233038943
 10
282.4262061961
 20
96.8708388955
 10
282.7386164911
 20
97.8260116176
 10
282.8073518224
 20
98.4349926555
  0
LWPOLYLINE
  5
13E
330
1F
100
AcDbEntity
  8
0
  6
Continuous
370
    15
100
AcDbPolyline
 90
       25
 70
   128
 43
0.0
 10
282.8028479464
 20
98.7572220182
 10
282.8011715658
 20
98.7844639093
 10
282.6135808475
 20
99.7418226144
 10
282.1767048783
 20
100.6937195483
 10
281.4925329633
 20
101.635811173
 10
280.5641906209
 20
102.5637993121
 10
279.3959135063
 20
103.4734495454
 10
277.9930287845
 20
104.3606115769
 10
276.3619365044
 20
105.2212370723
 10
274.5100872464
 20
106.0513994245
 10
272.4459225185
 20
106.8473113498
 10
270.1788635798
 20
107.605339833
 10
267.7192518361
 20
108.3220273384
 10
265.0783153124
 20
108.9941043451
 10
262.2681015976
 20
109.6185028447
 10
259.3014294155
 20
110.1923746611
 10
256.1918401964
 20
110.7131010921
 10
252.9535198457
 20
111.1783054437
 10
249.6012428649
 20
111.5858674927
 10
246.1503071584
 20
111.933925415
 10
242.616458597
 20
112.2208912127
 10
239.0158202372
 20
112.4454564988
 10
235.3648210749
 20
112.6065963541
 10
231.6801199097
 20
112.7035751124
 10
227.9785292096
 20
112.7359502167
  0
LWPOLYLINE
  5
13F
330
1F
100
AcDbEntity
  8
0
  6
Continuous
370
    15
100
AcDbPolyline
 90
       85
 70
   128
 43
0.0
 10
202.955601538
 20
107.4954752495
 10
200.1259809233
 20
106.9904610319
 10
197.4478697277
 20
106.4328423316
 10
194.9358338363
 20
105.8256524466
 10
192.6035450645
 20
105.1721946442
 10
190.4636824377
 20
104.4760233594
 10
188.5278912134
 20
103.7409253939
 10
186.8066953368
 20
102.9708991857
 10
185.3094676383
 20
102.17013408
 10
184.0443441517
 20
101.3429855012
 10
183.0182092137
 20
100.493953259
 10
182.2366470344
 20
99.6276555158
 10
181.7039044447
 20
98.7488050436
 10
181.4228834457
 20
97.8621822276
 10
181.3951114066
 20
96.9726101175
 10
181.6207373388
 20
96.084927672
 10
182.0985393472
 20
95.2039638465
 10
182.8259134538
 20
94.3345103549
 10
183.7989034004
 20
93.4812972042
 10
185.0122155495
 20
92.6489656968
 10
186.4592561371
 20
91.8420428807
 10
188.1321461744
 20
91.0649188903
 10
190.0217885025
 20
90.3218201917
 10
192.1179050453
 20
89.6167900571
 10
194.4090926893
 20
88.9536625328
 10
196.8828884758
 20
88.3360460477
 10
199.5258347936
 20
87.7672988271
 10
202.3235557474
 20
87.2505168404
 10
205.2608316637
 20
86.7885087325
 10
208.3216847725
 20
86.3837890747
 10
211.4894648887
 20
86.0385590808
 10
214.7469416134
 20
85.7546969659
 10
218.0763937406
 20
85.5337463759
 10
221.4597107716
 20
85.3769096384
 10
224.8784881424
 20
85.2850400492
 10
228.314128942
 20
85.2586360873
 10
231.7479441747
 20
85.2978433433
 10
235.1612549148
 20
85.4024477702
 10
238.5354934133
 20
85.5718795398
 10
241.8523056306
 20
85.805217864
 10
245.0936490543
 20
86.101192923
 10
248.2418900229
 20
86.4581955068
 10
251.2799052395
 20
86.8742828006
 10
254.1911674537
 20
87.3471909191
 10
256.9598404564
 20
87.8743493687
 10
259.5708647616
 20
88.4528887615
 10
262.0100358374
 20
89.079662991
 10
264.2640860624
 20
89.7512617663
 10
266.320751781
 20
90.4640323064
 10
268.1688496716
 20
91.2140971772
 10
269.7983214505
 20
91.9973769498
 10
271.2003083773
 20
92.8096094836
 10
272.3671810575
 20
93.6463778882
 10
273.2925953217
 20
94.5031293241
 10
273.9715108521
 20
95.3752038078
 10
274.4002396114
 20
96.2578573519
 10
274.5764458425
 20
97.1462887815
 10
274.4991758711
 20
98.0356651036
 10
274.1688469298
 20
98.9211485045
 10
273.5872583337
 20
99.7979220208
 10
272.757569129
 20
100.6612165966
 10
271.6842943676
 20
101.5063359713
 10
270.3732753046
 20
102.3286827122
 10
268.8316421456
 20
103.1237837655
 10
267.0677805193
 20
103.8873138373
 10
265.0912830479
 20
104.6151202213
 10
262.9129046447
 20
105.3032430462
 10
260.5444917328
 20
105.9479388985
 10
257.998931954
 20
106.545702034
 10
255.2900684871
 20
107.0932798046
 10
252.4326385803
 20
107.5876948347
 10
249.4421860076
 20
108.0262551445
 10
246.3349791117
 20
108.4065772909
 10
243.1279167406
 20
108.726592152
 10
239.8384462915
 20
108.9845584258
 10
236.4844621964
 20
109.1790732361
 10
233.0842076674
 20
109.3090779175
 10
229.6561798187
 20
109.3738647649
 10
226.2190262893
 20
109.3730837823
 10
222.7914438456
 20
109.3067359339
 10
219.3920777984
 20
109.1751856782
 10
216.0394189752
 20
108.9791455413
 10
212.7517059319
 20
108.7196828663
 10
209.5468228556
 20
108.3982101709
 10
206.4422013111
 20
108.0164755066
  0
SPLINE
  5
140
330
1F
100
AcDbEntity
  8
0
  6
Continuous
370
    15
100
AcDbSpline
210
0.0
220
0.0
230
1.0
 70
     8
 71
     3
 72
    17
 73
    13
 74
     0
 42
0.000000001
 43
0.00000001
 40
0.0
 40
0.0
 40
0.0
 40
0.0
 40
0.0556725553506847
 40
0.1672065641091199
 40
0.2781735024233138
 40
0.3880246060072573
 40
0.4967089352276537
 40
0.6046512972872118
 40
0.7125476566068241
 40
0.821100807360661
 40
0.9307661936685974
 40
1.0
 40
1.0
 40
1.0
 40
1.0
 10
206.4422013111196
 20
108.0164755065698
 30
0.0
 10
206.3771629242272
 20
108.0575642747804
 30
0.0
 10
206.1818270870454
 20
108.1809699943974
 30
0.0
 10
205.7215297235684
 20
108.3533112364191
 30
0.0
 10
205.0655784773597
 20
108.4886091181262
 30
0.0
 10
204.3719433579066
 20
108.5363161581961
 30
0.0
 10
203.7244085351978
 20
108.4934752962156
 30
0.0
 10
203.1930126987938
 20
108.3668260227888
 30
0.0
 10
202.8324047421436
 20
108.1707631181233
 30
0.0
 10
202.6839774959397
 20
107.9262618332669
 30
0.0
 10
202.744007984727
 20
107.6903466272195
 30
0.0
 10
202.896562929037
 20
107.5498480547561
 30
0.0
 10
202.955601537951
 20
107.4954752495341
 30
0.0
  0
LWPOLYLINE
  5
141
330
1F
100
AcDbEntity
  8
0
  6
Continuous
370
    15
100
AcDbPolyline
 90
       35
 70
   128
 43
0.0
 10
172.9785295076
 20
98.7357183323
 10
173.0491200335
 20
99.4567116673
 10
173.362498904
 20
100.4148378415
 10
173.9250773437
 20
101.3653024918
 10
174.7342886276
 20
102.3037690555
 10
175.7864409931
 20
103.2259552651
 10
177.0767325409
 20
104.1276536972
 10
178.5992810376
 20
105.0047502125
 10
180.3471313663
 20
105.853242034
 10
182.312315131
 20
106.6692584769
 10
184.4858618326
 20
107.4490758931
 10
186.8578584738
 20
108.189136955
 10
189.4174793608
 20
108.8860636717
 10
192.1530419834
 20
109.5366761906
 10
195.0520703442
 20
110.1380067775
 10
198.1013340749
 20
110.6873113875
 10
201.2869210787
 20
111.1820841269
 10
204.594295273
 20
111.6200659311
 10
208.0083673693
 20
111.9992599915
 10
211.5135582037
 20
112.317935612
 10
215.0938741736
 20
112.5746388151
 10
218.732979881
 20
112.7681981269
 10
222.4142717071
 20
112.8977303621
 10
226.1209513865
 20
112.9626444807
 10
229.8361070327
 20
112.9626444807
 10
233.5427867122
 20
112.8977303621
 10
237.2240785382
 20
112.7681981269
 10
240.8631842457
 20
112.5746388151
 10
244.4435002155
 20
112.317935612
 10
247.9486910499
 20
111.9992599915
 10
251.3627631463
 20
111.6200659311
 10
254.6701373406
 20
111.1820841269
 10
257.8557243444
 20
110.6873113875
 10
260.904988075
 20
110.1380067775
 10
262.2214013584
 20
109.8752417994
  0
LWPOLYLINE
  5
142
330
1F
100
AcDbEntity
  8
0
  6
Continuous
370
    15
100
AcDbPolyline
 90
       25
 70
   128
 43
0.0
 10
227.9785292096
 20
113.9641777483
 10
224.2654930208
 20
113.9317023696
 10
220.5693989865
 20
113.8344237526
 10
216.9071107976
 20
113.6727854182
 10
213.2953384764
 20
113.4475259254
 10
209.7505627073
 20
113.1596721215
 10
206.2889577694
 20
112.8105381787
 10
202.9263151683
 20
112.4017169158
 10
199.6779830999
 20
111.9350730493
 10
196.5587789066
 20
111.4127364442
 10
193.5829350598
 20
110.8370905438
 10
190.7640302427
 20
110.2107617637
 10
188.1149241574
 20
109.5366069576
 10
185.6477128215
 20
108.8177037755
 10
183.3736428864
 20
108.0573304162
 10
181.3030967362
 20
107.2589579134
 10
179.4455179818
 20
106.4262289245
 10
177.8093853839
 20
105.5629423032
 10
176.4021606989
 20
104.6730371907
 10
175.2302700527
 20
103.7605742148
 10
174.2990592368
 20
102.8297166877
 10
173.6127713568
 20
101.884712046
 10
173.1745431073
 20
100.9298717236
 10
172.986374969
 20
99.9695528925
 10
172.9785295076
 20
99.7291303448
  0
LWPOLYLINE
  5
143
330
1F
100
AcDbEntity
  8
0
  6
Continuous
370
    15
100
AcDbPolyline
 90
       25
 70
   128
 43
0.0
 10
282.9785289116
 20
99.7291303448
 10
282.9706834502
 20
99.9695528925
 10
282.782515312
 20
100.9298717236
 10
282.3442870624
 20
101.884712046
 10
281.6579991825
 20
102.8297166877
 10
280.7267883666
 20
103.7605742148
 10
279.5548977203
 20
104.6730371907
 10
278.1476730354
 20
105.5629423032
 10
276.5115404375
 20
106.4262289245
 10
274.653961683
 20
107.2589579134
 10
272.5834155328
 20
108.0573304162
 10
270.3093455978
 20
108.8177037755
 10
267.8421342619
 20
109.5366069576
 10
265.1930281766
 20
110.2107617637
 10
262.3741233594
 20
110.8370905438
 10
259.3982795127
 20
111.4127364442
 10
256.2790753193
 20
111.9350730493
 10
253.030743251
 20
112.4017169158
 10
249.6681006498
 20
112.8105381787
 10
246.2064957119
 20
113.1596721215
 10
242.6617199428
 20
113.4475259254
 10
239.0499476217
 20
113.6727854182
 10
235.3876594327
 20
113.8344237526
 10
231.6915653985
 20
113.9317023696
 10
227.9785292096
 20
113.9641777483
  0
LINE
  5
144
330
1F
100
AcDbEntity
  8
0
  6
Continuous
370
    15
100
AcDbLine
 10
232.3926647998
 20
122.7427111287
 30
0.0
 11
232.3969335168
 21
117.5511053153
 31
0.0
  0
ARC
  5
145
330
1F
100
AcDbEntity
  8
0
  6
Continuous
370
    15
100
AcDbCircle
 10
228.0645561729
 20
-61.4828786962
 30
0.0
 40
184.2764240770258
100
AcDbArc
 50
88.56324556780001
 51
88.6541677046
  0
LINE
  5
146
330
1F
100
AcDbEntity
  8
0
  6
Continuous
370
    15
100
AcDbLine
 10
232.6850050933
 20
122.735610936
 30
0.0
 11
232.9907731958
 21
139.5686897623
 31
0.0
  0
SPLINE
  5
147
330
1F
100
AcDbEntity
  8
0
  6
Continuous
370
    15
100
AcDbSpline
210
0.0
220
0.0
230
1.0
 70
     8
 71
     3
 72
    12
 73
     8
 74
     0
 42
0.000000001
 43
0.00000001
 40
0.0
 40
0.0
 40
0.0
 40
0.0
 40
0.2191496952865542
 40
0.4383247215550932
 40
0.6567812492521261
 40
0.8739399795639092
 40
1.0
 40
1.0
 40
1.0
 40
1.0
 10
233.9906210884235
 20
140.4836852745437
 30
0.0
 10
233.8775475583077
 20
140.4765359797562
 30
0.0
 10
233.6513874281808
 20
140.4622365638116
 30
0.0
 10
233.3502068831306
 20
140.3033456129567
 30
0.0
 10
233.1239884327595
 20
140.0630923209938
 30
0.0
 10
233.0092742236824
 20
139.8015769502822
 30
0.0
 10
232.9957430347946
 20
139.631249088427
 30
0.0
 10
232.9907731957517
 20
139.5686897623426
 30
0.0
  0
ARC
  5
148
330
1F
100
AcDbEntity
  8
0
  6
Continuous
370
    15
100
AcDbCircle
 10
228.151322289
 20
-40.3026394374
 30
0.0
 40
180.8806031981426
100
AcDbArc
 50
87.1446694484
 51
88.1500210063
  0
SPLINE
  5
149
330
1F
100
AcDbEntity
  8
0
  6
Continuous
370
    15
100
AcDbSpline
210
0.0
220
0.0
230
1.0
 70
     8
 71
     3
 72
    12
 73
     8
 74
     0
 42
0.000000001
 43
0.00000001
 40
0.0
 40
0.0
 40
0.0
 40
0.0
 40
0.2273563747396635
 40
0.4547118384658715
 40
0.6820628149927442
 40
0.9094153689561891
 40
1.0
 40
1.0
 40
1.0
 40
1.0
 10
238.1412869192443
 20
139.4242623591835
 30
0.0
 10
238.1205314003621
 20
139.5321697027934
 30
0.0
 10
238.0790204457648
 20
139.7479839576299
 30
0.0
 10
237.8843677400268
 20
140.0311157566581
 30
0.0
 10
237.6166511528656
 20
140.2410655357941
 30
0.0
 10
237.3592786177983
 20
140.3355859576366
 30
0.0
 10
237.205558761327
 20
140.3494499715956
 30
0.0
 10
237.1617618821344
 20
140.3534000178579
 30
0.0
  0
ELLIPSE
  5
14A
330
1F
100
AcDbEntity
  8
0
  6
Continuous
370
    15
100
AcDbEllipse
 10
237.8334708843
 20
16.2535515438
 30
0.0
 11
-49.17290563274009
 21
560.3913640199919
 31
0.0
210
0.0
220
0.0
230
1.0
 40
0.0201694975
 41
4.914117554615744
 42
4.932222201774872
  0
SPLINE
  5
14B
330
1F
100
AcDbEntity
  8
0
  6
Continuous
370
    15
100
AcDbSpline
210
0.0
220
0.0
230
1.0
 70
     8
 71
     3
 72
    12
 73
     8
 74
     0
 42
0.000000001
 43
0.00000001
 40
0.0
 40
0.0
 40
0.0
 40
0.0
 40
0.2272014690410164
 40
0.4544178194568889
 40
0.6813426944057496
 40
0.9082795671716019
 40
0.9999999999999999
 40
0.9999999999999999
 40
0.9999999999999999
 40
0.9999999999999999
 10
240.9933198116503
 20
127.6239317314448
 30
0.0
 10
240.776307243201
 20
127.6604200025445
 30
0.0
 10
240.342267892286
 20
127.7333989346738
 30
0.0
 10
239.760061459499
 20
128.1024382036253
 30
0.0
 10
239.31784360866
 20
128.6173231207692
 30
0.0
 10
239.1066433560721
 20
129.118166245499
 30
0.0
 10
239.0662654791768
 20
129.4201037862474
 30
0.0
 10
239.0546433500729
 20
129.5070117009207
 30
0.0
  0
LWPOLYLINE
  5
14C
330
1F
100
AcDbEntity
  8
0
  6
Continuous
370
    15
100
AcDbPolyline
 90
       14
 70
   128
 43
0.0
 10
240.9933198117
 20
127.6239317314
 10
244.5401882626
 20
127.3312242652
 10
247.9903379328
 20
126.9692706373
 10
251.3236215211
 20
126.5401833574
 10
254.5205706604
 20
126.0464702475
 10
257.5625160582
 20
125.4910113016
 10
260.4316936679
 20
124.8770538648
 10
263.1113471336
 20
124.2081808152
 10
265.5858302362
 20
123.4882994765
 10
267.8406851239
 20
122.7216136564
 10
269.8627503462
 20
121.9126005065
 10
271.6402167327
 20
121.0659849716
 10
273.1627018995
 20
120.1867113467
 10
274.4213135786
 20
119.2799141104
  0
SPLINE
  5
14D
330
1F
100
AcDbEntity
  8
0
  6
Continuous
370
    15
100
AcDbSpline
210
0.0
220
0.0
230
1.0
 70
     8
 71
     3
 72
    11
 73
     7
 74
     0
 42
0.000000001
 43
0.00000001
 40
0.0
 40
0.0
 40
0.0
 40
0.0
 40
0.2909780886229665
 40
0.5816558450677968
 40
0.8802144654377242
 40
1.0
 40
1.0
 40
1.0
 40
1.0
 10
274.9346101529679
 20
119.9162952413335
 30
0.0
 10
274.9062007234967
 20
119.7603426222655
 30
0.0
 10
274.8494111872633
 20
119.4485983501666
 30
0.0
 10
274.6961694871272
 20
119.218669621328
 30
0.0
 10
274.545445084515
 20
119.1928350397016
 30
0.0
 10
274.4489447594995
 20
119.2605306546699
 30
0.0
 10
274.4213135786138
 20
119.2799141104465
 30
0.0
  0
SPLINE
  5
14E
330
1F
100
AcDbEntity
  8
0
  6
Continuous
370
    15
100
AcDbSpline
210
0.0
220
0.0
230
1.0
 70
     8
 71
     3
 72
     9
 73
     5
 74
     0
 42
0.000000001
 43
0.00000001
 40
0.0
 40
0.0
 40
0.0
 40
0.0
 40
0.9140993495438873
 40
1.0
 40
1.0
 40
1.0
 40
1.0
 10
275.2636501438699
 20
106.9778487697941
 30
0.0
 10
275.1639077025154
 20
110.9200817659488
 30
0.0
 10
275.0547921655617
 20
115.2327781901632
 30
0.0
 10
274.944117204143
 20
119.5458035568973
 30
0.0
 10
274.9346101529679
 20
119.9162952413335
 30
0.0
  0
SPLINE
  5
14F
330
1F
100
AcDbEntity
  8
0
  6
Continuous
370
    15
100
AcDbSpline
210
0.0
220
0.0
230
1.0
 70
     8
 71
     3
 72
     9
 73
     5
 74
     0
 42
0.000000001
 43
0.00000001
 40
0.0
 40
0.0
 40
0.0
 40
0.0
 40
0.0857163316900545
 40
0.9999999999999999
 40
0.9999999999999999
 40
0.9999999999999999
 40
0.9999999999999999
 10
181.0224482662759
 20
119.9162952413335
 30
0.0
 10
181.0129412194603
 20
119.5458035586962
 30
0.0
 10
180.9020283207374
 20
115.2235037666689
 30
0.0
 10
180.7926797802389
 20
110.9015335988376
 30
0.0
 10
180.6927041955075
 20
106.9500268594667
 30
0.0
  0
SPLINE
  5
150
330
1F
100
AcDbEntity
  8
0
  6
Continuous
370
    15
100
AcDbSpline
210
0.0
220
0.0
230
1.0
 70
     8
 71
     3
 72
    11
 73
     7
 74
     0
 42
0.000000001
 43
0.00000001
 40
0.0
 40
0.0
 40
0.0
 40
0.0
 40
0.3126007054168773
 40
0.6255534848981639
 40
0.9289527271771586
 40
1.0
 40
1.0
 40
1.0
 40
1.0
 10
181.5357448406301
 20
119.2799141104465
 30
0.0
 10
181.4642014245441
 20
119.2424639514663
 30
0.0
 10
181.3210340148789
 20
119.1675214543635
 30
0.0
 10
181.1491328462727
 20
119.3623086154601
 30
0.0
 10
181.0592527401737
 20
119.6623167519392
 30
0.0
 10
181.0283178374551
 20
119.8757907954439
 30
0.0
 10
181.0224482662759
 20
119.9162952413335
 30
0.0
  0
ARC
  5
151
330
1F
100
AcDbEntity
  8
0
  6
Continuous
370
    15
100
AcDbCircle
 10
197.1523574558
 20
97.7469937628
 30
0.0
 40
26.599722710394
100
AcDbArc
 50
105.761179986
 51
125.9512592611
  0
LINE
  5
152
330
1F
100
AcDbEntity
  8
0
  6
Continuous
370
    15
100
AcDbLine
 10
189.9271214254
 20
123.3466268183
 30
0.0
 11
189.9110616989
 21
112.5080153892
 31
0.0
  0
ARC
  5
153
330
1F
100
AcDbEntity
  8
0
  6
Continuous
370
    15
100
AcDbCircle
 10
211.9351191758
 20
42.5719233159
 30
0.0
 40
73.32200271558706
100
AcDbArc
 50
101.541541544
 51
107.4800958542
  0
LINE
  5
154
330
1F
100
AcDbEntity
  8
0
  6
Continuous
370
    15
100
AcDbLine
 10
197.559973026
 20
125.322154181
 30
0.0
 11
197.2649728752
 21
114.4113476576
 31
0.0
  0
ARC
  5
155
330
1F
100
AcDbEntity
  8
0
  6
Continuous
370
    15
100
AcDbCircle
 10
223.8857666173
 20
-6.7815420224
 30
0.0
 40
134.7012767526501
100
AcDbArc
 50
93.7978041792
 51
101.2703311821
  0
SPLINE
  5
156
330
1F
100
AcDbEntity
  8
0
  6
Continuous
370
    15
100
AcDbSpline
210
0.0
220
0.0
230
1.0
 70
     8
 71
     3
 72
    12
 73
     8
 74
     0
 42
0.000000001
 43
0.00000001
 40
0.0
 40
0.0
 40
0.0
 40
0.0
 40
0.2271322410941592
 40
0.4542696978954171
 40
0.6812819199402358
 40
0.9081704119245284
 40
1.0
 40
1.0
 40
1.0
 40
1.0
 10
216.902415069171
 20
129.5070117009207
 30
0.0
 10
216.8611012965274
 20
129.291150610758
 30
0.0
 10
216.7784728025396
 20
128.8594234735484
 30
0.0
 10
216.3917873060581
 20
128.290844442481
 30
0.0
 10
215.8619591900983
 20
127.8654408711486
 30
0.0
 10
215.3537365797037
 20
127.6677787008186
 30
0.0
 10
215.050971725472
 20
127.6337392384616
 30
0.0
 10
214.9637386075935
 20
127.6239317314448
 30
0.0
  0
ELLIPSE
  5
157
330
1F
100
AcDbEntity
  8
0
  6
Continuous
370
    15
100
AcDbEllipse
 10
218.1235875349
 20
16.2535515438
 30
0.0
 11
49.17290563274008
 21
560.3913640199917
 31
0.0
210
0.0
220
0.0
230
1.0
 40
0.0201694975
 41
1.350963105404747
 42
1.36906775256387
  0
SPLINE
  5
158
330
1F
100
AcDbEntity
  8
0
  6
Continuous
370
    15
100
AcDbSpline
210
0.0
220
0.0
230
1.0
 70
     8
 71
     3
 72
    12
 73
     8
 74
     0
 42
0.000000001
 43
0.00000001
 40
0.0
 40
0.0
 40
0.0
 40
0.0
 40
0.2273639505509398
 40
0.4547297168671964
 40
0.6820841996547624
 40
0.9094342870034867
 40
1.0
 40
1.0
 40
1.0
 40
1.0
 10
218.7952965371094
 20
140.3534000178579
 30
0.0
 10
218.6848755015143
 20
140.337196972401
 30
0.0
 10
218.4640325484838
 20
140.3047907520871
 30
0.0
 10
218.1698435472463
 20
140.1234501238297
 30
0.0
 10
217.9472052985506
 20
139.8673861362897
 30
0.0
 10
217.8416453080801
 20
139.617602094173
 30
0.0
 10
217.8215080628554
 20
139.4671283160946
 30
0.0
 10
217.8157714999995
 20
139.4242623591835
 30
0.0
  0
ARC
  5
159
330
1F
100
AcDbEntity
  8
0
  6
Continuous
370
    15
100
AcDbCircle
 10
227.8057361303
 20
-40.3026394374
 30
0.0
 40
180.8806031981426
100
AcDbArc
 50
91.8499789937
 51
92.8553305516
  0
SPLINE
  5
15A
330
1F
100
AcDbEntity
  8
0
  6
Continuous
370
    15
100
AcDbSpline
210
0.0
220
0.0
230
1.0
 70
     8
 71
     3
 72
    12
 73
     8
 74
     0
 42
0.000000001
 43
0.00000001
 40
0.0
 40
0.0
 40
0.0
 40
0.0
 40
0.2156849064013034
 40
0.4313438360874423
 40
0.647690454893588
 40
0.8652858728120398
 40
1.0
 40
1.0
 40
1.0
 40
1.0
 10
222.9662852234922
 20
139.5686897623426
 30
0.0
 10
222.9533289279058
 20
139.6759217939242
 30
0.0
 10
222.9274178971668
 20
139.8903729422479
 30
0.0
 10
222.7509496378078
 20
140.1698224791506
 30
0.0
 10
222.4947850480958
 20
140.3757219259066
 30
0.0
 10
222.2168676346644
 20
140.4767697908071
 30
0.0
 10
222.0357080905862
 20
140.481772403756
 30
0.0
 10
221.9664373308203
 20
140.4836852745437
 30
0.0
  0
LINE
  5
15B
330
1F
100
AcDbEntity
  8
0
  6
Continuous
370
    15
100
AcDbLine
 10
223.2720533259
 20
122.735610936
 30
0.0
 11
222.9662852235
 21
139.5686897623
 31
0.0
  0
ARC
  5
15C
330
1F
100
AcDbEntity
  8
0
  6
Continuous
370
    15
100
AcDbCircle
 10
227.8925022463
 20
-61.4828786962
 30
0.0
 40
184.2764240770258
100
AcDbArc
 50
91.34583229540002
 51
91.4367544322
  0
LINE
  5
15D
330
1F
100
AcDbEntity
  8
0
  6
Continuous
370
    15
100
AcDbLine
 10
223.5601249024
 20
117.5511053153
 30
0.0
 11
223.5643936194
 21
122.7427111287
 31
0.0
  0
ARC
  5
15E
330
1F
100
AcDbEntity
  8
0
  6
Continuous
370
    15
100
AcDbCircle
 10
227.9785292096
 20
-70.932193639
 30
0.0
 40
188.5350797102052
100
AcDbArc
 50
88.657124721
 51
91.34287527900001
  0
LINE
  5
15F
330
1F
100
AcDbEntity
  8
0
  6
Continuous
370
    15
100
AcDbLine
 10
202.955601538
 20
107.4954752495
 30
0.0
 11
202.9843905814
 21
107.4766698858
 31
0.0
  0
SPLINE
  5
160
330
1F
100
AcDbEntity
  8
0
  6
Continuous
370
    15
100
AcDbSpline
210
0.0
220
0.0
230
1.0
 70
     8
 71
     3
 72
    12
 73
     8
 74
     0
 42
0.000000001
 43
0.00000001
 40
0.0
 40
0.0
 40
0.0
 40
0.0
 40
0.2125322439994608
 40
0.4250731453220839
 40
0.637454113230913
 40
0.8496304087930358
 40
1.0
 40
1.0
 40
1.0
 40
1.0
 10
202.9843905813775
 20
107.4766698858319
 30
0.0
 10
203.0126594333757
 20
107.4674855605262
 30
0.0
 10
203.0691982888801
 20
107.449116535799
 30
0.0
 10
203.1468663591623
 20
107.4932785234764
 30
0.0
 10
203.2074126878268
 20
107.5859919994339
 30
0.0
 10
203.2425410813754
 20
107.7077872963553
 30
0.0
 10
203.248166177486
 20
107.7984562026169
 30
0.0
 10
203.2504992432675
 20
107.8360620529859
 30
0.0
  0
ARC
  5
161
330
1F
100
AcDbEntity
  8
0
  6
Continuous
370
    15
100
AcDbCircle
 10
185.3138163095
 20
97.7934893902
 30
0.0
 40
3.351232190099962
100
AcDbArc
 50
149.4625941275
 51
204.7438780759
  0
ARC
  5
162
330
1F
100
AcDbEntity
  8
0
  6
Continuous
370
    15
100
AcDbCircle
 10
270.6307400311
 20
97.7918223761
 30
0.0
 40
3.361910510843965
100
AcDbArc
 50
336.6562051622001
 51
29.637197399
  0
LINE
  5
163
330
1F
100
AcDbEntity
  8
0
  6
Continuous
370
    15
100
AcDbLine
 10
223.5643936194
 20
122.7427111287
 30
0.0
 11
232.3926647998
 21
122.7427111287
 31
0.0
  0
LINE
  5
164
330
1F
100
AcDbEntity
  8
0
  6
Continuous
370
    15
100
AcDbLine
 10
203.2504992433
 20
107.836062053
 30
0.0
 11
203.2577449329
 21
108.133805907
 31
0.0
  0
ARC
  5
165
330
1F
100
AcDbEntity
  8
0
  6
Continuous
370
    15
100
AcDbCircle
 10
222.1248278357
 20
-6.4312377562
 30
0.0
 40
116.1082083524253
100
AcDbArc
 50
98.3629147679
 51
99.3517845223
  0
LINE
  5
166
330
1F
100
AcDbEntity
  8
0
  6
Continuous
370
    15
100
AcDbLine
 10
182.0520738013
 20
98.5732144821
 30
0.0
 11
182.1785287805
 21
98.1371710936
 31
0.0
  0
LWPOLYLINE
  5
167
330
1F
100
AcDbEntity
  8
0
  6
Continuous
370
    15
100
AcDbPolyline
 90
        3
 70
   128
 43
0.0
 10
273.6661115534
 20
97.8609483868
 10
273.8026359923
 20
98.2060170017
 10
273.904984618
 20
98.5732144821
  0
LINE
  5
168
330
1F
100
AcDbEntity
  8
0
  6
Continuous
370
    15
100
AcDbLine
 10
273.4797092028
 20
98.4695967689
 30
0.0
 11
273.5315503426
 21
98.7105890844
 31
0.0
  0
LINE
  5
169
330
1F
100
AcDbEntity
  8
0
  6
Continuous
370
    15
100
AcDbLine
 10
203.2577449329
 20
108.133805907
 30
0.0
 11
202.9964791484
 21
108.2509282318
 31
0.0
  0
LINE
  5
16A
330
1F
100
AcDbEntity
  8
0
  6
Continuous
370
    15
100
AcDbLine
 10
190.2100311465
 20
113.1657473655
 30
0.0
 11
190.2100311465
 21
112.6029769615
 31
0.0
  0
LINE
  5
16B
330
1F
100
AcDbEntity
  8
0
  6
Continuous
370
    15
100
AcDbLine
 10
189.9271214254
 20
123.3466268183
 30
0.0
 11
190.2061791964
 21
123.2744013525
 31
0.0
  0
ELLIPSE
  5
16C
330
1F
100
AcDbEntity
  8
0
  6
Continuous
370
    15
100
AcDbEllipse
 10
273.1275069467
 20
121.211764549
 30
0.0
 11
-1.586706680582437
 21
1.586706680582479
 31
0.0
210
0.0
220
0.0
230
1.0
 40
0.767326988
 41
3.35328227341311
 42
3.773839603402767
  0
LINE
  5
16D
330
1F
100
AcDbEntity
  8
0
  6
Continuous
370
    15
100
AcDbLine
 10
275.127010221
 20
120.6512702019
 30
0.0
 11
275.8045548446
 21
149.8827844012
 31
0.0
  0
LINE
  5
16E
330
1F
100
AcDbEntity
  8
0
  6
Continuous
370
    15
100
AcDbLine
 10
276.4600196726
 20
148.34567016
 30
0.0
 11
275.8045548446
 21
149.8827844012
 31
0.0
  0
ELLIPSE
  5
16F
330
1F
100
AcDbEntity
  8
0
  6
Continuous
370
    15
100
AcDbEllipse
 10
276.2785292096
 20
148.3114763555
 30
0.0
 11
-0.1586706680582211
 21
0.1586706680582495
 31
0.0
210
0.0
220
0.0
230
1.0
 40
0.767326988
 41
2.225294796292906
 42
4.229699453508736
  0
LINE
  5
170
330
1F
100
AcDbEntity
  8
0
  6
Continuous
370
    15
100
AcDbLine
 10
275.9785296269
 20
148.1959362842
 30
0.0
 11
276.2785309799
 21
148.1182907025
 31
0.0
  0
ELLIPSE
  5
171
330
1F
100
AcDbEntity
  8
0
  6
Continuous
370
    15
100
AcDbEllipse
 10
275.9785292096
 20
148.0027517385
 30
0.0
 11
-0.1586706680582779
 21
0.1586706680582495
 31
0.0
210
0.0
220
0.0
230
1.0
 40
0.7673269880000001
 41
5.366887449882452
 42
7.371292107098432
  0
LINE
  5
172
330
1F
100
AcDbEntity
  8
0
  6
Continuous
370
    15
100
AcDbLine
 10
276.4600196726
 20
146.4138181908
 30
0.0
 11
275.7970372088
 21
147.9685586259
 31
0.0
  0
ELLIPSE
  5
173
330
1F
100
AcDbEntity
  8
0
  6
Continuous
370
    15
100
AcDbEllipse
 10
276.2785292096
 20
146.3796247029
 30
0.0
 11
-0.1586706680582211
 21
0.1586706680582495
 31
0.0
210
0.0
220
0.0
230
1.0
 40
0.767326988
 41
2.225294796292565
 42
4.229699453508917
  0
LINE
  5
174
330
1F
100
AcDbEntity
  8
0
  6
Continuous
370
    15
100
AcDbLine
 10
275.9785296269
 20
146.2640861141
 30
0.0
 11
276.2785309799
 21
146.1864405325
 31
0.0
  0
ELLIPSE
  5
175
330
1F
100
AcDbEntity
  8
0
  6
Continuous
370
    15
100
AcDbEllipse
 10
275.9785292096
 20
146.070900086
 30
0.0
 11
-0.1586706680582779
 21
0.1586706680582495
 31
0.0
210
0.0
220
0.0
230
1.0
 40
0.7673269880000001
 41
5.366887449882396
 42
7.371292107098613
  0
LINE
  5
176
330
1F
100
AcDbEntity
  8
0
  6
Continuous
370
    15
100
AcDbLine
 10
276.4600196726
 20
144.4819662215
 30
0.0
 11
275.7970372088
 21
146.0367066567
 31
0.0
  0
ELLIPSE
  5
177
330
1F
100
AcDbEntity
  8
0
  6
Continuous
370
    15
100
AcDbEllipse
 10
276.2785292096
 20
144.4477730504
 30
0.0
 11
-0.1586706680582211
 21
0.1586706680582495
 31
0.0
210
0.0
220
0.0
230
1.0
 40
0.767326988
 41
2.225294796292849
 42
4.229699453508917
  0
LINE
  5
178
330
1F
100
AcDbEntity
  8
0
  6
Continuous
370
    15
100
AcDbLine
 10
275.9785296269
 20
144.3322341449
 30
0.0
 11
276.2785309799
 21
144.2545885632
 31
0.0
  0
ELLIPSE
  5
179
330
1F
100
AcDbEntity
  8
0
  6
Continuous
370
    15
100
AcDbEllipse
 10
275.9785292096
 20
144.1390484334
 30
0.0
 11
-0.1586706680582779
 21
0.1586706680582495
 31
0.0
210
0.0
220
0.0
230
1.0
 40
0.7673269880000001
 41
5.366887449882681
 42
7.371292107098563
  0
LINE
  5
17A
330
1F
100
AcDbEntity
  8
0
  6
Continuous
370
    15
100
AcDbLine
 10
276.4600196726
 20
142.5501142523
 30
0.0
 11
275.7970372088
 21
144.1048546874
 31
0.0
  0
ELLIPSE
  5
17B
330
1F
100
AcDbEntity
  8
0
  6
Continuous
370
    15
100
AcDbEllipse
 10
276.2785292096
 20
142.5159213978
 30
0.0
 11
-0.1586706680582211
 21
0.1586706680582495
 31
0.0
210
0.0
220
0.0
230
1.0
 40
0.767326988
 41
2.225294796292906
 42
4.229699453508736
  0
LINE
  5
17C
330
1F
100
AcDbEntity
  8
0
  6
Continuous
370
    15
100
AcDbLine
 10
275.9785296269
 20
142.4003821756
 30
0.0
 11
276.2785309799
 21
142.322736594
 31
0.0
  0
ELLIPSE
  5
17D
330
1F
100
AcDbEntity
  8
0
  6
Continuous
370
    15
100
AcDbEllipse
 10
275.9785292096
 20
142.2071967808
 30
0.0
 11
-0.1586706680582779
 21
0.1586706680582495
 31
0.0
210
0.0
220
0.0
230
1.0
 40
0.7673269880000001
 41
5.366887449882452
 42
7.371292107098432
  0
LINE
  5
17E
330
1F
100
AcDbEntity
  8
0
  6
Continuous
370
    15
100
AcDbLine
 10
276.4600196726
 20
140.6182622831
 30
0.0
 11
275.7970372088
 21
142.1730045174
 31
0.0
  0
ELLIPSE
  5
17F
330
1F
100
AcDbEntity
  8
0
  6
Continuous
370
    15
100
AcDbEllipse
 10
276.2785292096
 20
140.5840697452
 30
0.0
 11
-0.1586706680582211
 21
0.1586706680582495
 31
0.0
210
0.0
220
0.0
230
1.0
 40
0.767326988
 41
2.225294796292849
 42
4.229699453508967
  0
LINE
  5
180
330
1F
100
AcDbEntity
  8
0
  6
Continuous
370
    15
100
AcDbLine
 10
275.9785296269
 20
140.4685302064
 30
0.0
 11
276.2785309799
 21
140.3908846248
 31
0.0
  0
ELLIPSE
  5
181
330
1F
100
AcDbEntity
  8
0
  6
Continuous
370
    15
100
AcDbEllipse
 10
275.9785292096
 20
140.2753451282
 30
0.0
 11
-0.1586706680583347
 21
0.1586706680582495
 31
0.0
210
0.0
220
0.0
230
1.0
 40
0.767326988
 41
5.366887449882308
 42
7.371292107098574
  0
LINE
  5
182
330
1F
100
AcDbEntity
  8
0
  6
Continuous
370
    15
100
AcDbLine
 10
276.4600196726
 20
138.6864103138
 30
0.0
 11
275.7970372088
 21
140.2411525481
 31
0.0
  0
ELLIPSE
  5
183
330
1F
100
AcDbEntity
  8
0
  6
Continuous
370
    15
100
AcDbEllipse
 10
276.2785292096
 20
138.6522180926
 30
0.0
 11
-0.1586706680582211
 21
0.1586706680582495
 31
0.0
210
0.0
220
0.0
230
1.0
 40
0.767326988
 41
2.225294796292849
 42
4.229699453508784
  0
LINE
  5
184
330
1F
100
AcDbEntity
  8
0
  6
Continuous
370
    15
100
AcDbLine
 10
275.9785296269
 20
138.5366782372
 30
0.0
 11
276.2785309799
 21
138.4590326555
 31
0.0
  0
ELLIPSE
  5
185
330
1F
100
AcDbEntity
  8
0
  6
Continuous
370
    15
100
AcDbEllipse
 10
275.9785292096
 20
138.3434934756
 30
0.0
 11
-0.1586706680582779
 21
0.1586706680582495
 31
0.0
210
0.0
220
0.0
230
1.0
 40
0.7673269880000001
 41
5.366887449882396
 42
7.371292107098563
  0
LINE
  5
186
330
1F
100
AcDbEntity
  8
0
  6
Continuous
370
    15
100
AcDbLine
 10
276.4600196726
 20
136.7545601438
 30
0.0
 11
275.7970372088
 21
138.3093005789
 31
0.0
  0
ELLIPSE
  5
187
330
1F
100
AcDbEntity
  8
0
  6
Continuous
370
    15
100
AcDbEllipse
 10
276.2785292096
 20
136.7203664401
 30
0.0
 11
-0.1586706680582211
 21
0.1586706680582495
 31
0.0
210
0.0
220
0.0
230
1.0
 40
0.767326988
 41
2.225294796292906
 42
4.229699453508736
  0
LINE
  5
188
330
1F
100
AcDbEntity
  8
0
  6
Continuous
370
    15
100
AcDbLine
 10
275.9785296269
 20
136.6048262679
 30
0.0
 11
276.2785309799
 21
136.5271806863
 31
0.0
  0
ELLIPSE
  5
189
330
1F
100
AcDbEntity
  8
0
  6
Continuous
370
    15
100
AcDbEllipse
 10
275.9785292096
 20
136.4116418231
 30
0.0
 11
-0.1586706680582779
 21
0.1586706680582495
 31
0.0
210
0.0
220
0.0
230
1.0
 40
0.7673269880000001
 41
5.366887449882396
 42
7.371292107098613
  0
LINE
  5
18A
330
1F
100
AcDbEntity
  8
0
  6
Continuous
370
    15
100
AcDbLine
 10
276.4600196726
 20
134.8227081745
 30
0.0
 11
275.7970372088
 21
136.3774486097
 31
0.0
  0
ELLIPSE
  5
18B
330
1F
100
AcDbEntity
  8
0
  6
Continuous
370
    15
100
AcDbEllipse
 10
276.2785292096
 20
134.7885147875
 30
0.0
 11
-0.1586706680582211
 21
0.1586706680582495
 31
0.0
210
0.0
220
0.0
230
1.0
 40
0.767326988
 41
2.225294796292849
 42
4.22969945350905
  0
LINE
  5
18C
330
1F
100
AcDbEntity
  8
0
  6
Continuous
370
    15
100
AcDbLine
 10
275.9785296269
 20
134.6729760979
 30
0.0
 11
276.2785309799
 21
134.5953305163
 31
0.0
  0
ELLIPSE
  5
18D
330
1F
100
AcDbEntity
  8
0
  6
Continuous
370
    15
100
AcDbEllipse
 10
275.9785292096
 20
134.4797901705
 30
0.0
 11
-0.1586706680582211
 21
0.1586706680582495
 31
0.0
210
0.0
220
0.0
230
1.0
 40
0.767326988
 41
5.366887449882769
 42
7.371292107098736
  0
LINE
  5
18E
330
1F
100
AcDbEntity
  8
0
  6
Continuous
370
    15
100
AcDbLine
 10
276.4600196726
 20
132.8908544061
 30
0.0
 11
275.7970372088
 21
134.4455966404
 31
0.0
  0
ELLIPSE
  5
18F
330
1F
100
AcDbEntity
  8
0
  6
Continuous
370
    15
100
AcDbEllipse
 10
276.2785292096
 20
132.8566631349
 30
0.0
 11
-0.1586706680582211
 21
0.1586706680582495
 31
0.0
210
0.0
220
0.0
230
1.0
 40
0.767326988
 41
2.225294796292906
 42
4.229699453508869
  0
LINE
  5
190
330
1F
100
AcDbEntity
  8
0
  6
Continuous
370
    15
100
AcDbLine
 10
275.9785296269
 20
132.7411241287
 30
0.0
 11
276.2785309799
 21
132.663478547
 31
0.0
  0
ELLIPSE
  5
191
330
1F
100
AcDbEntity
  8
0
  6
Continuous
370
    15
100
AcDbEllipse
 10
275.9785292096
 20
132.5479385179
 30
0.0
 11
-0.1586706680582779
 21
0.1586706680582495
 31
0.0
210
0.0
220
0.0
230
1.0
 40
0.7673269880000001
 41
5.366887449882452
 42
7.371292107098515
  0
LINE
  5
192
330
1F
100
AcDbEntity
  8
0
  6
Continuous
370
    15
100
AcDbLine
 10
276.4600196726
 20
130.9590060352
 30
0.0
 11
275.7970372088
 21
132.5137446712
 31
0.0
  0
ELLIPSE
  5
193
330
1F
100
AcDbEntity
  8
0
  6
Continuous
370
    15
100
AcDbEllipse
 10
276.2785292096
 20
130.9248114823
 30
0.0
 11
-0.1586706680582211
 21
0.1586706680582495
 31
0.0
210
0.0
220
0.0
230
1.0
 40
0.767326988
 41
2.225294796292849
 42
4.229699453509101
  0
LINE
  5
194
330
1F
100
AcDbEntity
  8
0
  6
Continuous
370
    15
100
AcDbLine
 10
275.9785296269
 20
130.8092721594
 30
0.0
 11
276.2785309799
 21
130.7316265778
 31
0.0
  0
ELLIPSE
  5
195
330
1F
100
AcDbEntity
  8
0
  6
Continuous
370
    15
100
AcDbEllipse
 10
275.9785292096
 20
130.6160868653
 30
0.0
 11
-0.1586706680582779
 21
0.1586706680582495
 31
0.0
210
0.0
220
0.0
230
1.0
 40
0.7673269880000001
 41
5.36688744988234
 42
7.371292107098794
  0
LINE
  5
196
330
1F
100
AcDbEntity
  8
0
  6
Continuous
370
    15
100
AcDbLine
 10
276.4600196726
 20
129.027154066
 30
0.0
 11
275.7970372088
 21
130.581892702
 31
0.0
  0
ELLIPSE
  5
197
330
1F
100
AcDbEntity
  8
0
  6
Continuous
370
    15
100
AcDbEllipse
 10
276.2785292096
 20
128.9929598297
 30
0.0
 11
-0.1586706680582211
 21
0.1586706680582495
 31
0.0
210
0.0
220
0.0
230
1.0
 40
0.767326988
 41
2.225294796292849
 42
4.22969945350905
  0
LINE
  5
198
330
1F
100
AcDbEntity
  8
0
  6
Continuous
370
    15
100
AcDbLine
 10
275.9785296269
 20
128.8774201902
 30
0.0
 11
276.2785309799
 21
128.7997746086
 31
0.0
  0
ELLIPSE
  5
199
330
1F
100
AcDbEntity
  8
0
  6
Continuous
370
    15
100
AcDbEllipse
 10
275.9785292096
 20
128.6842352128
 30
0.0
 11
-0.1586706680582779
 21
0.158670668058221
 31
0.0
210
0.0
220
0.0
230
1.0
 40
0.7673269879999999
 41
5.366887449882297
 42
7.371292107098628
  0
LINE
  5
19A
330
1F
100
AcDbEntity
  8
0
  6
Continuous
370
    15
100
AcDbLine
 10
276.4600196726
 20
127.0953020968
 30
0.0
 11
275.7970372088
 21
128.6500407327
 31
0.0
  0
ELLIPSE
  5
19B
330
1F
100
AcDbEntity
  8
0
  6
Continuous
370
    15
100
AcDbEllipse
 10
276.2785292096
 20
127.0611081772
 30
0.0
 11
-0.1586706680582211
 21
0.1586706680582495
 31
0.0
210
0.0
220
0.0
230
1.0
 40
0.767326988
 41
2.225294796292849
 42
4.229699453508984
  0
LINE
  5
19C
330
1F
100
AcDbEntity
  8
0
  6
Continuous
370
    15
100
AcDbLine
 10
275.9785296269
 20
126.945568221
 30
0.0
 11
276.2785309799
 21
126.8679226393
 31
0.0
  0
ELLIPSE
  5
19D
330
1F
100
AcDbEntity
  8
0
  6
Continuous
370
    15
100
AcDbEllipse
 10
275.9785292096
 20
126.7523835602
 30
0.0
 11
-0.1586706680582779
 21
0.1586706680582495
 31
0.0
210
0.0
220
0.0
230
1.0
 40
0.7673269880000001
 41
5.366887449882425
 42
7.371292107098656
  0
LINE
  5
19E
330
1F
100
AcDbEntity
  8
0
  6
Continuous
370
    15
100
AcDbLine
 10
276.4600196726
 20
125.1634501275
 30
0.0
 11
275.7970372088
 21
126.7181923619
 31
0.0
  0
ELLIPSE
  5
19F
330
1F
100
AcDbEntity
  8
0
  6
Continuous
370
    15
100
AcDbEllipse
 10
276.2785292096
 20
125.1292565246
 30
0.0
 11
-0.1586706680582779
 21
0.1586706680582495
 31
0.0
210
0.0
220
0.0
230
1.0
 40
0.7673269880000001
 41
2.225294796292618
 42
4.229699453508926
  0
LINE
  5
1A0
330
1F
100
AcDbEntity
  8
0
  6
Continuous
370
    15
100
AcDbLine
 10
275.9785296269
 20
125.0137162517
 30
0.0
 11
276.2785309799
 21
124.9360706701
 31
0.0
  0
ELLIPSE
  5
1A1
330
1F
100
AcDbEntity
  8
0
  6
Continuous
370
    15
100
AcDbEllipse
 10
275.9785292096
 20
124.8205319076
 30
0.0
 11
-0.1586706680582211
 21
0.1586706680582352
 31
0.0
210
0.0
220
0.0
230
1.0
 40
0.767326988
 41
5.366887449882775
 42
7.37129210709852
  0
LINE
  5
1A2
330
1F
100
AcDbEntity
  8
0
  6
Continuous
370
    15
100
AcDbLine
 10
276.4600196726
 20
123.2315981583
 30
0.0
 11
275.7970372088
 21
124.7863403926
 31
0.0
  0
ELLIPSE
  5
1A3
330
1F
100
AcDbEntity
  8
0
  6
Continuous
370
    15
100
AcDbEllipse
 10
276.2785292096
 20
123.197404872
 30
0.0
 11
-0.1586706680582779
 21
0.1586706680582495
 31
0.0
210
0.0
220
0.0
230
1.0
 40
0.7673269880000001
 41
2.225294796292618
 42
4.229699453508875
  0
LINE
  5
1A4
330
1F
100
AcDbEntity
  8
0
  6
Continuous
370
    15
100
AcDbLine
 10
275.9785296269
 20
123.0818642825
 30
0.0
 11
276.2785309799
 21
123.0042187009
 31
0.0
  0
ELLIPSE
  5
1A5
330
1F
100
AcDbEntity
  8
0
  6
Continuous
370
    15
100
AcDbEllipse
 10
275.9785292096
 20
122.888680255
 30
0.0
 11
-0.1586706680582779
 21
0.1586706680582495
 31
0.0
210
0.0
220
0.0
230
1.0
 40
0.7673269880000001
 41
5.366887449882425
 42
7.371292107098473
  0
LINE
  5
1A6
330
1F
100
AcDbEntity
  8
0
  6
Continuous
370
    15
100
AcDbLine
 10
276.4600196726
 20
121.2997461891
 30
0.0
 11
275.7970372088
 21
122.8544884234
 31
0.0
  0
ELLIPSE
  5
1A7
330
1F
100
AcDbEntity
  8
0
  6
Continuous
370
    15
100
AcDbEllipse
 10
276.2785292096
 20
121.2655532194
 30
0.0
 11
-0.1586706680582779
 21
0.1586706680582495
 31
0.0
210
0.0
220
0.0
230
1.0
 40
0.7673269880000001
 41
2.225294796292618
 42
4.229699453508875
  0
LINE
  5
1A8
330
1F
100
AcDbEntity
  8
0
  6
Continuous
370
    15
100
AcDbLine
 10
275.9785296269
 20
121.1500123133
 30
0.0
 11
276.2785309799
 21
121.0723667316
 31
0.0
  0
ELLIPSE
  5
1A9
330
1F
100
AcDbEntity
  8
0
  6
Continuous
370
    15
100
AcDbEllipse
 10
275.9785292096
 20
120.9568286024
 30
0.0
 11
-0.1586706680583347
 21
0.1586706680582495
 31
0.0
210
0.0
220
0.0
230
1.0
 40
0.767326988
 41
5.366887449882337
 42
7.371292107098483
  0
LINE
  5
1AA
330
1F
100
AcDbEntity
  8
0
  6
Continuous
370
    15
100
AcDbLine
 10
276.4600196726
 20
119.3678942198
 30
0.0
 11
275.7970372088
 21
120.9226364542
 31
0.0
  0
ELLIPSE
  5
1AB
330
1F
100
AcDbEntity
  8
0
  6
Continuous
370
    15
100
AcDbEllipse
 10
276.2785292096
 20
119.3337015668
 30
0.0
 11
-0.1586706680582779
 21
0.1586706680582495
 31
0.0
210
0.0
220
0.0
230
1.0
 40
0.7673269880000001
 41
2.22529479629259
 42
4.229699453508816
  0
LINE
  5
1AC
330
1F
100
AcDbEntity
  8
0
  6
Continuous
370
    15
100
AcDbLine
 10
275.9785296269
 20
119.218160344
 30
0.0
 11
276.2785309799
 21
119.1405147624
 31
0.0
  0
ELLIPSE
  5
1AD
330
1F
100
AcDbEntity
  8
0
  6
Continuous
370
    15
100
AcDbEllipse
 10
275.9785292096
 20
119.0249769499
 30
0.0
 11
-0.1586706680582779
 21
0.1586706680582637
 31
0.0
210
0.0
220
0.0
230
1.0
 40
0.7673269880000001
 41
5.366887449882445
 42
7.371292107098647
  0
LINE
  5
1AE
330
1F
100
AcDbEntity
  8
0
  6
Continuous
370
    15
100
AcDbLine
 10
276.4600196726
 20
117.4360422506
 30
0.0
 11
275.7970372088
 21
118.9907844849
 31
0.0
  0
ELLIPSE
  5
1AF
330
1F
100
AcDbEntity
  8
0
  6
Continuous
370
    15
100
AcDbEllipse
 10
276.2785292096
 20
117.4018499143
 30
0.0
 11
-0.1586706680582211
 21
0.1586706680582495
 31
0.0
210
0.0
220
0.0
230
1.0
 40
0.767326988
 41
2.225294796292878
 42
4.229699453508893
  0
LINE
  5
1B0
330
1F
100
AcDbEntity
  8
0
  6
Continuous
370
    15
100
AcDbLine
 10
275.9785296269
 20
117.2863119731
 30
0.0
 11
276.2785309799
 21
117.2086663915
 31
0.0
  0
ELLIPSE
  5
1B1
330
1F
100
AcDbEntity
  8
0
  6
Continuous
370
    15
100
AcDbEllipse
 10
275.9785292096
 20
117.0931252973
 30
0.0
 11
-0.1586706680579937
 21
0.158670668057951
 31
0.0
210
0.0
220
0.0
230
1.0
 40
0.767326988
 41
5.366887449880548
 42
7.371292107098658
  0
LINE
  5
1B2
330
1F
100
AcDbEntity
  8
0
  6
Continuous
370
    15
100
AcDbLine
 10
276.4600196726
 20
115.5041902814
 30
0.0
 11
275.7970372088
 21
117.0589325157
 31
0.0
  0
ELLIPSE
  5
1B3
330
1F
100
AcDbEntity
  8
0
  6
Continuous
370
    15
100
AcDbEllipse
 10
276.2785292096
 20
115.4699982617
 30
0.0
 11
-0.1586706680582211
 21
0.1586706680582352
 31
0.0
210
0.0
220
0.0
230
1.0
 40
0.767326988
 41
3.796091123083874
 42
4.229699453508835
  0
LINE
  5
1B4
330
1F
100
AcDbEntity
  8
0
  6
Continuous
370
    15
100
AcDbLine
 10
276.4785306401
 20
106.4422309294
 30
0.0
 11
276.4785306401
 21
115.4182352972
 31
0.0
  0
LINE
  5
1B5
330
1F
100
AcDbEntity
  8
0
  6
Continuous
370
    15
100
AcDbLine
 10
179.4785277791
 20
115.4182352972
 30
0.0
 11
179.4785277791
 21
106.4422309294
 31
0.0
  0
ELLIPSE
  5
1B6
330
1F
100
AcDbEntity
  8
0
  6
Continuous
370
    15
100
AcDbEllipse
 10
179.6785292096
 20
115.4699982617
 30
0.0
 11
0.1586706680582495
 21
0.1586706680582353
 31
0.0
210
0.0
220
0.0
230
1.0
 40
0.767326988
 41
2.053485853670782
 42
2.487094184095905
  0
LINE
  5
1B7
330
1F
100
AcDbEntity
  8
0
  6
Continuous
370
    15
100
AcDbLine
 10
180.1600212104
 20
117.0589325157
 30
0.0
 11
179.4970387466
 21
115.5041902814
 31
0.0
  0
ELLIPSE
  5
1B8
330
1F
100
AcDbEntity
  8
0
  6
Continuous
370
    15
100
AcDbEllipse
 10
179.9785292096
 20
117.0931252973
 30
0.0
 11
0.1586706680579368
 21
0.158670668057951
 31
0.0
210
0.0
220
0.0
230
1.0
 40
0.767326988
 41
5.19507850726044
 42
7.199483164478492
  0
LINE
  5
1B9
330
1F
100
AcDbEntity
  8
0
  6
Continuous
370
    15
100
AcDbLine
 10
179.6785274394
 20
117.2086663915
 30
0.0
 11
179.9785287924
 21
117.2863119731
 31
0.0
  0
ELLIPSE
  5
1BA
330
1F
100
AcDbEntity
  8
0
  6
Continuous
370
    15
100
AcDbEllipse
 10
179.6785292096
 20
117.4018499143
 30
0.0
 11
0.1586706680582494
 21
0.1586706680582494
 31
0.0
210
0.0
220
0.0
230
1.0
 40
0.767326988
 41
2.053485853670748
 42
4.057890510886851
  0
LINE
  5
1BB
330
1F
100
AcDbEntity
  8
0
  6
Continuous
370
    15
100
AcDbLine
 10
180.1600212104
 20
118.9907844849
 30
0.0
 11
179.4970387466
 21
117.4360422506
 31
0.0
  0
ELLIPSE
  5
1BC
330
1F
100
AcDbEntity
  8
0
  6
Continuous
370
    15
100
AcDbEllipse
 10
179.9785292096
 20
119.0249769499
 30
0.0
 11
0.1586706680582495
 21
0.1586706680582637
 31
0.0
210
0.0
220
0.0
230
1.0
 40
0.767326988
 41
5.195078507260471
 42
7.19948316447661
  0
LINE
  5
1BD
330
1F
100
AcDbEntity
  8
0
  6
Continuous
370
    15
100
AcDbLine
 10
179.6785274394
 20
119.1405147624
 30
0.0
 11
179.9785287924
 21
119.218160344
 31
0.0
  0
ELLIPSE
  5
1BE
330
1F
100
AcDbEntity
  8
0
  6
Continuous
370
    15
100
AcDbEllipse
 10
179.6785292096
 20
119.3337015668
 30
0.0
 11
0.1586706680582211
 21
0.1586706680582495
 31
0.0
210
0.0
220
0.0
230
1.0
 40
0.767326988
 41
2.053485853670845
 42
4.057890510886666
  0
LINE
  5
1BF
330
1F
100
AcDbEntity
  8
0
  6
Continuous
370
    15
100
AcDbLine
 10
180.1600212104
 20
120.9226364542
 30
0.0
 11
179.4970387466
 21
119.3678942198
 31
0.0
  0
ELLIPSE
  5
1C0
330
1F
100
AcDbEntity
  8
0
  6
Continuous
370
    15
100
AcDbEllipse
 10
179.9785292096
 20
120.9568286024
 30
0.0
 11
0.1586706680582494
 21
0.1586706680582494
 31
0.0
210
0.0
220
0.0
230
1.0
 40
0.767326988
 41
5.19507850726062
 42
7.199483164476631
  0
LINE
  5
1C1
330
1F
100
AcDbEntity
  8
0
  6
Continuous
370
    15
100
AcDbLine
 10
179.6785274394
 20
121.0723667316
 30
0.0
 11
179.9785287924
 21
121.1500123133
 31
0.0
  0
ELLIPSE
  5
1C2
330
1F
100
AcDbEntity
  8
0
  6
Continuous
370
    15
100
AcDbEllipse
 10
179.6785292096
 20
121.2655532194
 30
0.0
 11
0.1586706680582211
 21
0.1586706680582495
 31
0.0
210
0.0
220
0.0
230
1.0
 40
0.767326988
 41
2.053485853670779
 42
4.057890510886666
  0
LINE
  5
1C3
330
1F
100
AcDbEntity
  8
0
  6
Continuous
370
    15
100
AcDbLine
 10
180.1600212104
 20
122.8544884234
 30
0.0
 11
179.4970387466
 21
121.2997461891
 31
0.0
  0
ELLIPSE
  5
1C4
330
1F
100
AcDbEntity
  8
0
  6
Continuous
370
    15
100
AcDbEllipse
 10
179.9785292096
 20
122.888680255
 30
0.0
 11
0.1586706680582494
 21
0.1586706680582494
 31
0.0
210
0.0
220
0.0
230
1.0
 40
0.767326988
 41
5.195078507260622
 42
7.199483164476517
  0
LINE
  5
1C5
330
1F
100
AcDbEntity
  8
0
  6
Continuous
370
    15
100
AcDbLine
 10
179.6785274394
 20
123.0042187009
 30
0.0
 11
179.9785287924
 21
123.0818642825
 31
0.0
  0
ELLIPSE
  5
1C6
330
1F
100
AcDbEntity
  8
0
  6
Continuous
370
    15
100
AcDbEllipse
 10
179.6785292096
 20
123.197404872
 30
0.0
 11
0.1586706680582494
 21
0.1586706680582494
 31
0.0
210
0.0
220
0.0
230
1.0
 40
0.767326988
 41
2.053485853670681
 42
4.057890510886851
  0
LINE
  5
1C7
330
1F
100
AcDbEntity
  8
0
  6
Continuous
370
    15
100
AcDbLine
 10
180.1600212104
 20
124.7863403926
 30
0.0
 11
179.4970387466
 21
123.2315981583
 31
0.0
  0
ELLIPSE
  5
1C8
330
1F
100
AcDbEntity
  8
0
  6
Continuous
370
    15
100
AcDbEllipse
 10
179.9785292096
 20
124.8205319076
 30
0.0
 11
0.1586706680582495
 21
0.1586706680582353
 31
0.0
210
0.0
220
0.0
230
1.0
 40
0.767326988
 41
5.195078507260611
 42
7.199483164476511
  0
LINE
  5
1C9
330
1F
100
AcDbEntity
  8
0
  6
Continuous
370
    15
100
AcDbLine
 10
179.6785274394
 20
124.9360706701
 30
0.0
 11
179.9785287924
 21
125.0137162517
 31
0.0
  0
ELLIPSE
  5
1CA
330
1F
100
AcDbEntity
  8
0
  6
Continuous
370
    15
100
AcDbEllipse
 10
179.6785292096
 20
125.1292565246
 30
0.0
 11
0.1586706680582494
 21
0.1586706680582494
 31
0.0
210
0.0
220
0.0
230
1.0
 40
0.767326988
 41
2.053485853670656
 42
4.057890510886851
  0
LINE
  5
1CB
330
1F
100
AcDbEntity
  8
0
  6
Continuous
370
    15
100
AcDbLine
 10
180.1600212104
 20
126.7181923619
 30
0.0
 11
179.4970387466
 21
125.1634501275
 31
0.0
  0
ELLIPSE
  5
1CC
330
1F
100
AcDbEntity
  8
0
  6
Continuous
370
    15
100
AcDbEllipse
 10
179.9785292096
 20
126.7523835602
 30
0.0
 11
0.1586706680582494
 21
0.1586706680582494
 31
0.0
210
0.0
220
0.0
230
1.0
 40
0.767326988
 41
5.195078507260487
 42
7.199483164476631
  0
LINE
  5
1CD
330
1F
100
AcDbEntity
  8
0
  6
Continuous
370
    15
100
AcDbLine
 10
179.6785274394
 20
126.8679226393
 30
0.0
 11
179.9785287924
 21
126.945568221
 31
0.0
  0
ELLIPSE
  5
1CE
330
1F
100
AcDbEntity
  8
0
  6
Continuous
370
    15
100
AcDbEllipse
 10
179.6785292096
 20
127.0611081772
 30
0.0
 11
0.1586706680582494
 21
0.1586706680582494
 31
0.0
210
0.0
220
0.0
230
1.0
 40
0.767326988
 41
2.053485853670681
 42
4.057890510886851
  0
LINE
  5
1CF
330
1F
100
AcDbEntity
  8
0
  6
Continuous
370
    15
100
AcDbLine
 10
180.1600212104
 20
128.6500407327
 30
0.0
 11
179.4970387466
 21
127.0953020968
 31
0.0
  0
ELLIPSE
  5
1D0
330
1F
100
AcDbEntity
  8
0
  6
Continuous
370
    15
100
AcDbEllipse
 10
179.9785292096
 20
128.6842352128
 30
0.0
 11
0.1586706680582495
 21
0.1586706680582211
 31
0.0
210
0.0
220
0.0
230
1.0
 40
0.767326988
 41
5.195078507260559
 42
7.199483164476646
  0
LINE
  5
1D1
330
1F
100
AcDbEntity
  8
0
  6
Continuous
370
    15
100
AcDbLine
 10
179.6785274394
 20
128.7997746086
 30
0.0
 11
179.9785287924
 21
128.8774201902
 31
0.0
  0
ELLIPSE
  5
1D2
330
1F
100
AcDbEntity
  8
0
  6
Continuous
370
    15
100
AcDbEllipse
 10
179.6785292096
 20
128.9929598297
 30
0.0
 11
0.1586706680582494
 21
0.1586706680582494
 31
0.0
210
0.0
220
0.0
230
1.0
 40
0.767326988
 41
2.053485853670638
 42
4.057890510886824
  0
LINE
  5
1D3
330
1F
100
AcDbEntity
  8
0
  6
Continuous
370
    15
100
AcDbLine
 10
180.1600212104
 20
130.581892702
 30
0.0
 11
179.4970387466
 21
129.027154066
 31
0.0
  0
ELLIPSE
  5
1D4
330
1F
100
AcDbEntity
  8
0
  6
Continuous
370
    15
100
AcDbEllipse
 10
179.9785292096
 20
130.6160868653
 30
0.0
 11
0.1586706680582494
 21
0.1586706680582494
 31
0.0
210
0.0
220
0.0
230
1.0
 40
0.767326988
 41
5.195078507260444
 42
7.199483164476461
  0
LINE
  5
1D5
330
1F
100
AcDbEntity
  8
0
  6
Continuous
370
    15
100
AcDbLine
 10
179.6785274394
 20
130.7316265778
 30
0.0
 11
179.9785287924
 21
130.8092721594
 31
0.0
  0
ELLIPSE
  5
1D6
330
1F
100
AcDbEntity
  8
0
  6
Continuous
370
    15
100
AcDbEllipse
 10
179.6785292096
 20
130.9248114823
 30
0.0
 11
0.1586706680582494
 21
0.1586706680582494
 31
0.0
210
0.0
220
0.0
230
1.0
 40
0.767326988
 41
2.053485853670638
 42
4.057890510886824
  0
LINE
  5
1D7
330
1F
100
AcDbEntity
  8
0
  6
Continuous
370
    15
100
AcDbLine
 10
180.1600212104
 20
132.5137446712
 30
0.0
 11
179.4970387466
 21
130.9590060352
 31
0.0
  0
ELLIPSE
  5
1D8
330
1F
100
AcDbEntity
  8
0
  6
Continuous
370
    15
100
AcDbEllipse
 10
179.9785292096
 20
132.5479385179
 30
0.0
 11
0.1586706680582494
 21
0.1586706680582494
 31
0.0
210
0.0
220
0.0
230
1.0
 40
0.767326988
 41
5.195078507260529
 42
7.19948316447666
  0
LINE
  5
1D9
330
1F
100
AcDbEntity
  8
0
  6
Continuous
370
    15
100
AcDbLine
 10
179.6785274394
 20
132.663478547
 30
0.0
 11
179.9785287924
 21
132.7411241287
 31
0.0
  0
ELLIPSE
  5
1DA
330
1F
100
AcDbEntity
  8
0
  6
Continuous
370
    15
100
AcDbEllipse
 10
179.6785292096
 20
132.8566631349
 30
0.0
 11
0.1586706680582494
 21
0.1586706680582494
 31
0.0
210
0.0
220
0.0
230
1.0
 40
0.767326988
 41
2.053485853670699
 42
4.05789051088688
  0
LINE
  5
1DB
330
1F
100
AcDbEntity
  8
0
  6
Continuous
370
    15
100
AcDbLine
 10
180.1600212104
 20
134.4455966404
 30
0.0
 11
179.4970387466
 21
132.8908544061
 31
0.0
  0
ELLIPSE
  5
1DC
330
1F
100
AcDbEntity
  8
0
  6
Continuous
370
    15
100
AcDbEllipse
 10
179.9785292096
 20
134.4797901705
 30
0.0
 11
0.1586706680582494
 21
0.1586706680582494
 31
0.0
210
0.0
220
0.0
230
1.0
 40
0.767326988
 41
5.195078507260444
 42
7.199483164476603
  0
LINE
  5
1DD
330
1F
100
AcDbEntity
  8
0
  6
Continuous
370
    15
100
AcDbLine
 10
179.6785274394
 20
134.5953305163
 30
0.0
 11
179.9785287924
 21
134.6729760979
 31
0.0
  0
ELLIPSE
  5
1DE
330
1F
100
AcDbEntity
  8
0
  6
Continuous
370
    15
100
AcDbEllipse
 10
179.6785292096
 20
134.7885147875
 30
0.0
 11
0.1586706680582494
 21
0.1586706680582494
 31
0.0
210
0.0
220
0.0
230
1.0
 40
0.767326988
 41
2.053485853670613
 42
4.057890510886824
  0
LINE
  5
1DF
330
1F
100
AcDbEntity
  8
0
  6
Continuous
370
    15
100
AcDbLine
 10
180.1600212104
 20
136.3774486097
 30
0.0
 11
179.4970387466
 21
134.8227081745
 31
0.0
  0
ELLIPSE
  5
1E0
330
1F
100
AcDbEntity
  8
0
  6
Continuous
370
    15
100
AcDbEllipse
 10
179.9785292096
 20
136.4116418231
 30
0.0
 11
0.1586706680582494
 21
0.1586706680582494
 31
0.0
210
0.0
220
0.0
230
1.0
 40
0.767326988
 41
5.195078507260504
 42
7.19948316447666
  0
LINE
  5
1E1
330
1F
100
AcDbEntity
  8
0
  6
Continuous
370
    15
100
AcDbLine
 10
179.6785274394
 20
136.5271806863
 30
0.0
 11
179.9785287924
 21
136.6048262679
 31
0.0
  0
ELLIPSE
  5
1E2
330
1F
100
AcDbEntity
  8
0
  6
Continuous
370
    15
100
AcDbEllipse
 10
179.6785292096
 20
136.7203664401
 30
0.0
 11
0.1586706680582494
 21
0.1586706680582494
 31
0.0
210
0.0
220
0.0
230
1.0
 40
0.767326988
 41
2.053485853670857
 42
4.05789051088688
  0
LINE
  5
1E3
330
1F
100
AcDbEntity
  8
0
  6
Continuous
370
    15
100
AcDbLine
 10
180.1600212104
 20
138.3093005789
 30
0.0
 11
179.4970387466
 21
136.7545601438
 31
0.0
  0
ELLIPSE
  5
1E4
330
1F
100
AcDbEntity
  8
0
  6
Continuous
370
    15
100
AcDbEllipse
 10
179.9785292096
 20
138.3434934756
 30
0.0
 11
0.1586706680582494
 21
0.1586706680582494
 31
0.0
210
0.0
220
0.0
230
1.0
 40
0.767326988
 41
5.195078507260529
 42
7.199483164476517
  0
LINE
  5
1E5
330
1F
100
AcDbEntity
  8
0
  6
Continuous
370
    15
100
AcDbLine
 10
179.6785274394
 20
138.4590326555
 30
0.0
 11
179.9785287924
 21
138.5366782372
 31
0.0
  0
ELLIPSE
  5
1E6
330
1F
100
AcDbEntity
  8
0
  6
Continuous
370
    15
100
AcDbEllipse
 10
179.6785292096
 20
138.6522180926
 30
0.0
 11
0.1586706680582494
 21
0.1586706680582494
 31
0.0
210
0.0
220
0.0
230
1.0
 40
0.767326988
 41
2.053485853670724
 42
4.05789051088688
  0
LINE
  5
1E7
330
1F
100
AcDbEntity
  8
0
  6
Continuous
370
    15
100
AcDbLine
 10
180.1600212104
 20
140.2411525481
 30
0.0
 11
179.4970387466
 21
138.6864103138
 31
0.0
  0
ELLIPSE
  5
1E8
330
1F
100
AcDbEntity
  8
0
  6
Continuous
370
    15
100
AcDbEllipse
 10
179.9785292096
 20
140.2753451282
 30
0.0
 11
0.1586706680582494
 21
0.1586706680582494
 31
0.0
210
0.0
220
0.0
230
1.0
 40
0.767326988
 41
5.195078507260504
 42
7.199483164476517
  0
LINE
  5
1E9
330
1F
100
AcDbEntity
  8
0
  6
Continuous
370
    15
100
AcDbLine
 10
179.6785274394
 20
140.3908846248
 30
0.0
 11
179.9785287924
 21
140.4685302064
 31
0.0
  0
ELLIPSE
  5
1EA
330
1F
100
AcDbEntity
  8
0
  6
Continuous
370
    15
100
AcDbEllipse
 10
179.6785292096
 20
140.5840697452
 30
0.0
 11
0.1586706680582494
 21
0.1586706680582494
 31
0.0
210
0.0
220
0.0
230
1.0
 40
0.767326988
 41
2.053485853670638
 42
4.057890510886824
  0
LINE
  5
1EB
330
1F
100
AcDbEntity
  8
0
  6
Continuous
370
    15
100
AcDbLine
 10
180.1600212104
 20
142.1730045174
 30
0.0
 11
179.4970387466
 21
140.6182622831
 31
0.0
  0
ELLIPSE
  5
1EC
330
1F
100
AcDbEntity
  8
0
  6
Continuous
370
    15
100
AcDbEllipse
 10
179.9785292096
 20
142.2071967808
 30
0.0
 11
0.1586706680582494
 21
0.1586706680582494
 31
0.0
210
0.0
220
0.0
230
1.0
 40
0.767326988
 41
5.19507850726059
 42
7.199483164476574
  0
LINE
  5
1ED
330
1F
100
AcDbEntity
  8
0
  6
Continuous
370
    15
100
AcDbLine
 10
179.6785274394
 20
142.322736594
 30
0.0
 11
179.9785287924
 21
142.4003821756
 31
0.0
  0
ELLIPSE
  5
1EE
330
1F
100
AcDbEntity
  8
0
  6
Continuous
370
    15
100
AcDbEllipse
 10
179.6785292096
 20
142.5159213978
 30
0.0
 11
0.1586706680582494
 21
0.1586706680582494
 31
0.0
210
0.0
220
0.0
230
1.0
 40
0.767326988
 41
2.053485853670699
 42
4.05789051088688
  0
LINE
  5
1EF
330
1F
100
AcDbEntity
  8
0
  6
Continuous
370
    15
100
AcDbLine
 10
180.1600212104
 20
144.1048546874
 30
0.0
 11
179.4970387466
 21
142.5501142523
 31
0.0
  0
ELLIPSE
  5
1F0
330
1F
100
AcDbEntity
  8
0
  6
Continuous
370
    15
100
AcDbEllipse
 10
179.9785292096
 20
144.1390484334
 30
0.0
 11
0.1586706680582494
 21
0.1586706680582494
 31
0.0
210
0.0
220
0.0
230
1.0
 40
0.767326988
 41
5.195078507260504
 42
7.19948316447666
  0
LINE
  5
1F1
330
1F
100
AcDbEntity
  8
0
  6
Continuous
370
    15
100
AcDbLine
 10
179.6785274394
 20
144.2545885632
 30
0.0
 11
179.9785287924
 21
144.3322341449
 31
0.0
  0
ELLIPSE
  5
1F2
330
1F
100
AcDbEntity
  8
0
  6
Continuous
370
    15
100
AcDbEllipse
 10
179.6785292096
 20
144.4477730504
 30
0.0
 11
0.1586706680582494
 21
0.1586706680582494
 31
0.0
210
0.0
220
0.0
230
1.0
 40
0.767326988
 41
2.053485853670747
 42
4.057890510886824
  0
LINE
  5
1F3
330
1F
100
AcDbEntity
  8
0
  6
Continuous
370
    15
100
AcDbLine
 10
180.1600212104
 20
146.0367066567
 30
0.0
 11
179.4970387466
 21
144.4819662215
 31
0.0
  0
ELLIPSE
  5
1F4
330
1F
100
AcDbEntity
  8
0
  6
Continuous
370
    15
100
AcDbEllipse
 10
179.9785292096
 20
146.070900086
 30
0.0
 11
0.1586706680582494
 21
0.1586706680582494
 31
0.0
210
0.0
220
0.0
230
1.0
 40
0.767326988
 41
5.195078507260504
 42
7.199483164476517
  0
LINE
  5
1F5
330
1F
100
AcDbEntity
  8
0
  6
Continuous
370
    15
100
AcDbLine
 10
179.6785274394
 20
146.1864405325
 30
0.0
 11
179.9785287924
 21
146.2640861141
 31
0.0
  0
ELLIPSE
  5
1F6
330
1F
100
AcDbEntity
  8
0
  6
Continuous
370
    15
100
AcDbEllipse
 10
179.6785292096
 20
146.3796247029
 30
0.0
 11
0.1586706680582494
 21
0.1586706680582494
 31
0.0
210
0.0
220
0.0
230
1.0
 40
0.767326988
 41
2.053485853670747
 42
4.057890510886824
  0
LINE
  5
1F7
330
1F
100
AcDbEntity
  8
0
  6
Continuous
370
    15
100
AcDbLine
 10
180.1600212104
 20
147.9685586259
 30
0.0
 11
179.4970387466
 21
146.4138181908
 31
0.0
  0
ELLIPSE
  5
1F8
330
1F
100
AcDbEntity
  8
0
  6
Continuous
370
    15
100
AcDbEllipse
 10
179.9785292096
 20
148.0027517385
 30
0.0
 11
0.1586706680582494
 21
0.1586706680582494
 31
0.0
210
0.0
220
0.0
230
1.0
 40
0.767326988
 41
5.195078507260638
 42
7.19948316447666
  0
LINE
  5
1F9
330
1F
100
AcDbEntity
  8
0
  6
Continuous
370
    15
100
AcDbLine
 10
179.6785274394
 20
148.1182907025
 30
0.0
 11
179.9785287924
 21
148.1959362842
 31
0.0
  0
ELLIPSE
  5
1FA
330
1F
100
AcDbEntity
  8
0
  6
Continuous
370
    15
100
AcDbEllipse
 10
179.6785292096
 20
148.3114763555
 30
0.0
 11
0.1586706680582494
 21
0.1586706680582494
 31
0.0
210
0.0
220
0.0
230
1.0
 40
0.767326988
 41
2.053485853670857
 42
4.05789051088688
  0
LINE
  5
1FB
330
1F
100
AcDbEntity
  8
0
  6
Continuous
370
    15
100
AcDbLine
 10
180.1525035746
 20
149.8827844012
 30
0.0
 11
179.4970387466
 21
148.34567016
 31
0.0
  0
LINE
  5
1FC
330
1F
100
AcDbEntity
  8
0
  6
Continuous
370
    15
100
AcDbLine
 10
180.1525035746
 20
149.8827844012
 30
0.0
 11
180.8300481982
 21
120.6512702019
 31
0.0
  0
ELLIPSE
  5
1FD
330
1F
100
AcDbEntity
  8
0
  6
Continuous
370
    15
100
AcDbEllipse
 10
182.8295514726
 20
121.211764549
 30
0.0
 11
1.586706680582437
 21
1.586706680582479
 31
0.0
210
0.0
220
0.0
230
1.0
 40
0.767326988
 41
2.50934570377684
 42
2.929903033766487
  0
SPLINE
  5
1FE
330
1F
100
AcDbEntity
  8
0
  6
Continuous
370
    15
100
AcDbSpline
210
0.0
220
0.0
230
1.0
 70
     8
 71
     3
 72
    12
 73
     8
 74
     0
 42
0.000000001
 43
0.00000001
 40
0.0
 40
0.0
 40
0.0
 40
0.0
 40
0.2359385635057526
 40
0.4730056347891436
 40
0.6833171331485645
 40
0.8802007492202442
 40
1.0
 40
1.0
 40
1.0
 40
1.0
 10
182.5601810462556
 20
150.8767750421229
 30
0.0
 10
182.5545223229155
 20
150.8858479458375
 30
0.0
 10
182.5431778102346
 20
150.9040371494893
 30
0.0
 10
182.5740935354712
 20
150.9131975586031
 30
0.0
 10
182.6376023010376
 20
150.9117224007435
 30
0.0
 10
182.7112950026456
 20
150.9069583400362
 30
0.0
 10
182.7619315355227
 20
150.9051326869289
 30
0.0
 10
182.7810870356641
 20
150.9044420531834
 30
0.0
  0
SPLINE
  5
1FF
330
1F
100
AcDbEntity
  8
0
  6
Continuous
370
    15
100
AcDbSpline
210
0.0
220
0.0
230
1.0
 70
     8
 71
     3
 72
    12
 73
     8
 74
     0
 42
0.000000001
 43
0.00000001
 40
0.0
 40
0.0
 40
0.0
 40
0.0
 40
0.1973897129051889
 40
0.3948563010141786
 40
0.590677377570559
 40
0.7891788295848514
 40
1.0
 40
1.0
 40
1.0
 40
1.0
 10
273.1759713835797
 20
150.9044420531834
 30
0.0
 10
273.2073817742472
 20
150.9057320882176
 30
0.0
 10
273.2702147886418
 20
150.9083126607019
 30
0.0
 10
273.3443174541734
 20
150.9130056843193
 30
0.0
 10
273.3923333142904
 20
150.9115678348981
 30
0.0
 10
273.4126212910603
 20
150.9009285931118
 30
0.0
 10
273.402229601412
 20
150.8849861698451
 30
0.0
 10
273.3968773729882
 20
150.8767750421229
 30
0.0
  0
ELLIPSE
  5
200
330
1F
100
AcDbEntity
  8
0
  6
Continuous
370
    15
100
AcDbEllipse
 10
183.4537366906
 20
149.9122039369
 30
0.0
 11
4.355744248947218
 21
-0.2901073172346287
 31
0.0
210
0.0
220
0.0
230
1.0
 40
0.2197085193
 41
1.603335914749183
 42
1.740460467576803
  0
LINE
  5
201
330
1F
100
AcDbEntity
  8
0
  6
Continuous
370
    15
100
AcDbLine
 10
183.3757327743
 20
150.87812977
 30
0.0
 11
183.6527006574
 21
150.8616712843
 31
0.0
  0
ELLIPSE
  5
202
330
1F
100
AcDbEntity
  8
0
  6
Continuous
370
    15
100
AcDbEllipse
 10
272.5033217286
 20
149.9122039369
 30
0.0
 11
4.355744248947246
 21
0.2901073172346571
 31
0.0
210
0.0
220
0.0
230
1.0
 40
0.2197085193
 41
1.401132186012976
 42
1.538256738840603
  0
LINE
  5
203
330
1F
100
AcDbEntity
  8
0
  6
Continuous
370
    15
100
AcDbLine
 10
272.581325645
 20
150.87812977
 30
0.0
 11
272.1893319733
 21
150.8548362401
 31
0.0
  0
SPLINE
  5
204
330
1F
100
AcDbEntity
  8
0
  6
Continuous
370
    15
100
AcDbSpline
210
0.0
220
0.0
230
1.0
 70
     8
 71
     3
 72
    12
 73
     8
 74
     0
 42
0.000000001
 43
0.00000001
 40
0.0
 40
0.0
 40
0.0
 40
0.0
 40
0.0714084730906375
 40
0.3232358098778975
 40
0.5750251457249721
 40
0.826788630058594
 40
1.0
 40
1.0
 40
1.0
 40
1.0
 10
271.9599583990655
 20
150.7796676268467
 30
0.0
 10
271.9590065910693
 20
150.78212845243
 30
0.0
 10
271.9546981607785
 20
150.7932675640223
 30
0.0
 10
271.9813201202973
 20
150.8128368511676
 30
0.0
 10
272.0379526204344
 20
150.8345171833832
 30
0.0
 10
272.1127622100242
 20
150.8488269707226
 30
0.0
 10
272.1671603601022
 20
150.853096190389
 30
0.0
 10
272.1893319733224
 20
150.8548362401343
 30
0.0
  0
LINE
  5
205
330
1F
100
AcDbEntity
  8
0
  6
Continuous
370
    15
100
AcDbLine
 10
180.1600212104
 20
149.8983716038
 30
0.0
 11
180.1525035746
 21
149.8827844012
 31
0.0
  0
ELLIPSE
  5
206
330
1F
100
AcDbEntity
  8
0
  6
Continuous
370
    15
100
AcDbEllipse
 10
179.9785292096
 20
149.9790539181
 30
0.0
 11
0.1999999999999886
 21
0.0
 31
0.0
210
0.0
220
0.0
230
1.0
 40
0.9601657585
 41
5.849576976758342
 42
6.843884685658487
  0
LINE
  5
207
330
1F
100
AcDbEntity
  8
0
  6
Continuous
370
    15
100
AcDbLine
 10
180.1453249402
 20
150.1924508247
 30
0.0
 11
180.1479065664
 21
150.0811734792
 31
0.0
  0
ELLIPSE
  5
208
330
1F
100
AcDbEntity
  8
0
  6
Continuous
370
    15
100
AcDbEllipse
 10
227.9785292096
 20
5616.5926623964
 30
0.0
 11
0.0
 21
6308.364316584405
 31
0.0
210
0.0
220
0.0
230
1.0
 40
0.0143790948
 41
2.619008172059578
 42
2.628468201963597
  0
ELLIPSE
  5
209
330
1F
100
AcDbEntity
  8
0
  6
Continuous
370
    15
100
AcDbEllipse
 10
275.9785292096
 20
149.9790539181
 30
0.0
 11
0.1999999999999886
 21
0.0
 31
0.0
210
0.0
220
0.0
230
1.0
 40
0.9601657585
 41
2.580893275110967
 42
3.575200984011007
  0
LINE
  5
20A
330
1F
100
AcDbEntity
  8
0
  6
Continuous
370
    15
100
AcDbLine
 10
275.8045548446
 20
149.8827844012
 30
0.0
 11
275.7970372088
 21
149.8983716038
 31
0.0
  0
LINE
  5
20B
330
1F
100
AcDbEntity
  8
0
  6
Continuous
370
    15
100
AcDbLine
 10
275.8091518529
 20
150.0811734792
 30
0.0
 11
275.811733479
 21
150.1924508247
 31
0.0
  0
ELLIPSE
  5
20C
330
1F
100
AcDbEntity
  8
0
  6
Continuous
370
    15
100
AcDbEllipse
 10
227.9785292096
 20
5616.5926623964
 30
0.0
 11
0.0
 21
6308.364316584405
 31
0.0
210
0.0
220
0.0
230
1.0
 40
0.0143790948
 41
3.654717105216727
 42
3.664177135120738
  0
ELLIPSE
  5
20D
330
1F
100
AcDbEntity
  8
0
  6
Continuous
370
    15
100
AcDbEllipse
 10
276.2785292096
 20
115.9105072863
 30
0.0
 11
0.1999999999999886
 21
0.0
 31
0.0
210
0.0
220
0.0
230
1.0
 40
0.9674664158
 41
5.141706653959297
 42
6.283185307179586
  0
ELLIPSE
  5
20E
330
1F
100
AcDbEntity
  8
0
  6
Continuous
370
    15
100
AcDbEllipse
 10
179.6785292096
 20
115.9105072863
 30
0.0
 11
0.2000000000000171
 21
0.0
 31
0.0
210
0.0
220
0.0
230
1.0
 40
0.9674664158000001
 41
3.141592653589793
 42
4.283071306810514
  0
ELLIPSE
  5
20F
330
1F
100
AcDbEntity
  8
0
  6
Continuous
370
    15
100
AcDbEllipse
 10
276.2785292096
 20
117.845440118
 30
0.0
 11
0.1999999999999886
 21
0.0
 31
0.0
210
0.0
220
0.0
230
1.0
 40
0.9674664158
 41
5.13562995884679
 42
6.283185307179586
  0
ELLIPSE
  5
210
330
1F
100
AcDbEntity
  8
0
  6
Continuous
370
    15
100
AcDbEllipse
 10
179.6785292096
 20
117.845440118
 30
0.0
 11
0.1999999999999886
 21
0.0
 31
0.0
210
0.0
220
0.0
230
1.0
 40
0.9674664158
 41
3.141592653589793
 42
4.289148001922547
  0
ELLIPSE
  5
211
330
1F
100
AcDbEntity
  8
0
  6
Continuous
370
    15
100
AcDbEllipse
 10
276.2785292096
 20
119.7803729497
 30
0.0
 11
0.1999999999999886
 21
0.0
 31
0.0
210
0.0
220
0.0
230
1.0
 40
0.9674664158
 41
5.129554444092272
 42
6.283185307179586
  0
ELLIPSE
  5
212
330
1F
100
AcDbEntity
  8
0
  6
Continuous
370
    15
100
AcDbEllipse
 10
179.6785292096
 20
119.7803729497
 30
0.0
 11
0.1999999999999886
 21
0.0
 31
0.0
210
0.0
220
0.0
230
1.0
 40
0.9674664158
 41
3.141592653589881
 42
4.295223516677007
  0
ELLIPSE
  5
213
330
1F
100
AcDbEntity
  8
0
  6
Continuous
370
    15
100
AcDbEllipse
 10
276.2785292096
 20
121.7153057814
 30
0.0
 11
0.2000000000000455
 21
0.0
 31
0.0
210
0.0
220
0.0
230
1.0
 40
0.9674664158
 41
5.123479884865142
 42
6.283185307179586
  0
ELLIPSE
  5
214
330
1F
100
AcDbEntity
  8
0
  6
Continuous
370
    15
100
AcDbEllipse
 10
179.6785292096
 20
121.7153057814
 30
0.0
 11
0.1999999999999886
 21
0.0
 31
0.0
210
0.0
220
0.0
230
1.0
 40
0.9674664158
 41
3.141592653589793
 42
4.301298075904292
  0
ELLIPSE
  5
215
330
1F
100
AcDbEntity
  8
0
  6
Continuous
370
    15
100
AcDbEllipse
 10
179.6785292096
 20
123.6502386131
 30
0.0
 11
0.2000000000000171
 21
0.0
 31
0.0
210
0.0
220
0.0
230
1.0
 40
0.9674664158000001
 41
3.141592653589793
 42
4.307371904116417
  0
ELLIPSE
  5
216
330
1F
100
AcDbEntity
  8
0
  6
Continuous
370
    15
100
AcDbEllipse
 10
276.2785292096
 20
123.6502386131
 30
0.0
 11
0.1999999999999886
 21
0.0
 31
0.0
210
0.0
220
0.0
230
1.0
 40
0.9674664158
 41
5.1174060566532
 42
6.283185307179586
  0
ELLIPSE
  5
217
330
1F
100
AcDbEntity
  8
0
  6
Continuous
370
    15
100
AcDbEllipse
 10
276.2785292096
 20
125.5851714448
 30
0.0
 11
0.2000000000000455
 21
0.0
 31
0.0
210
0.0
220
0.0
230
1.0
 40
0.9674664158
 41
5.111332735186465
 42
6.283185307179586
  0
ELLIPSE
  5
218
330
1F
100
AcDbEntity
  8
0
  6
Continuous
370
    15
100
AcDbEllipse
 10
179.6785292096
 20
125.5851714448
 30
0.0
 11
0.1999999999999886
 21
0.0
 31
0.0
210
0.0
220
0.0
230
1.0
 40
0.9674664158
 41
3.141592653589793
 42
4.313445225582844
  0
LINE
  5
219
330
1F
100
AcDbEntity
  8
0
  6
Continuous
370
    15
100
AcDbLine
 10
179.1785301514
 20
107.0281747706
 30
0.0
 11
179.4785277791
 21
107.0281747706
 31
0.0
  0
LINE
  5
21A
330
1F
100
AcDbEntity
  8
0
  6
Continuous
370
    15
100
AcDbLine
 10
179.1785301514
 20
106.2949806346
 30
0.0
 11
179.1785301514
 21
107.0281747706
 31
0.0
  0
ELLIPSE
  5
21B
330
1F
100
AcDbEntity
  8
0
  6
Continuous
370
    15
100
AcDbEllipse
 10
276.2785292096
 20
127.5201042764
 30
0.0
 11
0.1999999999999886
 21
0.0
 31
0.0
210
0.0
220
0.0
230
1.0
 40
0.9674664158
 41
5.105259696364358
 42
6.283185307179586
  0
ELLIPSE
  5
21C
330
1F
100
AcDbEntity
  8
0
  6
Continuous
370
    15
100
AcDbEllipse
 10
179.6785292096
 20
127.5201042764
 30
0.0
 11
0.2000000000000171
 21
0.0
 31
0.0
210
0.0
220
0.0
230
1.0
 40
0.9674664158000001
 41
3.141592653589793
 42
4.319518264405235
  0
ELLIPSE
  5
21D
330
1F
100
AcDbEntity
  8
0
  6
Continuous
370
    15
100
AcDbEllipse
 10
276.2785292096
 20
129.4550371081
 30
0.0
 11
0.1999999999999886
 21
0.0
 31
0.0
210
0.0
220
0.0
230
1.0
 40
0.9674664158
 41
5.099186716179331
 42
6.283185307179586
  0
ELLIPSE
  5
21E
330
1F
100
AcDbEntity
  8
0
  6
Continuous
370
    15
100
AcDbEllipse
 10
179.6785292096
 20
129.4550371081
 30
0.0
 11
0.2000000000000171
 21
0.0
 31
0.0
210
0.0
220
0.0
230
1.0
 40
0.9674664158000001
 41
3.141592653589793
 42
4.325591244590045
  0
ELLIPSE
  5
21F
330
1F
100
AcDbEntity
  8
0
  6
Continuous
370
    15
100
AcDbEllipse
 10
276.2785292096
 20
131.3899699398
 30
0.0
 11
0.2000000000000455
 21
0.0
 31
0.0
210
0.0
220
0.0
230
1.0
 40
0.9674664158
 41
5.093113570644223
 42
6.283185307179586
  0
ELLIPSE
  5
220
330
1F
100
AcDbEntity
  8
0
  6
Continuous
370
    15
100
AcDbEllipse
 10
179.6785292096
 20
131.3899699398
 30
0.0
 11
0.2000000000000171
 21
0.0
 31
0.0
210
0.0
220
0.0
230
1.0
 40
0.9674664158000001
 41
3.141592653589793
 42
4.331664390125449
  0
ELLIPSE
  5
221
330
1F
100
AcDbEntity
  8
0
  6
Continuous
370
    15
100
AcDbEllipse
 10
276.2785292096
 20
133.3249027715
 30
0.0
 11
0.1999999999999886
 21
0.0
 31
0.0
210
0.0
220
0.0
230
1.0
 40
0.9674664158
 41
5.087040035715501
 42
6.283185307179586
  0
ELLIPSE
  5
222
330
1F
100
AcDbEntity
  8
0
  6
Continuous
370
    15
100
AcDbEllipse
 10
179.6785292096
 20
133.3249027715
 30
0.0
 11
0.2000000000000171
 21
0.0
 31
0.0
210
0.0
220
0.0
230
1.0
 40
0.9674664158000001
 41
3.141592653589793
 42
4.337737925054058
  0
ELLIPSE
  5
223
330
1F
100
AcDbEntity
  8
0
  6
Continuous
370
    15
100
AcDbEllipse
 10
179.6785292096
 20
135.2598356032
 30
0.0
 11
0.2000000000000171
 21
0.0
 31
0.0
210
0.0
220
0.0
230
1.0
 40
0.9674664158000001
 41
3.141592653589793
 42
4.343812073547709
  0
ELLIPSE
  5
224
330
1F
100
AcDbEntity
  8
0
  6
Continuous
370
    15
100
AcDbEllipse
 10
276.2785292096
 20
135.2598356032
 30
0.0
 11
0.2000000000000455
 21
0.0
 31
0.0
210
0.0
220
0.0
230
1.0
 40
0.9674664158
 41
5.080965887221654
 42
6.283185307179586
  0
ELLIPSE
  5
225
330
1F
100
AcDbEntity
  8
0
  6
Continuous
370
    15
100
AcDbEllipse
 10
276.2785292096
 20
137.1947684349
 30
0.0
 11
0.2000000000000455
 21
0.0
 31
0.0
210
0.0
220
0.0
230
1.0
 40
0.9674664158
 41
5.07489090078676
 42
6.283185307179586
  0
ELLIPSE
  5
226
330
1F
100
AcDbEntity
  8
0
  6
Continuous
370
    15
100
AcDbEllipse
 10
179.6785292096
 20
137.1947684349
 30
0.0
 11
0.2000000000000171
 21
0.0
 31
0.0
210
0.0
220
0.0
230
1.0
 40
0.9674664158000001
 41
3.141592653589793
 42
4.349887059982468
  0
ELLIPSE
  5
227
330
1F
100
AcDbEntity
  8
0
  6
Continuous
370
    15
100
AcDbEllipse
 10
276.2785292096
 20
139.1297012666
 30
0.0
 11
0.1999999999999886
 21
0.0
 31
0.0
210
0.0
220
0.0
230
1.0
 40
0.9674664158
 41
5.068814851756763
 42
6.283185307179586
  0
ELLIPSE
  5
228
330
1F
100
AcDbEntity
  8
0
  6
Continuous
370
    15
100
AcDbEllipse
 10
179.6785292096
 20
139.1297012666
 30
0.0
 11
0.2000000000000455
 21
0.0
 31
0.0
210
0.0
220
0.0
230
1.0
 40
0.9674664158
 41
3.141592653589793
 42
4.355963109012869
  0
ELLIPSE
  5
229
330
1F
100
AcDbEntity
  8
0
  6
Continuous
370
    15
100
AcDbEllipse
 10
276.2785292096
 20
141.0646340982
 30
0.0
 11
0.2000000000000455
 21
0.0
 31
0.0
210
0.0
220
0.0
230
1.0
 40
0.9674664158
 41
5.062737515123395
 42
6.283185307179586
  0
ELLIPSE
  5
22A
330
1F
100
AcDbEntity
  8
0
  6
Continuous
370
    15
100
AcDbEllipse
 10
179.6785292096
 20
141.0646340982
 30
0.0
 11
0.2000000000000171
 21
0.0
 31
0.0
210
0.0
220
0.0
230
1.0
 40
0.9674664158000001
 41
3.141592653589793
 42
4.362040445646099
  0
ELLIPSE
  5
22B
330
1F
100
AcDbEntity
  8
0
  6
Continuous
370
    15
100
AcDbEllipse
 10
276.2785292096
 20
142.9995669299
 30
0.0
 11
0.2000000000000455
 21
0.0
 31
0.0
210
0.0
220
0.0
230
1.0
 40
0.9674664158
 41
5.056658665449701
 42
6.283185307179586
  0
ELLIPSE
  5
22C
330
1F
100
AcDbEntity
  8
0
  6
Continuous
370
    15
100
AcDbEllipse
 10
179.6785292096
 20
142.9995669299
 30
0.0
 11
0.2000000000000171
 21
0.0
 31
0.0
210
0.0
220
0.0
230
1.0
 40
0.9674664158000001
 41
3.141592653589793
 42
4.368119295319927
  0
ELLIPSE
  5
22D
330
1F
100
AcDbEntity
  8
0
  6
Continuous
370
    15
100
AcDbEllipse
 10
179.6785292096
 20
144.9344997616
 30
0.0
 11
0.2000000000000171
 21
0.0
 31
0.0
210
0.0
220
0.0
230
1.0
 40
0.9674664158000001
 41
3.141592653589793
 42
4.374199883974553
  0
ELLIPSE
  5
22E
330
1F
100
AcDbEntity
  8
0
  6
Continuous
370
    15
100
AcDbEllipse
 10
276.2785292096
 20
144.9344997616
 30
0.0
 11
0.1999999999999886
 21
0.0
 31
0.0
210
0.0
220
0.0
230
1.0
 40
0.9674664158
 41
5.050578076794764
 42
6.283185307179586
  0
ELLIPSE
  5
22F
330
1F
100
AcDbEntity
  8
0
  6
Continuous
370
    15
100
AcDbEllipse
 10
275.9785292096
 20
149.9346033911
 30
0.0
 11
-0.1586706680582779
 21
0.1586706680582495
 31
0.0
210
0.0
220
0.0
230
1.0
 40
0.7673269880000001
 41
5.366887449882396
 42
6.376984398198424
  0
ELLIPSE
  5
230
330
1F
100
AcDbEntity
  8
0
  6
Continuous
370
    15
100
AcDbEllipse
 10
179.9785292096
 20
149.9346033911
 30
0.0
 11
0.1586706680582494
 21
0.1586706680582494
 31
0.0
210
0.0
220
0.0
230
1.0
 40
0.767326988
 41
6.189386216160669
 42
7.199483164476603
  0
ELLIPSE
  5
231
330
1F
100
AcDbEntity
  8
0
  6
Continuous
370
    15
100
AcDbEllipse
 10
276.2785292096
 20
146.8694325933
 30
0.0
 11
0.2000000000000455
 21
0.0
 31
0.0
210
0.0
220
0.0
230
1.0
 40
0.9674664158
 41
5.044495522636769
 42
6.283185307179586
  0
ELLIPSE
  5
232
330
1F
100
AcDbEntity
  8
0
  6
Continuous
370
    15
100
AcDbEllipse
 10
179.6785292096
 20
146.8694325933
 30
0.0
 11
0.2000000000000171
 21
0.0
 31
0.0
210
0.0
220
0.0
230
1.0
 40
0.9674664158000001
 41
3.141592653589793
 42
4.380282438132777
  0
LINE
  5
233
330
1F
100
AcDbEntity
  8
0
  6
Continuous
370
    15
100
AcDbLine
 10
179.6785274394
 20
150.0501426718
 30
0.0
 11
179.9785287924
 21
150.1277882534
 31
0.0
  0
ELLIPSE
  5
234
330
1F
100
AcDbEntity
  8
0
  6
Continuous
370
    15
100
AcDbEllipse
 10
179.6785292096
 20
150.2433280081
 30
0.0
 11
0.1586706680582494
 21
0.1586706680582494
 31
0.0
210
0.0
220
0.0
230
1.0
 40
0.767326988
 41
2.053485853670638
 42
4.057890510886824
  0
LINE
  5
235
330
1F
100
AcDbEntity
  8
0
  6
Continuous
370
    15
100
AcDbLine
 10
179.738400305
 20
150.8435292374
 30
0.0
 11
179.4970387466
 21
150.2775212296
 31
0.0
  0
ELLIPSE
  5
236
330
1F
100
AcDbEntity
  8
0
  6
Continuous
370
    15
100
AcDbEllipse
 10
179.1455742028
 20
149.9122039369
 30
0.0
 11
0.7933533402911905
 21
0.7933533402912475
 31
0.0
210
0.0
220
0.0
230
1.0
 40
0.767326988
 41
5.650938357366647
 42
6.564921639668057
  0
ELLIPSE
  5
237
330
1F
100
AcDbEntity
  8
0
  6
Continuous
370
    15
100
AcDbEllipse
 10
276.2785292096
 20
150.2433280081
 30
0.0
 11
-0.1586706680582211
 21
0.1586706680582495
 31
0.0
210
0.0
220
0.0
230
1.0
 40
0.767326988
 41
2.225294796292849
 42
4.229699453508917
  0
LINE
  5
238
330
1F
100
AcDbEntity
  8
0
  6
Continuous
370
    15
100
AcDbLine
 10
275.9785296269
 20
150.1277882534
 30
0.0
 11
276.2785309799
 21
150.0501426718
 31
0.0
  0
ELLIPSE
  5
239
330
1F
100
AcDbEntity
  8
0
  6
Continuous
370
    15
100
AcDbEllipse
 10
276.8114842165
 20
149.9122039369
 30
0.0
 11
-0.7933533402912188
 21
0.7933533402912474
 31
0.0
210
0.0
220
0.0
230
1.0
 40
0.767326988
 41
6.001448974691114
 42
6.915432256992572
  0
LINE
  5
23A
330
1F
100
AcDbEntity
  8
0
  6
Continuous
370
    15
100
AcDbLine
 10
276.4600196726
 20
150.2775212296
 30
0.0
 11
276.2186581142
 21
150.8435292374
 31
0.0
  0
ELLIPSE
  5
23B
330
1F
100
AcDbEntity
  8
0
  6
Continuous
370
    15
100
AcDbEllipse
 10
276.5915247736
 20
149.9122039369
 30
0.0
 11
-0.4521649813340787
 21
0.9989841808908296
 31
0.0
210
0.0
220
0.0
230
1.0
 40
0.0996588665
 41
5.865345656104325
 42
6.238107793113404
  0
SPLINE
  5
23C
330
1F
100
AcDbEntity
  8
0
  6
Continuous
370
    15
100
AcDbSpline
210
0.0
220
0.0
230
1.0
 70
     8
 71
     3
 72
    10
 73
     6
 74
     0
 42
0.000000001
 43
0.00000001
 40
0.0
 40
0.0
 40
0.0
 40
0.0
 40
0.3736018695846695
 40
0.7051611622966324
 40
1.0
 40
1.0
 40
1.0
 40
1.0
 10
273.25311096979
 20
150.1924508247066
 30
0.0
 10
273.2600782525802
 20
150.311318616745
 30
0.0
 10
273.2732287682236
 20
150.535677639591
 30
0.0
 10
273.3292401650822
 20
150.7691234052885
 30
0.0
 10
273.3752303088184
 20
150.8423214926242
 30
0.0
 10
273.3968773729882
 20
150.8767750421229
 30
0.0
  0
ELLIPSE
  5
23D
330
1F
100
AcDbEntity
  8
0
  6
Continuous
370
    15
100
AcDbEllipse
 10
179.3655336457
 20
149.9122039369
 30
0.0
 11
0.4521649813340504
 21
0.9989841808908296
 31
0.0
210
0.0
220
0.0
230
1.0
 40
0.0996588665
 41
0.0450775140660934
 42
0.4178396510756945
  0
SPLINE
  5
23E
330
1F
100
AcDbEntity
  8
0
  6
Continuous
370
    15
100
AcDbSpline
210
0.0
220
0.0
230
1.0
 70
     8
 71
     3
 72
    11
 73
     7
 74
     0
 42
0.000000001
 43
0.00000001
 40
0.0
 40
0.0
 40
0.0
 40
0.0
 40
0.1201943288758498
 40
0.4637477034766038
 40
0.6266485544473277
 40
1.0
 40
1.0
 40
1.0
 40
1.0
 10
182.5601810462556
 20
150.8767750421229
 30
0.0
 10
182.56920737971
 20
150.864770729318
 30
0.0
 10
182.6040338265935
 20
150.8184542970272
 30
0.0
 10
182.6445769418658
 20
150.7009543270846
 30
0.0
 10
182.6874028567456
 20
150.4840728070642
 30
0.0
 10
182.6971566378971
 20
150.3121485388119
 30
0.0
 10
182.7039474494538
 20
150.1924508247066
 30
0.0
  0
SPLINE
  5
23F
330
1F
100
AcDbEntity
  8
0
  6
Continuous
370
    15
100
AcDbSpline
210
0.0
220
0.0
230
1.0
 70
     8
 71
     3
 72
    11
 73
     7
 74
     0
 42
0.000000001
 43
0.00000001
 40
0.0
 40
0.0
 40
0.0
 40
0.0
 40
0.2039697452759802
 40
0.4729522853636752
 40
0.7406786662902226
 40
1.0
 40
1.0
 40
1.0
 40
1.0
 10
276.3417864091477
 20
148.6229366665261
 30
0.0
 10
276.3578310962179
 20
148.6286263628872
 30
0.0
 10
276.3950345128692
 20
148.6418192748721
 30
0.0
 10
276.4398761767087
 20
148.685419387039
 30
0.0
 10
276.4726883094693
 20
148.7437938951578
 30
0.0
 10
276.4764142549331
 20
148.7877321223936
 30
0.0
 10
276.4782475180707
 20
148.8093508854984
 30
0.0
  0
SPLINE
  5
240
330
1F
100
AcDbEntity
  8
0
  6
Continuous
370
    15
100
AcDbSpline
210
0.0
220
0.0
230
1.0
 70
     8
 71
     3
 72
    11
 73
     7
 74
     0
 42
0.000000001
 43
0.00000001
 40
0.0
 40
0.0
 40
0.0
 40
0.0
 40
0.2064734730298538
 40
0.479308520426616
 40
0.7460874103477446
 40
1.0
 40
1.0
 40
1.0
 40
1.0
 10
179.4808598108373
 20
148.8096090358998
 30
0.0
 10
179.4811468882558
 20
148.7923358091183
 30
0.0
 10
179.4818133111658
 20
148.7522376567982
 30
0.0
 10
179.509812777213
 20
148.6955583456108
 30
0.0
 10
179.5549784073203
 20
148.6465246851567
 30
0.0
 10
179.5951073069302
 20
148.6297311111191
 30
0.0
 10
179.6146759636483
 20
148.6215418089303
 30
0.0
  0
LINE
  5
241
330
1F
100
AcDbEntity
  8
0
  6
Continuous
370
    15
100
AcDbLine
 10
269.9767814822
 20
99.3679646465
 30
0.0
 11
269.9816020079
 21
99.5767143034
 31
0.0
  0
LWPOLYLINE
  5
242
330
1F
100
AcDbEntity
  8
0
  6
Continuous
370
    15
100
AcDbPolyline
 90
        9
 70
   128
 43
0.0
 10
272.6579064376
 20
98.6475744032
 10
272.6591097064
 20
98.6581898613
 10
272.6686576254
 20
98.668518236
 10
272.6861515887
 20
98.6781248646
 10
272.7108502634
 20
98.6866053355
 10
272.7417180188
 20
98.6936027229
 10
272.7774510033
 20
98.6988224106
 10
272.8165516503
 20
98.7020448076
 10
272.8573659308
 20
98.7031342663
  0
ARC
  5
243
330
1F
100
AcDbEntity
  8
0
  6
Continuous
370
    15
100
AcDbCircle
 10
269.7117991162
 20
97.7972675805
 30
0.0
 40
3.066361042390389
100
AcDbArc
 50
343.9007784379999
 51
16.099221562
  0
LWPOLYLINE
  5
244
330
1F
100
AcDbEntity
  8
0
  6
Continuous
370
    15
100
AcDbPolyline
 90
        9
 70
   128
 43
0.0
 10
272.8573659308
 20
96.8914008947
 10
272.8165516503
 20
96.8924903534
 10
272.7774510033
 20
96.8957127503
 10
272.7417180188
 20
96.9009324381
 10
272.7108502634
 20
96.9079298254
 10
272.6861515887
 20
96.9164102964
 10
272.6686576254
 20
96.926016925
 10
272.6591097064
 20
96.9363452997
 10
272.6579064376
 20
96.9469607577
  0
LINE
  5
245
330
1F
100
AcDbEntity
  8
0
  6
Continuous
370
    15
100
AcDbLine
 10
273.4281698115
 20
96.8914008947
 30
0.0
 11
272.8573659308
 21
96.8914008947
 31
0.0
  0
LWPOLYLINE
  5
246
330
1F
100
AcDbEntity
  8
0
  6
Continuous
370
    15
100
AcDbPolyline
 90
        9
 70
   128
 43
0.0
 10
273.6275138207
 20
96.8354369815
 10
273.6266048498
 20
96.8461048064
 10
273.617265547
 20
96.8564977809
 10
273.5998907931
 20
96.8661743725
 10
273.5752181954
 20
96.8747233
 10
273.544298286
 20
96.8817813099
 10
273.5084460921
 20
96.8870485436
 10
273.4691778071
 20
96.8903011313
 10
273.4281698115
 20
96.8914008947
  0
LWPOLYLINE
  5
247
330
1F
100
AcDbEntity
  8
0
  6
Continuous
370
    15
100
AcDbPolyline
 90
       47
 70
   128
 43
0.0
 10
273.6275138207
 20
96.8354369815
 10
273.2296453662
 20
95.967571729
 10
272.5858108945
 20
95.1096520733
 10
271.6995010026
 20
94.2663412519
 10
270.5755436666
 20
93.4422235606
 10
269.2200409122
 20
92.6417785614
 10
267.6403613634
 20
91.8693568578
 10
265.8450955398
 20
91.1291574366
 10
263.8439999766
 20
90.4252033225
 10
261.6479525216
 20
89.7613218125
 10
259.2688852794
 20
89.1411203714
 10
256.7197380461
 20
88.567971687
 10
254.0143614508
 20
88.0449900481
 10
251.1674629397
 20
87.5750178458
 10
248.1945155062
 20
87.1606111109
 10
245.1116831846
 20
86.8040221587
 10
241.935719537
 20
86.5071880188
 10
238.6838894211
 20
86.2717227222
 10
235.373868408
 20
86.0989076587
 10
232.0236491844
 20
85.9896800075
 10
228.6514416676
 20
85.9446346654
 10
225.2755766142
 20
85.9640165329
 10
221.9144038729
 20
86.0477195507
 10
218.5861931987
 20
86.195289592
 10
215.3090366967
 20
86.4059244621
 10
212.1007477738
 20
86.6784787199
 10
208.9787645139
 20
87.0114704268
 10
205.9600574769
 20
87.4030907885
 10
203.0610365666
 20
87.85120994
 10
200.2974578984
 20
88.3533923726
 10
197.6843437053
 20
88.9069094678
 10
195.2358985193
 20
89.5087510681
 10
192.9654346652
 20
90.155646206
 10
190.8852884419
 20
90.8440785315
 10
189.0067661054
 20
91.5703065592
 10
187.3400861271
 20
92.3303819882
 10
185.8942972369
 20
93.1201733238
 10
184.6772709735
 20
93.9353882953
 10
183.6956122763
 20
94.7715948263
 10
182.9546594865
 20
95.6242480318
 10
182.4584433682
 20
96.4887131173
 10
182.2096573062
 20
97.3602910202
 10
182.2096573062
 20
98.2342441407
 10
182.4584433682
 20
99.1058220436
 10
182.9546594865
 20
99.9702871292
 10
183.6956122763
 20
100.8229403347
 10
184.2244284101
 20
101.3005982255
  0
LWPOLYLINE
  5
248
330
1F
100
AcDbEntity
  8
0
  6
Continuous
370
    15
100
AcDbPolyline
 90
        3
 70
   128
 43
0.0
 10
203.1761685259
 20
107.7625836739
 10
205.9600574769
 20
108.1914443724
 10
206.0649430252
 20
108.2062820781
  0
ARC
  5
249
330
1F
100
AcDbEntity
  8
0
  6
Continuous
370
    15
100
AcDbCircle
 10
268.2699514016
 20
96.7443110839
 30
0.0
 40
5.723883481930869
100
AcDbArc
 50
20.6094802253
 51
53.0032694683
  0
LWPOLYLINE
  5
24A
330
1F
100
AcDbEntity
  8
0
  6
Continuous
370
    15
100
AcDbPolyline
 90
        9
 70
   128
 43
0.0
 10
273.4281698115
 20
98.7031342663
 10
273.4691778071
 20
98.7042340296
 10
273.5084460921
 20
98.7074866174
 10
273.544298286
 20
98.712753851
 10
273.5752181954
 20
98.719811861
 10
273.5998907931
 20
98.7283607884
 10
273.617265547
 20
98.7380373801
 10
273.6266048498
 20
98.7484303545
 10
273.6275138207
 20
98.7590981794
  0
LINE
  5
24B
330
1F
100
AcDbEntity
  8
0
  6
Continuous
370
    15
100
AcDbLine
 10
273.4281698115
 20
98.7031342663
 30
0.0
 11
272.8573659308
 21
98.7031342663
 31
0.0
  0
LWPOLYLINE
  5
24C
330
1F
100
AcDbEntity
  8
0
  6
Continuous
370
    15
100
AcDbPolyline
 90
       83
 70
   128
 43
0.0
 10
227.9785292096
 20
86.7974628688
 10
224.7251873243
 20
86.829738663
 10
221.4909375518
 20
86.9263761029
 10
218.294759082
 20
87.086808253
 10
215.1554094501
 20
87.3100940775
 10
212.0913116134
 20
87.5949222968
 10
209.1204447545
 20
87.9396219938
 10
206.2602450944
 20
88.3421703272
 10
203.5274969287
 20
88.8002041013
 10
200.938237632
 20
89.3110371216
 10
198.5076608009
 20
89.8716708005
 10
196.2500305719
 20
90.4788148871
 10
194.1785978026
 20
91.1289067508
 10
192.30551439
 20
91.8181306649
 10
190.6417736657
 20
92.5424428747
 10
189.1971433408
 20
93.2975923281
 10
187.9800947256
 20
94.0791479127
 10
186.9977729268
 20
94.882522802
 10
186.2559446938
 20
95.7030026569
 10
185.7589574404
 20
96.5357722618
 10
185.5097355194
 20
97.3759449913
 10
185.5097355194
 20
98.2185901696
 10
185.7589574404
 20
99.0587628992
 10
186.2559446938
 20
99.891532504
 10
186.9977729268
 20
100.712012359
 10
187.9800947256
 20
101.5153872483
 10
189.1971433408
 20
102.2969428329
 10
190.6417736657
 20
103.0520922862
 10
192.30551439
 20
103.7764044961
 10
194.1785978026
 20
104.4656284101
 10
196.2500305719
 20
105.1157202739
 10
198.5076608009
 20
105.7228643605
 10
200.938237632
 20
106.2834980394
 10
203.5274969287
 20
106.7943310597
 10
206.2602450944
 20
107.2523648338
 10
209.1204447545
 20
107.6549131671
 10
212.0913116134
 20
107.9996128642
 10
215.1554094501
 20
108.2844410835
 10
218.294759082
 20
108.5077269079
 10
221.4909375518
 20
108.668159058
 10
224.7251873243
 20
108.764796498
 10
227.9785292096
 20
108.7970722922
 10
231.2318710949
 20
108.764796498
 10
234.4661208674
 20
108.668159058
 10
237.6622993372
 20
108.5077269079
 10
240.8016489692
 20
108.2844410835
 10
243.8657468058
 20
107.9996128642
 10
246.8366136648
 20
107.6549131671
 10
249.6968133248
 20
107.2523648338
 10
252.4295614905
 20
106.7943310597
 10
255.0188207872
 20
106.2834980394
 10
257.4493976183
 20
105.7228643605
 10
259.7070278473
 20
105.1157202739
 10
261.7784606166
 20
104.4656284101
 10
263.6515440292
 20
103.7764044961
 10
265.3152847536
 20
103.0520922862
 10
266.7599150784
 20
102.2969428329
 10
267.9769636936
 20
101.5153872483
 10
268.9592854924
 20
100.712012359
 10
269.7011137254
 20
99.891532504
 10
270.1981009789
 20
99.0587628992
 10
270.4473228998
 20
98.2185901696
 10
270.4473228998
 20
97.3759449913
 10
270.1981009789
 20
96.5357722618
 10
269.7011137254
 20
95.7030026569
 10
268.9592854924
 20
94.882522802
 10
267.9769636936
 20
94.0791479127
 10
266.7599150784
 20
93.2975923281
 10
265.3152847536
 20
92.5424428747
 10
263.6515440292
 20
91.8181306649
 10
261.7784606166
 20
91.1289067508
 10
259.7070278473
 20
90.4788148871
 10
257.4493976183
 20
89.8716708005
 10
255.0188207872
 20
89.3110371216
 10
252.4295614905
 20
88.8002041013
 10
249.6968133248
 20
88.3421703272
 10
246.8366136648
 20
87.9396219938
 10
243.8657468058
 20
87.5949222968
 10
240.8016489692
 20
87.3100940775
 10
237.6622993372
 20
87.086808253
 10
234.4661208674
 20
86.9263761029
 10
231.2318710949
 20
86.829738663
 10
227.9785292096
 20
86.7974628688
  0
ARC
  5
24D
330
1F
100
AcDbEntity
  8
0
  6
Continuous
370
    15
100
AcDbCircle
 10
270.3423826729
 20
98.3519974249
 30
0.0
 40
3.443894378289658
100
AcDbArc
 50
342.5349281562999
 51
344.7884897029
  0
ARC
  5
24E
330
1F
100
AcDbEntity
  8
0
  6
Continuous
370
    15
100
AcDbCircle
 10
270.3423826729
 20
98.2084655199
 30
0.0
 40
3.443894378308253
100
AcDbArc
 50
15.2115102971
 51
17.4650718437
  0
LWPOLYLINE
  5
24F
330
1F
100
AcDbEntity
  8
0
  6
Continuous
370
    15
100
AcDbPolyline
 90
        3
 70
   128
 43
0.0
 10
205.7444041468
 20
131.6907401035
 10
206.1949388928
 20
132.1178828813
 10
206.9791981824
 20
132.6678034793
  0
LWPOLYLINE
  5
250
330
1F
100
AcDbEntity
  8
0
  6
Continuous
370
    15
100
AcDbPolyline
 90
        3
 70
   128
 43
0.0
 10
248.9778602369
 20
132.6678034793
 10
249.7621195264
 20
132.1178828813
 10
250.2139245964
 20
131.6893284292
  0
LWPOLYLINE
  5
251
330
1F
100
AcDbEntity
  8
0
  6
Continuous
370
    15
100
AcDbPolyline
 90
        3
 70
   128
 43
0.0
 10
200.9836507834
 20
131.5904504921
 10
201.9269054629
 20
131.5747619092
 10
205.5961562194
 20
131.5139455238
  0
LWPOLYLINE
  5
252
330
1F
100
AcDbEntity
  8
0
  6
Continuous
370
    15
100
AcDbPolyline
 90
        3
 70
   128
 43
0.0
 10
254.9604231365
 20
131.5902345908
 10
254.0301529564
 20
131.5747619092
 10
250.3609021999
 20
131.5139455238
  0
LWPOLYLINE
  5
253
330
1F
100
AcDbEntity
  8
0
  6
Continuous
370
    15
100
AcDbPolyline
 90
        5
 70
   128
 43
0.0
 10
273.628173197
 20
99.078118633
 10
273.6371213443
 20
99.0816103364
 10
273.6546600111
 20
99.0911887026
 10
273.6642936118
 20
99.1014908637
 10
273.6656160898
 20
99.1120849894
  0
ARC
  5
254
330
1F
100
AcDbEntity
  8
0
  6
Continuous
370
    15
100
AcDbCircle
 10
272.8844605449
 20
98.1210707608
 30
0.0
 40
0.6173346867657764
100
AcDbArc
 50
258.8691790232
 51
270.6378681392
  0
ARC
  5
255
330
1F
100
AcDbEntity
  8
0
  6
Continuous
370
    15
100
AcDbCircle
 10
272.8875421382
 20
99.1322463361
 30
0.0
 40
0.6625406745025273
100
AcDbArc
 50
260.5294795002998
 51
270.3278423379
  0
LINE
  5
256
330
1F
100
AcDbEntity
  8
0
  6
Continuous
370
    15
100
AcDbLine
 10
273.4661081679
 20
97.5037743303
 30
0.0
 11
272.8913331277
 21
97.5037743303
 31
0.0
  0
LWPOLYLINE
  5
257
330
1F
100
AcDbEntity
  8
0
  6
Continuous
370
    15
100
AcDbPolyline
 90
        9
 70
   128
 43
0.0
 10
273.6656160898
 20
97.4483779553
 10
273.6642936118
 20
97.458972081
 10
273.6546600111
 20
97.4692742422
 10
273.6371213443
 20
97.4788526084
 10
273.6124077685
 20
97.4873054195
 10
273.5815660901
 20
97.4942782806
 10
273.5458778091
 20
97.4994788656
 10
273.5068479426
 20
97.5026890899
 10
273.4661081679
 20
97.5037743303
  0
LWPOLYLINE
  5
258
330
1F
100
AcDbEntity
  8
0
  6
Continuous
370
    15
100
AcDbPolyline
 90
        9
 70
   128
 43
0.0
 10
273.4281698115
 20
97.3743647866
 10
273.4691778071
 20
97.3732650232
 10
273.5084460921
 20
97.3700124355
 10
273.544298286
 20
97.3647452018
 10
273.5752181954
 20
97.3576871919
 10
273.5998907931
 20
97.3491382644
 10
273.617265547
 20
97.3394616728
 10
273.6266048498
 20
97.3290686983
 10
273.628173197
 20
97.3226010052
  0
LINE
  5
259
330
1F
100
AcDbEntity
  8
0
  6
Continuous
370
    15
100
AcDbLine
 10
273.4281698115
 20
97.3743647866
 30
0.0
 11
272.8573659308
 21
97.3743647866
 31
0.0
  0
ARC
  5
25A
330
1F
100
AcDbEntity
  8
0
  6
Continuous
370
    15
100
AcDbCircle
 10
272.8538526015
 20
98.0440545185
 30
0.0
 40
0.6696989477450965
100
AcDbArc
 50
261.0662977837
 51
270.3005826162001
  0
LINE
  5
25B
330
1F
100
AcDbEntity
  8
0
  6
Continuous
370
    15
100
AcDbLine
 10
273.4661081679
 20
98.4697165075
 30
0.0
 11
272.8913331277
 21
98.4697165075
 31
0.0
  0
LWPOLYLINE
  5
25C
330
1F
100
AcDbEntity
  8
0
  6
Continuous
370
    15
100
AcDbPolyline
 90
        9
 70
   128
 43
0.0
 10
273.4661081679
 20
98.4697165075
 10
273.5068479426
 20
98.4686312671
 10
273.5458778091
 20
98.4654210428
 10
273.5815660901
 20
98.4602204579
 10
273.6124077685
 20
98.4532475967
 10
273.6371213443
 20
98.4447947856
 10
273.6546600111
 20
98.4352164194
 10
273.6642936118
 20
98.4249142582
 10
273.6661115534
 20
98.4179527262
  0
ARC
  5
25D
330
1F
100
AcDbEntity
  8
0
  6
Continuous
370
    15
100
AcDbCircle
 10
232.6377712161
 20
24.6592059502
 30
0.0
 40
109.3916873362195
100
AcDbArc
 50
76.5179661285
 51
86.8484234326
  0
LINE
  5
25E
330
1F
100
AcDbEntity
  8
0
  6
Continuous
370
    15
100
AcDbLine
 10
232.8967654951
 20
134.1607064345
 30
0.0
 11
232.3785291858
 21
134.1753252722
 31
0.0
  0
LINE
  5
25F
330
1F
100
AcDbEntity
  8
0
  6
Continuous
370
    15
100
AcDbLine
 10
223.5785292335
 20
134.1753252722
 30
0.0
 11
223.0504553638
 21
134.1604123608
 31
0.0
  0
ARC
  5
260
330
1F
100
AcDbEntity
  8
0
  6
Continuous
370
    15
100
AcDbCircle
 10
223.5197876704
 20
22.8027915448
 30
0.0
 40
111.2563603995286
100
AcDbArc
 50
93.20211547219998
 51
102.8903888281
  0
LWPOLYLINE
  5
261
330
1F
100
AcDbEntity
  8
0
  6
Continuous
370
    15
100
AcDbPolyline
 90
       10
 70
   128
 43
0.0
 10
185.7888864226
 20
121.7776138514
 10
185.7589388139
 20
121.8430286185
 10
185.509716893
 20
122.6832016493
 10
185.509716893
 20
123.5258471892
 10
185.7589388139
 20
124.36602022
 10
186.2559260674
 20
125.198790307
 10
186.9977543004
 20
126.019270403
 10
187.9800760992
 20
126.8226457743
 10
189.1971247144
 20
127.6042016
 10
190.2690434702
 20
128.1779369855
  0
ARC
  5
262
330
1F
100
AcDbEntity
  8
0
  6
Continuous
370
    15
100
AcDbCircle
 10
223.2165641253
 20
27.1159654914
 30
0.0
 40
106.7994191652769
100
AcDbArc
 50
93.1796100663
 51
103.8592064444
  0
LINE
  5
263
330
1F
100
AcDbEntity
  8
0
  6
Continuous
370
    15
100
AcDbLine
 10
223.0562253728
 20
134.0303093334
 30
0.0
 11
223.5785292335
 21
134.0452251374
 31
0.0
  0
LINE
  5
264
330
1F
100
AcDbEntity
  8
0
  6
Continuous
370
    15
100
AcDbLine
 10
232.3785291858
 20
134.0452251374
 30
0.0
 11
232.9042891845
 21
134.0302042382
 31
0.0
  0
LWPOLYLINE
  5
265
330
1F
100
AcDbEntity
  8
0
  6
Continuous
370
    15
100
AcDbPolyline
 90
       21
 70
   128
 43
0.0
 10
238.6642506219
 20
133.7509740252
 10
240.8016545571
 20
133.5917027431
 10
243.8657542564
 20
133.3068745238
 10
246.836622978
 20
132.9621748268
 10
249.696822638
 20
132.5596264934
 10
252.4295726664
 20
132.1015917551
 10
255.0188338257
 20
131.5907587348
 10
257.4494106568
 20
131.0301245739
 10
259.7070427485
 20
130.4229804873
 10
261.7784755178
 20
129.7728886235
 10
263.6515589304
 20
129.0836637453
 10
265.3152996547
 20
128.3593515355
 10
266.7599337049
 20
127.6042016
 10
267.9769823201
 20
126.8226457743
 10
268.9593041189
 20
126.019270403
 10
269.7011323519
 20
125.198790307
 10
270.1981196053
 20
124.36602022
 10
270.4473415263
 20
123.5258471892
 10
270.4473415263
 20
122.6832016493
 10
270.1981196053
 20
121.8430286185
 10
270.1681719966
 20
121.7776138514
  0
LINE
  5
266
330
1F
100
AcDbEntity
  8
0
  6
Continuous
370
    15
100
AcDbLine
 10
255.2191184707
 20
125.8959827512
 30
0.0
 11
255.2166038997
 21
126.6508608734
 31
0.0
  0
LINE
  5
267
330
1F
100
AcDbEntity
  8
0
  6
Continuous
370
    15
100
AcDbLine
 10
265.5923345931
 20
123.4431885695
 30
0.0
 11
265.5462378509
 21
127.6307386916
 31
0.0
  0
LINE
  5
268
330
1F
100
AcDbEntity
  8
0
  6
Continuous
370
    15
100
AcDbLine
 10
186.9832480199
 20
123.9096566956
 30
0.0
 11
187.0034614451
 21
126.0071462877
 31
0.0
  0
SPLINE
  5
269
330
1F
100
AcDbEntity
  8
0
  6
Continuous
370
    15
100
AcDbSpline
210
0.0
220
0.0
230
1.0
 70
     8
 71
     3
 72
     9
 73
     5
 74
     0
 42
0.000000001
 43
0.00000001
 40
0.0
 40
0.0
 40
0.0
 40
0.0
 40
0.7083932923126298
 40
1.0
 40
1.0
 40
1.0
 40
1.0
 10
187.0729753620706
 20
122.2929957256894
 30
0.0
 10
187.0369688829011
 20
122.6761424182265
 30
0.0
 10
186.9861405089453
 20
123.2170096126154
 30
0.0
 10
186.9839010586651
 20
123.7532774090421
 30
0.0
 10
186.9832480199418
 20
123.9096566955968
 30
0.0
  0
SPLINE
  5
26A
330
1F
100
AcDbEntity
  8
0
  6
Continuous
370
    15
100
AcDbSpline
210
0.0
220
0.0
230
1.0
 70
     8
 71
     3
 72
    11
 73
     7
 74
     0
 42
0.000000001
 43
0.00000001
 40
0.0
 40
0.0
 40
0.0
 40
0.0
 40
0.2692698330804472
 40
0.5385967082166981
 40
0.8073239634623942
 40
1.0
 40
1.0
 40
1.0
 40
1.0
 10
236.6545570887408
 20
168.7417644109953
 30
0.0
 10
236.6205649410551
 20
168.11368172128
 30
0.0
 10
236.5525734447952
 20
166.8573832889657
 30
0.0
 10
236.3616663003792
 20
165.2108048483133
 30
0.0
 10
236.1317794608201
 20
163.8952374680594
 30
0.0
 10
235.9173375898809
 20
163.2581879313215
 30
0.0
 10
235.8277894429646
 20
162.9921642986284
 30
0.0
  0
SPLINE
  5
26B
330
1F
100
AcDbEntity
  8
0
  6
Continuous
370
    15
100
AcDbSpline
210
0.0
220
0.0
230
1.0
 70
     8
 71
     3
 72
     8
 73
     4
 74
     0
 42
0.000000001
 43
0.00000001
 40
0.0
 40
0.0
 40
0.0
 40
0.0
 40
1.0
 40
1.0
 40
1.0
 40
1.0
 10
236.6545566508453
 20
168.74176434565
 30
0.0
 10
236.9946899994442
 20
167.5756855073247
 30
0.0
 10
237.1918045076186
 20
166.4005888929524
 30
0.0
 10
237.2468340003548
 20
165.2126042631411
 30
0.0
  0
LINE
  5
26C
330
1F
100
AcDbEntity
  8
0
  6
Continuous
370
    15
100
AcDbLine
 10
237.2468335427
 20
165.2126042762
 30
0.0
 11
237.2064672284
 21
162.9233824422
 31
0.0
  0
SPLINE
  5
26D
330
1F
100
AcDbEntity
  8
0
  6
Continuous
370
    15
100
AcDbSpline
210
0.0
220
0.0
230
1.0
 70
     8
 71
     3
 72
     8
 73
     4
 74
     0
 42
0.000000001
 43
0.00000001
 40
0.0
 40
0.0
 40
0.0
 40
0.0
 40
1.0
 40
1.0
 40
1.0
 40
1.0
 10
246.2381238656033
 20
167.6755617710934
 30
0.0
 10
245.8684838988417
 20
166.5226356299677
 30
0.0
 10
245.3576426343298
 20
165.3736955054055
 30
0.0
 10
244.7073638099835
 20
164.2245549202854
 30
0.0
  0
SPLINE
  5
26E
330
1F
100
AcDbEntity
  8
0
  6
Continuous
370
    15
100
AcDbSpline
210
0.0
220
0.0
230
1.0
 70
     8
 71
     3
 72
    11
 73
     7
 74
     0
 42
0.000000001
 43
0.00000001
 40
0.0
 40
0.0
 40
0.0
 40
0.0
 40
0.2814471962559468
 40
0.5712098811131927
 40
0.8526379275345799
 40
0.9999999999999999
 40
0.9999999999999999
 40
0.9999999999999999
 40
0.9999999999999999
 10
246.2381234265647
 20
167.6755616311075
 30
0.0
 10
246.2712540896596
 20
167.0546156120905
 30
0.0
 10
246.3384942767335
 20
165.79437743449
 30
0.0
 10
246.5069855701292
 20
164.1432241113932
 30
0.0
 10
246.6713467341791
 20
162.8925085839667
 30
0.0
 10
246.7652865225835
 20
162.3231301684019
 30
0.0
 10
246.7975707597814
 20
162.1274521906711
 30
0.0
  0
LINE
  5
26F
330
1F
100
AcDbEntity
  8
0
  6
Continuous
370
    15
100
AcDbLine
 10
244.70736439
 20
164.2245547166
 30
0.0
 11
244.7236886121
 21
162.3653751703
 31
0.0
  0
ARC
  5
270
330
1F
100
AcDbEntity
  8
0
  6
Continuous
370
    15
100
AcDbCircle
 10
228.0277886038
 20
1.5586697239
 30
0.0
 40
161.653632584181
100
AcDbArc
 50
85.9879686007
 51
90.63258729650002
  0
SPLINE
  5
271
330
1F
100
AcDbEntity
  8
0
  6
Continuous
370
    15
100
AcDbSpline
210
0.0
220
0.0
230
1.0
 70
     8
 71
     3
 72
    11
 73
     7
 74
     0
 42
0.000000001
 43
0.00000001
 40
0.0
 40
0.0
 40
0.0
 40
0.0
 40
0.2709097271449207
 40
0.5418350614176645
 40
0.8125147180520293
 40
0.9999999999999999
 40
0.9999999999999999
 40
0.9999999999999999
 40
0.9999999999999999
 10
233.6463926233134
 20
168.9074021477489
 30
0.0
 10
233.6350511581955
 20
168.2792219749255
 30
0.0
 10
233.612367574577
 20
167.0228254397764
 30
0.0
 10
233.4749014206248
 20
165.3621161276322
 30
0.0
 10
233.2856834789002
 20
164.0376759901224
 30
0.0
 10
233.0864509980639
 20
163.3956989967596
 30
0.0
 10
233.0049232452891
 20
163.1329961413706
 30
0.0
  0
SPLINE
  5
272
330
1F
100
AcDbEntity
  8
0
  6
Continuous
370
    15
100
AcDbSpline
210
0.0
220
0.0
230
1.0
 70
     8
 71
     3
 72
    11
 73
     7
 74
     0
 42
0.000000001
 43
0.00000001
 40
0.0
 40
0.0
 40
0.0
 40
0.0
 40
0.2749232691792028
 40
0.5498621713478531
 40
0.824551853973478
 40
1.0
 40
1.0
 40
1.0
 40
1.0
 10
220.19178027881
 20
168.7983171946612
 30
0.0
 10
220.1368905693325
 20
168.1666758997071
 30
0.0
 10
220.0271080291783
 20
166.9033573927163
 30
0.0
 10
219.6040462134917
 20
165.2145650482692
 30
0.0
 10
219.0907525549632
 20
163.8780766795243
 30
0.0
 10
218.6330116679083
 20
163.2219597330447
 30
0.0
 10
218.4546001128635
 20
162.966228055969
 30
0.0
  0
ARC
  5
273
330
1F
100
AcDbEntity
  8
0
  6
Continuous
370
    15
100
AcDbCircle
 10
233.8240105859
 20
90.5677728176
 30
0.0
 40
78.10071250209407
100
AcDbArc
 50
78.965569033
 51
80.8540408591
  0
SPLINE
  5
274
330
1F
100
AcDbEntity
  8
0
  6
Continuous
370
    15
100
AcDbSpline
210
0.0
220
0.0
230
1.0
 70
     8
 71
     3
 72
    11
 73
     7
 74
     0
 42
0.000000001
 43
0.00000001
 40
0.0
 40
0.0
 40
0.0
 40
0.0
 40
0.2904486644836261
 40
0.5809589391591875
 40
0.8708220588521681
 40
1.0
 40
1.0
 40
1.0
 40
1.0
 10
248.7723974384151
 20
167.2245861079844
 30
0.0
 10
248.7891821278801
 20
166.5970808481707
 30
0.0
 10
248.8227550671913
 20
165.3419372216495
 30
0.0
 10
248.9565030050904
 20
163.7029266976258
 30
0.0
 10
249.095798745582
 20
162.5078242058744
 30
0.0
 10
249.1821023268777
 20
161.9705269446159
 30
0.0
 10
249.2087071634612
 20
161.8048941212967
 30
0.0
  0
SPLINE
  5
275
330
1F
100
AcDbEntity
  8
0
  6
Continuous
370
    15
100
AcDbSpline
210
0.0
220
0.0
230
1.0
 70
     8
 71
     3
 72
     8
 73
     4
 74
     0
 42
0.000000001
 43
0.00000001
 40
0.0
 40
0.0
 40
0.0
 40
0.0
 40
1.0
 40
1.0
 40
1.0
 40
1.0
 10
256.0499974447213
 20
165.2903316757645
 30
0.0
 10
254.9561584312208
 20
164.2127488116926
 30
0.0
 10
253.7470557623271
 20
163.1523553721456
 30
0.0
 10
252.4247630165387
 20
162.1047673260928
 30
0.0
  0
SPLINE
  5
276
330
1F
100
AcDbEntity
  8
0
  6
Continuous
370
    15
100
AcDbSpline
210
0.0
220
0.0
230
1.0
 70
     8
 71
     3
 72
    10
 73
     6
 74
     0
 42
0.000000001
 43
0.00000001
 40
0.0
 40
0.0
 40
0.0
 40
0.0
 40
0.3359820764124269
 40
0.6719835919398098
 40
1.0
 40
1.0
 40
1.0
 40
1.0
 10
256.0499979056201
 20
165.2903317485691
 30
0.0
 10
256.1246914749736
 20
164.6569565844421
 30
0.0
 10
256.2740829352709
 20
163.3901696106243
 30
0.0
 10
256.7108028063267
 20
161.6861571329732
 30
0.0
 10
257.1092627383247
 20
160.7433446763646
 30
0.0
 10
257.3060968763909
 20
160.2776073152098
 30
0.0
  0
LINE
  5
277
330
1F
100
AcDbEntity
  8
0
  6
Continuous
370
    15
100
AcDbLine
 10
252.4247633166
 20
162.1047673292
 30
0.0
 11
252.4224424608
 21
161.2824430883
 31
0.0
  0
SPLINE
  5
278
330
1F
100
AcDbEntity
  8
0
  6
Continuous
370
    15
100
AcDbSpline
210
0.0
220
0.0
230
1.0
 70
     8
 71
     3
 72
    11
 73
     7
 74
     0
 42
0.000000001
 43
0.00000001
 40
0.0
 40
0.0
 40
0.0
 40
0.0
 40
0.2940703236088534
 40
0.5881576614194371
 40
0.8819782360740458
 40
1.0
 40
1.0
 40
1.0
 40
1.0
 10
207.9226298130832
 20
167.3649137406083
 30
0.0
 10
207.8328032746432
 20
166.7255636663425
 30
0.0
 10
207.6531450006158
 20
165.4468265265533
 30
0.0
 10
207.0050725701747
 20
163.7067588003985
 30
0.0
 10
206.3221926278356
 20
162.4193264748434
 30
0.0
 10
205.7683609157189
 20
161.8047553297812
 30
0.0
 10
205.6096492208324
 20
161.628637520116
 30
0.0
  0
ARC
  5
279
330
1F
100
AcDbEntity
  8
0
  6
Continuous
370
    15
100
AcDbCircle
 10
230.4633983588
 20
85.3320882582
 30
0.0
 40
80.16802250393187
100
AcDbArc
 50
79.7655538775
 51
85.14610088129999
  0
ARC
  5
27A
330
1F
100
AcDbEntity
  8
0
  6
Continuous
370
    15
100
AcDbCircle
 10
217.1765959103
 20
114.8807887641
 30
0.0
 40
53.29370753738474
100
AcDbArc
 50
99.9995752301
 51
108.2926725651
  0
ARC
  5
27B
330
1F
100
AcDbEntity
  8
0
  6
Continuous
370
    15
100
AcDbCircle
 10
209.9818679906
 20
137.5157527726
 30
0.0
 40
29.54563475540529
100
AcDbArc
 50
108.8226962923
 51
112.4337582413
  0
ARC
  5
27C
330
1F
100
AcDbEntity
  8
0
  6
Continuous
370
    15
100
AcDbCircle
 10
203.2074017201
 20
152.6897277672
 30
0.0
 40
12.94334605853442
100
AcDbArc
 50
110.347603266
 51
131.7579919327
  0
ARC
  5
27D
330
1F
100
AcDbEntity
  8
0
  6
Continuous
370
    15
100
AcDbCircle
 10
197.8753924891
 20
158.9899370313
 30
0.0
 40
4.69764939448106
100
AcDbArc
 50
134.4222201773
 51
146.7382205096
  0
ARC
  5
27E
330
1F
100
AcDbEntity
  8
0
  6
Continuous
370
    15
100
AcDbCircle
 10
196.6535518102
 20
159.8079100399
 30
0.0
 40
3.227378646508026
100
AcDbArc
 50
146.9837502512
 51
158.0768006569
  0
ELLIPSE
  5
27F
330
1F
100
AcDbEntity
  8
0
  6
Continuous
370
    15
100
AcDbEllipse
 10
227.9785292096
 20
-520.0748434855
 30
0.0
 11
-8.89176537252437
 21
1917.779445769895
 31
0.0
210
0.0
220
0.0
230
1.0
 40
0.0173817748
 41
1.206835364865443
 42
1.207647702696097
  0
ARC
  5
280
330
1F
100
AcDbEntity
  8
0
  6
Continuous
370
    15
100
AcDbCircle
 10
200.6842383329
 20
158.1620282092
 30
0.0
 40
8.2374539835296
100
AcDbArc
 50
110.2882697451
 51
148.4762328666
  0
ARC
  5
281
330
1F
100
AcDbEntity
  8
0
  6
Continuous
370
    15
100
AcDbCircle
 10
258.5621723038
 20
159.3584604325
 30
0.0
 40
4.093256200030083
100
AcDbArc
 50
28.8279282582
 51
42.32969795
  0
ARC
  5
282
330
1F
100
AcDbEntity
  8
0
  6
Continuous
370
    15
100
AcDbCircle
 10
253.5835788042
 20
154.0126865728
 30
0.0
 40
11.38945036427995
100
AcDbArc
 50
45.3467929652
 51
68.6797611549
  0
ARC
  5
283
330
1F
100
AcDbEntity
  8
0
  6
Continuous
370
    15
100
AcDbCircle
 10
246.9588076886
 20
140.0547255116
 30
0.0
 40
26.82322802557259
100
AcDbArc
 50
66.33681985369999
 51
70.1883173625
  0
ARC
  5
284
330
1F
100
AcDbEntity
  8
0
  6
Continuous
370
    15
100
AcDbCircle
 10
239.6819405171
 20
118.3638365789
 30
0.0
 40
49.69918763506778
100
AcDbArc
 50
70.7711239356
 51
79.4607200275
  0
ARC
  5
285
330
1F
100
AcDbEntity
  8
0
  6
Continuous
370
    15
100
AcDbCircle
 10
230.9673102837
 20
72.3562585536
 30
0.0
 40
96.5347982503322
100
AcDbArc
 50
80.89816304679998
 51
84.0434725001
  0
ELLIPSE
  5
286
330
1F
100
AcDbEntity
  8
0
  6
Continuous
370
    15
100
AcDbEllipse
 10
227.9785292096
 20
-520.0748434855
 30
0.0
 11
8.89176537252437
 21
1917.779445769894
 31
0.0
210
0.0
220
0.0
230
1.0
 40
0.0173817748
 41
5.075537604483591
 42
5.076349942314248
  0
ARC
  5
287
330
1F
100
AcDbEntity
  8
0
  6
Continuous
370
    15
100
AcDbCircle
 10
259.468062913
 20
159.8839112473
 30
0.0
 40
3.046359624359563
100
AcDbArc
 50
21.7526883906
 51
28.3853805255
  0
ARC
  5
288
330
1F
100
AcDbEntity
  8
0
  6
Continuous
370
    15
100
AcDbCircle
 10
255.9131513575
 20
158.7788384402
 30
0.0
 40
7.371594517756856
100
AcDbArc
 50
30.0391698774
 51
67.0674943129
  0
SPLINE
  5
289
330
1F
100
AcDbEntity
  8
0
  6
Continuous
370
    15
100
AcDbSpline
210
0.0
220
0.0
230
1.0
 70
     8
 71
     3
 72
    10
 73
     6
 74
     0
 42
0.000000001
 43
0.00000001
 40
0.0
 40
0.0
 40
0.0
 40
0.0
 40
0.3402488739443533
 40
0.6805699217390039
 40
1.0
 40
1.0
 40
1.0
 40
1.0
 10
200.4492448515973
 20
165.4813321370486
 30
0.0
 10
200.3182603641763
 20
164.8262197085664
 30
0.0
 10
200.0562636048049
 20
163.5158558886546
 30
0.0
 10
199.2747718894719
 20
161.7122026125554
 30
0.0
 10
198.5255376400916
 20
160.663897435659
 30
0.0
 10
198.1627827383361
 20
160.1563420993014
 30
0.0
  0
SPLINE
  5
28A
330
1F
100
AcDbEntity
  8
0
  6
Continuous
370
    15
100
AcDbSpline
210
0.0
220
0.0
230
1.0
 70
     8
 71
     3
 72
     8
 73
     4
 74
     0
 42
0.000000001
 43
0.00000001
 40
0.0
 40
0.0
 40
0.0
 40
0.0
 40
1.0
 40
1.0
 40
1.0
 40
1.0
 10
200.4492448716359
 20
165.4813319266261
 30
0.0
 10
200.4548559036813
 20
165.4791832709485
 30
0.0
 10
200.4604665870021
 20
165.4770342859024
 30
0.0
 10
200.4660769216004
 20
165.4748849714259
 30
0.0
  0
LINE
  5
28B
330
1F
100
AcDbEntity
  8
0
  6
Continuous
370
    15
100
AcDbLine
 10
200.4660775758
 20
165.4748851332
 30
0.0
 11
205.6130057074
 21
161.6261280719
 31
0.0
  0
SPLINE
  5
28C
330
1F
100
AcDbEntity
  8
0
  6
Continuous
370
    15
100
AcDbSpline
210
0.0
220
0.0
230
1.0
 70
     8
 71
     3
 72
    10
 73
     6
 74
     0
 42
0.000000001
 43
0.00000001
 40
0.0
 40
0.0
 40
0.0
 40
0.0
 40
0.3545300737589095
 40
0.7091353628370224
 40
1.0
 40
1.0
 40
1.0
 40
1.0
 10
257.7245587356172
 20
164.622675489223
 30
0.0
 10
257.7904240738799
 20
163.9931463391511
 30
0.0
 10
257.9221687240646
 20
162.7339544812656
 30
0.0
 10
258.322156376096
 20
161.1334695645472
 30
0.0
 10
258.6874271539449
 20
160.2778898009842
 30
0.0
 10
258.8520271576724
 20
159.8923444992193
 30
0.0
  0
ARC
  5
28D
330
1F
100
AcDbEntity
  8
0
  6
Continuous
370
    15
100
AcDbCircle
 10
241.2303094075
 20
134.421747209
 30
0.0
 40
29.86076692415926
100
AcDbArc
 50
67.9825870919
 51
74.6909614962
  0
ARC
  5
28E
330
1F
100
AcDbEntity
  8
0
  6
Continuous
370
    15
100
AcDbCircle
 10
217.1878670554
 20
114.8706612332
 30
0.0
 40
53.29545684129182
100
AcDbArc
 50
99.9960882191
 51
108.2857537637
  0
SPLINE
  5
28F
330
1F
100
AcDbEntity
  8
0
  6
Continuous
370
    15
100
AcDbSpline
210
0.0
220
0.0
230
1.0
 70
     8
 71
     3
 72
    10
 73
     6
 74
     0
 42
0.000000001
 43
0.00000001
 40
0.0
 40
0.0
 40
0.0
 40
0.0
 40
0.3604661620018371
 40
0.7209529514217757
 40
1.0
 40
1.0
 40
1.0
 40
1.0
 10
198.7068092323623
 20
164.8254137572734
 30
0.0
 10
198.592919090739
 20
164.177459881148
 30
0.0
 10
198.3651322902106
 20
162.8815150502004
 30
0.0
 10
197.6876730702805
 20
161.1801304496746
 30
0.0
 10
197.0339922304011
 20
160.2153668073308
 30
0.0
 10
196.7487724371038
 20
159.7944126201148
 30
0.0
  0
LINE
  5
290
330
1F
100
AcDbEntity
  8
0
  6
Continuous
370
    15
100
AcDbLine
 10
261.5882435687
 20
162.1148419408
 30
0.0
 11
258.6005868263
 21
160.5276244564
 31
0.0
  0
SPLINE
  5
291
330
1F
100
AcDbEntity
  8
0
  6
Continuous
370
    15
100
AcDbSpline
210
0.0
220
0.0
230
1.0
 70
     8
 71
     3
 72
     9
 73
     5
 74
     0
 42
0.000000001
 43
0.00000001
 40
0.0
 40
0.0
 40
0.0
 40
0.0
 40
0.5555903663816342
 40
0.9999999999999999
 40
0.9999999999999999
 40
0.9999999999999999
 40
0.9999999999999999
 10
261.5882435686669
 20
162.1148419408105
 30
0.0
 10
261.6859111820685
 20
161.4671932638125
 30
0.0
 10
261.861701871237
 20
160.3014986870402
 30
0.0
 10
262.2791103234724
 20
159.268413826035
 30
0.0
 10
262.4646106607995
 20
158.8093009614591
 30
0.0
  0
SPLINE
  5
292
330
1F
100
AcDbEntity
  8
0
  6
Continuous
370
    15
100
AcDbSpline
210
0.0
220
0.0
230
1.0
 70
     8
 71
     3
 72
     9
 73
     5
 74
     0
 42
0.000000001
 43
0.00000001
 40
0.0
 40
0.0
 40
0.0
 40
0.0
 40
0.5540364151390655
 40
1.0
 40
1.0
 40
1.0
 40
1.0
 10
194.5873180277429
 20
162.3450042690411
 30
0.0
 10
194.4678421470865
 20
161.6731917926736
 30
0.0
 10
194.2521958873973
 20
160.460613597432
 30
0.0
 10
193.7383831413046
 20
159.3260318685672
 30
0.0
 10
193.5092413671098
 20
158.8200497334449
 30
0.0
  0
LINE
  5
293
330
1F
100
AcDbEntity
  8
0
  6
Continuous
370
    15
100
AcDbLine
 10
194.5873180277
 20
162.345004269
 30
0.0
 11
197.7008728184
 21
161.4219557559
 31
0.0
  0
SPLINE
  5
294
330
1F
100
AcDbEntity
  8
0
  6
Continuous
370
    15
100
AcDbSpline
210
0.0
220
0.0
230
1.0
 70
     8
 71
     3
 72
     9
 73
     5
 74
     0
 42
0.000000001
 43
0.00000001
 40
0.0
 40
0.0
 40
0.0
 40
0.0
 40
0.6977296754031358
 40
1.0
 40
1.0
 40
1.0
 40
1.0
 10
262.1481584258161
 20
161.3321498336248
 30
0.0
 10
262.2394392466758
 20
160.6846592168266
 30
0.0
 10
262.3702647283452
 20
159.7566628313726
 30
0.0
 10
262.7006591181432
 20
158.9389901635727
 30
0.0
 10
262.8005275375924
 20
158.6918319808629
 30
0.0
  0
SPLINE
  5
295
330
1F
100
AcDbEntity
  8
0
  6
Continuous
370
    15
100
AcDbSpline
210
0.0
220
0.0
230
1.0
 70
     8
 71
     3
 72
     9
 73
     5
 74
     0
 42
0.000000001
 43
0.00000001
 40
0.0
 40
0.0
 40
0.0
 40
0.0
 40
0.6820945856428939
 40
1.0
 40
1.0
 40
1.0
 40
1.0
 10
193.9473429567895
 20
161.5664340145879
 30
0.0
 10
193.8445027705944
 20
160.9015807360561
 30
0.0
 10
193.6937316189686
 20
159.9268577393838
 30
0.0
 10
193.3052709302216
 20
159.0069607651757
 30
0.0
 10
193.1817771740041
 20
158.7145205364243
 30
0.0
  0
SPLINE
  5
296
330
1F
100
AcDbEntity
  8
0
  6
Continuous
370
    15
100
AcDbSpline
210
0.0
220
0.0
230
1.0
 70
     8
 71
     3
 72
     8
 73
     4
 74
     0
 42
0.000000001
 43
0.00000001
 40
0.0
 40
0.0
 40
0.0
 40
0.0
 40
1.0
 40
1.0
 40
1.0
 40
1.0
 10
270.2508720220789
 20
122.9792433489034
 30
0.0
 10
269.9870860167536
 20
123.4272508829561
 30
0.0
 10
269.6975449701299
 20
123.8565227565091
 30
0.0
 10
269.3842596226105
 20
124.2687587379631
 30
0.0
  0
SPLINE
  5
297
330
1F
100
AcDbEntity
  8
0
  6
Continuous
370
    15
100
AcDbSpline
210
0.0
220
0.0
230
1.0
 70
     8
 71
     3
 72
    12
 73
     8
 74
     0
 42
0.000000001
 43
0.00000001
 40
0.0
 40
0.0
 40
0.0
 40
0.0
 40
0.0047259947424719
 40
0.2969101303065628
 40
0.5890998995548534
 40
0.7945686186986175
 40
1.0
 40
1.0
 40
1.0
 40
1.0
 10
261.7361413188062
 20
129.462202871388
 30
0.0
 10
261.751240888791
 20
129.4582723502058
 30
0.0
 10
262.6998698094865
 20
129.2113377639493
 30
0.0
 10
264.4134276086937
 20
128.3945702440317
 30
0.0
 10
266.529145812851
 20
127.1116676697062
 30
0.0
 10
268.1784018474549
 20
125.7075590488031
 30
0.0
 10
268.982331072475
 20
124.7483295243787
 30
0.0
 10
269.3842591590962
 20
124.2687583440015
 30
0.0
  0
SPLINE
  5
298
330
1F
100
AcDbEntity
  8
0
  6
Continuous
370
    15
100
AcDbSpline
210
0.0
220
0.0
230
1.0
 70
     8
 71
     3
 72
    10
 73
     6
 74
     0
 42
0.000000001
 43
0.00000001
 40
0.0
 40
0.0
 40
0.0
 40
0.0
 40
0.5
 40
0.5
 40
1.0
 40
1.0
 40
1.0
 40
1.0
 10
193.6839503502541
 20
161.0063885287045
 30
0.0
 10
193.7218439242468
 20
160.9962791650761
 30
0.0
 10
193.7566712664597
 20
160.9905080433575
 30
0.0
 10
193.8095903455491
 20
160.9899772878874
 30
0.0
 10
193.8272719594111
 20
160.9954070997679
 30
0.0
 10
193.8317375405881
 20
161.0060549707067
 30
0.0
  0
LINE
  5
299
330
1F
100
AcDbEntity
  8
0
  6
Continuous
370
    15
100
AcDbLine
 10
193.6839500315
 20
161.006388559
 30
0.0
 11
193.6595605559
 21
161.0128952254
 31
0.0
  0
LINE
  5
29A
330
1F
100
AcDbEntity
  8
0
  6
Continuous
370
    15
100
AcDbLine
 10
193.6624402053
 20
162.4689992083
 30
0.0
 11
191.2020722277
 21
162.2983718001
 31
0.0
  0
LINE
  5
29B
330
1F
100
AcDbEntity
  8
0
  6
Continuous
370
    15
100
AcDbLine
 10
262.2731083877
 20
161.006388559
 30
0.0
 11
262.2974978633
 21
161.0128952254
 31
0.0
  0
LINE
  5
29C
330
1F
100
AcDbEntity
  8
0
  6
Continuous
370
    15
100
AcDbLine
 10
262.2946182139
 20
162.4689992083
 30
0.0
 11
264.7549861915
 21
162.2983718001
 31
0.0
  0
LWPOLYLINE
  5
29D
330
1F
100
AcDbEntity
  8
0
  6
Continuous
370
    15
100
AcDbPolyline
 90
        6
 70
   128
 43
0.0
 10
264.7549861915
 20
162.2983718001
 10
265.5534574635
 20
162.2092273943
 10
266.2196026988
 20
162.0645572934
 10
266.697453136
 20
161.8765167447
 10
266.9468538709
 20
161.6609051441
 10
266.9784964867
 20
161.5447402254
  0
LWPOLYLINE
  5
29E
330
1F
100
AcDbEntity
  8
0
  6
Continuous
370
    15
100
AcDbPolyline
 90
        6
 70
   128
 43
0.0
 10
188.9785619326
 20
161.5447402254
 10
189.0102045484
 20
161.6609051441
 10
189.2596052833
 20
161.8765167447
 10
189.7374557204
 20
162.0645572934
 10
190.4036009557
 20
162.2092273943
 10
191.2020722277
 20
162.2983718001
  0
LWPOLYLINE
  5
29F
330
1F
100
AcDbEntity
  8
0
  6
Continuous
370
    15
100
AcDbPolyline
 90
       17
 70
   128
 43
0.0
 10
227.9785292096
 20
168.9432964194
 10
224.6886787809
 20
168.911052443
 10
221.4176722675
 20
168.8145046715
 10
218.1842455514
 20
168.6542055777
 10
215.0069203101
 20
168.4310749856
 10
211.9038941212
 20
168.1463894643
 10
208.8929431386
 20
167.8017803998
 10
205.9913126625
 20
167.3992204964
 10
203.2156212128
 20
166.9410170273
 10
200.581772054
 20
166.4297944799
 10
198.1048470236
 20
165.8684800927
 10
195.7990357525
 20
165.260289875
 10
193.6775462575
 20
164.608707395
 10
191.7525322981
 20
163.9174640142
 10
190.035013283
 20
163.1905200858
 10
188.5348351545
 20
162.4320394041
 10
187.8377625592
 20
162.0230262701
  0
LWPOLYLINE
  5
2A0
330
1F
100
AcDbEntity
  8
0
  6
Continuous
370
    15
100
AcDbPolyline
 90
       18
 70
   128
 43
0.0
 10
269.2998552568
 20
161.2030641777
 10
268.6964737125
 20
161.6463658234
 10
267.4222232647
 20
162.4320394041
 10
265.9220451362
 20
163.1905200858
 10
264.2045261211
 20
163.9174640142
 10
262.2795121617
 20
164.608707395
 10
260.1580226667
 20
165.260289875
 10
257.8522113956
 20
165.8684800927
 10
255.3752863653
 20
166.4297944799
 10
252.7414372064
 20
166.9410170273
 10
249.9657457568
 20
167.3992204964
 10
247.0641152806
 20
167.8017803998
 10
244.0531642981
 20
168.1463894643
 10
240.9501381092
 20
168.4310749856
 10
237.7728128679
 20
168.6542055777
 10
234.5393861517
 20
168.8145046715
 10
231.2683796383
 20
168.911052443
 10
227.9785292096
 20
168.9432964194
  0
ARC
  5
2A1
330
1F
100
AcDbEntity
  8
0
  6
Continuous
370
    15
100
AcDbCircle
 10
268.6991973057
 20
158.1679920296
 30
0.0
 40
3.264887053986642
100
AcDbArc
 50
328.0094801039
 51
32.2689420531
  0
LWPOLYLINE
  5
2A2
330
1F
100
AcDbEntity
  8
0
  6
Continuous
370
    15
100
AcDbPolyline
 90
        3
 70
   128
 43
0.0
 10
184.1580921657
 20
159.1954136858
 10
184.3640671916
 20
159.6718731058
 10
184.4920793421
 20
159.9024652155
  0
LINE
  5
2A3
330
1F
100
AcDbEntity
  8
0
  6
Continuous
370
    15
100
AcDbLine
 10
271.9785289712
 20
229.8876221377
 30
0.0
 11
271.9781340904
 21
229.9358813763
 31
0.0
  0
LWPOLYLINE
  5
2A4
330
1F
100
AcDbEntity
  8
0
  6
Continuous
370
    15
100
AcDbPolyline
 90
       17
 70
   128
 43
0.0
 10
227.9785292096
 20
168.8875950032
 10
231.2521031465
 20
168.8555101159
 10
234.5069263004
 20
168.7594396115
 10
237.724355223
 20
168.5999340346
 10
240.8859616019
 20
168.3779074241
 10
243.9736349381
 20
168.0946296
 10
246.9696903474
 20
167.7517251988
 10
249.8569654174
 20
167.3511582473
 10
252.6189217217
 20
166.8952215561
 10
255.2397416778
 20
166.3865280425
 10
257.7044123657
 20
165.8279914466
 10
259.9988149352
 20
165.2228099404
 10
262.1098065622
 20
164.5744507011
 10
264.0252986796
 20
163.8866277349
 10
265.7343203075
 20
163.1632801832
 10
267.2270776577
 20
162.4085515927
 10
268.1103290863
 20
161.8820979558
  0
LWPOLYLINE
  5
2A5
330
1F
100
AcDbEntity
  8
0
  6
Continuous
370
    15
100
AcDbPolyline
 90
       18
 70
   128
 43
0.0
 10
187.1801966674
 20
161.4269858763
 10
187.462033505
 20
161.626765329
 10
188.7299807615
 20
162.4085515927
 10
190.2227381117
 20
163.1632801832
 10
191.9317597396
 20
163.8866277349
 10
193.8472518571
 20
164.5744507011
 10
195.958243484
 20
165.2228099404
 10
198.2526460536
 20
165.8279914466
 10
200.7173167415
 20
166.3865280425
 10
203.3381366975
 20
166.8952215561
 10
206.1000930019
 20
167.3511582473
 10
208.9873680718
 20
167.7517251988
 10
211.9834234811
 20
168.0946296
 10
215.0710968174
 20
168.3779074241
 10
218.2327031962
 20
168.5999340346
 10
221.4501321189
 20
168.7594396115
 10
224.7049552727
 20
168.8555101159
 10
227.9785292096
 20
168.8875950032
  0
LWPOLYLINE
  5
2A6
330
1F
100
AcDbEntity
  8
0
  6
Continuous
370
    15
100
AcDbPolyline
 90
        8
 70
   128
 43
0.0
 10
270.8328420169
 20
157.9701365786
 10
270.8018103488
 20
158.3461072967
 10
270.5505059905
 20
159.1932929007
 10
270.049372489
 20
160.0330138535
 10
269.3013528235
 20
160.8603420101
 10
268.3108316608
 20
161.670422744
 10
267.0836241789
 20
162.4585017029
 10
265.9824618943
 20
163.0471186641
  0
LWPOLYLINE
  5
2A7
330
1F
100
AcDbEntity
  8
0
  6
Continuous
370
    15
100
AcDbPolyline
 90
        8
 70
   128
 43
0.0
 10
189.6580176301
 20
162.886724599
 10
188.8734342403
 20
162.4585017029
 10
187.6462267585
 20
161.670422744
 10
186.6557055957
 20
160.8603420101
 10
185.9076859303
 20
160.0330138535
 10
185.4065524287
 20
159.1932929007
 10
185.1552480705
 20
158.3461072967
 10
185.1463669784
 20
158.2811842293
  0
ARC
  5
2A8
330
1F
100
AcDbEntity
  8
0
  6
Continuous
370
    15
100
AcDbCircle
 10
191.6954837494
 20
162.0341507169
 30
0.0
 40
4.381833030730857
100
AcDbArc
 50
187.6395180349
 51
232.5759117789
  0
ARC
  5
2A9
330
1F
100
AcDbEntity
  8
0
  6
Continuous
370
    15
100
AcDbCircle
 10
262.4508436835
 20
163.742804496
 30
0.0
 40
6.850841562496504
100
AcDbArc
 50
310.7683295939
 51
320.5748613864
  0
ARC
  5
2AA
330
1F
100
AcDbEntity
  8
0
  6
Continuous
370
    15
100
AcDbCircle
 10
265.132115061
 20
161.6943815881
 30
0.0
 40
3.480874781852365
100
AcDbArc
 50
318.5913589964
 51
356.0010182269
  0
ARC
  5
2AB
330
1F
100
AcDbEntity
  8
0
  6
Continuous
370
    15
100
AcDbCircle
 10
202.0003312458
 20
5.3601644206
 30
0.0
 40
158.8626144732572
100
AcDbArc
 50
92.5707798872
 51
94.2476470789
  0
SPLINE
  5
2AC
330
1F
100
AcDbEntity
  8
0
  6
Continuous
370
    15
100
AcDbSpline
210
0.0
220
0.0
230
1.0
 70
     8
 71
     3
 72
     9
 73
     5
 74
     0
 42
0.000000001
 43
0.00000001
 40
0.0
 40
0.0
 40
0.0
 40
0.0
 40
0.9474693803515045
 40
1.0
 40
1.0
 40
1.0
 40
1.0
 10
261.4569010086141
 20
163.814607620968
 30
0.0
 10
261.4280996834674
 20
163.8095196853837
 30
0.0
 10
261.3977015241771
 20
163.8041496589852
 30
0.0
 10
261.3623936680258
 20
163.8032194298464
 30
0.0
 10
261.3605389244638
 20
163.8031705643334
 30
0.0
  0
ARC
  5
2AD
330
1F
100
AcDbEntity
  8
0
  6
Continuous
370
    15
100
AcDbCircle
 10
246.623480973
 20
244.8721619709
 30
0.0
 40
82.40362532766576
100
AcDbArc
 50
280.3703022982
 51
281.6591715041
  0
SPLINE
  5
2AE
330
1F
100
AcDbEntity
  8
0
  6
Continuous
370
    15
100
AcDbSpline
210
0.0
220
0.0
230
1.0
 70
     8
 71
     3
 72
    10
 73
     6
 74
     0
 42
0.000000001
 43
0.00000001
 40
0.0
 40
0.0
 40
0.0
 40
0.0
 40
0.5
 40
0.5
 40
1.0
 40
1.0
 40
1.0
 40
1.0
 10
267.4839019257753
 20
159.4517458929396
 30
0.0
 10
267.5508837942443
 20
159.4575249458534
 30
0.0
 10
267.6277250057809
 20
159.4533965230967
 30
0.0
 10
267.7325878039327
 20
159.4292215469084
 30
0.0
 10
267.7572904166116
 20
159.4099298437202
 30
0.0
 10
267.742811508519
 20
159.392044113829
 30
0.0
  0
LINE
  5
2AF
330
1F
100
AcDbEntity
  8
0
  6
Continuous
370
    15
100
AcDbLine
 10
266.9398428745
 20
159.4058156056
 30
0.0
 11
267.4839028962
 21
159.4517458204
 31
0.0
  0
ARC
  5
2B0
330
1F
100
AcDbEntity
  8
0
  6
Continuous
370
    15
100
AcDbCircle
 10
227.8291168413
 20
100.7486064843
 30
0.0
 40
141.1551979078065
100
AcDbArc
 50
77.3172686151
 51
101.6691815318
  0
LINE
  5
2B1
330
1F
100
AcDbEntity
  8
0
  6
Continuous
370
     0
100
AcDbLine
 10
192.8067074962
 20
148.504801237
 30
0.0
 11
189.5537616558
 21
147.6628769008
 31
0.0
  0
LINE
  5
2B2
330
1F
100
AcDbEntity
  8
0
  6
Continuous
370
     0
100
AcDbLine
 10
193.8986608632
 20
149.7547874807
 30
0.0
 11
194.0226534255
 21
150.0699631683
 31
0.0
  0
LINE
  5
2B3
330
1F
100
AcDbEntity
  8
0
  6
Continuous
370
     0
100
AcDbLine
 10
159.7033085175
 20
181.8178982219
 30
0.0
 11
159.5793234058
 21
181.5027225426
 31
0.0
  0
LINE
  5
2B4
330
1F
100
AcDbEntity
  8
0
  6
Continuous
370
     0
100
AcDbLine
 10
155.5513681717
 20
182.7174591193
 30
0.0
 11
155.675360734
 21
183.0326347423
 31
0.0
  0
LINE
  5
2B5
330
1F
100
AcDbEntity
  8
0
  6
Continuous
370
     0
100
AcDbLine
 10
152.8469340749
 20
182.3005840553
 30
0.0
 11
152.7229415126
 21
181.9854084322
 31
0.0
  0
LINE
  5
2B6
330
1F
100
AcDbEntity
  8
0
  6
Continuous
370
     0
100
AcDbLine
 10
167.3619093247
 20
168.6944195981
 30
0.0
 11
167.4858981617
 21
169.0095961853
 31
0.0
  0
LINE
  5
2B7
330
1F
100
AcDbEntity
  8
0
  6
Continuous
370
     0
100
AcDbLine
 10
179.1830154009
 20
157.7590189426
 30
0.0
 11
179.3070079632
 21
158.0741964295
 31
0.0
  0
LINE
  5
2B8
330
1F
100
AcDbEntity
  8
0
  6
Continuous
370
     0
100
AcDbLine
 10
197.0751153178
 20
114.6856133014
 30
0.0
 11
196.7923154928
 21
114.7655501156
 31
0.0
  0
LINE
  5
2B9
330
1F
100
AcDbEntity
  8
0
  6
Continuous
370
     0
100
AcDbLine
 10
197.1520406998
 20
115.3383478613
 30
0.0
 11
197.2889898218
 21
115.2996391132
 31
0.0
  0
LINE
  5
2BA
330
1F
100
AcDbEntity
  8
0
  6
Continuous
370
     0
100
AcDbLine
 10
195.5858746417
 20
141.5903179318
 30
0.0
 11
192.3329288013
 21
140.7483935956
 31
0.0
  0
LINE
  5
2BB
330
1F
100
AcDbEntity
  8
0
  6
Continuous
370
     0
100
AcDbLine
 10
197.7618688591
 20
140.7669041995
 30
0.0
 11
197.479069034
 21
140.8468419779
 31
0.0
  0
LINE
  5
2BC
330
1F
100
AcDbEntity
  8
0
  6
Continuous
370
     0
100
AcDbLine
 10
190.4283555098
 20
113.1184360697
 30
0.0
 11
190.7111534722
 21
113.0384987735
 31
0.0
  0
LINE
  5
2BD
330
1F
100
AcDbEntity
  8
0
  6
Continuous
370
     0
100
AcDbLine
 10
195.3565941997
 20
142.2302781962
 30
0.0
 11
195.6407965965
 21
142.1499437033
 31
0.0
  0
LINE
  5
2BE
330
1F
100
AcDbEntity
  8
0
  6
Continuous
370
     0
100
AcDbLine
 10
193.1617053099
 20
148.3178474232
 30
0.0
 11
193.0371018
 21
148.0011054137
 31
0.0
  0
LINE
  5
2BF
330
1F
100
AcDbEntity
  8
0
  6
Continuous
370
     0
100
AcDbLine
 10
269.9626961596
 20
99.3598865538
 30
0.0
 11
269.9595594652
 21
99.3604163154
 31
0.0
  0
LINE
  5
2C0
330
1F
100
AcDbEntity
  8
0
  6
Continuous
370
     0
100
AcDbLine
 10
185.9974989541
 20
99.3604163154
 30
0.0
 11
185.9943622596
 21
99.3598865538
 31
0.0
  0
LINE
  5
2C1
330
1F
100
AcDbEntity
  8
0
  6
Continuous
370
     0
100
AcDbLine
 10
232.3785291858
 20
123.6485350761
 30
0.0
 11
223.5785292335
 21
123.6485350761
 31
0.0
  0
LINE
  5
2C2
330
1F
100
AcDbEntity
  8
0
  6
Continuous
370
     0
100
AcDbLine
 10
232.3785291858
 20
126.4043773572
 30
0.0
 11
223.5785292335
 21
126.4043773572
 31
0.0
  0
LINE
  5
2C3
330
1F
100
AcDbEntity
  8
0
  6
Continuous
370
     0
100
AcDbLine
 10
232.3785291858
 20
130.9687803251
 30
0.0
 11
223.5785292335
 21
130.9687803251
 31
0.0
  0
LINE
  5
2C4
330
1F
100
AcDbEntity
  8
0
  6
Continuous
370
     0
100
AcDbLine
 10
232.3785291858
 20
132.2815171688
 30
0.0
 11
223.5785292335
 21
132.2815171688
 31
0.0
  0
LINE
  5
2C5
330
1F
100
AcDbEntity
  8
0
  6
Continuous
370
     0
100
AcDbLine
 10
231.3785292547
 20
136.546560682
 30
0.0
 11
231.3785292547
 21
136.6964053334
 31
0.0
  0
LINE
  5
2C6
330
1F
100
AcDbEntity
  8
0
  6
Continuous
370
     0
100
AcDbLine
 10
224.5785291645
 20
136.6964053334
 30
0.0
 11
224.5785291645
 21
136.546560682
 31
0.0
  0
LINE
  5
2C7
330
1F
100
AcDbEntity
  8
0
  6
Continuous
370
     0
100
AcDbLine
 10
173.1497922785
 20
98.4322153388
 30
0.0
 11
173.1838600583
 21
98.0321032901
 31
0.0
  0
LINE
  5
2C8
330
1F
100
AcDbEntity
  8
0
  6
Continuous
370
     0
100
AcDbLine
 10
282.8073518224
 20
98.4349926555
 30
0.0
 11
282.8028479464
 21
98.7572220182
 31
0.0
  0
LWPOLYLINE
  5
2C9
330
1F
100
AcDbEntity
  8
0
  6
Continuous
370
     0
100
AcDbPolyline
 90
       15
 70
   128
 43
0.0
 10
262.2214013584
 20
109.8752417994
 10
263.8040164359
 20
109.5366761906
 10
266.5395790584
 20
108.8860636717
 10
269.0991999455
 20
108.189136955
 10
271.4711965866
 20
107.4490758931
 10
273.6447432883
 20
106.6692584769
 10
275.609927053
 20
105.853242034
 10
277.3577773817
 20
105.0047502125
 10
278.8803258784
 20
104.1276536972
 10
280.1706174262
 20
103.2259552651
 10
281.2227697916
 20
102.3037690555
 10
282.0319810755
 20
101.3653024918
 10
282.5945595152
 20
100.4148378415
 10
282.9079383857
 20
99.4567116673
 10
282.9785289116
 20
98.7357183323
  0
LWPOLYLINE
  5
2CA
330
1F
100
AcDbEntity
  8
0
  6
Continuous
370
     0
100
AcDbPolyline
 90
       41
 70
   128
 43
0.0
 10
182.2702677794
 20
96.3907885893
 10
182.6678978152
 20
95.6962567655
 10
183.3869458981
 20
94.8377040076
 10
184.3484992035
 20
93.9952009248
 10
185.5473274238
 20
93.1733292816
 10
186.9769150264
 20
92.3765582753
 10
188.6294836052
 20
91.6092216364
 10
190.4960477598
 20
90.8754923188
 10
192.5664597995
 20
90.1793600831
 10
194.8294507213
 20
89.5246112489
 10
197.2727214791
 20
88.9148074826
 10
199.8829820998
 20
88.3532626573
 10
202.6460373647
 20
87.8430332113
 10
205.5468594529
 20
87.386893079
 10
208.5696736224
 20
86.9873221213
 10
211.6980401672
 20
86.6464945554
 10
214.9149475492
 20
86.3662625635
 10
218.2028990112
 20
86.1481514721
 10
221.544014091
 20
85.9933472177
 10
224.9201224524
 20
85.9026915262
 10
228.3128635947
 20
85.8766770914
 10
231.7037864461
 20
85.9154456473
 10
235.0744500629
 20
86.0187860393
 10
238.4065229319
 20
86.186137117
 10
241.6818847753
 20
86.4165877339
 10
244.8827231176
 20
86.7088854253
 10
247.9916287459
 20
87.0614393006
 10
250.9916962929
 20
87.4723335421
 10
253.866608987
 20
87.9393331896
 10
256.6007336475
 20
88.4598986032
 10
259.1791989155
 20
89.0311979978
 10
261.5879827983
 20
89.6501247982
 10
263.8139853127
 20
90.3133130656
 10
265.8451029904
 20
91.0171562994
 10
267.6702866204
 20
91.7578267206
 10
269.279608304
 20
92.5312960015
 10
270.664324785
 20
93.333357924
 10
271.8168960757
 20
94.1596507966
 10
272.7310562379
 20
95.0056803534
 10
273.4018394597
 20
95.8668460285
 10
273.7174572296
 20
96.4596740287
  0
LINE
  5
2CB
330
1F
100
AcDbEntity
  8
0
  6
Continuous
370
     0
100
AcDbLine
 10
202.9843905814
 20
107.4766698858
 30
0.0
 11
202.9964791484
 21
108.2509282318
 31
0.0
  0
LINE
  5
2CC
330
1F
100
AcDbEntity
  8
0
  6
Continuous
370
     0
100
AcDbLine
 10
272.5075201936
 20
120.6512702019
 30
0.0
 11
275.127010221
 21
120.6512702019
 31
0.0
  0
LINE
  5
2CD
330
1F
100
AcDbEntity
  8
0
  6
Continuous
370
     0
100
AcDbLine
 10
180.8300481982
 20
120.6512702019
 30
0.0
 11
183.4495382257
 21
120.6512702019
 31
0.0
  0
LINE
  5
2CE
330
1F
100
AcDbEntity
  8
0
  6
Continuous
370
     0
100
AcDbLine
 10
182.7810870357
 20
150.9044420532
 30
0.0
 11
183.457704062
 21
120.5476139981
 31
0.0
  0
LINE
  5
2CF
330
1F
100
AcDbEntity
  8
0
  6
Continuous
370
     0
100
AcDbLine
 10
272.4992127962
 20
120.5412311038
 30
0.0
 11
273.1759713836
 21
150.9044420532
 31
0.0
  0
LINE
  5
2D0
330
1F
100
AcDbEntity
  8
0
  6
Continuous
370
     0
100
AcDbLine
 10
184.4242082782
 20
121.0972433145
 30
0.0
 11
183.7699653454
 21
150.7531917584
 31
0.0
  0
LINE
  5
2D1
330
1F
100
AcDbEntity
  8
0
  6
Continuous
370
     0
100
AcDbLine
 10
272.1893319733
 20
150.8548362401
 30
0.0
 11
271.53270858
 21
121.0908282761
 31
0.0
  0
LINE
  5
2D2
330
1F
100
AcDbEntity
  8
0
  6
Continuous
370
     0
100
AcDbLine
 10
275.9785296269
 20
116.6333242066
 30
0.0
 11
275.9785296269
 21
117.2863119731
 31
0.0
  0
LINE
  5
2D3
330
1F
100
AcDbEntity
  8
0
  6
Continuous
370
     0
100
AcDbLine
 10
179.9785287924
 20
116.6333242066
 30
0.0
 11
179.9785287924
 21
117.2863119731
 31
0.0
  0
LINE
  5
2D4
330
1F
100
AcDbEntity
  8
0
  6
Continuous
370
     0
100
AcDbLine
 10
179.6785274394
 20
115.9298025255
 30
0.0
 11
179.6785274394
 21
117.2086663915
 31
0.0
  0
LINE
  5
2D5
330
1F
100
AcDbEntity
  8
0
  6
Continuous
370
     0
100
AcDbLine
 10
276.2785309799
 20
115.9298025255
 30
0.0
 11
276.2785309799
 21
117.2086663915
 31
0.0
  0
LINE
  5
2D6
330
1F
100
AcDbEntity
  8
0
  6
Continuous
370
     0
100
AcDbLine
 10
182.7039474495
 20
150.1924508247
 30
0.0
 11
180.1453249402
 21
150.1924508247
 31
0.0
  0
LINE
  5
2D7
330
1F
100
AcDbEntity
  8
0
  6
Continuous
370
     0
100
AcDbLine
 10
275.811733479
 20
150.1924508247
 30
0.0
 11
273.2531109698
 21
150.1924508247
 31
0.0
  0
LINE
  5
2D8
330
1F
100
AcDbEntity
  8
0
  6
Continuous
370
     0
100
AcDbLine
 10
275.9785296269
 20
118.5651725774
 30
0.0
 11
275.9785296269
 21
119.218160344
 31
0.0
  0
LINE
  5
2D9
330
1F
100
AcDbEntity
  8
0
  6
Continuous
370
     0
100
AcDbLine
 10
179.9785287924
 20
118.5651725774
 30
0.0
 11
179.9785287924
 21
119.218160344
 31
0.0
  0
LINE
  5
2DA
330
1F
100
AcDbEntity
  8
0
  6
Continuous
370
     0
100
AcDbLine
 10
276.2785309799
 20
117.8616508964
 30
0.0
 11
276.2785309799
 21
119.1405147624
 31
0.0
  0
LINE
  5
2DB
330
1F
100
AcDbEntity
  8
0
  6
Continuous
370
     0
100
AcDbLine
 10
179.6785274394
 20
117.8616508964
 30
0.0
 11
179.6785274394
 21
119.1405147624
 31
0.0
  0
LINE
  5
2DC
330
1F
100
AcDbEntity
  8
0
  6
Continuous
370
     0
100
AcDbLine
 10
179.9785287924
 20
120.4970245467
 30
0.0
 11
179.9785287924
 21
121.1500123133
 31
0.0
  0
LINE
  5
2DD
330
1F
100
AcDbEntity
  8
0
  6
Continuous
370
     0
100
AcDbLine
 10
275.9785296269
 20
120.4970245467
 30
0.0
 11
275.9785296269
 21
121.1500123133
 31
0.0
  0
LINE
  5
2DE
330
1F
100
AcDbEntity
  8
0
  6
Continuous
370
     0
100
AcDbLine
 10
179.6785274394
 20
119.7935028656
 30
0.0
 11
179.6785274394
 21
121.0723667316
 31
0.0
  0
LINE
  5
2DF
330
1F
100
AcDbEntity
  8
0
  6
Continuous
370
     0
100
AcDbLine
 10
276.2785309799
 20
119.7935028656
 30
0.0
 11
276.2785309799
 21
121.0723667316
 31
0.0
  0
LINE
  5
2E0
330
1F
100
AcDbEntity
  8
0
  6
Continuous
370
     0
100
AcDbLine
 10
179.9785287924
 20
122.4288765159
 30
0.0
 11
179.9785287924
 21
123.0818642825
 31
0.0
  0
LINE
  5
2E1
330
1F
100
AcDbEntity
  8
0
  6
Continuous
370
     0
100
AcDbLine
 10
275.9785296269
 20
122.4288765159
 30
0.0
 11
275.9785296269
 21
123.0818642825
 31
0.0
  0
LINE
  5
2E2
330
1F
100
AcDbEntity
  8
0
  6
Continuous
370
     0
100
AcDbLine
 10
179.6785274394
 20
121.7253548348
 30
0.0
 11
179.6785274394
 21
123.0042187009
 31
0.0
  0
LINE
  5
2E3
330
1F
100
AcDbEntity
  8
0
  6
Continuous
370
     0
100
AcDbLine
 10
276.2785309799
 20
121.7253548348
 30
0.0
 11
276.2785309799
 21
123.0042187009
 31
0.0
  0
LINE
  5
2E4
330
1F
100
AcDbEntity
  8
0
  6
Continuous
370
     0
100
AcDbLine
 10
179.9785287924
 20
124.3607284851
 30
0.0
 11
179.9785287924
 21
125.0137162517
 31
0.0
  0
LINE
  5
2E5
330
1F
100
AcDbEntity
  8
0
  6
Continuous
370
     0
100
AcDbLine
 10
275.9785296269
 20
124.3607284851
 30
0.0
 11
275.9785296269
 21
125.0137162517
 31
0.0
  0
LINE
  5
2E6
330
1F
100
AcDbEntity
  8
0
  6
Continuous
370
     0
100
AcDbLine
 10
276.2785309799
 20
123.6572068041
 30
0.0
 11
276.2785309799
 21
124.9360706701
 31
0.0
  0
LINE
  5
2E7
330
1F
100
AcDbEntity
  8
0
  6
Continuous
370
     0
100
AcDbLine
 10
179.6785274394
 20
123.6572068041
 30
0.0
 11
179.6785274394
 21
124.9360706701
 31
0.0
  0
LINE
  5
2E8
330
1F
100
AcDbEntity
  8
0
  6
Continuous
370
     0
100
AcDbLine
 10
275.9785296269
 20
126.2925804544
 30
0.0
 11
275.9785296269
 21
126.945568221
 31
0.0
  0
LINE
  5
2E9
330
1F
100
AcDbEntity
  8
0
  6
Continuous
370
     0
100
AcDbLine
 10
179.9785287924
 20
126.2925804544
 30
0.0
 11
179.9785287924
 21
126.945568221
 31
0.0
  0
LINE
  5
2EA
330
1F
100
AcDbEntity
  8
0
  6
Continuous
370
     0
100
AcDbLine
 10
179.6785274394
 20
125.5890587733
 30
0.0
 11
179.6785274394
 21
126.8679226393
 31
0.0
  0
LINE
  5
2EB
330
1F
100
AcDbEntity
  8
0
  6
Continuous
370
     0
100
AcDbLine
 10
276.2785309799
 20
125.5890587733
 30
0.0
 11
276.2785309799
 21
126.8679226393
 31
0.0
  0
LINE
  5
2EC
330
1F
100
AcDbEntity
  8
0
  6
Continuous
370
     0
100
AcDbLine
 10
275.9785296269
 20
128.2244324236
 30
0.0
 11
275.9785296269
 21
128.8774201902
 31
0.0
  0
LINE
  5
2ED
330
1F
100
AcDbEntity
  8
0
  6
Continuous
370
     0
100
AcDbLine
 10
179.9785287924
 20
128.2244324236
 30
0.0
 11
179.9785287924
 21
128.8774201902
 31
0.0
  0
LINE
  5
2EE
330
1F
100
AcDbEntity
  8
0
  6
Continuous
370
     0
100
AcDbLine
 10
179.6785274394
 20
127.5209107425
 30
0.0
 11
179.6785274394
 21
128.7997746086
 31
0.0
  0
LINE
  5
2EF
330
1F
100
AcDbEntity
  8
0
  6
Continuous
370
     0
100
AcDbLine
 10
276.2785309799
 20
127.5209107425
 30
0.0
 11
276.2785309799
 21
128.7997746086
 31
0.0
  0
LINE
  5
2F0
330
1F
100
AcDbEntity
  8
0
  6
Continuous
370
     0
100
AcDbLine
 10
179.9785287924
 20
130.1562843928
 30
0.0
 11
179.9785287924
 21
130.8092721594
 31
0.0
  0
LINE
  5
2F1
330
1F
100
AcDbEntity
  8
0
  6
Continuous
370
     0
100
AcDbLine
 10
275.9785296269
 20
130.1562843928
 30
0.0
 11
275.9785296269
 21
130.8092721594
 31
0.0
  0
LINE
  5
2F2
330
1F
100
AcDbEntity
  8
0
  6
Continuous
370
     0
100
AcDbLine
 10
276.2785309799
 20
129.4527627118
 30
0.0
 11
276.2785309799
 21
130.7316265778
 31
0.0
  0
LINE
  5
2F3
330
1F
100
AcDbEntity
  8
0
  6
Continuous
370
     0
100
AcDbLine
 10
179.6785274394
 20
129.4527627118
 30
0.0
 11
179.6785274394
 21
130.7316265778
 31
0.0
  0
LINE
  5
2F4
330
1F
100
AcDbEntity
  8
0
  6
Continuous
370
     0
100
AcDbLine
 10
179.9785287924
 20
132.0881363621
 30
0.0
 11
179.9785287924
 21
132.7411241287
 31
0.0
  0
LINE
  5
2F5
330
1F
100
AcDbEntity
  8
0
  6
Continuous
370
     0
100
AcDbLine
 10
275.9785296269
 20
132.0881363621
 30
0.0
 11
275.9785296269
 21
132.7411241287
 31
0.0
  0
LINE
  5
2F6
330
1F
100
AcDbEntity
  8
0
  6
Continuous
370
     0
100
AcDbLine
 10
179.6785274394
 20
131.384614681
 30
0.0
 11
179.6785274394
 21
132.663478547
 31
0.0
  0
LINE
  5
2F7
330
1F
100
AcDbEntity
  8
0
  6
Continuous
370
     0
100
AcDbLine
 10
276.2785309799
 20
131.384614681
 30
0.0
 11
276.2785309799
 21
132.663478547
 31
0.0
  0
LINE
  5
2F8
330
1F
100
AcDbEntity
  8
0
  6
Continuous
370
     0
100
AcDbLine
 10
179.9785287924
 20
134.0199883313
 30
0.0
 11
179.9785287924
 21
134.6729760979
 31
0.0
  0
LINE
  5
2F9
330
1F
100
AcDbEntity
  8
0
  6
Continuous
370
     0
100
AcDbLine
 10
275.9785296269
 20
134.0199883313
 30
0.0
 11
275.9785296269
 21
134.6729760979
 31
0.0
  0
LINE
  5
2FA
330
1F
100
AcDbEntity
  8
0
  6
Continuous
370
     0
100
AcDbLine
 10
276.2785309799
 20
133.3164666502
 30
0.0
 11
276.2785309799
 21
134.5953305163
 31
0.0
  0
LINE
  5
2FB
330
1F
100
AcDbEntity
  8
0
  6
Continuous
370
     0
100
AcDbLine
 10
179.6785274394
 20
133.3164666502
 30
0.0
 11
179.6785274394
 21
134.5953305163
 31
0.0
  0
LINE
  5
2FC
330
1F
100
AcDbEntity
  8
0
  6
Continuous
370
     0
100
AcDbLine
 10
275.9785296269
 20
135.9518385014
 30
0.0
 11
275.9785296269
 21
136.6048262679
 31
0.0
  0
LINE
  5
2FD
330
1F
100
AcDbEntity
  8
0
  6
Continuous
370
     0
100
AcDbLine
 10
179.9785287924
 20
135.9518385014
 30
0.0
 11
179.9785287924
 21
136.6048262679
 31
0.0
  0
LINE
  5
2FE
330
1F
100
AcDbEntity
  8
0
  6
Continuous
370
     0
100
AcDbLine
 10
179.6785274394
 20
135.2483168203
 30
0.0
 11
179.6785274394
 21
136.5271806863
 31
0.0
  0
LINE
  5
2FF
330
1F
100
AcDbEntity
  8
0
  6
Continuous
370
     0
100
AcDbLine
 10
276.2785309799
 20
135.2483168203
 30
0.0
 11
276.2785309799
 21
136.5271806863
 31
0.0
  0
LINE
  5
300
330
1F
100
AcDbEntity
  8
0
  6
Continuous
370
     0
100
AcDbLine
 10
275.9785296269
 20
137.8836904706
 30
0.0
 11
275.9785296269
 21
138.5366782372
 31
0.0
  0
LINE
  5
301
330
1F
100
AcDbEntity
  8
0
  6
Continuous
370
     0
100
AcDbLine
 10
179.9785287924
 20
137.8836904706
 30
0.0
 11
179.9785287924
 21
138.5366782372
 31
0.0
  0
LINE
  5
302
330
1F
100
AcDbEntity
  8
0
  6
Continuous
370
     0
100
AcDbLine
 10
179.6785274394
 20
137.1801687895
 30
0.0
 11
179.6785274394
 21
138.4590326555
 31
0.0
  0
LINE
  5
303
330
1F
100
AcDbEntity
  8
0
  6
Continuous
370
     0
100
AcDbLine
 10
276.2785309799
 20
137.1801687895
 30
0.0
 11
276.2785309799
 21
138.4590326555
 31
0.0
  0
LINE
  5
304
330
1F
100
AcDbEntity
  8
0
  6
Continuous
370
     0
100
AcDbLine
 10
179.9785287924
 20
139.8155424398
 30
0.0
 11
179.9785287924
 21
140.4685302064
 31
0.0
  0
LINE
  5
305
330
1F
100
AcDbEntity
  8
0
  6
Continuous
370
     0
100
AcDbLine
 10
275.9785296269
 20
139.8155424398
 30
0.0
 11
275.9785296269
 21
140.4685302064
 31
0.0
  0
LINE
  5
306
330
1F
100
AcDbEntity
  8
0
  6
Continuous
370
     0
100
AcDbLine
 10
276.2785309799
 20
139.1120207587
 30
0.0
 11
276.2785309799
 21
140.3908846248
 31
0.0
  0
LINE
  5
307
330
1F
100
AcDbEntity
  8
0
  6
Continuous
370
     0
100
AcDbLine
 10
179.6785274394
 20
139.1120207587
 30
0.0
 11
179.6785274394
 21
140.3908846248
 31
0.0
  0
LINE
  5
308
330
1F
100
AcDbEntity
  8
0
  6
Continuous
370
     0
100
AcDbLine
 10
275.9785296269
 20
141.7473944091
 30
0.0
 11
275.9785296269
 21
142.4003821756
 31
0.0
  0
LINE
  5
309
330
1F
100
AcDbEntity
  8
0
  6
Continuous
370
     0
100
AcDbLine
 10
179.9785287924
 20
141.7473944091
 30
0.0
 11
179.9785287924
 21
142.4003821756
 31
0.0
  0
LINE
  5
30A
330
1F
100
AcDbEntity
  8
0
  6
Continuous
370
     0
100
AcDbLine
 10
276.2785309799
 20
141.043872728
 30
0.0
 11
276.2785309799
 21
142.322736594
 31
0.0
  0
LINE
  5
30B
330
1F
100
AcDbEntity
  8
0
  6
Continuous
370
     0
100
AcDbLine
 10
179.6785274394
 20
141.043872728
 30
0.0
 11
179.6785274394
 21
142.322736594
 31
0.0
  0
LINE
  5
30C
330
1F
100
AcDbEntity
  8
0
  6
Continuous
370
     0
100
AcDbLine
 10
275.9785296269
 20
143.6792463783
 30
0.0
 11
275.9785296269
 21
144.3322341449
 31
0.0
  0
LINE
  5
30D
330
1F
100
AcDbEntity
  8
0
  6
Continuous
370
     0
100
AcDbLine
 10
179.9785287924
 20
143.6792463783
 30
0.0
 11
179.9785287924
 21
144.3322341449
 31
0.0
  0
LINE
  5
30E
330
1F
100
AcDbEntity
  8
0
  6
Continuous
370
     0
100
AcDbLine
 10
179.6785274394
 20
142.9757246972
 30
0.0
 11
179.6785274394
 21
144.2545885632
 31
0.0
  0
LINE
  5
30F
330
1F
100
AcDbEntity
  8
0
  6
Continuous
370
     0
100
AcDbLine
 10
276.2785309799
 20
142.9757246972
 30
0.0
 11
276.2785309799
 21
144.2545885632
 31
0.0
  0
LINE
  5
310
330
1F
100
AcDbEntity
  8
0
  6
Continuous
370
     0
100
AcDbLine
 10
275.9785296269
 20
145.6110983475
 30
0.0
 11
275.9785296269
 21
146.2640861141
 31
0.0
  0
LINE
  5
311
330
1F
100
AcDbEntity
  8
0
  6
Continuous
370
     0
100
AcDbLine
 10
179.9785287924
 20
145.6110983475
 30
0.0
 11
179.9785287924
 21
146.2640861141
 31
0.0
  0
LINE
  5
312
330
1F
100
AcDbEntity
  8
0
  6
Continuous
370
     0
100
AcDbLine
 10
179.6785274394
 20
144.9075766664
 30
0.0
 11
179.6785274394
 21
146.1864405325
 31
0.0
  0
LINE
  5
313
330
1F
100
AcDbEntity
  8
0
  6
Continuous
370
     0
100
AcDbLine
 10
276.2785309799
 20
144.9075766664
 30
0.0
 11
276.2785309799
 21
146.1864405325
 31
0.0
  0
LINE
  5
314
330
1F
100
AcDbEntity
  8
0
  6
Continuous
370
     0
100
AcDbLine
 10
179.9785287924
 20
147.5429485176
 30
0.0
 11
179.9785287924
 21
148.1959362842
 31
0.0
  0
LINE
  5
315
330
1F
100
AcDbEntity
  8
0
  6
Continuous
370
     0
100
AcDbLine
 10
275.9785296269
 20
147.5429485176
 30
0.0
 11
275.9785296269
 21
148.1959362842
 31
0.0
  0
LINE
  5
316
330
1F
100
AcDbEntity
  8
0
  6
Continuous
370
     0
100
AcDbLine
 10
179.6785274394
 20
146.8394268365
 30
0.0
 11
179.6785274394
 21
148.1182907025
 31
0.0
  0
LINE
  5
317
330
1F
100
AcDbEntity
  8
0
  6
Continuous
370
     0
100
AcDbLine
 10
276.2785309799
 20
146.8394268365
 30
0.0
 11
276.2785309799
 21
148.1182907025
 31
0.0
  0
LINE
  5
318
330
1F
100
AcDbEntity
  8
0
  6
Continuous
370
     0
100
AcDbLine
 10
275.9785296269
 20
149.4748004868
 30
0.0
 11
275.9785296269
 21
150.1277882534
 31
0.0
  0
LINE
  5
319
330
1F
100
AcDbEntity
  8
0
  6
Continuous
370
     0
100
AcDbLine
 10
179.9785287924
 20
149.4748004868
 30
0.0
 11
179.9785287924
 21
150.1277882534
 31
0.0
  0
LINE
  5
31A
330
1F
100
AcDbEntity
  8
0
  6
Continuous
370
     0
100
AcDbLine
 10
276.2785309799
 20
148.7712788057
 30
0.0
 11
276.2785309799
 21
150.0501426718
 31
0.0
  0
LINE
  5
31B
330
1F
100
AcDbEntity
  8
0
  6
Continuous
370
     0
100
AcDbLine
 10
179.6785274394
 20
148.7712788057
 30
0.0
 11
179.6785274394
 21
150.0501426718
 31
0.0
  0
LINE
  5
31C
330
1F
100
AcDbEntity
  8
0
  6
Continuous
370
     0
100
AcDbLine
 10
273.6656160898
 20
99.1120849894
 30
0.0
 11
273.6656160898
 21
99.2325290982
 31
0.0
  0
LINE
  5
31D
330
1F
100
AcDbEntity
  8
0
  6
Continuous
370
     0
100
AcDbLine
 10
273.6275138207
 20
98.7590981794
 30
0.0
 11
273.6275138207
 21
99.2420620713
 31
0.0
  0
LINE
  5
31E
330
1F
100
AcDbEntity
  8
0
  6
Continuous
370
     0
100
AcDbLine
 10
272.6579064376
 20
98.6551669304
 30
0.0
 11
272.6579064376
 21
98.6475744032
 31
0.0
  0
LINE
  5
31F
330
1F
100
AcDbEntity
  8
0
  6
Continuous
370
     0
100
AcDbLine
 10
272.8913331277
 20
98.4697165075
 30
0.0
 11
272.8913331277
 21
97.5037743303
 31
0.0
  0
LINE
  5
320
330
1F
100
AcDbEntity
  8
0
  6
Continuous
370
     0
100
AcDbLine
 10
273.4661081679
 20
97.5037743303
 30
0.0
 11
273.4661081679
 21
98.4697165075
 31
0.0
  0
LINE
  5
321
330
1F
100
AcDbEntity
  8
0
  6
Continuous
370
     0
100
AcDbLine
 10
272.8573659308
 20
97.3743647866
 30
0.0
 11
272.8573659308
 21
96.8914008947
 31
0.0
  0
LINE
  5
322
330
1F
100
AcDbEntity
  8
0
  6
Continuous
370
     0
100
AcDbLine
 10
273.4281698115
 20
96.8914008947
 30
0.0
 11
273.4281698115
 21
97.3743647866
 31
0.0
  0
LINE
  5
323
330
1F
100
AcDbEntity
  8
0
  6
Continuous
370
     0
100
AcDbLine
 10
197.9843953497
 20
130.897521081
 30
0.0
 11
197.9978380598
 21
129.1951517715
 31
0.0
  0
LWPOLYLINE
  5
324
330
1F
100
AcDbEntity
  8
0
  6
Continuous
370
     0
100
AcDbPolyline
 90
        5
 70
   128
 43
0.0
 10
197.6133415349
 20
129.1817565764
 10
197.759853477
 20
129.1918954302
 10
197.9977784551
 20
129.1951515907
 10
197.9978380598
 20
129.1951517715
 10
197.9978380598
 20
129.1951517715
  0
SPLINE
  5
325
330
1F
100
AcDbEntity
  8
0
  6
Continuous
370
     0
100
AcDbSpline
210
0.0
220
0.0
230
1.0
 70
     8
 71
     3
 72
    14
 73
    10
 74
     0
 42
0.000000001
 43
0.00000001
 40
0.0
 40
0.0
 40
0.0
 40
0.0
 40
0.0000115013175812
 40
0.1921373153165546
 40
0.3843245340932699
 40
0.5765546987529602
 40
0.7683753736718796
 40
0.960251585922134
 40
1.0
 40
1.0
 40
1.0
 40
1.0
 10
257.9592203594527
 20
129.1951517714548
 30
0.0
 10
257.9592402276651
 20
129.1951517112115
 30
0.0
 10
258.2911521982487
 20
129.1941453061619
 30
0.0
 10
258.9593634747338
 20
129.1624637264161
 30
0.0
 10
259.8385939891764
 20
129.032443267114
 30
0.0
 10
260.5096610323175
 20
128.8336483062141
 30
0.0
 10
260.8605577590725
 20
128.5911287825238
 30
0.0
 10
260.9503011345237
 20
128.3941212900041
 30
0.0
 10
260.8225252331551
 20
128.295664704518
 30
0.0
 10
260.8005979902825
 20
128.2787688623503
 30
0.0
  0
LINE
  5
326
330
1F
100
AcDbEntity
  8
0
  6
Continuous
370
     0
100
AcDbLine
 10
257.9726630695
 20
130.897521081
 30
0.0
 11
257.9592203595
 21
129.1951517715
 31
0.0
  0
LWPOLYLINE
  5
327
330
1F
100
AcDbEntity
  8
0
  6
Continuous
370
     0
100
AcDbPolyline
 90
        3
 70
   128
 43
0.0
 10
197.9978380598
 20
129.1951517715
 10
199.9976819254
 20
129.2016389289
 10
203.6898432173
 20
129.2135823587
  0
LWPOLYLINE
  5
328
330
1F
100
AcDbEntity
  8
0
  6
Continuous
370
     0
100
AcDbPolyline
 90
        3
 70
   128
 43
0.0
 10
252.267215202
 20
129.2135823587
 10
254.2670590676
 20
129.2071194865
 10
257.9592203595
 20
129.1951517715
  0
ARC
  5
329
330
1F
100
AcDbEntity
  8
0
  6
Continuous
370
     0
100
AcDbCircle
 10
258.0466959509
 20
127.4658382851
 30
0.0
 40
0.0979523261800187
100
AcDbArc
 50
175.2890848317
 51
195.4021006455
  0
SPLINE
  5
32A
330
1F
100
AcDbEntity
  8
0
  6
Continuous
370
     0
100
AcDbSpline
210
0.0
220
0.0
230
1.0
 70
     8
 71
     3
 72
    17
 73
    13
 74
     0
 42
0.000000001
 43
0.00000001
 40
0.0
 40
0.0
 40
0.0
 40
0.0
 40
0.0259367015005825
 40
0.1342613826546499
 40
0.2424032957017853
 40
0.3505259851691876
 40
0.4584718498937558
 40
0.5666062611484822
 40
0.6747580530220258
 40
0.7831466829967818
 40
0.8915746943102025
 40
1.0
 40
1.0
 40
1.0
 40
1.0
 10
257.9490745313249
 20
127.4738829501842
 30
0.0
 10
258.006792426303
 20
127.4744500962796
 30
0.0
 10
258.3055692149975
 20
127.4773859290776
 30
0.0
 10
258.8383138441543
 20
127.5151799717044
 30
0.0
 10
259.4465715643627
 20
127.6221340728355
 30
0.0
 10
259.8835259452575
 20
127.7754554561282
 30
0.0
 10
260.099853794622
 20
127.9574369235723
 30
0.0
 10
260.0711917770518
 20
128.1476773776922
 30
0.0
 10
259.8001113521873
 20
128.325259008152
 30
0.0
 10
259.3167721957346
 20
128.4684760804008
 30
0.0
 10
258.6757997940454
 20
128.5667477710215
 30
0.0
 10
258.1913142706309
 20
128.5806563625556
 30
0.0
 10
257.9490745313249
 20
128.5876105715557
 30
0.0
  0
ARC
  5
32B
330
1F
100
AcDbEntity
  8
0
  6
Continuous
370
     0
100
AcDbCircle
 10
236.1580194734
 20
129.2553725655
 30
0.0
 40
21.8012840588815
100
AcDbArc
 50
358.2447855477999
 51
359.8417340137
  0
SPLINE
  5
32C
330
1F
100
AcDbEntity
  8
0
  6
Continuous
370
     0
100
AcDbSpline
210
0.0
220
0.0
230
1.0
 70
     8
 71
     3
 72
     9
 73
     5
 74
     0
 42
0.000000001
 43
0.00000001
 40
0.0
 40
0.0
 40
0.0
 40
0.0
 40
0.4217660602431826
 40
0.9999999999999999
 40
0.9999999999999999
 40
0.9999999999999999
 40
0.9999999999999999
 10
198.007983887919
 20
128.5876105715557
 30
0.0
 10
197.9499160468721
 20
128.5874667133647
 30
0.0
 10
197.8122382047685
 20
128.5871256280937
 30
0.0
 10
197.6812387920685
 20
128.5758702654459
 30
0.0
 10
197.6054904855571
 20
128.5693620327586
 30
0.0
  0
LINE
  5
32D
330
1F
100
AcDbEntity
  8
0
  6
Continuous
370
     0
100
AcDbLine
 10
197.5916994609
 20
127.4936125237
 30
0.0
 11
198.0079838879
 21
127.4738829502
 31
0.0
  0
ARC
  5
32E
330
1F
100
AcDbEntity
  8
0
  6
Continuous
370
     0
100
AcDbCircle
 10
197.8983988551
 20
127.4666813579
 30
0.0
 40
0.1098214111193473
100
AcDbArc
 50
345.8897876337999
 51
3.7598965126
  0
ARC
  5
32F
330
1F
100
AcDbEntity
  8
0
  6
Continuous
370
     0
100
AcDbCircle
 10
219.7990389458
 20
129.2553725655
 30
0.0
 40
21.8012840588815
100
AcDbArc
 50
180.1582659863
 51
181.7552144522
  0
LWPOLYLINE
  5
330
330
1F
100
AcDbEntity
  8
0
  6
Continuous
370
     0
100
AcDbPolyline
 90
        4
 70
   128
 43
0.0
 10
203.0868751801
 20
128.6040611028
 10
201.9566928841
 20
128.6004082614
 10
199.9823393173
 20
128.5940151112
 10
198.0079838879
 20
128.5876105716
  0
LWPOLYLINE
  5
331
330
1F
100
AcDbEntity
  8
0
  6
Continuous
370
     0
100
AcDbPolyline
 90
        4
 70
   128
 43
0.0
 10
257.9490745313
 20
128.5876105716
 10
255.9747191019
 20
128.5940151112
 10
254.0003636725
 20
128.6004082614
 10
252.8774270661
 20
128.6040376612
  0
LWPOLYLINE
  5
332
330
1F
100
AcDbEntity
  8
0
  6
Continuous
370
     0
100
AcDbPolyline
 90
        4
 70
   128
 43
0.0
 10
253.7988496817
 20
127.4604339594
 10
254.0003655351
 20
127.4610852603
 10
255.9747191019
 20
127.4674784106
 10
257.9490745313
 20
127.4738829502
  0
LWPOLYLINE
  5
333
330
1F
100
AcDbEntity
  8
0
  6
Continuous
370
     0
100
AcDbPolyline
 90
        4
 70
   128
 43
0.0
 10
198.0079838879
 20
127.4738829502
 10
199.9823393173
 20
127.4674784106
 10
201.9566947467
 20
127.4610852603
 10
202.1571041889
 20
127.4604375148
  0
ARC
  5
334
330
1F
100
AcDbEntity
  8
0
  6
Continuous
370
     0
100
AcDbCircle
 10
193.9370473673
 20
118.7499392559
 30
0.0
 40
11.77646255882375
100
AcDbArc
 50
108.0316296962
 51
143.7888967426
  0
ARC
  5
335
330
1F
100
AcDbEntity
  8
0
  6
Continuous
370
     0
100
AcDbCircle
 10
223.7859578471
 20
19.1725662752
 30
0.0
 40
116.1277874599937
100
AcDbArc
 50
93.1427360448
 51
103.0047045353
  0
LINE
  5
336
330
1F
100
AcDbEntity
  8
0
  6
Continuous
370
     0
100
AcDbLine
 10
223.0365437329
 20
135.3864269
 30
0.0
 11
223.5785292335
 21
135.401403447
 31
0.0
  0
LINE
  5
337
330
1F
100
AcDbEntity
  8
0
  6
Continuous
370
     0
100
AcDbLine
 10
232.3785291858
 20
135.401403447
 30
0.0
 11
232.9243102915
 21
135.3863160197
 31
0.0
  0
LWPOLYLINE
  5
338
330
1F
100
AcDbEntity
  8
0
  6
Continuous
370
     0
100
AcDbPolyline
 90
       18
 70
   128
 43
0.0
 10
238.5376429058
 20
135.1257040468
 10
239.5005661867
 20
135.0610975003
 10
242.6791123919
 20
134.8040857609
 10
245.7734549291
 20
134.485594298
 10
248.7658707298
 20
134.1074444403
 10
251.6392169393
 20
133.6718046197
 10
254.3770370878
 20
133.1811681957
 10
256.9636495657
 20
132.6383476699
 10
259.3842388935
 20
132.0464496175
 10
261.6249376781
 20
131.4088664921
 10
263.6729122944
 20
130.7292496285
 10
265.5164355285
 20
130.0114914056
 10
267.1449424572
 20
129.2597035521
 10
268.5491086788
 20
128.4781920785
 10
269.7208875663
 20
127.6714334133
 10
270.6535735972
 20
126.8440488524
 10
271.3418209798
 20
126.0007772007
 10
271.5221101291
 20
125.7064754693
  0
LWPOLYLINE
  5
339
330
1F
100
AcDbEntity
  8
0
  6
Continuous
370
     0
100
AcDbPolyline
 90
       14
 70
   128
 43
0.0
 10
270.5784903712
 20
121.5899725319
 10
270.6948200114
 20
121.8281874177
 10
270.9469737358
 20
122.6782449105
 10
270.9469737358
 20
123.530803928
 10
270.6948200114
 20
124.3808614208
 10
270.1919877775
 20
125.2234288624
 10
269.4414311893
 20
126.0535615662
 10
268.4475498147
 20
126.8663882736
 10
267.2161849089
 20
127.6571387234
 10
265.7545560844
 20
128.4211730593
 10
264.0712426848
 20
129.1540066573
 10
262.1761241801
 20
129.8513397743
 10
260.0803168364
 20
130.5090799647
 10
258.1413982309
 20
131.0363946109
  0
LWPOLYLINE
  5
33A
330
1F
100
AcDbEntity
  8
0
  6
Continuous
370
     0
100
AcDbPolyline
 90
        3
 70
   128
 43
0.0
 10
198.6999845005
 20
131.2553392326
 10
198.1609312691
 20
131.1233671498
 10
197.636531467
 20
130.9904954908
  0
LWPOLYLINE
  5
33B
330
1F
100
AcDbEntity
  8
0
  6
Continuous
370
     0
100
AcDbPolyline
 90
       11
 70
   128
 43
0.0
 10
190.2725862212
 20
128.4543961565
 10
190.2025023348
 20
128.4211730593
 10
188.7408735104
 20
127.6571387234
 10
187.5095086045
 20
126.8663882736
 10
186.5156272299
 20
126.0535615662
 10
185.7650706418
 20
125.2234288624
 10
185.2622384079
 20
124.3808614208
 10
185.0100846834
 20
123.530803928
 10
185.0100846834
 20
122.6782449105
 10
185.2622384079
 20
121.8281874177
 10
185.378568048
 20
121.5899725319
  0
LWPOLYLINE
  5
33C
330
1F
100
AcDbEntity
  8
0
  6
Continuous
370
     0
100
AcDbPolyline
 90
       38
 70
   128
 43
0.0
 10
271.9785289712
 20
151.1163725756
 10
271.974189008
 20
151.2763356691
 10
271.8005047984
 20
152.1397546086
 10
271.3742347307
 20
152.9972747338
 10
270.6978300459
 20
153.8439534222
 10
269.7751948483
 20
154.6749104966
 10
268.6116451271
 20
155.4853561711
 10
267.2138901301
 20
156.2706197359
 10
265.5899802096
 20
157.0261736611
 10
263.7492807455
 20
157.7476642097
 10
261.7024013646
 20
158.430931926
 10
259.4611400611
 20
159.0720391149
 10
257.0384105541
 20
159.6672905717
 10
254.4481845446
 20
160.2132543116
 10
251.7053855456
 20
160.706784228
 10
248.8258274145
 20
161.1450350373
 10
245.8261063196
 20
161.5254815625
 10
242.7235131956
 20
161.8459293386
 10
239.5359294362
 20
162.104533897
 10
236.2817300357
 20
162.2998017288
 10
232.9796708993
 20
162.4306095689
 10
229.6487855831
 20
162.4962024674
 10
226.3082728361
 20
162.4962024674
 10
222.9773875199
 20
162.4306095689
 10
219.6753283836
 20
162.2998017288
 10
216.421128983
 20
162.104533897
 10
213.2335452236
 20
161.8459293386
 10
210.1309520997
 20
161.5254815625
 10
207.1312310047
 20
161.1450350373
 10
204.2516728736
 20
160.706784228
 10
201.5088738747
 20
160.2132543116
 10
198.9186478652
 20
159.6672905717
 10
196.4959183581
 20
159.0720391149
 10
194.2546570547
 20
158.430931926
 10
192.2077776737
 20
157.7476642097
 10
190.3670782096
 20
157.0261736611
 10
188.7431682892
 20
156.2706197359
 10
187.8451982386
 20
155.7845655587
  0
LINE
  5
33D
330
1F
100
AcDbEntity
  8
0
  6
Continuous
370
     0
100
AcDbLine
 10
270.1872156806
 20
124.1897267233
 30
0.0
 11
270.279282505
 21
124.0670099285
 31
0.0
  0
SPLINE
  5
33E
330
1F
100
AcDbEntity
  8
0
  6
Continuous
370
     0
100
AcDbSpline
210
0.0
220
0.0
230
1.0
 70
     8
 71
     3
 72
    11
 73
     7
 74
     0
 42
0.000000001
 43
0.00000001
 40
0.0
 40
0.0
 40
0.0
 40
0.0
 40
0.3498398192560397
 40
0.6400448810436314
 40
0.9302758185361343
 40
1.0
 40
1.0
 40
1.0
 40
1.0
 10
269.3842591590962
 20
124.2687583440015
 30
0.0
 10
268.6807809284956
 20
125.0812748783779
 30
0.0
 10
267.3937415017686
 20
126.5678039124281
 30
0.0
 10
264.9592010622863
 20
128.1647445052032
 30
0.0
 10
263.1140408341583
 20
129.1100843825417
 30
0.0
 10
261.9823154727331
 20
129.434513820087
 30
0.0
 10
261.7630975194058
 20
129.4973565907113
 30
0.0
  0
SPLINE
  5
33F
330
1F
100
AcDbEntity
  8
0
  6
Continuous
370
     0
100
AcDbSpline
210
0.0
220
0.0
230
1.0
 70
     8
 71
     3
 72
    10
 73
     6
 74
     0
 42
0.000000001
 43
0.00000001
 40
0.0
 40
0.0
 40
0.0
 40
0.0
 40
0.1181176930931909
 40
0.5591457903524257
 40
1.0
 40
1.0
 40
1.0
 40
1.0
 10
190.2538852639279
 20
126.9956095550946
 30
0.0
 10
190.1336803596533
 20
126.8401718280382
 30
0.0
 10
189.5646541245077
 20
126.1043603804085
 30
0.0
 10
188.708341521371
 20
124.6215450383339
 30
0.0
 10
188.126625878806
 20
123.2020202794274
 30
0.0
 10
187.8358254082284
 20
122.4923978493576
 30
0.0
  0
SPLINE
  5
340
330
1F
100
AcDbEntity
  8
0
  6
Continuous
370
     0
100
AcDbSpline
210
0.0
220
0.0
230
1.0
 70
     8
 71
     3
 72
     9
 73
     5
 74
     0
 42
0.000000001
 43
0.00000001
 40
0.0
 40
0.0
 40
0.0
 40
0.0
 40
0.8816447464791359
 40
1.0
 40
1.0
 40
1.0
 40
1.0
 10
186.9832480199418
 20
123.9096566955968
 30
0.0
 10
187.5312368535159
 20
125.0497184180637
 30
0.0
 10
188.1527897360829
 20
126.3428262452467
 30
0.0
 10
189.0073075109458
 20
127.42119266866
 30
0.0
 10
189.1084441788278
 20
127.5488230000915
 30
0.0
  0
SPLINE
  5
341
330
1F
100
AcDbEntity
  8
0
  6
Continuous
370
     0
100
AcDbSpline
210
0.0
220
0.0
230
1.0
 70
     8
 71
     3
 72
     9
 73
     5
 74
     0
 42
0.000000001
 43
0.00000001
 40
0.0
 40
0.0
 40
0.0
 40
0.0
 40
0.5897337178433367
 40
1.0
 40
1.0
 40
1.0
 40
1.0
 10
187.8358254082284
 20
122.4923978493576
 30
0.0
 10
188.226716577244
 20
123.4221049017313
 30
0.0
 10
188.8895431330075
 20
124.9985910754806
 30
0.0
 10
189.8559091346575
 20
126.3311074998573
 30
0.0
 10
190.2523765213571
 20
126.877794059199
 30
0.0
  0
LINE
  5
342
330
1F
100
AcDbEntity
  8
0
  6
Continuous
370
     0
100
AcDbLine
 10
193.6943696685
 20
160.3779146222
 30
0.0
 11
193.6839500315
 21
161.006388559
 31
0.0
  0
LINE
  5
343
330
1F
100
AcDbEntity
  8
0
  6
Continuous
370
     0
100
AcDbLine
 10
262.2731083877
 20
161.006388559
 30
0.0
 11
262.2683623679
 21
160.7201787905
 31
0.0
  0
LINE
  5
344
330
1F
100
AcDbEntity
  8
0
  6
Continuous
370
     0
100
AcDbLine
 10
191.2222148724
 20
157.9718873209
 30
0.0
 11
191.2020722277
 21
162.2983718001
 31
0.0
  0
LINE
  5
345
330
1F
100
AcDbEntity
  8
0
  6
Continuous
370
     0
100
AcDbLine
 10
264.7348211951
 20
157.9677305327
 30
0.0
 11
264.7549861915
 21
162.2983718001
 31
0.0
  0
SPLINE
  5
346
330
1F
100
AcDbEntity
  8
0
  6
Continuous
370
     0
100
AcDbSpline
210
0.0
220
0.0
230
1.0
 70
     8
 71
     3
 72
     9
 73
     5
 74
     0
 42
0.000000001
 43
0.00000001
 40
0.0
 40
0.0
 40
0.0
 40
0.0
 40
0.5700669672453538
 40
1.0
 40
1.0
 40
1.0
 40
1.0
 10
200.1292722172818
 20
127.4329414434501
 30
0.0
 10
199.7446382776688
 20
127.1209444186693
 30
0.0
 10
199.0699211624645
 20
126.5736455174744
 30
0.0
 10
198.5439360361365
 20
125.7928951757914
 30
0.0
 10
198.3177976555905
 20
125.4572248135674
 30
0.0
  0
SPLINE
  5
347
330
1F
100
AcDbEntity
  8
0
  6
Continuous
370
     0
100
AcDbSpline
210
0.0
220
0.0
230
1.0
 70
     8
 71
     3
 72
     9
 73
     5
 74
     0
 42
0.000000001
 43
0.00000001
 40
0.0
 40
0.0
 40
0.0
 40
0.0
 40
0.6799809477609993
 40
1.0
 40
1.0
 40
1.0
 40
1.0
 10
197.5790968037925
 20
126.5105315373455
 30
0.0
 10
197.7400315354022
 20
126.7520950613228
 30
0.0
 10
197.9767068895274
 20
127.1073454911661
 30
0.0
 10
198.2797445954458
 20
127.3583030671873
 30
0.0
 10
198.3767224348865
 20
127.4386142728178
 30
0.0
  0
SPLINE
  5
348
330
1F
100
AcDbEntity
  8
0
  6
Continuous
370
     0
100
AcDbSpline
210
0.0
220
0.0
230
1.0
 70
     8
 71
     3
 72
    10
 73
     6
 74
     0
 42
0.000000001
 43
0.00000001
 40
0.0
 40
0.0
 40
0.0
 40
0.0
 40
0.2217236071753624
 40
0.9801606177327182
 40
1.0
 40
1.0
 40
1.0
 40
1.0
 10
198.4764484561763
 20
125.4855045594797
 30
0.0
 10
198.5923267727401
 20
125.6581891331988
 30
0.0
 10
199.104583287921
 20
126.4215657560385
 30
0.0
 10
199.7263599605605
 20
127.0656666810841
 30
0.0
 10
200.2758637055632
 20
127.4233036374985
 30
0.0
 10
200.2898713446937
 20
127.4324203168127
 30
0.0
  0
SPLINE
  5
349
330
1F
100
AcDbEntity
  8
0
  6
Continuous
370
     0
100
AcDbSpline
210
0.0
220
0.0
230
1.0
 70
     8
 71
     3
 72
    10
 73
     6
 74
     0
 42
0.000000001
 43
0.00000001
 40
0.0
 40
0.0
 40
0.0
 40
0.0
 40
0.2664735507577809
 40
0.8071712185296244
 40
1.0
 40
1.0
 40
1.0
 40
1.0
 10
256.2586979813657
 20
127.4343291177607
 30
0.0
 10
256.7175545958972
 20
127.2505674972516
 30
0.0
 10
258.1074705993001
 20
126.6939378027716
 30
0.0
 10
259.7595305061197
 20
125.7629798664258
 30
0.0
 10
260.8214119217262
 20
124.9047350793766
 30
0.0
 10
261.1005583651147
 20
124.6791204520363
 30
0.0
  0
SPLINE
  5
34A
330
1F
100
AcDbEntity
  8
0
  6
Continuous
370
     0
100
AcDbSpline
210
0.0
220
0.0
230
1.0
 70
     8
 71
     3
 72
    10
 73
     6
 74
     0
 42
0.000000001
 43
0.00000001
 40
0.0
 40
0.0
 40
0.0
 40
0.0
 40
0.3077411440177661
 40
0.8447973250730305
 40
0.9999999999999999
 40
0.9999999999999999
 40
0.9999999999999999
 40
0.9999999999999999
 10
258.5390319920859
 20
125.2734700274523
 30
0.0
 10
258.0965588473009
 20
125.5312116443044
 30
0.0
 10
256.881901215725
 20
126.238752487345
 30
0.0
 10
255.3269509802672
 20
126.8747305330422
 30
0.0
 10
254.2355041754255
 20
127.1585599697801
 30
0.0
 10
253.9908045775971
 20
127.2221938076488
 30
0.0
  0
SPLINE
  5
34B
330
1F
100
AcDbEntity
  8
0
  6
Continuous
370
     0
100
AcDbSpline
210
0.0
220
0.0
230
1.0
 70
     8
 71
     3
 72
     9
 73
     5
 74
     0
 42
0.000000001
 43
0.00000001
 40
0.0
 40
0.0
 40
0.0
 40
0.0
 40
0.5609640293226404
 40
1.0
 40
1.0
 40
1.0
 40
1.0
 10
254.0715278930745
 20
127.1220064519845
 30
0.0
 10
254.8826970046762
 20
126.8566133455936
 30
0.0
 10
256.3287239675479
 20
126.3835115199536
 30
0.0
 10
257.6757867014292
 20
125.6475546269997
 30
0.0
 10
258.267195696362
 20
125.324443078125
 30
0.0
  0
ARC
  5
34C
330
1F
100
AcDbEntity
  8
0
  6
Continuous
370
     0
100
AcDbCircle
 10
191.1014043731
 20
155.7071955831
 30
0.0
 40
7.109224652293859
100
AcDbArc
 50
117.3272037666
 51
154.8693496437
  0
LWPOLYLINE
  5
34D
330
1F
100
AcDbEntity
  8
0
  6
Continuous
370
     0
100
AcDbPolyline
 90
       10
 70
   128
 43
0.0
 10
270.1121846087
 20
154.8850511885
 10
270.1686302073
 20
154.9425862266
 10
270.8490544803
 20
155.7762751733
 10
271.283922518
 20
156.6208953458
 10
271.4707383759
 20
157.4716085687
 10
271.408436621
 20
158.3235422578
 10
271.0973711557
 20
159.1718164769
 10
270.5393263943
 20
160.0115725015
 10
269.7374986358
 20
160.8380001177
 10
269.2998552568
 20
161.2030641777
  0
LWPOLYLINE
  5
34E
330
1F
100
AcDbEntity
  8
0
  6
Continuous
370
     0
100
AcDbPolyline
 90
       20
 70
   128
 43
0.0
 10
227.9785292096
 20
169.5556691966
 10
231.3061941288
 20
169.5230540124
 10
234.6147981345
 20
169.4253964742
 10
237.8853902094
 20
169.263255804
 10
241.0992372654
 20
169.0375595394
 10
244.2379293836
 20
168.7496016045
 10
247.2834901757
 20
168.4010317047
 10
250.2184731759
 20
167.9938456844
 10
253.0260680116
 20
167.5303749214
 10
255.6901926048
 20
167.0132757208
 10
258.1955863036
 20
166.4455100315
 10
260.5278992899
 20
165.8303290552
 10
262.6737745352
 20
165.1712568554
 10
264.620916719
 20
164.4720686637
 10
266.3581760473
 20
163.7367691854
 10
267.8756022699
 20
162.9695699415
 10
269.1644968338
 20
162.1748656466
 10
270.2174836643
 20
161.3572084171
 10
271.0285315163
 20
160.5212814972
 10
271.4598270006
 20
159.9110959172
  0
LWPOLYLINE
  5
34F
330
1F
100
AcDbEntity
  8
0
  6
Continuous
370
     0
100
AcDbPolyline
 90
       20
 70
   128
 43
0.0
 10
184.4920793421
 20
159.9024652155
 10
184.9285269029
 20
160.5212814972
 10
185.739574755
 20
161.3572084171
 10
186.7925615854
 20
162.1748656466
 10
188.0814561493
 20
162.9695699415
 10
189.5988823719
 20
163.7367691854
 10
191.3361417003
 20
164.4720686637
 10
193.2832838841
 20
165.1712568554
 10
195.4291591294
 20
165.8303290552
 10
197.7614721156
 20
166.4455100315
 10
200.2668658145
 20
167.0132757208
 10
202.9309904076
 20
167.5303749214
 10
205.7385852434
 20
167.9938456844
 10
208.6735682435
 20
168.4010317047
 10
211.7191290356
 20
168.7496016045
 10
214.8578211538
 20
169.0375595394
 10
218.0716682099
 20
169.263255804
 10
221.3422602847
 20
169.4253964742
 10
224.6508642904
 20
169.5230540124
 10
227.9785292096
 20
169.5556691966
  0
LWPOLYLINE
  5
350
330
1F
100
AcDbEntity
  8
0
  6
Continuous
370
     0
100
AcDbPolyline
 90
       44
 70
   128
 43
0.0
 10
271.9781340904
 20
229.9358813763
 10
271.9706499822
 20
230.1031308125
 10
271.7816846318
 20
230.9636223928
 10
271.3418209798
 20
231.8179507337
 10
270.6535735972
 20
232.6612223854
 10
269.7208875663
 20
233.4886069463
 10
268.5491086788
 20
234.2953656116
 10
267.1449424572
 20
235.0768770851
 10
265.5164355285
 20
235.8286649386
 10
263.6729122944
 20
236.5464231616
 10
261.6249376781
 20
237.2260400251
 10
259.3842388935
 20
237.8636231505
 10
256.9636495657
 20
238.4555212029
 10
254.3770370878
 20
238.9983417288
 10
251.6392169393
 20
239.4889781528
 10
248.7658707298
 20
239.9246179733
 10
245.7734549291
 20
240.302767831
 10
242.6791123919
 20
240.6212592939
 10
239.5005661867
 20
240.8782710334
 10
236.2560227386
 20
241.07232786
 10
232.9640670553
 20
241.2023209713
 10
229.6435542278
 20
241.2675031309
 10
226.3135041915
 20
241.2675031309
 10
222.992991364
 20
241.2023209713
 10
219.7010356806
 20
241.07232786
 10
216.4564922325
 20
240.8782710334
 10
213.2779460273
 20
240.6212592939
 10
210.1836034901
 20
240.302767831
 10
207.1911876894
 20
239.9246179733
 10
204.3178414799
 20
239.4889781528
 10
201.5800213314
 20
238.9983417288
 10
198.9934088535
 20
238.4555212029
 10
196.5728195257
 20
237.8636231505
 10
194.3321207411
 20
237.2260400251
 10
192.2841461248
 20
236.5464231616
 10
190.4406228907
 20
235.8286649386
 10
188.812115962
 20
235.0768770851
 10
187.4079497404
 20
234.2953656116
 10
186.2361708529
 20
233.4886069463
 10
185.303484822
 20
232.6612223854
 10
184.6152374394
 20
231.8179507337
 10
184.1753737874
 20
230.9636223928
 10
183.986408437
 20
230.1031308125
 10
183.978529448
 20
229.8876221377
  0
LWPOLYLINE
  5
351
330
1F
100
AcDbEntity
  8
0
  6
Continuous
370
     0
100
AcDbPolyline
 90
       11
 70
   128
 43
0.0
 10
268.1103290863
 20
161.8820979558
 10
268.4950249143
 20
161.626765329
 10
269.5308940358
 20
160.8223990256
 10
270.3287580855
 20
160.0000602392
 10
270.8840424068
 20
159.1644588492
 10
271.1935693271
 20
158.3203813873
 10
271.255561883
 20
157.4726626693
 10
271.0696698971
 20
156.6261583009
 10
270.6369550772
 20
155.7857169881
 10
269.9598947413
 20
154.9561526661
 10
269.9454406149
 20
154.9412973642
  0
ARC
  5
352
330
1F
100
AcDbEntity
  8
0
  6
Continuous
370
     0
100
AcDbCircle
 10
190.38508359
 20
156.3931429465
 30
0.0
 40
5.967484799093316
100
AcDbArc
 50
122.4836045861
 51
158.5681050405
  0
ARC
  5
353
330
1F
100
AcDbEntity
  8
0
  6
Continuous
370
     0
100
AcDbCircle
 10
266.9679437243
 20
158.1147799808
 30
0.0
 40
3.867603977426123
100
AcDbArc
 50
313.1144766486
 51
357.8567118977001
  0
LINE
  5
354
330
1F
100
AcDbEntity
  8
0
  6
Continuous
370
     0
100
AcDbLine
 10
260.9925621994
 20
164.0380152374
 30
0.0
 11
260.9853947408
 21
164.8948317372
 31
0.0
  0
LINE
  5
355
330
1F
100
AcDbEntity
  8
0
  6
Continuous
370
     0
100
AcDbLine
 10
261.4488655574
 20
164.7631081653
 30
0.0
 11
261.4569010086
 21
163.814607621
 31
0.0
  0
MTEXT
  5
357
330
1F
100
AcDbEntity
  8
寸法線
 62
     7
100
AcDbMText
 10
185.9341389728096
 20
71.42848338368583
 30
0.0
 40
7.9375
 41
0.0
 71
     1
 72
     1
  1
{MMP-100F/SWF･SMF}
  7
SLDTEXTSTYLE0
 73
     1
 44
1.0
1001
ACAD
1000
ACAD_MTEXT_DEFINED_HEIGHT_BEGIN
1070
    46
1040
7.9375
1000
ACAD_MTEXT_DEFINED_HEIGHT_END
  0
ENDSEC
  0
SECTION
  2
OBJECTS
  0
DICTIONARY
  5
C
330
0
100
AcDbDictionary
281
     1
  3
ACAD_DETAILVIEWSTYLE
350
3A1
  3
ACAD_GROUP
350
D
  3
ACAD_IMAGE_VARS
350
379
  3
ACAD_LAYOUT
350
1A
  3
ACAD_MLINESTYLE
350
17
  3
ACAD_PLOTSETTINGS
350
19
  3
ACAD_PLOTSTYLENAME
350
E
  3
ACAD_SCALELIST
350
47
  3
ACAD_SECTIONVIEWSTYLE
350
3A2
  3
AcDbVariableDictionary
350
39D
  3
APPDATA
350
377
  3
DWGPROPS
350
3C8
  0
DICTIONARY
  5
3A1
102
{ACAD_REACTORS
330
C
102
}
330
C
100
AcDbDictionary
281
     1
  0
DICTIONARY
  5
D
102
{ACAD_REACTORS
330
C
102
}
330
C
100
AcDbDictionary
281
     1
  0
RASTERVARIABLES
  5
379
102
{ACAD_REACTORS
330
C
102
}
330
C
100
AcDbRasterVariables
 90
        0
 70
     1
 71
     1
 72
     1
  0
DICTIONARY
  5
1A
102
{ACAD_REACTORS
330
C
102
}
330
C
100
AcDbDictionary
281
     1
  3
Layout1
350
1E
  3
Layout2
350
26
  3
Model
350
22
  0
DICTIONARY
  5
17
102
{ACAD_REACTORS
330
C
102
}
330
C
100
AcDbDictionary
281
     1
  3
Standard
350
18
  0
DICTIONARY
  5
19
102
{ACAD_REACTORS
330
C
102
}
330
C
100
AcDbDictionary
281
     1
  0
ACDBDICTIONARYWDFLT
  5
E
102
{ACAD_REACTORS
330
C
102
}
330
C
100
AcDbDictionary
281
     1
  3
Normal
350
F
100
AcDbDictionaryWithDefault
340
F
  0
DICTIONARY
  5
47
102
{ACAD_REACTORS
330
C
102
}
330
C
100
AcDbDictionary
281
     1
  3
A0
350
48
  3
A1
350
49
  3
A2
350
4A
  3
A3
350
4B
  3
A4
350
4C
  3
A5
350
4D
  3
A6
350
4E
  3
A7
350
4F
  3
A8
350
50
  3
A9
350
51
  3
B0
350
52
  3
B1
350
53
  3
B2
350
54
  3
B3
350
55
  3
B4
350
56
  3
B5
350
57
  3
B6
350
58
  3
B7
350
59
  3
B8
350
5A
  3
B9
350
5B
  3
C0
350
5C
  3
C1
350
5D
  3
C2
350
5E
  3
C3
350
5F
  3
C4
350
60
  3
C5
350
61
  3
C6
350
62
  3
C7
350
63
  3
C8
350
64
  3
C9
350
65
  3
D0
350
66
  3
D1
350
67
  3
D2
350
68
  0
DICTIONARY
  5
3A2
102
{ACAD_REACTORS
330
C
102
}
330
C
100
AcDbDictionary
281
     1
  0
DICTIONARY
  5
39D
102
{ACAD_REACTORS
330
C
102
}
330
C
100
AcDbDictionary
281
     1
  0
DICTIONARY
  5
377
102
{ACAD_REACTORS
330
C
102
}
330
C
100
AcDbDictionary
281
     1
  0
XRECORD
  5
3C8
102
{ACAD_REACTORS
330
C
102
}
330
C
100
AcDbXrecord
280
     1
  1
DWGPROPS COOKIE
  2

  3

  4

  6

  7

  8
SPAX
  9

300
=
301
=
302
=
303
=
304
=
305
=
306
=
307
=
308
=
309
=
 40
0.0
 41
2457385.442139792
 42
2458075.03361228
  1

 90
        0
  0
LAYOUT
  5
1E
102
{ACAD_REACTORS
330
1A
102
}
330
1A
100
AcDbPlotSettings
  1

  2
none_device
  4

  6

 40
0.0
 41
0.0
 42
0.0
 43
0.0
 44
0.0
 45
0.0
 46
0.0
 47
0.0
 48
0.0
 49
0.0
140
0.0
141
0.0
142
1.0
143
1.0
 70
   688
 72
     1
 73
     0
 74
     5
  7

 75
    16
147
1.0
148
0.0
149
0.0
100
AcDbLayout
  1
Layout1
 70
     1
 71
     1
 10
0.0
 20
0.0
 11
420.0
 21
297.0
 12
0.0
 22
0.0
 32
0.0
 14
1.000000000000000E+20
 24
1.000000000000000E+20
 34
1.000000000000000E+20
 15
-1.000000000000000E+20
 25
-1.000000000000000E+20
 35
-1.000000000000000E+20
146
0.0
 13
0.0
 23
0.0
 33
0.0
 16
1.0
 26
0.0
 36
0.0
 17
0.0
 27
1.0
 37
0.0
 76
     0
330
1B
  0
LAYOUT
  5
26
102
{ACAD_REACTORS
330
1A
102
}
330
1A
100
AcDbPlotSettings
  1

  2
none_device
  4

  6

 40
0.0
 41
0.0
 42
0.0
 43
0.0
 44
0.0
 45
0.0
 46
0.0
 47
0.0
 48
0.0
 49
0.0
140
0.0
141
0.0
142
1.0
143
1.0
 70
   688
 72
     1
 73
     0
 74
     5
  7

 75
    16
147
1.0
148
0.0
149
0.0
100
AcDbLayout
  1
Layout2
 70
     1
 71
     2
 10
0.0
 20
0.0
 11
0.0
 21
0.0
 12
0.0
 22
0.0
 32
0.0
 14
0.0
 24
0.0
 34
0.0
 15
0.0
 25
0.0
 35
0.0
146
0.0
 13
0.0
 23
0.0
 33
0.0
 16
1.0
 26
0.0
 36
0.0
 17
0.0
 27
1.0
 37
0.0
 76
     0
330
23
  0
LAYOUT
  5
22
102
{ACAD_REACTORS
330
1A
102
}
330
1A
100
AcDbPlotSettings
  1

  2
none_device
  4
Letter_(8.50_x_11.00_Inches)
  6

 40
6.35
 41
6.35
 42
6.35000508
 43
6.35000508
 44
215.9
 45
279.4
 46
0.0
 47
0.0
 48
0.0
 49
0.0
140
0.0
141
0.0
142
1.0
143
1.0
 70
  1712
 72
     1
 73
     0
 74
     0
  7

 75
     0
147
1.0
148
0.0
149
0.0
100
AcDbLayout
  1
Model
 70
     1
 71
     0
 10
0.0
 20
0.0
 11
431.8
 21
279.4
 12
0.0
 22
0.0
 32
0.0
 14
151.7813818402
 24
63.49098338368583
 34
0.0
 15
282.9785289116
 25
241.9038043921065
 35
0.0
146
0.0
 13
0.0
 23
0.0
 33
0.0
 16
1.0
 26
0.0
 36
0.0
 17
0.0
 27
1.0
 37
0.0
 76
     0
330
1F
331
29
  0
MLINESTYLE
  5
18
102
{ACAD_REACTORS
330
17
102
}
330
17
100
AcDbMlineStyle
  2
Standard
 70
     0
  3

 62
   256
 51
90.0
 52
90.0
 71
     2
 49
0.5
 62
   256
  6
BYLAYER
 49
-0.5
 62
   256
  6
BYLAYER
  0
ACDBPLACEHOLDER
  5
F
102
{ACAD_REACTORS
330
E
102
}
330
E
  0
SCALE
  5
48
102
{ACAD_REACTORS
330
47
102
}
330
47
100
AcDbScale
 70
     0
300
1:1
140
1.0
141
1.0
290
     1
  0
SCALE
  5
49
102
{ACAD_REACTORS
330
47
102
}
330
47
100
AcDbScale
 70
     0
300
1:2
140
1.0
141
2.0
290
     0
  0
SCALE
  5
4A
102
{ACAD_REACTORS
330
47
102
}
330
47
100
AcDbScale
 70
     0
300
1:4
140
1.0
141
4.0
290
     0
  0
SCALE
  5
4B
102
{ACAD_REACTORS
330
47
102
}
330
47
100
AcDbScale
 70
     0
300
1:5
140
1.0
141
5.0
290
     0
  0
SCALE
  5
4C
102
{ACAD_REACTORS
330
47
102
}
330
47
100
AcDbScale
 70
     0
300
1:8
140
1.0
141
8.0
290
     0
  0
SCALE
  5
4D
102
{ACAD_REACTORS
330
47
102
}
330
47
100
AcDbScale
 70
     0
300
1:10
140
1.0
141
10.0
290
     0
  0
SCALE
  5
4E
102
{ACAD_REACTORS
330
47
102
}
330
47
100
AcDbScale
 70
     0
300
1:16
140
1.0
141
16.0
290
     0
  0
SCALE
  5
4F
102
{ACAD_REACTORS
330
47
102
}
330
47
100
AcDbScale
 70
     0
300
1:20
140
1.0
141
20.0
290
     0
  0
SCALE
  5
50
102
{ACAD_REACTORS
330
47
102
}
330
47
100
AcDbScale
 70
     0
300
1:30
140
1.0
141
30.0
290
     0
  0
SCALE
  5
51
102
{ACAD_REACTORS
330
47
102
}
330
47
100
AcDbScale
 70
     0
300
1:40
140
1.0
141
40.0
290
     0
  0
SCALE
  5
52
102
{ACAD_REACTORS
330
47
102
}
330
47
100
AcDbScale
 70
     0
300
1:50
140
1.0
141
50.0
290
     0
  0
SCALE
  5
53
102
{ACAD_REACTORS
330
47
102
}
330
47
100
AcDbScale
 70
     0
300
1:100
140
1.0
141
100.0
290
     0
  0
SCALE
  5
54
102
{ACAD_REACTORS
330
47
102
}
330
47
100
AcDbScale
 70
     0
300
2:1
140
2.0
141
1.0
290
     0
  0
SCALE
  5
55
102
{ACAD_REACTORS
330
47
102
}
330
47
100
AcDbScale
 70
     0
300
4:1
140
4.0
141
1.0
290
     0
  0
SCALE
  5
56
102
{ACAD_REACTORS
330
47
102
}
330
47
100
AcDbScale
 70
     0
300
8:1
140
8.0
141
1.0
290
     0
  0
SCALE
  5
57
102
{ACAD_REACTORS
330
47
102
}
330
47
100
AcDbScale
 70
     0
300
10:1
140
10.0
141
1.0
290
     0
  0
SCALE
  5
58
102
{ACAD_REACTORS
330
47
102
}
330
47
100
AcDbScale
 70
     0
300
100:1
140
100.0
141
1.0
290
     0
  0
SCALE
  5
59
102
{ACAD_REACTORS
330
47
102
}
330
47
100
AcDbScale
 70
     0
300
1/128" = 1'-0"
140
0.0078125
141
12.0
290
     0
  0
SCALE
  5
5A
102
{ACAD_REACTORS
330
47
102
}
330
47
100
AcDbScale
 70
     0
300
1/64" = 1'-0"
140
0.015625
141
12.0
290
     0
  0
SCALE
  5
5B
102
{ACAD_REACTORS
330
47
102
}
330
47
100
AcDbScale
 70
     0
300
1/32" = 1'-0"
140
0.03125
141
12.0
290
     0
  0
SCALE
  5
5C
102
{ACAD_REACTORS
330
47
102
}
330
47
100
AcDbScale
 70
     0
300
1/16" = 1'-0"
140
0.0625
141
12.0
290
     0
  0
SCALE
  5
5D
102
{ACAD_REACTORS
330
47
102
}
330
47
100
AcDbScale
 70
     0
300
3/32" = 1'-0"
140
0.09375
141
12.0
290
     0
  0
SCALE
  5
5E
102
{ACAD_REACTORS
330
47
102
}
330
47
100
AcDbScale
 70
     0
300
1/8" = 1'-0"
140
0.125
141
12.0
290
     0
  0
SCALE
  5
5F
102
{ACAD_REACTORS
330
47
102
}
330
47
100
AcDbScale
 70
     0
300
3/16" = 1'-0"
140
0.1875
141
12.0
290
     0
  0
SCALE
  5
60
102
{ACAD_REACTORS
330
47
102
}
330
47
100
AcDbScale
 70
     0
300
1/4" = 1'-0"
140
0.25
141
12.0
290
     0
  0
SCALE
  5
61
102
{ACAD_REACTORS
330
47
102
}
330
47
100
AcDbScale
 70
     0
300
3/8" = 1'-0"
140
0.375
141
12.0
290
     0
  0
SCALE
  5
62
102
{ACAD_REACTORS
330
47
102
}
330
47
100
AcDbScale
 70
     0
300
1/2" = 1'-0"
140
0.5
141
12.0
290
     0
  0
SCALE
  5
63
102
{ACAD_REACTORS
330
47
102
}
330
47
100
AcDbScale
 70
     0
300
3/4" = 1'-0"
140
0.75
141
12.0
290
     0
  0
SCALE
  5
64
102
{ACAD_REACTORS
330
47
102
}
330
47
100
AcDbScale
 70
     0
300
1" = 1'-0"
140
1.0
141
12.0
290
     0
  0
SCALE
  5
65
102
{ACAD_REACTORS
330
47
102
}
330
47
100
AcDbScale
 70
     0
300
1-1/2" = 1'-0"
140
1.5
141
12.0
290
     0
  0
SCALE
  5
66
102
{ACAD_REACTORS
330
47
102
}
330
47
100
AcDbScale
 70
     0
300
3" = 1'-0"
140
3.0
141
12.0
290
     0
  0
SCALE
  5
67
102
{ACAD_REACTORS
330
47
102
}
330
47
100
AcDbScale
 70
     0
300
6" = 1'-0"
140
6.0
141
12.0
290
     0
  0
SCALE
  5
68
102
{ACAD_REACTORS
330
47
102
}
330
47
100
AcDbScale
 70
     0
300
1'-0" = 1'-0"
140
12.0
141
12.0
290
     0
  0
ENDSEC
  0
EOF
