  0
SECTION
  2
HEADER
  9
$ACADVER
  1
AC1015
  9
$ACADMAINTVER
 70
     6
  9
$DWGCODEPAGE
  3
ANSI_932
  9
$INSBASE
 10
0.0
 20
0.0
 30
0.0
  9
$EXTMIN
 10
418.8329629100328
 20
1321.468008216518
 30
0.0
  9
$EXTMAX
 10
589.8329629100328
 20
1395.5290259301
 30
0.0
  9
$LIMMIN
 10
0.0
 20
0.0
  9
$LIMMAX
 10
420.0
 20
297.0
  9
$ORTHOMODE
 70
     1
  9
$REGENMODE
 70
     1
  9
$FILLMODE
 70
     1
  9
$QTEXTMODE
 70
     0
  9
$MIRRTEXT
 70
     1
  9
$LTSCALE
 40
5.0
  9
$ATTMODE
 70
     0
  9
$TEXTSIZE
 40
12.0
  9
$TRACEWID
 40
1.0
  9
$TEXTSTYLE
  7
STANDARD
  9
$CLAYER
  8
寸法線
  9
$CELTYPE
  6
BYLAYER
  9
$CECOLOR
 62
   256
  9
$CELTSCALE
 40
1.0
  9
$DISPSILH
 70
     0
  9
$DIMSCALE
 40
1.0
  9
$DIMASZ
 40
2.5
  9
$DIMEXO
 40
1.5
  9
$DIMDLI
 40
7.0
  9
$DIMRND
 40
0.0
  9
$DIMDLE
 40
0.0
  9
$DIMEXE
 40
1.0
  9
$DIMTP
 40
0.0
  9
$DIMTM
 40
0.0
  9
$DIMTXT
 40
3.0
  9
$DIMCEN
 40
0.0
  9
$DIMTSZ
 40
0.0
  9
$DIMTOL
 70
     0
  9
$DIMLIM
 70
     0
  9
$DIMTIH
 70
     0
  9
$DIMTOH
 70
     0
  9
$DIMSE1
 70
     0
  9
$DIMSE2
 70
     0
  9
$DIMTAD
 70
     3
  9
$DIMZIN
 70
     8
  9
$DIMBLK
  1
Open30
  9
$DIMASO
 70
     1
  9
$DIMSHO
 70
     0
  9
$DIMPOST
  1

  9
$DIMAPOST
  1

  9
$DIMALT
 70
     0
  9
$DIMALTD
 70
     0
  9
$DIMALTF
 40
25.4
  9
$DIMLFAC
 40
1.0
  9
$DIMTOFL
 70
     1
  9
$DIMTVP
 40
0.0
  9
$DIMTIX
 70
     0
  9
$DIMSOXD
 70
     0
  9
$DIMSAH
 70
     0
  9
$DIMBLK1
  1

  9
$DIMBLK2
  1

  9
$DIMSTYLE
  2
STANDARD
  9
$DIMCLRD
 70
     8
  9
$DIMCLRE
 70
     8
  9
$DIMCLRT
 70
   256
  9
$DIMTFAC
 40
1.0
  9
$DIMGAP
 40
1.0
  9
$DIMJUST
 70
     0
  9
$DIMSD1
 70
     0
  9
$DIMSD2
 70
     0
  9
$DIMTOLJ
 70
     1
  9
$DIMTZIN
 70
     0
  9
$DIMALTZ
 70
     0
  9
$DIMALTTZ
 70
     0
  9
$DIMUPT
 70
     0
  9
$DIMDEC
 70
     2
  9
$DIMTDEC
 70
     2
  9
$DIMALTU
 70
     2
  9
$DIMALTTD
 70
     0
  9
$DIMTXSTY
  7
STANDARD
  9
$DIMAUNIT
 70
     0
  9
$DIMADEC
 70
     2
  9
$DIMALTRND
 40
0.0
  9
$DIMAZIN
 70
     2
  9
$DIMDSEP
 70
    46
  9
$DIMATFIT
 70
     3
  9
$DIMFRAC
 70
     0
  9
$DIMLDRBLK
  1
Open30
  9
$DIMLUNIT
 70
     2
  9
$DIMLWD
 70
    -2
  9
$DIMLWE
 70
    -2
  9
$DIMTMOVE
 70
     0
  9
$LUNITS
 70
     2
  9
$LUPREC
 70
     2
  9
$SKETCHINC
 40
0.1
  9
$FILLETRAD
 40
1.0
  9
$AUNITS
 70
     0
  9
$AUPREC
 70
     1
  9
$MENU
  1
FM
  9
$ELEVATION
 40
0.0
  9
$PELEVATION
 40
0.0
  9
$THICKNESS
 40
0.0
  9
$LIMCHECK
 70
     0
  9
$CHAMFERA
 40
0.0
  9
$CHAMFERB
 40
0.0
  9
$CHAMFERC
 40
0.0
  9
$CHAMFERD
 40
0.0
  9
$SKPOLY
 70
     0
  9
$TDCREATE
 40
2448636.619629607
  9
$TDUCREATE
 40
2448636.244629607
  9
$TDUPDATE
 40
2457815.741071134
  9
$TDUUPDATE
 40
2457815.366071134
  9
$TDINDWG
 40
19.6381728819
  9
$TDUSRTIMER
 40
2457815.364830139
  9
$USRTIMER
 70
     1
  9
$ANGBASE
 50
0.0
  9
$ANGDIR
 70
     0
  9
$PDMODE
 70
     3
  9
$PDSIZE
 40
0.0
  9
$PLINEWID
 40
0.0
  9
$SPLFRAME
 70
     0
  9
$SPLINETYPE
 70
     6
  9
$SPLINESEGS
 70
     8
  9
$HANDSEED
  5
71886
  9
$SURFTAB1
 70
     6
  9
$SURFTAB2
 70
     6
  9
$SURFTYPE
 70
     6
  9
$SURFU
 70
     6
  9
$SURFV
 70
     6
  9
$UCSBASE
  2

  9
$UCSNAME
  2

  9
$UCSORG
 10
0.0
 20
0.0
 30
0.0
  9
$UCSXDIR
 10
1.0
 20
0.0
 30
0.0
  9
$UCSYDIR
 10
0.0
 20
1.0
 30
0.0
  9
$UCSORTHOREF
  2

  9
$UCSORTHOVIEW
 70
     0
  9
$UCSORGTOP
 10
0.0
 20
0.0
 30
0.0
  9
$UCSORGBOTTOM
 10
0.0
 20
0.0
 30
0.0
  9
$UCSORGLEFT
 10
0.0
 20
0.0
 30
0.0
  9
$UCSORGRIGHT
 10
0.0
 20
0.0
 30
0.0
  9
$UCSORGFRONT
 10
0.0
 20
0.0
 30
0.0
  9
$UCSORGBACK
 10
0.0
 20
0.0
 30
0.0
  9
$PUCSBASE
  2

  9
$PUCSNAME
  2

  9
$PUCSORG
 10
0.0
 20
0.0
 30
0.0
  9
$PUCSXDIR
 10
1.0
 20
0.0
 30
0.0
  9
$PUCSYDIR
 10
0.0
 20
1.0
 30
0.0
  9
$PUCSORTHOREF
  2

  9
$PUCSORTHOVIEW
 70
     0
  9
$PUCSORGTOP
 10
0.0
 20
0.0
 30
0.0
  9
$PUCSORGBOTTOM
 10
0.0
 20
0.0
 30
0.0
  9
$PUCSORGLEFT
 10
0.0
 20
0.0
 30
0.0
  9
$PUCSORGRIGHT
 10
0.0
 20
0.0
 30
0.0
  9
$PUCSORGFRONT
 10
0.0
 20
0.0
 30
0.0
  9
$PUCSORGBACK
 10
0.0
 20
0.0
 30
0.0
  9
$USERI1
 70
     0
  9
$USERI2
 70
     0
  9
$USERI3
 70
     0
  9
$USERI4
 70
     0
  9
$USERI5
 70
     0
  9
$USERR1
 40
0.0
  9
$USERR2
 40
0.0
  9
$USERR3
 40
0.0
  9
$USERR4
 40
0.0
  9
$USERR5
 40
0.0
  9
$WORLDVIEW
 70
     0
  9
$SHADEDGE
 70
     3
  9
$SHADEDIF
 70
    70
  9
$TILEMODE
 70
     1
  9
$MAXACTVP
 70
    16
  9
$PINSBASE
 10
0.0
 20
0.0
 30
0.0
  9
$PLIMCHECK
 70
     0
  9
$PEXTMIN
 10
0.0
 20
0.0
 30
0.0
  9
$PEXTMAX
 10
0.0
 20
0.0
 30
0.0
  9
$PLIMMIN
 10
0.0
 20
0.0
  9
$PLIMMAX
 10
0.0
 20
0.0
  9
$UNITMODE
 70
     0
  9
$VISRETAIN
 70
     0
  9
$PLINEGEN
 70
     0
  9
$PSLTSCALE
 70
     0
  9
$TREEDEPTH
 70
  3020
  9
$CMLSTYLE
  2
STANDARD
  9
$CMLJUST
 70
     0
  9
$CMLSCALE
 40
1.0
  9
$PROXYGRAPHICS
 70
     1
  9
$MEASUREMENT
 70
     0
  9
$CELWEIGHT
370
    -1
  9
$ENDCAPS
280
     0
  9
$JOINSTYLE
280
     0
  9
$LWDISPLAY
290
     0
  9
$INSUNITS
 70
     0
  9
$HYPERLINKBASE
  1

  9
$STYLESHEET
  1
spax form.ctb
  9
$XEDIT
290
     1
  9
$CEPSNTYPE
380
     0
  9
$PSTYLEMODE
290
     1
  9
$FINGERPRINTGUID
  2
{E5B35D22-A717-11D3-9160-00E0294F7E09}
  9
$VERSIONGUID
  2
{9B12813A-47D3-40B2-BDC0-B7ACEF125A17}
  9
$EXTNAMES
290
     1
  9
$PSVPSCALE
 40
0.0
  9
$OLESTARTUP
290
     0
  0
ENDSEC
  0
SECTION
  2
CLASSES
  0
CLASS
  1
LWPOLYLINE
  2
AcDbPolyline
  3
ObjectDBX Classes
 90
        0
280
     0
281
     1
  0
CLASS
  1
ACDBDICTIONARYWDFLT
  2
AcDbDictionaryWithDefault
  3
ObjectDBX Classes
 90
        0
280
     0
281
     0
  0
CLASS
  1
ACDBPLACEHOLDER
  2
AcDbPlaceHolder
  3
ObjectDBX Classes
 90
        0
280
     0
281
     0
  0
CLASS
  1
LAYOUT
  2
AcDbLayout
  3
ObjectDBX Classes
 90
        0
280
     0
281
     0
  0
CLASS
  1
DICTIONARYVAR
  2
AcDbDictionaryVar
  3
ObjectDBX Classes
 90
        0
280
     0
281
     0
  0
CLASS
  1
MATERIAL
  2
AcDbMaterial
  3
ObjectDBX Classes
 90
     1153
280
     0
281
     0
  0
CLASS
  1
SORTENTSTABLE
  2
AcDbSortentsTable
  3
ObjectDBX Classes
 90
        0
280
     0
281
     0
  0
CLASS
  1
VISUALSTYLE
  2
AcDbVisualStyle
  3
ObjectDBX Classes
 90
     4095
280
     0
281
     0
  0
CLASS
  1
TABLESTYLE
  2
AcDbTableStyle
  3
ObjectDBX Classes
 90
     4095
280
     0
281
     0
  0
CLASS
  1
SCALE
  2
AcDbScale
  3
ObjectDBX Classes
 90
     1153
280
     0
281
     0
  0
CLASS
  1
MLEADERSTYLE
  2
AcDbMLeaderStyle
  3
ACDB_MLEADERSTYLE_CLASS
 90
     4095
280
     0
281
     0
  0
CLASS
  1
CELLSTYLEMAP
  2
AcDbCellStyleMap
  3
ObjectDBX Classes
 90
     1152
280
     0
281
     0
  0
CLASS
  1
RASTERVARIABLES
  2
AcDbRasterVariables
  3
ISM
 90
        0
280
     0
281
     0
  0
CLASS
  1
AEC_VARS_DWG_SETUP
  2
AecDbVarsDwgSetup
  3
AecBase60
 90
      129
280
     0
281
     0
  0
CLASS
  1
AEC_DISP_REP_2D_SECTION
  2
AecDbDispRep2dSection
  3
AecBase60
 90
      129
280
     0
281
     0
  0
CLASS
  1
AEC_DISP_PROPS_2D_SECTION
  2
AecDbDispProps2dSection
  3
AecBase60
 90
      129
280
     0
281
     0
  0
CLASS
  1
AEC_DISP_REP_CLIP_VOLUME_MODEL
  2
AecDbDispRepClipVolModel
  3
AecBase60
 90
      129
280
     0
281
     0
  0
CLASS
  1
AEC_DISP_PROPS_CLIP_VOLUME
  2
AecDbDispPropsClipVol
  3
AecBase60
 90
      129
280
     0
281
     0
  0
CLASS
  1
AEC_DISP_REP_CLIP_VOLUME_PLAN
  2
AecDbDispRepClipVolPlan
  3
AecBase60
 90
      129
280
     0
281
     0
  0
CLASS
  1
AEC_DISP_REP_CLIP_VOLUME_RESULT
  2
AecDbDispRepClipVolResult
  3
AecBase60
 90
      129
280
     0
281
     0
  0
CLASS
  1
AEC_DISP_REP_CLIP_VOLUME_RESULT_SUBDIV
  2
AecDbDispRepClipVolResSubDiv
  3
AecBase60
 90
      129
280
     0
281
     0
  0
CLASS
  1
AEC_DISP_PROPS_CLIP_VOLUME_RESULT
  2
AecDbDispPropsClipVolResSubDiv
  3
AecBase60
 90
      129
280
     0
281
     0
  0
CLASS
  1
AEC_DISP_REP_DISPLAYTHEME
  2
AecDbDispRepDisplayTheme
  3
AecBase60
 90
      129
280
     0
281
     0
  0
CLASS
  1
AEC_DISP_PROPS_DISPLAYTHEME
  2
AecDbDispPropsDisplayTheme
  3
AecBase60
 90
      129
280
     0
281
     0
  0
CLASS
  1
AEC_DISP_REP_ENT_REF
  2
AecDbDispRepEntRef
  3
AecBase60
 90
      129
280
     0
281
     0
  0
CLASS
  1
AEC_DISP_PROPS_ENT_REF
  2
AecDbDispPropsEntRef
  3
AecBase60
 90
      129
280
     0
281
     0
  0
CLASS
  1
AEC_DISP_REP_LAYOUT_CURVE
  2
AecDbDispRepLayoutCurve
  3
AecBase60
 90
      129
280
     0
281
     0
  0
CLASS
  1
AEC_DISP_PROPS_LAYOUT_CURVE
  2
AecDbDispPropsLayoutCurve
  3
AecBase60
 90
      129
280
     0
281
     0
  0
CLASS
  1
AEC_DISP_REP_LAYOUT_GRID2D
  2
AecDbDispRepLayoutGrid2d
  3
AecBase60
 90
      129
280
     0
281
     0
  0
CLASS
  1
AEC_DISP_PROPS_LAYOUT_GRID2D
  2
AecDbDispPropsLayoutGrid2d
  3
AecBase60
 90
      129
280
     0
281
     0
  0
CLASS
  1
AEC_DISP_REP_LAYOUT_GRID3D
  2
AecDbDispRepLayoutGrid3d
  3
AecBase60
 90
      129
280
     0
281
     0
  0
CLASS
  1
AEC_DISP_PROPS_LAYOUT_GRID3D
  2
AecDbDispPropsLayoutGrid3d
  3
AecBase60
 90
      129
280
     0
281
     0
  0
CLASS
  1
AEC_DISP_REP_MASKBLOCK_REF
  2
AecDbDispRepMaskBlockRef
  3
AecBase60
 90
      129
280
     0
281
     0
  0
CLASS
  1
AEC_DISP_PROPS_MASKBLOCK
  2
AecDbDispPropsMaskBlock
  3
AecBase60
 90
      129
280
     0
281
     0
  0
CLASS
  1
AEC_DISP_REP_MASKBLOCK_REF_RCP
  2
AecDbDispRepMaskBlockRefRcp
  3
AecArchBase60
 90
      129
280
     0
281
     0
  0
CLASS
  1
AEC_DISP_REP_MASS_ELEM_MODEL
  2
AecDbDispRepMassElemModel
  3
AecBase60
 90
      129
280
     0
281
     0
  0
CLASS
  1
AEC_DISP_PROPS_MASS_ELEM_MODEL
  2
AecDbDispPropsMassElem
  3
AecBase60
 90
      129
280
     0
281
     0
  0
CLASS
  1
AEC_DISP_REP_MASS_ELEM_SCHEM
  2
AecDbDispRepMassElemSchem
  3
AecBase60
 90
      129
280
     0
281
     0
  0
CLASS
  1
AEC_DISPREPAECDBDISPREPMASSELEMPLAN50
  2
AecDbDispRepMassElemPlan50
  3
AecArchDACHBase60
 90
      129
280
     0
281
     0
  0
CLASS
  1
AEC_DISPROPSMASSELEMPLANCOMMON
  2
AecDbDispPropsMassElemPlanCommon
  3
AecArchDACHBase60
 90
      129
280
     0
281
     0
  0
CLASS
  1
AEC_DISPREPAECDBDISPREPMASSELEMPLAN100
  2
AecDbDispRepMassElemPlan100
  3
AecArchDACHBase60
 90
      129
280
     0
281
     0
  0
CLASS
  1
AEC_DISP_REP_MASS_ELEM_RCP
  2
AecDbDispRepMassElemRcp
  3
AecArchBase60
 90
      129
280
     0
281
     0
  0
CLASS
  1
AEC_DISP_REP_MASS_GROUP_MODEL
  2
AecDbDispRepMassGroupModel
  3
AecBase60
 90
      129
280
     0
281
     0
  0
CLASS
  1
AEC_DISP_PROPS_MASS_GROUP
  2
AecDbDispPropsMassGroup
  3
AecBase60
 90
      129
280
     0
281
     0
  0
CLASS
  1
AEC_DISP_REP_MASS_GROUP_PLAN
  2
AecDbDispRepMassGroupPlan
  3
AecBase60
 90
      129
280
     0
281
     0
  0
CLASS
  1
AEC_DISPREPAECDBDISPREPMASSGROUPPLAN50
  2
AecDbDispRepMassGroupPlan50
  3
AecArchDACHBase60
 90
      129
280
     0
281
     0
  0
CLASS
  1
AEC_DISPROPSMASSGROUPPLANCOMMON
  2
AecDbDispPropsMassGroupPlanCommon
  3
AecArchDACHBase60
 90
      129
280
     0
281
     0
  0
CLASS
  1
AEC_DISPREPAECDBDISPREPMASSGROUPPLAN100
  2
AecDbDispRepMassGroupPlan100
  3
AecArchDACHBase60
 90
      129
280
     0
281
     0
  0
CLASS
  1
AEC_DISP_REP_MASS_GROUP_RCP
  2
AecDbDispRepMassGroupRcp
  3
AecArchBase60
 90
      129
280
     0
281
     0
  0
CLASS
  1
AEC_DISP_REP_MVBLOCK_REF
  2
AecDbDispRepMvBlockRef
  3
AecBase60
 90
      129
280
     0
281
     0
  0
CLASS
  1
AEC_DISP_REP_MVBLOCK_REF_MODEL
  2
AecDbDispRepMvBlockRefModel
  3
AecBase60
 90
      129
280
     0
281
     0
  0
CLASS
  1
AEC_AECDBDISPREPMVBLOCKREFPLAN100
  2
AecDbDispRepMvBlockRefPlan100
  3
AecBase60
 90
      129
280
     0
281
     0
  0
CLASS
  1
AEC_AECDBDISPREPMVBLOCKREFPLAN50
  2
AecDbDispRepMvBlockRefPlan50
  3
AecBase60
 90
      129
280
     0
281
     0
  0
CLASS
  1
AEC_DISP_REP_POLYGON_MODEL
  2
AecDbDispRepPolygonModel
  3
AecBase60
 90
      129
280
     0
281
     0
  0
CLASS
  1
AEC_DISP_PROPS_POLYGON_MODEL
  2
AecDbDispPropsPolygonModel
  3
AecBase60
 90
      129
280
     0
281
     0
  0
CLASS
  1
AEC_DISP_REP_POLYGON_TRUECOLOUR
  2
AecDbDispRepPolygonTrueColour
  3
AecBase60
 90
      129
280
     0
281
     0
  0
CLASS
  1
AEC_DISP_PROPS_POLYGON_TRUECOLOUR
  2
AecDbDispPropsPolygonTrueColour
  3
AecBase60
 90
      129
280
     0
281
     0
  0
CLASS
  1
AEC_DISP_REP_SLICE
  2
AecDbDispRepSlice
  3
AecBase60
 90
      129
280
     0
281
     0
  0
CLASS
  1
AEC_DISP_PROPS_SLICE
  2
AecDbDispPropsSlice
  3
AecBase60
 90
      129
280
     0
281
     0
  0
CLASS
  1
AEC_DISP_REP_ANCHOR
  2
AecDbDispRepAnchor
  3
AecBase60
 90
      129
280
     0
281
     0
  0
CLASS
  1
AEC_DISP_REP_ANCHOR_ENT_TO_NODE
  2
AecDbDispRepAnchorEntToNode
  3
AecBase60
 90
      129
280
     0
281
     0
  0
CLASS
  1
AEC_DISP_PROPS_ENT
  2
AecDbDispPropsEnt
  3
AecBase60
 90
      129
280
     0
281
     0
  0
CLASS
  1
AEC_DISP_REP_MATERIAL
  2
AecDbDispRepMaterial
  3
AecBase60
 90
      129
280
     0
281
     0
  0
CLASS
  1
AEC_DISP_PROPS_MATERIAL
  2
AecDbDispPropsMaterial
  3
AecBase60
 90
      129
280
     0
281
     0
  0
CLASS
  1
AEC_DISP_REP_EDITINPLACEPROFILE
  2
AecDbDispRepEditInPlaceProfile
  3
AecBase60
 90
      129
280
     0
281
     0
  0
CLASS
  1
AEC_DISP_PROPS_EDITINPLACEPROFILE_MODEL
  2
AecDbDispPropsEditInPlaceProfile
  3
AecBase60
 90
      129
280
     0
281
     0
  0
CLASS
  1
SUN
  2
AcDbSun
  3
SCENEOE
 90
     1153
280
     0
281
     0
  0
ENDSEC
  0
SECTION
  2
TABLES
  0
TABLE
  2
VPORT
  5
8
330
0
100
AcDbSymbolTable
 70
     1
  0
VPORT
  5
6E6DB
330
8
100
AcDbSymbolTableRecord
100
AcDbViewportTableRecord
  2
*Active
 70
     0
 10
0.0
 20
0.0
 11
1.0
 21
1.0
 12
514.7653600499111
 22
1363.100700524072
 13
0.0
 23
0.0
 14
1.0
 24
1.0
 15
20.0
 25
20.0
 16
0.0
 26
0.0
 36
1.0
 17
0.0
 27
0.0
 37
0.0
 40
173.2785363975943
 41
2.316666666666667
 42
50.0
 43
0.0
 44
0.0
 50
0.0
 51
0.0
 71
    16
 72
   100
 73
     1
 74
     0
 75
     0
 76
     0
 77
     0
 78
     0
281
     0
 65
     1
110
0.0
120
0.0
130
0.0
111
1.0
121
0.0
131
0.0
112
0.0
122
1.0
132
0.0
 79
     0
146
0.0
  0
ENDTAB
  0
TABLE
  2
LTYPE
  5
5
330
0
100
AcDbSymbolTable
 70
     4
  0
LTYPE
  5
12
330
5
100
AcDbSymbolTableRecord
100
AcDbLinetypeTableRecord
  2
BYBLOCK
 70
     0
  3

 72
    65
 73
     0
 40
0.0
  0
LTYPE
  5
13
330
5
100
AcDbSymbolTableRecord
100
AcDbLinetypeTableRecord
  2
BYLAYER
 70
     0
  3

 72
    65
 73
     0
 40
0.0
  0
LTYPE
  5
14
330
5
100
AcDbSymbolTableRecord
100
AcDbLinetypeTableRecord
  2
CONTINUOUS
 70
     0
  3
Solid line
 72
    65
 73
     0
 40
0.0
  0
LTYPE
  5
25
330
5
100
AcDbSymbolTableRecord
100
AcDbLinetypeTableRecord
  2
CENTER
 70
     0
  3
____ _ ____ _ ____ _ ____ _ ____ _ ____ _ ____
 72
    65
 73
     4
 40
2.0
 49
1.25
 74
     0
 49
-0.25
 74
     0
 49
0.25
 74
     0
 49
-0.25
 74
     0
  0
LTYPE
  5
26
330
5
100
AcDbSymbolTableRecord
100
AcDbLinetypeTableRecord
  2
PHANTOM
 70
     0
  3
_____ _ _ _____ _ _ _____ _ _ _____ _ _ ____
 72
    65
 73
     6
 40
2.5
 49
1.25
 74
     0
 49
-0.25
 74
     0
 49
0.25
 74
     0
 49
-0.25
 74
     0
 49
0.25
 74
     0
 49
-0.25
 74
     0
  0
LTYPE
  5
27
330
5
100
AcDbSymbolTableRecord
100
AcDbLinetypeTableRecord
  2
HIDDEN
 70
     0
  3
_ _ _ _ _ _ _ _ _ _ _ _ _ _ _ _ _ _ _ _ _ _ _
 72
    65
 73
     2
 40
0.375
 49
0.25
 74
     0
 49
-0.125
 74
     0
  0
ENDTAB
  0
TABLE
  2
LAYER
  5
2
102
{ACAD_XDICTIONARY
360
28C1
102
}
330
0
100
AcDbSymbolTable
 70
     4
  0
LAYER
  5
F
102
{ACAD_XDICTIONARY
360
229C2
102
}
330
2
100
AcDbSymbolTableRecord
100
AcDbLayerTableRecord
  2
0
 70
     0
 62
     7
  6
CONTINUOUS
370
    -3
390
352
  0
LAYER
  5
34
102
{ACAD_XDICTIONARY
360
229C8
102
}
330
2
100
AcDbSymbolTableRecord
100
AcDbLayerTableRecord
  2
寸法線
 70
     0
 62
     7
  6
CONTINUOUS
370
    -3
390
352
  0
LAYER
  5
2F4
102
{ACAD_XDICTIONARY
360
229D0
102
}
330
2
100
AcDbSymbolTableRecord
100
AcDbLayerTableRecord
  2
文字
 70
     0
 62
     7
  6
CONTINUOUS
370
    -3
390
352
  0
LAYER
  5
305
102
{ACAD_XDICTIONARY
360
229D4
102
}
330
2
100
AcDbSymbolTableRecord
100
AcDbLayerTableRecord
  2
姿図
 70
     0
 62
     8
  6
CONTINUOUS
370
    -3
390
352
  0
ENDTAB
  0
TABLE
  2
STYLE
  5
3
330
0
100
AcDbSymbolTable
 70
     1
  0
STYLE
  5
10
330
3
100
AcDbSymbolTableRecord
100
AcDbTextStyleTableRecord
  2
STANDARD
 70
     0
 40
0.0
 41
1.0
 50
0.0
 71
     0
 42
12.0
  3
MONOTXT
  4
BIGFONT
  0
ENDTAB
  0
TABLE
  2
VIEW
  5
6
330
0
100
AcDbSymbolTable
 70
     0
  0
ENDTAB
  0
TABLE
  2
UCS
  5
7
330
0
100
AcDbSymbolTable
 70
     0
  0
ENDTAB
  0
TABLE
  2
APPID
  5
9
330
0
100
AcDbSymbolTable
 70
    17
  0
APPID
  5
11
330
9
100
AcDbSymbolTableRecord
100
AcDbRegAppTableRecord
  2
ACAD
 70
     0
  0
APPID
  5
28BD
330
9
100
AcDbSymbolTableRecord
100
AcDbRegAppTableRecord
  2
ACAD_PSEXT
 70
     0
  0
APPID
  5
DD21
330
9
100
AcDbSymbolTableRecord
100
AcDbRegAppTableRecord
  2
GENIUS_GENODEF_13
 70
     0
  0
APPID
  5
DD22
330
9
100
AcDbSymbolTableRecord
100
AcDbRegAppTableRecord
  2
GENIUS_GENREC_14
 70
     0
  0
APPID
  5
DD23
330
9
100
AcDbSymbolTableRecord
100
AcDbRegAppTableRecord
  2
GENIUS_GENOBJ-N-REC_13
 70
     0
  0
APPID
  5
1DE9D
330
9
100
AcDbSymbolTableRecord
100
AcDbRegAppTableRecord
  2
ASK_MEN_XD
 70
     0
  0
APPID
  5
229B7
330
9
100
AcDbSymbolTableRecord
100
AcDbRegAppTableRecord
  2
ACAD_MLEADERVER
 70
     0
  0
APPID
  5
251CE
330
9
100
AcDbSymbolTableRecord
100
AcDbRegAppTableRecord
  2
ACAD_DSTYLE_DIMJAG
 70
     0
  0
APPID
  5
251CF
330
9
100
AcDbSymbolTableRecord
100
AcDbRegAppTableRecord
  2
ACAD_DSTYLE_DIMTALN
 70
     0
  0
APPID
  5
2F706
330
9
100
AcDbSymbolTableRecord
100
AcDbRegAppTableRecord
  2
ACAD_EXEMPT_FROM_CAD_STANDARDS
 70
     0
  0
APPID
  5
37C57
330
9
100
AcDbSymbolTableRecord
100
AcDbRegAppTableRecord
  2
ACAD_DSTYLE_DIMBREAK
 70
     0
  0
APPID
  5
3A205
330
9
100
AcDbSymbolTableRecord
100
AcDbRegAppTableRecord
  2
ACAD_DSTYLE_DIMRADIAL_EXTENSION
 70
     0
  0
APPID
  5
3E3B4
330
9
100
AcDbSymbolTableRecord
100
AcDbRegAppTableRecord
  2
AcAecLayerStandard
 70
     0
  0
APPID
  5
70E8F
330
9
100
AcDbSymbolTableRecord
100
AcDbRegAppTableRecord
  2
AECBASE
 70
     0
  0
APPID
  5
70E90
330
9
100
AcDbSymbolTableRecord
100
AcDbRegAppTableRecord
  2
AEC_2DSECTION_XDATA
 70
     0
  0
APPID
  5
70E91
330
9
100
AcDbSymbolTableRecord
100
AcDbRegAppTableRecord
  2
AEC_MASSGROUP_XDADA
 70
     0
  0
APPID
  5
713D9
330
9
100
AcDbSymbolTableRecord
100
AcDbRegAppTableRecord
  2
PLOTTRANSPARENCY
 70
     0
  0
ENDTAB
  0
TABLE
  2
DIMSTYLE
  5
A
330
0
100
AcDbSymbolTable
 70
     2
100
AcDbDimStyleTable
  0
DIMSTYLE
105
1CC
330
A
100
AcDbSymbolTableRecord
100
AcDbDimStyleTableRecord
  2
STANDARD
 70
     0
 41
2.5
 42
1.5
 43
7.0
 44
1.0
 73
     0
 74
     0
 77
     3
 78
     8
 79
     2
140
3.0
141
0.0
147
1.0
171
     0
172
     1
176
     8
177
     8
271
     2
178
   256
179
     2
271
     2
272
     2
274
     0
340
10
341
3F3
342
3F3
1001
ACAD_DSTYLE_DIMJAG
1070
   388
1040
1.5
1001
ACAD_DSTYLE_DIMTALN
1070
   392
1070
     0
  0
DIMSTYLE
105
70F3C
330
A
100
AcDbSymbolTableRecord
100
AcDbDimStyleTableRecord
  2
ISO-25
 70
     0
 41
2.5
 42
0.625
 43
3.75
 44
1.25
 73
     0
 74
     0
 77
     1
 78
     8
140
2.5
141
2.5
143
0.03937007874016
147
0.625
171
     3
172
     1
178
     0
271
     2
272
     2
274
     3
278
    44
283
     0
284
     8
340
10
  0
ENDTAB
  0
TABLE
  2
BLOCK_RECORD
  5
1
330
0
100
AcDbSymbolTable
 70
     4
  0
BLOCK_RECORD
  5
18
102
{ACAD_XDICTIONARY
360
2F65E
102
}
330
1
100
AcDbSymbolTableRecord
100
AcDbBlockTableRecord
  2
*MODEL_SPACE
340
355
  0
BLOCK_RECORD
  5
15
330
1
100
AcDbSymbolTableRecord
100
AcDbBlockTableRecord
  2
*PAPER_SPACE
340
356
  0
BLOCK_RECORD
  5
3ED
330
1
100
AcDbSymbolTableRecord
100
AcDbBlockTableRecord
  2
SUN
340
0
  0
BLOCK_RECORD
  5
3F3
330
1
100
AcDbSymbolTableRecord
100
AcDbBlockTableRecord
  2
_Open30
340
0
  0
BLOCK_RECORD
  5
713D0
330
1
100
AcDbSymbolTableRecord
100
AcDbBlockTableRecord
  2
_OPEN
340
0
  0
ENDTAB
  0
ENDSEC
  0
SECTION
  2
BLOCKS
  0
BLOCK
  5
39
330
18
100
AcDbEntity
  8
0
100
AcDbBlockBegin
  2
*MODEL_SPACE
 70
     0
 10
0.0
 20
0.0
 30
0.0
  3
*MODEL_SPACE
  1
*MODEL_SPACE
  0
ENDBLK
  5
3A
330
18
100
AcDbEntity
  8
0
100
AcDbBlockEnd
  0
BLOCK
  5
37
330
15
100
AcDbEntity
 67
     1
  8
0
100
AcDbBlockBegin
  2
*PAPER_SPACE
 70
     0
 10
0.0
 20
0.0
 30
0.0
  3
*PAPER_SPACE
  1
*PAPER_SPACE
  0
ENDBLK
  5
38
330
15
100
AcDbEntity
 67
     1
  8
0
100
AcDbBlockEnd
  0
BLOCK
  5
3F1
330
3ED
100
AcDbEntity
  8
0
100
AcDbBlockBegin
  2
SUN
 70
     0
 10
0.0
 20
0.0
 30
0.0
  3
SUN
  1
SUN
  0
LINE
  5
3EE
330
3ED
100
AcDbEntity
  8
0
100
AcDbLine
 10
-0.0000000000000568
 20
0.0
 30
0.0
 11
-1.500000000000057
 21
0.0
 31
0.0
  0
LINE
  5
3EF
330
3ED
100
AcDbEntity
  8
0
100
AcDbLine
 10
-0.0000000000000568
 20
0.0000000000000284
 30
0.0
 11
-1.500000000000057
 21
0.401923788646684
 31
0.0
  0
LINE
  5
3F0
330
3ED
100
AcDbEntity
  8
0
100
AcDbLine
 10
-0.0000000000000568
 20
0.0000000000000284
 30
0.0
 11
-1.500000000000057
 21
-0.4019237886466556
 31
0.0
  0
ENDBLK
  5
3F2
330
3ED
100
AcDbEntity
  8
0
100
AcDbBlockEnd
  0
BLOCK
  5
3F7
330
3F3
100
AcDbEntity
  8
0
100
AcDbBlockBegin
  2
_Open30
 70
     0
 10
0.0
 20
0.0
 30
0.0
  3
_Open30
  1
_Open30
  0
LINE
  5
3F4
330
3F3
100
AcDbEntity
  8
寸法線
 62
     0
370
    -2
100
AcDbLine
 10
-1.0
 20
0.26794919
 30
0.0
 11
0.0
 21
0.0
 31
0.0
  0
LINE
  5
3F5
330
3F3
100
AcDbEntity
  8
寸法線
 62
     0
370
    -2
100
AcDbLine
 10
0.0
 20
0.0
 30
0.0
 11
-1.0
 21
-0.26794919
 31
0.0
  0
LINE
  5
3F6
330
3F3
100
AcDbEntity
  8
寸法線
 62
     0
370
    -2
100
AcDbLine
 10
0.0
 20
0.0
 30
0.0
 11
-1.0
 21
0.0
 31
0.0
  0
ENDBLK
  5
3F8
330
3F3
100
AcDbEntity
  8
0
100
AcDbBlockEnd
  0
BLOCK
  5
713D1
330
713D0
100
AcDbEntity
  8
0
100
AcDbBlockBegin
  2
_OPEN
 70
     0
 10
0.0
 20
0.0
 30
0.0
  3
_OPEN
  1
_OPEN
  0
LINE
  5
713D2
330
713D0
100
AcDbEntity
  8
0
  6
ByBlock
 62
     0
100
AcDbLine
 10
-1.0
 20
0.1666666666666667
 30
0.0
 11
0.0
 21
0.0
 31
0.0
  0
LINE
  5
713D3
330
713D0
100
AcDbEntity
  8
0
  6
ByBlock
 62
     0
100
AcDbLine
 10
0.0
 20
0.0
 30
0.0
 11
-1.0
 21
-0.1666666666666667
 31
0.0
  0
LINE
  5
713D4
330
713D0
100
AcDbEntity
  8
0
  6
ByBlock
 62
     0
100
AcDbLine
 10
0.0
 20
0.0
 30
0.0
 11
-1.0
 21
0.0
 31
0.0
  0
ENDBLK
  5
713D5
330
713D0
100
AcDbEntity
  8
0
100
AcDbBlockEnd
  0
ENDSEC
  0
SECTION
  2
ENTITIES
  0
TEXT
  5
7139E
330
18
100
AcDbEntity
  8
文字
100
AcDbText
 10
418.8329629100328
 20
1321.468008216518
 30
0.0
 40
18.0
  1
MMT-060/01
100
AcDbText
  0
LINE
  5
71641
330
18
100
AcDbEntity
  8
0
  6
Continuous
 62
   252
370
    15
100
AcDbLine
 10
508.1665565716414
 20
1379.981657936932
 30
0.0
 11
506.8948130144553
 21
1380.551765159334
 31
0.0
  0
LINE
  5
71642
330
18
100
AcDbEntity
  8
0
  6
Continuous
 62
   252
370
    15
100
AcDbLine
 10
507.231215889845
 20
1382.069986050665
 30
0.0
 11
507.0886525290732
 21
1382.164209621797
 31
0.0
  0
LINE
  5
71643
330
18
100
AcDbEntity
  8
0
  6
Continuous
 62
   252
370
    15
100
AcDbLine
 10
482.6631842537328
 20
1380.551765159334
 30
0.0
 11
481.3914406965468
 21
1379.981657936932
 31
0.0
  0
LINE
  5
71644
330
18
100
AcDbEntity
  8
0
  6
Continuous
 62
   252
370
    15
100
AcDbLine
 10
482.469344739115
 20
1382.164209621797
 30
0.0
 11
482.3267813783431
 21
1382.069986050665
 31
0.0
  0
LINE
  5
71645
330
18
100
AcDbEntity
  8
0
  6
Continuous
 62
   252
370
    15
100
AcDbLine
 10
493.5072548400273
 20
1374.542899856911
 30
0.0
 11
496.0507424281608
 21
1374.542899856911
 31
0.0
  0
LINE
  5
71646
330
18
100
AcDbEntity
  8
0
  6
Continuous
 62
   252
370
    15
100
AcDbLine
 10
458.2597269373297
 20
1392.659847891227
 30
0.0
 11
458.3695031602581
 21
1392.557449353916
 31
0.0
  0
LINE
  5
71647
330
18
100
AcDbEntity
  8
0
  6
Continuous
 62
   252
370
    15
100
AcDbLine
 10
531.18849410793
 20
1392.557449353916
 30
0.0
 11
531.2982703308585
 21
1392.659847891227
 31
0.0
  0
SPLINE
  5
71648
330
18
100
AcDbEntity
  8
0
  6
Continuous
 62
   252
370
    15
100
AcDbSpline
210
0.0
220
0.0
230
1.0
 70
     8
 71
     3
 72
    11
 73
     7
 74
     0
 42
0.000000001
 43
0.00000001
 40
0.0
 40
0.0
 40
0.0
 40
0.0
 40
0.0955192758837095
 40
0.4104376575315734
 40
0.7251789592544156
 40
0.9999999999999999
 40
0.9999999999999999
 40
0.9999999999999999
 40
0.9999999999999999
 10
511.1235465066774
 20
1371.300773342556
 30
0.0
 10
511.1547972043591
 20
1371.323497274143
 30
0.0
 10
511.2890786154566
 20
1371.421139945367
 30
0.0
 10
511.4806971713525
 20
1371.599158066972
 30
0.0
 10
511.6924861013287
 20
1371.82432690693
 30
0.0
 10
511.7918412530996
 20
1371.97553447438
 30
0.0
 10
511.8381550765009
 20
1372.046018998342
 30
0.0
  0
SPLINE
  5
71649
330
18
100
AcDbEntity
  8
0
  6
Continuous
 62
   252
370
    15
100
AcDbSpline
210
0.0
220
0.0
230
1.0
 70
     8
 71
     3
 72
    13
 73
     9
 74
     0
 42
0.000000001
 43
0.00000001
 40
0.0
 40
0.0
 40
0.0
 40
0.0
 40
0.0479357877501598
 40
0.2655252545573131
 40
0.4854304827097634
 40
0.70667654463045
 40
0.928458354655283
 40
1.0
 40
1.0
 40
1.0
 40
1.0
 10
477.7177481658909
 20
1372.051678205606
 30
0.0
 10
477.7273762622218
 20
1372.034038518225
 30
0.0
 10
477.7807080806641
 20
1371.936329005103
 30
0.0
 10
477.9228548067809
 20
1371.762625706463
 30
0.0
 10
478.1452330138665
 20
1371.530415597354
 30
0.0
 10
478.4204116754452
 20
1371.302757592963
 30
0.0
 10
478.6584054571617
 20
1371.128910852386
 30
0.0
 10
478.8192199716173
 20
1371.033071119055
 30
0.0
 10
478.8584426616165
 20
1371.009695790263
 30
0.0
  0
LINE
  5
7164A
330
18
100
AcDbEntity
  8
0
  6
Continuous
 62
   252
370
    15
100
AcDbLine
 10
477.4832817082532
 20
1373.211202161927
 30
0.0
 11
477.4832817082532
 21
1372.806963492932
 31
0.0
  0
LINE
  5
7164B
330
18
100
AcDbEntity
  8
0
  6
Continuous
 62
   252
370
    15
100
AcDbLine
 10
512.0747155599349
 20
1372.806963492932
 30
0.0
 11
512.0747155599349
 21
1373.211202161927
 31
0.0
  0
LINE
  5
7164C
330
18
100
AcDbEntity
  8
0
  6
Continuous
 62
   252
370
    15
100
AcDbLine
 10
479.7215517712346
 20
1376.970018479424
 30
0.0
 11
479.7215517712346
 21
1375.828005525706
 31
0.0
  0
LINE
  5
7164D
330
18
100
AcDbEntity
  8
0
  6
Continuous
 62
   252
370
    15
100
AcDbLine
 10
479.7215517712346
 20
1379.419702727367
 30
0.0
 11
479.7215517712346
 21
1379.060766026521
 31
0.0
  0
LINE
  5
7164E
330
18
100
AcDbEntity
  8
0
  6
Continuous
 62
   252
370
    15
100
AcDbLine
 10
509.8364454969534
 20
1379.048395684283
 30
0.0
 11
509.8364454969534
 21
1381.023890649118
 31
0.0
  0
LINE
  5
7164F
330
18
100
AcDbEntity
  8
0
  6
Continuous
 62
   252
370
    15
100
AcDbLine
 10
509.8364454969534
 20
1375.828005525706
 30
0.0
 11
509.8364454969534
 21
1376.957648137186
 31
0.0
  0
SPLINE
  5
71650
330
18
100
AcDbEntity
  8
0
  6
Continuous
 62
   252
370
    15
100
AcDbSpline
210
0.0
220
0.0
230
1.0
 70
     8
 71
     3
 72
    13
 73
     9
 74
     0
 42
0.000000001
 43
0.00000001
 40
0.0
 40
0.0
 40
0.0
 40
0.0
 40
0.1545445644896989
 40
0.3564131480875393
 40
0.5580201588896649
 40
0.7595505083972118
 40
0.9613362336574669
 40
1.0
 40
1.0
 40
1.0
 40
1.0
 10
507.8725127112876
 20
1373.947719856577
 30
0.0
 10
507.9564401254921
 20
1373.899454354226
 30
0.0
 10
508.1499948713756
 20
1373.788143680223
 30
0.0
 10
508.4017899451698
 20
1373.609706526831
 30
0.0
 10
508.6366280425486
 20
1373.414463355341
 30
0.0
 10
508.8210248408949
 20
1373.218443418605
 30
0.0
 10
508.9337162062283
 20
1373.075140266611
 30
0.0
 10
508.9712861820244
 20
1372.998340529694
 30
0.0
 10
508.9773273541475
 20
1372.985991295501
 30
0.0
  0
SPLINE
  5
71651
330
18
100
AcDbEntity
  8
0
  6
Continuous
 62
   252
370
    15
100
AcDbSpline
210
0.0
220
0.0
230
1.0
 70
     8
 71
     3
 72
    13
 73
     9
 74
     0
 42
0.000000001
 43
0.00000001
 40
0.0
 40
0.0
 40
0.0
 40
0.0
 40
0.0217646631205157
 40
0.2359365470216722
 40
0.4468497122086344
 40
0.6562853389360654
 40
0.865305879971974
 40
1.0
 40
1.0
 40
1.0
 40
1.0
 10
480.5639214977612
 20
1372.958257326948
 30
0.0
 10
480.5668651435955
 20
1372.964946745813
 30
0.0
 10
480.5987752921678
 20
1373.037462381821
 30
0.0
 10
480.7034915537229
 20
1373.177175872915
 30
0.0
 10
480.8802135575416
 20
1373.375567861188
 30
0.0
 10
481.1076719204601
 20
1373.571858657803
 30
0.0
 10
481.3400426982794
 20
1373.743072831307
 30
0.0
 10
481.5152113795174
 20
1373.847117039477
 30
0.0
 10
481.5838560841185
 20
1373.887889647256
 30
0.0
  0
LINE
  5
71652
330
18
100
AcDbEntity
  8
0
  6
Continuous
 62
   252
370
    15
100
AcDbLine
 10
506.1534786113222
 20
1383.563169782352
 30
0.0
 11
505.5643050292742
 21
1383.428258535713
 31
0.0
  0
LINE
  5
71653
330
18
100
AcDbEntity
  8
0
  6
Continuous
 62
   252
370
    15
100
AcDbLine
 10
483.9936079093683
 20
1383.428277909436
 30
0.0
 11
483.4045612954002
 21
1383.563159972873
 31
0.0
  0
LINE
  5
71654
330
18
100
AcDbEntity
  8
0
  6
Continuous
 62
   252
370
    15
100
AcDbLine
 10
508.5555374974584
 20
1379.686756178388
 30
0.0
 11
508.4593648620229
 21
1379.672385290532
 31
0.0
  0
LINE
  5
71655
330
18
100
AcDbEntity
  8
0
  6
Continuous
 62
   252
370
    15
100
AcDbLine
 10
481.0986324061652
 20
1379.672385290532
 30
0.0
 11
481.0025497854134
 21
1379.686742812972
 31
0.0
  0
LINE
  5
71656
330
18
100
AcDbEntity
  8
0
  6
Continuous
 62
   252
370
    15
100
AcDbLine
 10
508.8020735028766
 20
1382.432368807556
 30
0.0
 11
508.1125828198576
 21
1382.329338738011
 31
0.0
  0
LINE
  5
71657
330
18
100
AcDbEntity
  8
0
  6
Continuous
 62
   252
370
    15
100
AcDbLine
 10
481.4452846376817
 20
1382.329358111733
 30
0.0
 11
480.7560365205467
 21
1382.432352008822
 31
0.0
  0
LINE
  5
71658
330
18
100
AcDbEntity
  8
0
  6
Continuous
 62
   252
370
    15
100
AcDbLine
 10
479.7338089285661
 20
1380.979382846033
 30
0.0
 11
479.6763274466925
 21
1380.976370354054
 31
0.0
  0
LINE
  5
71659
330
18
100
AcDbEntity
  8
0
  6
Continuous
 62
   252
370
    15
100
AcDbLine
 10
509.8364454969534
 20
1376.920024972217
 30
0.0
 11
510.0755330241881
 21
1376.940942234272
 31
0.0
  0
LINE
  5
7165A
330
18
100
AcDbEntity
  8
0
  6
Continuous
 62
   252
370
    15
100
AcDbLine
 10
510.0755330241881
 20
1379.077471929435
 30
0.0
 11
509.8339639342562
 21
1379.098606462088
 31
0.0
  0
LINE
  5
7165B
330
18
100
AcDbEntity
  8
0
  6
Continuous
 62
   252
370
    15
100
AcDbLine
 10
479.7239679548459
 20
1379.098600587484
 30
0.0
 11
479.4824642439999
 21
1379.077471929435
 31
0.0
  0
LINE
  5
7165C
330
18
100
AcDbEntity
  8
0
  6
Continuous
 62
   252
370
    15
100
AcDbLine
 10
479.4824642439999
 20
1376.940942234272
 30
0.0
 11
479.7215517712346
 21
1376.920024972217
 31
0.0
  0
LINE
  5
7165D
330
18
100
AcDbEntity
  8
0
  6
Continuous
 62
   252
370
    15
100
AcDbLine
 10
479.6463648748668
 20
1379.781348448499
 30
0.0
 11
479.801758644376
 21
1379.773204836462
 31
0.0
  0
LINE
  5
7165E
330
18
100
AcDbEntity
  8
0
  6
Continuous
 62
   252
370
    15
100
AcDbLine
 10
479.5691663872023
 20
1379.427691491721
 30
0.0
 11
479.7236230564794
 21
1379.419593967297
 31
0.0
  0
LINE
  5
7165F
330
18
100
AcDbEntity
  8
0
  6
Continuous
 62
   252
370
    15
100
AcDbLine
 10
479.5833242756414
 20
1379.195766083387
 30
0.0
 11
479.7215517712346
 21
1379.188524338623
 31
0.0
  0
LINE
  5
71660
330
18
100
AcDbEntity
  8
0
  6
Continuous
 62
   252
370
    15
100
AcDbLine
 10
506.5525250738069
 20
1374.557845618805
 30
0.0
 11
506.4932622487218
 21
1372.010740619122
 31
0.0
  0
LINE
  5
71661
330
18
100
AcDbEntity
  8
0
  6
Continuous
 62
   252
370
    15
100
AcDbLine
 10
507.0981144935996
 20
1384.680542887165
 30
0.0
 11
506.9542549213845
 21
1384.714346176291
 31
0.0
  0
LINE
  5
71662
330
18
100
AcDbEntity
  8
0
  6
Continuous
 62
   252
370
    15
100
AcDbLine
 10
505.3788690960085
 20
1387.064140715622
 30
0.0
 11
505.4419428585385
 21
1386.871162485364
 31
0.0
  0
LINE
  5
71663
330
18
100
AcDbEntity
  8
0
  6
Continuous
 62
   252
370
    15
100
AcDbLine
 10
526.9924340507932
 20
1395.174982350767
 30
0.0
 11
526.9293593407401
 21
1395.367962656736
 31
0.0
  0
LINE
  5
71664
330
18
100
AcDbEntity
  8
0
  6
Continuous
 62
   252
370
    15
100
AcDbLine
 10
504.1279539890746
 20
1372.722875342614
 30
0.0
 11
504.9913246150365
 21
1372.499418581634
 31
0.0
  0
LINE
  5
71665
330
18
100
AcDbEntity
  8
0
  6
Continuous
 62
   252
370
    15
100
AcDbLine
 10
505.2579888512211
 20
1373.481319856774
 30
0.0
 11
504.3828755729084
 21
1373.707815839824
 31
0.0
  0
ARC
  5
71666
330
18
100
AcDbEntity
  8
0
  6
Continuous
 62
   252
370
    15
100
AcDbCircle
 10
508.1027407263925
 20
1378.009207127032
 30
0.0
 40
2.27801112203974
100
AcDbArc
 50
335.5990625452458
 51
24.40093745476057
  0
LINE
  5
71667
330
18
100
AcDbEntity
  8
0
  6
Continuous
 62
   252
370
    15
100
AcDbLine
 10
510.0755330241881
 20
1377.068116733104
 30
0.0
 11
510.1772733046823
 21
1377.068116733104
 31
0.0
  0
LINE
  5
71668
330
18
100
AcDbEntity
  8
0
  6
Continuous
 62
   252
370
    15
100
AcDbLine
 10
510.1772733046823
 20
1378.950297430604
 30
0.0
 11
510.0755330241881
 21
1378.950297430604
 31
0.0
  0
LINE
  5
71669
330
18
100
AcDbEntity
  8
0
  6
Continuous
 62
   252
370
    15
100
AcDbLine
 10
494.2703010809352
 20
1371.560464829401
 30
0.0
 11
494.2703010809352
 21
1371.125770731146
 31
0.0
  0
LINE
  5
7166A
330
18
100
AcDbEntity
  8
0
  6
Continuous
 62
   252
370
    15
100
AcDbLine
 10
495.2876961872529
 20
1371.125770731146
 30
0.0
 11
495.2876961872529
 21
1371.560464829401
 31
0.0
  0
LINE
  5
7166B
330
18
100
AcDbEntity
  8
0
  6
Continuous
 62
   252
370
    15
100
AcDbLine
 10
481.8779492156675
 20
1377.810309825388
 30
0.0
 11
481.7898400008328
 21
1377.823475986511
 31
0.0
  0
LINE
  5
7166C
330
18
100
AcDbEntity
  8
0
  6
Continuous
 62
   252
370
    15
100
AcDbLine
 10
507.7681572673553
 20
1377.823475986511
 30
0.0
 11
507.6800480525207
 21
1377.810309825388
 31
0.0
  0
LINE
  5
7166D
330
18
100
AcDbEntity
  8
0
  6
Continuous
 62
   252
370
    15
100
AcDbLine
 10
479.4824642439999
 20
1378.950297430604
 30
0.0
 11
479.3807239635058
 21
1378.950297430604
 31
0.0
  0
LINE
  5
7166E
330
18
100
AcDbEntity
  8
0
  6
Continuous
 62
   252
370
    15
100
AcDbLine
 10
479.3807239635058
 20
1377.068116733104
 30
0.0
 11
479.4824642439999
 21
1377.068116733104
 31
0.0
  0
ARC
  5
7166F
330
18
100
AcDbEntity
  8
0
  6
Continuous
 62
   252
370
    15
100
AcDbCircle
 10
481.4552565417957
 20
1378.009207127032
 30
0.0
 40
2.27801112203974
100
AcDbArc
 50
155.5990625452394
 51
204.4009374547606
  0
LWPOLYLINE
  5
71670
330
18
100
AcDbEntity
  8
0
  6
Continuous
 62
   252
370
    15
100
AcDbPolyline
 90
        9
 70
   128
 43
0.0
 10
506.7243128859993
 20
1380.596563039834
 10
506.8731715894822
 20
1380.560900188475
 10
507.026092324001
 20
1380.468222600158
 10
507.1443725657181
 20
1380.327677323141
 10
507.2187739655314
 20
1380.150243980633
 10
507.2434825224064
 20
1379.949783978607
 10
507.2165700270688
 20
1379.741956921723
 10
507.140137137976
 20
1379.542998420067
 10
507.0436603476624
 20
1379.396277556773
  0
ARC
  5
71671
330
18
100
AcDbEntity
  8
0
  6
Continuous
 62
   252
370
    15
100
AcDbCircle
 10
506.4669880079783
 20
1379.923471768346
 30
0.0
 40
0.6001507124343622
100
AcDbArc
 50
342.7037515341414
 51
18.49955856893304
  0
ARC
  5
71672
330
18
100
AcDbEntity
  8
0
  6
Continuous
 62
   252
370
    15
100
AcDbCircle
 10
505.5117664536251
 20
1381.078483272649
 30
0.0
 40
0.4566941654442912
100
AcDbArc
 50
148.5808188598432
 51
193.7129433098787
  0
LINE
  5
71673
330
18
100
AcDbEntity
  8
0
  6
Continuous
 62
   252
370
    15
100
AcDbLine
 10
505.332425309385
 20
1381.670976417448
 30
0.0
 11
505.1220344632683
 21
1381.316555817146
 31
0.0
  0
ARC
  5
71674
330
18
100
AcDbEntity
  8
0
  6
Continuous
 62
   252
370
    15
100
AcDbCircle
 10
507.7447150160876
 20
1379.330645703011
 30
0.0
 40
0.7757365704328872
100
AcDbArc
 50
300.4409828140224
 51
57.05765336807781
  0
ARC
  5
71675
330
18
100
AcDbEntity
  8
0
  6
Continuous
 62
   252
370
    15
100
AcDbCircle
 10
508.5272317964256
 20
1378.097598930935
 30
0.0
 40
0.6856191783950506
100
AcDbArc
 50
124.6167365468537
 51
152.1355074187043
  0
LINE
  5
71676
330
18
100
AcDbEntity
  8
0
  6
Continuous
 62
   252
370
    15
100
AcDbLine
 10
506.6618948093748
 20
1382.326294179516
 30
0.0
 11
507.2204463435996
 21
1382.075902426376
 31
0.0
  0
LWPOLYLINE
  5
71677
330
18
100
AcDbEntity
  8
0
  6
Continuous
 62
   252
370
    15
100
AcDbPolyline
 90
        9
 70
   128
 43
0.0
 10
507.2181476528385
 20
1381.800783613048
 10
507.2409630587898
 20
1381.844429706953
 10
507.2580137349015
 20
1381.888589626629
 10
507.2686458903141
 20
1381.931565410575
 10
507.2724501950981
 20
1381.971706797445
 10
507.2692797831909
 20
1382.007470745214
 10
507.2592578325805
 20
1382.037482855339
 10
507.2427690375989
 20
1382.060589130022
 10
507.2204463435996
 20
1382.075902426376
  0
LINE
  5
71678
330
18
100
AcDbEntity
  8
0
  6
Continuous
 62
   252
370
    15
100
AcDbLine
 10
507.2181476528385
 20
1381.800783613048
 30
0.0
 11
506.6779003676342
 21
1380.890692375545
 31
0.0
  0
LINE
  5
71679
330
18
100
AcDbEntity
  8
0
  6
Continuous
 62
   252
370
    15
100
AcDbLine
 10
506.6615546486232
 20
1382.356760791674
 30
0.0
 11
507.0778829828278
 21
1382.170125997508
 31
0.0
  0
LINE
  5
7167A
330
18
100
AcDbEntity
  8
0
  6
Continuous
 62
   252
370
    15
100
AcDbLine
 10
507.0778829828278
 20
1382.170125997508
 30
0.0
 11
507.0886525290732
 21
1382.164209621797
 31
0.0
  0
ARC
  5
7167B
330
18
100
AcDbEntity
  8
0
  6
Continuous
 62
   252
370
    15
100
AcDbCircle
 10
483.0910092602099
 20
1379.923471768346
 30
0.0
 40
0.6001507124343893
100
AcDbArc
 50
161.5004414310464
 51
197.2962484658346
  0
LWPOLYLINE
  5
7167C
330
18
100
AcDbEntity
  8
0
  6
Continuous
 62
   252
370
    15
100
AcDbPolyline
 90
        9
 70
   128
 43
0.0
 10
482.835172940798
 20
1380.596703043702
 10
482.684825678706
 20
1380.560900188475
 10
482.5319049441871
 20
1380.468222600158
 10
482.4136247024701
 20
1380.327677323141
 10
482.3392233026566
 20
1380.150243980633
 10
482.3145147457818
 20
1379.949783978607
 10
482.3414272411193
 20
1379.741956921723
 10
482.4178601302122
 20
1379.542998420067
 10
482.5143369205257
 20
1379.396277556773
  0
LINE
  5
7167D
330
18
100
AcDbEntity
  8
0
  6
Continuous
 62
   252
370
    15
100
AcDbLine
 10
484.2255719588032
 20
1381.670976417448
 30
0.0
 11
484.4359628049197
 21
1381.316555817146
 31
0.0
  0
ARC
  5
7167E
330
18
100
AcDbEntity
  8
0
  6
Continuous
 62
   252
370
    15
100
AcDbCircle
 10
484.0436971502635
 20
1381.078088635092
 30
0.0
 40
0.4590631119353515
100
AcDbArc
 50
346.4098716961876
 51
31.29636613413264
  0
ARC
  5
7167F
330
18
100
AcDbEntity
  8
0
  6
Continuous
 62
   252
370
    15
100
AcDbCircle
 10
481.8132822521005
 20
1379.330645703011
 30
0.0
 40
0.775736570432848
100
AcDbArc
 50
122.9423466319152
 51
239.5590171860006
  0
ARC
  5
71680
330
18
100
AcDbEntity
  8
0
  6
Continuous
 62
   252
370
    15
100
AcDbCircle
 10
481.0307654717623
 20
1378.097598930935
 30
0.0
 40
0.6856191783951802
100
AcDbArc
 50
27.86449258129122
 51
55.38326345313062
  0
LWPOLYLINE
  5
71681
330
18
100
AcDbEntity
  8
0
  6
Continuous
 62
   252
370
    15
100
AcDbPolyline
 90
        9
 70
   128
 43
0.0
 10
482.3375509245885
 20
1382.075902426376
 10
482.3152282305893
 20
1382.060589130022
 10
482.2987394356076
 20
1382.037482855339
 10
482.2887174849972
 20
1382.007470745214
 10
482.2855470730901
 20
1381.971706797445
 10
482.2893513778741
 20
1381.931565410575
 10
482.2999835332867
 20
1381.888589626629
 10
482.3170342093984
 20
1381.844429706953
 10
482.3398496153497
 20
1381.800783613048
  0
LINE
  5
71682
330
18
100
AcDbEntity
  8
0
  6
Continuous
 62
   252
370
    15
100
AcDbLine
 10
482.3375509245885
 20
1382.075902426376
 30
0.0
 11
482.8961024588135
 21
1382.326294179516
 31
0.0
  0
LINE
  5
71683
330
18
100
AcDbEntity
  8
0
  6
Continuous
 62
   252
370
    15
100
AcDbLine
 10
482.3398496153497
 20
1381.800783613048
 30
0.0
 11
482.880096900554
 21
1380.890692375545
 31
0.0
  0
LINE
  5
71684
330
18
100
AcDbEntity
  8
0
  6
Continuous
 62
   252
370
    15
100
AcDbLine
 10
482.4801142853603
 20
1382.170125997508
 30
0.0
 11
482.896442619565
 21
1382.356760791674
 31
0.0
  0
LINE
  5
71685
330
18
100
AcDbEntity
  8
0
  6
Continuous
 62
   252
370
    15
100
AcDbLine
 10
482.469344739115
 20
1382.164209621797
 30
0.0
 11
482.4801142853603
 21
1382.170125997508
 31
0.0
  0
LINE
  5
71686
330
18
100
AcDbEntity
  8
0
  6
Continuous
 62
   252
370
    15
100
AcDbLine
 10
493.5072548400273
 20
1375.577871906333
 30
0.0
 11
493.5072548400273
 21
1374.92550618399
 31
0.0
  0
LINE
  5
71687
330
18
100
AcDbEntity
  8
0
  6
Continuous
 62
   252
370
    15
100
AcDbLine
 10
496.0507424281608
 20
1375.577871906333
 30
0.0
 11
496.0507424281608
 21
1374.92550618399
 31
0.0
  0
LINE
  5
71688
330
18
100
AcDbEntity
  8
0
  6
Continuous
 62
   252
370
    15
100
AcDbLine
 10
493.5072548400273
 20
1375.577871906333
 30
0.0
 11
493.5072548400273
 21
1376.109792229661
 31
0.0
  0
LINE
  5
71689
330
18
100
AcDbEntity
  8
0
  6
Continuous
 62
   252
370
    15
100
AcDbLine
 10
496.0507424281608
 20
1376.109792229661
 30
0.0
 11
496.0507424281608
 21
1375.577871906333
 31
0.0
  0
ARC
  5
7168A
330
18
100
AcDbEntity
  8
0
  6
Continuous
 62
   252
370
    15
100
AcDbCircle
 10
495.8056159963463
 20
1370.551571304713
 30
0.0
 40
0.2451416802541927
100
AcDbArc
 50
288.5984988462703
 51
359.3609365154481
  0
ARC
  5
7168B
330
18
100
AcDbEntity
  8
0
  6
Continuous
 62
   252
370
    15
100
AcDbCircle
 10
493.7538001906813
 20
1370.552602977218
 30
0.0
 40
0.2465741099326365
100
AcDbArc
 50
180.8750988403422
 51
251.1654657978799
  0
ARC
  5
7168C
330
18
100
AcDbEntity
  8
0
  6
Continuous
 62
   252
370
    15
100
AcDbCircle
 10
494.7789986340941
 20
1371.291195843197
 30
0.0
 40
0.529701076277756
100
AcDbArc
 50
163.8112295201965
 51
16.18877047980345
  0
LINE
  5
7168D
330
18
100
AcDbEntity
  8
0
  6
Continuous
 62
   252
370
    15
100
AcDbLine
 10
493.5072548400273
 20
1372.867303611155
 30
0.0
 11
493.5072548400273
 21
1370.548837109464
 31
0.0
  0
LINE
  5
7168E
330
18
100
AcDbEntity
  8
0
  6
Continuous
 62
   252
370
    15
100
AcDbLine
 10
496.0507424281608
 20
1372.867303611155
 30
0.0
 11
496.0507424281608
 21
1370.548837109464
 31
0.0
  0
ARC
  5
7168F
330
18
100
AcDbEntity
  8
0
  6
Continuous
 62
   252
370
    15
100
AcDbCircle
 10
495.8109347955373
 20
1370.493606285436
 30
0.0
 40
0.2398091583453883
100
AcDbArc
 50
314.0600963453003
 51
359.7956179997538
  0
LINE
  5
71690
330
18
100
AcDbEntity
  8
0
  6
Continuous
 62
   252
370
    15
100
AcDbLine
 10
496.0507424281608
 20
1370.548837109464
 30
0.0
 11
496.0507424281608
 21
1370.492750854688
 31
0.0
  0
ARC
  5
71691
330
18
100
AcDbEntity
  8
0
  6
Continuous
 62
   252
370
    15
100
AcDbCircle
 10
493.7470624726508
 20
1370.493606285436
 30
0.0
 40
0.2398091583453381
100
AcDbArc
 50
180.2043820002461
 51
225.9399036546997
  0
LINE
  5
71692
330
18
100
AcDbEntity
  8
0
  6
Continuous
 62
   252
370
    15
100
AcDbLine
 10
493.5072548400273
 20
1370.492750854688
 30
0.0
 11
493.5072548400273
 21
1370.548837109464
 31
0.0
  0
LINE
  5
71693
330
18
100
AcDbEntity
  8
0
  6
Continuous
 62
   252
370
    15
100
AcDbLine
 10
495.2876961872529
 20
1371.382791648865
 30
0.0
 11
495.3123337391242
 21
1371.254281135707
 31
0.0
  0
LINE
  5
71694
330
18
100
AcDbEntity
  8
0
  6
Continuous
 62
   252
370
    15
100
AcDbLine
 10
494.245663529064
 20
1371.254281135707
 30
0.0
 11
494.2703010809352
 21
1371.382791648865
 31
0.0
  0
LINE
  5
71695
330
18
100
AcDbEntity
  8
0
  6
Continuous
 62
   252
370
    15
100
AcDbLine
 10
493.5072548400273
 20
1374.542899856911
 30
0.0
 11
493.5072548400273
 21
1374.92550618399
 31
0.0
  0
LINE
  5
71696
330
18
100
AcDbEntity
  8
0
  6
Continuous
 62
   252
370
    15
100
AcDbLine
 10
496.0507424281608
 20
1374.92550618399
 30
0.0
 11
496.0507424281608
 21
1374.542899856911
 31
0.0
  0
LINE
  5
71697
330
18
100
AcDbEntity
  8
0
  6
Continuous
 62
   252
370
    15
100
AcDbLine
 10
493.5072548400273
 20
1372.867303611155
 30
0.0
 11
493.5072548400273
 21
1373.443533626082
 31
0.0
  0
LINE
  5
71698
330
18
100
AcDbEntity
  8
0
  6
Continuous
 62
   252
370
    15
100
AcDbLine
 10
496.0507424281608
 20
1373.443533626082
 30
0.0
 11
496.0507424281608
 21
1372.867303611155
 31
0.0
  0
LINE
  5
71699
330
18
100
AcDbEntity
  8
0
  6
Continuous
 62
   252
370
    15
100
AcDbLine
 10
493.5072548400273
 20
1374.542899752317
 30
0.0
 11
493.5072548400273
 21
1373.443533626082
 31
0.0
  0
LINE
  5
7169A
330
18
100
AcDbEntity
  8
0
  6
Continuous
 62
   252
370
    15
100
AcDbLine
 10
496.0507424281608
 20
1374.542899752317
 30
0.0
 11
496.0507424281608
 21
1373.443533626082
 31
0.0
  0
ARC
  5
7169B
330
18
100
AcDbEntity
  8
0
  6
Continuous
 62
   252
370
    15
100
AcDbCircle
 10
461.6441146997348
 20
1368.376731044389
 30
0.0
 40
18.2657816462454
100
AcDbArc
 50
26.88262688832312
 51
31.9073853419474
  0
ARC
  5
7169C
330
18
100
AcDbEntity
  8
0
  6
Continuous
 62
   252
370
    15
100
AcDbCircle
 10
494.2275127655022
 20
1384.894767180375
 30
0.0
 40
18.26534682391811
100
AcDbArc
 50
206.8825029299982
 51
211.9073790974418
  0
LINE
  5
7169D
330
18
100
AcDbEntity
  8
0
  6
Continuous
 62
   252
370
    15
100
AcDbLine
 10
478.8233312498913
 20
1375.077753211258
 30
0.0
 11
478.7219936666657
 21
1375.24066069279
 31
0.0
  0
ARC
  5
7169E
330
18
100
AcDbEntity
  8
0
  6
Continuous
 62
   252
370
    15
100
AcDbCircle
 10
471.4010795154451
 20
1369.807687769376
 30
0.0
 40
8.381485341058388
100
AcDbArc
 50
34.61931909374177
 51
38.76824790760352
  0
ARC
  5
7169F
330
18
100
AcDbEntity
  8
0
  6
Continuous
 62
   252
370
    15
100
AcDbCircle
 10
487.0185490071408
 20
1382.20184636244
 30
0.0
 40
11.55667469862205
100
AcDbArc
 50
211.35869394583
 51
218.1947259354564
  0
LINE
  5
716A0
330
18
100
AcDbEntity
  8
0
  6
Continuous
 62
   252
370
    15
100
AcDbLine
 10
477.1500018686214
 20
1376.187820467535
 30
0.0
 11
474.6679142436649
 21
1380.177952792268
 31
0.0
  0
LINE
  5
716A1
330
18
100
AcDbEntity
  8
0
  6
Continuous
 62
   252
370
    15
100
AcDbLine
 10
477.1500018686214
 20
1378.031069046244
 30
0.0
 11
474.6679142436649
 21
1382.021201370977
 31
0.0
  0
ARC
  5
716A2
330
18
100
AcDbEntity
  8
0
  6
Continuous
 62
   252
370
    15
100
AcDbCircle
 10
476.7462382312117
 20
1379.220854823254
 30
0.0
 40
0.9266457006948681
100
AcDbArc
 50
195.8567818075605
 51
214.8574264010287
  0
LINE
  5
716A3
330
18
100
AcDbEntity
  8
0
  6
Continuous
 62
   252
370
    15
100
AcDbLine
 10
477.5578441869739
 20
1376.164155729988
 30
0.0
 11
475.9858542839756
 21
1378.691243166092
 31
0.0
  0
LWPOLYLINE
  5
716A4
330
18
100
AcDbEntity
  8
0
  6
Continuous
 62
   252
370
    15
100
AcDbPolyline
 90
        9
 70
   128
 43
0.0
 10
477.6888449247621
 20
1376.019395276654
 10
477.6863264086685
 20
1376.010598921095
 10
477.67887319287
 20
1376.010233481866
 10
477.6667676392161
 20
1376.018312991532
 10
477.6504759290152
 20
1376.034526776263
 10
477.6306234274373
 20
1376.058252189912
 10
477.6079757330544
 20
1376.088577163948
 10
477.5834007769203
 20
1376.124336332747
 10
477.5578441869739
 20
1376.164155729988
  0
LINE
  5
716A5
330
18
100
AcDbEntity
  8
0
  6
Continuous
 62
   252
370
    15
100
AcDbLine
 10
477.6888449247621
 20
1376.467041352173
 30
0.0
 11
477.6888449247621
 21
1376.019395276654
 31
0.0
  0
ARC
  5
716A6
330
18
100
AcDbEntity
  8
0
  6
Continuous
 62
   252
370
    15
100
AcDbCircle
 10
476.7974549710993
 20
1376.213848460653
 30
0.0
 40
0.9266513313039437
100
AcDbArc
 50
15.85681523396589
 51
34.85735626629592
  0
LINE
  5
716A7
330
18
100
AcDbEntity
  8
0
  6
Continuous
 62
   252
370
    15
100
AcDbLine
 10
477.5578441869739
 20
1376.743462405134
 30
0.0
 11
475.9858542839756
 21
1379.270549841237
 31
0.0
  0
LWPOLYLINE
  5
716A8
330
18
100
AcDbEntity
  8
0
  6
Continuous
 62
   252
370
    15
100
AcDbPolyline
 90
        9
 70
   128
 43
0.0
 10
475.8548535461874
 20
1379.415310065762
 10
475.8573720622811
 20
1379.42410665013
 10
475.8648252780795
 20
1379.424471860551
 10
475.8769308317335
 20
1379.416392350884
 10
475.8932225419343
 20
1379.400178566153
 10
475.9130731484661
 20
1379.376453381314
 10
475.9357227378951
 20
1379.346128178468
 10
475.9602957989833
 20
1379.310369009669
 10
475.9858542839756
 20
1379.270549841237
  0
LINE
  5
716A9
330
18
100
AcDbEntity
  8
0
  6
Continuous
 62
   252
370
    15
100
AcDbLine
 10
475.8548535461874
 20
1379.415310065762
 30
0.0
 11
475.8548535461874
 21
1378.967663990244
 31
0.0
  0
ARC
  5
716AA
330
18
100
AcDbEntity
  8
0
  6
Continuous
 62
   252
370
    15
100
AcDbCircle
 10
461.7754911156978
 20
1368.452973800849
 30
0.0
 40
18.26513213964378
100
AcDbArc
 50
26.88252882863257
 51
31.90746732876283
  0
ARC
  5
716AB
330
18
100
AcDbEntity
  8
0
  6
Continuous
 62
   252
370
    15
100
AcDbCircle
 10
494.3590425662357
 20
1384.97109397122
 30
0.0
 40
18.26617113704611
100
AcDbArc
 50
206.882618549248
 51
211.9072674964063
  0
ARC
  5
716AC
330
18
100
AcDbEntity
  8
0
  6
Continuous
 62
   252
370
    15
100
AcDbCircle
 10
474.5839711774417
 20
1381.96891616982
 30
0.0
 40
0.0988947957529449
100
AcDbArc
 50
31.91733525392668
 51
47.0295397881992
  0
LINE
  5
716AD
330
18
100
AcDbEntity
  8
0
  6
Continuous
 62
   252
370
    15
100
AcDbLine
 10
474.65137996758
 20
1382.041278008099
 30
0.0
 11
472.4654577069404
 21
1384.080272110584
 31
0.0
  0
LINE
  5
716AE
330
18
100
AcDbEntity
  8
0
  6
Continuous
 62
   252
370
    15
100
AcDbLine
 10
474.7573926292127
 20
1382.147315527412
 30
0.0
 11
472.5714684735272
 21
1384.186309629897
 31
0.0
  0
ARC
  5
716AF
330
18
100
AcDbEntity
  8
0
  6
Continuous
 62
   252
370
    15
100
AcDbCircle
 10
474.5888015021657
 20
1381.966370638769
 30
0.0
 40
0.2473136082883479
100
AcDbArc
 50
31.91677694158338
 51
47.02418024373661
  0
LINE
  5
716B0
330
18
100
AcDbEntity
  8
0
  6
Continuous
 62
   252
370
    15
100
AcDbLine
 10
477.2808131018125
 20
1378.106990694637
 30
0.0
 11
474.7987254768562
 21
1382.097122104133
 31
0.0
  0
LINE
  5
716B1
330
18
100
AcDbEntity
  8
0
  6
Continuous
 62
   252
370
    15
100
AcDbLine
 10
479.0240687318387
 20
1375.058161878514
 30
0.0
 11
478.9541434306055
 21
1375.153674630842
 31
0.0
  0
LINE
  5
716B2
330
18
100
AcDbEntity
  8
0
  6
Continuous
 62
   252
370
    15
100
AcDbLine
 10
478.8924388387886
 20
1374.98102136335
 30
0.0
 11
478.8233312498913
 21
1375.077753211258
 31
0.0
  0
LINE
  5
716B3
330
18
100
AcDbEntity
  8
0
  6
Continuous
 62
   252
370
    15
100
AcDbLine
 10
478.9541434306055
 20
1375.153674630842
 30
0.0
 11
478.8528048998568
 21
1375.31658199797
 31
0.0
  0
ARC
  5
716B4
330
18
100
AcDbEntity
  8
0
  6
Continuous
 62
   252
370
    15
100
AcDbCircle
 10
481.2526235391944
 20
1391.683384417064
 30
0.0
 40
12.90147345603463
100
AcDbArc
 50
219.9872645384466
 51
227.0705074085084
  0
ARC
  5
716B5
330
18
100
AcDbEntity
  8
0
  6
Continuous
 62
   252
370
    15
100
AcDbCircle
 10
461.4826336914264
 20
1375.101876661589
 30
0.0
 40
12.90160577931521
100
AcDbArc
 50
39.9872767743238
 51
47.07044985610727
  0
LINE
  5
716B6
330
18
100
AcDbEntity
  8
0
  6
Continuous
 62
   252
370
    15
100
AcDbLine
 10
470.2698991375453
 20
1384.548325606261
 30
0.0
 11
460.0971445590175
 21
1394.037305237956
 31
0.0
  0
LINE
  5
716B7
330
18
100
AcDbEntity
  8
0
  6
Continuous
 62
   252
370
    15
100
AcDbLine
 10
470.2698991375453
 20
1385.864931663843
 30
0.0
 11
460.0971445590175
 21
1395.353911295537
 31
0.0
  0
ARC
  5
716B8
330
18
100
AcDbEntity
  8
0
  6
Continuous
 62
   252
370
    15
100
AcDbCircle
 10
476.4619321805658
 20
1392.361180563494
 30
0.0
 40
8.974548622191378
100
AcDbArc
 50
226.3734677331462
 51
235.4146384961101
  0
ARC
  5
716B9
330
18
100
AcDbEntity
  8
0
  6
Continuous
 62
   252
370
    15
100
AcDbCircle
 10
466.2734333619827
 20
1377.584026333383
 30
0.0
 40
8.974540360728446
100
AcDbArc
 50
46.37349417523655
 51
55.41466958123378
  0
LINE
  5
716BA
330
18
100
AcDbEntity
  8
0
  6
Continuous
 62
   252
370
    15
100
AcDbLine
 10
474.65137996758
 20
1380.198029429389
 30
0.0
 11
472.4654577069404
 21
1382.237023531875
 31
0.0
  0
ARC
  5
716BB
330
18
100
AcDbEntity
  8
0
  6
Continuous
 62
   252
370
    15
100
AcDbCircle
 10
474.5839711774378
 20
1380.125667591107
 30
0.0
 40
0.0988947957580335
100
AcDbArc
 50
31.91733525441994
 51
47.02953978790747
  0
ARC
  5
716BC
330
18
100
AcDbEntity
  8
0
  6
Continuous
 62
   252
370
    15
100
AcDbCircle
 10
466.3794884341926
 20
1377.690118359248
 30
0.0
 40
8.974470337149135
100
AcDbArc
 50
46.37345882984371
 51
55.41470492663634
  0
ARC
  5
716BD
330
18
100
AcDbEntity
  8
0
  6
Continuous
 62
   252
370
    15
100
AcDbCircle
 10
476.5679676586972
 20
1392.467248483907
 30
0.0
 40
8.974587677951845
100
AcDbArc
 50
226.3734874468249
 51
235.4146187824247
  0
ARC
  5
716BE
330
18
100
AcDbEntity
  8
0
  6
Continuous
 62
   252
370
    15
100
AcDbCircle
 10
460.0264869116516
 20
1395.277384313292
 30
0.0
 40
0.1041579672554156
100
AcDbArc
 50
47.28359464099294
 51
134.6496565675739
  0
LINE
  5
716BF
330
18
100
AcDbEntity
  8
0
  6
Continuous
 62
   252
370
    15
100
AcDbLine
 10
459.9532878293714
 20
1395.35148408722
 30
0.0
 11
458.7164860772963
 21
1394.114382135869
 31
0.0
  0
LINE
  5
716C0
330
18
100
AcDbEntity
  8
0
  6
Continuous
 62
   252
370
    15
100
AcDbLine
 10
459.8435078163512
 20
1395.453884455005
 30
0.0
 11
458.6067098543679
 21
1394.216782503654
 31
0.0
  0
ARC
  5
716C1
330
18
100
AcDbEntity
  8
0
  6
Continuous
 62
   252
370
    15
100
AcDbCircle
 10
460.026506602535
 20
1395.268618498818
 30
0.0
 40
0.2604074312815549
100
AcDbArc
 50
47.28419022798318
 51
134.6472710618061
  0
LINE
  5
716C2
330
18
100
AcDbEntity
  8
0
  6
Continuous
 62
   252
370
    15
100
AcDbLine
 10
470.375909904132
 20
1385.970969183156
 30
0.0
 11
460.2031572206502
 21
1395.459946984377
 31
0.0
  0
LINE
  5
716C3
330
18
100
AcDbEntity
  8
0
  6
Continuous
 62
   252
370
    15
100
AcDbLine
 10
475.9856647793786
 20
1379.27085114692
 30
0.0
 11
475.9856647793786
 21
1379.043585181019
 31
0.0
  0
LINE
  5
716C4
330
18
100
AcDbEntity
  8
0
  6
Continuous
 62
   252
370
    15
100
AcDbLine
 10
476.1166655171668
 20
1378.767164356867
 30
0.0
 11
477.6886573152112
 21
1376.240077149572
 31
0.0
  0
ARC
  5
716C5
330
18
100
AcDbEntity
  8
0
  6
Continuous
 62
   252
370
    15
100
AcDbCircle
 10
476.8770522255003
 20
1379.296777322562
 30
0.0
 40
0.9266487142616066
100
AcDbArc
 50
195.8568129899757
 51
214.8573952186006
  0
ARC
  5
716C6
330
18
100
AcDbEntity
  8
0
  6
Continuous
 62
   252
370
    15
100
AcDbCircle
 10
459.561872289367
 20
1393.127326953841
 30
0.0
 40
1.299598314836642
100
AcDbArc
 50
130.5791657069487
 51
157.280185507034
  0
ARC
  5
716C7
330
18
100
AcDbEntity
  8
0
  6
Continuous
 62
   252
370
    15
100
AcDbCircle
 10
459.4520666187655
 20
1393.229750665733
 30
0.0
 40
1.299561429168436
100
AcDbArc
 50
130.5788491316067
 51
157.280707855781
  0
LINE
  5
716C8
330
18
100
AcDbEntity
  8
0
  6
Continuous
 62
   252
370
    15
100
AcDbLine
 10
459.9532878293714
 20
1394.034878029638
 30
0.0
 11
458.7164860772963
 21
1392.797776078287
 31
0.0
  0
LWPOLYLINE
  5
716C9
330
18
100
AcDbEntity
  8
0
  6
Continuous
 62
   252
370
    15
100
AcDbPolyline
 90
        9
 70
   128
 43
0.0
 10
458.3631168553405
 20
1392.575979469866
 10
458.3699049100036
 20
1392.557084834226
 10
458.3900151378334
 20
1392.552501296598
 10
458.4226705699819
 20
1392.56240186455
 10
458.4666166860175
 20
1392.586407485164
 10
458.5201668950271
 20
1392.623595303236
 10
458.5812593869959
 20
1392.672537082984
 10
458.6475480950133
 20
1392.73135010163
 10
458.7164860772963
 20
1392.797776078287
  0
LINE
  5
716CA
330
18
100
AcDbEntity
  8
0
  6
Continuous
 62
   252
370
    15
100
AcDbLine
 10
458.3631168553405
 20
1392.575979469866
 30
0.0
 11
458.3631168553405
 21
1393.629264389503
 31
0.0
  0
ARC
  5
716CB
330
18
100
AcDbEntity
  8
0
  6
Continuous
 62
   252
370
    15
100
AcDbCircle
 10
460.0264869116517
 20
1393.960778255711
 30
0.0
 40
0.1041579672553896
100
AcDbArc
 50
47.28359464103889
 51
134.6496565677063
  0
LINE
  5
716CC
330
18
100
AcDbEntity
  8
0
  6
Continuous
 62
   252
370
    15
100
AcDbLine
 10
458.2533406324121
 20
1392.678378007177
 30
0.0
 11
458.2533406324121
 21
1393.731662926813
 31
0.0
  0
LINE
  5
716CD
330
18
100
AcDbEntity
  8
0
  6
Continuous
 62
   252
370
    15
100
AcDbLine
 10
458.2597269373297
 20
1392.659847891227
 30
0.0
 11
458.2533406324121
 21
1392.678378007177
 31
0.0
  0
ARC
  5
716CE
330
18
100
AcDbEntity
  8
0
  6
Continuous
 62
   252
370
    15
100
AcDbCircle
 10
502.5394482610506
 20
1382.201846362438
 30
0.0
 40
11.5566746986182
100
AcDbArc
 50
321.8052740645415
 51
328.6413060541703
  0
ARC
  5
716CF
330
18
100
AcDbEntity
  8
0
  6
Continuous
 62
   252
370
    15
100
AcDbCircle
 10
518.1569177527529
 20
1369.80768776937
 30
0.0
 40
8.38148534107018
100
AcDbArc
 50
141.2317520924039
 51
145.3806809062593
  0
LINE
  5
716D0
330
18
100
AcDbEntity
  8
0
  6
Continuous
 62
   252
370
    15
100
AcDbLine
 10
510.7346660182968
 20
1375.077753211258
 30
0.0
 11
510.8360036015225
 21
1375.24066069279
 31
0.0
  0
ARC
  5
716D1
330
18
100
AcDbEntity
  8
0
  6
Continuous
 62
   252
370
    15
100
AcDbCircle
 10
495.3304845026815
 20
1384.894767180378
 30
0.0
 40
18.26534682392293
100
AcDbArc
 50
328.0926209025619
 51
333.1174970700024
  0
ARC
  5
716D2
330
18
100
AcDbEntity
  8
0
  6
Continuous
 62
   252
370
    15
100
AcDbCircle
 10
527.9138825684586
 20
1368.376731044385
 30
0.0
 40
18.26578164625149
100
AcDbArc
 50
148.0926146580528
 51
153.1173731116755
  0
LINE
  5
716D3
330
18
100
AcDbEntity
  8
0
  6
Continuous
 62
   252
370
    15
100
AcDbLine
 10
512.4079953995667
 20
1378.031069046244
 30
0.0
 11
514.8900830245232
 21
1382.021201370977
 31
0.0
  0
LINE
  5
716D4
330
18
100
AcDbEntity
  8
0
  6
Continuous
 62
   252
370
    15
100
AcDbLine
 10
512.4079953995667
 20
1376.187820467535
 30
0.0
 11
514.8900830245232
 21
1380.177952792268
 31
0.0
  0
LWPOLYLINE
  5
716D5
330
18
100
AcDbEntity
  8
0
  6
Continuous
 62
   252
370
    15
100
AcDbPolyline
 90
        9
 70
   128
 43
0.0
 10
513.5721429842126
 20
1379.270549841237
 10
513.5977014692048
 20
1379.310369009669
 10
513.622274530293
 20
1379.346128178468
 10
513.644924119722
 20
1379.376453381314
 10
513.6647747262537
 20
1379.400178566153
 10
513.6810664364546
 20
1379.416392350884
 10
513.6931719901086
 20
1379.424471860551
 10
513.700625205907
 20
1379.42410665013
 10
513.7031437220007
 20
1379.415310065762
  0
LINE
  5
716D6
330
18
100
AcDbEntity
  8
0
  6
Continuous
 62
   252
370
    15
100
AcDbLine
 10
512.0001530812142
 20
1376.743462405134
 30
0.0
 11
513.5721429842126
 21
1379.270549841237
 31
0.0
  0
ARC
  5
716D7
330
18
100
AcDbEntity
  8
0
  6
Continuous
 62
   252
370
    15
100
AcDbCircle
 10
512.7605422970892
 20
1376.213848460652
 30
0.0
 40
0.9266513313043484
100
AcDbArc
 50
145.1426437337006
 51
164.1431847660254
  0
LINE
  5
716D8
330
18
100
AcDbEntity
  8
0
  6
Continuous
 62
   252
370
    15
100
AcDbLine
 10
511.869152343426
 20
1376.019395276654
 30
0.0
 11
511.869152343426
 21
1376.467041352173
 31
0.0
  0
LWPOLYLINE
  5
716D9
330
18
100
AcDbEntity
  8
0
  6
Continuous
 62
   252
370
    15
100
AcDbPolyline
 90
        9
 70
   128
 43
0.0
 10
512.0001530812142
 20
1376.164155729988
 10
511.9745964912678
 20
1376.124336332747
 10
511.9500215351338
 20
1376.088577163948
 10
511.9273738407508
 20
1376.058252189912
 10
511.907521339173
 20
1376.034526776263
 10
511.8912296289721
 20
1376.018312991532
 10
511.8791240753182
 20
1376.010233481866
 10
511.8716708595196
 20
1376.010598921095
 10
511.869152343426
 20
1376.019395276654
  0
LINE
  5
716DA
330
18
100
AcDbEntity
  8
0
  6
Continuous
 62
   252
370
    15
100
AcDbLine
 10
512.0001530812142
 20
1376.164155729988
 30
0.0
 11
513.5721429842126
 21
1378.691243166092
 31
0.0
  0
ARC
  5
716DB
330
18
100
AcDbEntity
  8
0
  6
Continuous
 62
   252
370
    15
100
AcDbCircle
 10
512.8117590369761
 20
1379.220854823254
 30
0.0
 40
0.9266457006952703
100
AcDbArc
 50
325.1425735989718
 51
344.1432181924183
  0
LINE
  5
716DC
330
18
100
AcDbEntity
  8
0
  6
Continuous
 62
   252
370
    15
100
AcDbLine
 10
513.7031437220007
 20
1378.967663990244
 30
0.0
 11
513.7031437220007
 21
1379.415310065762
 31
0.0
  0
ARC
  5
716DD
330
18
100
AcDbEntity
  8
0
  6
Continuous
 62
   252
370
    15
100
AcDbCircle
 10
527.7825061524723
 20
1368.45297380086
 30
0.0
 40
18.26513213962282
100
AcDbArc
 50
148.0925326712359
 51
153.1174711713716
  0
ARC
  5
716DE
330
18
100
AcDbEntity
  8
0
  6
Continuous
 62
   252
370
    15
100
AcDbCircle
 10
495.1989547019525
 20
1384.97109397122
 30
0.0
 40
18.26617113704611
100
AcDbArc
 50
328.0927325035955
 51
333.1173814507528
  0
LINE
  5
716DF
330
18
100
AcDbEntity
  8
0
  6
Continuous
 62
   252
370
    15
100
AcDbLine
 10
514.9066173006081
 20
1382.041278008099
 30
0.0
 11
517.0925395612478
 21
1384.080272110584
 31
0.0
  0
ARC
  5
716E0
330
18
100
AcDbEntity
  8
0
  6
Continuous
 62
   252
370
    15
100
AcDbCircle
 10
514.9740260907483
 20
1381.968916169818
 30
0.0
 40
0.0988947957554425
100
AcDbArc
 50
132.9704602119434
 51
148.0826647458478
  0
ARC
  5
716E1
330
18
100
AcDbEntity
  8
0
  6
Continuous
 62
   252
370
    15
100
AcDbCircle
 10
514.9691957660193
 20
1381.966370638772
 30
0.0
 40
0.247313608284427
100
AcDbArc
 50
132.9758197561189
 51
148.0832230585772
  0
LINE
  5
716E2
330
18
100
AcDbEntity
  8
0
  6
Continuous
 62
   252
370
    15
100
AcDbLine
 10
514.8006046389755
 20
1382.147315527412
 30
0.0
 11
516.9865287946609
 21
1384.186309629897
 31
0.0
  0
LINE
  5
716E3
330
18
100
AcDbEntity
  8
0
  6
Continuous
 62
   252
370
    15
100
AcDbLine
 10
512.2771841663757
 20
1378.106990694637
 30
0.0
 11
514.7592717913319
 21
1382.097122104133
 31
0.0
  0
LINE
  5
716E4
330
18
100
AcDbEntity
  8
0
  6
Continuous
 62
   252
370
    15
100
AcDbLine
 10
510.6655584293996
 20
1374.98102136335
 30
0.0
 11
510.7346660182968
 21
1375.077753211258
 31
0.0
  0
LINE
  5
716E5
330
18
100
AcDbEntity
  8
0
  6
Continuous
 62
   252
370
    15
100
AcDbLine
 10
510.5339285363495
 20
1375.058161878514
 30
0.0
 11
510.6038538375827
 21
1375.153674630842
 31
0.0
  0
LINE
  5
716E6
330
18
100
AcDbEntity
  8
0
  6
Continuous
 62
   252
370
    15
100
AcDbLine
 10
510.6038538375827
 20
1375.153674630842
 30
0.0
 11
510.7051923683313
 21
1375.31658199797
 31
0.0
  0
ARC
  5
716E7
330
18
100
AcDbEntity
  8
0
  6
Continuous
 62
   252
370
    15
100
AcDbCircle
 10
523.2845639062023
 20
1377.584026333388
 30
0.0
 40
8.974540360723141
100
AcDbArc
 50
124.5853304187643
 51
133.6265058247678
  0
ARC
  5
716E8
330
18
100
AcDbEntity
  8
0
  6
Continuous
 62
   252
370
    15
100
AcDbCircle
 10
513.0960650876191
 20
1392.361180563498
 30
0.0
 40
8.974548622196659
100
AcDbArc
 50
304.5853615038944
 51
313.6265322668525
  0
LINE
  5
716E9
330
18
100
AcDbEntity
  8
0
  6
Continuous
 62
   252
370
    15
100
AcDbLine
 10
519.288098130643
 20
1385.864931663843
 30
0.0
 11
529.4608527091707
 21
1395.353911295537
 31
0.0
  0
LINE
  5
716EA
330
18
100
AcDbEntity
  8
0
  6
Continuous
 62
   252
370
    15
100
AcDbLine
 10
519.288098130643
 20
1384.548325606261
 30
0.0
 11
529.4608527091707
 21
1394.037305237956
 31
0.0
  0
ARC
  5
716EB
330
18
100
AcDbEntity
  8
0
  6
Continuous
 62
   252
370
    15
100
AcDbCircle
 10
528.075363576754
 20
1375.101876661596
 30
0.0
 40
12.90160577930447
100
AcDbArc
 50
132.9295501438903
 51
140.0127232256789
  0
ARC
  5
716EC
330
18
100
AcDbEntity
  8
0
  6
Continuous
 62
   252
370
    15
100
AcDbCircle
 10
508.305373728986
 20
1391.683384417071
 30
0.0
 40
12.90147345604545
100
AcDbArc
 50
312.9294925914957
 51
320.0127354615516
  0
LINE
  5
716ED
330
18
100
AcDbEntity
  8
0
  6
Continuous
 62
   252
370
    15
100
AcDbLine
 10
514.9066173006081
 20
1380.198029429389
 30
0.0
 11
517.0925395612478
 21
1382.237023531875
 31
0.0
  0
ARC
  5
716EE
330
18
100
AcDbEntity
  8
0
  6
Continuous
 62
   252
370
    15
100
AcDbCircle
 10
514.9740260907522
 20
1380.125667591106
 30
0.0
 40
0.0988947957605065
100
AcDbArc
 50
132.9704602122351
 51
148.0826647453545
  0
ARC
  5
716EF
330
18
100
AcDbEntity
  8
0
  6
Continuous
 62
   252
370
    15
100
AcDbCircle
 10
523.1785088339918
 20
1377.690118359253
 30
0.0
 40
8.974470337143057
100
AcDbArc
 50
124.5852950733613
 51
133.62654117016
  0
ARC
  5
716F0
330
18
100
AcDbEntity
  8
0
  6
Continuous
 62
   252
370
    15
100
AcDbCircle
 10
512.9900296094938
 20
1392.467248483904
 30
0.0
 40
8.974587677947232
100
AcDbArc
 50
304.5853812175755
 51
313.6265125531795
  0
ARC
  5
716F1
330
18
100
AcDbEntity
  8
0
  6
Continuous
 62
   252
370
    15
100
AcDbCircle
 10
529.5314906656533
 20
1395.268618498818
 30
0.0
 40
0.2604074312815531
100
AcDbArc
 50
45.3527289382117
 51
132.7158097720536
  0
LINE
  5
716F2
330
18
100
AcDbEntity
  8
0
  6
Continuous
 62
   252
370
    15
100
AcDbLine
 10
529.7144894518372
 20
1395.453884455005
 30
0.0
 11
530.9512874138202
 21
1394.216782503654
 31
0.0
  0
LINE
  5
716F3
330
18
100
AcDbEntity
  8
0
  6
Continuous
 62
   252
370
    15
100
AcDbLine
 10
529.6047094388168
 20
1395.35148408722
 30
0.0
 11
530.8415111908919
 21
1394.114382135869
 31
0.0
  0
ARC
  5
716F4
330
18
100
AcDbEntity
  8
0
  6
Continuous
 62
   252
370
    15
100
AcDbCircle
 10
529.5315103565365
 20
1395.277384313292
 30
0.0
 40
0.1041579672554753
100
AcDbArc
 50
45.35034343238158
 51
132.716405359053
  0
LINE
  5
716F5
330
18
100
AcDbEntity
  8
0
  6
Continuous
 62
   252
370
    15
100
AcDbLine
 10
519.1820873640561
 20
1385.970969183156
 30
0.0
 11
529.3548400475379
 21
1395.459946984377
 31
0.0
  0
LINE
  5
716F6
330
18
100
AcDbEntity
  8
0
  6
Continuous
 62
   252
370
    15
100
AcDbLine
 10
513.5723324888095
 20
1379.043585181019
 30
0.0
 11
513.5723324888095
 21
1379.27085114692
 31
0.0
  0
LINE
  5
716F7
330
18
100
AcDbEntity
  8
0
  6
Continuous
 62
   252
370
    15
100
AcDbLine
 10
513.4413317510214
 20
1378.767164356867
 30
0.0
 11
511.869339952977
 21
1376.240077149572
 31
0.0
  0
ARC
  5
716F8
330
18
100
AcDbEntity
  8
0
  6
Continuous
 62
   252
370
    15
100
AcDbCircle
 10
512.6809450426881
 20
1379.296777322562
 30
0.0
 40
0.9266487142612009
100
AcDbArc
 50
325.1426047813874
 51
344.1431870100186
  0
ARC
  5
716F9
330
18
100
AcDbEntity
  8
0
  6
Continuous
 62
   252
370
    15
100
AcDbCircle
 10
529.9961249788203
 20
1393.127326953841
 30
0.0
 40
1.299598314837604
100
AcDbArc
 50
22.719814492971
 51
49.42083429303003
  0
ARC
  5
716FA
330
18
100
AcDbEntity
  8
0
  6
Continuous
 62
   252
370
    15
100
AcDbCircle
 10
530.1059306494228
 20
1393.229750665733
 30
0.0
 40
1.299561429168024
100
AcDbArc
 50
22.7192921442156
 51
49.42115086840469
  0
LINE
  5
716FB
330
18
100
AcDbEntity
  8
0
  6
Continuous
 62
   252
370
    15
100
AcDbLine
 10
531.1948804128476
 20
1393.629264389503
 30
0.0
 11
531.1948804128476
 21
1392.575979469866
 31
0.0
  0
LWPOLYLINE
  5
716FC
330
18
100
AcDbEntity
  8
0
  6
Continuous
 62
   252
370
    15
100
AcDbPolyline
 90
        9
 70
   128
 43
0.0
 10
530.8415111908919
 20
1392.797776078287
 10
530.9104491731748
 20
1392.73135010163
 10
530.9767378811923
 20
1392.672537082984
 10
531.0378303731611
 20
1392.623595303236
 10
531.0913805821706
 20
1392.586407485164
 10
531.1353266982062
 20
1392.56240186455
 10
531.1679821303549
 20
1392.552501296598
 10
531.1880923581843
 20
1392.557084834226
 10
531.1948804128476
 20
1392.575979469866
  0
LINE
  5
716FD
330
18
100
AcDbEntity
  8
0
  6
Continuous
 62
   252
370
    15
100
AcDbLine
 10
529.6047094388168
 20
1394.034878029638
 30
0.0
 11
530.8415111908919
 21
1392.797776078287
 31
0.0
  0
ARC
  5
716FE
330
18
100
AcDbEntity
  8
0
  6
Continuous
 62
   252
370
    15
100
AcDbCircle
 10
529.5315103565365
 20
1393.960778255711
 30
0.0
 40
0.1041579672554508
100
AcDbArc
 50
45.35034343229368
 51
132.716405359053
  0
LINE
  5
716FF
330
18
100
AcDbEntity
  8
0
  6
Continuous
 62
   252
370
    15
100
AcDbLine
 10
531.3046566357759
 20
1393.731662926813
 30
0.0
 11
531.3046566357759
 21
1392.678378007177
 31
0.0
  0
LINE
  5
71700
330
18
100
AcDbEntity
  8
0
  6
Continuous
 62
   252
370
    15
100
AcDbLine
 10
531.3046566357759
 20
1392.678378007177
 30
0.0
 11
531.2982703308585
 21
1392.659847891227
 31
0.0
  0
LINE
  5
71701
330
18
100
AcDbEntity
  8
0
  6
Continuous
 62
   252
370
    15
100
AcDbLine
 10
481.9372669970857
 20
1370.662970088997
 30
0.0
 11
481.9495023613885
 21
1370.663160027086
 31
0.0
  0
SPLINE
  5
71702
330
18
100
AcDbEntity
  8
0
  6
Continuous
 62
   252
370
    15
100
AcDbSpline
210
0.0
220
0.0
230
1.0
 70
     8
 71
     3
 72
    24
 73
    20
 74
     0
 42
0.000000001
 43
0.00000001
 40
0.0
 40
0.0
 40
0.0
 40
0.0
 40
0.1250000000000043
 40
0.1250000000000043
 40
0.1875000000000051
 40
0.1875000000000051
 40
0.2500000000000059
 40
0.2500000000000059
 40
0.3750000000000049
 40
0.3750000000000049
 40
0.500000000000004
 40
0.500000000000004
 40
0.625000000000003
 40
0.625000000000003
 40
0.750000000000002
 40
0.750000000000002
 40
0.875000000000001
 40
0.875000000000001
 40
1.0
 40
1.0
 40
1.0
 40
1.0
 10
482.5766608256845
 20
1370.376337688735
 30
0.0
 10
482.5037907208821
 20
1370.375288416775
 30
0.0
 10
482.424111362415
 20
1370.377855162286
 30
0.0
 10
482.2998893124497
 20
1370.386892311808
 30
0.0
 10
482.2584055344834
 20
1370.390717023771
 30
0.0
 10
482.1752874661732
 20
1370.399987645212
 30
0.0
 10
482.1333527476574
 20
1370.405494011091
 30
0.0
 10
482.012577112068
 20
1370.423839426571
 30
0.0
 10
481.9356315280225
 20
1370.438988266524
 30
0.0
 10
481.8032294675459
 20
1370.472387297835
 30
0.0
 10
481.7464381681062
 20
1370.490986193307
 30
0.0
 10
481.6627890747529
 20
1370.528433581835
 30
0.0
 10
481.63515712331
 20
1370.547571349057
 30
0.0
 10
481.6132407633283
 20
1370.583407101169
 30
0.0
 10
481.6186893222866
 20
1370.600023583349
 30
0.0
 10
481.6623019646358
 20
1370.628689466363
 30
0.0
 10
481.6997241381567
 20
1370.640294727977
 30
0.0
 10
481.8013684754139
 20
1370.656952922273
 30
0.0
 10
481.8645731294228
 20
1370.661841562251
 30
0.0
 10
481.9372669425575
 20
1370.662970125067
 30
0.0
  0
LINE
  5
71703
330
18
100
AcDbEntity
  8
0
  6
Continuous
 62
   252
370
    15
100
AcDbLine
 10
482.5889259298902
 20
1370.376514276009
 30
0.0
 11
482.5766611923747
 21
1370.376337703337
 31
0.0
  0
LWPOLYLINE
  5
71704
330
18
100
AcDbEntity
  8
0
  6
Continuous
 62
   252
370
    15
100
AcDbPolyline
 90
       41
 70
   128
 43
0.0
 10
481.5159016306938
 20
1373.879538357209
 10
481.5929087187155
 20
1373.924629347611
 10
481.9733363545485
 20
1374.12698554976
 10
482.4000703861723
 20
1374.323057676553
 10
482.8715672986447
 20
1374.512136870459
 10
483.3861224981159
 20
1374.693538920262
 10
483.9418759969665
 20
1374.866608552716
 10
484.5368162039002
 20
1375.030719432536
 10
485.1687931892641
 20
1375.185278086198
 10
485.8355205800961
 20
1375.329726109066
 10
486.5345897729687
 20
1375.463540655867
 10
487.2634699339894
 20
1375.58623811925
 10
488.0195274230219
 20
1375.697374620255
 10
488.8000276887322
 20
1375.796548460686
 10
489.6021480601484
 20
1375.883401104058
 10
490.4229881694141
 20
1375.957618156543
 10
491.25958013766
 20
1376.018931574107
 10
492.1088985239956
 20
1376.067119417271
 10
492.9678722879869
 20
1376.102007567768
 10
493.8333951531887
 20
1376.123469973785
 10
494.7023373475467
 20
1376.131428649956
 10
495.5715567812081
 20
1376.12585514879
 10
496.4379102687464
 20
1376.106769334484
 10
497.2982649290477
 20
1376.074240609107
 10
498.1495098664922
 20
1376.028386441179
 10
498.9885665789024
 20
1375.969372365672
 10
499.8124013345616
 20
1375.897412229244
 10
500.6180351212054
 20
1375.812765737872
 10
501.4025543056559
 20
1375.715739683036
 10
502.1631224778576
 20
1375.606684263163
 10
502.8969889785859
 20
1375.485994064577
 10
503.6015007434832
 20
1375.35410536389
 10
504.2741094094818
 20
1375.211495392294
 10
504.9123826850799
 20
1375.058679883187
 10
505.5140133518093
 20
1374.896210865042
 10
506.0768249493739
 20
1374.724676416171
 10
506.5987831459253
 20
1374.544696495697
 10
507.0780004756779
 20
1374.356922085219
 10
507.5127439190924
 20
1374.162032123356
 10
507.9014405880138
 20
1373.960731298611
 10
507.9371129333461
 20
1373.940622478184
  0
LWPOLYLINE
  5
71705
330
18
100
AcDbEntity
  8
0
  6
Continuous
 62
   252
370
    15
100
AcDbPolyline
 90
       39
 70
   128
 43
0.0
 10
508.466411590461
 20
1371.182856946065
 10
508.3691360382712
 20
1371.111305006614
 10
508.047801620909
 20
1370.902197430016
 10
507.6784865346416
 20
1370.698466797133
 10
507.2625267868781
 20
1370.500849799895
 10
506.8014251490721
 20
1370.310061058903
 10
506.2968492616771
 20
1370.126790548441
 10
505.7506250014846
 20
1369.951700898867
 10
505.1647260588721
 20
1369.785425312099
 10
504.5412710952334
 20
1369.628565109247
 10
503.8825161627958
 20
1369.481687278242
 10
503.1908414392967
 20
1369.345323247649
 10
502.4687488591777
 20
1369.219965943828
 10
501.7188497957849
 20
1369.106068564743
 10
500.9438560599008
 20
1369.004043108544
 10
500.1465694769917
 20
1368.914258656907
 10
499.3298733595001
 20
1368.83703941314
 10
498.496720899689
 20
1368.772665192652
 10
497.6501249837694
 20
1368.721368234876
 10
496.7931470585053
 20
1368.683334429455
 10
495.9288856424973
 20
1368.658701109104
 10
495.0604661699209
 20
1368.64755754009
 10
494.1910289392184
 20
1368.649943696043
 10
493.3237178612636
 20
1368.665851238905
 10
492.4616691483058
 20
1368.695222537983
 10
491.6079999733046
 20
1368.737951405657
 10
490.7657972477041
 20
1368.793883342622
 10
489.9381070210198
 20
1368.862816028357
 10
489.1279213339569
 20
1368.944500302077
 10
488.3381704013458
 20
1369.038640407966
 10
487.571710057463
 20
1369.144896692788
 10
486.831311807039
 20
1369.262884134462
 10
486.1196533500287
 20
1369.392176511091
 10
485.439307211336
 20
1369.532306400966
 10
484.792733634391
 20
1369.682766653981
 10
484.1822720534432
 20
1369.843013579722
 10
483.6101283020012
 20
1370.012467437934
 10
483.0783717702638
 20
1370.190515626606
 10
482.5889259298902
 20
1370.376514276009
  0
LWPOLYLINE
  5
71706
330
18
100
AcDbEntity
  8
0
  6
Continuous
 62
   252
370
    15
100
AcDbPolyline
 90
       23
 70
   128
 43
0.0
 10
494.7789986340941
 20
1377.162682264751
 10
493.8311494052743
 20
1377.155920099875
 10
492.8861788697228
 20
1377.135653714678
 10
491.9469566600192
 20
1377.10194539936
 10
491.0163353533295
 20
1377.054896682034
 10
490.0971411738366
 20
1376.994651271579
 10
489.192165287373
 20
1376.921391133845
 10
488.3041566949985
 20
1376.835339434497
 10
487.4358120471279
 20
1376.73675759617
 10
486.5897687739892
 20
1376.625944807997
 10
485.7685951366329
 20
1376.503237535134
 10
484.9747859630779
 20
1376.369008537813
 10
484.2107517517978
 20
1376.223665154679
 10
483.4788139341051
 20
1376.067649302798
 10
482.7811935038763
 20
1375.901434534805
 10
482.1200100700285
 20
1375.725525548433
 10
481.4972714337665
 20
1375.54045696033
 10
480.9148697984908
 20
1375.346790363212
 10
480.3745722945683
 20
1375.145114080629
 10
479.8780209793316
 20
1374.936040469354
 10
479.4267233618495
 20
1374.720204815822
 10
479.0220495603581
 20
1374.49826239328
 10
479.006082850541
 20
1374.488811204762
  0
LWPOLYLINE
  5
71707
330
18
100
AcDbEntity
  8
0
  6
Continuous
 62
   252
370
    15
100
AcDbPolyline
 90
       46
 70
   128
 43
0.0
 10
478.8969282026906
 20
1370.996258620595
 10
479.0220495603581
 20
1370.920534954636
 10
479.4267233618495
 20
1370.698592532093
 10
479.8780209793316
 20
1370.482756878561
 10
480.3745722945683
 20
1370.273683267287
 10
480.9148697984908
 20
1370.072006984703
 10
481.4972714337665
 20
1369.878340387585
 10
482.1200100700285
 20
1369.693271799482
 10
482.7811935038763
 20
1369.517362813111
 10
483.4788139341051
 20
1369.351148045117
 10
484.2107517517978
 20
1369.195132193236
 10
484.9747859630779
 20
1369.049788810103
 10
485.7685951366329
 20
1368.915559812782
 10
486.5897687739892
 20
1368.792852539919
 10
487.4358120471279
 20
1368.682039751746
 10
488.3041566949985
 20
1368.583457913419
 10
489.192165287373
 20
1368.49740621407
 10
490.0971411738366
 20
1368.424146076336
 10
491.0163353533295
 20
1368.363900665881
 10
491.9469566600192
 20
1368.316851948555
 10
492.8861788697228
 20
1368.283143633237
 10
493.8311494052743
 20
1368.262877248041
 10
494.7789986340942
 20
1368.256115083164
 10
495.7268478629139
 20
1368.262877248041
 10
496.6718183984653
 20
1368.283143633237
 10
497.6110406081689
 20
1368.316851948555
 10
498.5416619148586
 20
1368.363900665881
 10
499.4608560943515
 20
1368.424146076336
 10
500.365831980815
 20
1368.49740621407
 10
501.2538405731896
 20
1368.583457913419
 10
502.1221852210603
 20
1368.682039751746
 10
502.9682284941989
 20
1368.792852539919
 10
503.7894021315553
 20
1368.915559812782
 10
504.5832113051102
 20
1369.049788810103
 10
505.3472455163904
 20
1369.195132193236
 10
506.0791833340831
 20
1369.351148045117
 10
506.7768037643119
 20
1369.517362813111
 10
507.4379871981596
 20
1369.693271799482
 10
508.0607258344217
 20
1369.878340387585
 10
508.6431274696974
 20
1370.072006984703
 10
509.1834249736198
 20
1370.273683267287
 10
509.6799762888566
 20
1370.482756878561
 10
510.1312739063387
 20
1370.698592532093
 10
510.5359477078301
 20
1370.920534954636
 10
510.8927678084966
 20
1371.147910112309
 10
511.0879897591494
 20
1371.290158972432
  0
LWPOLYLINE
  5
71708
330
18
100
AcDbEntity
  8
0
  6
Continuous
 62
   252
370
    15
100
AcDbPolyline
 90
       23
 70
   128
 43
0.0
 10
510.702527933698
 20
1374.396561385624
 10
510.5359477078301
 20
1374.49826239328
 10
510.1312739063387
 20
1374.720204815822
 10
509.6799762888566
 20
1374.936040469354
 10
509.1834249736198
 20
1375.145114080629
 10
508.6431274696974
 20
1375.346790363212
 10
508.0607258344217
 20
1375.54045696033
 10
507.4379871981596
 20
1375.725525548433
 10
506.7768037643119
 20
1375.901434534805
 10
506.0791833340831
 20
1376.067649302798
 10
505.3472455163904
 20
1376.223665154679
 10
504.5832113051102
 20
1376.369008537813
 10
503.7894021315553
 20
1376.503237535134
 10
502.9682284941989
 20
1376.625944807997
 10
502.1221852210603
 20
1376.73675759617
 10
501.2538405731896
 20
1376.835339434497
 10
500.365831980815
 20
1376.921391133845
 10
499.4608560943515
 20
1376.994651271579
 10
498.5416619148586
 20
1377.054896682034
 10
497.6110406081689
 20
1377.10194539936
 10
496.6718183984653
 20
1377.135653714678
 10
495.7268478629139
 20
1377.155920099875
 10
494.7789986340941
 20
1377.162682264751
  0
ARC
  5
71709
330
18
100
AcDbEntity
  8
0
  6
Continuous
 62
   252
370
    15
100
AcDbCircle
 10
510.7795154177447
 20
1372.806557319234
 30
0.0
 40
1.289186533116622
100
AcDbArc
 50
326.5214678218437
 51
32.75601204808509
  0
ARC
  5
7170A
330
18
100
AcDbEntity
  8
0
  6
Continuous
 62
   252
370
    15
100
AcDbCircle
 10
478.7793631805052
 20
1372.807077995284
 30
0.0
 40
1.29004531692818
100
AcDbArc
 50
146.5920374550891
 51
213.209329047167
  0
LWPOLYLINE
  5
7170B
330
18
100
AcDbEntity
  8
0
  6
Continuous
 62
   252
370
    15
100
AcDbPolyline
 90
       59
 70
   128
 43
0.0
 10
477.4832817082532
 20
1373.211202161927
 10
477.4898499375839
 20
1373.334548093231
 10
477.5423559762642
 20
1373.580865356332
 10
477.6472107648095
 20
1373.826059985783
 10
477.8040921454048
 20
1374.069387258143
 10
478.0125263565578
 20
1374.310108274346
 10
478.2718804529146
 20
1374.547491921606
 10
478.5813660953518
 20
1374.780817387087
 10
478.9400433410686
 20
1375.009375935876
 10
479.3468225386322
 20
1375.232473547279
 10
479.8004690655936
 20
1375.449432631482
 10
480.299605223533
 20
1375.659594114062
 10
480.8427140281514
 20
1375.862320010981
 10
481.4281477369785
 20
1376.056994532144
 10
482.0541269018485
 20
1376.24302641116
 10
482.7187507916541
 20
1376.419850867231
 10
483.4200021299608
 20
1376.58693083134
 10
484.1557499375754
 20
1376.743758662909
 10
484.9237599552999
 20
1376.889858356931
 10
485.7217003290686
 20
1377.024785789212
 10
486.5471472950864
 20
1377.148131904445
 10
487.3975946550584
 20
1377.259521490028
 10
488.2704585138052
 20
1377.358616364147
 10
489.1630886495381
 20
1377.445115866246
 10
490.0727741989977
 20
1377.518757102269
 10
490.9967526589216
 20
1377.579316416077
 10
491.9322172293482
 20
1377.626609879923
 10
492.8763277101305
 20
1377.660493784929
 10
493.8262163637347
 20
1377.680865622033
 10
494.7789986340942
 20
1377.687663101036
 10
495.7317809044535
 20
1377.680865622033
 10
496.6816695580578
 20
1377.660493784929
 10
497.6257800388399
 20
1377.626609879923
 10
498.5612446092665
 20
1377.579316416077
 10
499.4852230691905
 20
1377.518757102269
 10
500.39490861865
 20
1377.445115866246
 10
501.2875387543829
 20
1377.358616364147
 10
502.1604026131296
 20
1377.259521490028
 10
503.0108499731018
 20
1377.148131904445
 10
503.8362969391196
 20
1377.024785789212
 10
504.6342373128883
 20
1376.889858356931
 10
505.4022473306129
 20
1376.743758662909
 10
506.1379951382274
 20
1376.58693083134
 10
506.839246476534
 20
1376.419850867231
 10
507.5038703663396
 20
1376.24302641116
 10
508.1298495312098
 20
1376.056994532144
 10
508.7152832400367
 20
1375.862320010981
 10
509.2583920446552
 20
1375.659594114062
 10
509.7575282025945
 20
1375.449432631482
 10
510.2111747295559
 20
1375.232473547279
 10
510.6179539271197
 20
1375.009375935876
 10
510.9766311728363
 20
1374.780817387087
 10
511.2861168152736
 20
1374.547491921606
 10
511.5454709116304
 20
1374.310108274346
 10
511.7539051227834
 20
1374.069387258143
 10
511.9107865033786
 20
1373.826059985783
 10
512.0156412919239
 20
1373.580865356332
 10
512.0681473306042
 20
1373.334548093231
 10
512.0747155599349
 20
1373.211202161927
  0
SPLINE
  5
7170C
330
18
100
AcDbEntity
  8
0
  6
Continuous
 62
   252
370
    15
100
AcDbSpline
210
0.0
220
0.0
230
1.0
 70
     8
 71
     3
 72
    12
 73
     8
 74
     0
 42
0.000000001
 43
0.00000001
 40
0.0
 40
0.0
 40
0.0
 40
0.0
 40
0.1995927998558849
 40
0.3991703491140793
 40
0.5992670749230224
 40
0.8002984647028275
 40
0.9999999999999999
 40
0.9999999999999999
 40
0.9999999999999999
 40
0.9999999999999999
 10
509.7972114127214
 20
1378.40385488331
 30
0.0
 10
509.7971304347279
 20
1378.285943482253
 30
0.0
 10
509.7969684849284
 20
1378.050129689579
 30
0.0
 10
509.8075547962177
 20
1377.679458942237
 30
0.0
 10
509.8213045583905
 20
1377.350729908145
 30
0.0
 10
509.8337913923655
 20
1377.086343815873
 30
0.0
 10
509.8355380919998
 20
1377.00045160777
 30
0.0
 10
509.8364085435571
 20
1376.957648022751
 30
0.0
  0
SPLINE
  5
7170D
330
18
100
AcDbEntity
  8
0
  6
Continuous
 62
   252
370
    15
100
AcDbSpline
210
0.0
220
0.0
230
1.0
 70
     8
 71
     3
 72
    11
 73
     7
 74
     0
 42
0.000000001
 43
0.00000001
 40
0.0
 40
0.0
 40
0.0
 40
0.0
 40
0.2572236888151941
 40
0.5384715304800356
 40
0.8194550445064704
 40
1.0
 40
1.0
 40
1.0
 40
1.0
 10
509.833545129097
 20
1379.093827524023
 30
0.0
 10
509.8309613474685
 20
1379.085921021861
 30
0.0
 10
509.8255524644285
 20
1379.069369566823
 30
0.0
 10
509.8113978600126
 20
1378.894325777121
 30
0.0
 10
509.8007171938175
 20
1378.658491126042
 30
0.0
 10
509.7981972051048
 20
1378.475456178925
 30
0.0
 10
509.7972114127214
 20
1378.40385488331
 30
0.0
  0
SPLINE
  5
7170E
330
18
100
AcDbEntity
  8
0
  6
Continuous
 62
   252
370
    15
100
AcDbSpline
210
0.0
220
0.0
230
1.0
 70
     8
 71
     3
 72
    14
 73
    10
 74
     0
 42
0.000000001
 43
0.00000001
 40
0.0
 40
0.0
 40
0.0
 40
0.0
 40
0.0002299733287613
 40
0.0002299733287613
 40
0.0002299733287613
 40
0.0004294060765574
 40
0.0004294060765574
 40
0.0004294060765574
 40
0.0006288478784947
 40
0.0006288478784947
 40
0.0006288478784947
 40
0.0006288478784947
 10
479.7474298794471
 20
1379.605672259085
 30
0.0
 10
479.7497151347199
 20
1379.615747598282
 30
0.0
 10
479.7521516348584
 20
1379.625818658919
 30
0.0
 10
479.7547392695607
 20
1379.635887899707
 30
0.0
 10
479.7569832691901
 20
1379.644619956275
 30
0.0
 10
479.7593409547039
 20
1379.653350047056
 30
0.0
 10
479.7618122458314
 20
1379.662077874679
 30
0.0
 10
479.7642836491531
 20
1379.670806098536
 30
0.0
 10
479.7668686964573
 20
1379.679532958624
 30
0.0
 10
479.7695672997128
 20
1379.688255648189
 30
0.0
  0
LINE
  5
7170F
330
18
100
AcDbEntity
  8
0
  6
Continuous
 62
   252
370
    15
100
AcDbLine
 10
479.7695674984899
 20
1379.688255578156
 30
0.0
 11
479.7695674984899
 21
1379.774891905196
 31
0.0
  0
LINE
  5
71710
330
18
100
AcDbEntity
  8
0
  6
Continuous
 62
   252
370
    15
100
AcDbLine
 10
479.8005515000934
 20
1379.774860087717
 30
0.0
 11
479.8142820556662
 21
1379.790528242998
 31
0.0
  0
SPLINE
  5
71711
330
18
100
AcDbEntity
  8
0
  6
Continuous
 62
   252
370
    15
100
AcDbSpline
210
0.0
220
0.0
230
1.0
 70
     8
 71
     3
 72
     9
 73
     5
 74
     0
 42
0.000000001
 43
0.00000001
 40
0.0
 40
0.0
 40
0.0
 40
0.0
 40
0.8717095750200545
 40
1.0
 40
1.0
 40
1.0
 40
1.0
 10
479.8142820556662
 20
1379.790528242998
 30
0.0
 10
479.8222177752944
 20
1379.809867129546
 30
0.0
 10
479.8313214032177
 20
1379.832052140589
 30
0.0
 10
479.8395974614851
 20
1379.888576837029
 30
0.0
 10
479.8406592005175
 20
1379.895828414358
 30
0.0
  0
SPLINE
  5
71712
330
18
100
AcDbEntity
  8
0
  6
Continuous
 62
   252
370
    15
100
AcDbSpline
210
0.0
220
0.0
230
1.0
 70
     8
 71
     3
 72
    14
 73
    10
 74
     0
 42
0.000000001
 43
0.00000001
 40
0.0
 40
0.0
 40
0.0
 40
0.0
 40
0.0002088792604168
 40
0.0002088792604168
 40
0.0002088792604168
 40
0.0004058363949552
 40
0.0004058363949552
 40
0.0004058363949552
 40
0.0006028022505882
 40
0.0006028022505882
 40
0.0006028022505882
 40
0.0006028022505882
 10
479.7290758341106
 20
1379.501917966938
 30
0.0
 10
479.7301953875785
 20
1379.511080816555
 30
0.0
 10
479.7314398575663
 20
1379.520240855461
 30
0.0
 10
479.7328091975962
 20
1379.529400360382
 30
0.0
 10
479.7341003811924
 20
1379.53803707752
 30
0.0
 10
479.7355026020251
 20
1379.546672673749
 30
0.0
 10
479.7370158135317
 20
1379.555306862227
 30
0.0
 10
479.7385290920413
 20
1379.563941433015
 30
0.0
 10
479.7401533878072
 20
1379.572575476905
 30
0.0
 10
479.7418886468824
 20
1379.581206243984
 30
0.0
  0
LINE
  5
71713
330
18
100
AcDbEntity
  8
0
  6
Continuous
 62
   252
370
    15
100
AcDbLine
 10
479.7418884570577
 20
1379.581206259671
 30
0.0
 11
479.7418884570577
 21
1379.606028857852
 31
0.0
  0
SPLINE
  5
71714
330
18
100
AcDbEntity
  8
0
  6
Continuous
 62
   252
370
    15
100
AcDbSpline
210
0.0
220
0.0
230
1.0
 70
     8
 71
     3
 72
     9
 73
     5
 74
     0
 42
0.000000001
 43
0.00000001
 40
0.0
 40
0.0
 40
0.0
 40
0.0
 40
0.1005116325927012
 40
1.0
 40
1.0
 40
1.0
 40
1.0
 10
479.7226935364313
 20
1379.420457696685
 30
0.0
 10
479.7227154385905
 20
1379.420211416093
 30
0.0
 10
479.7229333452997
 20
1379.417761146547
 30
0.0
 10
479.7233064255731
 20
1379.423087221943
 30
0.0
 10
479.7236420069391
 20
1379.427877964805
 30
0.0
  0
SPLINE
  5
71715
330
18
100
AcDbEntity
  8
0
  6
Continuous
 62
   252
370
    15
100
AcDbSpline
210
0.0
220
0.0
230
1.0
 70
     8
 71
     3
 72
     9
 73
     5
 74
     0
 42
0.000000001
 43
0.00000001
 40
0.0
 40
0.0
 40
0.0
 40
0.0
 40
0.6041782816792645
 40
0.9999999999999999
 40
0.9999999999999999
 40
0.9999999999999999
 40
0.9999999999999999
 10
479.7236420069391
 20
1379.427877964805
 30
0.0
 10
479.7242127806948
 20
1379.436191925888
 30
0.0
 10
479.7251574915077
 20
1379.449952700372
 30
0.0
 10
479.7263302232258
 20
1379.487286952895
 30
0.0
 10
479.7267944159096
 20
1379.502064660881
 30
0.0
  0
SPLINE
  5
71716
330
18
100
AcDbEntity
  8
0
  6
Continuous
 62
   252
370
    15
100
AcDbSpline
210
0.0
220
0.0
230
1.0
 70
     8
 71
     3
 72
    17
 73
    13
 74
     0
 42
0.000000001
 43
0.00000001
 40
0.0
 40
0.0
 40
0.0
 40
0.0
 40
0.0275239035857544
 40
0.1448781935490031
 40
0.2622783769715675
 40
0.3794484657429789
 40
0.4960728565557792
 40
0.612320314099797
 40
0.7287659582122582
 40
0.8457631990625136
 40
0.9631258501029681
 40
1.0
 40
1.0
 40
1.0
 40
1.0
 10
479.7249363233364
 20
1379.087523074203
 30
0.0
 10
479.7252313276022
 20
1379.09093714257
 30
0.0
 10
479.726784148226
 20
1379.108907851417
 30
0.0
 10
479.737245711918
 20
1379.018681640452
 30
0.0
 10
479.7508101506857
 20
1378.820717766371
 30
0.0
 10
479.7608568900919
 20
1378.521199033216
 30
0.0
 10
479.7621755537419
 20
1378.167320223197
 30
0.0
 10
479.7545311385699
 20
1377.796631723876
 30
0.0
 10
479.7410221862171
 20
1377.447716702892
 30
0.0
 10
479.7282413181796
 20
1377.169348612708
 30
0.0
 10
479.7211003734354
 20
1377.002597854418
 30
0.0
 10
479.7222400834642
 20
1376.976305457161
 30
0.0
 10
479.7225125595413
 20
1376.970019604551
 30
0.0
  0
ARC
  5
71717
330
18
100
AcDbEntity
  8
0
  6
Continuous
 62
   252
370
    15
100
AcDbCircle
 10
508.7281731446074
 20
1375.831145479082
 30
0.0
 40
1.105053816282504
100
AcDbArc
 50
339.6289137426401
 51
34.36101334487847
  0
SPLINE
  5
71718
330
18
100
AcDbEntity
  8
0
  6
Continuous
 62
   252
370
    15
100
AcDbSpline
210
0.0
220
0.0
230
1.0
 70
     8
 71
     3
 72
    10
 73
     6
 74
     0
 42
0.000000001
 43
0.00000001
 40
0.0
 40
0.0
 40
0.0
 40
0.0
 40
0.5
 40
0.5
 40
1.0
 40
1.0
 40
1.0
 40
1.0
 10
509.5967080678424
 20
1376.270694246908
 30
0.0
 10
509.5964924070276
 20
1376.337080492051
 30
0.0
 10
509.6015204164394
 20
1376.394901396282
 30
0.0
 10
509.618054173069
 20
1376.462540168958
 30
0.0
 10
509.6293918365213
 20
1376.472314362925
 30
0.0
 10
509.6403923165943
 20
1376.454843752171
 30
0.0
  0
ELLIPSE
  5
71719
330
18
100
AcDbEntity
  8
0
  6
Continuous
 62
   252
370
    15
100
AcDbEllipse
 10
494.7789986340941
 20
1227.481356475515
 30
0.0
 11
0.0
 21
837.1439427422284
 31
0.0
210
0.0
220
0.0
230
1.0
 40
0.0179866879392183
 41
4.890160363945433
 42
4.891072769898321
  0
LINE
  5
7171A
330
18
100
AcDbEntity
  8
0
  6
Continuous
 62
   252
370
    15
100
AcDbLine
 10
495.2925918016347
 20
1371.152630679173
 30
0.0
 11
495.2876961872529
 21
1371.180364467572
 31
0.0
  0
LINE
  5
7171B
330
18
100
AcDbEntity
  8
0
  6
Continuous
 62
   252
370
    15
100
AcDbLine
 10
494.2827306578399
 20
1371.210042034865
 30
0.0
 11
494.2656682265212
 21
1371.151688034427
 31
0.0
  0
SPLINE
  5
7171C
330
18
100
AcDbEntity
  8
0
  6
Continuous
 62
   252
370
    15
100
AcDbSpline
210
0.0
220
0.0
230
1.0
 70
     8
 71
     3
 72
    10
 73
     6
 74
     0
 42
0.000000001
 43
0.00000001
 40
0.0
 40
0.0
 40
0.0
 40
0.0
 40
0.5
 40
0.5
 40
1.0
 40
1.0
 40
1.0
 40
1.0
 10
479.9176049515939
 20
1376.454843752171
 30
0.0
 10
479.9286078906388
 20
1376.472318268186
 30
0.0
 10
479.9399087480462
 20
1376.462618571964
 30
0.0
 10
479.9564677807483
 20
1376.395000451754
 30
0.0
 10
479.9615049109203
 20
1376.337095809444
 30
0.0
 10
479.9612892003458
 20
1376.270694246908
 30
0.0
  0
ARC
  5
7171D
330
18
100
AcDbEntity
  8
0
  6
Continuous
 62
   252
370
    15
100
AcDbCircle
 10
480.8298241235812
 20
1375.831145479082
 30
0.0
 40
1.105053816282886
100
AcDbArc
 50
145.6389866551348
 51
200.3710862573538
  0
ELLIPSE
  5
7171E
330
18
100
AcDbEntity
  8
0
  6
Continuous
 62
   252
370
    15
100
AcDbEllipse
 10
494.7789986340941
 20
1227.481356475515
 30
0.0
 11
0.0
 21
837.1439427422284
 31
0.0
210
0.0
220
0.0
230
1.0
 40
0.0179866879392183
 41
1.392112537281291
 42
1.3930249432342
  0
ELLIPSE
  5
7171F
330
18
100
AcDbEntity
  8
0
  6
Continuous
 62
   252
370
    15
100
AcDbEllipse
 10
494.7789986340941
 20
1381.023891026928
 30
0.0
 11
-14.82428774132062
 21
165.5099151188818
 31
0.0
210
0.0
220
0.0
230
1.0
 40
0.015947958140855
 41
4.671794625504183
 42
4.680868798820669
  0
ELLIPSE
  5
71720
330
18
100
AcDbEntity
  8
0
  6
Continuous
 62
   252
370
    15
100
AcDbEllipse
 10
494.7789986340941
 20
1381.023891026928
 30
0.0
 11
14.82428774132062
 21
165.509915118882
 31
0.0
210
0.0
220
0.0
230
1.0
 40
0.015947958140855
 41
1.602316508358913
 42
1.611390681675404
  0
ARC
  5
71721
330
18
100
AcDbEntity
  8
0
  6
Continuous
 62
   252
370
    15
100
AcDbCircle
 10
482.097177597139
 20
1380.184976890382
 30
0.0
 40
2.625151765377188
100
AcDbArc
 50
121.4283559646563
 51
146.9683216635218
  0
SPLINE
  5
71722
330
18
100
AcDbEntity
  8
0
  6
Continuous
 62
   252
370
    15
100
AcDbSpline
210
0.0
220
0.0
230
1.0
 70
     8
 71
     3
 72
    10
 73
     6
 74
     0
 42
0.000000001
 43
0.00000001
 40
0.0
 40
0.0
 40
0.0
 40
0.0
 40
0.5
 40
0.5
 40
1.0
 40
1.0
 40
1.0
 40
1.0
 10
480.8228146647919
 20
1382.245491497675
 30
0.0
 10
480.8223727333568
 20
1382.309727986113
 30
0.0
 10
480.8115658366233
 20
1382.365400187843
 30
0.0
 10
480.7764220965968
 20
1382.431232358656
 30
0.0
 10
480.7523496726761
 20
1382.441129976471
 30
0.0
 10
480.7283390671608
 20
1382.425000502092
 30
0.0
  0
ELLIPSE
  5
71723
330
18
100
AcDbEntity
  8
0
  6
Continuous
 62
   252
370
    15
100
AcDbEllipse
 10
494.7789986340941
 20
1265.523925553638
 30
0.0
 11
-7.561183053788534
 21
829.8740335334872
 31
0.0
210
0.0
220
0.0
230
1.0
 40
0.0156907391395935
 41
1.429535719662311
 42
1.432463084589012
  0
SPLINE
  5
71724
330
18
100
AcDbEntity
  8
0
  6
Continuous
 62
   252
370
    15
100
AcDbSpline
210
0.0
220
0.0
230
1.0
 70
     8
 71
     3
 72
    10
 73
     6
 74
     0
 42
0.000000001
 43
0.00000001
 40
0.0
 40
0.0
 40
0.0
 40
0.0
 40
0.5
 40
0.5
 40
1.0
 40
1.0
 40
1.0
 40
1.0
 10
480.9383813665434
 20
1379.659620672141
 30
0.0
 10
480.9121151801511
 20
1379.643753502851
 30
0.0
 10
480.8868775658964
 20
1379.653912811253
 30
0.0
 10
480.8506455844114
 20
1379.719964090698
 30
0.0
 10
480.8398659100223
 20
1379.775653906925
 30
0.0
 10
480.839421597403
 20
1379.839799742922
 30
0.0
  0
ARC
  5
71725
330
18
100
AcDbEntity
  8
0
  6
Continuous
 62
   252
370
    15
100
AcDbCircle
 10
483.8944395811828
 20
1374.766233323446
 30
0.0
 40
5.716950058868072
100
AcDbArc
 50
120.7423287166946
 51
121.1358538502408
  0
SPLINE
  5
71726
330
18
100
AcDbEntity
  8
0
  6
Continuous
 62
   252
370
    15
100
AcDbSpline
210
0.0
220
0.0
230
1.0
 70
     8
 71
     3
 72
    12
 73
     8
 74
     0
 42
0.000000001
 43
0.00000001
 40
0.0
 40
0.0
 40
0.0
 40
0.0
 40
0.086852111134679
 40
0.3379997368200914
 40
0.5896366647059099
 40
0.8424262775923093
 40
1.0
 40
1.0
 40
1.0
 40
1.0
 10
481.0718042403733
 20
1379.549290460468
 30
0.0
 10
481.0711998160519
 20
1379.558358531109
 30
0.0
 10
481.0688475961819
 20
1379.593648467649
 30
0.0
 10
481.0529956836693
 20
1379.640537511227
 30
0.0
 10
481.026646932559
 20
1379.680121127624
 30
0.0
 10
480.997729244385
 20
1379.691185237662
 30
0.0
 10
480.9791821955102
 20
1379.682964734313
 30
0.0
 10
480.9720603908081
 20
1379.679808177181
 30
0.0
  0
ELLIPSE
  5
71727
330
18
100
AcDbEntity
  8
0
  6
Continuous
 62
   252
370
    15
100
AcDbEllipse
 10
494.7789986340941
 20
1297.856929847532
 30
0.0
 11
-7.561183053788534
 21
829.8740335334872
 31
0.0
210
0.0
220
0.0
230
1.0
 40
0.0156907391395936
 41
1.472551437504468
 42
1.473763963609083
  0
ARC
  5
71728
330
18
100
AcDbEntity
  8
0
  6
Continuous
 62
   252
370
    15
100
AcDbCircle
 10
485.6834761512254
 20
1369.786415338391
 30
0.0
 40
9.532502653725748
100
AcDbArc
 50
109.4594856368319
 51
118.8327447773477
  0
ELLIPSE
  5
71729
330
18
100
AcDbEntity
  8
0
  6
Continuous
 62
   252
370
    15
100
AcDbEllipse
 10
494.7789986340941
 20
1297.856929847532
 30
0.0
 11
7.500158082860942
 21
836.6240841319031
 31
0.0
210
0.0
220
0.0
230
1.0
 40
0.0156062708327138
 41
1.472417074809679
 42
1.474065777149617
  0
SPLINE
  5
7172A
330
18
100
AcDbEntity
  8
0
  6
Continuous
 62
   252
370
    15
100
AcDbSpline
210
0.0
220
0.0
230
1.0
 70
     8
 71
     3
 72
    10
 73
     6
 74
     0
 42
0.000000001
 43
0.00000001
 40
0.0
 40
0.0
 40
0.0
 40
0.0
 40
0.5
 40
0.5
 40
1.0
 40
1.0
 40
1.0
 40
1.0
 10
482.6725143518715
 20
1380.442100958234
 30
0.0
 10
482.6329051249157
 20
1380.428238748091
 30
0.0
 10
482.5945468775171
 20
1380.388838035452
 30
0.0
 10
482.5393651099361
 20
1380.280287815868
 30
0.0
 10
482.5228984054003
 20
1380.211753956946
 30
0.0
 10
482.5222198550334
 20
1380.147162343259
 30
0.0
  0
ARC
  5
7172B
330
18
100
AcDbEntity
  8
0
  6
Continuous
 62
   252
370
    15
100
AcDbCircle
 10
487.5095403424977
 20
1366.620892868975
 30
0.0
 40
14.64317634158051
100
AcDbArc
 50
109.0784980593314
 51
109.2885799756521
  0
SPLINE
  5
7172C
330
18
100
AcDbEntity
  8
0
  6
Continuous
 62
   252
370
    15
100
AcDbSpline
210
0.0
220
0.0
230
1.0
 70
     8
 71
     3
 72
    10
 73
     6
 74
     0
 42
0.000000001
 43
0.00000001
 40
0.0
 40
0.0
 40
0.0
 40
0.0
 40
0.5
 40
0.5
 40
1.0
 40
1.0
 40
1.0
 40
1.0
 10
482.8785739045914
 20
1380.753926714242
 30
0.0
 10
482.8778540768811
 20
1380.689269285572
 30
0.0
 10
482.8603190914369
 20
1380.620986007781
 30
0.0
 10
482.8028042901269
 20
1380.512908426597
 30
0.0
 10
482.7631765326183
 20
1380.473562282356
 30
0.0
 10
482.7232236477819
 20
1380.459743577664
 30
0.0
  0
ELLIPSE
  5
7172D
330
18
100
AcDbEntity
  8
0
  6
Continuous
 62
   252
370
    15
100
AcDbEllipse
 10
494.7789986340941
 20
1265.523925553638
 30
0.0
 11
7.500158082860942
 21
836.6240841319031
 31
0.0
210
0.0
220
0.0
230
1.0
 40
0.0156062708327137
 41
1.429837533202845
 42
1.432764898129546
  0
SPLINE
  5
7172E
330
18
100
AcDbEntity
  8
0
  6
Continuous
 62
   252
370
    15
100
AcDbSpline
210
0.0
220
0.0
230
1.0
 70
     8
 71
     3
 72
    10
 73
     6
 74
     0
 42
0.000000001
 43
0.00000001
 40
0.0
 40
0.0
 40
0.0
 40
0.0
 40
0.5
 40
0.5
 40
1.0
 40
1.0
 40
1.0
 40
1.0
 10
483.0654651734433
 20
1383.47270547322
 30
0.0
 10
483.023492027579
 20
1383.459256286424
 30
0.0
 10
482.9827840045526
 20
1383.420439745618
 30
0.0
 10
482.923982250912
 20
1383.312472256378
 30
0.0
 10
482.9063548785412
 20
1383.243965509035
 30
0.0
 10
482.9056307451246
 20
1383.179192403007
 30
0.0
  0
ARC
  5
7172F
330
18
100
AcDbEntity
  8
0
  6
Continuous
 62
   252
370
    15
100
AcDbCircle
 10
488.4001964401851
 20
1366.816381646058
 30
0.0
 40
17.48978176122318
100
AcDbArc
 50
106.7881608213311
 51
107.7593590664386
  0
SPLINE
  5
71730
330
18
100
AcDbEntity
  8
0
  6
Continuous
 62
   252
370
    15
100
AcDbSpline
210
0.0
220
0.0
230
1.0
 70
     8
 71
     3
 72
    10
 73
     6
 74
     0
 42
0.000000001
 43
0.00000001
 40
0.0
 40
0.0
 40
0.0
 40
0.0
 40
0.5
 40
0.5
 40
1.0
 40
1.0
 40
1.0
 40
1.0
 10
483.5151078571269
 20
1383.385889210158
 30
0.0
 10
483.5114380847486
 20
1383.445871256884
 30
0.0
 10
483.4917521241276
 20
1383.497736402719
 30
0.0
 10
483.4306150202065
 20
1383.561781132582
 30
0.0
 10
483.3898545988803
 20
1383.573201202957
 30
0.0
 10
483.3485533672164
 20
1383.560735269348
 30
0.0
  0
ELLIPSE
  5
71731
330
18
100
AcDbEntity
  8
0
  6
Continuous
 62
   252
370
    15
100
AcDbEllipse
 10
494.7789986340941
 20
1381.023891026928
 30
0.0
 11
-10.20139334955212
 21
163.3431407086495
 31
0.0
210
0.0
220
0.0
230
1.0
 40
0.0678027849755017
 41
1.552101093798287
 42
1.566842314380066
  0
SPLINE
  5
71732
330
18
100
AcDbEntity
  8
0
  6
Continuous
 62
   252
370
    15
100
AcDbSpline
210
0.0
220
0.0
230
1.0
 70
     8
 71
     3
 72
    10
 73
     6
 74
     0
 42
0.000000001
 43
0.00000001
 40
0.0
 40
0.0
 40
0.0
 40
0.0
 40
0.5
 40
0.5
 40
1.0
 40
1.0
 40
1.0
 40
1.0
 10
483.8361758837287
 20
1380.801854464774
 30
0.0
 10
483.7925859869653
 20
1380.789918502792
 30
0.0
 10
483.7503275169087
 20
1380.801651324653
 30
0.0
 10
483.6873792509277
 20
1380.866048879888
 30
0.0
 10
483.6673604670042
 20
1380.918066925442
 30
0.0
 10
483.6636290318394
 20
1380.97807267747
 30
0.0
  0
ARC
  5
71733
330
18
100
AcDbEntity
  8
0
  6
Continuous
 62
   252
370
    15
100
AcDbCircle
 10
494.7789986340941
 20
1333.939460207278
 30
0.0
 40
48.12306466458384
100
AcDbArc
 50
76.85639590095492
 51
103.1436040990451
  0
SPLINE
  5
71734
330
18
100
AcDbEntity
  8
0
  6
Continuous
 62
   252
370
    15
100
AcDbSpline
210
0.0
220
0.0
230
1.0
 70
     8
 71
     3
 72
    10
 73
     6
 74
     0
 42
0.000000001
 43
0.00000001
 40
0.0
 40
0.0
 40
0.0
 40
0.0
 40
0.5
 40
0.5
 40
1.0
 40
1.0
 40
1.0
 40
1.0
 10
505.8943682363485
 20
1380.97807267747
 30
0.0
 10
505.8906368268289
 20
1380.918067337846
 30
0.0
 10
505.8706617770212
 20
1380.866131840438
 30
0.0
 10
505.8077434684934
 20
1380.80168861704
 30
0.0
 10
505.7654110653776
 20
1380.789918561896
 30
0.0
 10
505.7218213844592
 20
1380.801854464774
 30
0.0
  0
ELLIPSE
  5
71735
330
18
100
AcDbEntity
  8
0
  6
Continuous
 62
   252
370
    15
100
AcDbEllipse
 10
494.7789986340941
 20
1381.023891026928
 30
0.0
 11
10.20139334955225
 21
163.3431407086496
 31
0.0
210
0.0
220
0.0
230
1.0
 40
0.0678027849755008
 41
4.716342992799521
 42
4.731084213381301
  0
SPLINE
  5
71736
330
18
100
AcDbEntity
  8
0
  6
Continuous
 62
   252
370
    15
100
AcDbSpline
210
0.0
220
0.0
230
1.0
 70
     8
 71
     3
 72
    10
 73
     6
 74
     0
 42
0.000000001
 43
0.00000001
 40
0.0
 40
0.0
 40
0.0
 40
0.0
 40
0.5
 40
0.5
 40
1.0
 40
1.0
 40
1.0
 40
1.0
 10
506.2094439009716
 20
1383.560735269348
 30
0.0
 10
506.1681427255161
 20
1383.573201185991
 30
0.0
 10
506.1274517705949
 20
1383.561816198285
 30
0.0
 10
506.0662893939518
 20
1383.497820450244
 30
0.0
 10
506.0465591812326
 20
1383.445871220813
 30
0.0
 10
506.0428894110611
 20
1383.385889210158
 30
0.0
  0
ARC
  5
71737
330
18
100
AcDbEntity
  8
0
  6
Continuous
 62
   252
370
    15
100
AcDbCircle
 10
501.1578008280722
 20
1366.816381646281
 30
0.0
 40
17.48978176099017
100
AcDbArc
 50
72.24064093355531
 51
73.21183917867545
  0
SPLINE
  5
71738
330
18
100
AcDbEntity
  8
0
  6
Continuous
 62
   252
370
    15
100
AcDbSpline
210
0.0
220
0.0
230
1.0
 70
     8
 71
     3
 72
    10
 73
     6
 74
     0
 42
0.000000001
 43
0.00000001
 40
0.0
 40
0.0
 40
0.0
 40
0.0
 40
0.5
 40
0.5
 40
1.0
 40
1.0
 40
1.0
 40
1.0
 10
506.6523665230632
 20
1383.179192403007
 30
0.0
 10
506.6516425456564
 20
1383.24395155408
 30
0.0
 10
506.6340424651212
 20
1383.312358255339
 30
0.0
 10
506.5753471631671
 20
1383.420257317838
 30
0.0
 10
506.5344970651431
 20
1383.459258906037
 30
0.0
 10
506.4925320947447
 20
1383.47270547322
 30
0.0
  0
ELLIPSE
  5
71739
330
18
100
AcDbEntity
  8
0
  6
Continuous
 62
   252
370
    15
100
AcDbEllipse
 10
494.7789986340941
 20
1265.523925553638
 30
0.0
 11
-7.500158082861123
 21
836.6240841319033
 31
0.0
210
0.0
220
0.0
230
1.0
 40
0.0156062708327136
 41
4.850420409050058
 42
4.85334777397676
  0
SPLINE
  5
7173A
330
18
100
AcDbEntity
  8
0
  6
Continuous
 62
   252
370
    15
100
AcDbSpline
210
0.0
220
0.0
230
1.0
 70
     8
 71
     3
 72
    10
 73
     6
 74
     0
 42
0.000000001
 43
0.00000001
 40
0.0
 40
0.0
 40
0.0
 40
0.0
 40
0.5
 40
0.5
 40
1.0
 40
1.0
 40
1.0
 40
1.0
 10
506.8347736204061
 20
1380.459743577664
 30
0.0
 10
506.7948141303813
 20
1380.473564566926
 30
0.0
 10
506.7553114382565
 20
1380.512746160709
 30
0.0
 10
506.6977129500036
 20
1380.620860489008
 30
0.0
 10
506.6801433062959
 20
1380.689258956864
 30
0.0
 10
506.6794233635965
 20
1380.753926714242
 30
0.0
  0
ARC
  5
7173B
330
18
100
AcDbEntity
  8
0
  6
Continuous
 62
   252
370
    15
100
AcDbCircle
 10
502.0484569260942
 20
1366.620892870145
 30
0.0
 40
14.64317634034288
100
AcDbArc
 50
70.71142002432683
 51
70.92150194066461
  0
SPLINE
  5
7173C
330
18
100
AcDbEntity
  8
0
  6
Continuous
 62
   252
370
    15
100
AcDbSpline
210
0.0
220
0.0
230
1.0
 70
     8
 71
     3
 72
    10
 73
     6
 74
     0
 42
0.000000001
 43
0.00000001
 40
0.0
 40
0.0
 40
0.0
 40
0.0
 40
0.5
 40
0.5
 40
1.0
 40
1.0
 40
1.0
 40
1.0
 10
507.0357774131543
 20
1380.147162343259
 30
0.0
 10
507.0350989352281
 20
1380.211747061279
 30
0.0
 10
507.018672812671
 20
1380.280144436166
 30
0.0
 10
506.963560438662
 20
1380.388684789446
 30
0.0
 10
506.925088333662
 20
1380.428240081357
 30
0.0
 10
506.8854829163167
 20
1380.442100958234
 30
0.0
  0
ELLIPSE
  5
7173D
330
18
100
AcDbEntity
  8
0
  6
Continuous
 62
   252
370
    15
100
AcDbEllipse
 10
494.7789986340941
 20
1297.856929847532
 30
0.0
 11
-7.500158082861124
 21
836.6240841319031
 31
0.0
210
0.0
220
0.0
230
1.0
 40
0.0156062708327136
 41
4.809119530029978
 42
4.810768232369916
  0
ARC
  5
7173E
330
18
100
AcDbEntity
  8
0
  6
Continuous
 62
   252
370
    15
100
AcDbCircle
 10
503.8745211169635
 20
1369.786415338393
 30
0.0
 40
9.532502653723832
100
AcDbArc
 50
61.16725522265125
 51
70.5405143631694
  0
ELLIPSE
  5
7173F
330
18
100
AcDbEntity
  8
0
  6
Continuous
 62
   252
370
    15
100
AcDbEllipse
 10
494.7789986340941
 20
1297.856929847532
 30
0.0
 11
7.561183053788681
 21
829.8740335334871
 31
0.0
210
0.0
220
0.0
230
1.0
 40
0.0156907391395934
 41
4.809421343570511
 42
4.810633869675895
  0
SPLINE
  5
71740
330
18
100
AcDbEntity
  8
0
  6
Continuous
 62
   252
370
    15
100
AcDbSpline
210
0.0
220
0.0
230
1.0
 70
     8
 71
     3
 72
    11
 73
     7
 74
     0
 42
0.000000001
 43
0.00000001
 40
0.0
 40
0.0
 40
0.0
 40
0.0
 40
0.25710176960724
 40
0.5142381584337422
 40
0.7704681816235912
 40
0.9999999999999999
 40
0.9999999999999999
 40
0.9999999999999999
 40
0.9999999999999999
 10
508.5859368773801
 20
1379.679808177181
 30
0.0
 10
508.5743507718632
 20
1379.683942384615
 30
0.0
 10
508.5511770007392
 20
1379.69221135616
 30
0.0
 10
508.5201102141124
 20
1379.66739748104
 30
0.0
 10
508.4961885198148
 20
1379.620899375837
 30
0.0
 10
508.4890646068083
 20
1379.57463535082
 30
0.0
 10
508.4856984208167
 20
1379.552774708671
 30
0.0
  0
ARC
  5
71741
330
18
100
AcDbEntity
  8
0
  6
Continuous
 62
   252
370
    15
100
AcDbCircle
 10
505.6635576877159
 20
1374.766233324632
 30
0.0
 40
5.716950057486005
100
AcDbArc
 50
58.86414614971115
 51
59.25767128335233
  0
SPLINE
  5
71742
330
18
100
AcDbEntity
  8
0
  6
Continuous
 62
   252
370
    15
100
AcDbSpline
210
0.0
220
0.0
230
1.0
 70
     8
 71
     3
 72
    10
 73
     6
 74
     0
 42
0.000000001
 43
0.00000001
 40
0.0
 40
0.0
 40
0.0
 40
0.0
 40
0.5
 40
0.5
 40
1.0
 40
1.0
 40
1.0
 40
1.0
 10
508.7185756707848
 20
1379.839799742922
 30
0.0
 10
508.718131429131
 20
1379.775664152271
 30
0.0
 10
508.7073729948403
 20
1379.72006446756
 30
0.0
 10
508.6711947803059
 20
1379.653988316335
 30
0.0
 10
508.6458777463121
 20
1379.643756125648
 30
0.0
 10
508.6196159016446
 20
1379.659620672141
 30
0.0
  0
ELLIPSE
  5
71743
330
18
100
AcDbEntity
  8
0
  6
Continuous
 62
   252
370
    15
100
AcDbEllipse
 10
494.7789986340941
 20
1265.523925553638
 30
0.0
 11
7.561183053788682
 21
829.8740335334872
 31
0.0
210
0.0
220
0.0
230
1.0
 40
0.0156907391395934
 41
4.850722222590591
 42
4.853649587517293
  0
SPLINE
  5
71744
330
18
100
AcDbEntity
  8
0
  6
Continuous
 62
   252
370
    15
100
AcDbSpline
210
0.0
220
0.0
230
1.0
 70
     8
 71
     3
 72
    10
 73
     6
 74
     0
 42
0.000000001
 43
0.00000001
 40
0.0
 40
0.0
 40
0.0
 40
0.0
 40
0.5
 40
0.5
 40
1.0
 40
1.0
 40
1.0
 40
1.0
 10
508.8296582010273
 20
1382.425000502092
 30
0.0
 10
508.8056429178515
 20
1382.441133118758
 30
0.0
 10
508.7816547678851
 20
1382.431319078876
 30
0.0
 10
508.7464484402369
 20
1382.36549425957
 30
0.0
 10
508.7356246300631
 20
1382.30974182844
 30
0.0
 10
508.7351826033961
 20
1382.245491497676
 30
0.0
  0
ARC
  5
71745
330
18
100
AcDbEntity
  8
0
  6
Continuous
 62
   252
370
    15
100
AcDbCircle
 10
507.9812765833213
 20
1380.753107620219
 30
0.0
 40
1.874826697816823
100
AcDbArc
 50
8.30432901987948
 51
63.0950468354694
  0
SPLINE
  5
71746
330
18
100
AcDbEntity
  8
0
  6
Continuous
 62
   252
370
    15
100
AcDbSpline
210
0.0
220
0.0
230
1.0
 70
     8
 71
     3
 72
    14
 73
    10
 74
     0
 42
0.000000001
 43
0.00000001
 40
0.0
 40
0.0
 40
0.0
 40
0.0
 40
0.00030337389997
 40
0.00030337389997
 40
0.00030337389997
 40
0.000518743585041
 40
0.000518743585041
 40
0.000518743585041
 40
0.0007341246731904
 40
0.0007341246731904
 40
0.0007341246731904
 40
0.0007341246731904
 10
479.8549407755991
 20
1379.894818913794
 30
0.0
 10
479.8617728402823
 20
1379.908013572782
 30
0.0
 10
479.8688662830177
 20
1379.921195401757
 30
0.0
 10
479.8762205450084
 20
1379.934368948297
 30
0.0
 10
479.8814414799835
 20
1379.943721107624
 30
0.0
 10
479.8867939456797
 20
1379.953068341458
 30
0.0
 10
479.8922777295756
 20
1379.962410278279
 30
0.0
 10
479.8977618038151
 20
1379.971752709716
 30
0.0
 10
479.9033772827588
 20
1379.981090630629
 30
0.0
 10
479.9091239433866
 20
1379.99042162209
 30
0.0
  0
LINE
  5
71747
330
18
100
AcDbEntity
  8
0
  6
Continuous
 62
   252
370
    15
100
AcDbLine
 10
479.909124368831
 20
1379.990421408186
 30
0.0
 11
479.9128566618681
 21
1380.06221869197
 31
0.0
  0
SPLINE
  5
71748
330
18
100
AcDbEntity
  8
0
  6
Continuous
 62
   252
370
    15
100
AcDbSpline
210
0.0
220
0.0
230
1.0
 70
     8
 71
     3
 72
    17
 73
    13
 74
     0
 42
0.000000001
 43
0.00000001
 40
0.0
 40
0.0
 40
0.0
 40
0.0
 40
0.0001849251526367
 40
0.0001849251526367
 40
0.0001849251526367
 40
0.0003698503052297
 40
0.0003698503052297
 40
0.0003698503052297
 40
0.0005548079462699
 40
0.0005548079462699
 40
0.0005548079462699
 40
0.000739772809481
 40
0.000739772809481
 40
0.000739772809481
 40
0.000739772809481
 10
479.9542731651424
 20
1380.059708728211
 30
0.0
 10
479.9597648708038
 20
1380.067696821102
 30
0.0
 10
479.9653530412385
 20
1380.075679267516
 30
0.0
 10
479.9710375128911
 20
1380.083657591507
 30
0.0
 10
479.9767219845423
 20
1380.091635915495
 30
0.0
 10
479.9825028128697
 20
1380.099609628413
 30
0.0
 10
479.9883798286513
 20
1380.10757849639
 30
0.0
 10
479.9942578769221
 20
1380.115548764359
 30
0.0
 10
480.0002322038185
 20
1380.123514263478
 30
0.0
 10
480.0063026343924
 20
1380.131474760212
 30
0.0
 10
480.0123733020003
 20
1380.139435567782
 30
0.0
 10
480.0185401400798
 20
1380.147392478706
 30
0.0
 10
480.0248029679396
 20
1380.155341932899
 30
0.0
  0
SPLINE
  5
71749
330
18
100
AcDbEntity
  8
0
  6
Continuous
 62
   252
370
    15
100
AcDbSpline
210
0.0
220
0.0
230
1.0
 70
     8
 71
     3
 72
    14
 73
    10
 74
     0
 42
0.000000001
 43
0.00000001
 40
0.0
 40
0.0
 40
0.0
 40
0.0
 40
0.5000000000000003
 40
0.5000000000000003
 40
0.7500000000000004
 40
0.7500000000000004
 40
0.8750000000000002
 40
0.8750000000000002
 40
1.0
 40
1.0
 40
1.0
 40
1.0
 10
480.0248029679396
 20
1380.155341932899
 30
0.0
 10
480.0161787046539
 20
1380.255485175538
 30
0.0
 10
480.0077469251368
 20
1380.355650398773
 30
0.0
 10
479.9953988392741
 20
1380.505973722482
 30
0.0
 10
479.9913323164645
 20
1380.556092700644
 30
0.0
 10
479.9853149340664
 20
1380.631316404376
 30
0.0
 10
479.9833226041507
 20
1380.656397586988
 30
0.0
 10
479.9793727281391
 20
1380.706599945829
 30
0.0
 10
479.9772064211213
 20
1380.731022713268
 30
0.0
 10
479.9755217408817
 20
1380.757019327194
 30
0.0
  0
SPLINE
  5
7174A
330
18
100
AcDbEntity
  8
0
  6
Continuous
 62
   252
370
    15
100
AcDbSpline
210
0.0
220
0.0
230
1.0
 70
     8
 71
     3
 72
    14
 73
    10
 74
     0
 42
0.000000001
 43
0.00000001
 40
0.0
 40
0.0
 40
0.0
 40
0.0
 40
0.0000708352222379
 40
0.0000708352222379
 40
0.0000708352222379
 40
0.0001416518517118
 40
0.0001416518517118
 40
0.0001416518517118
 40
0.0002736143684831
 40
0.0002736143684831
 40
0.0002736143684831
 40
0.0002736143684831
 10
479.975521737672
 20
1380.757019316406
 30
0.0
 10
479.9748686714244
 20
1380.76718812273
 30
0.0
 10
479.9741479899197
 20
1380.777152188514
 30
0.0
 10
479.9733739939886
 20
1380.786922087449
 30
0.0
 10
479.9726001212437
 20
1380.796690431443
 30
0.0
 10
479.9717724485915
 20
1380.806272246216
 30
0.0
 10
479.9709048025484
 20
1380.815692233029
 30
0.0
 10
479.9692884404756
 20
1380.833240989841
 30
0.0
 10
479.9675323137268
 20
1380.850242408482
 30
0.0
 10
479.96571740344
 20
1380.866939242957
 30
0.0
  0
SPLINE
  5
7174B
330
18
100
AcDbEntity
  8
0
  6
Continuous
 62
   252
370
    15
100
AcDbSpline
210
0.0
220
0.0
230
1.0
 70
     8
 71
     3
 72
    14
 73
    10
 74
     0
 42
0.000000001
 43
0.00000001
 40
0.0
 40
0.0
 40
0.0
 40
0.0
 40
0.0005786773903776
 40
0.0005786773903776
 40
0.0005786773903776
 40
0.0010334366914869
 40
0.0010334366914869
 40
0.0010334366914869
 40
0.0014881972056849
 40
0.0014881972056849
 40
0.0014881972056849
 40
0.0014881972056849
 10
479.96571740344
 20
1380.866939242957
 30
0.0
 10
479.9713975790256
 20
1380.964711142885
 30
0.0
 10
479.9771789901327
 20
1381.062477232792
 30
0.0
 10
479.9830619386278
 20
1381.16023717953
 30
0.0
 10
479.9876851123268
 20
1381.237062807859
 30
0.0
 10
479.9923709967671
 20
1381.313884700167
 30
0.0
 10
479.9971197435444
 20
1381.390702693294
 30
0.0
 10
480.0018685029835
 20
1381.467520891246
 30
0.0
 10
480.006680071656
 20
1381.544335263433
 30
0.0
 10
480.0115547799955
 20
1381.621145577041
 30
0.0
  0
SPLINE
  5
7174C
330
18
100
AcDbEntity
  8
0
  6
Continuous
 62
   252
370
    15
100
AcDbSpline
210
0.0
220
0.0
230
1.0
 70
     8
 71
     3
 72
    10
 73
     6
 74
     0
 42
0.000000001
 43
0.00000001
 40
0.0
 40
0.0
 40
0.0
 40
0.0
 40
0.5
 40
0.5
 40
1.0
 40
1.0
 40
1.0
 40
1.0
 10
481.9495023451879
 20
1370.663160079961
 30
0.0
 10
481.9743691409109
 20
1370.663546141007
 30
0.0
 10
482.0000903264924
 20
1370.676418318437
 30
0.0
 10
482.0374289569775
 20
1370.718363281866
 30
0.0
 10
482.0488464096799
 20
1370.747245871058
 30
0.0
 10
482.0490794697342
 20
1370.775077725223
 30
0.0
  0
SPLINE
  5
7174D
330
18
100
AcDbEntity
  8
0
  6
Continuous
 62
   252
370
    15
100
AcDbSpline
210
0.0
220
0.0
230
1.0
 70
     8
 71
     3
 72
    10
 73
     6
 74
     0
 42
0.000000001
 43
0.00000001
 40
0.0
 40
0.0
 40
0.0
 40
0.0
 40
0.5
 40
0.5
 40
1.0
 40
1.0
 40
1.0
 40
1.0
 10
482.6867400447124
 20
1370.489222309676
 30
0.0
 10
482.6870122013065
 20
1370.461146079163
 30
0.0
 10
482.6760923251362
 20
1370.432067375991
 30
0.0
 10
482.6394158115128
 20
1370.389822471741
 30
0.0
 10
482.6138289059572
 20
1370.376872888519
 30
0.0
 10
482.5889259957931
 20
1370.376514299232
 30
0.0
  0
ARC
  5
7174E
330
18
100
AcDbEntity
  8
0
  6
Continuous
 62
   252
370
    15
100
AcDbCircle
 10
481.491624376692
 20
1372.486767390073
 30
0.0
 40
1.053659852812398
100
AcDbArc
 50
150.6721121232736
 51
209.1922183782001
  0
ARC
  5
7174F
330
18
100
AcDbEntity
  8
0
  6
Continuous
 62
   252
370
    15
100
AcDbCircle
 10
508.0645833642397
 20
1372.487743058934
 30
0.0
 40
1.055325354928
100
AcDbArc
 50
332.6844246517525
 51
31.07600831156647
  0
ELLIPSE
  5
71750
330
18
100
AcDbEntity
  8
0
  6
Continuous
 62
   252
370
    15
100
AcDbEllipse
 10
494.7789986340941
 20
1373.827652875202
 30
0.0
 11
14.34461921859427
 21
1.236793493420959
 31
0.0
210
0.0
220
0.0
230
1.0
 40
0.1105072574556003
 41
3.467732812033555
 42
3.549079108868561
  0
ARC
  5
71751
330
18
100
AcDbEntity
  8
0
  6
Continuous
 62
   252
370
    15
100
AcDbCircle
 10
486.230241683109
 20
1380.337076862258
 30
0.0
 40
9.366443921426447
100
AcDbArc
 50
241.7737594558974
 51
251.0540139640086
  0
LINE
  5
71752
330
18
100
AcDbEntity
  8
0
  6
Continuous
 62
   252
370
    15
100
AcDbLine
 10
483.1891760556306
 20
1371.379786512189
 30
0.0
 11
483.1891760556306
 21
1371.478059333063
 31
0.0
  0
ELLIPSE
  5
71753
330
18
100
AcDbEntity
  8
0
  6
Continuous
 62
   252
370
    15
100
AcDbEllipse
 10
494.7789986340941
 20
1373.827652875202
 30
0.0
 11
14.33321765291188
 21
-1.459492215856408
 31
0.0
210
0.0
220
0.0
230
1.0
 40
0.4028263593353233
 41
3.81277125834574
 42
3.894117555180767
  0
ARC
  5
71754
330
18
100
AcDbEntity
  8
0
  6
Continuous
 62
   252
370
    15
100
AcDbCircle
 10
482.4131882974149
 20
1373.905602679296
 30
0.0
 40
2.116185643801328
100
AcDbArc
 50
207.4847261640569
 51
236.1467613852596
  0
LWPOLYLINE
  5
71755
330
18
100
AcDbEntity
  8
0
  6
Continuous
 62
   252
370
    15
100
AcDbPolyline
 90
       40
 70
   128
 43
0.0
 10
509.0221489814209
 20
1372.928957317124
 10
508.9849776547268
 20
1372.855040710611
 10
508.8390392170831
 20
1372.634480566386
 10
508.6420292905579
 20
1372.416596448242
 10
508.3946623074821
 20
1372.202179735957
 10
508.0978374671678
 20
1371.992009424845
 10
507.7526330507722
 20
1371.786848937667
 10
507.3603026312039
 20
1371.587443304413
 10
506.9222712830321
 20
1371.39451707778
 10
506.4401298973484
 20
1371.208771022481
 10
505.9156304441516
 20
1371.030879785486
 10
505.3506783921644
 20
1370.861489443655
 10
504.7473251286486
 20
1370.701215541844
 10
504.1077632217912
 20
1370.550640027441
 10
503.434314102905
 20
1370.410309778943
 10
502.7294252238598
 20
1370.280735134533
 10
501.9956577392833
 20
1370.162385968293
 10
501.2356756100477
 20
1370.055692916385
 10
500.4522399181305
 20
1369.961042962785
 10
499.6481970225781
 20
1369.878779929759
 10
498.8264667154683
 20
1369.809203251677
 10
497.9900344048453
 20
1369.752565032169
 10
497.14193832316
 20
1369.709071025073
 10
496.2852587491956
 20
1369.678879653487
 10
495.4231079406363
 20
1369.662100293111
 10
494.5586173869215
 20
1369.658794007956
 10
493.6949274012986
 20
1369.668972569398
 10
492.8351752471752
 20
1369.692599437124
 10
491.982483797454
 20
1369.729588287714
 10
491.1399506232125
 20
1369.77980497653
 10
490.3106361052515
 20
1369.843067292487
 10
489.4975524191395
 20
1369.919145203284
 10
488.703653230901
 20
1370.007762572065
 10
487.9318223267402
 20
1370.10859715742
 10
487.1848639009308
 20
1370.221282820517
 10
486.4654897642553
 20
1370.34541050605
 10
485.7763146063901
 20
1370.480528977949
 10
485.1198413092998
 20
1370.62614751699
 10
484.4984538408141
 20
1370.781737392212
 10
484.2972994487534
 20
1370.83633352327
  0
ARC
  5
71756
330
18
100
AcDbEntity
  8
0
  6
Continuous
 62
   252
370
    15
100
AcDbCircle
 10
486.0917574606238
 20
1379.03810080935
 30
0.0
 40
9.110152208292812
100
AcDbArc
 50
243.6620633171603
 51
248.0457287739922
  0
LINE
  5
71757
330
18
100
AcDbEntity
  8
0
  6
Continuous
 62
   252
370
    15
100
AcDbLine
 10
482.0499049745895
 20
1370.873647334051
 30
0.0
 11
482.0490794697342
 21
1370.775077725223
 31
0.0
  0
LINE
  5
71758
330
18
100
AcDbEntity
  8
0
  6
Continuous
 62
   252
370
    15
100
AcDbLine
 10
482.6857768858359
 20
1370.588593754519
 30
0.0
 11
482.6867400447123
 21
1370.489222309676
 31
0.0
  0
SPLINE
  5
71759
330
18
100
AcDbEntity
  8
0
  6
Continuous
 62
   252
370
    15
100
AcDbSpline
210
0.0
220
0.0
230
1.0
 70
     8
 71
     3
 72
    26
 73
    22
 74
     0
 42
0.000000001
 43
0.00000001
 40
0.0
 40
0.0
 40
0.0
 40
0.0
 40
0.2499999999999785
 40
0.2499999999999785
 40
0.3749999999999677
 40
0.3749999999999677
 40
0.4374999999999619
 40
0.4374999999999619
 40
0.4687499999999618
 40
0.4687499999999618
 40
0.4843749999999618
 40
0.4843749999999618
 40
0.4999999999999618
 40
0.4999999999999618
 40
0.5624999999999686
 40
0.5624999999999686
 40
0.6249999999999755
 40
0.6249999999999755
 40
0.749999999999985
 40
0.749999999999985
 40
1.0
 40
1.0
 40
1.0
 40
1.0
 10
481.2343300489615
 20
1372.148179889274
 30
0.0
 10
481.2511296704753
 20
1372.144250053712
 30
0.0
 10
481.2701260521447
 20
1372.140591011614
 30
0.0
 10
481.3036956438057
 20
1372.135812073345
 30
0.0
 10
481.3156913987009
 20
1372.134320994677
 30
0.0
 10
481.336633126707
 20
1372.132547569968
 30
0.0
 10
481.3440609768878
 20
1372.132013728302
 30
0.0
 10
481.3573684125826
 20
1372.131619630528
 30
0.0
 10
481.362123450134
 20
1372.131524819305
 30
0.0
 10
481.3711133886874
 20
1372.131870595647
 30
0.0
 10
481.3746002766863
 20
1372.13210514491
 30
0.0
 10
481.3805501235817
 20
1372.132909827452
 30
0.0
 10
481.3825479150855
 20
1372.133403947847
 30
0.0
 10
481.3891154166509
 20
1372.135615217014
 30
0.0
 10
481.3881560826352
 20
1372.137011348835
 30
0.0
 10
481.386780081911
 20
1372.139712623515
 30
0.0
 10
481.3851726666784
 20
1372.140983805741
 30
0.0
 10
481.3792678778221
 20
1372.144659792127
 30
0.0
 10
481.3738163254927
 20
1372.146939998605
 30
0.0
 10
481.3555281530465
 20
1372.153563083972
 30
0.0
 10
481.3406220169499
 20
1372.157679113175
 30
0.0
 10
481.3240297824432
 20
1372.161583652757
 30
0.0
  0
SPLINE
  5
7175A
330
18
100
AcDbEntity
  8
0
  6
Continuous
 62
   252
370
    15
100
AcDbSpline
210
0.0
220
0.0
230
1.0
 70
     8
 71
     3
 72
    28
 73
    24
 74
     0
 42
0.000000001
 43
0.00000001
 40
0.0
 40
0.0
 40
0.0
 40
0.0
 40
0.2499999999999972
 40
0.2499999999999972
 40
0.3749999999999957
 40
0.3749999999999957
 40
0.4374999999999917
 40
0.4374999999999917
 40
0.4687499999999919
 40
0.4687499999999919
 40
0.4999999999999921
 40
0.4999999999999921
 40
0.5156249999999921
 40
0.5156249999999921
 40
0.5312499999999922
 40
0.5312499999999922
 40
0.5624999999999925
 40
0.5624999999999925
 40
0.6249999999999929
 40
0.6249999999999929
 40
0.7499999999999937
 40
0.7499999999999937
 40
1.0
 40
1.0
 40
1.0
 40
1.0
 10
484.0041091885883
 20
1370.960136923251
 30
0.0
 10
483.9708087492668
 20
1370.978622999169
 30
0.0
 10
483.9361245972628
 20
1370.996752653502
 30
0.0
 10
483.8811115047336
 20
1371.022965425232
 30
0.0
 10
483.8622523771293
 20
1371.031566172291
 30
0.0
 10
483.8324939608056
 20
1371.043808069214
 30
0.0
 10
483.8223422718207
 20
1371.047785784964
 30
0.0
 10
483.8062228332047
 20
1371.053357073768
 30
0.0
 10
483.8006659988508
 20
1371.055161500581
 30
0.0
 10
483.789095732273
 20
1371.058387970641
 30
0.0
 10
483.7829913874752
 20
1371.059967401695
 30
0.0
 10
483.7731906983798
 20
1371.060842290812
 30
0.0
 10
483.7697225439142
 20
1371.060738201471
 30
0.0
 10
483.7655074223589
 20
1371.059077509479
 30
0.0
 10
483.7648395694916
 20
1371.0577537233
 30
0.0
 10
483.7644702306162
 20
1371.053861134617
 30
0.0
 10
483.7660519953957
 20
1371.051183461149
 30
0.0
 10
483.7716357493208
 20
1371.043270650242
 30
0.0
 10
483.7770002565592
 20
1371.038140542611
 30
0.0
 10
483.7942123712695
 20
1371.022974366077
 30
0.0
 10
483.8076977202904
 20
1371.013086769926
 30
0.0
 10
483.8501197228765
 20
1370.983925280101
 30
0.0
 10
483.8813486903902
 20
1370.965128917935
 30
0.0
 10
483.9144094551065
 20
1370.946733159768
 30
0.0
  0
ARC
  5
7175B
330
18
100
AcDbEntity
  8
0
  6
Continuous
 62
   252
370
    15
100
AcDbCircle
 10
482.4323791486237
 20
1373.830353331486
 30
0.0
 40
2.00330468674266
100
AcDbArc
 50
203.8416294067366
 51
236.4090254390354
  0
LWPOLYLINE
  5
7175C
330
18
100
AcDbEntity
  8
0
  6
Continuous
 62
   252
370
    15
100
AcDbPolyline
 90
       40
 70
   128
 43
0.0
 10
508.9669586101245
 20
1373.045858266949
 10
508.9275312312035
 20
1372.946122282019
 10
508.8014159219251
 20
1372.724138598352
 10
508.6233583501422
 20
1372.504551738448
 10
508.3940170443294
 20
1372.288175153416
 10
508.1142419326039
 20
1372.075810339061
 10
507.7850696051112
 20
1371.868243954352
 10
507.4077185764099
 20
1371.666244939885
 10
506.9835873904253
 20
1371.470561391109
 10
506.5142460927435
 20
1371.281918351198
 10
506.0014352830873
 20
1371.101014622966
 10
505.4470528499956
 20
1370.928520316501
 10
504.8531530232993
 20
1370.765074028934
 10
504.2219359513692
 20
1370.611281740879
 10
503.5557391734087
 20
1370.467712892636
 10
502.8570309867934
 20
1370.334899403244
 10
502.1283995505561
 20
1370.213332972878
 10
501.3725434101579
 20
1370.103464347133
 10
500.5922634435416
 20
1370.005700128944
 10
499.7904491220494
 20
1369.92040277859
 10
498.9700714040004
 20
1369.847887916081
 10
498.1341682849645
 20
1369.788424321163
 10
497.2858369806982
 20
1369.742232461895
 10
496.4282194774193
 20
1369.70948326846
 10
495.5644927604756
 20
1369.690297887935
 10
494.6978564447289
 20
1369.684747684283
 10
493.8315206566238
 20
1369.692853257413
 10
492.9686946194974
 20
1369.714584197938
 10
492.1125744394153
 20
1369.749860313361
 10
491.2663314758075
 20
1369.798550647126
 10
490.4331006084695
 20
1369.860475195279
 10
489.6159676828819
 20
1369.935404415995
 10
488.8179605087427
 20
1370.023060946233
 10
488.0420348840032
 20
1370.123119601739
 10
487.291064645876
 20
1370.235210074652
 10
486.5678317218448
 20
1370.358917178739
 10
485.8750152331491
 20
1370.493782320824
 10
485.2151820195546
 20
1370.639306443621
 10
484.5907757428393
 20
1370.794950025745
 10
484.004109306609
 20
1370.960137005497
  0
LINE
  5
7175D
330
18
100
AcDbEntity
  8
0
  6
Continuous
 62
   252
370
    15
100
AcDbLine
 10
481.3240301213154
 20
1372.161583694421
 30
0.0
 11
481.7728916572035
 21
1372.22865674803
 31
0.0
  0
LINE
  5
7175E
330
18
100
AcDbEntity
  8
0
  6
Continuous
 62
   252
370
    15
100
AcDbLine
 10
484.4529717900202
 20
1371.027210059105
 30
0.0
 11
484.004109306609
 21
1370.960137005497
 31
0.0
  0
ARC
  5
7175F
330
18
100
AcDbEntity
  8
0
  6
Continuous
 62
   252
370
    15
100
AcDbCircle
 10
482.4861113143406
 20
1373.468624915389
 30
0.0
 40
1.430455639085319
100
AcDbArc
 50
177.8236897210268
 51
240.0928353847354
  0
LWPOLYLINE
  5
71760
330
18
100
AcDbEntity
  8
0
  6
Continuous
 62
   252
370
    15
100
AcDbPolyline
 90
       41
 70
   128
 43
0.0
 10
508.4999709595371
 20
1373.530852695163
 10
508.5137507863051
 20
1373.358965380913
 10
508.4844315825861
 20
1373.13871635047
 10
508.4024386286183
 20
1372.919360764378
 10
508.2680874495559
 20
1372.70174165546
 10
508.0818925503795
 20
1372.486695481121
 10
507.8445712059885
 20
1372.275048598067
 10
507.5570349334944
 20
1372.067614518717
 10
507.2203885446976
 20
1371.86519038592
 10
506.8359263559952
 20
1371.668554336659
 10
506.4051265032435
 20
1371.478461946112
 10
505.9296433615741
 20
1371.295643775286
 10
505.4113047028246
 20
1371.120802796023
 10
504.8521031678321
 20
1370.954610344596
 10
504.2541877387261
 20
1370.797705753849
 10
503.6198571062679
 20
1370.650691816312
 10
502.9515473520514
 20
1370.51413355802
 10
502.2518281584112
 20
1370.388555540904
 10
501.52338906934
 20
1370.274440881841
 10
500.7690290677347
 20
1370.172227819342
 10
499.9916475739289
 20
1370.082309468307
 10
499.1942326016553
 20
1370.005031122424
 10
498.3798484402466
 20
1369.940689763693
 10
497.5516249950026
 20
1369.889533081478
 10
496.7127457062713
 20
1369.851757265375
 10
495.8664342841279
 20
1369.82750774092
 10
495.0159436341995
 20
1369.816877698172
 10
494.1645422962422
 20
1369.819907601234
 10
493.3155024816642
 20
1369.836586414443
 10
492.4720874004046
 20
1369.866849640468
 10
491.637538291714
 20
1369.910581036974
 10
490.8150629946571
 20
1369.967612616621
 10
490.0078219721503
 20
1370.037725137535
 10
489.2189181250878
 20
1370.12064908426
 10
488.4513837639017
 20
1370.216065893941
 10
487.7081675801208
 20
1370.323608692034
 10
486.9921273030672
 20
1370.442864254204
 10
486.3060140657275
 20
1370.573374232509
 10
485.6524648245683
 20
1370.71463687206
 10
485.0339919367839
 20
1370.866109708625
 10
484.4529717900202
 20
1371.027210059105
  0
LINE
  5
71761
330
18
100
AcDbEntity
  8
0
  6
Continuous
 62
   252
370
    15
100
AcDbLine
 10
482.1948899689492
 20
1372.438200997509
 30
0.0
 11
482.1948899689492
 21
1372.143382534889
 31
0.0
  0
ELLIPSE
  5
71762
330
18
100
AcDbEntity
  8
0
  6
Continuous
 62
   252
370
    15
100
AcDbEllipse
 10
494.7789986340941
 20
1373.827652875202
 30
0.0
 11
13.73420989014345
 21
1.184163983062583
 31
0.0
210
0.0
220
0.0
230
1.0
 40
0.1105072574555952
 41
3.459273679140693
 42
3.54432276414486
  0
ELLIPSE
  5
71763
330
18
100
AcDbEntity
  8
0
  6
Continuous
 62
   252
370
    15
100
AcDbEllipse
 10
494.7789986340941
 20
1373.827652875202
 30
0.0
 11
13.72329349746876
 21
-1.397386164117887
 31
0.0
210
0.0
220
0.0
230
1.0
 40
0.4028263593353228
 41
3.817527603069441
 42
3.902576688073677
  0
LINE
  5
71764
330
18
100
AcDbEntity
  8
0
  6
Continuous
 62
   252
370
    15
100
AcDbLine
 10
483.7209828060863
 20
1371.459253843482
 30
0.0
 11
483.7209828060863
 21
1371.754072306102
 31
0.0
  0
LWPOLYLINE
  5
71765
330
18
100
AcDbEntity
  8
0
  6
Continuous
 62
   252
370
    15
100
AcDbPolyline
 90
       41
 70
   128
 43
0.0
 10
508.4644511654054
 20
1373.561378153929
 10
508.4633700416798
 20
1373.558107213556
 10
508.3640440497508
 20
1373.338980694145
 10
508.2123892059397
 20
1373.121870973118
 10
508.008987289359
 20
1372.907614339282
 10
507.7546247440862
 20
1372.697036137739
 10
507.4502794138417
 20
1372.490947428538
 10
507.0971243320805
 20
1372.290142227758
 10
506.6965191942857
 20
1372.095394012878
 10
506.2500075153999
 20
1371.907452718625
 10
505.7593099971634
 20
1371.727042529845
 10
505.2263169479308
 20
1371.554858448176
 10
504.6530797549643
 20
1371.391563471836
 10
504.0418070943414
 20
1371.237786878948
 10
503.3948545082025
 20
1371.094120671618
 10
502.7147139819976
 20
1370.961118840215
 10
502.0040049430181
 20
1370.839292949109
 10
501.2654647851672
 20
1370.729112872381
 10
500.5019389199684
 20
1370.631002870031
 10
499.716367985005
 20
1370.545340607029
 10
498.9117783686902
 20
1370.472456417607
 10
498.091269181827
 20
1370.412630852886
 10
497.2580011242118
 20
1370.366094435641
 10
496.4151840483962
 20
1370.333026434114
 10
495.5660643457863
 20
1370.313554126305
 10
494.7139128287134
 20
1370.307752554735
 10
493.8620120054953
 20
1370.315644035969
 10
493.0136434517316
 20
1370.337198405858
 10
492.1720750927695
 20
1370.372332283824
 10
491.3405485824003
 20
1370.420910544282
 10
490.5222667851937
 20
1370.482746071408
 10
489.7203823470007
 20
1370.557600740077
 10
488.9379837189904
 20
1370.64518590635
 10
488.1780844980159
 20
1370.745164369359
 10
487.4436120563388
 20
1370.857151107022
 10
486.7373956975919
 20
1370.980714747469
 10
486.0621557602644
 20
1371.115379285692
 10
485.4204931949496
 20
1371.260625800212
 10
484.8148791415921
 20
1371.415894905446
 10
484.2476473493033
 20
1371.580588468365
 10
483.7209828060863
 20
1371.754072306102
  0
ARC
  5
71766
330
18
100
AcDbEntity
  8
0
  6
Continuous
 62
   252
370
    15
100
AcDbCircle
 10
483.1459058168846
 20
1374.470402601405
 30
0.0
 40
2.243718899929671
100
AcDbArc
 50
203.6539496523932
 51
244.9216665455447
  0
ELLIPSE
  5
71767
330
18
100
AcDbEntity
  8
0
  6
Continuous
 62
   252
370
    15
100
AcDbEllipse
 10
496.7438760507823
 20
1413.187892092926
 30
0.0
 11
10.06069450198417
 21
161.2310814035181
 31
0.0
210
0.0
220
0.0
230
1.0
 40
0.0664406939733013
 41
4.515035029937319
 42
4.529771625623201
  0
ELLIPSE
  5
71768
330
18
100
AcDbEntity
  8
0
  6
Continuous
 62
   252
370
    15
100
AcDbEllipse
 10
492.8141212174058
 20
1413.187892092928
 30
0.0
 11
-10.06069450198446
 21
161.2310814035256
 31
0.0
210
0.0
220
0.0
230
1.0
 40
0.0664406939733006
 41
1.753413681556396
 42
1.768150277242278
  0
SPLINE
  5
71769
330
18
100
AcDbEntity
  8
0
  6
Continuous
 62
   252
370
    15
100
AcDbSpline
210
0.0
220
0.0
230
1.0
 70
     8
 71
     3
 72
    11
 73
     7
 74
     0
 42
0.000000001
 43
0.00000001
 40
0.0
 40
0.0
 40
0.0
 40
0.0
 40
0.2960392459239635
 40
0.5920809986503842
 40
0.88807190115939
 40
1.0
 40
1.0
 40
1.0
 40
1.0
 10
505.4509917030435
 20
1383.250354402988
 30
0.0
 10
505.4548575888093
 20
1383.276795415297
 30
0.0
 10
505.4625893930765
 20
1383.329677663814
 30
0.0
 10
505.4971136709334
 20
1383.388277633517
 30
0.0
 10
505.5330621944608
 20
1383.421812007567
 30
0.0
 10
505.5581045519414
 20
1383.424260420576
 30
0.0
 10
505.5649758755474
 20
1383.424932235845
 30
0.0
  0
SPLINE
  5
7176A
330
18
100
AcDbEntity
  8
0
  6
Continuous
 62
   252
370
    15
100
AcDbSpline
210
0.0
220
0.0
230
1.0
 70
     8
 71
     3
 72
    11
 73
     7
 74
     0
 42
0.000000001
 43
0.00000001
 40
0.0
 40
0.0
 40
0.0
 40
0.0
 40
0.2900366729184141
 40
0.5856540582179761
 40
0.881387743249122
 40
1.0
 40
1.0
 40
1.0
 40
1.0
 10
483.9935216847767
 20
1383.428025671269
 30
0.0
 10
484.010449276986
 20
1383.421494398401
 30
0.0
 10
484.0446301720206
 20
1383.408306181815
 30
0.0
 10
484.0829641547357
 20
1383.355216339086
 30
0.0
 10
484.1019853214715
 20
1383.298449799482
 30
0.0
 10
484.1058882872172
 20
1383.261058250931
 30
0.0
 10
484.1070055651447
 20
1383.250354402988
 30
0.0
  0
LINE
  5
7176B
330
18
100
AcDbEntity
  8
0
  6
Continuous
 62
   252
370
    15
100
AcDbLine
 10
507.9963558604485
 20
1380.057956702633
 30
0.0
 11
508.0434771260063
 21
1382.142130657465
 31
0.0
  0
LINE
  5
7176C
330
18
100
AcDbEntity
  8
0
  6
Continuous
 62
   252
370
    15
100
AcDbLine
 10
481.514520142182
 20
1382.142130657465
 30
0.0
 11
481.5616414077396
 21
1380.057956702633
 31
0.0
  0
SPLINE
  5
7176D
330
18
100
AcDbEntity
  8
0
  6
Continuous
 62
   252
370
    15
100
AcDbSpline
210
0.0
220
0.0
230
1.0
 70
     8
 71
     3
 72
    11
 73
     7
 74
     0
 42
0.000000001
 43
0.00000001
 40
0.0
 40
0.0
 40
0.0
 40
0.0
 40
0.2654574120543819
 40
0.5308896191866896
 40
0.7971461043856065
 40
1.0
 40
1.0
 40
1.0
 40
1.0
 10
508.0434771260063
 20
1382.142130657465
 30
0.0
 10
508.0451173320996
 20
1382.168763320527
 30
0.0
 10
508.0483975885501
 20
1382.222026117905
 30
0.0
 10
508.066034535404
 20
1382.282915986527
 30
0.0
 10
508.0883241651383
 20
1382.321377196632
 30
0.0
 10
508.1056055250719
 20
1382.325129704693
 30
0.0
 10
508.1130783743785
 20
1382.326752373706
 30
0.0
  0
SPLINE
  5
7176E
330
18
100
AcDbEntity
  8
0
  6
Continuous
 62
   252
370
    15
100
AcDbSpline
210
0.0
220
0.0
230
1.0
 70
     8
 71
     3
 72
    12
 73
     8
 74
     0
 42
0.000000001
 43
0.00000001
 40
0.0
 40
0.0
 40
0.0
 40
0.0
 40
0.0317926384371182
 40
0.305251405818988
 40
0.5763555255342833
 40
0.844216869020913
 40
1.0
 40
1.0
 40
1.0
 40
1.0
 10
481.4451567220788
 20
1382.327861181217
 30
0.0
 10
481.4463484871608
 20
1382.328174652284
 30
0.0
 10
481.4577910092219
 20
1382.331184389399
 30
0.0
 10
481.4776961243538
 20
1382.309018156076
 30
0.0
 10
481.500000542448
 20
1382.261599598711
 30
0.0
 10
481.5118370881614
 20
1382.200495308795
 30
0.0
 10
481.5137987844973
 20
1382.157822398827
 30
0.0
 10
481.514520142182
 20
1382.142130657465
 30
0.0
  0
LWPOLYLINE
  5
7176F
330
18
100
AcDbEntity
  8
0
  6
Continuous
 62
   252
370
    15
100
AcDbPolyline
 90
        3
 70
   128
 43
0.0
 10
479.9542728915343
 20
1380.059708788206
 10
479.8772885440644
 20
1380.064374071272
 10
479.8003041965944
 20
1380.069039750648
  0
SPLINE
  5
71770
330
18
100
AcDbEntity
  8
0
  6
Continuous
 62
   252
370
    15
100
AcDbSpline
210
0.0
220
0.0
230
1.0
 70
     8
 71
     3
 72
    14
 73
    10
 74
     0
 42
0.000000001
 43
0.00000001
 40
0.0
 40
0.0
 40
0.0
 40
0.0
 40
0.0003521836590771
 40
0.0003521836590771
 40
0.0003521836590771
 40
0.0005282953433226
 40
0.0005282953433226
 40
0.0005282953433226
 40
0.0007044131378828
 40
0.0007044131378828
 40
0.0007044131378828
 40
0.0007044131378828
 10
479.86671780044
 20
1380.160175007558
 30
0.0
 10
479.8549589352148
 20
1380.145021364171
 30
0.0
 10
479.8435446951727
 20
1380.129849534215
 30
0.0
 10
479.8324762679761
 20
1380.114661095079
 30
0.0
 10
479.8269413583982
 20
1380.107065920466
 30
0.0
 10
479.8214928495278
 20
1380.099466493859
 30
0.0
 10
479.8161308831343
 20
1380.091863013074
 30
0.0
 10
479.8107687307053
 20
1380.084259268482
 30
0.0
 10
479.8054930802487
 20
1380.076651403477
 30
0.0
 10
479.8003040690452
 20
1380.069039616263
 30
0.0
  0
LWPOLYLINE
  5
71771
330
18
100
AcDbEntity
  8
0
  6
Continuous
 62
   252
370
    15
100
AcDbPolyline
 90
        3
 70
   128
 43
0.0
 10
480.0248027124317
 20
1380.155341893462
 10
479.9457603450388
 20
1380.15775829371
 10
479.8667179776457
 20
1380.160175151575
  0
SPLINE
  5
71772
330
18
100
AcDbEntity
  8
0
  6
Continuous
 62
   252
370
    15
100
AcDbSpline
210
0.0
220
0.0
230
1.0
 70
     8
 71
     3
 72
    14
 73
    10
 74
     0
 42
0.000000001
 43
0.00000001
 40
0.0
 40
0.0
 40
0.0
 40
0.0
 40
0.1250000000000003
 40
0.1250000000000003
 40
0.2500000000000006
 40
0.2500000000000006
 40
0.5000000000000018
 40
0.5000000000000018
 40
1.0
 40
1.0
 40
1.0
 40
1.0
 10
479.8188783415367
 20
1380.752665058028
 30
0.0
 10
479.8205190760351
 20
1380.727079251837
 30
0.0
 10
479.8226168194274
 20
1380.703008963197
 30
0.0
 10
479.8264528730863
 20
1380.65357348863
 30
0.0
 10
479.8283876426431
 20
1380.628875457462
 30
0.0
 10
479.8342309544526
 20
1380.554801637201
 30
0.0
 10
479.8381792374657
 20
1380.505448584308
 30
0.0
 10
479.8501668104823
 20
1380.357422939403
 30
0.0
 10
479.8583498583943
 20
1380.25878764673
 30
0.0
 10
479.86671780044
 20
1380.160175007558
 30
0.0
  0
LINE
  5
71773
330
18
100
AcDbEntity
  8
0
  6
Continuous
 62
   252
370
    15
100
AcDbLine
 10
479.9755220419917
 20
1380.757019289293
 30
0.0
 11
479.8188784896656
 21
1380.752664936035
 31
0.0
  0
SPLINE
  5
71774
330
18
100
AcDbEntity
  8
0
  6
Continuous
 62
   252
370
    15
100
AcDbSpline
210
0.0
220
0.0
230
1.0
 70
     8
 71
     3
 72
    14
 73
    10
 74
     0
 42
0.000000001
 43
0.00000001
 40
0.0
 40
0.0
 40
0.0
 40
0.0
 40
0.0000553360973078
 40
0.0000553360973078
 40
0.0000553360973078
 40
0.0001106727015521
 40
0.0001106727015521
 40
0.0001106727015521
 40
0.0002211688484727
 40
0.0002211688484727
 40
0.0002211688484727
 40
0.0002211688484727
 10
479.7763423320592
 20
1381.154475520325
 30
0.0
 10
479.7766821517609
 20
1381.163843866953
 30
0.0
 10
479.7770218375277
 20
1381.173212094703
 30
0.0
 10
479.7773579365741
 20
1381.182579333746
 30
0.0
 10
479.7776940373519
 20
1381.191946621043
 30
0.0
 10
479.7780265553454
 20
1381.201313017575
 30
0.0
 10
479.7783519883412
 20
1381.210677203889
 30
0.0
 10
479.7790017649566
 20
1381.229374230209
 30
0.0
 10
479.7796234326559
 20
1381.248065633679
 30
0.0
 10
479.780188304529
 20
1381.266729518164
 30
0.0
  0
SPLINE
  5
71775
330
18
100
AcDbEntity
  8
0
  6
Continuous
 62
   252
370
    15
100
AcDbSpline
210
0.0
220
0.0
230
1.0
 70
     8
 71
     3
 72
    10
 73
     6
 74
     0
 42
0.000000001
 43
0.00000001
 40
0.0
 40
0.0
 40
0.0
 40
0.0
 40
0.5
 40
0.5
 40
1.0
 40
1.0
 40
1.0
 40
1.0
 10
479.780188304529
 20
1381.266729518164
 30
0.0
 10
479.7814839206093
 20
1381.309938619475
 30
0.0
 10
479.7836813489269
 20
1381.353101141824
 30
0.0
 10
479.7881266305999
 20
1381.439422562071
 30
0.0
 10
479.7905231329616
 20
1381.482523392709
 30
0.0
 10
479.7930056035935
 20
1381.525587772024
 30
0.0
  0
SPLINE
  5
71776
330
18
100
AcDbEntity
  8
0
  6
Continuous
 62
   252
370
    15
100
AcDbSpline
210
0.0
220
0.0
230
1.0
 70
     8
 71
     3
 72
    14
 73
    10
 74
     0
 42
0.000000001
 43
0.00000001
 40
0.0
 40
0.0
 40
0.0
 40
0.0
 40
0.0003282767736175
 40
0.0003282767736175
 40
0.0003282767736175
 40
0.0004924312395359
 40
0.0004924312395359
 40
0.0004924312395359
 40
0.0006565906536986
 40
0.0006565906536986
 40
0.0006565906536986
 40
0.0006565906536986
 10
479.7930056035935
 20
1381.525587772024
 30
0.0
 10
479.8025249642373
 20
1381.539737627889
 30
0.0
 10
479.8123455504605
 20
1381.553874213737
 30
0.0
 10
479.8224664744419
 20
1381.567996252508
 30
0.0
 10
479.8275274893489
 20
1381.575058043394
 30
0.0
 10
479.8326636606069
 20
1381.582116276582
 30
0.0
 10
479.8378748721057
 20
1381.589170792451
 30
0.0
 10
479.8430862406892
 20
1381.596225520969
 30
0.0
 10
479.8483726933093
 20
1381.603276585107
 30
0.0
 10
479.8537341104515
 20
1381.610323825278
 30
0.0
  0
SPLINE
  5
71777
330
18
100
AcDbEntity
  8
0
  6
Continuous
 62
   252
370
    15
100
AcDbSpline
210
0.0
220
0.0
230
1.0
 70
     8
 71
     3
 72
     8
 73
     4
 74
     0
 42
0.000000001
 43
0.00000001
 40
1.748706624238437
 40
1.748706624238437
 40
1.748706624238437
 40
1.748706624238437
 40
1.764613899873742
 40
1.764613899873742
 40
1.764613899873742
 40
1.764613899873742
 10
479.8537341090538
 20
1381.610323825344
 30
0.0
 10
479.8382003687516
 20
1381.361943780682
 30
0.0
 10
479.8232960933269
 20
1381.113175967659
 30
0.0
 10
479.8090231684137
 20
1380.864051859039
 30
0.0
  0
SPLINE
  5
71778
330
18
100
AcDbEntity
  8
0
  6
Continuous
 62
   252
370
    15
100
AcDbSpline
210
0.0
220
0.0
230
1.0
 70
     8
 71
     3
 72
    14
 73
    10
 74
     0
 42
0.000000001
 43
0.00000001
 40
0.0
 40
0.0
 40
0.0
 40
0.0
 40
0.0000708067156423
 40
0.0000708067156423
 40
0.0000708067156423
 40
0.0001416238496777
 40
0.0001416238496777
 40
0.0001416238496777
 40
0.0002777336864049
 40
0.0002777336864049
 40
0.0002777336864049
 40
0.0002777336864049
 10
479.8090231698152
 20
1380.864051859035
 30
0.0
 10
479.8099874589925
 20
1380.85510559814
 30
0.0
 10
479.8109354914422
 20
1380.846076797429
 30
0.0
 10
479.8118554479112
 20
1380.836925149717
 30
0.0
 10
479.81277548346
 20
1380.827772715326
 30
0.0
 10
479.8136676939847
 20
1380.818494891299
 30
0.0
 10
479.8145191406414
 20
1380.80905724069
 30
0.0
 10
479.8161539564563
 20
1380.790936527727
 30
0.0
 10
479.8176417739898
 20
1380.772185249408
 30
0.0
 10
479.8188783415367
 20
1380.752665058028
 30
0.0
  0
SPLINE
  5
71779
330
18
100
AcDbEntity
  8
0
  6
Continuous
 62
   252
370
    15
100
AcDbSpline
210
0.0
220
0.0
230
1.0
 70
     8
 71
     3
 72
    14
 73
    10
 74
     0
 42
0.000000001
 43
0.00000001
 40
0.0
 40
0.0
 40
0.0
 40
0.0
 40
0.0002255017728778
 40
0.0002255017728778
 40
0.0002255017728778
 40
0.0004311912394426
 40
0.0004311912394426
 40
0.0004311912394426
 40
0.0006368870071484
 40
0.0006368870071484
 40
0.0006368870071484
 40
0.0006368870071484
 10
479.8003040690452
 20
1380.069039616263
 30
0.0
 10
479.7981307781156
 20
1380.100754206708
 30
0.0
 10
479.7959738919083
 20
1380.132472197482
 30
0.0
 10
479.7938344718952
 20
1380.164197441063
 30
0.0
 10
479.7918830191862
 20
1380.193135336452
 30
0.0
 10
479.7899423529487
 20
1380.222066585721
 30
0.0
 10
479.7880044507395
 20
1380.250962448823
 30
0.0
 10
479.7860665290306
 20
1380.279858602683
 30
0.0
 10
479.7841511792771
 20
1380.308790676607
 30
0.0
 10
479.7823370531532
 20
1380.338029739862
 30
0.0
  0
SPLINE
  5
7177A
330
18
100
AcDbEntity
  8
0
  6
Continuous
 62
   252
370
    15
100
AcDbSpline
210
0.0
220
0.0
230
1.0
 70
     8
 71
     3
 72
    14
 73
    10
 74
     0
 42
0.000000001
 43
0.00000001
 40
0.0
 40
0.0
 40
0.0
 40
0.0
 40
0.0000667234761209
 40
0.0000667234761209
 40
0.0000667234761209
 40
0.0001334471643589
 40
0.0001334471643589
 40
0.0001334471643589
 40
0.0002648951252685
 40
0.0002648951252685
 40
0.0002648951252685
 40
0.0002648951252685
 10
479.7823370531532
 20
1380.338029739862
 30
0.0
 10
479.7817525419691
 20
1380.34752805021
 30
0.0
 10
479.7811881443146
 20
1380.357091536156
 30
0.0
 10
479.7806441410119
 20
1380.366718017636
 30
0.0
 10
479.780100136675
 20
1380.376344517417
 30
0.0
 10
479.7795764642174
 20
1380.386035122738
 30
0.0
 10
479.7790734186096
 20
1380.395787496117
 30
0.0
 10
479.7780825772286
 20
1380.414996599537
 30
0.0
 10
479.7771714156715
 20
1380.434452328255
 30
0.0
 10
479.7763423320592
 20
1380.454134809492
 30
0.0
  0
SPLINE
  5
7177B
330
18
100
AcDbEntity
  8
0
  6
Continuous
 62
   252
370
    15
100
AcDbSpline
210
0.0
220
0.0
230
1.0
 70
     8
 71
     3
 72
    14
 73
    10
 74
     0
 42
0.000000001
 43
0.00000001
 40
0.0
 40
0.0
 40
0.0
 40
0.0
 40
0.0000667577498177
 40
0.0000667577498177
 40
0.0000667577498177
 40
0.00013351523539
 40
0.00013351523539
 40
0.00013351523539
 40
0.0002649906571395
 40
0.0002649906571395
 40
0.0002649906571395
 40
0.0002649906571395
 10
479.7763423320592
 20
1380.454134809492
 30
0.0
 10
479.7759211947117
 20
1380.442830461304
 30
0.0
 10
479.7754795708715
 20
1380.431521358771
 30
0.0
 10
479.7750182130195
 20
1380.420212038544
 30
0.0
 10
479.7745568562657
 20
1380.408902745242
 30
0.0
 10
479.7740757058534
 20
1380.397591760293
 30
0.0
 10
479.7735755255746
 20
1380.386283406265
 30
0.0
 10
479.7725906180956
 20
1380.364016070009
 30
0.0
 10
479.7715315526881
 20
1380.341751031992
 30
0.0
 10
479.7704042257818
 20
1380.319518990378
 30
0.0
  0
SPLINE
  5
7177C
330
18
100
AcDbEntity
  8
0
  6
Continuous
 62
   252
370
    15
100
AcDbSpline
210
0.0
220
0.0
230
1.0
 70
     8
 71
     3
 72
    14
 73
    10
 74
     0
 42
0.000000001
 43
0.00000001
 40
0.0
 40
0.0
 40
0.0
 40
0.0
 40
0.0002222606879659
 40
0.0002222606879659
 40
0.0002222606879659
 40
0.0004295046442241
 40
0.0004295046442241
 40
0.0004295046442241
 40
0.0006367488344037
 40
0.0006367488344037
 40
0.0006367488344037
 40
0.0006367488344037
 10
479.7704042257818
 20
1380.319518990378
 30
0.0
 10
479.7685362469164
 20
1380.281915339025
 30
0.0
 10
479.7664906282578
 20
1380.244385766565
 30
0.0
 10
479.7645303637659
 20
1380.206830048326
 30
0.0
 10
479.7627025342828
 20
1380.171811585596
 30
0.0
 10
479.7608831242107
 20
1380.136794667174
 30
0.0
 10
479.7590753662259
 20
1380.101777810728
 30
0.0
 10
479.7572676060988
 20
1380.066760912785
 30
0.0
 10
479.7554709614533
 20
1380.031744323329
 30
0.0
 10
479.7536866152746
 20
1379.9967274936
 30
0.0
  0
SPLINE
  5
7177D
330
18
100
AcDbEntity
  8
0
  6
Continuous
 62
   252
370
    15
100
AcDbSpline
210
0.0
220
0.0
230
1.0
 70
     8
 71
     3
 72
    14
 73
    10
 74
     0
 42
0.000000001
 43
0.00000001
 40
0.0
 40
0.0
 40
0.0
 40
0.0
 40
0.0003033738201655
 40
0.0003033738201655
 40
0.0003033738201655
 40
0.0005014236870608
 40
0.0005014236870608
 40
0.0005014236870608
 40
0.0006994822440769
 40
0.0006994822440769
 40
0.0006994822440769
 40
0.0006994822440769
 10
479.7536866152746
 20
1379.9967274936
 30
0.0
 10
479.7456932699712
 20
1379.983575082127
 30
0.0
 10
479.7379576303194
 20
1379.970412006166
 30
0.0
 10
479.7304802935783
 20
1379.957239281124
 30
0.0
 10
479.7255988688045
 20
1379.948639739791
 30
0.0
 10
479.7208274597478
 20
1379.94003596684
 30
0.0
 10
479.7161662234149
 20
1379.931428245449
 30
0.0
 10
479.7115047825562
 20
1379.922820146369
 30
0.0
 10
479.7069534729572
 20
1379.914208004078
 30
0.0
 10
479.7025124443948
 20
1379.905592102305
 30
0.0
  0
SPLINE
  5
7177E
330
18
100
AcDbEntity
  8
0
  6
Continuous
 62
   252
370
    15
100
AcDbSpline
210
0.0
220
0.0
230
1.0
 70
     8
 71
     3
 72
    14
 73
    10
 74
     0
 42
0.000000001
 43
0.00000001
 40
0.0
 40
0.0
 40
0.0
 40
0.0
 40
0.5000000000000021
 40
0.5000000000000021
 40
0.7500000000000012
 40
0.7500000000000012
 40
0.8750000000000007
 40
0.8750000000000007
 40
1.0
 40
1.0
 40
1.0
 40
1.0
 10
479.7025124443949
 20
1379.905592102305
 30
0.0
 10
479.708072820816
 20
1380.02581407359
 30
0.0
 10
479.7138061966966
 20
1380.146029894722
 30
0.0
 10
479.7226563035887
 20
1380.326350540096
 30
0.0
 10
479.7256482290415
 20
1380.386456751917
 30
0.0
 10
479.730192099711
 20
1380.476619448763
 30
0.0
 10
479.7317162030259
 20
1380.506674116943
 30
0.0
 10
479.734776999311
 20
1380.566788473476
 30
0.0
 10
479.7364750900085
 20
1380.596741463683
 30
0.0
 10
479.7378174152315
 20
1380.626936201137
 30
0.0
  0
SPLINE
  5
7177F
330
18
100
AcDbEntity
  8
0
  6
Continuous
 62
   252
370
    15
100
AcDbSpline
210
0.0
220
0.0
230
1.0
 70
     8
 71
     3
 72
    14
 73
    10
 74
     0
 42
0.000000001
 43
0.00000001
 40
0.0
 40
0.0
 40
0.0
 40
0.0
 40
0.0000708369043774
 40
0.0000708369043774
 40
0.0000708369043774
 40
0.000141653713118
 40
0.000141653713118
 40
0.000141653713118
 40
0.0002775046036369
 40
0.0002775046036369
 40
0.0002775046036369
 40
0.0002775046036369
 10
479.7378174152315
 20
1380.626936201137
 30
0.0
 10
479.7383450877217
 20
1380.638928702393
 30
0.0
 10
479.7389313265922
 20
1380.65090905806
 30
0.0
 10
479.7395650126219
 20
1380.662849210182
 30
0.0
 10
479.740198589198
 20
1380.674787299937
 30
0.0
 10
479.7408800473079
 20
1380.6866944984
 30
0.0
 10
479.7415988829792
 20
1380.6985586792
 30
0.0
 10
479.7429774426891
 20
1380.721311419908
 30
0.0
 10
479.7444946071561
 20
1380.743924925669
 30
0.0
 10
479.7460829999871
 20
1380.766425685453
 30
0.0
  0
SPLINE
  5
71780
330
18
100
AcDbEntity
  8
0
  6
Continuous
 62
   252
370
    15
100
AcDbSpline
210
0.0
220
0.0
230
1.0
 70
     8
 71
     3
 72
     8
 73
     4
 74
     0
 42
0.000000001
 43
0.00000001
 40
4.849357659411694
 40
4.849357659411694
 40
4.849357659411694
 40
4.849357659411694
 40
4.865156454276883
 40
4.865156454276883
 40
4.865156454276883
 40
4.865156454276883
 10
479.7460829986629
 20
1380.766425685491
 30
0.0
 10
479.7338938367085
 20
1380.973911134896
 30
0.0
 10
479.7223300618134
 20
1381.181648943843
 30
0.0
 10
479.711393117104
 20
1381.389613187593
 30
0.0
  0
SPLINE
  5
71781
330
18
100
AcDbEntity
  8
0
  6
Continuous
 62
   252
370
    15
100
AcDbSpline
210
0.0
220
0.0
230
1.0
 70
     8
 71
     3
 72
    14
 73
    10
 74
     0
 42
0.000000001
 43
0.00000001
 40
0.0
 40
0.0
 40
0.0
 40
0.0
 40
0.0003262749965076
 40
0.0003262749965076
 40
0.0003262749965076
 40
0.0004894282814772
 40
0.0004894282814772
 40
0.0004894282814772
 40
0.0006525864246988
 40
0.0006525864246988
 40
0.0006525864246988
 40
0.0006525864246988
 10
479.7113931184264
 20
1381.389613187589
 30
0.0
 10
479.7189472493283
 20
1381.403843191036
 30
0.0
 10
479.7268005337313
 20
1381.418062704216
 30
0.0
 10
479.7349522702979
 20
1381.432270458171
 30
0.0
 10
479.7390285785032
 20
1381.439375101894
 30
0.0
 10
479.7431795597011
 20
1381.446476884533
 30
0.0
 10
479.7474051211945
 20
1381.453575647439
 30
0.0
 10
479.7516308085123
 20
1381.460674621726
 30
0.0
 10
479.7559311120238
 20
1381.467770628944
 30
0.0
 10
479.7603059356914
 20
1381.474863510448
 30
0.0
  0
SPLINE
  5
71782
330
18
100
AcDbEntity
  8
0
  6
Continuous
 62
   252
370
    15
100
AcDbSpline
210
0.0
220
0.0
230
1.0
 70
     8
 71
     3
 72
    14
 73
    10
 74
     0
 42
0.000000001
 43
0.00000001
 40
0.0
 40
0.0
 40
0.0
 40
0.0
 40
0.00025464789212
 40
0.00025464789212
 40
0.00025464789212
 40
0.000382203155355
 40
0.000382203155355
 40
0.000382203155355
 40
0.0005101260931006
 40
0.0005101260931006
 40
0.0005101260931006
 40
0.0005101260931006
 10
479.7603059356914
 20
1381.474863510448
 30
0.0
 10
479.7625926947165
 20
1381.43925974718
 30
0.0
 10
479.7648422841452
 20
1381.403425777138
 30
0.0
 10
479.7669620894373
 20
1381.367074706905
 30
0.0
 10
479.7680239666218
 20
1381.3488653118
 30
0.0
 10
479.7690537899531
 20
1381.330522574188
 30
0.0
 10
479.7700092329298
 20
1381.311926355463
 30
0.0
 10
479.7709669622078
 20
1381.293285637422
 30
0.0
 10
479.7718771096735
 20
1381.274424607184
 30
0.0
 10
479.7725170680735
 20
1381.254829750638
 30
0.0
  0
SPLINE
  5
71783
330
18
100
AcDbEntity
  8
0
  6
Continuous
 62
   252
370
    15
100
AcDbSpline
210
0.0
220
0.0
230
1.0
 70
     8
 71
     3
 72
    14
 73
    10
 74
     0
 42
0.000000001
 43
0.00000001
 40
0.0
 40
0.0
 40
0.0
 40
0.0
 40
0.0000553607044558
 40
0.0000553607044558
 40
0.0000553607044558
 40
0.0001107194249821
 40
0.0001107194249821
 40
0.0001107194249821
 40
0.0002212006979748
 40
0.0002212006979748
 40
0.0002212006979748
 40
0.0002212006979748
 10
479.7725170680735
 20
1381.254829750638
 30
0.0
 10
479.7727912300633
 20
1381.246338291811
 30
0.0
 10
479.7730817542967
 20
1381.237889064873
 30
0.0
 10
479.7733847794564
 20
1381.229473838131
 30
0.0
 10
479.7736877979658
 20
1381.221058796074
 30
0.0
 10
479.7740033372344
 20
1381.2126771596
 30
0.0
 10
479.7743275639328
 20
1381.204319310566
 30
0.0
 10
479.7749746284445
 20
1381.187639414896
 30
0.0
 10
479.775656360809
 20
1381.1710534873
 30
0.0
 10
479.7763423320592
 20
1381.154475520325
 30
0.0
  0
LWPOLYLINE
  5
71784
330
18
100
AcDbEntity
  8
0
  6
Continuous
 62
   252
370
    15
100
AcDbPolyline
 90
        7
 70
   128
 43
0.0
 10
479.9657170741448
 20
1380.866939343902
 10
479.9297585768713
 20
1380.866277397867
 10
479.9117793282344
 20
1380.86594619604
 10
479.8758198834378
 20
1380.865283731077
 10
479.8578406348011
 20
1380.864952467941
 10
479.8334314951892
 20
1380.86450244502
 10
479.8090233031006
 20
1380.864051964482
  0
LWPOLYLINE
  5
71785
330
18
100
AcDbEntity
  8
0
  6
Continuous
 62
   252
370
    15
100
AcDbPolyline
 90
        3
 70
   128
 43
0.0
 10
480.0115544460581
 20
1381.621145437083
 10
479.932644731883
 20
1381.615734318521
 10
479.8537340701849
 20
1381.610324115195
  0
LWPOLYLINE
  5
71786
330
18
100
AcDbEntity
  8
0
  6
Continuous
 62
   252
370
    15
100
AcDbPolyline
 90
        3
 70
   128
 43
0.0
 10
479.909124368831
 20
1379.990421408186
 10
479.8527173780222
 20
1379.992709764994
 10
479.7536870132646
 20
1379.996727637824
  0
LINE
  5
71787
330
18
100
AcDbEntity
  8
0
  6
Continuous
 62
   252
370
    15
100
AcDbLine
 10
479.7835444100389
 20
1380.319487895699
 30
0.0
 11
479.7704041612856
 21
1380.319518902275
 31
0.0
  0
LINE
  5
71788
330
18
100
AcDbEntity
  8
0
  6
Continuous
 62
   252
370
    15
100
AcDbLine
 10
479.8549412144675
 20
1379.894819062882
 30
0.0
 11
479.7025122443778
 21
1379.905592236896
 31
0.0
  0
LINE
  5
71789
330
18
100
AcDbEntity
  8
0
  6
Continuous
 62
   252
370
    15
100
AcDbLine
 10
479.7902433975416
 20
1381.476660551153
 30
0.0
 11
479.7603064088364
 21
1381.47486371498
 31
0.0
  0
SPLINE
  5
7178A
330
18
100
AcDbEntity
  8
0
  6
Continuous
 62
   252
370
    15
100
AcDbSpline
210
0.0
220
0.0
230
1.0
 70
     8
 71
     3
 72
    14
 73
    10
 74
     0
 42
0.000000001
 43
0.00000001
 40
0.0
 40
0.0
 40
0.0
 40
0.0
 40
0.2500000000000004
 40
0.2500000000000004
 40
0.5000000000000002
 40
0.5000000000000002
 40
0.7500000000000001
 40
0.7500000000000001
 40
1.0
 40
1.0
 40
1.0
 40
1.0
 10
479.7050648965541
 20
1380.180572241151
 30
0.0
 10
479.7050649004468
 20
1380.137283316798
 30
0.0
 10
479.7041027065767
 20
1380.093029453201
 30
0.0
 10
479.6992590688957
 20
1380.004470156619
 30
0.0
 10
479.6953951203693
 20
1379.962859157877
 30
0.0
 10
479.6862139305956
 20
1379.894291088051
 30
0.0
 10
479.6810340533319
 20
1379.867313154454
 30
0.0
 10
479.6707386565926
 20
1379.825101447989
 30
0.0
 10
479.6656425213278
 20
1379.809805007155
 30
0.0
 10
479.6607320405555
 20
1379.798289025339
 30
0.0
  0
SPLINE
  5
7178B
330
18
100
AcDbEntity
  8
0
  6
Continuous
 62
   252
370
    15
100
AcDbSpline
210
0.0
220
0.0
230
1.0
 70
     8
 71
     3
 72
    12
 73
     8
 74
     0
 42
0.000000001
 43
0.00000001
 40
0.0
 40
0.0
 40
0.0
 40
0.0
 40
0.2500000000000037
 40
0.2500000000000037
 40
0.5000000000000073
 40
0.5000000000000073
 40
1.0
 40
1.0
 40
1.0
 40
1.0
 10
479.660527140999
 20
1380.010889086019
 30
0.0
 10
479.6618707504253
 20
1380.014043534405
 30
0.0
 10
479.6632385214672
 20
1380.018718080862
 30
0.0
 10
479.6657615692654
 20
1380.033052433693
 30
0.0
 10
479.6669190165904
 20
1380.043219753729
 30
0.0
 10
479.6693324587963
 20
1380.077560452523
 30
0.0
 10
479.6696862055202
 20
1380.103055735177
 30
0.0
 10
479.6696861913106
 20
1380.126708145948
 30
0.0
  0
LINE
  5
7178C
330
18
100
AcDbEntity
  8
0
  6
Continuous
 62
   252
370
    15
100
AcDbLine
 10
479.669686258092
 20
1380.126708076673
 30
0.0
 11
479.669686258092
 21
1380.264963766115
 31
0.0
  0
SPLINE
  5
7178D
330
18
100
AcDbEntity
  8
0
  6
Continuous
 62
   252
370
    15
100
AcDbSpline
210
0.0
220
0.0
230
1.0
 70
     8
 71
     3
 72
    14
 73
    10
 74
     0
 42
0.000000001
 43
0.00000001
 40
0.0
 40
0.0
 40
0.0
 40
0.0
 40
0.0002799696283403
 40
0.0002799696283403
 40
0.0002799696283403
 40
0.0004199644160666
 40
0.0004199644160666
 40
0.0004199644160666
 40
0.000559962272952
 40
0.000559962272952
 40
0.000559962272952
 40
0.000559962272952
 10
479.6696861913106
 20
1380.264963979332
 30
0.0
 10
479.6751410995179
 20
1380.277169587119
 30
0.0
 10
479.6808168590506
 20
1380.289368718399
 30
0.0
 10
479.6867130966952
 20
1380.301560571508
 30
0.0
 10
479.6896614497966
 20
1380.307656982489
 30
0.0
 10
479.6926649545167
 20
1380.313751623767
 30
0.0
 10
479.6957235614728
 20
1380.319844395103
 30
0.0
 10
479.6987822354835
 20
1380.325937300013
 30
0.0
 10
479.7018960309101
 20
1380.332028368293
 30
0.0
 10
479.7050648965541
 20
1380.338117499699
 30
0.0
  0
LINE
  5
7178E
330
18
100
AcDbEntity
  8
0
  6
Continuous
 62
   252
370
    15
100
AcDbLine
 10
479.7050648712989
 20
1380.338117256412
 30
0.0
 11
479.7050648712989
 21
1380.180572033601
 31
0.0
  0
SPLINE
  5
7178F
330
18
100
AcDbEntity
  8
0
  6
Continuous
 62
   252
370
    15
100
AcDbSpline
210
0.0
220
0.0
230
1.0
 70
     8
 71
     3
 72
    14
 73
    10
 74
     0
 42
0.000000001
 43
0.00000001
 40
0.0
 40
0.0
 40
0.0
 40
0.0
 40
0.25
 40
0.25
 40
0.5
 40
0.5
 40
0.75
 40
0.75
 40
1.0
 40
1.0
 40
1.0
 40
1.0
 10
479.6607320405555
 20
1379.798289025339
 30
0.0
 10
479.6556699830386
 20
1379.786417549434
 30
0.0
 10
479.6509087026646
 20
1379.780273345254
 30
0.0
 10
479.6419854312335
 20
1379.782590871603
 30
0.0
 10
479.6379654957049
 20
1379.791208151853
 30
0.0
 10
479.6312133187334
 20
1379.82700522689
 30
0.0
 10
479.628577770461
 20
1379.854098442784
 30
0.0
 10
479.6251304309481
 20
1379.923782940197
 30
0.0
 10
479.6243380528596
 20
1379.965886545256
 30
0.0
 10
479.6243380546917
 20
1380.010670372121
 30
0.0
  0
LINE
  5
71790
330
18
100
AcDbEntity
  8
0
  6
Continuous
 62
   252
370
    15
100
AcDbLine
 10
479.6243378080389
 20
1380.010670588618
 30
0.0
 11
479.6243378080389
 21
1380.526729672816
 31
0.0
  0
SPLINE
  5
71791
330
18
100
AcDbEntity
  8
0
  6
Continuous
 62
   252
370
    15
100
AcDbSpline
210
0.0
220
0.0
230
1.0
 70
     8
 71
     3
 72
    14
 73
    10
 74
     0
 42
0.000000001
 43
0.00000001
 40
0.0
 40
0.0
 40
0.0
 40
0.0
 40
0.25
 40
0.25
 40
0.5
 40
0.5
 40
0.75
 40
0.75
 40
1.0
 40
1.0
 40
1.0
 40
1.0
 10
479.6243380546917
 20
1380.526729783947
 30
0.0
 10
479.6243380525693
 20
1380.573753583056
 30
0.0
 10
479.6247723669608
 20
1380.621302599229
 30
0.0
 10
479.6274259559306
 20
1380.718458856794
 30
0.0
 10
479.6297581296854
 20
1380.766971193554
 30
0.0
 10
479.6364829845283
 20
1380.846970289624
 30
0.0
 10
479.6408129735357
 20
1380.878508246089
 30
0.0
 10
479.6502745519387
 20
1380.925906397419
 30
0.0
 10
479.65538190014
 20
1380.942389729823
 30
0.0
 10
479.6607320405555
 20
1380.954936789119
 30
0.0
  0
SPLINE
  5
71792
330
18
100
AcDbEntity
  8
0
  6
Continuous
 62
   252
370
    15
100
AcDbSpline
210
0.0
220
0.0
230
1.0
 70
     8
 71
     3
 72
    12
 73
     8
 74
     0
 42
0.000000001
 43
0.00000001
 40
0.0
 40
0.0
 40
0.0
 40
0.0
 40
0.0400546419842312
 40
0.2518064849476525
 40
0.4651673708518178
 40
0.6555754555726041
 40
1.0
 40
1.0
 40
1.0
 40
1.0
 10
479.6772986577519
 20
1380.973863925226
 30
0.0
 10
479.6779599289867
 20
1380.974745521374
 30
0.0
 10
479.6821170597703
 20
1380.980287741106
 30
0.0
 10
479.6898876514078
 20
1380.962999589413
 30
0.0
 10
479.6981082480891
 20
1380.918691993858
 30
0.0
 10
479.7041354712161
 20
1380.832797837868
 30
0.0
 10
479.7047008046644
 20
1380.758484536549
 30
0.0
 10
479.7050648712989
 20
1380.710627836048
 30
0.0
  0
LINE
  5
71793
330
18
100
AcDbEntity
  8
0
  6
Continuous
 62
   252
370
    15
100
AcDbLine
 10
479.7050648712989
 20
1380.710627836048
 30
0.0
 11
479.7050648712989
 21
1380.419222806731
 31
0.0
  0
SPLINE
  5
71794
330
18
100
AcDbEntity
  8
0
  6
Continuous
 62
   252
370
    15
100
AcDbSpline
210
0.0
220
0.0
230
1.0
 70
     8
 71
     3
 72
    14
 73
    10
 74
     0
 42
0.000000001
 43
0.00000001
 40
0.0
 40
0.0
 40
0.0
 40
0.0
 40
0.0003076984347015
 40
0.0003076984347015
 40
0.0003076984347015
 40
0.0005941843567064
 40
0.0005941843567064
 40
0.0005941843567064
 40
0.0008806965843447
 40
0.0008806965843447
 40
0.0008806965843447
 40
0.0008806965843447
 10
479.7050648965541
 20
1380.419222803644
 30
0.0
 10
479.6981001686217
 20
1380.4058397359
 30
0.0
 10
479.6914014179643
 20
1380.392447216394
 30
0.0
 10
479.6849691766349
 20
1380.379046307484
 30
0.0
 10
479.678980358924
 20
1380.366569225779
 30
0.0
 10
479.6732224286944
 20
1380.354084574572
 30
0.0
 10
479.6676957823937
 20
1380.341593213506
 30
0.0
 10
479.6621686286383
 20
1380.329100705487
 30
0.0
 10
479.6568726744176
 20
1380.316601199624
 30
0.0
 10
479.6518082844377
 20
1380.304095557821
 30
0.0
  0
LINE
  5
71795
330
18
100
AcDbEntity
  8
0
  6
Continuous
 62
   252
370
    15
100
AcDbLine
 10
479.6518083944146
 20
1380.304095594775
 30
0.0
 11
479.6518083944146
 21
1380.084734355013
 31
0.0
  0
SPLINE
  5
71796
330
18
100
AcDbEntity
  8
0
  6
Continuous
 62
   252
370
    15
100
AcDbSpline
210
0.0
220
0.0
230
1.0
 70
     8
 71
     3
 72
    12
 73
     8
 74
     0
 42
0.000000001
 43
0.00000001
 40
0.0
 40
0.0
 40
0.0
 40
0.0
 40
0.5000000000000071
 40
0.5000000000000071
 40
0.7500000000000036
 40
0.7500000000000036
 40
1.0
 40
1.0
 40
1.0
 40
1.0
 10
479.6518082844377
 20
1380.084734420493
 30
0.0
 10
479.6518082717051
 20
1380.061270424127
 30
0.0
 10
479.6521397827785
 20
1380.037869709279
 30
0.0
 10
479.6543724755711
 20
1380.014447524505
 30
0.0
 10
479.6554298489303
 20
1380.009402690093
 30
0.0
 10
479.6578441084409
 20
1380.006217273862
 30
0.0
 10
479.6591818875252
 20
1380.007730540961
 30
0.0
 10
479.660527140999
 20
1380.010889086019
 30
0.0
  0
LINE
  5
71797
330
18
100
AcDbEntity
  8
0
  6
Continuous
 62
   252
370
    15
100
AcDbLine
 10
479.6518083944146
 20
1380.508653334942
 30
0.0
 11
479.6518083944146
 21
1380.623851460607
 31
0.0
  0
SPLINE
  5
71798
330
18
100
AcDbEntity
  8
0
  6
Continuous
 62
   252
370
    15
100
AcDbSpline
210
0.0
220
0.0
230
1.0
 70
     8
 71
     3
 72
     8
 73
     4
 74
     0
 42
0.000000001
 43
0.00000001
 40
1.675228553479336
 40
1.675228553479336
 40
1.675228553479336
 40
1.675228553479336
 40
1.685955486273597
 40
1.685955486273597
 40
1.685955486273597
 40
1.685955486273597
 10
479.6696861910469
 20
1380.550626908257
 30
0.0
 10
479.6634370075913
 20
1380.536644073103
 30
0.0
 10
479.6574775910182
 20
1380.522652562973
 30
0.0
 10
479.6518082841739
 20
1380.508653182802
 30
0.0
  0
LINE
  5
71799
330
18
100
AcDbEntity
  8
0
  6
Continuous
 62
   252
370
    15
100
AcDbLine
 10
479.669686258092
 20
1380.665825182267
 30
0.0
 11
479.669686258092
 21
1380.550627056602
 31
0.0
  0
SPLINE
  5
7179A
330
18
100
AcDbEntity
  8
0
  6
Continuous
 62
   252
370
    15
100
AcDbSpline
210
0.0
220
0.0
230
1.0
 70
     8
 71
     3
 72
    12
 73
     8
 74
     0
 42
0.000000001
 43
0.00000001
 40
0.0
 40
0.0
 40
0.0
 40
0.0
 40
0.2500000000000042
 40
0.2500000000000042
 40
0.5000000000000084
 40
0.5000000000000084
 40
1.0
 40
1.0
 40
1.0
 40
1.0
 10
479.660527140999
 20
1380.745861043892
 30
0.0
 10
479.6619110320544
 20
1380.749110290981
 30
0.0
 10
479.6633127929587
 20
1380.75014133996
 30
0.0
 10
479.6658270783036
 20
1380.745348333946
 30
0.0
 10
479.6669153477398
 20
1380.739357282092
 30
0.0
 10
479.6692692470182
 20
1380.714016365113
 30
0.0
 10
479.669686203102
 20
1380.690097391994
 30
0.0
 10
479.6696861913106
 20
1380.665825149714
 30
0.0
  0
SPLINE
  5
7179B
330
18
100
AcDbEntity
  8
0
  6
Continuous
 62
   252
370
    15
100
AcDbSpline
210
0.0
220
0.0
230
1.0
 70
     8
 71
     3
 72
    12
 73
     8
 74
     0
 42
0.000000001
 43
0.00000001
 40
0.0
 40
0.0
 40
0.0
 40
0.0
 40
0.4999999999999905
 40
0.4999999999999905
 40
0.7499999999999952
 40
0.7499999999999952
 40
1.0
 40
1.0
 40
1.0
 40
1.0
 10
479.6518082844377
 20
1380.623851424259
 30
0.0
 10
479.6518082739788
 20
1380.648054399986
 30
0.0
 10
479.6521746358786
 20
1380.673730513159
 30
0.0
 10
479.6543299474227
 20
1380.709552821319
 30
0.0
 10
479.6553424467073
 20
1380.720573427367
 30
0.0
 10
479.6577668624827
 20
1380.737120617554
 30
0.0
 10
479.6591384521923
 20
1380.742600747417
 30
0.0
 10
479.660527140999
 20
1380.745861043892
 30
0.0
  0
LINE
  5
7179C
330
18
100
AcDbEntity
  8
0
  6
Continuous
 62
   252
370
    15
100
AcDbLine
 10
479.7233492223368
 20
1380.339284669119
 30
0.0
 11
479.7050648712989
 21
1380.338117256412
 31
0.0
  0
LINE
  5
7179D
330
18
100
AcDbEntity
  8
0
  6
Continuous
 62
   252
370
    15
100
AcDbLine
 10
479.6873187133163
 20
1380.302789355559
 30
0.0
 11
479.6518083944146
 21
1380.304095594775
 31
0.0
  0
LINE
  5
7179E
330
18
100
AcDbEntity
  8
0
  6
Continuous
 62
   252
370
    15
100
AcDbLine
 10
479.7272643873101
 20
1380.418407826334
 30
0.0
 11
479.7050648712989
 21
1380.419222806731
 31
0.0
  0
LINE
  5
7179F
330
18
100
AcDbEntity
  8
0
  6
Continuous
 62
   252
370
    15
100
AcDbLine
 10
510.0755330241881
 20
1378.285694579077
 30
0.0
 11
510.0755330241881
 21
1379.077471929435
 31
0.0
  0
LINE
  5
717A0
330
18
100
AcDbEntity
  8
0
  6
Continuous
 62
   252
370
    15
100
AcDbLine
 10
510.0755330241881
 20
1376.940942234272
 30
0.0
 11
510.0755330241881
 21
1378.285694579077
 31
0.0
  0
LINE
  5
717A1
330
18
100
AcDbEntity
  8
0
  6
Continuous
 62
   252
370
    15
100
AcDbLine
 10
479.4824642439999
 20
1378.285694579077
 30
0.0
 11
479.4824642439999
 21
1379.077471929435
 31
0.0
  0
LINE
  5
717A2
330
18
100
AcDbEntity
  8
0
  6
Continuous
 62
   252
370
    15
100
AcDbLine
 10
479.4824642439999
 20
1376.940942234272
 30
0.0
 11
479.4824642439999
 21
1378.285694579077
 31
0.0
  0
LWPOLYLINE
  5
717A3
330
18
100
AcDbEntity
  8
0
  6
Continuous
 62
   252
370
    15
100
AcDbPolyline
 90
        3
 70
   128
 43
0.0
 10
479.7474295714728
 20
1379.605672302557
 10
479.6890972139589
 20
1379.60942570869
 10
479.5950271320267
 20
1379.615478313594
  0
SPLINE
  5
717A4
330
18
100
AcDbEntity
  8
0
  6
Continuous
 62
   252
370
    15
100
AcDbSpline
210
0.0
220
0.0
230
1.0
 70
     8
 71
     3
 72
    14
 73
    10
 74
     0
 42
0.000000001
 43
0.00000001
 40
0.0
 40
0.0
 40
0.0
 40
0.0
 40
0.0002299732940186
 40
0.0002299732940186
 40
0.0002299732940186
 40
0.0004135844681456
 40
0.0004135844681456
 40
0.0004135844681456
 40
0.0005972025667982
 40
0.0005972025667982
 40
0.0005972025667982
 40
0.0005972025667982
 10
479.6158384838786
 20
1379.693920479949
 30
0.0
 10
479.6127786482245
 20
1379.68385879035
 30
0.0
 10
479.6098682954989
 20
1379.673793980934
 30
0.0
 10
479.6071075548282
 20
1379.663726497897
 30
0.0
 10
479.6049033676108
 20
1379.65568857617
 30
0.0
 10
479.6027945265969
 20
1379.647648864819
 30
0.0
 10
479.6007810914296
 20
1379.639607591249
 30
0.0
 10
479.5987675803304
 20
1379.631566014422
 30
0.0
 10
479.5968494632905
 20
1379.623522799442
 30
0.0
 10
479.5950267945631
 20
1379.615478174015
 30
0.0
  0
LINE
  5
717A5
330
18
100
AcDbEntity
  8
0
  6
Continuous
 62
   252
370
    15
100
AcDbLine
 10
479.7695674984899
 20
1379.688255578156
 30
0.0
 11
479.6158385268652
 21
1379.69392061556
 31
0.0
  0
LINE
  5
717A6
330
18
100
AcDbEntity
  8
0
  6
Continuous
 62
   252
370
    15
100
AcDbLine
 10
479.6158385268652
 20
1381.161262770347
 30
0.0
 11
479.6158385268652
 21
1379.69392061556
 31
0.0
  0
LWPOLYLINE
  5
717A7
330
18
100
AcDbEntity
  8
0
  6
Continuous
 62
   252
370
    15
100
AcDbPolyline
 90
        3
 70
   128
 43
0.0
 10
479.7233018461876
 20
1381.168137685073
 10
479.6927025389161
 20
1381.166180477901
 10
479.6158385268652
 20
1381.161262770347
  0
LINE
  5
717A8
330
18
100
AcDbEntity
  8
0
  6
Continuous
 62
   252
370
    15
100
AcDbLine
 10
479.5950271320267
 20
1379.615478313594
 30
0.0
 11
479.5950271320267
 21
1381.082820468381
 31
0.0
  0
SPLINE
  5
717A9
330
18
100
AcDbEntity
  8
0
  6
Continuous
 62
   252
370
    15
100
AcDbSpline
210
0.0
220
0.0
230
1.0
 70
     8
 71
     3
 72
    14
 73
    10
 74
     0
 42
0.000000001
 43
0.00000001
 40
0.0
 40
0.0
 40
0.0
 40
0.0
 40
0.0002299732940186
 40
0.0002299732940186
 40
0.0002299732940186
 40
0.0004135844681455
 40
0.0004135844681455
 40
0.0004135844681455
 40
0.0005972025667982
 40
0.0005972025667982
 40
0.0005972025667982
 40
0.0005972025667982
 10
479.5950267945631
 20
1381.082820260319
 30
0.0
 10
479.5973095978956
 20
1381.092895759755
 30
0.0
 10
479.5997421288626
 20
1381.102969061276
 30
0.0
 10
479.6023242795376
 20
1381.11303971831
 30
0.0
 10
479.6043858797349
 20
1381.12108017417
 30
0.0
 10
479.6065428763067
 20
1381.129119029675
 30
0.0
 10
479.608795208248
 20
1381.137156057443
 30
0.0
 10
479.6110476251307
 20
1381.145193388308
 30
0.0
 10
479.6133954058095
 20
1381.153228967074
 30
0.0
 10
479.6158384838786
 20
1381.161262566253
 30
0.0
  0
LINE
  5
717AA
330
18
100
AcDbEntity
  8
0
  6
Continuous
 62
   252
370
    15
100
AcDbLine
 10
479.729076051257
 20
1379.501917859262
 30
0.0
 11
479.5766432910754
 21
1379.511715101112
 31
0.0
  0
SPLINE
  5
717AB
330
18
100
AcDbEntity
  8
0
  6
Continuous
 62
   252
370
    15
100
AcDbSpline
210
0.0
220
0.0
230
1.0
 70
     8
 71
     3
 72
    14
 73
    10
 74
     0
 42
0.000000001
 43
0.00000001
 40
0.0
 40
0.0
 40
0.0
 40
0.0
 40
0.0002088792343716
 40
0.0002088792343716
 40
0.0002088792343716
 40
0.000390072782332
 40
0.000390072782332
 40
0.000390072782332
 40
0.0005712729848474
 40
0.0005712729848474
 40
0.0005712729848474
 40
0.0005712729848474
 10
479.5886636190848
 20
1379.586863748125
 30
0.0
 10
479.5868605681341
 20
1379.577708578261
 30
0.0
 10
479.5851810638108
 20
1379.568551722652
 30
0.0
 10
479.5836251675882
 20
1379.559393516193
 30
0.0
 10
479.5822754940156
 20
1379.551449162931
 30
0.0
 10
479.5810188197209
 20
1379.543503714678
 30
0.0
 10
479.579855179316
 20
1379.535557390285
 30
0.0
 10
479.5786914961755
 20
1379.527610774057
 30
0.0
 10
479.5776208430743
 20
1379.519663208664
 30
0.0
 10
479.5766432495031
 20
1379.511714913204
 30
0.0
  0
LWPOLYLINE
  5
717AC
330
18
100
AcDbEntity
  8
0
  6
Continuous
 62
   252
370
    15
100
AcDbPolyline
 90
        3
 70
   128
 43
0.0
 10
479.7418884570577
 20
1379.581206259671
 10
479.6652764861207
 20
1379.584034874468
 10
479.5886635676607
 20
1379.586863946884
  0
LINE
  5
717AD
330
18
100
AcDbEntity
  8
0
  6
Continuous
 62
   252
370
    15
100
AcDbLine
 10
479.5886635676607
 20
1380.695333009791
 30
0.0
 11
479.5886635676607
 21
1379.586863946884
 31
0.0
  0
LINE
  5
717AE
330
18
100
AcDbEntity
  8
0
  6
Continuous
 62
   252
370
    15
100
AcDbLine
 10
479.5950271320267
 20
1380.695740566046
 30
0.0
 11
479.5886635676607
 21
1380.695333009791
 31
0.0
  0
LINE
  5
717AF
330
18
100
AcDbEntity
  8
0
  6
Continuous
 62
   252
370
    15
100
AcDbLine
 10
479.5710168995916
 20
1379.435680449182
 30
0.0
 11
479.5701546536754
 21
1379.4313323065
 31
0.0
  0
SPLINE
  5
717B0
330
18
100
AcDbEntity
  8
0
  6
Continuous
 62
   252
370
    15
100
AcDbSpline
210
0.0
220
0.0
230
1.0
 70
     8
 71
     3
 72
    12
 73
     8
 74
     0
 42
0.000000001
 43
0.00000001
 40
0.0
 40
0.0
 40
0.0
 40
0.0
 40
0.25
 40
0.25
 40
0.5
 40
0.5
 40
1.0
 40
1.0
 40
1.0
 40
1.0
 10
479.5697489360506
 20
1379.429285609844
 30
0.0
 10
479.5695084985642
 20
1379.432254508906
 30
0.0
 10
479.5693430746166
 20
1379.439479634493
 30
0.0
 10
479.5691194454011
 20
1379.463334787637
 30
0.0
 10
479.5690618094413
 20
1379.479721306098
 30
0.0
 10
479.5689562741684
 20
1379.536797969181
 30
0.0
 10
479.5689597075749
 20
1379.583957938768
 30
0.0
 10
479.5689597076336
 20
1379.632287296947
 30
0.0
  0
LINE
  5
717B1
330
18
100
AcDbEntity
  8
0
  6
Continuous
 62
   252
370
    15
100
AcDbLine
 10
479.5689598271916
 20
1379.632287348742
 30
0.0
 11
479.5689598271916
 21
1380.500849933462
 31
0.0
  0
SPLINE
  5
717B2
330
18
100
AcDbEntity
  8
0
  6
Continuous
 62
   252
370
    15
100
AcDbSpline
210
0.0
220
0.0
230
1.0
 70
     8
 71
     3
 72
    14
 73
    10
 74
     0
 42
0.000000001
 43
0.00000001
 40
0.0
 40
0.0
 40
0.0
 40
0.0
 40
0.0001884999830711
 40
0.0001884999830711
 40
0.0001884999830711
 40
0.0003921652838241
 40
0.0003921652838241
 40
0.0003921652838241
 40
0.0005958400349366
 40
0.0005958400349366
 40
0.0005958400349366
 40
0.0005958400349366
 10
479.5689597076336
 20
1380.500849738862
 30
0.0
 10
479.5690077632378
 20
1380.509122403682
 30
0.0
 10
479.5691565733935
 20
1380.517395070244
 30
0.0
 10
479.5694061336648
 20
1380.525667492171
 30
0.0
 10
479.5696757714898
 20
1380.534605444691
 30
0.0
 10
479.5700630257809
 20
1380.543543211446
 30
0.0
 10
479.5705678830627
 20
1380.552480481435
 30
0.0
 10
479.5710727637704
 20
1380.561418166121
 30
0.0
 10
479.5716952642394
 20
1380.570355457671
 30
0.0
 10
479.5724353628063
 20
1380.579292044795
 30
0.0
  0
LINE
  5
717B3
330
18
100
AcDbEntity
  8
0
  6
Continuous
 62
   252
370
    15
100
AcDbLine
 10
479.5724353414999
 20
1380.579292236386
 30
0.0
 11
479.5724353414999
 21
1379.814712921708
 31
0.0
  0
SPLINE
  5
717B4
330
18
100
AcDbEntity
  8
0
  6
Continuous
 62
   252
370
    15
100
AcDbSpline
210
0.0
220
0.0
230
1.0
 70
     8
 71
     3
 72
    12
 73
     8
 74
     0
 42
0.000000001
 43
0.00000001
 40
0.0
 40
0.0
 40
0.0
 40
0.0
 40
0.5
 40
0.5
 40
0.75
 40
0.75
 40
1.0
 40
1.0
 40
1.0
 40
1.0
 10
479.5724353628063
 20
1379.814713062253
 30
0.0
 10
479.5724353612481
 20
1379.791922385646
 30
0.0
 10
479.5724504896157
 20
1379.7690313046
 30
0.0
 10
479.5727183617658
 20
1379.740049062599
 30
0.0
 10
479.5728631705626
 20
1379.731566754595
 30
0.0
 10
479.5733193451084
 20
1379.723909878818
 30
0.0
 10
479.5736162586502
 20
1379.724897414921
 30
0.0
 10
479.5739204215163
 20
1379.727973940836
 30
0.0
  0
SPLINE
  5
717B5
330
18
100
AcDbEntity
  8
0
  6
Continuous
 62
   252
370
    15
100
AcDbSpline
210
0.0
220
0.0
230
1.0
 70
     8
 71
     3
 72
    12
 73
     8
 74
     0
 42
0.000000001
 43
0.00000001
 40
0.0
 40
0.0
 40
0.0
 40
0.0
 40
0.2499999999999968
 40
0.2499999999999968
 40
0.4999999999999937
 40
0.4999999999999937
 40
1.0
 40
1.0
 40
1.0
 40
1.0
 10
479.5739204215163
 20
1379.727973940836
 30
0.0
 10
479.5743498610742
 20
1379.732318109839
 30
0.0
 10
479.574776951129
 20
1379.745036588001
 30
0.0
 10
479.5754199536991
 20
1379.774045623977
 30
0.0
 10
479.5756519815023
 20
1379.790573202292
 30
0.0
 10
479.5761490482383
 20
1379.839763364336
 30
0.0
 10
479.5762406255332
 20
1379.872510057874
 30
0.0
 10
479.5762406242117
 20
1379.904324068528
 30
0.0
  0
LINE
  5
717B6
330
18
100
AcDbEntity
  8
0
  6
Continuous
 62
   252
370
    15
100
AcDbLine
 10
479.5762405938069
 20
1379.904324055033
 30
0.0
 11
479.5762405938069
 21
1380.616866659272
 31
0.0
  0
SPLINE
  5
717B7
330
18
100
AcDbEntity
  8
0
  6
Continuous
 62
   252
370
    15
100
AcDbSpline
210
0.0
220
0.0
230
1.0
 70
     8
 71
     3
 72
    14
 73
    10
 74
     0
 42
0.000000001
 43
0.00000001
 40
0.0
 40
0.0
 40
0.0
 40
0.0
 40
0.0002098303345207
 40
0.0002098303345207
 40
0.0002098303345207
 40
0.0004031525864979
 40
0.0004031525864979
 40
0.0004031525864979
 40
0.000596482920874
 40
0.000596482920874
 40
0.000596482920874
 40
0.000596482920874
 10
479.5762406242117
 20
1380.616866462256
 30
0.0
 10
479.5773426943903
 20
1380.626070840203
 30
0.0
 10
479.5785695587284
 20
1380.635274273758
 30
0.0
 10
479.5799211719099
 20
1380.644476423268
 30
0.0
 10
479.5811664501383
 20
1380.652954615546
 30
0.0
 10
479.582517634064
 20
1380.661431810258
 30
0.0
 10
479.5839746813236
 20
1380.669907741608
 30
0.0
 10
479.5854317894986
 20
1380.678384027315
 30
0.0
 10
479.5869947850886
 20
1380.686859138146
 30
0.0
 10
479.5886636190848
 20
1380.695332808125
 30
0.0
  0
LINE
  5
717B8
330
18
100
AcDbEntity
  8
0
  6
Continuous
 62
   252
370
    15
100
AcDbLine
 10
479.5766432910754
 20
1379.511715101112
 30
0.0
 11
479.5766432910754
 21
1379.618300389723
 31
0.0
  0
SPLINE
  5
717B9
330
18
100
AcDbEntity
  8
0
  6
Continuous
 62
   252
370
    15
100
AcDbSpline
210
0.0
220
0.0
230
1.0
 70
     8
 71
     3
 72
    10
 73
     6
 74
     0
 42
0.000000001
 43
0.00000001
 40
0.0
 40
0.0
 40
0.0
 40
0.0
 40
0.5
 40
0.5
 40
1.0
 40
1.0
 40
1.0
 40
1.0
 10
479.5766432495031
 20
1379.618300202016
 30
0.0
 10
479.5758644151071
 20
1379.57340682624
 30
0.0
 10
479.5748791158224
 20
1379.531063507459
 30
0.0
 10
479.5728180574591
 20
1379.466759494119
 30
0.0
 10
479.5717911376466
 20
1379.44595527424
 30
0.0
 10
479.5710165733058
 20
1379.43568042445
 30
0.0
  0
LINE
  5
717BA
330
18
100
AcDbEntity
  8
0
  6
Continuous
 62
   252
370
    15
100
AcDbLine
 10
479.5762405938069
 20
1380.579536050864
 30
0.0
 11
479.5724353414999
 21
1380.579292236386
 31
0.0
  0
LWPOLYLINE
  5
717BB
330
18
100
AcDbEntity
  8
0
  6
Continuous
 62
   252
370
    15
100
AcDbPolyline
 90
        3
 70
   128
 43
0.0
 10
479.7215517712346
 20
1379.274426221974
 10
479.65040700792
 20
1379.278988118314
 10
479.5739722237813
 20
1379.28388902631
  0
SPLINE
  5
717BC
330
18
100
AcDbEntity
  8
0
  6
Continuous
 62
   252
370
    15
100
AcDbSpline
210
0.0
220
0.0
230
1.0
 70
     8
 71
     3
 72
    14
 73
    10
 74
     0
 42
0.000000001
 43
0.00000001
 40
0.0
 40
0.0
 40
0.0
 40
0.0
 40
0.0001915428686855
 40
0.0001915428686855
 40
0.0001915428686855
 40
0.0003906002606819
 40
0.0003906002606819
 40
0.0003906002606819
 40
0.0005896664759712
 40
0.0005896664759712
 40
0.0005896664759712
 40
0.0005896664759712
 10
479.5692158948588
 20
1379.361513865575
 30
0.0
 10
479.5694106251895
 20
1379.35310779977
 30
0.0
 10
479.5697093882475
 20
1379.344701852432
 30
0.0
 10
479.5701121748374
 20
1379.336296282058
 30
0.0
 10
479.570530763197
 20
1379.32756095173
 30
0.0
 10
479.5710617017517
 20
1379.31882593356
 30
0.0
 10
479.5717049728524
 20
1379.310091517902
 30
0.0
 10
479.5723482724659
 20
1379.301356715093
 30
0.0
 10
479.5731039217126
 20
1379.29262241806
 30
0.0
 10
479.5739718954719
 20
1379.283888917411
 30
0.0
  0
LWPOLYLINE
  5
717BD
330
18
100
AcDbEntity
  8
0
  6
Continuous
 62
   252
370
    15
100
AcDbPolyline
 90
        3
 70
   128
 43
0.0
 10
479.7215517712346
 20
1379.35586620374
 10
479.6454988388587
 20
1379.358685929376
 10
479.5692156583975
 20
1379.36151397445
  0
LINE
  5
717BE
330
18
100
AcDbEntity
  8
0
  6
Continuous
 62
   252
370
    15
100
AcDbLine
 10
479.5692156583975
 20
1380.829304595328
 30
0.0
 11
479.5692156583975
 21
1380.515091861915
 31
0.0
  0
LINE
  5
717BF
330
18
100
AcDbEntity
  8
0
  6
Continuous
 62
   252
370
    15
100
AcDbLine
 10
479.5692156583975
 20
1379.457503565214
 30
0.0
 11
479.5692156583975
 21
1379.36151397445
 31
0.0
  0
LINE
  5
717C0
330
18
100
AcDbEntity
  8
0
  6
Continuous
 62
   252
370
    15
100
AcDbLine
 10
479.5950271320267
 20
1380.830961656285
 30
0.0
 11
479.5692156583975
 21
1380.829304595328
 31
0.0
  0
SPLINE
  5
717C1
330
18
100
AcDbEntity
  8
0
  6
Continuous
 62
   252
370
    15
100
AcDbSpline
210
0.0
220
0.0
230
1.0
 70
     8
 71
     3
 72
    10
 73
     6
 74
     0
 42
0.000000001
 43
0.00000001
 40
0.0
 40
0.0
 40
0.0
 40
0.0
 40
0.1826469077835725
 40
0.7174008528689949
 40
1.0
 40
1.0
 40
1.0
 40
1.0
 10
479.5763145005997
 20
1379.283738641966
 30
0.0
 10
479.5765425885614
 20
1379.275902923298
 30
0.0
 10
479.5774384728675
 20
1379.245125773421
 30
0.0
 10
479.5793767865532
 20
1379.22112767704
 30
0.0
 10
479.5811011733763
 20
1379.208412357516
 30
0.0
 10
479.5816973786764
 20
1379.204016046439
 30
0.0
  0
LINE
  5
717C2
330
18
100
AcDbEntity
  8
0
  6
Continuous
 62
   252
370
    15
100
AcDbLine
 10
479.5816973786764
 20
1379.204016046439
 30
0.0
 11
479.5842623233962
 21
1379.197948152769
 31
0.0
  0
SPLINE
  5
717C3
330
18
100
AcDbEntity
  8
0
  6
Continuous
 62
   252
370
    15
100
AcDbSpline
210
0.0
220
0.0
230
1.0
 70
     8
 71
     3
 72
    10
 73
     6
 74
     0
 42
0.000000001
 43
0.00000001
 40
0.0
 40
0.0
 40
0.0
 40
0.0
 40
0.5000000000000006
 40
0.5000000000000006
 40
1.0
 40
1.0
 40
1.0
 40
1.0
 10
492.9941563528556
 20
1374.473851726138
 30
0.0
 10
492.9280031376143
 20
1374.476018095349
 30
0.0
 10
492.8632597579687
 20
1374.503846893648
 30
0.0
 10
492.7693717109748
 20
1374.595508384791
 30
0.0
 10
492.7410102286685
 20
1374.658890451554
 30
0.0
 10
492.7398463269056
 20
1374.723037531478
 30
0.0
  0
ARC
  5
717C4
330
18
100
AcDbEntity
  8
0
  6
Continuous
 62
   252
370
    15
100
AcDbCircle
 10
494.7494017746873
 20
1428.070884510042
 30
0.0
 40
53.6257663476349
100
AcDbArc
 50
268.1242949392469
 51
268.2145043500243
  0
SPLINE
  5
717C5
330
18
100
AcDbEntity
  8
0
  6
Continuous
 62
   252
370
    15
100
AcDbSpline
210
0.0
220
0.0
230
1.0
 70
     8
 71
     3
 72
    10
 73
     6
 74
     0
 42
0.000000001
 43
0.00000001
 40
0.0
 40
0.0
 40
0.0
 40
0.0
 40
0.5
 40
0.5
 40
1.0
 40
1.0
 40
1.0
 40
1.0
 10
493.3328543819381
 20
1374.223566889247
 30
0.0
 10
493.3316920995114
 20
1374.287613478506
 30
0.0
 10
493.3034726322566
 20
1374.350510347342
 30
0.0
 10
493.2097059146183
 20
1374.441485205541
 30
0.0
 10
493.1446613312547
 20
1374.469093245913
 30
0.0
 10
493.0785443559885
 20
1374.47115453493
 30
0.0
  0
LINE
  5
717C6
330
18
100
AcDbEntity
  8
0
  6
Continuous
 62
   252
370
    15
100
AcDbLine
 10
493.3328543516446
 20
1374.223566892091
 30
0.0
 11
493.4035677551204
 21
1370.327004258205
 31
0.0
  0
ARC
  5
717C7
330
18
100
AcDbEntity
  8
0
  6
Continuous
 62
   252
370
    15
100
AcDbCircle
 10
486.6542292296146
 20
1381.179491487104
 30
0.0
 40
10.03243895520976
100
AcDbArc
 50
243.6091557658715
 51
250.8696477510949
  0
ARC
  5
717C8
330
18
100
AcDbEntity
  8
0
  6
Continuous
 62
   252
370
    15
100
AcDbCircle
 10
493.6159675794437
 20
1413.781620802537
 30
0.0
 40
39.29440823379509
100
AcDbArc
 50
258.3459603539337
 51
266.8551322714605
  0
SPLINE
  5
717C9
330
18
100
AcDbEntity
  8
0
  6
Continuous
 62
   252
370
    15
100
AcDbSpline
210
0.0
220
0.0
230
1.0
 70
     8
 71
     3
 72
    10
 73
     6
 74
     0
 42
0.000000001
 43
0.00000001
 40
0.0
 40
0.0
 40
0.0
 40
0.0
 40
0.5
 40
0.5
 40
1.0
 40
1.0
 40
1.0
 40
1.0
 10
491.706422098733
 20
1374.754888074268
 30
0.0
 10
491.7012409516915
 20
1374.694411774566
 30
0.0
 10
491.6724979656772
 20
1374.638725471485
 30
0.0
 10
491.5823790838869
 20
1374.562350867217
 30
0.0
 10
491.5219660764513
 20
1374.542555004083
 30
0.0
 10
491.4602473199878
 20
1374.546389329302
 30
0.0
  0
ELLIPSE
  5
717CA
330
18
100
AcDbEntity
  8
0
  6
Continuous
 62
   252
370
    15
100
AcDbEllipse
 10
497.6847844269464
 20
1413.60968977874
 30
0.0
 11
14.62995832671303
 21
163.368866520967
 31
0.0
210
0.0
220
0.0
230
1.0
 40
0.0156277030012939
 41
1.804164438478709
 42
1.812331649376371
  0
LINE
  5
717CB
330
18
100
AcDbEntity
  8
0
  6
Continuous
 62
   252
370
    15
100
AcDbLine
 10
492.7398462625173
 20
1374.72303728499
 30
0.0
 11
492.7150168964619
 21
1376.091490545788
 31
0.0
  0
SPLINE
  5
717CC
330
18
100
AcDbEntity
  8
0
  6
Continuous
 62
   252
370
    15
100
AcDbSpline
210
0.0
220
0.0
230
1.0
 70
     8
 71
     3
 72
     9
 73
     5
 74
     0
 42
0.000000001
 43
0.00000001
 40
0.0
 40
0.0
 40
0.0
 40
0.0
 40
0.4227780928342157
 40
1.0
 40
1.0
 40
1.0
 40
1.0
 10
479.6038533086302
 20
1379.203963499446
 30
0.0
 10
479.6049423635736
 20
1379.183586774197
 30
0.0
 10
479.6075183128998
 20
1379.135389562484
 30
0.0
 10
479.6115355667854
 20
1379.105956490658
 30
0.0
 10
479.6138544137349
 20
1379.088967076805
 30
0.0
  0
LINE
  5
717CD
330
18
100
AcDbEntity
  8
0
  6
Continuous
 62
   252
370
    15
100
AcDbLine
 10
482.1948899689492
 20
1372.143382534889
 30
0.0
 11
481.6630832184936
 21
1372.063915080978
 31
0.0
  0
LINE
  5
717CE
330
18
100
AcDbEntity
  8
0
  6
Continuous
 62
   252
370
    15
100
AcDbLine
 10
483.3664140200318
 20
1371.701089589228
 30
0.0
 11
483.1891760556306
 21
1371.478059333063
 31
0.0
  0
ARC
  5
717CF
330
18
100
AcDbEntity
  8
0
  6
Continuous
 62
   252
370
    15
100
AcDbCircle
 10
482.2547937993646
 20
1372.227398913983
 30
0.0
 40
1.686039435484224
100
AcDbArc
 50
250.7582178433832
 51
280.9444237275094
  0
LINE
  5
717D0
330
18
100
AcDbEntity
  8
0
  6
Continuous
 62
   252
370
    15
100
AcDbLine
 10
482.5748997471459
 20
1370.572025493814
 30
0.0
 11
482.6857769917827
 21
1370.588593705138
 31
0.0
  0
LINE
  5
717D1
330
18
100
AcDbEntity
  8
0
  6
Continuous
 62
   252
370
    15
100
AcDbLine
 10
483.1891760556306
 20
1371.379786512189
 30
0.0
 11
483.7209828060863
 21
1371.459253843482
 31
0.0
  0
LINE
  5
717D2
330
18
100
AcDbEntity
  8
0
  6
Continuous
 62
   252
370
    15
100
AcDbLine
 10
483.7209828060863
 20
1371.754072306102
 30
0.0
 11
483.3664140200318
 21
1371.701089589228
 31
0.0
  0
LINE
  5
717D3
330
18
100
AcDbEntity
  8
0
  6
Continuous
 62
   252
370
    15
100
AcDbLine
 10
503.1960926116785
 20
1371.05345999798
 30
0.0
 11
503.1960926116785
 21
1374.987165064666
 31
0.0
  0
ELLIPSE
  5
717D4
330
18
100
AcDbEntity
  8
0
  6
Continuous
 62
   252
370
    15
100
AcDbEllipse
 10
505.017680453574
 20
1373.0180566921
 30
0.0
 11
0.145238681015875
 21
0.5140800312849576
 31
0.0
210
0.0
220
0.0
230
1.0
 40
0.6783163797204586
 41
2.846729150129365
 42
3.518791935082299
  0
ELLIPSE
  5
717D5
330
18
100
AcDbEntity
  8
0
  6
Continuous
 62
   252
370
    15
100
AcDbEllipse
 10
505.017680453574
 20
1373.0180566921
 30
0.0
 11
0.145238681015875
 21
0.5140800312849576
 31
0.0
210
0.0
220
0.0
230
1.0
 40
0.6783163797204586
 41
3.518791935082299
 42
6.60801108320209
  0
LINE
  5
717D6
330
18
100
AcDbEntity
  8
0
  6
Continuous
 62
   252
370
    15
100
AcDbLine
 10
503.1960926116785
 20
1374.987165064666
 30
0.0
 11
504.1606245815909
 21
1375.23680430809
 31
0.0
  0
SPLINE
  5
717D7
330
18
100
AcDbEntity
  8
0
  6
Continuous
 62
   252
370
    15
100
AcDbSpline
210
0.0
220
0.0
230
1.0
 70
     8
 71
     3
 72
    10
 73
     6
 74
     0
 42
0.000000001
 43
0.00000001
 40
0.0
 40
0.0
 40
0.0
 40
0.0
 40
0.5
 40
0.5
 40
1.0
 40
1.0
 40
1.0
 40
1.0
 10
502.6357940158248
 20
1375.057586647451
 30
0.0
 10
502.684701985305
 20
1375.065978685979
 30
0.0
 10
502.7435016495512
 20
1375.069735696562
 30
0.0
 10
502.8600610530069
 20
1375.066699670551
 30
0.0
 10
502.9146478277943
 20
1375.060008484194
 30
0.0
 10
502.9561407533533
 20
1375.049269324822
 30
0.0
  0
LINE
  5
717D8
330
18
100
AcDbEntity
  8
0
  6
Continuous
 62
   252
370
    15
100
AcDbLine
 10
496.2251429165436
 20
1374.223566892091
 30
0.0
 11
496.1545227256414
 21
1370.332144253948
 31
0.0
  0
SPLINE
  5
717D9
330
18
100
AcDbEntity
  8
0
  6
Continuous
 62
   252
370
    15
100
AcDbSpline
210
0.0
220
0.0
230
1.0
 70
     8
 71
     3
 72
    10
 73
     6
 74
     0
 42
0.000000001
 43
0.00000001
 40
0.0
 40
0.0
 40
0.0
 40
0.0
 40
0.5
 40
0.5
 40
1.0
 40
1.0
 40
1.0
 40
1.0
 10
496.4794529121996
 20
1374.47115453493
 30
0.0
 10
496.4133297785075
 20
1374.469093053915
 30
0.0
 10
496.3484823607727
 20
1374.441607055526
 30
0.0
 10
496.2545945634843
 20
1374.350641486689
 30
0.0
 10
496.2263053070103
 20
1374.287621101279
 30
0.0
 10
496.2251428862496
 20
1374.223566889247
 30
0.0
  0
ARC
  5
717DA
330
18
100
AcDbEntity
  8
0
  6
Continuous
 62
   252
370
    15
100
AcDbCircle
 10
494.8085954935175
 20
1428.070884509543
 30
0.0
 40
53.62576634713589
100
AcDbArc
 50
271.785495649976
 51
271.8757050607542
  0
SPLINE
  5
717DB
330
18
100
AcDbEntity
  8
0
  6
Continuous
 62
   252
370
    15
100
AcDbSpline
210
0.0
220
0.0
230
1.0
 70
     8
 71
     3
 72
    10
 73
     6
 74
     0
 42
0.000000001
 43
0.00000001
 40
0.0
 40
0.0
 40
0.0
 40
0.0
 40
0.5000000000000006
 40
0.5000000000000006
 40
1.0
 40
1.0
 40
1.0
 40
1.0
 10
496.8181509412822
 20
1374.723037531478
 30
0.0
 10
496.8169872579001
 20
1374.658902487346
 30
0.0
 10
496.7886793890675
 20
1374.595622952878
 30
0.0
 10
496.6949384318399
 20
1374.503981205797
 30
0.0
 10
496.6299825234145
 20
1374.476017715241
 30
0.0
 10
496.5638409153325
 20
1374.473851726138
 30
0.0
  0
LINE
  5
717DC
330
18
100
AcDbEntity
  8
0
  6
Continuous
 62
   252
370
    15
100
AcDbLine
 10
496.8429019641993
 20
1376.087172480314
 30
0.0
 11
496.8181510056708
 21
1374.72303728499
 31
0.0
  0
ELLIPSE
  5
717DD
330
18
100
AcDbEntity
  8
0
  6
Continuous
 62
   252
370
    15
100
AcDbEllipse
 10
491.8732128412418
 20
1413.60968977874
 30
0.0
 11
-14.62995832671303
 21
163.3688665209668
 31
0.0
210
0.0
220
0.0
230
1.0
 40
0.0156277030012942
 41
4.470853657803262
 42
4.479020868700899
  0
SPLINE
  5
717DE
330
18
100
AcDbEntity
  8
0
  6
Continuous
 62
   252
370
    15
100
AcDbSpline
210
0.0
220
0.0
230
1.0
 70
     8
 71
     3
 72
    10
 73
     6
 74
     0
 42
0.000000001
 43
0.00000001
 40
0.0
 40
0.0
 40
0.0
 40
0.0
 40
0.5
 40
0.5
 40
1.0
 40
1.0
 40
1.0
 40
1.0
 10
498.0977499482003
 20
1374.546389329302
 30
0.0
 10
498.0360307465583
 20
1374.542554976426
 30
0.0
 10
497.9757226766339
 20
1374.562299964889
 30
0.0
 10
497.8855614686165
 20
1374.638635202462
 30
0.0
 10
497.8567563512406
 20
1374.694411369022
 30
0.0
 10
497.8515751694552
 20
1374.754888074268
 30
0.0
  0
ARC
  5
717DF
330
18
100
AcDbEntity
  8
0
  6
Continuous
 62
   252
370
    15
100
AcDbCircle
 10
495.5863663449546
 20
1417.239012225005
 30
0.0
 40
42.76642488180136
100
AcDbArc
 50
273.366531411803
 51
279.4876818226123
  0
LINE
  5
717E0
330
18
100
AcDbEntity
  8
0
  6
Continuous
 62
   252
370
    15
100
AcDbLine
 10
503.1960926116785
 20
1374.987165064666
 30
0.0
 11
502.9561409434817
 21
1375.049269371537
 31
0.0
  0
LINE
  5
717E1
330
18
100
AcDbEntity
  8
0
  6
Continuous
 62
   252
370
    15
100
AcDbLine
 10
496.1948617401142
 20
1372.554964964211
 30
0.0
 11
496.0507424281608
 21
1372.554964964211
 31
0.0
  0
LINE
  5
717E2
330
18
100
AcDbEntity
  8
0
  6
Continuous
 62
   252
370
    15
100
AcDbLine
 10
493.5072548400273
 20
1372.554964964211
 30
0.0
 11
493.363135528074
 21
1372.554964964211
 31
0.0
  0
ELLIPSE
  5
717E3
330
18
100
AcDbEntity
  8
0
  6
Continuous
 62
   252
370
    15
100
AcDbEllipse
 10
494.7789986340941
 20
1371.226316207672
 30
0.0
 11
0.5341324054468385
 21
0.0
 31
0.0
210
0.0
220
0.0
230
1.0
 40
0.9614081230522584
 41
2.831748013848299
 42
3.087027730444286
  0
ELLIPSE
  5
717E4
330
18
100
AcDbEntity
  8
0
  6
Continuous
 62
   252
370
    15
100
AcDbEllipse
 10
494.7789986340941
 20
1371.226316207672
 30
0.0
 11
0.5341324054468385
 21
0.0
 31
0.0
210
0.0
220
0.0
230
1.0
 40
0.9614081230522584
 41
0.0545649231456516
 42
0.3098446397415152
  0
LINE
  5
717E5
330
18
100
AcDbEntity
  8
0
  6
Continuous
 62
   252
370
    15
100
AcDbLine
 10
493.3598136309295
 20
1372.738011853319
 30
0.0
 11
493.5072548400273
 21
1372.738011853319
 31
0.0
  0
LINE
  5
717E6
330
18
100
AcDbEntity
  8
0
  6
Continuous
 62
   252
370
    15
100
AcDbLine
 10
496.0507424281608
 20
1372.738011853319
 30
0.0
 11
496.1981836372585
 21
1372.738011853319
 31
0.0
  0
LINE
  5
717E7
330
18
100
AcDbEntity
  8
0
  6
Continuous
 62
   252
370
    15
100
AcDbLine
 10
503.7057879657605
 20
1375.119083779755
 30
0.0
 11
503.7030553094723
 21
1375.333675750504
 31
0.0
  0
LINE
  5
717E8
330
18
100
AcDbEntity
  8
0
  6
Continuous
 62
   252
370
    15
100
AcDbLine
 10
503.6273472754629
 20
1381.27811955246
 30
0.0
 11
503.6005617482053
 21
1383.381253143345
 31
0.0
  0
ARC
  5
717E9
330
18
100
AcDbEntity
  8
0
  6
Continuous
 62
   252
370
    15
100
AcDbCircle
 10
504.1875819213872
 20
1383.42680147863
 30
0.0
 40
0.5887846249435534
100
AcDbArc
 50
113.374504573299
 51
184.4368302279893
  0
LINE
  5
717EA
330
18
100
AcDbEntity
  8
0
  6
Continuous
 62
   252
370
    15
100
AcDbLine
 10
503.9539878215401
 20
1383.96726528971
 30
0.0
 11
504.3136912346494
 21
1384.060363383611
 31
0.0
  0
ARC
  5
717EB
330
18
100
AcDbEntity
  8
0
  6
Continuous
 62
   252
370
    15
100
AcDbCircle
 10
504.1789698759259
 20
1384.478469157172
 30
0.0
 40
0.4392747231301615
100
AcDbArc
 50
287.8598938518738
 51
331.1231498107063
  0
ARC
  5
717EC
330
18
100
AcDbEntity
  8
0
  6
Continuous
 62
   252
370
    15
100
AcDbCircle
 10
506.4066152469517
 20
1384.862724431663
 30
0.0
 40
0.2523661086373693
100
AcDbArc
 50
221.7690439921989
 51
284.9951372684367
  0
LINE
  5
717ED
330
18
100
AcDbEntity
  8
0
  6
Continuous
 62
   252
370
    15
100
AcDbLine
 10
506.471911713305
 20
1384.618951947017
 30
0.0
 11
506.8316151264143
 21
1384.712050040918
 31
0.0
  0
LWPOLYLINE
  5
717EE
330
18
100
AcDbEntity
  8
0
  6
Continuous
 62
   252
370
    15
100
AcDbPolyline
 90
        9
 70
   128
 43
0.0
 10
507.1975968268209
 20
1384.312234327592
 10
507.1894604469504
 20
1384.406607856102
 10
507.1678133368393
 20
1384.493777358477
 10
507.1334883691915
 20
1384.570392643156
 10
507.0878026009559
 20
1384.633509094316
 10
507.032513687269
 20
1384.680701892242
 10
506.9697459746631
 20
1384.710155995163
 10
506.9019109091345
 20
1384.720741639229
 10
506.8316151264143
 20
1384.712050040918
  0
LINE
  5
717EF
330
18
100
AcDbEntity
  8
0
  6
Continuous
 62
   252
370
    15
100
AcDbLine
 10
507.247502862431
 20
1380.393658289716
 30
0.0
 11
507.2293284240592
 21
1381.82072846532
 31
0.0
  0
LINE
  5
717F0
330
18
100
AcDbEntity
  8
0
  6
Continuous
 62
   252
370
    15
100
AcDbLine
 10
507.2261106360028
 20
1382.073360356905
 30
0.0
 11
507.1975968268209
 21
1384.312234327592
 31
0.0
  0
LINE
  5
717F1
330
18
100
AcDbEntity
  8
0
  6
Continuous
 62
   252
370
    15
100
AcDbLine
 10
507.3917556566848
 20
1380.328991444288
 30
0.0
 11
507.341456399036
 21
1384.278431038467
 31
0.0
  0
ARC
  5
717F2
330
18
100
AcDbEntity
  8
0
  6
Continuous
 62
   252
370
    15
100
AcDbCircle
 10
506.9535356708938
 20
1384.318363315543
 30
0.0
 40
0.3899706118092169
100
AcDbArc
 50
354.1227154070521
 51
68.23856088858888
  0
SPLINE
  5
717F3
330
18
100
AcDbEntity
  8
0
  6
Continuous
 62
   252
370
    15
100
AcDbSpline
210
0.0
220
0.0
230
1.0
 70
     8
 71
     3
 72
    10
 73
     6
 74
     0
 42
0.000000001
 43
0.00000001
 40
0.0
 40
0.0
 40
0.0
 40
0.0
 40
0.4209844982684892
 40
0.8420033974576794
 40
1.0
 40
1.0
 40
1.0
 40
1.0
 10
506.2183915159657
 20
1384.694615895644
 30
0.0
 10
506.1922038624289
 20
1384.730249161317
 30
0.0
 10
506.1398264154205
 20
1384.801518604451
 30
0.0
 10
506.1159523816846
 20
1384.922521274361
 30
0.0
 10
506.1178435690248
 20
1384.995840869418
 30
0.0
 10
506.1183596194132
 20
1385.015847668691
 30
0.0
  0
SPLINE
  5
717F4
330
18
100
AcDbEntity
  8
0
  6
Continuous
 62
   252
370
    15
100
AcDbSpline
210
0.0
220
0.0
230
1.0
 70
     8
 71
     3
 72
    10
 73
     6
 74
     0
 42
0.000000001
 43
0.00000001
 40
0.0
 40
0.0
 40
0.0
 40
0.0
 40
0.4206462916037468
 40
0.8413378138634303
 40
1.0
 40
1.0
 40
1.0
 40
1.0
 10
506.2629326764358
 20
1384.981875945136
 30
0.0
 10
506.2640293821849
 20
1384.928914084058
 30
0.0
 10
506.2662229116083
 20
1384.822984667095
 30
0.0
 10
506.3134448185085
 20
1384.718307763334
 30
0.0
 10
506.3517584829391
 20
1384.673173190268
 30
0.0
 10
506.3622510881807
 20
1384.660812606518
 30
0.0
  0
ARC
  5
717F5
330
18
100
AcDbEntity
  8
0
  6
Continuous
 62
   252
370
    15
100
AcDbCircle
 10
506.5668476373214
 20
1384.850456404457
 30
0.0
 40
0.2789704608319941
100
AcDbArc
 50
222.8279263269711
 51
239.1585912304331
  0
SPLINE
  5
717F6
330
18
100
AcDbEntity
  8
0
  6
Continuous
 62
   252
370
    15
100
AcDbSpline
210
0.0
220
0.0
230
1.0
 70
     8
 71
     3
 72
    10
 73
     6
 74
     0
 42
0.000000001
 43
0.00000001
 40
0.0
 40
0.0
 40
0.0
 40
0.0
 40
0.4209701693944831
 40
0.841981437986181
 40
1.0
 40
1.0
 40
1.0
 40
1.0
 10
504.6795450194531
 20
1384.64345504785
 30
0.0
 10
504.6729751366951
 20
1384.588360292731
 30
0.0
 10
504.6598347297635
 20
1384.478165403609
 30
0.0
 10
504.6109922077366
 20
1384.348609466719
 30
0.0
 10
504.5737802780213
 20
1384.283970847635
 30
0.0
 10
504.5636250574912
 20
1384.266330820994
 30
0.0
  0
ARC
  5
717F7
330
18
100
AcDbEntity
  8
0
  6
Continuous
 62
   252
370
    15
100
AcDbCircle
 10
507.6690906558933
 20
1384.688598095011
 30
0.0
 40
2.989886453875195
100
AcDbArc
 50
125.316657297303
 51
180.8651179233051
  0
SPLINE
  5
717F8
330
18
100
AcDbEntity
  8
0
  6
Continuous
 62
   252
370
    15
100
AcDbSpline
210
0.0
220
0.0
230
1.0
 70
     8
 71
     3
 72
    10
 73
     6
 74
     0
 42
0.000000001
 43
0.00000001
 40
0.0
 40
0.0
 40
0.0
 40
0.0
 40
0.4209828810125635
 40
0.8420044710913854
 40
0.9999999999999999
 40
0.9999999999999999
 40
0.9999999999999999
 40
0.9999999999999999
 10
506.058166326757
 20
1387.211073572891
 30
0.0
 10
506.0563906354236
 20
1387.206086306867
 30
0.0
 10
506.0528390894833
 20
1387.196111316241
 30
0.0
 10
505.9977435332607
 20
1387.161650340472
 30
0.0
 10
505.9528913726312
 20
1387.135413602708
 30
0.0
 10
505.9406526311347
 20
1387.128254423602
 30
0.0
  0
SPLINE
  5
717F9
330
18
100
AcDbEntity
  8
0
  6
Continuous
 62
   252
370
    15
100
AcDbSpline
210
0.0
220
0.0
230
1.0
 70
     8
 71
     3
 72
    10
 73
     6
 74
     0
 42
0.000000001
 43
0.00000001
 40
0.0
 40
0.0
 40
0.0
 40
0.0
 40
0.4209703710601249
 40
0.8419829812587836
 40
0.9999999999999999
 40
0.9999999999999999
 40
0.9999999999999999
 40
0.9999999999999999
 10
507.3794662835717
 20
1387.500646799206
 30
0.0
 10
507.417919353366
 20
1387.520800292797
 30
0.0
 10
507.4948293512415
 20
1387.56110930213
 30
0.0
 10
507.6191213408968
 20
1387.607980355261
 30
0.0
 10
507.6928203475667
 20
1387.632631387856
 30
0.0
 10
507.7129327852315
 20
1387.639358647541
 30
0.0
  0
ARC
  5
717FA
330
18
100
AcDbEntity
  8
0
  6
Continuous
 62
   252
370
    15
100
AcDbCircle
 10
509.1079022799752
 20
1385.060992644516
 30
0.0
 40
2.989883507456907
100
AcDbArc
 50
125.3166496635342
 51
180.8651557395186
  0
ARC
  5
717FB
330
18
100
AcDbEntity
  8
0
  6
Continuous
 62
   252
370
    15
100
AcDbCircle
 10
509.0912199493018
 20
1385.008278444108
 30
0.0
 40
2.828410505886347
100
AcDbArc
 50
125.646963295144
 51
180.5348494240856
  0
ARC
  5
717FC
330
18
100
AcDbEntity
  8
0
  6
Continuous
 62
   252
370
    15
100
AcDbCircle
 10
506.7904807120325
 20
1393.925617256925
 30
0.0
 40
6.303758701427909
100
AcDbArc
 50
284.950227747471
 51
291.4893568844936
  0
LINE
  5
717FD
330
18
100
AcDbEntity
  8
0
  6
Continuous
 62
   252
370
    15
100
AcDbLine
 10
508.4167234851374
 20
1387.835238926414
 30
0.0
 11
508.0570200720281
 21
1387.742140832513
 31
0.0
  0
ARC
  5
717FE
330
18
100
AcDbEntity
  8
0
  6
Continuous
 62
   252
370
    15
100
AcDbCircle
 10
509.5759963908791
 20
1382.029666830672
 30
0.0
 40
5.910976931010706
100
AcDbArc
 50
104.8906750650401
 51
108.3721084868271
  0
ARC
  5
717FF
330
18
100
AcDbEntity
  8
0
  6
Continuous
 62
   252
370
    15
100
AcDbCircle
 10
506.0568376563695
 20
1386.743586887773
 30
0.0
 40
0.4674885732592357
100
AcDbArc
 50
89.83715685813377
 51
109.7585764006462
  0
LINE
  5
71800
330
18
100
AcDbEntity
  8
0
  6
Continuous
 62
   252
370
    15
100
AcDbLine
 10
505.8987995933725
 20
1387.183552269107
 30
0.0
 11
505.5390961802632
 21
1387.090454175206
 31
0.0
  0
LWPOLYLINE
  5
71801
330
18
100
AcDbEntity
  8
0
  6
Continuous
 62
   252
370
    15
100
AcDbPolyline
 90
        9
 70
   128
 43
0.0
 10
505.5026913996637
 20
1387.129079171845
 10
505.4465307648309
 20
1387.105170188194
 10
505.40635105266
 20
1387.085757462392
 10
505.3836976731391
 20
1387.071587746547
 10
505.3794395048454
 20
1387.063204844709
 10
505.3937414167781
 20
1387.060931580409
 10
505.4260528980832
 20
1387.064853139417
 10
505.4751336411735
 20
1387.074822360573
 10
505.5390961802632
 20
1387.090454175206
  0
LINE
  5
71802
330
18
100
AcDbEntity
  8
0
  6
Continuous
 62
   252
370
    15
100
AcDbLine
 10
505.5026913996637
 20
1387.129079171845
 30
0.0
 11
522.9608564036357
 21
1394.242166103819
 31
0.0
  0
ARC
  5
71803
330
18
100
AcDbEntity
  8
0
  6
Continuous
 62
   252
370
    15
100
AcDbCircle
 10
529.8886845757074
 20
1376.645248987323
 30
0.0
 40
18.91153867845152
100
AcDbArc
 50
104.9503002930532
 51
111.4893395786539
  0
LINE
  5
71804
330
18
100
AcDbEntity
  8
0
  6
Continuous
 62
   252
370
    15
100
AcDbLine
 10
525.0098653830619
 20
1394.916631487617
 30
0.0
 11
526.448679035499
 21
1395.289023863221
 31
0.0
  0
LWPOLYLINE
  5
71805
330
18
100
AcDbEntity
  8
0
  6
Continuous
 62
   252
370
    15
100
AcDbPolyline
 90
        9
 70
   128
 43
0.0
 10
526.5578905347286
 20
1395.17314704283
 10
526.7263733867499
 20
1395.244873993782
 10
526.8469134707857
 20
1395.303112416426
 10
526.9148736093484
 20
1395.34562290396
 10
526.9276500092756
 20
1395.370771854711
 10
526.8847423784314
 20
1395.377593478084
 10
526.7878069869932
 20
1395.36582538535
 10
526.6405657052453
 20
1395.335918816644
 10
526.448679035499
 20
1395.289023863221
  0
LINE
  5
71806
330
18
100
AcDbEntity
  8
0
  6
Continuous
 62
   252
370
    15
100
AcDbLine
 10
509.0997264782795
 20
1388.060060356092
 30
0.0
 11
526.5578905347286
 21
1395.17314704283
 31
0.0
  0
LINE
  5
71807
330
18
100
AcDbEntity
  8
0
  6
Continuous
 62
   252
370
    15
100
AcDbLine
 10
520.1603745251391
 20
1392.940773410958
 30
0.0
 11
521.599188177576
 21
1393.313165786562
 31
0.0
  0
LINE
  5
71808
330
18
100
AcDbEntity
  8
0
  6
Continuous
 62
   252
370
    15
100
AcDbLine
 10
521.599188177576
 20
1393.313165786562
 30
0.0
 11
525.4787812429238
 21
1394.893853006364
 31
0.0
  0
LINE
  5
71809
330
18
100
AcDbEntity
  8
0
  6
Continuous
 62
   252
370
    15
100
AcDbLine
 10
525.4787812429238
 20
1394.893853006364
 30
0.0
 11
524.0399656954407
 21
1394.521460140285
 31
0.0
  0
LINE
  5
7180A
330
18
100
AcDbEntity
  8
0
  6
Continuous
 62
   252
370
    15
100
AcDbLine
 10
524.0399656954407
 20
1394.521460140285
 30
0.0
 11
520.1603745251391
 21
1392.940773410958
 31
0.0
  0
LINE
  5
7180B
330
18
100
AcDbEntity
  8
0
  6
Continuous
 62
   252
370
    15
100
AcDbLine
 10
517.7788797303424
 20
1391.954430524451
 30
0.0
 11
511.7655122793472
 21
1389.504367733088
 31
0.0
  0
LWPOLYLINE
  5
7180C
330
18
100
AcDbEntity
  8
0
  6
Continuous
 62
   252
370
    15
100
AcDbPolyline
 90
       13
 70
   128
 43
0.0
 10
511.7655122793472
 20
1389.504367733088
 10
511.6441004741654
 20
1389.451802820295
 10
511.572632605513
 20
1389.413606542759
 10
511.5559846266698
 20
1389.392380497625
 10
511.5952859850339
 20
1389.389572226406
 10
511.6878608756959
 20
1389.405371847633
 10
511.8274006906233
 20
1389.438702796995
 10
512.0043941940942
 20
1389.487296698844
 10
512.2067813135582
 20
1389.547838863419
 10
512.420769904448
 20
1389.616203397439
 10
512.6317756929818
 20
1389.687732945285
 10
512.8254190703419
 20
1389.757550571319
 10
512.9885048314418
 20
1389.820901497588
  0
LINE
  5
7180D
330
18
100
AcDbEntity
  8
0
  6
Continuous
 62
   252
370
    15
100
AcDbLine
 10
512.9885048314418
 20
1389.820901497588
 30
0.0
 11
519.0018722824368
 21
1392.270964288952
 31
0.0
  0
LWPOLYLINE
  5
7180E
330
18
100
AcDbEntity
  8
0
  6
Continuous
 62
   252
370
    15
100
AcDbPolyline
 90
       13
 70
   128
 43
0.0
 10
519.0018722824368
 20
1392.270964288952
 10
519.1232859826646
 20
1392.323529201744
 10
519.1947519562711
 20
1392.361724988806
 10
519.2114018301602
 20
1392.38295103394
 10
519.1721004717963
 20
1392.385759795634
 10
519.079525581134
 20
1392.369960174407
 10
518.9399857662067
 20
1392.336626904096
 10
518.76299036769
 20
1392.288034832722
 10
518.560603248226
 20
1392.227492668146
 10
518.3466165523819
 20
1392.159128134127
 10
518.1356107638483
 20
1392.087599076754
 10
517.9419654914423
 20
1392.017780960246
 10
517.7788797303424
 20
1391.954430524451
  0
ARC
  5
7180F
330
18
100
AcDbEntity
  8
0
  6
Continuous
 62
   252
370
    15
100
AcDbCircle
 10
506.8535851649555
 20
1393.732552433209
 30
0.0
 40
6.303666884698149
100
AcDbArc
 50
284.950161860222
 51
291.4893856490792
  0
ARC
  5
71810
330
18
100
AcDbEntity
  8
0
  6
Continuous
 62
   252
370
    15
100
AcDbCircle
 10
509.6388330900388
 20
1381.837482225222
 30
0.0
 40
5.910149038350717
100
AcDbArc
 50
104.8904311506762
 51
108.372352401191
  0
SPLINE
  5
71811
330
18
100
AcDbEntity
  8
0
  6
Continuous
 62
   252
370
    15
100
AcDbSpline
210
0.0
220
0.0
230
1.0
 70
     8
 71
     3
 72
    10
 73
     6
 74
     0
 42
0.000000001
 43
0.00000001
 40
0.0
 40
0.0
 40
0.0
 40
0.0
 40
0.4206611857124515
 40
0.8413646572297027
 40
1.0
 40
1.0
 40
1.0
 40
1.0
 10
507.7760065477616
 20
1387.446380417283
 30
0.0
 10
507.7224325395044
 20
1387.427966630707
 30
0.0
 10
507.6152791376107
 20
1387.391137206561
 30
0.0
 10
507.5053995243346
 20
1387.342073854951
 30
0.0
 10
507.4562978233041
 20
1387.314312496681
 30
0.0
 10
507.4428527286867
 20
1387.306710843769
 30
0.0
  0
LINE
  5
71812
330
18
100
AcDbEntity
  8
0
  6
Continuous
 62
   252
370
    15
100
AcDbLine
 10
508.4797972476674
 20
1387.642260941393
 30
0.0
 11
508.1200938345581
 21
1387.549162602255
 31
0.0
  0
LINE
  5
71813
330
18
100
AcDbEntity
  8
0
  6
Continuous
 62
   252
370
    15
100
AcDbLine
 10
509.1628002408094
 20
1387.867082125834
 30
0.0
 11
526.6209633497356
 21
1394.980169057809
 31
0.0
  0
LINE
  5
71814
330
18
100
AcDbEntity
  8
0
  6
Continuous
 62
   252
370
    15
100
AcDbLine
 10
505.6307775567506
 20
1386.904880140274
 30
0.0
 11
505.6021689952702
 21
1386.897475944947
 31
0.0
  0
ARC
  5
71815
330
18
100
AcDbEntity
  8
0
  6
Continuous
 62
   252
370
    15
100
AcDbCircle
 10
505.4765443849516
 20
1387.16144501538
 30
0.0
 40
0.2923374982147498
100
AcDbArc
 50
263.2024462194705
 51
295.450082934344
  0
LINE
  5
71816
330
18
100
AcDbEntity
  8
0
  6
Continuous
 62
   252
370
    15
100
AcDbLine
 10
524.1016418615679
 20
1394.332757187672
 30
0.0
 11
524.0399656954407
 21
1394.521460140285
 31
0.0
  0
ARC
  5
71817
330
18
100
AcDbEntity
  8
0
  6
Continuous
 62
   252
370
    15
100
AcDbCircle
 10
526.396590186559
 20
1395.859572121383
 30
0.0
 40
0.9075753768025547
100
AcDbArc
 50
284.3132218419558
 51
311.0352125148684
  0
LWPOLYLINE
  5
71818
330
18
100
AcDbEntity
  8
0
  6
Continuous
 62
   252
370
    15
100
AcDbPolyline
 90
       20
 70
   128
 43
0.0
 10
504.3747714088193
 20
1372.782713120023
 10
504.4784825371219
 20
1372.887611058494
 10
504.558020459036
 20
1373.028024152701
 10
504.6047665054917
 20
1373.188736574305
 10
504.6136552186122
 20
1373.352332548646
 10
504.5837229675221
 20
1373.501083687345
 10
504.5182131233981
 20
1373.618870586943
 10
504.4242245284426
 20
1373.692929788382
 10
504.3119430547424
 20
1373.715234817542
 10
504.1935358449454
 20
1373.683369452179
 10
504.0818342553118
 20
1373.600786256977
 10
503.9889428919727
 20
1373.476434693983
 10
503.9249272915959
 20
1373.3237899559
 10
503.8967261649989
 20
1373.159393507669
 10
503.9073933787619
 20
1373.001060805819
 10
503.9557748498895
 20
1372.865948713367
 10
504.0366260386605
 20
1372.768699394704
 10
504.1411870950805
 20
1372.719851350741
 10
504.258126591774
 20
1372.724697255291
 10
504.3747714088193
 20
1372.782713120023
  0
LWPOLYLINE
  5
71819
330
18
100
AcDbEntity
  8
0
  6
Continuous
 62
   252
370
    15
100
AcDbPolyline
 90
       17
 70
   128
 43
0.0
 10
504.332997015465
 20
1372.934134390132
 10
504.4114955046646
 20
1373.017942439904
 10
504.4662329599743
 20
1373.131803319216
 10
504.4888749692192
 20
1373.258382794825
 10
504.4759744437811
 20
1373.378410050726
 10
504.4294965463301
 20
1373.473612343949
 10
504.3565154834709
 20
1373.529495794578
 10
504.2681428572465
 20
1373.537552792388
 10
504.1778325465181
 20
1373.496556792306
 10
504.0993331097954
 20
1373.412748987771
 10
504.0445956544857
 20
1373.298888108459
 10
504.0219536452407
 20
1373.17230863285
 10
504.0348541706789
 20
1373.052281376948
 10
504.0813330156529
 20
1372.957078838489
 10
504.154314078512
 20
1372.90119538786
 10
504.2426867047365
 20
1372.893138161241
 10
504.332997015465
 20
1372.934134390132
  0
LINE
  5
7181A
330
18
100
AcDbEntity
  8
0
  6
Continuous
 62
   252
370
    15
100
AcDbLine
 10
510.1772733046823
 20
1377.068116733104
 30
0.0
 11
510.1772733046823
 21
1378.950297430604
 31
0.0
  0
LWPOLYLINE
  5
7181B
330
18
100
AcDbEntity
  8
0
  6
Continuous
 62
   252
370
    15
100
AcDbPolyline
 90
       17
 70
   128
 43
0.0
 10
494.7789986340941
 20
1371.879851625944
 10
494.6524630539566
 20
1371.855539729965
 10
494.5451913711578
 20
1371.786305488952
 10
494.4735147365429
 20
1371.682689000107
 10
494.4483452393459
 20
1371.560464829401
 10
494.4735147365429
 20
1371.438240887503
 10
494.5451913711578
 20
1371.334624398658
 10
494.6524630539566
 20
1371.265390157645
 10
494.7789986340941
 20
1371.241078261667
 10
494.9055342142314
 20
1371.265390157645
 10
495.0128058970302
 20
1371.334624398658
 10
495.0844825316453
 20
1371.438240887503
 10
495.1096520288423
 20
1371.560464829401
 10
495.0844825316453
 20
1371.682689000107
 10
495.0128058970302
 20
1371.786305488952
 10
494.9055342142314
 20
1371.855539729965
 10
494.7789986340941
 20
1371.879851625944
  0
LWPOLYLINE
  5
7181C
330
18
100
AcDbEntity
  8
0
  6
Continuous
 62
   252
370
    15
100
AcDbPolyline
 90
       20
 70
   128
 43
0.0
 10
494.7789986340941
 20
1372.051828990969
 10
494.6138248136315
 20
1372.025205435335
 10
494.4665501465035
 20
1371.948220281638
 10
494.3531341028592
 20
1371.829215685614
 10
494.2858671069701
 20
1371.681087564303
 10
494.2720385419885
 20
1371.51988848689
 10
494.313147004345
 20
1371.36308620765
 10
494.4047376851168
 20
1371.227673129684
 10
494.536885369868
 20
1371.128323132155
 10
494.695269773603
 20
1371.075802375789
 10
494.8627274945852
 20
1371.075802375789
 10
495.0211118983202
 20
1371.128323132155
 10
495.1532595830714
 20
1371.227673129684
 10
495.244850263843
 20
1371.36308620765
 10
495.2859587261997
 20
1371.51988848689
 10
495.2721301612181
 20
1371.681087564303
 10
495.2048631653288
 20
1371.829215685614
 10
495.0914471216846
 20
1371.948220281638
 10
494.9441724545566
 20
1372.025205435335
 10
494.7789986340941
 20
1372.051828990969
  0
ARC
  5
7181D
330
18
100
AcDbEntity
  8
0
  6
Continuous
 62
   252
370
    15
100
AcDbCircle
 10
494.774968707898
 20
1371.313916194339
 30
0.0
 40
0.3289709324721636
100
AcDbArc
 50
89.29810352428753
 51
157.0917633740751
  0
ARC
  5
7181E
330
18
100
AcDbEntity
  8
0
  6
Continuous
 62
   252
370
    15
100
AcDbCircle
 10
494.7830285602892
 20
1371.313916194337
 30
0.0
 40
0.3289709324734973
100
AcDbArc
 50
22.90823662608208
 51
90.70189647555117
  0
LWPOLYLINE
  5
7181F
330
18
100
AcDbEntity
  8
0
  6
Continuous
 62
   252
370
    15
100
AcDbPolyline
 90
       14
 70
   128
 43
0.0
 10
481.4429186727886
 20
1377.615089565412
 10
481.5499859275034
 20
1377.735477752589
 10
481.6629107693104
 20
1377.806887627222
 10
481.7751287589705
 20
1377.825169565021
 10
481.8801190433027
 20
1377.789260862204
 10
481.9717795742844
 20
1377.701248438917
 10
482.0447833776953
 20
1377.566247150552
 10
482.0948883931322
 20
1377.392102931485
 10
482.1191819349397
 20
1377.188936431741
 10
482.1162521938707
 20
1376.96855482369
 10
482.0862697240623
 20
1376.743766008052
 10
482.0309770202836
 20
1376.527633772955
 10
481.9535871329761
 20
1376.332718997915
 10
481.8731632770712
 20
1376.19134576932
  0
ARC
  5
71820
330
18
100
AcDbEntity
  8
0
  6
Continuous
 62
   252
370
    15
100
AcDbCircle
 10
482.6082961294196
 20
1376.770378375243
 30
0.0
 40
1.439319843266755
100
AcDbArc
 50
144.0639298914748
 51
210.5715800784953
  0
LWPOLYLINE
  5
71821
330
18
100
AcDbEntity
  8
0
  6
Continuous
 62
   252
370
    15
100
AcDbPolyline
 90
       11
 70
   128
 43
0.0
 10
481.8779492156675
 20
1377.810309825388
 10
481.9682282581375
 20
1377.776094823699
 10
482.0598887891192
 20
1377.688082155175
 10
482.13289259253
 20
1377.553081112047
 10
482.1829976079668
 20
1377.37893689298
 10
482.2072902022515
 20
1377.175770393236
 10
482.2043604611824
 20
1376.955388785186
 10
482.174377991374
 20
1376.73059972431
 10
482.1190852875953
 20
1376.514467489213
 10
482.0416963478107
 20
1376.319552959411
 10
481.9910806174851
 20
1376.225204389336
  0
ARC
  5
71822
330
18
100
AcDbEntity
  8
0
  6
Continuous
 62
   252
370
    15
100
AcDbCircle
 10
506.965279800873
 20
1376.771256009166
 30
0.0
 40
1.426379484992908
100
AcDbArc
 50
329.0797869816467
 51
37.70748859305638
  0
LWPOLYLINE
  5
71823
330
18
100
AcDbEntity
  8
0
  6
Continuous
 62
   252
370
    15
100
AcDbPolyline
 90
       14
 70
   128
 43
0.0
 10
507.6848339911169
 20
1376.19134576932
 10
507.6227617603819
 20
1376.296161788788
 10
507.5413297400211
 20
1376.485227760154
 10
507.4811620304856
 20
1376.697975611389
 10
507.4457568866351
 20
1376.922041211703
 10
507.4371713808698
 20
1377.144402776224
 10
507.4559048578025
 20
1377.352137393307
 10
507.5008676660008
 20
1377.53317238948
 10
507.5694474845954
 20
1377.676986636138
 10
507.6576590319125
 20
1377.775221969931
 10
507.7603743135581
 20
1377.822169450327
 10
507.8716258297738
 20
1377.81510087462
 10
507.9849467361884
 20
1377.754426717034
 10
508.0937508005343
 20
1377.6436731331
  0
LWPOLYLINE
  5
71824
330
18
100
AcDbEntity
  8
0
  6
Continuous
 62
   252
370
    15
100
AcDbPolyline
 90
       12
 70
   128
 43
0.0
 10
507.566916650703
 20
1376.225204389336
 10
507.5346534930702
 20
1376.282995750284
 10
507.4532205251865
 20
1376.47206172165
 10
507.3930537631739
 20
1376.684809572884
 10
507.3576486193235
 20
1376.908875173198
 10
507.349063113558
 20
1377.13123673772
 10
507.3677956429678
 20
1377.338971354803
 10
507.412759398689
 20
1377.520006350975
 10
507.4813392172838
 20
1377.663820352396
 10
507.5695498170779
 20
1377.762055931426
 10
507.6722660462464
 20
1377.809003411823
 10
507.6800480525207
 20
1377.810309825388
  0
LINE
  5
71825
330
18
100
AcDbEntity
  8
0
  6
Continuous
 62
   252
370
    15
100
AcDbLine
 10
479.3807239635058
 20
1377.295491058142
 30
0.0
 11
479.3807239635058
 21
1377.068116733104
 31
0.0
  0
LINE
  5
71826
330
18
100
AcDbEntity
  8
0
  6
Continuous
 62
   252
370
    15
100
AcDbLine
 10
479.3807239635058
 20
1378.950297430604
 30
0.0
 11
479.3807239635058
 21
1377.295491058142
 31
0.0
  0
LINE
  5
71827
330
18
100
AcDbEntity
  8
0
  6
Continuous
 62
   252
370
    15
100
AcDbLine
 10
507.0462309775202
 20
1379.151154092021
 30
0.0
 11
508.1377423976732
 21
1378.661843262801
 31
0.0
  0
LINE
  5
71828
330
18
100
AcDbEntity
  8
0
  6
Continuous
 62
   252
370
    15
100
AcDbLine
 10
507.0368666078613
 20
1380.043507597166
 30
0.0
 11
507.0575406118668
 21
1380.034239355447
 31
0.0
  0
LINE
  5
71829
330
18
100
AcDbEntity
  8
0
  6
Continuous
 62
   252
370
    15
100
AcDbLine
 10
507.2204463435996
 20
1382.075902426376
 30
0.0
 11
507.0778829828278
 21
1382.170125997508
 31
0.0
  0
LINE
  5
7182A
330
18
100
AcDbEntity
  8
0
  6
Continuous
 62
   252
370
    15
100
AcDbLine
 10
481.420254870515
 20
1378.661843262801
 30
0.0
 11
482.5117662906679
 21
1379.151154092021
 31
0.0
  0
LINE
  5
7182B
330
18
100
AcDbEntity
  8
0
  6
Continuous
 62
   252
370
    15
100
AcDbLine
 10
482.5004566563212
 20
1380.034239355447
 30
0.0
 11
482.5211306603268
 21
1380.043507597166
 31
0.0
  0
LINE
  5
7182C
330
18
100
AcDbEntity
  8
0
  6
Continuous
 62
   252
370
    15
100
AcDbLine
 10
482.4801142853603
 20
1382.170125997508
 30
0.0
 11
482.3375509245885
 21
1382.075902426376
 31
0.0
  0
LINE
  5
7182D
330
18
100
AcDbEntity
  8
0
  6
Continuous
 62
   252
370
    15
100
AcDbLine
 10
493.5072548400273
 20
1374.92550618399
 30
0.0
 11
496.0507424281608
 21
1374.92550618399
 31
0.0
  0
LINE
  5
7182E
330
18
100
AcDbEntity
  8
0
  6
Continuous
 62
   252
370
    15
100
AcDbLine
 10
496.0507424281608
 20
1375.577871906333
 30
0.0
 11
493.5072548400273
 21
1375.577871906333
 31
0.0
  0
LINE
  5
7182F
330
18
100
AcDbEntity
  8
0
  6
Continuous
 62
   252
370
    15
100
AcDbLine
 10
493.5072548400273
 20
1376.109792229661
 30
0.0
 11
496.0507424281608
 21
1376.109792229661
 31
0.0
  0
LINE
  5
71830
330
18
100
AcDbEntity
  8
0
  6
Continuous
 62
   252
370
    15
100
AcDbLine
 10
496.0507424281608
 20
1372.867303611155
 30
0.0
 11
493.5072548400273
 21
1372.867303611155
 31
0.0
  0
LINE
  5
71831
330
18
100
AcDbEntity
  8
0
  6
Continuous
 62
   252
370
    15
100
AcDbLine
 10
493.5072548400273
 20
1373.443533626082
 30
0.0
 11
496.0507424281608
 21
1373.443533626082
 31
0.0
  0
LINE
  5
71832
330
18
100
AcDbEntity
  8
0
  6
Continuous
 62
   252
370
    15
100
AcDbLine
 10
478.8233312498913
 20
1374.938874459218
 30
0.0
 11
478.8233312498913
 21
1375.077753211258
 31
0.0
  0
LINE
  5
71833
330
18
100
AcDbEntity
  8
0
  6
Continuous
 62
   252
370
    15
100
AcDbLine
 10
474.6679142436649
 20
1382.021201370977
 30
0.0
 11
474.6679142436649
 21
1380.177952792268
 31
0.0
  0
LINE
  5
71834
330
18
100
AcDbEntity
  8
0
  6
Continuous
 62
   252
370
    15
100
AcDbLine
 10
477.1500018686214
 20
1378.031069046244
 30
0.0
 11
477.2808131018125
 21
1378.106990694637
 31
0.0
  0
LINE
  5
71835
330
18
100
AcDbEntity
  8
0
  6
Continuous
 62
   252
370
    15
100
AcDbLine
 10
477.9359987151665
 20
1376.635865041124
 30
0.0
 11
478.0668099483577
 21
1376.711786231899
 31
0.0
  0
LINE
  5
71836
330
18
100
AcDbEntity
  8
0
  6
Continuous
 62
   252
370
    15
100
AcDbLine
 10
478.8528048998568
 20
1375.31658199797
 30
0.0
 11
478.7219936666657
 21
1375.24066069279
 31
0.0
  0
LINE
  5
71837
330
18
100
AcDbEntity
  8
0
  6
Continuous
 62
   252
370
    15
100
AcDbLine
 10
472.5714684735272
 20
1384.186309629897
 30
0.0
 11
472.4654577069404
 21
1384.080272110584
 31
0.0
  0
LINE
  5
71838
330
18
100
AcDbEntity
  8
0
  6
Continuous
 62
   252
370
    15
100
AcDbLine
 10
460.0971445590175
 20
1394.037305237956
 30
0.0
 11
460.0971445590175
 21
1395.353911295537
 31
0.0
  0
LINE
  5
71839
330
18
100
AcDbEntity
  8
0
  6
Continuous
 62
   252
370
    15
100
AcDbLine
 10
474.65137996758
 20
1380.198029429389
 30
0.0
 11
474.65137996758
 21
1382.041278008099
 31
0.0
  0
LINE
  5
7183A
330
18
100
AcDbEntity
  8
0
  6
Continuous
 62
   252
370
    15
100
AcDbLine
 10
471.4736891888296
 20
1385.078638948908
 30
0.0
 11
471.3676784222428
 21
1384.972601429595
 31
0.0
  0
LINE
  5
7183B
330
18
100
AcDbEntity
  8
0
  6
Continuous
 62
   252
370
    15
100
AcDbLine
 10
470.2698991375453
 20
1385.864931663843
 30
0.0
 11
470.375909904132
 21
1385.970969183156
 31
0.0
  0
LINE
  5
7183C
330
18
100
AcDbEntity
  8
0
  6
Continuous
 62
   252
370
    15
100
AcDbLine
 10
475.8679824246649
 20
1379.422929413138
 30
0.0
 11
475.8548535461874
 21
1379.415310065762
 31
0.0
  0
LINE
  5
7183D
330
18
100
AcDbEntity
  8
0
  6
Continuous
 62
   252
370
    15
100
AcDbLine
 10
458.6067098543679
 20
1394.216782503654
 30
0.0
 11
458.7164860772963
 21
1394.114382135869
 31
0.0
  0
LINE
  5
7183E
330
18
100
AcDbEntity
  8
0
  6
Continuous
 62
   252
370
    15
100
AcDbLine
 10
475.8548535461874
 20
1378.967663990244
 30
0.0
 11
475.9856647793786
 21
1379.043585181019
 31
0.0
  0
LINE
  5
7183F
330
18
100
AcDbEntity
  8
0
  6
Continuous
 62
   252
370
    15
100
AcDbLine
 10
477.5578441869739
 20
1376.164155729988
 30
0.0
 11
477.6886573152112
 21
1376.240077149572
 31
0.0
  0
LINE
  5
71840
330
18
100
AcDbEntity
  8
0
  6
Continuous
 62
   252
370
    15
100
AcDbLine
 10
476.1166655171668
 20
1378.767164356867
 30
0.0
 11
475.9858542839756
 21
1378.691243166092
 31
0.0
  0
LINE
  5
71841
330
18
100
AcDbEntity
  8
0
  6
Continuous
 62
   252
370
    15
100
AcDbLine
 10
458.3631168553405
 20
1393.629264389503
 30
0.0
 11
458.2533406324121
 21
1393.731662926813
 31
0.0
  0
LINE
  5
71842
330
18
100
AcDbEntity
  8
0
  6
Continuous
 62
   252
370
    15
100
AcDbLine
 10
459.9532878293714
 20
1394.034878029638
 30
0.0
 11
459.9532878293714
 21
1395.35148408722
 31
0.0
  0
LINE
  5
71843
330
18
100
AcDbEntity
  8
0
  6
Continuous
 62
   252
370
    15
100
AcDbLine
 10
458.2533406324121
 20
1392.678378007177
 30
0.0
 11
458.3631168553405
 21
1392.575979469866
 31
0.0
  0
LINE
  5
71844
330
18
100
AcDbEntity
  8
0
  6
Continuous
 62
   252
370
    15
100
AcDbLine
 10
510.7346660182968
 20
1375.077753211258
 30
0.0
 11
510.7346660182968
 21
1374.938874459218
 31
0.0
  0
LINE
  5
71845
330
18
100
AcDbEntity
  8
0
  6
Continuous
 62
   252
370
    15
100
AcDbLine
 10
514.8900830245232
 20
1380.177952792268
 30
0.0
 11
514.8900830245232
 21
1382.021201370977
 31
0.0
  0
LINE
  5
71846
330
18
100
AcDbEntity
  8
0
  6
Continuous
 62
   252
370
    15
100
AcDbLine
 10
512.2771841663757
 20
1378.106990694637
 30
0.0
 11
512.4079953995667
 21
1378.031069046244
 31
0.0
  0
LINE
  5
71847
330
18
100
AcDbEntity
  8
0
  6
Continuous
 62
   252
370
    15
100
AcDbLine
 10
511.4911873198304
 20
1376.711786231899
 30
0.0
 11
511.6219985530217
 21
1376.635865041124
 31
0.0
  0
LINE
  5
71848
330
18
100
AcDbEntity
  8
0
  6
Continuous
 62
   252
370
    15
100
AcDbLine
 10
510.8360036015225
 20
1375.24066069279
 30
0.0
 11
510.7051923683313
 21
1375.31658199797
 31
0.0
  0
LINE
  5
71849
330
18
100
AcDbEntity
  8
0
  6
Continuous
 62
   252
370
    15
100
AcDbLine
 10
517.0925395612478
 20
1384.080272110584
 30
0.0
 11
516.9865287946609
 21
1384.186309629897
 31
0.0
  0
LINE
  5
7184A
330
18
100
AcDbEntity
  8
0
  6
Continuous
 62
   252
370
    15
100
AcDbLine
 10
529.4608527091707
 20
1395.353911295537
 30
0.0
 11
529.4608527091707
 21
1394.037305237956
 31
0.0
  0
LINE
  5
7184B
330
18
100
AcDbEntity
  8
0
  6
Continuous
 62
   252
370
    15
100
AcDbLine
 10
514.9066173006081
 20
1382.041278008099
 30
0.0
 11
514.9066173006081
 21
1380.198029429389
 31
0.0
  0
LINE
  5
7184C
330
18
100
AcDbEntity
  8
0
  6
Continuous
 62
   252
370
    15
100
AcDbLine
 10
518.1903188459453
 20
1384.972601429595
 30
0.0
 11
518.0843080793586
 21
1385.078638948908
 31
0.0
  0
LINE
  5
7184D
330
18
100
AcDbEntity
  8
0
  6
Continuous
 62
   252
370
    15
100
AcDbLine
 10
519.1820873640561
 20
1385.970969183156
 30
0.0
 11
519.288098130643
 21
1385.864931663843
 31
0.0
  0
LINE
  5
7184E
330
18
100
AcDbEntity
  8
0
  6
Continuous
 62
   252
370
    15
100
AcDbLine
 10
513.7031437220007
 20
1379.415310065762
 30
0.0
 11
513.6900148435232
 21
1379.422929413138
 31
0.0
  0
LINE
  5
7184F
330
18
100
AcDbEntity
  8
0
  6
Continuous
 62
   252
370
    15
100
AcDbLine
 10
530.8415111908919
 20
1394.114382135869
 30
0.0
 11
530.9512874138202
 21
1394.216782503654
 31
0.0
  0
LINE
  5
71850
330
18
100
AcDbEntity
  8
0
  6
Continuous
 62
   252
370
    15
100
AcDbLine
 10
513.5723324888095
 20
1379.043585181019
 30
0.0
 11
513.7031437220007
 21
1378.967663990244
 31
0.0
  0
LINE
  5
71851
330
18
100
AcDbEntity
  8
0
  6
Continuous
 62
   252
370
    15
100
AcDbLine
 10
511.869339952977
 20
1376.240077149572
 30
0.0
 11
512.0001530812142
 21
1376.164155729988
 31
0.0
  0
LINE
  5
71852
330
18
100
AcDbEntity
  8
0
  6
Continuous
 62
   252
370
    15
100
AcDbLine
 10
513.5721429842126
 20
1378.691243166092
 30
0.0
 11
513.4413317510214
 21
1378.767164356867
 31
0.0
  0
LINE
  5
71853
330
18
100
AcDbEntity
  8
0
  6
Continuous
 62
   252
370
    15
100
AcDbLine
 10
531.3046566357759
 20
1393.731662926813
 30
0.0
 11
531.1948804128476
 21
1393.629264389503
 31
0.0
  0
LINE
  5
71854
330
18
100
AcDbEntity
  8
0
  6
Continuous
 62
   252
370
    15
100
AcDbLine
 10
529.6047094388168
 20
1395.35148408722
 30
0.0
 11
529.6047094388168
 21
1394.034878029638
 31
0.0
  0
LINE
  5
71855
330
18
100
AcDbEntity
  8
0
  6
Continuous
 62
   252
370
    15
100
AcDbLine
 10
531.1948804128476
 20
1392.575979469866
 30
0.0
 11
531.3046566357759
 21
1392.678378007177
 31
0.0
  0
LWPOLYLINE
  5
71856
330
18
100
AcDbEntity
  8
0
  6
Continuous
 62
   252
370
    15
100
AcDbPolyline
 90
       16
 70
   128
 43
0.0
 10
481.9495023613885
 20
1370.663160027086
 10
481.5718613906537
 20
1370.865865691952
 10
481.2419784209225
 20
1371.074079747562
 10
480.9610463836327
 20
1371.287049193726
 10
480.7300810234238
 20
1371.504003924972
 10
480.5499180555686
 20
1371.724159489466
 10
480.4212074808348
 20
1371.946719786614
 10
480.3444164280536
 20
1372.170879963931
 10
480.319821573937
 20
1372.395829479143
 10
480.3475119856451
 20
1372.620754906525
 10
480.4273872257417
 20
1372.844842861547
 10
480.5591592472395
 20
1373.067283084533
 10
480.7423514460772
 20
1373.28727115216
 10
480.9763015036881
 20
1373.504011607582
 10
481.2601623345241
 20
1373.716720734677
 10
481.5159016306938
 20
1373.879538357209
  0
LWPOLYLINE
  5
71857
330
18
100
AcDbEntity
  8
0
  6
Continuous
 62
   252
370
    15
100
AcDbPolyline
 90
       14
 70
   128
 43
0.0
 10
507.9371129333461
 20
1373.940622478184
 10
508.2426862533791
 20
1373.753747597
 10
508.5352453452156
 20
1373.54182948183
 10
508.7780613753955
 20
1373.325743257399
 10
508.9702559901118
 20
1373.106270310079
 10
509.1111337074936
 20
1372.884204226782
 10
509.2001857076982
 20
1372.660348066702
 10
509.2370898329106
 20
1372.43551128435
 10
509.2217124823902
 20
1372.210506920831
 10
509.1541095599927
 20
1371.986148592023
 10
509.0345245791256
 20
1371.763247568725
 10
508.8633905577927
 20
1371.54260992961
 10
508.6413271760262
 20
1371.325033461275
 10
508.466411590461
 20
1371.182856946065
  0
LWPOLYLINE
  5
71858
330
18
100
AcDbEntity
  8
0
  6
Continuous
 62
   252
370
    15
100
AcDbPolyline
 90
       16
 70
   128
 43
0.0
 10
479.006082850541
 20
1374.488811204762
 10
478.6652294596916
 20
1374.270887235606
 10
478.3573470261446
 20
1374.038769807559
 10
478.0993365173803
 20
1373.802615165495
 10
477.891980587384
 20
1373.563140505004
 10
477.7359102864637
 20
1373.321073015084
 10
477.6315993761118
 20
1373.077147916243
 10
477.579364329005
 20
1372.832105977475
 10
477.579364329005
 20
1372.58669137044
 10
477.6315993761118
 20
1372.341649431673
 10
477.7359102864637
 20
1372.097724332831
 10
477.891980587384
 20
1371.855656842911
 10
478.0993365173803
 20
1371.616182182421
 10
478.3573470261446
 20
1371.380027540357
 10
478.6652294596916
 20
1371.147910112309
 10
478.8969282026906
 20
1370.996258620595
  0
LWPOLYLINE
  5
71859
330
18
100
AcDbEntity
  8
0
  6
Continuous
 62
   252
370
    15
100
AcDbPolyline
 90
       15
 70
   128
 43
0.0
 10
511.0879897591494
 20
1371.290158972432
 10
511.2006502420435
 20
1371.380027540357
 10
511.4586607508078
 20
1371.616182182421
 10
511.6660166808041
 20
1371.855656842911
 10
511.8220869817243
 20
1372.097724332831
 10
511.9263978920764
 20
1372.341649431673
 10
511.9786329391831
 20
1372.58669137044
 10
511.9786329391831
 20
1372.832105977475
 10
511.9263978920764
 20
1373.077147916243
 10
511.8220869817243
 20
1373.321073015084
 10
511.6660166808041
 20
1373.563140505004
 10
511.4586607508078
 20
1373.802615165495
 10
511.2006502420435
 20
1374.038769807559
 10
510.8927678084966
 20
1374.270887235606
 10
510.702527933698
 20
1374.396561385624
  0
LWPOLYLINE
  5
7185A
330
18
100
AcDbEntity
  8
0
  6
Continuous
 62
   252
370
    15
100
AcDbPolyline
 90
       27
 70
   128
 43
0.0
 10
494.7789986340941
 20
1377.283424432041
 10
495.7317809044535
 20
1377.276626953038
 10
496.6816695580578
 20
1377.256255115934
 10
497.6257800388399
 20
1377.222371210928
 10
498.5612446092665
 20
1377.175077747082
 10
499.4852230691905
 20
1377.114518433274
 10
500.39490861865
 20
1377.040877197251
 10
501.2875387543829
 20
1376.954377695152
 10
502.1604026131296
 20
1376.855282821033
 10
503.0108499731018
 20
1376.74389323545
 10
503.8362969391196
 20
1376.620547120217
 10
504.6342373128883
 20
1376.485619687936
 10
505.4022473306129
 20
1376.339519993913
 10
506.1379951382274
 20
1376.182692162345
 10
506.839246476534
 20
1376.015612198236
 10
507.5038703663396
 20
1375.838787742165
 10
508.1298495312098
 20
1375.652755863149
 10
508.7152832400367
 20
1375.458081341985
 10
509.2583920446552
 20
1375.255355445067
 10
509.7575282025945
 20
1375.045193962486
 10
510.2111747295559
 20
1374.828234878284
 10
510.6179539271197
 20
1374.605137266881
 10
510.9766311728363
 20
1374.376578718092
 10
511.2861168152736
 20
1374.143253252611
 10
511.5454709116304
 20
1373.905869605351
 10
511.7539051227834
 20
1373.665148589147
 10
511.8636984011254
 20
1373.504088089678
  0
LWPOLYLINE
  5
7185B
330
18
100
AcDbEntity
  8
0
  6
Continuous
 62
   252
370
    15
100
AcDbPolyline
 90
       27
 70
   128
 43
0.0
 10
477.7024703052837
 20
1373.517372761579
 10
477.8040921454048
 20
1373.665148589147
 10
478.0125263565578
 20
1373.905869605351
 10
478.2718804529146
 20
1374.143253252611
 10
478.5813660953518
 20
1374.376578718092
 10
478.9400433410686
 20
1374.605137266881
 10
479.3468225386322
 20
1374.828234878284
 10
479.8004690655936
 20
1375.045193962486
 10
480.299605223533
 20
1375.255355445067
 10
480.8427140281514
 20
1375.458081341985
 10
481.4281477369785
 20
1375.652755863149
 10
482.0541269018485
 20
1375.838787742165
 10
482.7187507916541
 20
1376.015612198236
 10
483.4200021299608
 20
1376.182692162345
 10
484.1557499375754
 20
1376.339519993913
 10
484.9237599552999
 20
1376.485619687936
 10
485.7217003290686
 20
1376.620547120217
 10
486.5471472950864
 20
1376.74389323545
 10
487.3975946550584
 20
1376.855282821033
 10
488.2704585138052
 20
1376.954377695152
 10
489.1630886495381
 20
1377.040877197251
 10
490.0727741989977
 20
1377.114518433274
 10
490.9967526589216
 20
1377.175077747082
 10
491.9322172293482
 20
1377.222371210928
 10
492.8763277101305
 20
1377.256255115934
 10
493.8262163637347
 20
1377.276626953038
 10
494.7789986340941
 20
1377.283424432041
  0
ARC
  5
7185C
330
18
100
AcDbEntity
  8
0
  6
Continuous
 62
   252
370
    15
100
AcDbCircle
 10
483.2872499691811
 20
1373.812086874651
 30
0.0
 40
3.27970897292132
100
AcDbArc
 50
214.1105483821233
 51
247.8195708518309
  0
LWPOLYLINE
  5
7185D
330
18
100
AcDbEntity
  8
0
  6
Continuous
 62
   252
370
    15
100
AcDbPolyline
 90
       42
 70
   128
 43
0.0
 10
509.0022320482802
 20
1372.003463645711
 10
508.9223217498331
 20
1371.865931091496
 10
508.7525938526097
 20
1371.647045732014
 10
508.5323440298361
 20
1371.4311962839
 10
508.2623682008196
 20
1371.21916315258
 10
507.9436432617574
 20
1371.011713010207
 10
507.5773214005993
 20
1370.809595791508
 10
507.1647263069548
 20
1370.613542302727
 10
506.7073493820022
 20
1370.424261524012
 10
506.2068459483958
 20
1370.242437421342
 10
505.6650248275137
 20
1370.06872796557
 10
505.0838445493654
 20
1369.903760472929
 10
504.4654067199315
 20
1369.748132095498
 10
503.8119474934559
 20
1369.602405161707
 10
503.1258290447398
 20
1369.467106685854
 10
502.4095329364804
 20
1369.342725670506
 10
501.6656478014722
 20
1369.229711880311
 10
500.8968636574691
 20
1369.1284738801
 10
500.1059605369085
 20
1369.039378053943
 10
499.2957975903973
 20
1368.96274590754
 10
498.469303848362
 20
1368.898855049167
 10
497.6294675614161
 20
1368.847936246837
 10
496.779325303845
 20
1368.810173673531
 10
495.9219509586522
 20
1368.785703926255
 10
495.0604441696216
 20
1368.774615045091
 10
494.1979198001255
 20
1368.776947739379
 10
493.3374962667472
 20
1368.792693180588
 10
492.4822846427671
 20
1368.821794473735
 10
491.6353767549048
 20
1368.864146657386
 10
490.7998351158876
 20
1368.919596213184
 10
489.9786799552294
 20
1368.98794302774
 10
489.1748805730841
 20
1369.068939656928
 10
488.3913430224461
 20
1369.162293533014
 10
487.6309003970397
 20
1369.267667209894
 10
486.8963014610443
 20
1369.384679344042
 10
486.1902030689088
 20
1369.512906901643
 10
485.5151583213162
 20
1369.651886630015
 10
484.8736066161908
 20
1369.80111579332
 10
484.2678684373222
 20
1369.960054870171
 10
483.7001335103285
 20
1370.128129270291
 10
483.1724551175177
 20
1370.304731296409
 10
482.6867396751354
 20
1370.48922235139
  0
LINE
  5
7185E
330
18
100
AcDbEntity
  8
0
  6
Continuous
 62
   252
370
    15
100
AcDbLine
 10
484.2972994487534
 20
1370.83633352327
 30
0.0
 11
483.9144092006829
 21
1370.946733087108
 31
0.0
  0
LINE
  5
7185F
330
18
100
AcDbEntity
  8
0
  6
Continuous
 62
   252
370
    15
100
AcDbLine
 10
483.6636292398156
 20
1380.978072771111
 30
0.0
 11
484.1119667954932
 21
1380.875410679675
 31
0.0
  0
LINE
  5
71860
330
18
100
AcDbEntity
  8
0
  6
Continuous
 62
   252
370
    15
100
AcDbLine
 10
505.446030472695
 20
1380.875410679675
 30
0.0
 11
505.8943680283725
 21
1380.978072771111
 31
0.0
  0
LINE
  5
71861
330
18
100
AcDbEntity
  8
0
  6
Continuous
 62
   252
370
    15
100
AcDbLine
 10
506.0428894136729
 20
1383.38588953254
 30
0.0
 11
505.4509917030435
 21
1383.250354402988
 31
0.0
  0
LINE
  5
71862
330
18
100
AcDbEntity
  8
0
  6
Continuous
 62
   252
370
    15
100
AcDbLine
 10
484.1070055651447
 20
1383.250354402988
 30
0.0
 11
483.5151078545153
 21
1383.38588953254
 31
0.0
  0
LINE
  5
71863
330
18
100
AcDbEntity
  8
0
  6
Continuous
 62
   252
370
    15
100
AcDbLine
 10
480.8394213857792
 20
1379.839799631335
 30
0.0
 11
481.1638703111925
 21
1379.791317503779
 31
0.0
  0
LINE
  5
71864
330
18
100
AcDbEntity
  8
0
  6
Continuous
 62
   252
370
    15
100
AcDbLine
 10
508.3941269569956
 20
1379.791317503779
 30
0.0
 11
508.718575882409
 21
1379.839799631335
 31
0.0
  0
LINE
  5
71865
330
18
100
AcDbEntity
  8
0
  6
Continuous
 62
   252
370
    15
100
AcDbLine
 10
508.7351821702408
 20
1382.245491674334
 30
0.0
 11
508.0434771260063
 21
1382.142130657465
 31
0.0
  0
LINE
  5
71866
330
18
100
AcDbEntity
  8
0
  6
Continuous
 62
   252
370
    15
100
AcDbLine
 10
481.514520142182
 20
1382.142130657465
 30
0.0
 11
480.8228150979474
 21
1382.245491674334
 31
0.0
  0
LINE
  5
71867
330
18
100
AcDbEntity
  8
0
  6
Continuous
 62
   252
370
    15
100
AcDbLine
 10
479.932895825474
 20
1376.454843851128
 30
0.0
 11
479.9176046995451
 21
1376.454843851128
 31
0.0
  0
LINE
  5
71868
330
18
100
AcDbEntity
  8
0
  6
Continuous
 62
   252
370
    15
100
AcDbLine
 10
509.6403925686431
 20
1376.454843851128
 30
0.0
 11
509.6214231584872
 21
1376.454843851128
 31
0.0
  0
LINE
  5
71869
330
18
100
AcDbEntity
  8
0
  6
Continuous
 62
   252
370
    15
100
AcDbLine
 10
479.7798035892949
 20
1381.254991369914
 30
0.0
 11
479.7725171375417
 21
1381.254829944242
 31
0.0
  0
LINE
  5
7186A
330
18
100
AcDbEntity
  8
0
  6
Continuous
 62
   252
370
    15
100
AcDbLine
 10
479.8142820556662
 20
1379.790528242998
 30
0.0
 11
479.6607321658856
 21
1379.798288845291
 31
0.0
  0
LINE
  5
7186B
330
18
100
AcDbEntity
  8
0
  6
Continuous
 62
   252
370
    15
100
AcDbLine
 10
479.7155776388154
 20
1380.180714638913
 30
0.0
 11
479.7050648712989
 21
1380.180572033601
 31
0.0
  0
LINE
  5
7186C
330
18
100
AcDbEntity
  8
0
  6
Continuous
 62
   252
370
    15
100
AcDbLine
 10
479.742429492682
 20
1380.711134679606
 30
0.0
 11
479.7050648712989
 21
1380.710627836048
 31
0.0
  0
LINE
  5
7186D
330
18
100
AcDbEntity
  8
0
  6
Continuous
 62
   252
370
    15
100
AcDbLine
 10
479.6690173068646
 20
1380.084967759322
 30
0.0
 11
479.6518083944146
 21
1380.084734355013
 31
0.0
  0
LINE
  5
7186E
330
18
100
AcDbEntity
  8
0
  6
Continuous
 62
   252
370
    15
100
AcDbLine
 10
479.6644606688307
 20
1380.745662042551
 30
0.0
 11
479.6605275009208
 21
1380.745861257654
 31
0.0
  0
LINE
  5
7186F
330
18
100
AcDbEntity
  8
0
  6
Continuous
 62
   252
370
    15
100
AcDbLine
 10
479.669686258092
 20
1380.624093938685
 30
0.0
 11
479.6518083944146
 21
1380.623851460607
 31
0.0
  0
LINE
  5
71870
330
18
100
AcDbEntity
  8
0
  6
Continuous
 62
   252
370
    15
100
AcDbLine
 10
479.7236420069391
 20
1379.427877964805
 30
0.0
 11
479.5710168995916
 21
1379.435680449182
 31
0.0
  0
LINE
  5
71871
330
18
100
AcDbEntity
  8
0
  6
Continuous
 62
   252
370
    15
100
AcDbLine
 10
479.7215517712346
 20
1379.1969252722
 30
0.0
 11
479.5816973786764
 21
1379.204016046439
 31
0.0
  0
LWPOLYLINE
  5
71872
330
18
100
AcDbEntity
  8
0
  6
Continuous
 62
   252
370
    15
100
AcDbPolyline
 90
        3
 70
   128
 43
0.0
 10
506.5941829218341
 20
1374.54099934531
 10
506.5732398213008
 20
1373.633815693581
 10
506.5362115705773
 20
1372.031195244367
  0
LINE
  5
71873
330
18
100
AcDbEntity
  8
0
  6
Continuous
 62
   252
370
    15
100
AcDbLine
 10
482.5766611923747
 20
1370.376337703337
 30
0.0
 11
482.5748997471459
 21
1370.572025493814
 31
0.0
  0
LWPOLYLINE
  5
71874
330
18
100
AcDbEntity
  8
0
  6
Continuous
 62
   252
370
    15
100
AcDbPolyline
 90
        3
 70
   128
 43
0.0
 10
502.9561409434817
 20
1375.049269371537
 10
502.9610879609854
 20
1372.92801849427
 10
502.9655176309395
 20
1371.00935226145
  0
LWPOLYLINE
  5
71875
330
18
100
AcDbEntity
  8
0
  6
Continuous
 62
   252
370
    15
100
AcDbPolyline
 90
        4
 70
   128
 43
0.0
 10
502.6444215156078
 20
1370.954684728167
 10
502.6436838689642
 20
1371.309081692867
 10
502.6395929384772
 20
1373.262290376121
 10
502.6357938450696
 20
1375.057586584193
  0
LINE
  5
71876
330
18
100
AcDbEntity
  8
0
  6
Continuous
 62
   252
370
    15
100
AcDbLine
 10
497.8515752398822
 20
1374.754888288949
 30
0.0
 11
498.0040809593335
 21
1374.560880076699
 31
0.0
  0
LINE
  5
71877
330
18
100
AcDbEntity
  8
0
  6
Continuous
 62
   252
370
    15
100
AcDbLine
 10
491.5545786274209
 20
1374.561722711011
 30
0.0
 11
491.706422028306
 21
1374.754888288949
 31
0.0
  0
LINE
  5
71878
330
18
100
AcDbEntity
  8
0
  6
Continuous
 62
   252
370
    15
100
AcDbLine
 10
504.5636250574912
 20
1384.266330820994
 30
0.0
 11
506.2183915159657
 21
1384.694615895644
 31
0.0
  0
LINE
  5
71879
330
18
100
AcDbEntity
  8
0
  6
Continuous
 62
   252
370
    15
100
AcDbLine
 10
507.341456399036
 20
1384.278431038467
 30
0.0
 11
507.1975968268209
 21
1384.312234327592
 31
0.0
  0
LINE
  5
7187A
330
18
100
AcDbEntity
  8
0
  6
Continuous
 62
   252
370
    15
100
AcDbLine
 10
506.1183596194132
 20
1385.015847668691
 30
0.0
 11
506.2629326764358
 21
1384.981875945136
 31
0.0
  0
LINE
  5
7187B
330
18
100
AcDbEntity
  8
0
  6
Continuous
 62
   252
370
    15
100
AcDbLine
 10
506.058166326757
 20
1387.211073572891
 30
0.0
 11
507.7129327852315
 21
1387.639358647541
 31
0.0
  0
LINE
  5
7187C
330
18
100
AcDbEntity
  8
0
  6
Continuous
 62
   252
370
    15
100
AcDbLine
 10
507.4428527286867
 20
1387.306710843769
 30
0.0
 11
507.3794662835717
 21
1387.500646799206
 31
0.0
  0
LINE
  5
7187D
330
18
100
AcDbEntity
  8
0
  6
Continuous
 62
   252
370
    15
100
AcDbLine
 10
508.4797972476674
 20
1387.642260941393
 30
0.0
 11
508.4167234851374
 21
1387.835238926414
 31
0.0
  0
LINE
  5
7187E
330
18
100
AcDbEntity
  8
0
  6
Continuous
 62
   252
370
    15
100
AcDbLine
 10
509.0997264782795
 20
1388.060060356092
 30
0.0
 11
509.1628002408094
 21
1387.867082125834
 31
0.0
  0
LINE
  5
7187F
330
18
100
AcDbEntity
  8
0
  6
Continuous
 62
   252
370
    15
100
AcDbLine
 10
508.0570200720281
 20
1387.742140832513
 30
0.0
 11
508.1200938345581
 21
1387.549162602255
 31
0.0
  0
LINE
  5
71880
330
18
100
AcDbEntity
  8
0
  6
Continuous
 62
   252
370
    15
100
AcDbLine
 10
526.6209633497356
 20
1394.980169057809
 30
0.0
 11
526.5578905347286
 21
1395.17314704283
 31
0.0
  0
LINE
  5
71881
330
18
100
AcDbEntity
  8
0
  6
Continuous
 62
   252
370
    15
100
AcDbLine
 10
505.9207053772583
 20
1387.116528567497
 30
0.0
 11
505.8987995933725
 21
1387.183552269107
 31
0.0
  0
LINE
  5
71882
330
18
100
AcDbEntity
  8
0
  6
Continuous
 62
   252
370
    15
100
AcDbLine
 10
505.5390961802632
 20
1387.090454175206
 30
0.0
 11
505.6021689952702
 21
1386.897475944947
 31
0.0
  0
LINE
  5
71883
330
18
100
AcDbEntity
  8
0
  6
Continuous
 62
   252
370
    15
100
AcDbLine
 10
511.7900796552975
 20
1389.429205867927
 30
0.0
 11
511.7655122793472
 21
1389.504367733088
 31
0.0
  0
LINE
  5
71884
330
18
100
AcDbEntity
  8
0
  6
Continuous
 62
   252
370
    15
100
AcDbLine
 10
517.8313061770918
 20
1391.794032423111
 30
0.0
 11
517.7788797303424
 21
1391.954430524451
 31
0.0
  0
VIEWPORT
  5
2552
330
15
100
AcDbEntity
 67
     1
  8
0
100
AcDbViewport
 10
0.0
 20
0.0
 30
0.0
 40
0.0
 41
0.0
 68
     1
 69
     1
 12
0.0
 22
0.0
 13
0.0
 23
0.0
 14
10.0
 24
10.0
 15
10.0
 25
10.0
 16
0.0
 26
0.0
 36
1.0
 17
0.0
 27
0.0
 37
0.0
 42
50.0
 43
0.0
 44
0.0
 45
0.0
 50
0.0
 51
0.0
 72
   100
 90
    32800
  1

281
     0
 71
     1
 74
     0
110
0.0
120
0.0
130
0.0
111
1.0
121
0.0
131
0.0
112
0.0
122
1.0
132
0.0
 79
     0
146
0.0
  0
VIEWPORT
  5
2554
330
15
100
AcDbEntity
 67
     1
  8
寸法線
100
AcDbViewport
 10
0.0
 20
0.0
 30
0.0
 40
1.0
 41
1.0
 68
     2
 69
     2
 12
1256.815818880517
 22
261.4143746979846
 13
0.0
 23
0.0
 14
1.0
 24
1.0
 15
20.0
 25
20.0
 16
0.0
 26
0.0
 36
1.0
 17
0.0
 27
0.0
 37
0.0
 42
50.0
 43
0.0
 44
0.0
 45
2358.864912513419
 50
0.0
 51
0.0
 72
   100
 90
    32768
  1

281
     0
 71
     1
 74
     0
110
0.0
120
0.0
130
0.0
111
1.0
121
0.0
131
0.0
112
0.0
122
1.0
132
0.0
 79
     0
146
0.0
  0
ENDSEC
  0
SECTION
  2
OBJECTS
  0
DICTIONARY
  5
C
330
0
100
AcDbDictionary
281
     1
  3
ACAD_DETAILVIEWSTYLE
350
713A4
  3
ACAD_GROUP
350
D
  3
ACAD_IMAGE_VARS
350
70E88
  3
ACAD_LAYOUT
350
353
  3
ACAD_MLINESTYLE
350
E
  3
ACAD_PLOTSETTINGS
350
354
  3
ACAD_PLOTSTYLENAME
350
351
  3
ACAD_SCALELIST
350
22993
  3
ACAD_SECTIONVIEWSTYLE
350
713A5
  3
AcadDim
350
3A8A5
  3
AcDbVariableDictionary
350
256B
  3
AEC_DISP_REPS
350
70E94
  3
AEC_DISPLAY_PROPS_DEFAULTS
350
70E96
  3
AEC_VARS
350
70E92
  3
APPDATA
350
70E87
  3
DWGPROPS
350
71885
  0
DICTIONARY
  5
28C1
330
2
100
AcDbDictionary
280
     1
281
     1
  3
ACAD_LAYERFILTERS
360
3E3B8
  3
ACAD_LAYERSTATES
360
28C2
  3
ACLYDICTIONARY
360
3E3B7
  0
DICTIONARY
  5
229C2
330
F
100
AcDbDictionary
280
     1
281
     1
  3
ADSK_XREC_LAYER_RECONCILED
360
229C3
  0
DICTIONARY
  5
229C8
330
34
100
AcDbDictionary
280
     1
281
     1
  3
ADSK_XREC_LAYER_RECONCILED
360
229C9
  0
DICTIONARY
  5
229D0
330
2F4
100
AcDbDictionary
280
     1
281
     1
  3
ADSK_XREC_LAYER_RECONCILED
360
229D1
  0
DICTIONARY
  5
229D4
330
305
100
AcDbDictionary
280
     1
281
     1
  3
ADSK_XREC_LAYER_RECONCILED
360
229D5
  0
DICTIONARY
  5
2F65E
330
18
100
AcDbDictionary
280
     1
281
     1
  3
ACAD_SORTENTS
360
2F65F
  0
DICTIONARY
  5
713A4
102
{ACAD_REACTORS
330
C
102
}
330
C
100
AcDbDictionary
281
     1
  0
DICTIONARY
  5
D
102
{ACAD_REACTORS
330
C
102
}
330
C
100
AcDbDictionary
281
     1
  0
RASTERVARIABLES
  5
70E88
102
{ACAD_REACTORS
330
C
102
}
330
C
100
AcDbRasterVariables
 90
        0
 70
     1
 71
     1
 72
     0
  0
DICTIONARY
  5
353
102
{ACAD_REACTORS
330
C
102
}
330
C
100
AcDbDictionary
281
     1
  3
Model
350
355
  3
ﾚｲｱｳﾄ1
350
356
  0
DICTIONARY
  5
E
102
{ACAD_REACTORS
330
C
102
}
330
C
100
AcDbDictionary
281
     1
  3
STANDARD
350
1B
  0
DICTIONARY
  5
354
102
{ACAD_REACTORS
330
C
102
}
330
C
100
AcDbDictionary
281
     1
  0
ACDBDICTIONARYWDFLT
  5
351
102
{ACAD_REACTORS
330
C
102
}
330
C
100
AcDbDictionary
281
     1
  3
Normal
350
352
100
AcDbDictionaryWithDefault
340
352
  0
DICTIONARY
  5
22993
102
{ACAD_REACTORS
330
C
102
}
330
C
100
AcDbDictionary
281
     1
  3
A0
350
22994
  3
A1
350
2F83E
  3
A2
350
2F83F
  3
A3
350
2F840
  3
A4
350
2F841
  3
A5
350
2F842
  3
A6
350
2F843
  3
A7
350
2F844
  3
A8
350
2F845
  3
A9
350
2F846
  3
B0
350
2F847
  3
B1
350
2F848
  3
B2
350
2F849
  3
B3
350
2F84A
  3
B4
350
2F84B
  3
B5
350
2F84C
  3
B6
350
2F84D
  3
B7
350
2F84E
  3
B8
350
2F84F
  3
B9
350
2F850
  3
C0
350
2F851
  3
C1
350
2F852
  3
C2
350
2F853
  3
C3
350
2F854
  3
C4
350
2F855
  3
C5
350
2F856
  3
C6
350
2F857
  3
C7
350
2F858
  3
C8
350
2F859
  3
C9
350
2F85A
  3
D0
350
2F85B
  3
D1
350
2F85C
  3
D2
350
2F85D
  0
DICTIONARY
  5
713A5
102
{ACAD_REACTORS
330
C
102
}
330
C
100
AcDbDictionary
281
     1
  0
XRECORD
  5
3A8A5
102
{ACAD_REACTORS
330
C
102
}
330
C
100
AcDbXrecord
280
     1
 90
   990106
  3

 60
     0
 61
     0
 62
     1
 63
     3
 64
     1
 65
     0
 66
     0
 67
     3
 68
     1
 69
     0
 70
     0
 71
     0
 72
     0
 40
0.0
170
     2
340
0
  0
DICTIONARY
  5
256B
102
{ACAD_REACTORS
330
C
102
}
330
C
100
AcDbDictionary
281
     1
  3
DIMASSOC
350
256C
  3
INDEXCTL
350
2C4AB
  3
PROJECTNAME
350
256D
  3
SORTENTS
350
2C4AA
  0
DICTIONARY
  5
70E94
102
{ACAD_REACTORS
330
C
102
}
330
C
100
AcDbDictionary
281
     1
  0
DICTIONARY
  5
70E96
102
{ACAD_REACTORS
330
C
102
}
330
C
100
AcDbDictionary
281
     1
  0
DICTIONARY
  5
70E92
102
{ACAD_REACTORS
330
C
102
}
330
C
100
AcDbDictionary
281
     1
  0
DICTIONARY
  5
70E87
102
{ACAD_REACTORS
330
C
102
}
330
C
100
AcDbDictionary
281
     1
  0
XRECORD
  5
71885
102
{ACAD_REACTORS
330
C
102
}
330
C
100
AcDbXrecord
280
     1
  1
DWGPROPS COOKIE
  2

  3

  4

  6

  7

  8
SPAX
  9

300
=
301
=
302
=
303
=
304
=
305
=
306
=
307
=
308
=
309
=
 40
0.0
 41
2448636.244629607
 42
2457815.366071134
  1

 90
        0
  0
DICTIONARY
  5
3E3B8
102
{ACAD_REACTORS
330
28C1
102
}
330
28C1
100
AcDbDictionary
281
     1
  0
DICTIONARY
  5
28C2
102
{ACAD_REACTORS
330
28C1
102
}
330
28C1
100
AcDbDictionary
281
     1
  0
DICTIONARY
  5
3E3B7
102
{ACAD_REACTORS
330
28C1
102
}
330
28C1
100
AcDbDictionary
281
     1
1001
ACAD
1000
<All
  0
XRECORD
  5
229C3
102
{ACAD_REACTORS
330
229C2
102
}
330
229C2
100
AcDbXrecord
280
     1
290
     1
  0
XRECORD
  5
229C9
102
{ACAD_REACTORS
330
229C8
102
}
330
229C8
100
AcDbXrecord
280
     1
290
     1
  0
XRECORD
  5
229D1
102
{ACAD_REACTORS
330
229D0
102
}
330
229D0
100
AcDbXrecord
280
     1
290
     1
  0
XRECORD
  5
229D5
102
{ACAD_REACTORS
330
229D4
102
}
330
229D4
100
AcDbXrecord
280
     1
290
     1
  0
SORTENTSTABLE
  5
2F65F
102
{ACAD_REACTORS
330
2F65E
102
}
330
2F65E
100
AcDbSortentsTable
330
18
331
0
  5
6DB5E
  0
LAYOUT
  5
355
102
{ACAD_REACTORS
330
353
102
}
330
353
100
AcDbPlotSettings
  1

  2
JUST PDF 2
  4
A4
  6

 40
3.174999952316284
 41
3.174999952316284
 42
3.175003051757812
 43
3.17498779296875
 44
209.8886566162109
 45
297.0530090332031
 46
14.27171755861582
 47
9.85517307462564
 48
0.0
 49
0.0
140
1049.971310969431
141
1625.956050832001
142
1.0
143
6.0
 70
 11940
 72
     1
 73
     0
 74
     4
  7
spax form.ctb
 75
     0
147
0.0753081251755734
148
0.0
149
0.0
100
AcDbLayout
  1
Model
 70
     1
 71
     0
 10
0.0
 20
0.0
 11
12.0
 21
9.0
 12
0.0
 22
0.0
 32
0.0
 14
418.8329629100328
 24
1321.468008216518
 34
0.0
 15
589.8329629100328
 25
1395.5290259301
 35
0.0
146
0.0
 13
0.0
 23
0.0
 33
0.0
 16
1.0
 26
0.0
 36
0.0
 17
0.0
 27
1.0
 37
0.0
 76
     0
330
18
331
6E6DB
1001
ACAD_PSEXT
1000
JUST PDF 2
1000
JUST PDF 2
1000
JUST PDF 2 Port:
1000

1070
     0
  0
LAYOUT
  5
356
102
{ACAD_REACTORS
330
353
102
}
330
353
100
AcDbPlotSettings
  1

  2
Canon LASER SHOT LBP-750
  4

  6

 40
0.0
 41
0.0
 42
0.0
 43
0.0
 44
0.0
 45
0.0
 46
0.0
 47
0.0
 48
0.0
 49
0.0
140
0.0
141
0.0
142
1.0
143
1.0
 70
   688
 72
     0
 73
     1
 74
     5
  7
spax form.ctb
 75
    16
147
1.0
148
0.0
149
0.0
100
AcDbLayout
  1
ﾚｲｱｳﾄ1
 70
     0
 71
     1
 10
0.0
 20
0.0
 11
0.0
 21
0.0
 12
0.0
 22
0.0
 32
0.0
 14
0.0
 24
0.0
 34
0.0
 15
0.0
 25
0.0
 35
0.0
146
0.0
 13
0.0
 23
0.0
 33
0.0
 16
1.0
 26
0.0
 36
0.0
 17
0.0
 27
1.0
 37
0.0
 76
     0
330
15
331
2552
  0
MLINESTYLE
  5
1B
102
{ACAD_REACTORS
330
E
102
}
330
E
100
AcDbMlineStyle
  2
STANDARD
 70
     0
  3

 62
     0
 51
90.0
 52
90.0
 71
     2
 49
0.5
 62
   256
  6
BYLAYER
 49
-0.5
 62
   256
  6
BYLAYER
  0
ACDBPLACEHOLDER
  5
352
102
{ACAD_REACTORS
330
351
102
}
330
351
  0
SCALE
  5
22994
102
{ACAD_REACTORS
330
22993
102
}
330
22993
100
AcDbScale
 70
     0
300
1:1
140
1.0
141
1.0
290
     1
1001
ACAD
1000
AcRTDxfName
1000
SCALE
  0
SCALE
  5
2F83E
102
{ACAD_REACTORS
330
22993
102
}
330
22993
100
AcDbScale
 70
     0
300
1:2
140
1.0
141
2.0
290
     0
1001
ACAD
1000
AcRTDxfName
1000
SCALE
  0
SCALE
  5
2F83F
102
{ACAD_REACTORS
330
22993
102
}
330
22993
100
AcDbScale
 70
     0
300
1:4
140
1.0
141
4.0
290
     0
1001
ACAD
1000
AcRTDxfName
1000
SCALE
  0
SCALE
  5
2F840
102
{ACAD_REACTORS
330
22993
102
}
330
22993
100
AcDbScale
 70
     0
300
1:5
140
1.0
141
5.0
290
     0
1001
ACAD
1000
AcRTDxfName
1000
SCALE
  0
SCALE
  5
2F841
102
{ACAD_REACTORS
330
22993
102
}
330
22993
100
AcDbScale
 70
     0
300
1:8
140
1.0
141
8.0
290
     0
1001
ACAD
1000
AcRTDxfName
1000
SCALE
  0
SCALE
  5
2F842
102
{ACAD_REACTORS
330
22993
102
}
330
22993
100
AcDbScale
 70
     0
300
1:10
140
1.0
141
10.0
290
     0
1001
ACAD
1000
AcRTDxfName
1000
SCALE
  0
SCALE
  5
2F843
102
{ACAD_REACTORS
330
22993
102
}
330
22993
100
AcDbScale
 70
     0
300
1:16
140
1.0
141
16.0
290
     0
1001
ACAD
1000
AcRTDxfName
1000
SCALE
  0
SCALE
  5
2F844
102
{ACAD_REACTORS
330
22993
102
}
330
22993
100
AcDbScale
 70
     0
300
1:20
140
1.0
141
20.0
290
     0
1001
ACAD
1000
AcRTDxfName
1000
SCALE
  0
SCALE
  5
2F845
102
{ACAD_REACTORS
330
22993
102
}
330
22993
100
AcDbScale
 70
     0
300
1:30
140
1.0
141
30.0
290
     0
1001
ACAD
1000
AcRTDxfName
1000
SCALE
  0
SCALE
  5
2F846
102
{ACAD_REACTORS
330
22993
102
}
330
22993
100
AcDbScale
 70
     0
300
1:40
140
1.0
141
40.0
290
     0
1001
ACAD
1000
AcRTDxfName
1000
SCALE
  0
SCALE
  5
2F847
102
{ACAD_REACTORS
330
22993
102
}
330
22993
100
AcDbScale
 70
     0
300
1:50
140
1.0
141
50.0
290
     0
1001
ACAD
1000
AcRTDxfName
1000
SCALE
  0
SCALE
  5
2F848
102
{ACAD_REACTORS
330
22993
102
}
330
22993
100
AcDbScale
 70
     0
300
1:100
140
1.0
141
100.0
290
     0
1001
ACAD
1000
AcRTDxfName
1000
SCALE
  0
SCALE
  5
2F849
102
{ACAD_REACTORS
330
22993
102
}
330
22993
100
AcDbScale
 70
     0
300
2:1
140
2.0
141
1.0
290
     0
1001
ACAD
1000
AcRTDxfName
1000
SCALE
  0
SCALE
  5
2F84A
102
{ACAD_REACTORS
330
22993
102
}
330
22993
100
AcDbScale
 70
     0
300
4:1
140
4.0
141
1.0
290
     0
1001
ACAD
1000
AcRTDxfName
1000
SCALE
  0
SCALE
  5
2F84B
102
{ACAD_REACTORS
330
22993
102
}
330
22993
100
AcDbScale
 70
     0
300
8:1
140
8.0
141
1.0
290
     0
1001
ACAD
1000
AcRTDxfName
1000
SCALE
  0
SCALE
  5
2F84C
102
{ACAD_REACTORS
330
22993
102
}
330
22993
100
AcDbScale
 70
     0
300
10:1
140
10.0
141
1.0
290
     0
1001
ACAD
1000
AcRTDxfName
1000
SCALE
  0
SCALE
  5
2F84D
102
{ACAD_REACTORS
330
22993
102
}
330
22993
100
AcDbScale
 70
     0
300
100:1
140
100.0
141
1.0
290
     0
1001
ACAD
1000
AcRTDxfName
1000
SCALE
  0
SCALE
  5
2F84E
102
{ACAD_REACTORS
330
22993
102
}
330
22993
100
AcDbScale
 70
     0
300
1/128" = 1'-0"
140
0.0078125
141
12.0
290
     0
1001
ACAD
1000
AcRTDxfName
1000
SCALE
  0
SCALE
  5
2F84F
102
{ACAD_REACTORS
330
22993
102
}
330
22993
100
AcDbScale
 70
     0
300
1/64" = 1'-0"
140
0.015625
141
12.0
290
     0
1001
ACAD
1000
AcRTDxfName
1000
SCALE
  0
SCALE
  5
2F850
102
{ACAD_REACTORS
330
22993
102
}
330
22993
100
AcDbScale
 70
     0
300
1/32" = 1'-0"
140
0.03125
141
12.0
290
     0
1001
ACAD
1000
AcRTDxfName
1000
SCALE
  0
SCALE
  5
2F851
102
{ACAD_REACTORS
330
22993
102
}
330
22993
100
AcDbScale
 70
     0
300
1/16" = 1'-0"
140
0.0625
141
12.0
290
     0
1001
ACAD
1000
AcRTDxfName
1000
SCALE
  0
SCALE
  5
2F852
102
{ACAD_REACTORS
330
22993
102
}
330
22993
100
AcDbScale
 70
     0
300
3/32" = 1'-0"
140
0.09375
141
12.0
290
     0
1001
ACAD
1000
AcRTDxfName
1000
SCALE
  0
SCALE
  5
2F853
102
{ACAD_REACTORS
330
22993
102
}
330
22993
100
AcDbScale
 70
     0
300
1/8" = 1'-0"
140
0.125
141
12.0
290
     0
1001
ACAD
1000
AcRTDxfName
1000
SCALE
  0
SCALE
  5
2F854
102
{ACAD_REACTORS
330
22993
102
}
330
22993
100
AcDbScale
 70
     0
300
3/16" = 1'-0"
140
0.1875
141
12.0
290
     0
1001
ACAD
1000
AcRTDxfName
1000
SCALE
  0
SCALE
  5
2F855
102
{ACAD_REACTORS
330
22993
102
}
330
22993
100
AcDbScale
 70
     0
300
1/4" = 1'-0"
140
0.25
141
12.0
290
     0
1001
ACAD
1000
AcRTDxfName
1000
SCALE
  0
SCALE
  5
2F856
102
{ACAD_REACTORS
330
22993
102
}
330
22993
100
AcDbScale
 70
     0
300
3/8" = 1'-0"
140
0.375
141
12.0
290
     0
1001
ACAD
1000
AcRTDxfName
1000
SCALE
  0
SCALE
  5
2F857
102
{ACAD_REACTORS
330
22993
102
}
330
22993
100
AcDbScale
 70
     0
300
1/2" = 1'-0"
140
0.5
141
12.0
290
     0
1001
ACAD
1000
AcRTDxfName
1000
SCALE
  0
SCALE
  5
2F858
102
{ACAD_REACTORS
330
22993
102
}
330
22993
100
AcDbScale
 70
     0
300
3/4" = 1'-0"
140
0.75
141
12.0
290
     0
1001
ACAD
1000
AcRTDxfName
1000
SCALE
  0
SCALE
  5
2F859
102
{ACAD_REACTORS
330
22993
102
}
330
22993
100
AcDbScale
 70
     0
300
1" = 1'-0"
140
1.0
141
12.0
290
     0
1001
ACAD
1000
AcRTDxfName
1000
SCALE
  0
SCALE
  5
2F85A
102
{ACAD_REACTORS
330
22993
102
}
330
22993
100
AcDbScale
 70
     0
300
1-1/2" = 1'-0"
140
1.5
141
12.0
290
     0
1001
ACAD
1000
AcRTDxfName
1000
SCALE
  0
SCALE
  5
2F85B
102
{ACAD_REACTORS
330
22993
102
}
330
22993
100
AcDbScale
 70
     0
300
3" = 1'-0"
140
3.0
141
12.0
290
     0
1001
ACAD
1000
AcRTDxfName
1000
SCALE
  0
SCALE
  5
2F85C
102
{ACAD_REACTORS
330
22993
102
}
330
22993
100
AcDbScale
 70
     0
300
6" = 1'-0"
140
6.0
141
12.0
290
     0
1001
ACAD
1000
AcRTDxfName
1000
SCALE
  0
SCALE
  5
2F85D
102
{ACAD_REACTORS
330
22993
102
}
330
22993
100
AcDbScale
 70
     0
300
1'-0" = 1'-0"
140
12.0
141
12.0
290
     0
1001
ACAD
1000
AcRTDxfName
1000
SCALE
  0
DICTIONARYVAR
  5
256C
102
{ACAD_REACTORS
330
256B
102
}
330
256B
100
DictionaryVariables
280
     0
  1
1
  0
DICTIONARYVAR
  5
2C4AB
102
{ACAD_REACTORS
330
256B
102
}
330
256B
100
DictionaryVariables
280
     0
  1
0
  0
DICTIONARYVAR
  5
256D
102
{ACAD_REACTORS
330
256B
102
}
330
256B
100
DictionaryVariables
280
     0
  1

  0
DICTIONARYVAR
  5
2C4AA
102
{ACAD_REACTORS
330
256B
102
}
330
256B
100
DictionaryVariables
280
     0
  1
127
  0
ENDSEC
  0
EOF
