  0
SECTION
  2
HEADER
  9
$ACADVER
  1
AC1015
  9
$ACADMAINTVER
 70
     6
  9
$DWGCODEPAGE
  3
ANSI_932
  9
$INSBASE
 10
0.0
 20
0.0
 30
0.0
  9
$EXTMIN
 10
39.63953425855703
 20
88.62859459459463
 30
0.0
  9
$EXTMAX
 10
173.6458213584488
 20
201.3991786971963
 30
0.0
  9
$LIMMIN
 10
0.0
 20
0.0
  9
$LIMMAX
 10
210.0
 20
297.0
  9
$ORTHOMODE
 70
     0
  9
$REGENMODE
 70
     1
  9
$FILLMODE
 70
     1
  9
$QTEXTMODE
 70
     0
  9
$MIRRTEXT
 70
     1
  9
$LTSCALE
 40
1.0
  9
$ATTMODE
 70
     1
  9
$TEXTSIZE
 40
3.5
  9
$TRACEWID
 40
1.0
  9
$TEXTSTYLE
  7
Standard
  9
$CLAYER
  8
0
  9
$CELTYPE
  6
ByLayer
  9
$CECOLOR
 62
   256
  9
$CELTSCALE
 40
1.0
  9
$DISPSILH
 70
     0
  9
$DIMSCALE
 40
1.0
  9
$DIMASZ
 40
3.302
  9
$DIMEXO
 40
1.0
  9
$DIMDLI
 40
3.75
  9
$DIMRND
 40
0.0
  9
$DIMDLE
 40
0.0
  9
$DIMEXE
 40
1.0
  9
$DIMTP
 40
0.0
  9
$DIMTM
 40
0.0
  9
$DIMTXT
 40
3.5
  9
$DIMCEN
 40
2.5
  9
$DIMTSZ
 40
0.0
  9
$DIMTOL
 70
     0
  9
$DIMLIM
 70
     0
  9
$DIMTIH
 70
     1
  9
$DIMTOH
 70
     1
  9
$DIMSE1
 70
     0
  9
$DIMSE2
 70
     0
  9
$DIMTAD
 70
     1
  9
$DIMZIN
 70
     0
  9
$DIMBLK
  1

  9
$DIMASO
 70
     1
  9
$DIMSHO
 70
     1
  9
$DIMPOST
  1

  9
$DIMAPOST
  1

  9
$DIMALT
 70
     0
  9
$DIMALTD
 70
     3
  9
$DIMALTF
 40
0.0393700787401575
  9
$DIMLFAC
 40
2.0
  9
$DIMTOFL
 70
     1
  9
$DIMTVP
 40
0.0
  9
$DIMTIX
 70
     0
  9
$DIMSOXD
 70
     0
  9
$DIMSAH
 70
     0
  9
$DIMBLK1
  1

  9
$DIMBLK2
  1

  9
$DIMSTYLE
  2
ISO-25
  9
$DIMCLRD
 70
     0
  9
$DIMCLRE
 70
     0
  9
$DIMCLRT
 70
     0
  9
$DIMTFAC
 40
1.0
  9
$DIMGAP
 40
1.524
  9
$DIMJUST
 70
     0
  9
$DIMSD1
 70
     0
  9
$DIMSD2
 70
     0
  9
$DIMTOLJ
 70
     0
  9
$DIMTZIN
 70
     0
  9
$DIMALTZ
 70
     0
  9
$DIMALTTZ
 70
     0
  9
$DIMUPT
 70
     0
  9
$DIMDEC
 70
     2
  9
$DIMTDEC
 70
     2
  9
$DIMALTU
 70
     2
  9
$DIMALTTD
 70
     3
  9
$DIMTXSTY
  7
Standard
  9
$DIMAUNIT
 70
     0
  9
$DIMADEC
 70
     2
  9
$DIMALTRND
 40
0.0
  9
$DIMAZIN
 70
     0
  9
$DIMDSEP
 70
    44
  9
$DIMATFIT
 70
     3
  9
$DIMFRAC
 70
     0
  9
$DIMLDRBLK
  1

  9
$DIMLUNIT
 70
     2
  9
$DIMLWD
 70
    -2
  9
$DIMLWE
 70
    -2
  9
$DIMTMOVE
 70
     0
  9
$LUNITS
 70
     2
  9
$LUPREC
 70
     2
  9
$SKETCHINC
 40
1.0
  9
$FILLETRAD
 40
10.0
  9
$AUNITS
 70
     0
  9
$AUPREC
 70
     2
  9
$MENU
  1
.
  9
$ELEVATION
 40
0.0
  9
$PELEVATION
 40
0.0
  9
$THICKNESS
 40
0.0
  9
$LIMCHECK
 70
     0
  9
$CHAMFERA
 40
0.0
  9
$CHAMFERB
 40
0.0
  9
$CHAMFERC
 40
0.0
  9
$CHAMFERD
 40
0.0
  9
$SKPOLY
 70
     0
  9
$TDCREATE
 40
2458025.901670451
  9
$TDUCREATE
 40
2458025.526670451
  9
$TDUPDATE
 40
2458214.6547139
  9
$TDUUPDATE
 40
2458214.2797139
  9
$TDINDWG
 40
0.0040291898
  9
$TDUSRTIMER
 40
0.0004202662
  9
$USRTIMER
 70
     1
  9
$ANGBASE
 50
0.0
  9
$ANGDIR
 70
     0
  9
$PDMODE
 70
     0
  9
$PDSIZE
 40
-1.0
  9
$PLINEWID
 40
0.0
  9
$SPLFRAME
 70
     0
  9
$SPLINETYPE
 70
     6
  9
$SPLINESEGS
 70
     8
  9
$HANDSEED
  5
998
  9
$SURFTAB1
 70
     6
  9
$SURFTAB2
 70
     6
  9
$SURFTYPE
 70
     6
  9
$SURFU
 70
     6
  9
$SURFV
 70
     6
  9
$UCSBASE
  2

  9
$UCSNAME
  2

  9
$UCSORG
 10
0.0
 20
0.0
 30
0.0
  9
$UCSXDIR
 10
1.0
 20
0.0
 30
0.0
  9
$UCSYDIR
 10
0.0
 20
1.0
 30
0.0
  9
$UCSORTHOREF
  2

  9
$UCSORTHOVIEW
 70
     0
  9
$UCSORGTOP
 10
0.0
 20
0.0
 30
0.0
  9
$UCSORGBOTTOM
 10
0.0
 20
0.0
 30
0.0
  9
$UCSORGLEFT
 10
0.0
 20
0.0
 30
0.0
  9
$UCSORGRIGHT
 10
0.0
 20
0.0
 30
0.0
  9
$UCSORGFRONT
 10
0.0
 20
0.0
 30
0.0
  9
$UCSORGBACK
 10
0.0
 20
0.0
 30
0.0
  9
$PUCSBASE
  2

  9
$PUCSNAME
  2

  9
$PUCSORG
 10
0.0
 20
0.0
 30
0.0
  9
$PUCSXDIR
 10
1.0
 20
0.0
 30
0.0
  9
$PUCSYDIR
 10
0.0
 20
1.0
 30
0.0
  9
$PUCSORTHOREF
  2

  9
$PUCSORTHOVIEW
 70
     0
  9
$PUCSORGTOP
 10
0.0
 20
0.0
 30
0.0
  9
$PUCSORGBOTTOM
 10
0.0
 20
0.0
 30
0.0
  9
$PUCSORGLEFT
 10
0.0
 20
0.0
 30
0.0
  9
$PUCSORGRIGHT
 10
0.0
 20
0.0
 30
0.0
  9
$PUCSORGFRONT
 10
0.0
 20
0.0
 30
0.0
  9
$PUCSORGBACK
 10
0.0
 20
0.0
 30
0.0
  9
$USERI1
 70
     0
  9
$USERI2
 70
     0
  9
$USERI3
 70
     0
  9
$USERI4
 70
     0
  9
$USERI5
 70
     0
  9
$USERR1
 40
0.0
  9
$USERR2
 40
0.0
  9
$USERR3
 40
0.0
  9
$USERR4
 40
0.0
  9
$USERR5
 40
0.0
  9
$WORLDVIEW
 70
     1
  9
$SHADEDGE
 70
     3
  9
$SHADEDIF
 70
    70
  9
$TILEMODE
 70
     1
  9
$MAXACTVP
 70
    64
  9
$PINSBASE
 10
0.0
 20
0.0
 30
0.0
  9
$PLIMCHECK
 70
     0
  9
$PEXTMIN
 10
1.000000000000000E+20
 20
1.000000000000000E+20
 30
1.000000000000000E+20
  9
$PEXTMAX
 10
-1.000000000000000E+20
 20
-1.000000000000000E+20
 30
-1.000000000000000E+20
  9
$PLIMMIN
 10
0.0
 20
0.0
  9
$PLIMMAX
 10
0.0
 20
0.0
  9
$UNITMODE
 70
     0
  9
$VISRETAIN
 70
     1
  9
$PLINEGEN
 70
     0
  9
$PSLTSCALE
 70
     1
  9
$TREEDEPTH
 70
  3020
  9
$CMLSTYLE
  2
Standard
  9
$CMLJUST
 70
     0
  9
$CMLSCALE
 40
20.0
  9
$PROXYGRAPHICS
 70
     1
  9
$MEASUREMENT
 70
     1
  9
$CELWEIGHT
370
    -1
  9
$ENDCAPS
280
     0
  9
$JOINSTYLE
280
     0
  9
$LWDISPLAY
290
     1
  9
$INSUNITS
 70
     4
  9
$HYPERLINKBASE
  1

  9
$STYLESHEET
  1

  9
$XEDIT
290
     1
  9
$CEPSNTYPE
380
     0
  9
$PSTYLEMODE
290
     1
  9
$FINGERPRINTGUID
  2
{75375FFD-739C-48ED-822E-76A46AAE9E82}
  9
$VERSIONGUID
  2
{FAEB1C32-E019-11D5-929B-00C0DF256EC4}
  9
$EXTNAMES
290
     1
  9
$PSVPSCALE
 40
0.0
  9
$OLESTARTUP
290
     0
  0
ENDSEC
  0
SECTION
  2
CLASSES
  0
CLASS
  1
ACDBDICTIONARYWDFLT
  2
AcDbDictionaryWithDefault
  3
ObjectDBX Classes
 90
        0
280
     0
281
     0
  0
CLASS
  1
VISUALSTYLE
  2
AcDbVisualStyle
  3
ObjectDBX Classes
 90
     4095
280
     0
281
     0
  0
CLASS
  1
MATERIAL
  2
AcDbMaterial
  3
ObjectDBX Classes
 90
     1153
280
     0
281
     0
  0
CLASS
  1
SCALE
  2
AcDbScale
  3
ObjectDBX Classes
 90
     1153
280
     0
281
     0
  0
CLASS
  1
TABLESTYLE
  2
AcDbTableStyle
  3
ObjectDBX Classes
 90
     4095
280
     0
281
     0
  0
CLASS
  1
MLEADERSTYLE
  2
AcDbMLeaderStyle
  3
ACDB_MLEADERSTYLE_CLASS
 90
     4095
280
     0
281
     0
  0
CLASS
  1
SUN
  2
AcDbSun
  3
SCENEOE
 90
     1153
280
     0
281
     0
  0
CLASS
  1
ACDBPLACEHOLDER
  2
AcDbPlaceHolder
  3
ObjectDBX Classes
 90
        0
280
     0
281
     0
  0
CLASS
  1
LAYOUT
  2
AcDbLayout
  3
ObjectDBX Classes
 90
        0
280
     0
281
     0
  0
CLASS
  1
RASTERVARIABLES
  2
AcDbRasterVariables
  3
ISM
 90
        0
280
     0
281
     0
  0
CLASS
  1
DICTIONARYVAR
  2
AcDbDictionaryVar
  3
ObjectDBX Classes
 90
        0
280
     0
281
     0
  0
CLASS
  1
SORTENTSTABLE
  2
AcDbSortentsTable
  3
ObjectDBX Classes
 90
        0
280
     0
281
     0
  0
ENDSEC
  0
SECTION
  2
TABLES
  0
TABLE
  2
VPORT
  5
8
330
0
100
AcDbSymbolTable
 70
     1
  0
VPORT
  5
29
330
8
100
AcDbSymbolTableRecord
100
AcDbViewportTableRecord
  2
*Active
 70
     0
 10
0.0
 20
0.0
 11
1.0
 21
1.0
 12
106.6426778085029
 22
145.0138866458955
 13
0.0
 23
0.0
 14
10.0
 24
10.0
 15
10.0
 25
10.0
 16
0.0
 26
0.0
 36
1.0
 17
0.0
 27
0.0
 37
0.0
 40
115.0259957846537
 41
2.043890865954923
 42
50.0
 43
0.0
 44
0.0
 50
0.0
 51
0.0
 71
    16
 72
  2000
 73
     1
 74
     3
 75
     0
 76
     0
 77
     0
 78
     0
281
     0
 65
     1
110
0.0
120
0.0
130
0.0
111
1.0
121
0.0
131
0.0
112
0.0
122
1.0
132
0.0
 79
     0
146
0.0
  0
ENDTAB
  0
TABLE
  2
LTYPE
  5
5
330
0
100
AcDbSymbolTable
 70
     6
  0
LTYPE
  5
14
330
5
100
AcDbSymbolTableRecord
100
AcDbLinetypeTableRecord
  2
ByBlock
 70
     0
  3

 72
    65
 73
     0
 40
0.0
  0
LTYPE
  5
15
330
5
100
AcDbSymbolTableRecord
100
AcDbLinetypeTableRecord
  2
ByLayer
 70
     0
  3

 72
    65
 73
     0
 40
0.0
  0
LTYPE
  5
16
330
5
100
AcDbSymbolTableRecord
100
AcDbLinetypeTableRecord
  2
Continuous
 70
     0
  3
Solid line
 72
    65
 73
     0
 40
0.0
  0
LTYPE
  5
6E
330
5
100
AcDbSymbolTableRecord
100
AcDbLinetypeTableRecord
  2
HIDDEN
 70
     0
  3
Hidden __ __ __ __ __ __ __ __ __ __ __ __ __ __
 72
    65
 73
     2
 40
1.905
 49
1.27
 74
     0
 49
-0.635
 74
     0
  0
LTYPE
  5
6F
330
5
100
AcDbSymbolTableRecord
100
AcDbLinetypeTableRecord
  2
PHANTOM
 70
     0
  3
Phantom ______  __  __  ______  __  __  ______
 72
    65
 73
     6
 40
12.7
 49
6.35
 74
     0
 49
-1.27
 74
     0
 49
1.27
 74
     0
 49
-1.27
 74
     0
 49
1.27
 74
     0
 49
-1.27
 74
     0
  0
LTYPE
  5
70
330
5
100
AcDbSymbolTableRecord
100
AcDbLinetypeTableRecord
  2
CENTER
 70
     0
  3
Center ____ _ ____ _ ____ _ ____ _ ____ _ ____
 72
    65
 73
     4
 40
10.16
 49
6.35
 74
     0
 49
-1.27
 74
     0
 49
1.27
 74
     0
 49
-1.27
 74
     0
  0
LTYPE
  5
71
330
5
100
AcDbSymbolTableRecord
100
AcDbLinetypeTableRecord
  2
CENTERX2
 70
     0
  3
Center (2x) ________  __  ________  __  _____
 72
    65
 73
     4
 40
20.32
 49
12.7
 74
     0
 49
-2.54
 74
     0
 49
2.54
 74
     0
 49
-2.54
 74
     0
  0
LTYPE
  5
72
330
5
100
AcDbSymbolTableRecord
100
AcDbLinetypeTableRecord
  2
DOT2
 70
     0
  3
Dot (.5x) ........................................
 72
    65
 73
     2
 40
0.635
 49
0.0
 74
     0
 49
-0.635
 74
     0
  0
ENDTAB
  0
TABLE
  2
LAYER
  5
2
102
{ACAD_XDICTIONARY
360
66F
102
}
330
0
100
AcDbSymbolTable
 70
    13
  0
LAYER
  5
10
330
2
100
AcDbSymbolTableRecord
100
AcDbLayerTableRecord
  2
0
 70
     0
 62
     7
  6
Continuous
370
    -3
390
F
  0
LAYER
  5
73
330
2
100
AcDbSymbolTableRecord
100
AcDbLayerTableRecord
  2
SLD-0
 70
     0
 62
   179
  6
Continuous
370
    -3
390
F
  0
LAYER
  5
74
330
2
100
AcDbSymbolTableRecord
100
AcDbLayerTableRecord
  2
中心線
 70
     0
 62
     1
  6
CENTER
370
    -3
390
F
  0
LAYER
  5
75
330
2
100
AcDbSymbolTableRecord
100
AcDbLayerTableRecord
  2
破線
 70
     0
 62
     3
  6
HIDDEN
370
    -3
390
F
  0
LAYER
  5
76
330
2
100
AcDbSymbolTableRecord
100
AcDbLayerTableRecord
  2
寸法線
 70
     0
 62
     7
  6
Continuous
370
    -3
390
F
  0
LAYER
  5
77
330
2
100
AcDbSymbolTableRecord
100
AcDbLayerTableRecord
  2
実線
 70
     0
 62
     4
  6
Continuous
370
    25
390
F
  0
LAYER
  5
78
330
2
100
AcDbSymbolTableRecord
100
AcDbLayerTableRecord
  2
ﾊｯﾁﾝｸﾞ
 70
     0
 62
     8
  6
Continuous
370
    -3
390
F
  0
LAYER
  5
79
330
2
100
AcDbSymbolTableRecord
100
AcDbLayerTableRecord
  2
輪郭線
 70
     0
 62
     6
  6
Continuous
370
    25
390
F
  0
LAYER
  5
7A
330
2
100
AcDbSymbolTableRecord
100
AcDbLayerTableRecord
  2
文字
 70
     0
 62
   179
  6
Continuous
370
    -3
390
F
  0
LAYER
  5
7B
330
2
100
AcDbSymbolTableRecord
100
AcDbLayerTableRecord
  2
想像線
 70
     0
 62
     3
  6
PHANTOM
370
    -3
390
F
  0
LAYER
  5
7C
330
2
100
AcDbSymbolTableRecord
100
AcDbLayerTableRecord
  2
姿図
 70
     0
 62
     8
  6
Continuous
370
    -3
390
F
  0
LAYER
  5
7D
330
2
100
AcDbSymbolTableRecord
100
AcDbLayerTableRecord
  2
注記
 70
     0
 62
     7
  6
Continuous
370
    25
390
F
  0
LAYER
  5
7E
330
2
100
AcDbSymbolTableRecord
100
AcDbLayerTableRecord
  2
ロゴ：MODULEX
 70
     0
 62
     7
  6
Continuous
370
    -3
390
F
  0
ENDTAB
  0
TABLE
  2
STYLE
  5
3
330
0
100
AcDbSymbolTable
 70
     1
  0
STYLE
  5
11
330
3
100
AcDbSymbolTableRecord
100
AcDbTextStyleTableRecord
  2
Standard
 70
     0
 40
0.0
 41
1.0
 50
0.0
 71
     0
 42
3.5
  3
txt
  4
bigfont
  0
ENDTAB
  0
TABLE
  2
VIEW
  5
6
330
0
100
AcDbSymbolTable
 70
     0
  0
ENDTAB
  0
TABLE
  2
UCS
  5
7
330
0
100
AcDbSymbolTable
 70
     0
  0
ENDTAB
  0
TABLE
  2
APPID
  5
9
330
0
100
AcDbSymbolTable
 70
     6
  0
APPID
  5
12
330
9
100
AcDbSymbolTableRecord
100
AcDbRegAppTableRecord
  2
ACAD
 70
     0
  0
APPID
  5
64B
330
9
100
AcDbSymbolTableRecord
100
AcDbRegAppTableRecord
  2
ACAD_DSTYLE_DIMJAG
 70
     0
  0
APPID
  5
64C
330
9
100
AcDbSymbolTableRecord
100
AcDbRegAppTableRecord
  2
ACAD_DSTYLE_DIMTALN
 70
     0
  0
APPID
  5
64D
330
9
100
AcDbSymbolTableRecord
100
AcDbRegAppTableRecord
  2
ACAD_PSEXT
 70
     0
  0
APPID
  5
974
330
9
100
AcDbSymbolTableRecord
100
AcDbRegAppTableRecord
  2
ACAD_SPLINE_DATA
 70
     0
  0
APPID
  5
975
330
9
100
AcDbSymbolTableRecord
100
AcDbRegAppTableRecord
  2
ACAD_SPLINE_DATA2
 70
     0
  0
ENDTAB
  0
TABLE
  2
DIMSTYLE
  5
A
330
0
100
AcDbSymbolTable
 70
     3
100
AcDbDimStyleTable
  0
DIMSTYLE
105
27
330
A
100
AcDbSymbolTableRecord
100
AcDbDimStyleTableRecord
  2
ISO-25
 70
     0
 41
2.5
 42
0.625
 43
3.75
 44
1.25
 73
     0
 74
     0
 77
     1
 78
     8
140
2.5
141
2.5
143
0.03937007874016
147
0.625
171
     3
172
     1
178
     0
271
     2
272
     2
274
     3
278
    44
283
     0
284
     8
340
11
  0
DIMSTYLE
105
643
330
A
100
AcDbSymbolTableRecord
100
AcDbDimStyleTableRecord
  2
STANDARD
 70
     0
 41
2.5
 42
1.5
 44
1.0
 73
     0
 74
     0
 77
     3
 78
     8
 79
     2
140
2.500000000000003
141
0.0
147
1.0
171
     0
172
     1
173
     1
176
     8
177
     8
271
     2
178
   256
179
     2
271
     2
272
     2
274
     0
289
     1
340
11
341
645
343
645
344
645
1001
ACAD_DSTYLE_DIMJAG
1070
   388
1040
1.5
1001
ACAD_DSTYLE_DIMTALN
1070
   392
1070
     0
  0
DIMSTYLE
105
6A7
330
A
100
AcDbSymbolTableRecord
100
AcDbDimStyleTableRecord
  2
STANDARD-10
 70
     0
 41
15.0
 42
15.0
 43
3.8
 44
1.0
 73
     0
 74
     0
 77
     1
 78
     8
 79
     2
140
20.0
141
0.0
147
0.0
171
     0
172
     1
173
     1
176
     8
177
     8
271
     2
178
   256
179
     2
271
     2
272
     2
274
     0
289
     2
340
11
341
645
343
645
344
645
  0
ENDTAB
  0
TABLE
  2
BLOCK_RECORD
  5
1
330
0
100
AcDbSymbolTable
 70
     3
  0
BLOCK_RECORD
  5
1F
330
1
100
AcDbSymbolTableRecord
100
AcDbBlockTableRecord
  2
*Model_Space
340
22
  0
BLOCK_RECORD
  5
1B
330
1
100
AcDbSymbolTableRecord
100
AcDbBlockTableRecord
  2
*Paper_Space
340
1E
  0
BLOCK_RECORD
  5
23
330
1
100
AcDbSymbolTableRecord
100
AcDbBlockTableRecord
  2
*Paper_Space0
340
26
  0
BLOCK_RECORD
  5
645
330
1
100
AcDbSymbolTableRecord
100
AcDbBlockTableRecord
  2
_OPEN
340
0
  0
ENDTAB
  0
ENDSEC
  0
SECTION
  2
BLOCKS
  0
BLOCK
  5
20
330
1F
100
AcDbEntity
  8
0
100
AcDbBlockBegin
  2
*Model_Space
 70
     0
 10
0.0
 20
0.0
 30
0.0
  3
*Model_Space
  1

  0
ENDBLK
  5
21
330
1F
100
AcDbEntity
  8
0
100
AcDbBlockEnd
  0
BLOCK
  5
1C
330
1B
100
AcDbEntity
 67
     1
  8
0
100
AcDbBlockBegin
  2
*Paper_Space
 70
     0
 10
0.0
 20
0.0
 30
0.0
  3
*Paper_Space
  1

  0
ENDBLK
  5
1D
330
1B
100
AcDbEntity
 67
     1
  8
0
100
AcDbBlockEnd
  0
BLOCK
  5
24
330
23
100
AcDbEntity
  8
0
100
AcDbBlockBegin
  2
*Paper_Space0
 70
     0
 10
0.0
 20
0.0
 30
0.0
  3
*Paper_Space0
  1

  0
ENDBLK
  5
25
330
23
100
AcDbEntity
  8
0
100
AcDbBlockEnd
  0
BLOCK
  5
646
330
645
100
AcDbEntity
  8
0
100
AcDbBlockBegin
  2
_OPEN
 70
     0
 10
0.0
 20
0.0
 30
0.0
  3
_OPEN
  1

  0
LINE
  5
647
330
645
100
AcDbEntity
  8
0
  6
ByBlock
 62
     0
100
AcDbLine
 10
-1.0
 20
0.1666666666666667
 30
0.0
 11
0.0
 21
0.0
 31
0.0
  0
LINE
  5
648
330
645
100
AcDbEntity
  8
0
  6
ByBlock
 62
     0
100
AcDbLine
 10
0.0
 20
0.0
 30
0.0
 11
-1.0
 21
-0.1666666666666667
 31
0.0
  0
LINE
  5
649
330
645
100
AcDbEntity
  8
0
  6
ByBlock
 62
     0
100
AcDbLine
 10
0.0
 20
0.0
 30
0.0
 11
-1.0
 21
0.0
 31
0.0
  0
ENDBLK
  5
64A
330
645
100
AcDbEntity
  8
0
100
AcDbBlockEnd
  0
ENDSEC
  0
SECTION
  2
ENTITIES
  0
TEXT
  5
674
330
1F
100
AcDbEntity
  8
文字
 62
     7
100
AcDbText
 10
42.97789864864868
 20
88.62859459459463
 30
0.0
 40
10.0
  1
MMT-133/NDC/01
 41
0.9
 11
42.97789864864868
 21
88.62859459459463
 31
0.0
100
AcDbText
 73
     1
  0
LINE
  5
8D7
330
1F
100
AcDbEntity
  8
実線
 62
     8
 48
0.5
100
AcDbLine
 10
151.6703182922579
 20
140.5778778127672
 30
0.0
 11
150.7868182922544
 21
140.9892398795681
 31
0.0
  0
LINE
  5
8D8
330
1F
100
AcDbEntity
  8
実線
 62
     8
 48
2.0
100
AcDbLine
 10
150.7868182922544
 20
140.9892398795681
 30
0.0
 11
150.7868182922544
 21
139.3115157459732
 31
0.0
  0
LINE
  5
8D9
330
1F
100
AcDbEntity
  8
実線
 62
     8
 48
0.5
100
AcDbLine
 10
151.6703182922579
 20
139.7228778127672
 30
0.0
 11
150.7868182922544
 21
139.3115157459732
 31
0.0
  0
SPLINE
  5
8DA
330
1F
100
AcDbEntity
  8
寸法線
 62
     8
100
AcDbSpline
210
0.0
220
0.0
230
1.0
 70
    11
 71
     3
 72
    52
 73
    48
 74
     0
 42
0.000000001
 43
0.0000000001
 40
0.0
 40
0.0
 40
0.0
 40
0.0
 40
0.1660052751248561
 40
0.1660052751248561
 40
0.3320105502497122
 40
0.3320105502497122
 40
0.643099107781141
 40
0.643099107781141
 40
0.9541876653125698
 40
0.9541876653125698
 40
1.265276222843999
 40
1.265276222843999
 40
1.576364780375427
 40
1.576364780375427
 40
1.887453337906856
 40
1.887453337906856
 40
2.198541895438285
 40
2.198541895438285
 40
2.509630452969714
 40
2.509630452969714
 40
2.820719010501143
 40
2.820719010501143
 40
3.016413530868025
 40
3.016413530868025
 40
3.212108051234908
 40
3.212108051234908
 40
3.40780257160179
 40
3.40780257160179
 40
3.603497091968673
 40
3.603497091968673
 40
3.924117081040342
 40
3.924117081040342
 40
4.244737070112012
 40
4.244737070112012
 40
4.565357059183682
 40
4.565357059183682
 40
4.885977048255351
 40
4.885977048255351
 40
5.206597037327021
 40
5.206597037327021
 40
5.527217026398691
 40
5.527217026398691
 40
5.84783701547036
 40
5.84783701547036
 40
6.081404607723511
 40
6.081404607723511
 40
6.283185307179586
 40
6.283185307179586
 40
6.283185307179586
 40
6.283185307179586
 10
89.91764776814358
 20
129.8913804324169
 30
0.0
 10
89.92133984704975
 20
129.5994316338673
 30
0.0
 10
89.98971091726759
 20
129.3089315701407
 30
0.0
 10
90.24480716159138
 20
128.7507476709669
 30
0.0
 10
90.43079962429016
 20
128.4827059496759
 30
0.0
 10
91.11443489463323
 20
127.7495944059191
 30
0.0
 10
91.74307297746105
 20
127.3153292143296
 30
0.0
 10
93.30594873276328
 20
126.5490873392608
 30
0.0
 10
94.24087769507656
 20
126.2178508023052
 30
0.0
 10
96.33446372511077
 20
125.6833934165041
 30
0.0
 10
97.49277878020854
 20
125.4804828676764
 30
0.0
 10
99.92554598869225
 20
125.2206664728008
 30
0.0
 10
101.1995876137958
 20
125.1638482612196
 30
0.0
 10
103.7439984745329
 20
125.2013998274495
 30
0.0
 10
105.0139490102561
 20
125.2957628471252
 30
0.0
 10
107.4307472443039
 20
125.6271747753206
 30
0.0
 10
108.5771875954784
 20
125.8641212123597
 30
0.0
 10
110.6403851066976
 20
126.4600653171823
 30
0.0
 10
111.5568158113752
 20
126.8187302918371
 30
0.0
 10
113.0777380733057
 20
127.6310975658274
 30
0.0
 10
113.6830424869846
 20
128.0840965922224
 30
0.0
 10
114.3677486660677
 20
128.8855828499603
 30
0.0
 10
114.5592183270606
 20
129.2115437393207
 30
0.0
 10
114.773803069093
 20
129.8866689890554
 30
0.0
 10
114.7949512491401
 20
130.2355786484071
 30
0.0
 10
114.6591132133404
 20
130.9169171519523
 30
0.0
 10
114.5038259498365
 20
131.2477122606541
 30
0.0
 10
114.0424524902779
 20
131.8725357489119
 30
0.0
 10
113.7365216979456
 20
132.1677393921317
 30
0.0
 10
112.7520173227172
 20
132.8982203704453
 30
0.0
 10
111.9586288969481
 20
133.3031459024099
 30
0.0
 10
110.0816221033279
 20
133.9920022543755
 30
0.0
 10
108.9980928058908
 20
134.2752442196578
 30
0.0
 10
106.6455014043354
 20
134.6950346362013
 30
0.0
 10
105.3768962910258
 20
134.8313823571528
 30
0.0
 10
102.7803048283827
 20
134.944299564176
 30
0.0
 10
101.452803531251
 20
134.9208286760921
 30
0.0
 10
98.87112001308975
 20
134.7163292577632
 30
0.0
 10
97.61742059658042
 20
134.5353624582779
 30
0.0
 10
95.30796729711489
 20
134.032967303381
 30
0.0
 10
94.25265851041382
 20
133.7117733055969
 30
0.0
 10
92.4424253525836
 20
132.9569054520342
 30
0.0
 10
91.68746619719656
 20
132.5239770410052
 30
0.0
 10
90.70343851773993
 20
131.7007163447332
 30
0.0
 10
90.3861244564983
 20
131.3300996954007
 30
0.0
 10
90.00456518543848
 20
130.6008313846818
 30
0.0
 10
89.91316001759384
 20
130.2462464614181
 30
0.0
 10
89.91764776814358
 20
129.8913804324169
 30
0.0
  0
LINE
  5
8DB
330
1F
100
AcDbEntity
  8
寸法線
 62
     8
100
AcDbLine
 10
159.3958213584488
 20
128.708440493085
 30
0.0
 11
163.842542234183
 21
125.2528012140427
 31
0.0
  0
LINE
  5
8DC
330
1F
100
AcDbEntity
  8
寸法線
 62
     8
100
AcDbLine
 10
163.842542234183
 20
121.3978820280407
 30
0.0
 11
163.842542234183
 21
125.2545715139971
 31
0.0
  0
ELLIPSE
  5
8DD
330
1F
100
AcDbEntity
  8
実線
 62
     8
100
AcDbEllipse
 10
164.395811596533
 20
146.2433906378218
 30
0.0
 11
-2.578714170110288
 21
0.4770985151819332
 31
0.0
210
0.0
220
0.0
230
1.0
 40
0.400615776736993
 41
0.0
 42
6.283185307179586
  0
ELLIPSE
  5
8DE
330
1F
100
AcDbEntity
  8
実線
 62
     8
100
AcDbEllipse
 10
164.395811596533
 20
146.7836859306416
 30
0.0
 11
-2.578714170110288
 21
0.4770985151819332
 31
0.0
210
0.0
220
0.0
230
1.0
 40
0.400615776736993
 41
0.3303199014578144
 42
2.959241327695059
  0
LINE
  5
8DF
330
1F
100
AcDbEntity
  8
寸法線
 62
     8
100
AcDbLine
 10
161.5579303590535
 20
150.9376278127678
 30
0.0
 11
162.6857901811096
 21
150.0541278127679
 31
0.0
  0
LINE
  5
8E0
330
1F
100
AcDbEntity
  8
実線
 62
     8
 48
0.5
100
AcDbLine
 10
161.1465682922577
 20
150.0541278127679
 30
0.0
 11
161.5579303590535
 21
150.9376278127678
 31
0.0
  0
LINE
  5
8E1
330
1F
100
AcDbEntity
  8
実線
 62
     8
 48
0.5
100
AcDbLine
 10
160.2915682922581
 20
150.0541278127679
 30
0.0
 11
159.8802062254622
 21
150.9376278127678
 31
0.0
  0
LINE
  5
8E2
330
1F
100
AcDbEntity
  8
実線
 62
     8
 48
2.0
100
AcDbLine
 10
159.8802062254622
 20
150.9376278127678
 30
0.0
 11
161.5579303590535
 21
150.9376278127678
 31
0.0
  0
LINE
  5
8E3
330
1F
100
AcDbEntity
  8
実線
 62
     8
100
AcDbLine
 10
166.7753182922575
 20
149.1991278127683
 30
0.0
 11
166.7753182922575
 21
150.0541278127679
 31
0.0
  0
LINE
  5
8E4
330
1F
100
AcDbEntity
  8
実線
 62
     8
100
AcDbLine
 10
161.1465682922577
 20
150.0541278127679
 30
0.0
 11
166.7753182922575
 21
150.0541278127679
 31
0.0
  0
LINE
  5
8E5
330
1F
100
AcDbEntity
  8
実線
 62
     8
100
AcDbLine
 10
160.8208213584481
 20
143.8171740094106
 30
0.0
 11
173.6458213584488
 21
143.8171740094106
 31
0.0
  0
LINE
  5
8E6
330
1F
100
AcDbEntity
  8
実線
 62
     8
100
AcDbLine
 10
173.6458213584488
 20
143.8171740094106
 30
0.0
 11
173.6458213584488
 21
144.6721740094107
 31
0.0
  0
LINE
  5
8E7
330
1F
100
AcDbEntity
  8
寸法線
 62
     8
100
AcDbLine
 10
166.7753182922575
 20
149.1991278127683
 30
0.0
 11
173.6458213584488
 21
143.8171740094106
 31
0.0
  0
LINE
  5
8E8
330
1F
100
AcDbEntity
  8
寸法線
 62
     8
100
AcDbLine
 10
166.7753182922575
 20
150.0541278127679
 30
0.0
 11
173.6458213584488
 21
144.6721740094107
 31
0.0
  0
LINE
  5
8E9
330
1F
100
AcDbEntity
  8
寸法線
 62
     8
100
AcDbLine
 10
163.4595762273426
 20
162.4841255900477
 30
0.0
 11
163.4595762273353
 21
150.0541278127679
 31
0.0
  0
LINE
  5
8EA
330
1F
100
AcDbEntity
  8
姿図
 62
     8
 48
2.0
100
AcDbLine
 10
160.6298193630578
 20
143.8171714480521
 30
0.0
 11
167.1800841069349
 21
143.8171714480526
 31
0.0
  0
LINE
  5
8EB
330
1F
100
AcDbEntity
  8
寸法線
 62
     8
100
AcDbLine
 10
163.4595762273389
 20
143.8171740094106
 30
0.0
 11
163.4595762273389
 21
125.3363856020468
 31
0.0
  0
LINE
  5
8EC
330
1F
100
AcDbEntity
  8
寸法線
 62
     8
100
AcDbLine
 10
118.0643852812614
 20
157.1574874290075
 30
0.0
 11
118.0643852812614
 21
201.066329968491
 31
0.0
  0
ELLIPSE
  5
8ED
330
1F
100
AcDbEntity
  8
寸法線
 62
     8
100
AcDbEllipse
 10
106.0135145515711
 20
187.9405347560777
 30
0.0
 11
0.03475554799370002
 21
1.076391170039388
 31
0.0
210
0.0
220
0.0
230
1.0
 40
0.4932152022865364
 41
0.0
 42
6.283185307179586
  0
LINE
  5
8EE
330
1F
100
AcDbEntity
  8
寸法線
 62
     8
100
AcDbLine
 10
103.1326429979677
 20
179.4640216058382
 30
0.0
 11
103.1326429979677
 21
195.3536738399647
 31
0.0
  0
ELLIPSE
  5
8EF
330
1F
100
AcDbEntity
  8
実線
 62
     8
100
AcDbEllipse
 10
139.7538111624713
 20
165.8887525789149
 30
0.0
 11
-2.578714170110288
 21
0.4770985151819332
 31
0.0
210
0.0
220
0.0
230
1.0
 40
0.400615776736993
 41
0.3303199014578144
 42
2.959241327695059
  0
ELLIPSE
  5
8F0
330
1F
100
AcDbEntity
  8
実線
 62
     8
100
AcDbEllipse
 10
139.7538111624713
 20
165.3484572860951
 30
0.0
 11
-2.578714170110288
 21
0.4770985151819332
 31
0.0
210
0.0
220
0.0
230
1.0
 40
0.400615776736993
 41
0.0
 42
6.283185307179586
  0
LINE
  5
8F1
330
1F
100
AcDbEntity
  8
実線
 62
     8
 48
0.5
100
AcDbLine
 10
127.0283178581927
 20
159.6829444610406
 30
0.0
 11
126.1448178581928
 21
160.094306527841
 31
0.0
  0
LINE
  5
8F2
330
1F
100
AcDbEntity
  8
実線
 62
     8
 48
0.5
100
AcDbLine
 10
127.0283178581927
 20
158.8279444610401
 30
0.0
 11
126.1448178581928
 21
158.4165823942447
 31
0.0
  0
LINE
  5
8F3
330
1F
100
AcDbEntity
  8
実線
 62
     8
 48
2.0
100
AcDbLine
 10
126.1448178581928
 20
160.094306527841
 30
0.0
 11
126.1448178581928
 21
158.4165823942447
 31
0.0
  0
LINE
  5
8F4
330
1F
100
AcDbEntity
  8
実線
 62
     8
 48
2.0
100
AcDbLine
 10
126.1448178581928
 20
162.8018065278414
 30
0.0
 11
126.1448178581928
 21
161.1240823942452
 31
0.0
  0
LINE
  5
8F5
330
1F
100
AcDbEntity
  8
実線
 62
     8
 48
0.5
100
AcDbLine
 10
127.0283178581927
 20
161.5354444610406
 30
0.0
 11
126.1448178581928
 21
161.1240823942452
 31
0.0
  0
LINE
  5
8F6
330
1F
100
AcDbEntity
  8
実線
 62
     8
 48
2.0
100
AcDbLine
 10
126.1448178581928
 20
163.8315823942424
 30
0.0
 11
126.1448178581928
 21
165.5093065278409
 31
0.0
  0
LINE
  5
8F7
330
1F
100
AcDbEntity
  8
実線
 62
     8
 48
0.5
100
AcDbLine
 10
127.0283178581927
 20
164.2429444610405
 30
0.0
 11
126.1448178581928
 21
163.8315823942424
 31
0.0
  0
LINE
  5
8F8
330
1F
100
AcDbEntity
  8
実線
 62
     8
 48
2.0
100
AcDbLine
 10
126.1448178581928
 20
166.5390823942429
 30
0.0
 11
126.1448178581928
 21
168.2168065278414
 31
0.0
  0
LINE
  5
8F9
330
1F
100
AcDbEntity
  8
実線
 62
     8
 48
0.5
100
AcDbLine
 10
127.0283178581927
 20
166.9504444610405
 30
0.0
 11
126.1448178581928
 21
166.5390823942429
 31
0.0
  0
LINE
  5
8FA
330
1F
100
AcDbEntity
  8
寸法線
 62
     8
100
AcDbLine
 10
127.0283178581927
 20
153.8296768357708
 30
0.0
 11
118.0643852812578
 21
160.8279591134072
 31
0.0
  0
LINE
  5
8FB
330
1F
100
AcDbEntity
  8
実線
 62
     8
100
AcDbLine
 10
127.8833178581959
 20
152.6291944610406
 30
0.0
 11
127.8833178581959
 21
166.8791944610415
 31
0.0
  0
LINE
  5
8FC
330
1F
100
AcDbEntity
  8
実線
 62
     8
100
AcDbLine
 10
127.0283178581927
 20
158.8279444610406
 30
0.0
 11
127.0283178581927
 21
152.6291944610415
 31
0.0
  0
LINE
  5
8FD
330
1F
100
AcDbEntity
  8
実線
 62
     8
100
AcDbLine
 10
134.7538209243835
 20
147.2472406576834
 30
0.0
 11
134.7538209243835
 21
161.4972406576843
 31
0.0
  0
LINE
  5
8FE
330
1F
100
AcDbEntity
  8
実線
 62
     8
100
AcDbLine
 10
127.8833178581959
 20
152.6291944610406
 30
0.0
 11
127.0283178581927
 21
152.6291944610406
 31
0.0
  0
LINE
  5
8FF
330
1F
100
AcDbEntity
  8
実線
 62
     8
100
AcDbLine
 10
134.7538209243835
 20
147.2472406576834
 30
0.0
 11
133.898820924384
 21
147.2472406576834
 31
0.0
  0
LINE
  5
900
330
1F
100
AcDbEntity
  8
寸法線
 62
     8
100
AcDbLine
 10
127.8833178581959
 20
152.6291944610406
 30
0.0
 11
134.7538209243835
 21
147.2472406576834
 31
0.0
  0
LINE
  5
901
330
1F
100
AcDbEntity
  8
寸法線
 62
     8
100
AcDbLine
 10
127.0283178581927
 20
152.6291944610406
 30
0.0
 11
133.898820924384
 21
147.2472406576834
 31
0.0
  0
LINE
  5
902
330
1F
100
AcDbEntity
  8
実線
 62
     8
100
AcDbLine
 10
129.3083178581952
 20
168.3041944610416
 30
0.0
 11
142.1333178581959
 21
168.3041944610416
 31
0.0
  0
LINE
  5
903
330
1F
100
AcDbEntity
  8
姿図
 62
     8
 48
2.0
100
AcDbLine
 10
129.1173158628049
 20
168.3041918996831
 30
0.0
 11
139.6624925978327
 21
168.3041918996831
 31
0.0
  0
LINE
  5
904
330
1F
100
AcDbEntity
  8
実線
 62
     8
100
AcDbLine
 10
136.504567858196
 20
169.1591944610417
 30
0.0
 11
142.1333178581959
 21
169.1591944610417
 31
0.0
  0
LINE
  5
905
330
1F
100
AcDbEntity
  8
実線
 62
     8
100
AcDbLine
 10
136.1788209243828
 20
162.922240657684
 30
0.0
 11
149.0038209243835
 21
162.922240657684
 31
0.0
  0
LINE
  5
906
330
1F
100
AcDbEntity
  8
姿図
 62
     8
 48
2.0
100
AcDbLine
 10
135.9878189289926
 20
162.9222380963255
 30
0.0
 11
146.532995664024
 21
162.9222380963255
 31
0.0
  0
LINE
  5
907
330
1F
100
AcDbEntity
  8
実線
 62
     8
100
AcDbLine
 10
133.7970678581956
 20
169.1591944610408
 30
0.0
 11
135.6495678581965
 21
169.1591944610417
 31
0.0
  0
LINE
  5
908
330
1F
100
AcDbEntity
  8
実線
 62
     8
 48
2.0
100
AcDbLine
 10
131.500929924991
 20
170.0426944610411
 30
0.0
 11
129.8232057913961
 21
170.0426944610411
 31
0.0
  0
LINE
  5
909
330
1F
100
AcDbEntity
  8
実線
 62
     8
 48
2.0
100
AcDbLine
 10
128.7934299249906
 20
170.0426944610411
 30
0.0
 11
127.1157057913993
 21
170.0426944610411
 31
0.0
  0
LINE
  5
90A
330
1F
100
AcDbEntity
  8
実線
 62
     8
100
AcDbLine
 10
128.3820678581947
 20
169.1591944610417
 30
0.0
 11
130.2345678581956
 21
169.1591944610417
 31
0.0
  0
LINE
  5
90B
330
1F
100
AcDbEntity
  8
実線
 62
     8
 48
0.5
100
AcDbLine
 10
128.3820678581947
 20
169.1591944610417
 30
0.0
 11
128.7934299249906
 21
170.0426944610411
 31
0.0
  0
LINE
  5
90C
330
1F
100
AcDbEntity
  8
実線
 62
     8
 48
0.5
100
AcDbLine
 10
130.2345678581956
 20
169.1591944610417
 30
0.0
 11
129.8232057913961
 21
170.0426944610411
 31
0.0
  0
LINE
  5
90D
330
1F
100
AcDbEntity
  8
実線
 62
     8
 48
2.0
100
AcDbLine
 10
132.5307057913965
 20
170.0426944610411
 30
0.0
 11
134.2084299249914
 21
170.0426944610411
 31
0.0
  0
LINE
  5
90E
330
1F
100
AcDbEntity
  8
実線
 62
     8
100
AcDbLine
 10
131.0895678581952
 20
169.1591944610417
 30
0.0
 11
132.942067858196
 21
169.1591944610417
 31
0.0
  0
LINE
  5
90F
330
1F
100
AcDbEntity
  8
実線
 62
     8
 48
0.5
100
AcDbLine
 10
132.942067858196
 20
169.1591944610417
 30
0.0
 11
132.5307057913965
 21
170.0426944610411
 31
0.0
  0
LINE
  5
910
330
1F
100
AcDbEntity
  8
実線
 62
     8
 48
0.5
100
AcDbLine
 10
131.0895678581952
 20
169.1591944610417
 30
0.0
 11
131.500929924991
 21
170.0426944610411
 31
0.0
  0
LINE
  5
911
330
1F
100
AcDbEntity
  8
実線
 62
     8
 48
0.5
100
AcDbLine
 10
133.7970678581956
 20
169.1591944610417
 30
0.0
 11
134.2084299249914
 21
170.0426944610411
 31
0.0
  0
LINE
  5
912
330
1F
100
AcDbEntity
  8
実線
 62
     8
 48
2.0
100
AcDbLine
 10
135.238205791397
 20
170.0426944610411
 30
0.0
 11
136.9159299249919
 21
170.0426944610411
 31
0.0
  0
LINE
  5
913
330
1F
100
AcDbEntity
  8
実線
 62
     8
 48
0.5
100
AcDbLine
 10
135.6495678581965
 20
169.1591944610417
 30
0.0
 11
135.238205791397
 21
170.0426944610411
 31
0.0
  0
LINE
  5
914
330
1F
100
AcDbEntity
  8
実線
 62
     8
 48
0.5
100
AcDbLine
 10
136.504567858196
 20
169.1591944610417
 30
0.0
 11
136.9159299249919
 21
170.0426944610411
 31
0.0
  0
LINE
  5
915
330
1F
100
AcDbEntity
  8
実線
 62
     8
 48
0.5
100
AcDbLine
 10
127.5270678581952
 20
169.1591944610417
 30
0.0
 11
127.1157057913993
 21
170.0426944610411
 31
0.0
  0
LINE
  5
916
330
1F
100
AcDbEntity
  8
実線
 62
     8
100
AcDbLine
 10
127.0283178581927
 20
169.1591944610417
 30
0.0
 11
127.5270678581952
 21
169.1591944610417
 31
0.0
  0
LINE
  5
917
330
1F
100
AcDbEntity
  8
実線
 62
     8
100
AcDbLine
 10
127.0283178581927
 20
169.1591944610417
 30
0.0
 11
127.0283178581927
 21
167.8054444610405
 31
0.0
  0
ARC
  5
918
330
1F
100
AcDbEntity
  8
実線
 62
     8
100
AcDbCircle
 10
129.3083178581952
 20
166.8791944610415
 30
0.0
 40
1.425
100
AcDbArc
 50
90.0
 51
180.0
  0
LINE
  5
919
330
1F
100
AcDbEntity
  8
実線
 62
     8
 48
0.5
100
AcDbLine
 10
127.0283178581927
 20
167.8054444610405
 30
0.0
 11
126.1448178581928
 21
168.2168065278414
 31
0.0
  0
LINE
  5
91A
330
1F
100
AcDbEntity
  8
実線
 62
     8
100
AcDbLine
 10
127.0283178581927
 20
166.9504444610405
 30
0.0
 11
127.0283178581927
 21
165.0979444610406
 31
0.0
  0
LINE
  5
91B
330
1F
100
AcDbEntity
  8
実線
 62
     8
 48
0.5
100
AcDbLine
 10
127.0283178581927
 20
165.0979444610406
 30
0.0
 11
126.1448178581928
 21
165.5093065278409
 31
0.0
  0
LINE
  5
91C
330
1F
100
AcDbEntity
  8
実線
 62
     8
100
AcDbLine
 10
127.0283178581927
 20
164.2429444610405
 30
0.0
 11
127.0283178581927
 21
162.3904444610406
 31
0.0
  0
LINE
  5
91D
330
1F
100
AcDbEntity
  8
実線
 62
     8
 48
0.5
100
AcDbLine
 10
127.0283178581927
 20
162.3904444610406
 30
0.0
 11
126.1448178581928
 21
162.8018065278414
 31
0.0
  0
LINE
  5
91E
330
1F
100
AcDbEntity
  8
実線
 62
     8
100
AcDbLine
 10
127.0283178581927
 20
161.5354444610406
 30
0.0
 11
127.0283178581927
 21
159.6829444610406
 31
0.0
  0
LINE
  5
91F
330
1F
100
AcDbEntity
  8
実線
 62
     8
 48
0.5
100
AcDbLine
 10
127.0283178581927
 20
159.6829444610406
 30
0.0
 11
126.4509339225629
 21
159.9517773406081
 31
0.0
  0
ARC
  5
920
330
1F
100
AcDbEntity
  8
実線
 62
     8
100
AcDbCircle
 10
136.1788209243828
 20
161.4972406576843
 30
0.0
 40
1.425
100
AcDbArc
 50
90.0
 51
180.0
  0
LINE
  5
921
330
1F
100
AcDbEntity
  8
寸法線
 62
     8
100
AcDbLine
 10
134.2084299249914
 20
170.0426944610411
 30
0.0
 11
135.3362897470475
 21
169.1591944610412
 31
0.0
  0
LINE
  5
922
330
1F
100
AcDbEntity
  8
寸法線
 62
     8
100
AcDbLine
 10
131.500929924991
 20
170.0426944610411
 30
0.0
 11
132.6287897470471
 21
169.1591944610417
 31
0.0
  0
LINE
  5
923
330
1F
100
AcDbEntity
  8
寸法線
 62
     8
100
AcDbLine
 10
128.7934299249906
 20
170.0426944610411
 30
0.0
 11
129.9212897470503
 21
169.1591944610417
 31
0.0
  0
LINE
  5
924
330
1F
100
AcDbEntity
  8
寸法線
 62
     8
100
AcDbLine
 10
129.1152395540417
 20
167.5835391110976
 30
0.0
 11
134.6814142737354
 21
163.1336404616498
 31
0.0
  0
LINE
  5
925
330
1F
100
AcDbEntity
  8
寸法線
 62
     8
100
AcDbLine
 10
136.9159299249919
 20
170.0426944610411
 30
0.0
 11
138.0437897470479
 21
169.1591944610417
 31
0.0
  0
LINE
  5
926
330
1F
100
AcDbEntity
  8
実線
 62
     8
100
AcDbLine
 10
149.0038209243835
 20
162.922240657684
 30
0.0
 11
149.0038209243835
 21
163.777240657684
 31
0.0
  0
LINE
  5
927
330
1F
100
AcDbEntity
  8
実線
 62
     8
100
AcDbLine
 10
142.1333178581959
 20
168.3041944610416
 30
0.0
 11
142.1333178581959
 21
169.1591944610417
 31
0.0
  0
LINE
  5
928
330
1F
100
AcDbEntity
  8
寸法線
 62
     8
100
AcDbLine
 10
142.1333178581959
 20
169.1591944610417
 30
0.0
 11
149.0038209243835
 21
163.777240657684
 31
0.0
  0
LINE
  5
929
330
1F
100
AcDbEntity
  8
寸法線
 62
     8
100
AcDbLine
 10
142.1333178581959
 20
168.3041944610416
 30
0.0
 11
149.0038209243835
 21
162.922240657684
 31
0.0
  0
LINE
  5
92A
330
1F
100
AcDbEntity
  8
寸法線
 62
     8
100
AcDbLine
 10
133.6527475070839
 20
129.6187478515411
 30
0.0
 11
133.6527475070839
 21
125.0482312596244
 31
0.0
  0
LINE
  5
92B
330
1F
100
AcDbEntity
  8
寸法線
 62
     8
100
AcDbLine
 10
96.78895514645825
 20
119.2412945277582
 30
0.0
 11
133.6527475070839
 21
125.048231259624
 31
0.0
  0
LINE
  5
92C
330
1F
100
AcDbEntity
  8
実線
 62
     8
100
AcDbLine
 10
159.3958213584488
 20
128.1421740094096
 30
0.0
 11
159.3958213584488
 21
142.3921740094105
 31
0.0
  0
LINE
  5
92D
330
1F
100
AcDbEntity
  8
寸法線
 62
     8
100
AcDbLine
 10
151.6703182922579
 20
133.5241278127672
 30
0.0
 11
158.5408213584456
 21
128.1421740094096
 31
0.0
  0
LINE
  5
92E
330
1F
100
AcDbEntity
  8
寸法線
 62
     8
100
AcDbLine
 10
152.5253182922575
 20
133.5241278127672
 30
0.0
 11
159.3958213584488
 21
128.1421740094096
 31
0.0
  0
LINE
  5
92F
330
1F
100
AcDbEntity
  8
実線
 62
     8
100
AcDbLine
 10
159.3958213584488
 20
128.1421740094096
 30
0.0
 11
158.5408213584456
 21
128.1421740094096
 31
0.0
  0
LINE
  5
930
330
1F
100
AcDbEntity
  8
寸法線
 62
     8
100
AcDbLine
 10
153.4354303590522
 20
150.9376278127678
 30
0.0
 11
154.5632901811119
 21
150.0541278127679
 31
0.0
  0
LINE
  5
931
330
1F
100
AcDbEntity
  8
実線
 62
     8
100
AcDbLine
 10
153.0240682922563
 20
150.0541278127679
 30
0.0
 11
154.8765682922572
 21
150.0541278127679
 31
0.0
  0
LINE
  5
932
330
1F
100
AcDbEntity
  8
実線
 62
     8
100
AcDbLine
 10
151.6703182922579
 20
150.0541278127679
 30
0.0
 11
152.1690682922568
 21
150.0541278127679
 31
0.0
  0
LINE
  5
933
330
1F
100
AcDbEntity
  8
実線
 62
     8
 48
0.5
100
AcDbLine
 10
152.1690682922568
 20
150.0541278127679
 30
0.0
 11
151.7577062254609
 21
150.9376278127678
 31
0.0
  0
LINE
  5
934
330
1F
100
AcDbEntity
  8
実線
 62
     8
 48
0.5
100
AcDbLine
 10
153.0240682922563
 20
150.0541278127679
 30
0.0
 11
153.4354303590522
 21
150.9376278127678
 31
0.0
  0
LINE
  5
935
330
1F
100
AcDbEntity
  8
実線
 62
     8
 48
2.0
100
AcDbLine
 10
153.4354303590522
 20
150.9376278127678
 30
0.0
 11
151.7577062254609
 21
150.9376278127678
 31
0.0
  0
LINE
  5
936
330
1F
100
AcDbEntity
  8
寸法線
 62
     8
100
AcDbLine
 10
156.1429303590526
 20
150.9376278127678
 30
0.0
 11
157.2707901811123
 21
150.0541278127679
 31
0.0
  0
LINE
  5
937
330
1F
100
AcDbEntity
  8
実線
 62
     8
 48
0.5
100
AcDbLine
 10
158.4390682922572
 20
150.0541278127679
 30
0.0
 11
158.8504303590531
 21
150.9376278127678
 31
0.0
  0
LINE
  5
938
330
1F
100
AcDbEntity
  8
実線
 62
     8
 48
0.5
100
AcDbLine
 10
157.5840682922577
 20
150.0541278127679
 30
0.0
 11
157.1727062254618
 21
150.9376278127678
 31
0.0
  0
LINE
  5
939
330
1F
100
AcDbEntity
  8
実線
 62
     8
 48
2.0
100
AcDbLine
 10
157.1727062254618
 20
150.9376278127678
 30
0.0
 11
158.8504303590531
 21
150.9376278127678
 31
0.0
  0
LINE
  5
93A
330
1F
100
AcDbEntity
  8
実線
 62
     8
 48
0.5
100
AcDbLine
 10
154.8765682922572
 20
150.0541278127679
 30
0.0
 11
154.4652062254614
 21
150.9376278127678
 31
0.0
  0
LINE
  5
93B
330
1F
100
AcDbEntity
  8
実線
 62
     8
 48
0.5
100
AcDbLine
 10
155.7315682922568
 20
150.0541278127679
 30
0.0
 11
156.1429303590526
 21
150.9376278127678
 31
0.0
  0
LINE
  5
93C
330
1F
100
AcDbEntity
  8
実線
 62
     8
100
AcDbLine
 10
155.7315682922568
 20
150.0541278127679
 30
0.0
 11
157.5840682922577
 21
150.0541278127679
 31
0.0
  0
LINE
  5
93D
330
1F
100
AcDbEntity
  8
実線
 62
     8
 48
2.0
100
AcDbLine
 10
156.1429303590526
 20
150.9376278127678
 30
0.0
 11
154.4652062254614
 21
150.9376278127678
 31
0.0
  0
LINE
  5
93E
330
1F
100
AcDbEntity
  8
実線
 62
     8
100
AcDbLine
 10
152.5253182922575
 20
133.5241278127672
 30
0.0
 11
152.5253182922575
 21
147.7741278127681
 31
0.0
  0
LINE
  5
93F
330
1F
100
AcDbEntity
  8
寸法線
 62
     8
100
AcDbLine
 10
153.2945239112638
 20
148.0087667911315
 30
0.0
 11
159.2491103805338
 21
143.5458820407447
 31
0.0
  0
LINE
  5
940
330
1F
100
AcDbEntity
  8
実線
 62
     8
100
AcDbLine
 10
151.6703182922579
 20
139.7228778127672
 30
0.0
 11
151.6703182922579
 21
133.5241278127681
 31
0.0
  0
LINE
  5
941
330
1F
100
AcDbEntity
  8
実線
 62
     8
100
AcDbLine
 10
152.5253182922575
 20
133.5241278127672
 30
0.0
 11
151.6703182922579
 21
133.5241278127672
 31
0.0
  0
LINE
  5
942
330
1F
100
AcDbEntity
  8
実線
 62
     8
 48
0.5
100
AcDbLine
 10
151.6703182922579
 20
142.4303778127672
 30
0.0
 11
150.7868182922544
 21
142.0190157459732
 31
0.0
  0
LINE
  5
943
330
1F
100
AcDbEntity
  8
実線
 62
     8
 48
2.0
100
AcDbLine
 10
150.7868182922544
 20
143.6967398795681
 30
0.0
 11
150.7868182922544
 21
142.0190157459732
 31
0.0
  0
LINE
  5
944
330
1F
100
AcDbEntity
  8
実線
 62
     8
 48
0.5
100
AcDbLine
 10
151.6703182922579
 20
145.1378778127667
 30
0.0
 11
150.7868182922544
 21
144.7265157459718
 31
0.0
  0
LINE
  5
945
330
1F
100
AcDbEntity
  8
実線
 62
     8
100
AcDbLine
 10
151.6703182922579
 20
142.4303778127672
 30
0.0
 11
151.6703182922579
 21
140.5778778127672
 31
0.0
  0
LINE
  5
946
330
1F
100
AcDbEntity
  8
実線
 62
     8
 48
0.5
100
AcDbLine
 10
151.6703182922579
 20
143.2853778127672
 30
0.0
 11
150.7868182922544
 21
143.6967398795681
 31
0.0
  0
LINE
  5
947
330
1F
100
AcDbEntity
  8
実線
 62
     8
100
AcDbLine
 10
151.6703182922579
 20
145.1378778127667
 30
0.0
 11
151.6703182922579
 21
143.2853778127672
 31
0.0
  0
LINE
  5
948
330
1F
100
AcDbEntity
  8
実線
 62
     8
 48
2.0
100
AcDbLine
 10
150.7868182922544
 20
144.7265157459718
 30
0.0
 11
150.7868182922544
 21
146.4042398795681
 31
0.0
  0
LINE
  5
949
330
1F
100
AcDbEntity
  8
実線
 62
     8
 48
0.5
100
AcDbLine
 10
151.6703182922579
 20
147.8453778127672
 30
0.0
 11
150.7868182922544
 21
147.4340157459709
 31
0.0
  0
LINE
  5
94A
330
1F
100
AcDbEntity
  8
実線
 62
     8
 48
0.5
100
AcDbLine
 10
151.6703182922579
 20
145.9928778127672
 30
0.0
 11
150.7868182922544
 21
146.4042398795681
 31
0.0
  0
LINE
  5
94B
330
1F
100
AcDbEntity
  8
実線
 62
     8
100
AcDbLine
 10
151.6703182922579
 20
147.8453778127672
 30
0.0
 11
151.6703182922579
 21
145.9928778127672
 31
0.0
  0
ARC
  5
94C
330
1F
100
AcDbEntity
  8
実線
 62
     8
100
AcDbCircle
 10
153.9503182922568
 20
147.7741278127681
 30
0.0
 40
1.425
100
AcDbArc
 50
90.0
 51
180.0
  0
LINE
  5
94D
330
1F
100
AcDbEntity
  8
実線
 62
     8
 48
2.0
100
AcDbLine
 10
150.7868182922544
 20
147.4340157459709
 30
0.0
 11
150.7868182922544
 21
149.111739879568
 31
0.0
  0
LINE
  5
94E
330
1F
100
AcDbEntity
  8
実線
 62
     8
 48
0.5
100
AcDbLine
 10
151.6703182922579
 20
148.7003778127667
 30
0.0
 11
150.7868182922544
 21
149.111739879568
 31
0.0
  0
LINE
  5
94F
330
1F
100
AcDbEntity
  8
実線
 62
     8
100
AcDbLine
 10
151.6703182922579
 20
150.0541278127679
 30
0.0
 11
151.6703182922579
 21
148.7003778127667
 31
0.0
  0
LINE
  5
950
330
1F
100
AcDbEntity
  8
寸法線
 62
     8
100
AcDbLine
 10
110.5259225899613
 20
146.5460139147234
 30
0.0
 11
110.5259225899613
 21
141.9754973228058
 31
0.0
  0
LINE
  5
951
330
1F
100
AcDbEntity
  8
寸法線
 62
     8
100
AcDbLine
 10
110.5259225899613
 20
146.5460139147234
 30
0.0
 11
110.5259225899613
 21
141.9754973228058
 31
0.0
  0
LINE
  5
952
330
1F
100
AcDbEntity
  8
寸法線
 62
     8
100
AcDbLine
 10
70.87286158935655
 20
139.5014018679848
 30
0.0
 11
70.87286158935655
 21
134.9308852760667
 31
0.0
  0
LINE
  5
953
330
1F
100
AcDbEntity
  8
寸法線
 62
     8
100
AcDbLine
 10
70.87286158935655
 20
139.5014018679848
 30
0.0
 11
70.87286158935655
 21
134.9308852760667
 31
0.0
  0
LINE
  5
954
330
1F
100
AcDbEntity
  8
寸法線
 62
     8
100
AcDbLine
 10
110.5259225899613
 20
141.9754973228058
 30
0.0
 11
70.87286158935655
 21
134.9308852760667
 31
0.0
  0
LINE
  5
955
330
1F
100
AcDbEntity
  8
寸法線
 62
     8
100
AcDbLine
 10
110.5259225899613
 20
146.5460139147234
 30
0.0
 11
70.87286158935655
 21
139.5014018679848
 31
0.0
  0
LINE
  5
956
330
1F
100
AcDbEntity
  8
寸法線
 62
     8
100
AcDbLine
 10
70.87286158935655
 20
134.9308852760667
 30
0.0
 11
96.78895514645825
 21
119.2412945277582
 31
0.0
  0
LINE
  5
957
330
1F
100
AcDbEntity
  8
寸法線
 62
     8
100
AcDbLine
 10
133.6527475070839
 20
125.0482312596244
 30
0.0
 11
110.5259225899613
 21
141.9754973228058
 31
0.0
  0
LINE
  5
958
330
1F
100
AcDbEntity
  8
寸法線
 62
     8
100
AcDbLine
 10
133.6527475070839
 20
129.6187478515406
 30
0.0
 11
110.5259225899613
 21
146.5460139147234
 31
0.0
  0
ELLIPSE
  5
959
330
1F
100
AcDbEntity
  8
寸法線
 62
     8
100
AcDbEllipse
 10
102.3419270927266
 20
130.0485018861226
 30
0.0
 11
-12.17429931337501
 21
-0.1539601256532479
 31
0.0
210
0.0
220
0.0
230
1.0
 40
0.3792278995966104
 41
0.0
 42
6.283185307179586
  0
ELLIPSE
  5
95A
330
1F
100
AcDbEntity
  8
寸法線
 62
     8
100
AcDbEllipse
 10
101.2540617883065
 20
132.0048350586315
 30
0.0
 11
-12.17429931337501
 21
-0.153960125653248
 31
0.0
210
0.0
220
0.0
230
1.0
 40
0.3792278995966104
 41
0.4213615905304035
 42
3.123944321263648
  0
ELLIPSE
  5
95B
330
1F
100
AcDbEntity
  8
寸法線
 62
     8
100
AcDbEllipse
 10
101.3703001841901
 20
131.4241741482741
 30
0.0
 11
-12.17429931337501
 21
-0.153960125653248
 31
0.0
210
0.0
220
0.0
230
1.0
 40
0.3792278995966104
 41
0.4213615905304035
 42
3.123944321263648
  0
ELLIPSE
  5
95C
330
1F
100
AcDbEntity
  8
寸法線
 62
     8
100
AcDbEllipse
 10
102.0677602955807
 20
130.378984509627
 30
0.0
 11
-12.17429931337501
 21
-0.153960125653248
 31
0.0
210
0.0
220
0.0
230
1.0
 40
0.3792278995966104
 41
0.4213615905304035
 42
3.123944321263648
  0
ELLIPSE
  5
95D
330
1F
100
AcDbEntity
  8
寸法線
 62
     8
100
AcDbEllipse
 10
101.9515218996972
 20
130.9596454199844
 30
0.0
 11
-12.17429931337501
 21
-0.153960125653248
 31
0.0
210
0.0
220
0.0
230
1.0
 40
0.3792278995966104
 41
0.4213615905304035
 42
3.123944321263648
  0
LINE
  5
95E
330
1F
100
AcDbEntity
  8
寸法線
 62
     8
100
AcDbLine
 10
40.15599056407933
 20
146.9870499347092
 30
0.0
 11
40.15599056407933
 21
187.6278440155414
 31
0.0
  0
LINE
  5
95F
330
1F
100
AcDbEntity
  8
寸法線
 62
     8
100
AcDbLine
 10
39.63953425855703
 20
143.2248265867637
 30
0.0
 11
39.63953425855703
 21
146.8952982711638
 31
0.0
  0
ELLIPSE
  5
960
330
1F
100
AcDbEntity
  8
寸法線
 62
     8
100
AcDbEllipse
 10
49.35607736082653
 20
177.7207921700491
 30
0.0
 11
0.03475554799370002
 21
1.076391170039387
 31
0.0
210
0.0
220
0.0
230
1.0
 40
0.4932152022865365
 41
0.0
 42
6.283185307179586
  0
LINE
  5
961
330
1F
100
AcDbEntity
  8
寸法線
 62
     8
100
AcDbLine
 10
51.9983904516053
 20
170.3797047233764
 30
0.0
 11
51.9983904516053
 21
186.2693569575025
 31
0.0
  0
LINE
  5
962
330
1F
100
AcDbEntity
  8
寸法線
 62
     8
100
AcDbLine
 10
117.672760908336
 20
201.3991786971963
 30
0.0
 11
40.15599056407933
 21
187.6278440155414
 31
0.0
  0
LINE
  5
963
330
1F
100
AcDbEntity
  8
寸法線
 62
     8
100
AcDbLine
 10
118.0643852812578
 20
160.8279591134072
 30
0.0
 11
39.63953425855703
 21
146.8952982711638
 31
0.0
  0
LINE
  5
964
330
1F
100
AcDbEntity
  8
寸法線
 62
     8
100
AcDbLine
 10
118.0643852812614
 20
157.1574874290075
 30
0.0
 11
39.63953425855703
 21
143.2248265867637
 31
0.0
  0
LINE
  5
965
330
1F
100
AcDbEntity
  8
寸法線
 62
     8
100
AcDbLine
 10
103.1326429979677
 20
195.3536738399647
 30
0.0
 11
51.9983904516053
 21
186.2693569575025
 31
0.0
  0
LINE
  5
966
330
1F
100
AcDbEntity
  8
寸法線
 62
     8
100
AcDbLine
 10
103.1326429979677
 20
179.4640216058382
 30
0.0
 11
51.9983904516053
 21
170.3797047233764
 31
0.0
  0
LINE
  5
967
330
1F
100
AcDbEntity
  8
寸法線
 62
     8
100
AcDbLine
 10
103.1326429979677
 20
190.7915052611419
 30
0.0
 11
51.9983904516053
 21
181.7071883786797
 31
0.0
  0
LINE
  5
968
330
1F
100
AcDbEntity
  8
寸法線
 62
     8
100
AcDbLine
 10
39.63953425855703
 20
143.2248265867637
 30
0.0
 11
96.32001741166147
 21
110.3940720113245
 31
0.0
  0
LINE
  5
969
330
1F
100
AcDbEntity
  8
寸法線
 62
     8
100
AcDbLine
 10
96.32001741166147
 20
110.3940720113245
 30
0.0
 11
163.842542234183
 21
121.3978820280407
 31
0.0
  0
LINE
  5
96A
330
1F
100
AcDbEntity
  8
寸法線
 62
     8
100
AcDbLine
 10
117.672760908336
 20
201.3991786971963
 30
0.0
 11
163.4595762273426
 21
162.4841255900477
 31
0.0
  0
LINE
  5
96B
330
1F
100
AcDbEntity
  8
寸法線
 62
     8
100
AcDbLine
 10
158.8504303590531
 20
150.9376278127678
 30
0.0
 11
159.9782901811128
 21
150.0541278127679
 31
0.0
  0
LINE
  5
96C
330
1F
100
AcDbEntity
  8
実線
 62
     8
100
AcDbLine
 10
158.4390682922572
 20
150.054127812767
 30
0.0
 11
160.2915682922581
 21
150.0541278127679
 31
0.0
  0
LINE
  5
96D
330
1F
100
AcDbEntity
  8
姿図
 62
     8
 48
2.0
100
AcDbLine
 10
153.7593162968665
 20
149.1991252514098
 30
0.0
 11
164.3044930318979
 21
149.1991252514098
 31
0.0
  0
LINE
  5
96E
330
1F
100
AcDbEntity
  8
実線
 62
     8
100
AcDbLine
 10
153.9503182922568
 20
149.1991278127683
 30
0.0
 11
166.7753182922575
 21
149.1991278127683
 31
0.0
  0
ARC
  5
96F
330
1F
100
AcDbEntity
  8
実線
 62
     8
100
AcDbCircle
 10
160.8208213584481
 20
142.3921740094105
 30
0.0
 40
1.425
100
AcDbArc
 50
90.0
 51
180.0
  0
LINE
  5
970
330
1F
100
AcDbEntity
  8
寸法線
 62
     8
100
AcDbLine
 10
118.0643852812614
 20
157.1574874290075
 30
0.0
 11
163.842542234183
 21
121.4504593117525
 31
0.0
  0
LINE
  5
971
330
1F
100
AcDbEntity
  8
寸法線
 62
     8
100
AcDbLine
 10
134.7538209243835
 20
147.8582515547122
 30
0.0
 11
151.6703182922579
 21
134.7120896071027
 31
0.0
  0
ENDSEC
  0
SECTION
  2
OBJECTS
  0
DICTIONARY
  5
C
330
0
100
AcDbDictionary
281
     1
  3
ACAD_DETAILVIEWSTYLE
350
639
  3
ACAD_GROUP
350
D
  3
ACAD_IMAGE_VARS
350
633
  3
ACAD_LAYOUT
350
1A
  3
ACAD_MLINESTYLE
350
17
  3
ACAD_PLOTSETTINGS
350
19
  3
ACAD_PLOTSTYLENAME
350
E
  3
ACAD_SCALELIST
350
47
  3
ACAD_SECTIONVIEWSTYLE
350
63A
  3
AcDbVariableDictionary
350
634
  3
APPDATA
350
631
  3
DWGPROPS
350
997
  0
DICTIONARY
  5
66F
330
2
100
AcDbDictionary
280
     1
281
     1
  3
ACAD_LAYERSTATES
360
670
  0
DICTIONARY
  5
639
102
{ACAD_REACTORS
330
C
102
}
330
C
100
AcDbDictionary
281
     1
  0
DICTIONARY
  5
D
102
{ACAD_REACTORS
330
C
102
}
330
C
100
AcDbDictionary
281
     1
  0
RASTERVARIABLES
  5
633
102
{ACAD_REACTORS
330
C
102
}
330
C
100
AcDbRasterVariables
 90
        0
 70
     1
 71
     1
 72
     1
  0
DICTIONARY
  5
1A
102
{ACAD_REACTORS
330
C
102
}
330
C
100
AcDbDictionary
281
     1
  3
Layout1
350
1E
  3
Layout2
350
26
  3
Model
350
22
  0
DICTIONARY
  5
17
102
{ACAD_REACTORS
330
C
102
}
330
C
100
AcDbDictionary
281
     1
  3
Standard
350
18
  0
DICTIONARY
  5
19
102
{ACAD_REACTORS
330
C
102
}
330
C
100
AcDbDictionary
281
     1
  0
ACDBDICTIONARYWDFLT
  5
E
102
{ACAD_REACTORS
330
C
102
}
330
C
100
AcDbDictionary
281
     1
  3
Normal
350
F
100
AcDbDictionaryWithDefault
340
F
  0
DICTIONARY
  5
47
102
{ACAD_REACTORS
330
C
102
}
330
C
100
AcDbDictionary
281
     1
  3
A0
350
48
  3
A1
350
49
  3
A2
350
4A
  3
A3
350
4B
  3
A4
350
4C
  3
A5
350
4D
  3
A6
350
4E
  3
A7
350
4F
  3
A8
350
50
  3
A9
350
51
  3
B0
350
52
  3
B1
350
53
  3
B2
350
54
  3
B3
350
55
  3
B4
350
56
  3
B5
350
57
  3
B6
350
58
  3
B7
350
59
  3
B8
350
5A
  3
B9
350
5B
  3
C0
350
5C
  3
C1
350
5D
  3
C2
350
5E
  3
C3
350
5F
  3
C4
350
60
  3
C5
350
61
  3
C6
350
62
  3
C7
350
63
  3
C8
350
64
  3
C9
350
65
  3
D0
350
66
  3
D1
350
67
  3
D2
350
68
  0
DICTIONARY
  5
63A
102
{ACAD_REACTORS
330
C
102
}
330
C
100
AcDbDictionary
281
     1
  0
DICTIONARY
  5
634
102
{ACAD_REACTORS
330
C
102
}
330
C
100
AcDbDictionary
281
     1
  0
DICTIONARY
  5
631
102
{ACAD_REACTORS
330
C
102
}
330
C
100
AcDbDictionary
281
     1
  0
XRECORD
  5
997
102
{ACAD_REACTORS
330
C
102
}
330
C
100
AcDbXrecord
280
     1
  1
DWGPROPS COOKIE
  2

  3

  4

  6

  7

  8
ModuleX
  9

300
=
301
=
302
=
303
=
304
=
305
=
306
=
307
=
308
=
309
=
 40
0.0
 41
2458025.526670451
 42
2458214.2797139
  1

 90
        0
  0
DICTIONARY
  5
670
102
{ACAD_REACTORS
330
66F
102
}
330
66F
100
AcDbDictionary
281
     1
  0
LAYOUT
  5
1E
102
{ACAD_REACTORS
330
1A
102
}
330
1A
100
AcDbPlotSettings
  1

  2
none_device
  4

  6

 40
0.0
 41
0.0
 42
0.0
 43
0.0
 44
0.0
 45
0.0
 46
0.0
 47
0.0
 48
0.0
 49
0.0
140
0.0
141
0.0
142
1.0
143
1.0
 70
   688
 72
     1
 73
     0
 74
     5
  7

 75
    16
147
1.0
148
0.0
149
0.0
100
AcDbLayout
  1
Layout1
 70
     1
 71
     1
 10
0.0
 20
0.0
 11
420.0
 21
297.0
 12
0.0
 22
0.0
 32
0.0
 14
1.000000000000000E+20
 24
1.000000000000000E+20
 34
1.000000000000000E+20
 15
-1.000000000000000E+20
 25
-1.000000000000000E+20
 35
-1.000000000000000E+20
146
0.0
 13
0.0
 23
0.0
 33
0.0
 16
1.0
 26
0.0
 36
0.0
 17
0.0
 27
1.0
 37
0.0
 76
     0
330
1B
  0
LAYOUT
  5
26
102
{ACAD_REACTORS
330
1A
102
}
330
1A
100
AcDbPlotSettings
  1

  2
none_device
  4

  6

 40
0.0
 41
0.0
 42
0.0
 43
0.0
 44
0.0
 45
0.0
 46
0.0
 47
0.0
 48
0.0
 49
0.0
140
0.0
141
0.0
142
1.0
143
1.0
 70
   688
 72
     1
 73
     0
 74
     5
  7

 75
    16
147
1.0
148
0.0
149
0.0
100
AcDbLayout
  1
Layout2
 70
     1
 71
     2
 10
0.0
 20
0.0
 11
0.0
 21
0.0
 12
0.0
 22
0.0
 32
0.0
 14
0.0
 24
0.0
 34
0.0
 15
0.0
 25
0.0
 35
0.0
146
0.0
 13
0.0
 23
0.0
 33
0.0
 16
1.0
 26
0.0
 36
0.0
 17
0.0
 27
1.0
 37
0.0
 76
     0
330
23
  0
LAYOUT
  5
22
102
{ACAD_REACTORS
330
1A
102
}
330
1A
100
AcDbPlotSettings
  1

  2
none_device
  4
Letter_(8.50_x_11.00_Inches)
  6

 40
6.35
 41
6.35
 42
6.35000508
 43
6.35000508
 44
215.9
 45
279.4
 46
0.0
 47
0.0
 48
0.0
 49
0.0
140
0.0
141
0.0
142
1.0
143
1.0
 70
  1712
 72
     1
 73
     0
 74
     0
  7

 75
     0
147
1.0
148
0.0
149
0.0
100
AcDbLayout
  1
Model
 70
     1
 71
     0
 10
0.0
 20
0.0
 11
210.0
 21
297.0
 12
0.0
 22
0.0
 32
0.0
 14
39.63953425855703
 24
88.62859459459463
 34
0.0
 15
173.6458213584488
 25
201.3991786971963
 35
0.0
146
0.0
 13
0.0
 23
0.0
 33
0.0
 16
1.0
 26
0.0
 36
0.0
 17
0.0
 27
1.0
 37
0.0
 76
     0
330
1F
331
29
  0
MLINESTYLE
  5
18
102
{ACAD_REACTORS
330
17
102
}
330
17
100
AcDbMlineStyle
  2
Standard
 70
     0
  3

 62
   256
 51
90.0
 52
90.0
 71
     2
 49
0.5
 62
   256
  6
BYLAYER
 49
-0.5
 62
   256
  6
BYLAYER
  0
ACDBPLACEHOLDER
  5
F
102
{ACAD_REACTORS
330
E
102
}
330
E
  0
SCALE
  5
48
102
{ACAD_REACTORS
330
47
102
}
330
47
100
AcDbScale
 70
     0
300
1:1
140
1.0
141
1.0
290
     1
  0
SCALE
  5
49
102
{ACAD_REACTORS
330
47
102
}
330
47
100
AcDbScale
 70
     0
300
1:2
140
1.0
141
2.0
290
     0
  0
SCALE
  5
4A
102
{ACAD_REACTORS
330
47
102
}
330
47
100
AcDbScale
 70
     0
300
1:4
140
1.0
141
4.0
290
     0
  0
SCALE
  5
4B
102
{ACAD_REACTORS
330
47
102
}
330
47
100
AcDbScale
 70
     0
300
1:5
140
1.0
141
5.0
290
     0
  0
SCALE
  5
4C
102
{ACAD_REACTORS
330
47
102
}
330
47
100
AcDbScale
 70
     0
300
1:8
140
1.0
141
8.0
290
     0
  0
SCALE
  5
4D
102
{ACAD_REACTORS
330
47
102
}
330
47
100
AcDbScale
 70
     0
300
1:10
140
1.0
141
10.0
290
     0
  0
SCALE
  5
4E
102
{ACAD_REACTORS
330
47
102
}
330
47
100
AcDbScale
 70
     0
300
1:16
140
1.0
141
16.0
290
     0
  0
SCALE
  5
4F
102
{ACAD_REACTORS
330
47
102
}
330
47
100
AcDbScale
 70
     0
300
1:20
140
1.0
141
20.0
290
     0
  0
SCALE
  5
50
102
{ACAD_REACTORS
330
47
102
}
330
47
100
AcDbScale
 70
     0
300
1:30
140
1.0
141
30.0
290
     0
  0
SCALE
  5
51
102
{ACAD_REACTORS
330
47
102
}
330
47
100
AcDbScale
 70
     0
300
1:40
140
1.0
141
40.0
290
     0
  0
SCALE
  5
52
102
{ACAD_REACTORS
330
47
102
}
330
47
100
AcDbScale
 70
     0
300
1:50
140
1.0
141
50.0
290
     0
  0
SCALE
  5
53
102
{ACAD_REACTORS
330
47
102
}
330
47
100
AcDbScale
 70
     0
300
1:100
140
1.0
141
100.0
290
     0
  0
SCALE
  5
54
102
{ACAD_REACTORS
330
47
102
}
330
47
100
AcDbScale
 70
     0
300
2:1
140
2.0
141
1.0
290
     0
  0
SCALE
  5
55
102
{ACAD_REACTORS
330
47
102
}
330
47
100
AcDbScale
 70
     0
300
4:1
140
4.0
141
1.0
290
     0
  0
SCALE
  5
56
102
{ACAD_REACTORS
330
47
102
}
330
47
100
AcDbScale
 70
     0
300
8:1
140
8.0
141
1.0
290
     0
  0
SCALE
  5
57
102
{ACAD_REACTORS
330
47
102
}
330
47
100
AcDbScale
 70
     0
300
10:1
140
10.0
141
1.0
290
     0
  0
SCALE
  5
58
102
{ACAD_REACTORS
330
47
102
}
330
47
100
AcDbScale
 70
     0
300
100:1
140
100.0
141
1.0
290
     0
  0
SCALE
  5
59
102
{ACAD_REACTORS
330
47
102
}
330
47
100
AcDbScale
 70
     0
300
1/128" = 1'-0"
140
0.0078125
141
12.0
290
     0
  0
SCALE
  5
5A
102
{ACAD_REACTORS
330
47
102
}
330
47
100
AcDbScale
 70
     0
300
1/64" = 1'-0"
140
0.015625
141
12.0
290
     0
  0
SCALE
  5
5B
102
{ACAD_REACTORS
330
47
102
}
330
47
100
AcDbScale
 70
     0
300
1/32" = 1'-0"
140
0.03125
141
12.0
290
     0
  0
SCALE
  5
5C
102
{ACAD_REACTORS
330
47
102
}
330
47
100
AcDbScale
 70
     0
300
1/16" = 1'-0"
140
0.0625
141
12.0
290
     0
  0
SCALE
  5
5D
102
{ACAD_REACTORS
330
47
102
}
330
47
100
AcDbScale
 70
     0
300
3/32" = 1'-0"
140
0.09375
141
12.0
290
     0
  0
SCALE
  5
5E
102
{ACAD_REACTORS
330
47
102
}
330
47
100
AcDbScale
 70
     0
300
1/8" = 1'-0"
140
0.125
141
12.0
290
     0
  0
SCALE
  5
5F
102
{ACAD_REACTORS
330
47
102
}
330
47
100
AcDbScale
 70
     0
300
3/16" = 1'-0"
140
0.1875
141
12.0
290
     0
  0
SCALE
  5
60
102
{ACAD_REACTORS
330
47
102
}
330
47
100
AcDbScale
 70
     0
300
1/4" = 1'-0"
140
0.25
141
12.0
290
     0
  0
SCALE
  5
61
102
{ACAD_REACTORS
330
47
102
}
330
47
100
AcDbScale
 70
     0
300
3/8" = 1'-0"
140
0.375
141
12.0
290
     0
  0
SCALE
  5
62
102
{ACAD_REACTORS
330
47
102
}
330
47
100
AcDbScale
 70
     0
300
1/2" = 1'-0"
140
0.5
141
12.0
290
     0
  0
SCALE
  5
63
102
{ACAD_REACTORS
330
47
102
}
330
47
100
AcDbScale
 70
     0
300
3/4" = 1'-0"
140
0.75
141
12.0
290
     0
  0
SCALE
  5
64
102
{ACAD_REACTORS
330
47
102
}
330
47
100
AcDbScale
 70
     0
300
1" = 1'-0"
140
1.0
141
12.0
290
     0
  0
SCALE
  5
65
102
{ACAD_REACTORS
330
47
102
}
330
47
100
AcDbScale
 70
     0
300
1-1/2" = 1'-0"
140
1.5
141
12.0
290
     0
  0
SCALE
  5
66
102
{ACAD_REACTORS
330
47
102
}
330
47
100
AcDbScale
 70
     0
300
3" = 1'-0"
140
3.0
141
12.0
290
     0
  0
SCALE
  5
67
102
{ACAD_REACTORS
330
47
102
}
330
47
100
AcDbScale
 70
     0
300
6" = 1'-0"
140
6.0
141
12.0
290
     0
  0
SCALE
  5
68
102
{ACAD_REACTORS
330
47
102
}
330
47
100
AcDbScale
 70
     0
300
1'-0" = 1'-0"
140
12.0
141
12.0
290
     0
  0
ENDSEC
  0
EOF
